  0
SECTION
  2
HEADER
  9
$ACADVER
  1
AC1024
  9
$ACADMAINTVER
 70
     6
  9
$DWGCODEPAGE
  3
ANSI_1252
  9
$INSBASE
 10
0.0
 20
0.0
 30
0.0
  9
$EXTMIN
 10
0.0
 20
0.0
 30
0.0
  9
$EXTMAX
 10
210.0
 20
297.0
 30
0.0
  9
$LIMMIN
 10
0.0
 20
0.0
  9
$LIMMAX
 10
210.0
 20
297.0
  9
$ORTHOMODE
 70
     0
  9
$REGENMODE
 70
     1
  9
$FILLMODE
 70
     1
  9
$QTEXTMODE
 70
     0
  9
$MIRRTEXT
 70
     1
  9
$LTSCALE
 40
1.0
  9
$ATTMODE
 70
     1
  9
$TEXTSIZE
 40
2.0
  9
$TRACEWID
 40
1.0
  9
$TEXTSTYLE
  7
Standard
  9
$CLAYER
  8
0
  9
$CELTYPE
  6
ByLayer
  9
$CECOLOR
 62
   256
  9
$CELTSCALE
 40
1.0
  9
$DISPSILH
 70
     0
  9
$DIMSCALE
 40
1.0
  9
$DIMASZ
 40
2.8
  9
$DIMEXO
 40
1.0
  9
$DIMDLI
 40
3.75
  9
$DIMRND
 40
0.0
  9
$DIMDLE
 40
0.0
  9
$DIMEXE
 40
1.0
  9
$DIMTP
 40
0.0
  9
$DIMTM
 40
0.0
  9
$DIMTXT
 40
2.0
  9
$DIMCEN
 40
2.5
  9
$DIMTSZ
 40
0.0
  9
$DIMTOL
 70
     0
  9
$DIMLIM
 70
     0
  9
$DIMTIH
 70
     1
  9
$DIMTOH
 70
     1
  9
$DIMSE1
 70
     0
  9
$DIMSE2
 70
     0
  9
$DIMTAD
 70
     1
  9
$DIMZIN
 70
     0
  9
$DIMBLK
  1

  9
$DIMASO
 70
     1
  9
$DIMSHO
 70
     1
  9
$DIMPOST
  1

  9
$DIMAPOST
  1

  9
$DIMALT
 70
     0
  9
$DIMALTD
 70
     3
  9
$DIMALTF
 40
0.0393700787
  9
$DIMLFAC
 40
1.0
  9
$DIMTOFL
 70
     1
  9
$DIMTVP
 40
0.0
  9
$DIMTIX
 70
     0
  9
$DIMSOXD
 70
     0
  9
$DIMSAH
 70
     0
  9
$DIMBLK1
  1

  9
$DIMBLK2
  1

  9
$DIMSTYLE
  2
ISO-25
  9
$DIMCLRD
 70
     0
  9
$DIMCLRE
 70
     0
  9
$DIMCLRT
 70
     0
  9
$DIMTFAC
 40
1.0
  9
$DIMGAP
 40
1.524
  9
$DIMJUST
 70
     0
  9
$DIMSD1
 70
     0
  9
$DIMSD2
 70
     0
  9
$DIMTOLJ
 70
     0
  9
$DIMTZIN
 70
     0
  9
$DIMALTZ
 70
     0
  9
$DIMALTTZ
 70
     0
  9
$DIMUPT
 70
     0
  9
$DIMDEC
 70
     2
  9
$DIMTDEC
 70
     2
  9
$DIMALTU
 70
     2
  9
$DIMALTTD
 70
     3
  9
$DIMTXSTY
  7
Standard
  9
$DIMAUNIT
 70
     0
  9
$DIMADEC
 70
     2
  9
$DIMALTRND
 40
0.0
  9
$DIMAZIN
 70
     0
  9
$DIMDSEP
 70
    44
  9
$DIMATFIT
 70
     3
  9
$DIMFRAC
 70
     0
  9
$DIMLDRBLK
  1

  9
$DIMLUNIT
 70
     2
  9
$DIMLWD
 70
    -2
  9
$DIMLWE
 70
    -2
  9
$DIMTMOVE
 70
     0
  9
$DIMFXL
 40
1.0
  9
$DIMFXLON
 70
     0
  9
$DIMJOGANG
 40
0.7853981634
  9
$DIMTFILL
 70
     0
  9
$DIMTFILLCLR
 70
     0
  9
$DIMARCSYM
 70
     0
  9
$DIMLTYPE
  6

  9
$DIMLTEX1
  6

  9
$DIMLTEX2
  6

  9
$DIMTXTDIRECTION
 70
     0
  9
$LUNITS
 70
     2
  9
$LUPREC
 70
     2
  9
$SKETCHINC
 40
1.0
  9
$FILLETRAD
 40
10.0
  9
$AUNITS
 70
     0
  9
$AUPREC
 70
     2
  9
$MENU
  1
.
  9
$ELEVATION
 40
0.0
  9
$PELEVATION
 40
0.0
  9
$THICKNESS
 40
0.0
  9
$LIMCHECK
 70
     0
  9
$CHAMFERA
 40
0.0
  9
$CHAMFERB
 40
0.0
  9
$CHAMFERC
 40
0.0
  9
$CHAMFERD
 40
0.0
  9
$SKPOLY
 70
     0
  9
$TDCREATE
 40
2458802.389077951
  9
$TDUCREATE
 40
2458802.347411285
  9
$TDUPDATE
 40
2458802.389078322
  9
$TDUUPDATE
 40
2458802.347411655
  9
$TDINDWG
 40
0.0000000116
  9
$TDUSRTIMER
 40
0.0000000116
  9
$USRTIMER
 70
     1
  9
$ANGBASE
 50
0.0
  9
$ANGDIR
 70
     0
  9
$PDMODE
 70
     0
  9
$PDSIZE
 40
-1.0
  9
$PLINEWID
 40
0.0
  9
$SPLFRAME
 70
     0
  9
$SPLINETYPE
 70
     6
  9
$SPLINESEGS
 70
     8
  9
$HANDSEED
  5
185
  9
$SURFTAB1
 70
     6
  9
$SURFTAB2
 70
     6
  9
$SURFTYPE
 70
     6
  9
$SURFU
 70
     6
  9
$SURFV
 70
     6
  9
$UCSBASE
  2

  9
$UCSNAME
  2

  9
$UCSORG
 10
0.0
 20
0.0
 30
0.0
  9
$UCSXDIR
 10
1.0
 20
0.0
 30
0.0
  9
$UCSYDIR
 10
0.0
 20
1.0
 30
0.0
  9
$UCSORTHOREF
  2

  9
$UCSORTHOVIEW
 70
     0
  9
$UCSORGTOP
 10
0.0
 20
0.0
 30
0.0
  9
$UCSORGBOTTOM
 10
0.0
 20
0.0
 30
0.0
  9
$UCSORGLEFT
 10
0.0
 20
0.0
 30
0.0
  9
$UCSORGRIGHT
 10
0.0
 20
0.0
 30
0.0
  9
$UCSORGFRONT
 10
0.0
 20
0.0
 30
0.0
  9
$UCSORGBACK
 10
0.0
 20
0.0
 30
0.0
  9
$PUCSBASE
  2

  9
$PUCSNAME
  2

  9
$PUCSORG
 10
0.0
 20
0.0
 30
0.0
  9
$PUCSXDIR
 10
1.0
 20
0.0
 30
0.0
  9
$PUCSYDIR
 10
0.0
 20
1.0
 30
0.0
  9
$PUCSORTHOREF
  2

  9
$PUCSORTHOVIEW
 70
     0
  9
$PUCSORGTOP
 10
0.0
 20
0.0
 30
0.0
  9
$PUCSORGBOTTOM
 10
0.0
 20
0.0
 30
0.0
  9
$PUCSORGLEFT
 10
0.0
 20
0.0
 30
0.0
  9
$PUCSORGRIGHT
 10
0.0
 20
0.0
 30
0.0
  9
$PUCSORGFRONT
 10
0.0
 20
0.0
 30
0.0
  9
$PUCSORGBACK
 10
0.0
 20
0.0
 30
0.0
  9
$USERI1
 70
     0
  9
$USERI2
 70
     0
  9
$USERI3
 70
     0
  9
$USERI4
 70
     0
  9
$USERI5
 70
     0
  9
$USERR1
 40
0.0
  9
$USERR2
 40
0.0
  9
$USERR3
 40
0.0
  9
$USERR4
 40
0.0
  9
$USERR5
 40
0.0
  9
$WORLDVIEW
 70
     1
  9
$SHADEDGE
 70
     3
  9
$SHADEDIF
 70
    70
  9
$TILEMODE
 70
     1
  9
$MAXACTVP
 70
    64
  9
$PINSBASE
 10
0.0
 20
0.0
 30
0.0
  9
$PLIMCHECK
 70
     0
  9
$PEXTMIN
 10
1.0000000000E+20
 20
1.0000000000E+20
 30
1.0000000000E+20
  9
$PEXTMAX
 10
-1.0000000000E+20
 20
-1.0000000000E+20
 30
-1.0000000000E+20
  9
$PLIMMIN
 10
0.0
 20
0.0
  9
$PLIMMAX
 10
420.0
 20
297.0
  9
$UNITMODE
 70
     0
  9
$VISRETAIN
 70
     1
  9
$PLINEGEN
 70
     0
  9
$PSLTSCALE
 70
     1
  9
$TREEDEPTH
 70
  3020
  9
$CMLSTYLE
  2
Standard
  9
$CMLJUST
 70
     0
  9
$CMLSCALE
 40
20.0
  9
$PROXYGRAPHICS
 70
     1
  9
$MEASUREMENT
 70
     1
  9
$CELWEIGHT
370
    -1
  9
$ENDCAPS
280
     0
  9
$JOINSTYLE
280
     0
  9
$LWDISPLAY
290
     1
  9
$INSUNITS
 70
     4
  9
$HYPERLINKBASE
  1

  9
$STYLESHEET
  1

  9
$XEDIT
290
     1
  9
$CEPSNTYPE
380
     0
  9
$PSTYLEMODE
290
     1
  9
$FINGERPRINTGUID
  2
{d801b86f-9340-47fd-8b1f-b097ddf1f2ca}
  9
$VERSIONGUID
  2
{FAEB1C32-E019-11D5-929B-00C0DF256EC4}
  9
$EXTNAMES
290
     1
  9
$PSVPSCALE
 40
0.0
  9
$OLESTARTUP
290
     0
  9
$SORTENTS
280
   127
  9
$INDEXCTL
280
     0
  9
$HIDETEXT
280
     1
  9
$XCLIPFRAME
280
     2
  9
$HALOGAP
280
     0
  9
$OBSCOLOR
 70
   257
  9
$OBSLTYPE
280
     0
  9
$INTERSECTIONDISPLAY
280
     0
  9
$INTERSECTIONCOLOR
 70
   257
  9
$DIMASSOC
280
     2
  9
$PROJECTNAME
  1

  9
$CAMERADISPLAY
290
     0
  9
$LENSLENGTH
 40
50.0
  9
$CAMERAHEIGHT
 40
0.0
  9
$STEPSPERSEC
 40
2.0
  9
$STEPSIZE
 40
6.0
  9
$3DDWFPREC
 40
2.0
  9
$PSOLWIDTH
 40
5.0
  9
$PSOLHEIGHT
 40
80.0
  9
$LOFTANG1
 40
1.5707963268
  9
$LOFTANG2
 40
1.5707963268
  9
$LOFTMAG1
 40
0.0
  9
$LOFTMAG2
 40
0.0
  9
$LOFTPARAM
 70
     7
  9
$LOFTNORMALS
280
     1
  9
$LATITUDE
 40
37.795
  9
$LONGITUDE
 40
-122.394
  9
$NORTHDIRECTION
 40
0.0
  9
$TIMEZONE
 70
 -8000
  9
$LIGHTGLYPHDISPLAY
280
     1
  9
$TILEMODELIGHTSYNCH
280
     1
  9
$CMATERIAL
347
44
  9
$SOLIDHIST
280
     0
  9
$SHOWHIST
280
     1
  9
$DWFFRAME
280
     2
  9
$DGNFRAME
280
     2
  9
$REALWORLDSCALE
290
     1
  9
$INTERFERECOLOR
 62
   256
  9
$CSHADOW
280
     0
  9
$SHADOWPLANELOCATION
 40
0.0
  0
ENDSEC
  0
SECTION
  2
CLASSES
  0
CLASS
  1
ACDBDICTIONARYWDFLT
  2
AcDbDictionaryWithDefault
  3
ObjectDBX Classes
 90
        0
 91
        3
280
     0
281
     0
  0
CLASS
  1
VISUALSTYLE
  2
AcDbVisualStyle
  3
ObjectDBX Classes
 90
     4095
 91
        3
280
     0
281
     0
  0
CLASS
  1
MATERIAL
  2
AcDbMaterial
  3
ObjectDBX Classes
 90
     1153
 91
        3
280
     0
281
     0
  0
CLASS
  1
SCALE
  2
AcDbScale
  3
ObjectDBX Classes
 90
     1153
 91
        3
280
     0
281
     0
  0
CLASS
  1
TABLESTYLE
  2
AcDbTableStyle
  3
ObjectDBX Classes
 90
     4095
 91
        3
280
     0
281
     0
  0
CLASS
  1
MLEADERSTYLE
  2
AcDbMLeaderStyle
  3
ACDB_MLEADERSTYLE_CLASS
 90
     4095
 91
        3
280
     0
281
     0
  0
CLASS
  1
SUN
  2
AcDbSun
  3
SCENEOE
 90
     1153
 91
        3
280
     0
281
     0
  0
CLASS
  1
DICTIONARYVAR
  2
AcDbDictionaryVar
  3
ObjectDBX Classes
 90
        0
 91
        3
280
     0
281
     0
  0
CLASS
  1
CELLSTYLEMAP
  2
AcDbCellStyleMap
  3
ObjectDBX Classes
 90
     1152
 91
        3
280
     0
281
     0
  0
ENDSEC
  0
SECTION
  2
TABLES
  0
TABLE
  2
VPORT
  5
8
330
0
100
AcDbSymbolTable
 70
     1
  0
VPORT
  5
29
330
8
100
AcDbSymbolTableRecord
100
AcDbViewportTableRecord
  2
*Active
 70
     0
 10
0.0
 20
0.0
 11
1.0
 21
1.0
 12
105.0
 22
148.5
 13
0.0
 23
0.0
 14
10.0
 24
10.0
 15
10.0
 25
10.0
 16
0.0
 26
0.0
 36
1.0
 17
0.0
 27
0.0
 37
0.0
 40
297.0
 41
0.7070707071
 42
50.0
 43
0.0
 44
0.0
 50
0.0
 51
0.0
 71
     0
 72
  2000
 73
     1
 74
     3
 75
     0
 76
     0
 77
     0
 78
     0
281
     0
 65
     1
110
0.0
120
0.0
130
0.0
111
1.0
121
0.0
131
0.0
112
0.0
122
1.0
132
0.0
 79
     0
146
0.0
348
2F
 60
     3
 61
     5
292
     1
282
     1
141
0.0
142
0.0
 63
   250
361
6D
  0
ENDTAB
  0
TABLE
  2
LTYPE
  5
5
330
0
100
AcDbSymbolTable
 70
     6
  0
LTYPE
  5
14
330
5
100
AcDbSymbolTableRecord
100
AcDbLinetypeTableRecord
  2
ByBlock
 70
     0
  3

 72
    65
 73
     0
 40
0.0
  0
LTYPE
  5
15
330
5
100
AcDbSymbolTableRecord
100
AcDbLinetypeTableRecord
  2
ByLayer
 70
     0
  3

 72
    65
 73
     0
 40
0.0
  0
LTYPE
  5
16
330
5
100
AcDbSymbolTableRecord
100
AcDbLinetypeTableRecord
  2
Continuous
 70
     0
  3
Solid line
 72
    65
 73
     0
 40
0.0
  0
LTYPE
  5
6E
330
5
100
AcDbSymbolTableRecord
100
AcDbLinetypeTableRecord
  2
HIDDEN
 70
     0
  3
Hidden __ __ __ __ __ __ __ __ __ __ __ __ __ __
 72
    65
 73
     2
 40
1.905
 49
1.27
 74
     0
 49
-0.635
 74
     0
  0
LTYPE
  5
6F
330
5
100
AcDbSymbolTableRecord
100
AcDbLinetypeTableRecord
  2
PHANTOM
 70
     0
  3
Phantom ______  __  __  ______  __  __  ______
 72
    65
 73
     6
 40
12.7
 49
6.35
 74
     0
 49
-1.27
 74
     0
 49
1.27
 74
     0
 49
-1.27
 74
     0
 49
1.27
 74
     0
 49
-1.27
 74
     0
  0
LTYPE
  5
70
330
5
100
AcDbSymbolTableRecord
100
AcDbLinetypeTableRecord
  2
CENTER
 70
     0
  3
Center ____ _ ____ _ ____ _ ____ _ ____ _ ____
 72
    65
 73
     4
 40
10.16
 49
6.35
 74
     0
 49
-1.27
 74
     0
 49
1.27
 74
     0
 49
-1.27
 74
     0
  0
LTYPE
  5
71
330
5
100
AcDbSymbolTableRecord
100
AcDbLinetypeTableRecord
  2
CENTERX2
 70
     0
  3
Center (2x) ________  __  ________  __  _____
 72
    65
 73
     4
 40
20.32
 49
12.7
 74
     0
 49
-2.54
 74
     0
 49
2.54
 74
     0
 49
-2.54
 74
     0
  0
LTYPE
  5
72
330
5
100
AcDbSymbolTableRecord
100
AcDbLinetypeTableRecord
  2
DOT2
 70
     0
  3
Dot (.5x) ........................................
 72
    65
 73
     2
 40
0.635
 49
0.0
 74
     0
 49
-0.635
 74
     0
  0
ENDTAB
  0
TABLE
  2
LAYER
  5
2
330
0
100
AcDbSymbolTable
 70
     1
  0
LAYER
  5
10
330
2
100
AcDbSymbolTableRecord
100
AcDbLayerTableRecord
  2
0
 70
     0
 62
     7
  6
Continuous
370
    -3
390
F
347
46
  0
ENDTAB
  0
TABLE
  2
STYLE
  5
3
330
0
100
AcDbSymbolTable
 70
     1
  0
STYLE
  5
11
330
3
100
AcDbSymbolTableRecord
100
AcDbTextStyleTableRecord
  2
Standard
 70
     0
 40
0.0
 41
1.0
 50
0.0
 71
     0
 42
2.0
  3
txt
  4

  0
ENDTAB
  0
TABLE
  2
VIEW
  5
6
330
0
100
AcDbSymbolTable
 70
     0
  0
ENDTAB
  0
TABLE
  2
UCS
  5
7
330
0
100
AcDbSymbolTable
 70
     0
  0
ENDTAB
  0
TABLE
  2
APPID
  5
9
330
0
100
AcDbSymbolTable
 70
     1
  0
APPID
  5
12
330
9
100
AcDbSymbolTableRecord
100
AcDbRegAppTableRecord
  2
ACAD
 70
     0
  0
ENDTAB
  0
TABLE
  2
DIMSTYLE
  5
A
330
0
100
AcDbSymbolTable
 70
     1
100
AcDbDimStyleTable
  0
DIMSTYLE
105
27
330
A
100
AcDbSymbolTableRecord
100
AcDbDimStyleTableRecord
  2
ISO-25
 70
     0
 41
2.5
 42
0.625
 43
3.75
 44
1.25
 73
     0
 74
     0
 77
     1
 78
     8
140
2.5
141
2.5
143
0.0393700787
147
0.625
171
     3
172
     1
178
     0
271
     2
272
     2
274
     3
278
    44
283
     0
284
     8
340
11
  0
ENDTAB
  0
TABLE
  2
BLOCK_RECORD
  5
1
330
0
100
AcDbSymbolTable
 70
     1
  0
BLOCK_RECORD
  5
1F
330
1
100
AcDbSymbolTableRecord
100
AcDbBlockTableRecord
  2
*Model_Space
340
22
 70
     0
280
     1
281
     0
  0
BLOCK_RECORD
  5
1B
330
1
100
AcDbSymbolTableRecord
100
AcDbBlockTableRecord
  2
*Paper_Space
340
1E
 70
     0
280
     1
281
     0
  0
BLOCK_RECORD
  5
23
330
1
100
AcDbSymbolTableRecord
100
AcDbBlockTableRecord
  2
*Paper_Space0
340
26
 70
     0
280
     1
281
     0
  0
ENDTAB
  0
ENDSEC
  0
SECTION
  2
BLOCKS
  0
BLOCK
  5
20
330
1F
100
AcDbEntity
  8
0
100
AcDbBlockBegin
  2
*Model_Space
 70
     0
 10
0.0
 20
0.0
 30
0.0
  3
*Model_Space
  1

  0
ENDBLK
  5
21
330
1F
100
AcDbEntity
  8
0
100
AcDbBlockEnd
  0
BLOCK
  5
1C
330
1B
100
AcDbEntity
 67
     1
  8
0
100
AcDbBlockBegin
  2
*Paper_Space
 70
     0
 10
0.0
 20
0.0
 30
0.0
  3
*Paper_Space
  1

  0
ENDBLK
  5
1D
330
1B
100
AcDbEntity
 67
     1
  8
0
100
AcDbBlockEnd
  0
BLOCK
  5
24
330
23
100
AcDbEntity
  8
0
100
AcDbBlockBegin
  2
*Paper_Space0
 70
     0
 10
0.0
 20
0.0
 30
0.0
  3
*Paper_Space0
  1

  0
ENDBLK
  5
25
330
23
100
AcDbEntity
  8
0
100
AcDbBlockEnd
  0
ENDSEC
  0
SECTION
  2
ENTITIES
  0
ARC
  5
73
330
1F
100
AcDbEntity
  8
0
  6
Continuous
 62
     7
100
AcDbCircle
 10
122.1810688167
 20
298.3922516412
 30
0.0
 40
3.0
100
AcDbArc
 50
270.0
 51
0.0
  0
ARC
  5
74
330
1F
100
AcDbEntity
  8
0
  6
Continuous
 62
     7
100
AcDbCircle
 10
28.1810688167
 20
298.3922516412
 30
0.0
 40
3.000000000000004
100
AcDbArc
 50
180.0
 51
270.0
  0
LINE
  5
75
330
1F
100
AcDbEntity
  8
0
  6
Continuous
 62
     7
100
AcDbLine
 10
25.1810646153
 20
320.3922540373
 30
0.0
 11
25.1810742266
 21
298.3922524105
 31
0.0
  0
LINE
  5
76
330
1F
100
AcDbEntity
  8
0
  6
Continuous
 62
     7
100
AcDbLine
 10
125.1810713904
 20
298.3922542142
 30
0.0
 11
125.1810655044
 21
320.3922493887
 31
0.0
  0
ARC
  5
77
330
1F
100
AcDbEntity
  8
0
  6
Continuous
 62
     7
100
AcDbCircle
 10
31.7310688167
 20
295.2316008278
 30
0.0
 40
0.8000000000000126
100
AcDbArc
 50
180.0
 51
214.5385093531
  0
ARC
  5
78
330
1F
100
AcDbEntity
  8
0
  6
Continuous
 62
     7
100
AcDbCircle
 10
40.6310688167
 20
295.2316008278
 30
0.0
 40
0.8000000000000256
100
AcDbArc
 50
325.4614906469
 51
0.0
  0
LINE
  5
79
330
1F
100
AcDbEntity
  8
0
  6
Continuous
 62
     7
100
AcDbLine
 10
41.4310684985
 20
295.2316011128
 30
0.0
 11
41.4310721187
 21
295.3922591623
 31
0.0
  0
LINE
  5
7A
330
1F
100
AcDbEntity
  8
0
  6
Continuous
 62
     7
100
AcDbLine
 10
30.9310735436
 20
295.3922507623
 30
0.0
 11
30.9310624728
 21
295.2316056176
 31
0.0
  0
ARC
  5
7B
330
1F
100
AcDbEntity
  8
0
  6
Continuous
 62
     7
100
AcDbCircle
 10
36.1810688167
 20
298.2944068137
 30
0.0
 40
6.202155172414049
100
AcDbArc
 50
296.2308575656
 51
325.4614906469
  0
ARC
  5
7C
330
1F
100
AcDbEntity
  8
0
  6
Continuous
 62
     7
100
AcDbCircle
 10
36.1810688167
 20
298.2944068137
 30
0.0
 40
6.202155172413853
100
AcDbArc
 50
214.5385093531
 51
243.7691424345
  0
ARC
  5
7D
330
1F
100
AcDbEntity
  8
0
  6
Continuous
 62
     7
100
AcDbCircle
 10
109.7310688167
 20
295.2316008278
 30
0.0
 40
0.799999999999983
100
AcDbArc
 50
180.0
 51
214.5385093531
  0
ARC
  5
7E
330
1F
100
AcDbEntity
  8
0
  6
Continuous
 62
     7
100
AcDbCircle
 10
118.6310688167
 20
295.2316008278
 30
0.0
 40
0.8000000000000114
100
AcDbArc
 50
325.4614906469
 51
0.0
  0
LINE
  5
7F
330
1F
100
AcDbEntity
  8
0
  6
Continuous
 62
     7
100
AcDbLine
 10
119.4310732149
 20
295.2316072082
 30
0.0
 11
119.4310676556
 21
295.3922513548
 31
0.0
  0
LINE
  5
80
330
1F
100
AcDbEntity
  8
0
  6
Continuous
 62
     7
100
AcDbLine
 10
108.9310653552
 20
295.3922494072
 30
0.0
 11
108.9310709144
 21
295.2316052606
 31
0.0
  0
ARC
  5
81
330
1F
100
AcDbEntity
  8
0
  6
Continuous
 62
     7
100
AcDbCircle
 10
114.1810688167
 20
298.2944068137
 30
0.0
 40
6.202155172414007
100
AcDbArc
 50
296.2308575656
 51
325.4614906469
  0
ARC
  5
82
330
1F
100
AcDbEntity
  8
0
  6
Continuous
 62
     7
100
AcDbCircle
 10
114.1810688167
 20
298.2944068137
 30
0.0
 40
6.202155172413856
100
AcDbArc
 50
214.5385093531
 51
243.7691424345
  0
LINE
  5
83
330
1F
100
AcDbEntity
  8
0
  6
Continuous
 62
     7
100
AcDbLine
 10
100.244688662
 20
321.9177073851
 30
0.0
 11
97.1553387488
 21
321.9177008194
 31
0.0
  0
LINE
  5
84
330
1F
100
AcDbEntity
  8
0
  6
Continuous
 62
     7
100
AcDbLine
 10
110.1810703471
 20
323.3922535073
 30
0.0
 11
110.1636131396
 21
324.3922578481
 31
0.0
  0
LINE
  5
85
330
1F
100
AcDbEntity
  8
0
  6
Continuous
 62
     7
100
AcDbLine
 10
52.7159781647
 20
324.3922447484
 30
0.0
 11
52.6985209572
 21
325.3922490891
 31
0.0
  0
LINE
  5
86
330
1F
100
AcDbEntity
  8
0
  6
Continuous
 62
     7
100
AcDbLine
 10
39.6636193838
 20
325.3922539332
 30
0.0
 11
39.6287094744
 21
323.3922467049
 31
0.0
  0
LINE
  5
87
330
1F
100
AcDbEntity
  8
0
  6
Continuous
 62
     7
100
AcDbLine
 10
30.1810604029
 20
323.3922553368
 30
0.0
 11
30.2334320252
 21
320.3922423145
 31
0.0
  0
LINE
  5
88
330
1F
100
AcDbEntity
  8
0
  6
Continuous
 62
     7
100
AcDbLine
 10
120.1287018197
 20
320.3922546591
 30
0.0
 11
120.1810704092
 21
323.3922590492
 31
0.0
  0
SPLINE
  5
89
330
1F
100
AcDbEntity
  8
0
  6
Continuous
 62
     7
100
AcDbSpline
210
0.0
220
0.0
230
1.0
 70
     8
 71
     3
 72
    13
 73
     9
 74
     0
 42
0.000000001
 43
0.00000001
 40
0.0
 40
0.0
 40
0.0
 40
0.0
 40
0.2276443774023134
 40
0.420875621596259
 40
0.5896270781343101
 40
0.7489703246372111
 40
0.9204117017005026
 40
1.0
 40
1.0
 40
1.0
 40
1.0
 10
106.8378433616728
 20
87.44688279029583
 30
0.0
 10
106.8410825536595
 20
87.6343524372531
 30
0.0
 10
106.8470712670925
 20
87.98095183537535
 30
0.0
 10
106.6432723427698
 20
88.4263686839402
 30
0.0
 10
106.3793026888018
 20
88.75219918247193
 30
0.0
 10
106.0679831003969
 20
88.98326735270419
 30
0.0
 10
105.8120819382578
 20
89.11858690353219
 30
0.0
 10
105.6393483279446
 20
89.1683426729928
 30
0.0
 10
105.5845835911297
 20
89.18411760882948
 30
0.0
  0
SPLINE
  5
8A
330
1F
100
AcDbEntity
  8
0
  6
Continuous
 62
     7
100
AcDbSpline
210
0.0
220
0.0
230
1.0
 70
     8
 71
     3
 72
    12
 73
     8
 74
     0
 42
0.000000001
 43
0.00000001
 40
0.0
 40
0.0
 40
0.0
 40
0.0
 40
0.2293413999944443
 40
0.4192769596104535
 40
0.6296865424480467
 40
0.8374522703913883
 40
1.0
 40
1.0
 40
1.0
 40
1.0
 10
103.3308277653636
 20
89.4554450554596
 30
0.0
 10
103.1588119072344
 20
89.44486626481216
 30
0.0
 10
102.8443362565104
 20
89.4255263498246
 30
0.0
 10
102.3685765102834
 20
89.24227949620743
 30
0.0
 10
101.9522926687167
 20
88.92009691220893
 30
0.0
 10
101.6605533784896
 20
88.48961078383319
 30
0.0
 10
101.6153913429929
 20
88.16844897380918
 30
0.0
 10
101.5955676336873
 20
88.0274761790274
 30
0.0
  0
SPLINE
  5
8B
330
1F
100
AcDbEntity
  8
0
  6
Continuous
 62
     7
100
AcDbSpline
210
0.0
220
0.0
230
1.0
 70
     8
 71
     3
 72
    10
 73
     6
 74
     0
 42
0.000000001
 43
0.00000001
 40
0.0
 40
0.0
 40
0.0
 40
0.0
 40
0.1692359619191156
 40
0.9902764756606824
 40
1.0
 40
1.0
 40
1.0
 40
1.0
 10
104.9649236863659
 20
89.35140944670773
 30
0.0
 10
104.9244893904068
 20
89.35978400256076
 30
0.0
 10
104.6878899605685
 20
89.40878733235729
 30
0.0
 10
104.4096440761293
 20
89.45050920780346
 30
0.0
 10
104.2017541809422
 20
89.45797810404491
 30
0.0
 10
104.1993209720368
 20
89.45806552236233
 30
0.0
  0
LINE
  5
8C
330
1F
100
AcDbEntity
  8
0
  6
Continuous
 62
     7
100
AcDbLine
 10
101.5760507895
 20
88.02580068
 30
0.0
 11
101.5111146255
 21
87.4400199029
 31
0.0
  0
LINE
  5
8D
330
1F
100
AcDbEntity
  8
0
  6
Continuous
 62
     7
100
AcDbLine
 10
106.7788550338
 20
86.8561048723
 30
0.0
 11
106.8437847454
 21
87.4418819241
 31
0.0
  0
LINE
  5
8E
330
1F
100
AcDbEntity
  8
0
  6
Continuous
 62
     7
100
AcDbLine
 10
105.148375532
 20
88.9819992034
 30
0.0
 11
105.1182131699
 21
88.8326292361
 31
0.0
  0
LINE
  5
8F
330
1F
100
AcDbEntity
  8
0
  6
Continuous
 62
     7
100
AcDbLine
 10
103.4768351427
 20
89.0256760763
 30
0.0
 11
103.4797785828
 21
89.162436943
 31
0.0
  0
LINE
  5
90
330
1F
100
AcDbEntity
  8
0
  6
Continuous
 62
     7
100
AcDbLine
 10
105.265096837
 20
89.2375658425
 30
0.0
 11
105.2148874476
 21
88.9889122024
 31
0.0
  0
LINE
  5
91
330
1F
100
AcDbEntity
  8
0
  6
Continuous
 62
     7
100
AcDbLine
 10
103.5934882558
 20
88.9983132701
 30
0.0
 11
103.6039921868
 21
89.4855971181
 31
0.0
  0
LINE
  5
92
330
1F
100
AcDbEntity
  8
0
  6
Continuous
 62
     7
100
AcDbLine
 10
14.5361851111
 20
87.1602745847
 30
0.0
 11
14.6660483868
 21
86.5744982736
 31
0.0
  0
LINE
  5
93
330
1F
100
AcDbEntity
  8
0
  6
Continuous
 62
     7
100
AcDbLine
 10
19.8404166804
 20
87.7216280062
 30
0.0
 11
19.7105534046
 21
88.3074043173
 31
0.0
  0
ARC
  5
94
330
1F
100
AcDbEntity
  8
0
  6
Continuous
 62
     7
100
AcDbCircle
 10
16.0006287582
 20
87.4849345358
 30
0.0
 40
1.500000000000009
100
AcDbArc
 50
116.0458786118
 51
192.5
  0
ARC
  5
95
330
1F
100
AcDbEntity
  8
0
  6
Continuous
 62
     7
100
AcDbCircle
 10
18.2461095745
 20
87.9827456479
 30
0.0
 40
1.500000000000008
100
AcDbArc
 50
12.5
 51
88.9541213882
  0
LINE
  5
96
330
1F
100
AcDbEntity
  8
0
  6
Continuous
 62
     7
100
AcDbLine
 10
15.7887889953
 20
86.8234022813
 30
0.0
 11
15.7890900812
 21
86.8220425949
 31
0.0
  0
LINE
  5
97
330
1F
100
AcDbEntity
  8
0
  6
Continuous
 62
     7
100
AcDbLine
 10
17.55841772
 20
89.4025139266
 30
0.0
 11
17.5684654021
 21
89.3261953647
 31
0.0
  0
LINE
  5
98
330
1F
100
AcDbEntity
  8
0
  6
Continuous
 62
     7
100
AcDbLine
 10
15.9419180307
 20
88.9655991638
 30
0.0
 11
15.9293227229
 21
89.0055458646
 31
0.0
  0
LINE
  5
99
330
1F
100
AcDbEntity
  8
0
  6
Continuous
 62
     7
100
AcDbLine
 10
16.0470174484
 20
88.9888996337
 30
0.0
 11
16.0238689252
 21
89.0623130485
 31
0.0
  0
LINE
  5
9A
330
1F
100
AcDbEntity
  8
0
  6
Continuous
 62
     7
100
AcDbLine
 10
26.6318382888
 20
43.3831886074
 30
0.0
 11
29.7870617045
 21
-33.8308110861
 31
0.0
  0
LINE
  5
9B
330
1F
100
AcDbEntity
  8
0
  6
Continuous
 62
     7
100
AcDbLine
 10
120.5750696855
 20
-33.8308103942
 30
0.0
 11
123.730301577
 21
43.383193489
 31
0.0
  0
ARC
  5
9C
330
1F
100
AcDbEntity
  8
0
  6
Continuous
 62
     7
100
AcDbCircle
 10
75.1810688167
 20
-31.9758610107
 30
0.0
 40
45.43188734806108
100
AcDbArc
 50
182.34
 51
357.66
  0
ARC
  5
9D
330
1F
100
AcDbEntity
  8
0
  6
Continuous
 62
     7
100
AcDbCircle
 10
232.1810688167
 20
43.3831911894
 30
0.0
 40
3.99999999999997
100
AcDbArc
 50
0.0
 51
58.5825167514
  0
ARC
  5
9E
330
1F
100
AcDbEntity
  8
0
  6
Continuous
 62
     7
100
AcDbCircle
 10
-81.8189311833
 20
43.3831911894
 30
0.0
 40
3.999999999999958
100
AcDbArc
 50
121.4174832486
 51
180.0
  0
ARC
  5
9F
330
1F
100
AcDbEntity
  8
0
  6
Continuous
 62
     7
100
AcDbCircle
 10
84.9874881081
 20
-229.7021773003
 30
0.0
 40
323.999999999996
100
AcDbArc
 50
102.3468655875
 51
121.4174832486
  0
ARC
  5
A0
330
1F
100
AcDbEntity
  8
0
  6
Continuous
 62
     7
100
AcDbCircle
 10
84.9874881081
 20
-229.7021773003
 30
0.0
 40
323.999999999996
100
AcDbArc
 50
101.2401982988
 51
101.6300374409
  0
ARC
  5
A1
330
1F
100
AcDbEntity
  8
0
  6
Continuous
 62
     7
100
AcDbCircle
 10
65.3746495253
 20
-229.7021773003
 30
0.0
 40
323.999999999996
100
AcDbArc
 50
58.5825167514
 51
78.7598017012
  0
LINE
  5
A2
330
1F
100
AcDbEntity
  8
0
  6
Continuous
 62
     7
100
AcDbLine
 10
15.6810689869
 20
86.7995222588
 30
0.0
 11
15.6810690957
 21
86.7984082086
 31
0.0
  0
LINE
  5
A3
330
1F
100
AcDbEntity
  8
0
  6
Continuous
 62
     7
100
AcDbLine
 10
66.1810777411
 20
295.3922485056
 30
0.0
 11
66.1810661609
 21
148.0467107543
 31
0.0
  0
LINE
  5
A4
330
1F
100
AcDbEntity
  8
0
  6
Continuous
 62
     7
100
AcDbLine
 10
84.181070487
 20
148.0467134305
 30
0.0
 11
84.1810671834
 21
295.3922471591
 31
0.0
  0
LINE
  5
A5
330
1F
100
AcDbEntity
  8
0
  6
Continuous
 62
     7
100
AcDbLine
 10
125.5582504812
 20
88.0830650361
 30
0.0
 11
124.7320548808
 21
134.8230700596
 31
0.0
  0
LINE
  5
A6
330
1F
100
AcDbEntity
  8
0
  6
Continuous
 62
     7
100
AcDbLine
 10
25.6300883985
 20
134.8230688483
 30
0.0
 11
24.8038859732
 21
88.0830612062
 31
0.0
  0
ARC
  5
A7
330
1F
100
AcDbEntity
  8
0
  6
Continuous
 62
     7
100
AcDbCircle
 10
30.1293850928
 20
134.7435365119
 30
0.0
 40
4.500000000000002
100
AcDbArc
 50
112.9581001484
 51
178.9873137421
  0
ARC
  5
A8
330
1F
100
AcDbEntity
  8
0
  6
Continuous
 62
     7
100
AcDbCircle
 10
120.2327525406
 20
134.7435365119
 30
0.0
 40
4.499999999999997
100
AcDbArc
 50
1.0126862579
 51
67.0418998516
  0
ARC
  5
A9
330
1F
100
AcDbEntity
  8
0
  6
Continuous
 62
     7
100
AcDbCircle
 10
75.1810688167
 20
28.3922516412
 30
0.0
 40
120.0
100
AcDbArc
 50
111.5057619349
 51
112.9581001484
  0
ARC
  5
AA
330
1F
100
AcDbEntity
  8
0
  6
Continuous
 62
     7
100
AcDbCircle
 10
75.1810688167
 20
28.3922516412
 30
0.0
 40
120.0
100
AcDbArc
 50
94.3491051542
 51
106.7296246246
  0
ARC
  5
AB
330
1F
100
AcDbEntity
  8
0
  6
Continuous
 62
     7
100
AcDbCircle
 10
75.1810688167
 20
28.3922516412
 30
0.0
 40
120.0
100
AcDbArc
 50
67.0418998516
 51
85.6508948458
  0
LWPOLYLINE
  5
AC
330
1F
100
AcDbEntity
  8
0
  6
Continuous
 62
     7
100
AcDbPolyline
 90
       37
 70
   128
 43
0.0
 10
122.1810733801
 20
295.3922578946
 10
122.0022172148
 20
295.3922507189
 10
121.4670292825
 20
295.3922519736
 10
120.5795795672
 20
295.3922455878
 10
119.346619755
 20
295.392249611
 10
117.7775336113
 20
295.3922531502
 10
115.8842647391
 20
295.3922520898
 10
113.6812130734
 20
295.3922495551
 10
111.18515173
 20
295.3922509211
 10
108.4150810613
 20
295.3922483764
 10
105.3920898929
 20
295.3922526506
 10
102.13915796
 20
295.3922477753
 10
98.6810687637
 20
295.3922526139
 10
95.044123402
 20
295.3922502768
 10
91.2560164417
 20
295.3922541068
 10
87.3455589279
 20
295.392250997
 10
83.3425284469
 20
295.3922524756
 10
79.2773846851
 20
295.3922509283
 10
75.1810604219
 20
295.3922537856
 10
71.0847565141
 20
295.3922511887
 10
67.0196090271
 20
295.3922560939
 10
63.0165822713
 20
295.39225112
 10
59.1061247576
 20
295.3922480102
 10
55.3180177972
 20
295.3922518402
 10
51.6810687103
 20
295.3922559555
 10
48.2229832393
 20
295.3922543418
 10
44.9700513063
 20
295.3922494665
 10
41.9470472332
 20
295.39224629
 10
39.1769765644
 20
295.3922437454
 10
36.6809281259
 20
295.3922525619
 10
34.4778764601
 20
295.3922500272
 10
32.5846038627
 20
295.3922554192
 10
31.015517719
 20
295.3922589584
 10
29.7825487272
 20
295.3922490786
 10
28.8951081914
 20
295.3922565959
 10
28.3599202592
 20
295.3922578506
 10
28.1810640939
 20
295.3922506749
  0
LWPOLYLINE
  5
AD
330
1F
100
AcDbEntity
  8
0
  6
Continuous
 62
     7
100
AcDbPolyline
 90
       39
 70
   128
 43
0.0
 10
125.1810655044
 20
320.3922493887
 10
125.0057099077
 20
320.3922587241
 10
124.4808705527
 20
320.3922469129
 10
123.6102272137
 20
320.3922478985
 10
122.3998959086
 20
320.3922482517
 10
120.8583417559
 20
320.3922486992
 10
118.9964067812
 20
320.3922457656
 10
116.8271287145
 20
320.3922476002
 10
114.3657355365
 20
320.3922536221
 10
111.6294920823
 20
320.3922519889
 10
108.637598265
 20
320.3922468675
 10
105.4110227747
 20
320.3922484525
 10
101.9724107484
 20
320.3922540719
 10
98.3458767591
 20
320.3922491141
 10
94.5568419724
 20
320.392250661
 10
90.631910553
 20
320.392253338
 10
86.5986144921
 20
320.3922540536
 10
82.4852269509
 20
320.3922474715
 10
78.320593964
 20
320.3922492891
 10
74.133949779
 20
320.3922584495
 10
69.9546433255
 20
320.3922540757
 10
65.8120011812
 20
320.3922540046
 10
61.7350709377
 20
320.3922526517
 10
57.7524658084
 20
320.3922517399
 10
53.8921114521
 20
320.3922517787
 10
50.1810722213
 20
320.3922549874
 10
46.6453848619
 20
320.392255313
 10
43.3098644063
 20
320.3922468077
 10
40.1979026161
 20
320.3922449102
 10
37.3313165825
 20
320.3922506548
 10
34.730215686
 20
320.3922426856
 10
32.412857112
 20
320.3922486959
 10
30.3954780889
 20
320.3922485712
 10
28.6922511848
 20
320.3922518175
 10
27.3150867425
 20
320.3922523227
 10
26.2736919494
 20
320.3922452549
 10
25.5753360204
 20
320.392246347
 10
25.2249261647
 20
320.392249725
 10
25.1810646153
 20
320.3922540373
  0
ARC
  5
AE
330
1F
100
AcDbEntity
  8
0
  6
Continuous
 62
     7
100
AcDbCircle
 10
34.1251078163
 20
294.1554155693
 30
0.0
 40
1.580748876418264
100
AcDbArc
 50
244.3075271224
 51
295.6926294182
  0
ARC
  5
AF
330
1F
100
AcDbEntity
  8
0
  6
Continuous
 62
     7
100
AcDbCircle
 10
38.2370333725
 20
294.1553865769
 30
0.0
 40
1.580717688593543
100
AcDbArc
 50
244.3069832507
 51
295.6931732899
  0
ARC
  5
B0
330
1F
100
AcDbEntity
  8
0
  6
Continuous
 62
     7
100
AcDbCircle
 10
36.181064483
 20
298.6290816264
 30
0.0
 40
6.055293797247661
100
AcDbArc
 50
256.9175489998
 51
283.0826075408
  0
ARC
  5
B1
330
1F
100
AcDbEntity
  8
0
  6
Continuous
 62
     7
100
AcDbCircle
 10
112.1251081968
 20
294.1555318784
 30
0.0
 40
1.580858623170909
100
AcDbArc
 50
244.3090961229
 51
295.690520971
  0
ARC
  5
B2
330
1F
100
AcDbEntity
  8
0
  6
Continuous
 62
     7
100
AcDbCircle
 10
116.2370289092
 20
294.1555014278
 30
0.0
 40
1.580828220562254
100
AcDbArc
 50
244.3089106643
 51
295.6912458763
  0
ARC
  5
B3
330
1F
100
AcDbEntity
  8
0
  6
Continuous
 62
     7
100
AcDbCircle
 10
114.1810600194
 20
298.6294524376
 30
0.0
 40
6.055662589574418
100
AcDbArc
 50
256.918359871
 51
283.0817966696
  0
LWPOLYLINE
  5
B4
330
1F
100
AcDbEntity
  8
0
  6
Continuous
 62
     7
100
AcDbPolyline
 90
        4
 70
   128
 43
0.0
 10
100.244688662
 20
321.9177073851
 10
100.2446964494
 20
321.7353930908
 10
100.2446932086
 20
321.1940097155
 10
100.244690505
 20
320.3922425192
  0
LWPOLYLINE
  5
B5
330
1F
100
AcDbEntity
  8
0
  6
Continuous
 62
     7
100
AcDbPolyline
 90
       12
 70
   128
 43
0.0
 10
53.1810665063
 20
323.3922577594
 10
56.9165271019
 20
323.3922450016
 10
60.8094333438
 20
323.3922494371
 10
64.8261928349
 20
323.3922508687
 10
68.9322242857
 20
323.3922431793
 10
73.0921163641
 20
323.3922572175
 10
77.270014448
 20
323.3922571686
 10
81.429913977
 20
323.392258302
 10
85.5359454277
 20
323.3922506126
 10
89.5527049189
 20
323.3922520442
 10
93.4456111608
 20
323.3922564796
 10
97.1810643058
 20
323.3922566266
  0
LINE
  5
B6
330
1F
100
AcDbEntity
  8
0
  6
Continuous
 62
     7
100
AcDbLine
 10
97.1286957163
 20
320.3922522365
 30
0.0
 11
97.1810643058
 21
323.3922566266
 31
0.0
  0
LINE
  5
B7
330
1F
100
AcDbEntity
  8
0
  6
Continuous
 62
     7
100
AcDbLine
 10
53.2334306781
 20
320.3922576419
 30
0.0
 11
53.1810665063
 21
323.3922577594
 31
0.0
  0
LWPOLYLINE
  5
B8
330
1F
100
AcDbEntity
  8
0
  6
Continuous
 62
     7
100
AcDbPolyline
 90
       12
 70
   128
 43
0.0
 10
97.1461573415
 20
325.3922524034
 10
93.4446515469
 20
325.3922537028
 10
89.5694370679
 20
325.3922430224
 10
85.5573574192
 20
325.3922420976
 10
81.4465925105
 20
325.3922527381
 10
77.2762188142
 20
325.3922437803
 10
73.0859223936
 20
325.3922607061
 10
68.9155486973
 20
325.3922517483
 10
64.8047708838
 20
325.3922549382
 10
60.7926912351
 20
325.3922540134
 10
56.9174767561
 20
325.392243333
 10
53.2159838663
 20
325.392252083
  0
LINE
  5
B9
330
1F
100
AcDbEntity
  8
0
  6
Continuous
 62
     7
100
AcDbLine
 10
97.1461573415
 20
325.3922524034
 30
0.0
 11
97.1810643058
 21
323.3922566266
 31
0.0
  0
LINE
  5
BA
330
1F
100
AcDbEntity
  8
0
  6
Continuous
 62
     7
100
AcDbLine
 10
53.2159838663
 20
325.392252083
 30
0.0
 11
53.1810665063
 21
323.3922577594
 31
0.0
  0
LINE
  5
BB
330
1F
100
AcDbEntity
  8
0
  6
Continuous
 62
     7
100
AcDbLine
 10
52.4017116261
 20
323.3922438165
 30
0.0
 11
52.4002568296
 21
324.3922473282
 31
0.0
  0
LINE
  5
BC
330
1F
100
AcDbEntity
  8
0
  6
Continuous
 62
     7
100
AcDbLine
 10
52.4002568296
 20
324.3922473282
 30
0.0
 11
53.1985251863
 21
324.3922549212
 31
0.0
  0
LINE
  5
BD
330
1F
100
AcDbEntity
  8
0
  6
Continuous
 62
     7
100
AcDbLine
 10
100.1610552308
 20
323.3922549551
 30
0.0
 11
100.1442855781
 21
324.392260509
 31
0.0
  0
LWPOLYLINE
  5
BE
330
1F
100
AcDbEntity
  8
0
  6
Continuous
 62
     7
100
AcDbPolyline
 90
        5
 70
   128
 43
0.0
 10
100.1442855781
 20
324.392260509
 10
99.8296936267
 20
324.39224409
 10
99.1345019395
 20
324.3922481818
 10
98.0694269519
 20
324.3922484184
 10
97.2186249156
 20
324.3922453373
  0
LWPOLYLINE
  5
BF
330
1F
100
AcDbEntity
  8
0
  6
Continuous
 62
     7
100
AcDbPolyline
 90
        9
 70
   128
 43
0.0
 10
53.1810665063
 20
323.3922577594
 10
53.1426334201
 20
323.3922474291
 10
53.0288274105
 20
323.3922526597
 10
52.8440160738
 20
323.39224854
 10
52.5952819686
 20
323.3922462753
 10
52.2922046961
 20
323.3922534033
 10
51.9464414227
 20
323.3922552918
 10
51.5712443406
 20
323.3922462589
 10
51.1810724543
 20
323.3922463272
  0
LWPOLYLINE
  5
C0
330
1F
100
AcDbEntity
  8
0
  6
Continuous
 62
     7
100
AcDbPolyline
 90
        9
 70
   128
 43
0.0
 10
97.1810643058
 20
323.3922566266
 10
97.2195048425
 20
323.3922540521
 10
97.3333108521
 20
323.3922488216
 10
97.5181221889
 20
323.3922529413
 10
97.7668562941
 20
323.392255206
 10
98.0699335666
 20
323.3922480779
 10
98.4156968399
 20
323.3922461894
 10
98.790893922
 20
323.3922552224
 10
99.1810658084
 20
323.3922551541
  0
LINE
  5
C1
330
1F
100
AcDbEntity
  8
0
  6
Continuous
 62
     7
100
AcDbLine
 10
44.5869513309
 20
323.3922465193
 30
0.0
 11
46.8967984221
 21
323.3922569662
 31
0.0
  0
LINE
  5
C2
330
1F
100
AcDbEntity
  8
0
  6
Continuous
 62
     7
100
AcDbLine
 10
44.5869513309
 20
323.3922465193
 30
0.0
 11
39.7859759152
 21
323.3922464656
 31
0.0
  0
LINE
  5
C3
330
1F
100
AcDbEntity
  8
0
  6
Continuous
 62
     7
100
AcDbLine
 10
51.1810724543
 20
323.3922463272
 30
0.0
 11
46.8967984221
 21
323.3922569662
 31
0.0
  0
LINE
  5
C4
330
1F
100
AcDbEntity
  8
0
  6
Continuous
 62
     7
100
AcDbLine
 10
44.5972256754
 20
324.3922597468
 30
0.0
 11
44.5869513309
 21
323.3922465193
 31
0.0
  0
LINE
  5
C5
330
1F
100
AcDbEntity
  8
0
  6
Continuous
 62
     7
100
AcDbLine
 10
44.5972256754
 20
324.3922597468
 30
0.0
 11
46.8659559819
 21
324.3922590034
 31
0.0
  0
LINE
  5
C6
330
1F
100
AcDbEntity
  8
0
  6
Continuous
 62
     7
100
AcDbLine
 10
46.8659559819
 20
324.3922590034
 30
0.0
 11
46.8967984221
 21
323.3922569662
 31
0.0
  0
LWPOLYLINE
  5
C7
330
1F
100
AcDbEntity
  8
0
  6
Continuous
 62
     7
100
AcDbPolyline
 90
        9
 70
   128
 43
0.0
 10
39.7859759152
 20
323.3922464656
 10
39.4179482674
 20
323.3922471766
 10
39.0579384553
 20
323.3922484712
 10
38.713790563
 20
323.3922538559
 10
38.3930160733
 20
323.3922468735
 10
38.1025828633
 20
323.3922585499
 10
37.8488288636
 20
323.3922487194
 10
37.6372932263
 20
323.3922494393
 10
37.4725763688
 20
323.3922497732
  0
LWPOLYLINE
  5
C8
330
1F
100
AcDbEntity
  8
0
  6
Continuous
 62
     7
100
AcDbPolyline
 90
        9
 70
   128
 43
0.0
 10
44.5972256754
 20
324.3922597468
 10
44.3432443089
 20
324.392256297
 10
44.0963529516
 20
324.3922511478
 10
43.8565977685
 20
324.3922537462
 10
43.6240527305
 20
324.3922551801
 10
43.398771453
 20
324.3922519916
 10
43.1807871962
 20
324.3922461772
 10
42.9701590299
 20
324.3922546345
 10
42.7669554707
 20
324.3922480959
  0
LINE
  5
C9
330
1F
100
AcDbEntity
  8
0
  6
Continuous
 62
     7
100
AcDbLine
 10
42.7535223386
 20
323.3922522241
 30
0.0
 11
42.7669554707
 21
324.3922480959
 31
0.0
  0
LINE
  5
CA
330
1F
100
AcDbEntity
  8
0
  6
Continuous
 62
     7
100
AcDbLine
 10
105.7751869318
 20
323.392254962
 30
0.0
 11
103.4653398405
 21
323.3922445151
 31
0.0
  0
LINE
  5
CB
330
1F
100
AcDbEntity
  8
0
  6
Continuous
 62
     7
100
AcDbLine
 10
105.7751869318
 20
323.392254962
 30
0.0
 11
110.5761623475
 21
323.3922550156
 31
0.0
  0
LINE
  5
CC
330
1F
100
AcDbEntity
  8
0
  6
Continuous
 62
     7
100
AcDbLine
 10
99.1810658084
 20
323.3922551541
 30
0.0
 11
103.4653398405
 21
323.3922445151
 31
0.0
  0
LWPOLYLINE
  5
CD
330
1F
100
AcDbEntity
  8
0
  6
Continuous
 62
     7
100
AcDbPolyline
 90
        9
 70
   128
 43
0.0
 10
110.5761623475
 20
323.3922550156
 10
110.9441899952
 20
323.3922543047
 10
111.3041998074
 20
323.3922530101
 10
111.6483476997
 20
323.3922476254
 10
111.9691221894
 20
323.3922546078
 10
112.2595553994
 20
323.3922429314
 10
112.5133093991
 20
323.3922527619
 10
112.7248450364
 20
323.3922520419
 10
112.8895618939
 20
323.392251708
  0
LINE
  5
CE
330
1F
100
AcDbEntity
  8
0
  6
Continuous
 62
     7
100
AcDbLine
 10
103.4961763027
 20
324.3922568852
 30
0.0
 11
103.4653398405
 21
323.3922445151
 31
0.0
  0
LINE
  5
CF
330
1F
100
AcDbEntity
  8
0
  6
Continuous
 62
     7
100
AcDbLine
 10
105.7649140598
 20
324.3922432371
 30
0.0
 11
105.7751869318
 21
323.392254962
 31
0.0
  0
LINE
  5
D0
330
1F
100
AcDbEntity
  8
0
  6
Continuous
 62
     7
100
AcDbLine
 10
105.7649140598
 20
324.3922432371
 30
0.0
 11
103.4961763027
 21
324.3922568852
 31
0.0
  0
LWPOLYLINE
  5
D1
330
1F
100
AcDbEntity
  8
0
  6
Continuous
 62
     7
100
AcDbPolyline
 90
        7
 70
   128
 43
0.0
 10
105.7649140598
 20
324.3922432371
 10
107.2031234654
 20
324.3922483938
 10
108.3674104211
 20
324.3922481785
 10
109.2478071126
 20
324.3922518076
 10
109.8367966029
 20
324.3922553831
 10
110.1293257372
 20
324.3922493427
 10
110.1636131396
 20
324.3922578481
  0
LINE
  5
D2
330
1F
100
AcDbEntity
  8
0
  6
Continuous
 62
     7
100
AcDbLine
 10
34.9389271335
 20
320.3922460249
 30
0.0
 11
34.8925975582
 21
323.3922545298
 31
0.0
  0
LWPOLYLINE
  5
D3
330
1F
100
AcDbEntity
  8
0
  6
Continuous
 62
     7
100
AcDbPolyline
 90
        9
 70
   128
 43
0.0
 10
37.4725763688
 20
323.3922497732
 10
37.0294771353
 20
323.3922507523
 10
36.620184761
 20
323.392258097
 10
36.245067104
 20
323.3922605074
 10
35.9044513116
 20
323.3922575918
 10
35.5986441755
 20
323.3922544129
 10
35.327906323
 20
323.3922465864
 10
35.092503835
 20
323.3922500831
 10
34.8925975582
 20
323.3922545298
  0
LINE
  5
D4
330
1F
100
AcDbEntity
  8
0
  6
Continuous
 62
     7
100
AcDbLine
 10
115.4232067115
 20
320.3922509488
 30
0.0
 11
115.4695332539
 21
323.3922598563
 31
0.0
  0
LWPOLYLINE
  5
D5
330
1F
100
AcDbEntity
  8
0
  6
Continuous
 62
     7
100
AcDbPolyline
 90
        9
 70
   128
 43
0.0
 10
112.8895618939
 20
323.392251708
 10
113.3326611274
 20
323.392250729
 10
113.7419535016
 20
323.3922433843
 10
114.1170637081
 20
323.3922538787
 10
114.4576869511
 20
323.3922438895
 10
114.7634940871
 20
323.3922470684
 10
115.0342319397
 20
323.3922548949
 10
115.2696344277
 20
323.3922513981
 10
115.4695332539
 20
323.3922598563
  0
LINE
  5
D6
330
1F
100
AcDbEntity
  8
0
  6
Continuous
 62
     7
100
AcDbLine
 10
44.6810709062
 20
325.3922493894
 30
0.0
 11
47.6810694348
 21
325.392253633
 31
0.0
  0
LWPOLYLINE
  5
D7
330
1F
100
AcDbEntity
  8
0
  6
Continuous
 62
     7
100
AcDbPolyline
 90
        7
 70
   128
 43
0.0
 10
47.6810694348
 20
325.392253633
 10
49.0946450099
 20
325.39224891
 10
50.3937066653
 20
325.3922536586
 10
51.4730078363
 20
325.3922594701
 10
52.2451138571
 20
325.3922522257
 10
52.6474492627
 20
325.3922545659
 10
52.6985209572
 20
325.3922490891
  0
LWPOLYLINE
  5
D8
330
1F
100
AcDbEntity
  8
0
  6
Continuous
 62
     7
100
AcDbPolyline
 90
        7
 70
   128
 43
0.0
 10
39.6636193838
 20
325.3922539332
 10
39.7146910783
 20
325.3922484564
 10
40.1170264839
 20
325.3922507966
 10
40.8891250541
 20
325.3922564571
 10
41.9684336758
 20
325.3922493638
 10
43.2674953312
 20
325.3922541124
 10
44.6810709062
 20
325.3922493894
  0
LWPOLYLINE
  5
D9
330
1F
100
AcDbEntity
  8
0
  6
Continuous
 62
     7
100
AcDbPolyline
 90
        9
 70
   128
 43
0.0
 10
34.8925975582
 20
323.3922545298
 10
34.3555410685
 20
323.3922437678
 10
33.8328567076
 20
323.39225449
 10
33.3286588954
 20
323.3922532649
 10
32.8469121137
 20
323.3922577449
 10
32.3914294447
 20
323.3922497914
 10
31.965774252
 20
323.3922563604
 10
31.5733123347
 20
323.3922591699
 10
31.2171285095
 20
323.3922497763
  0
LWPOLYLINE
  5
DA
330
1F
100
AcDbEntity
  8
0
  6
Continuous
 62
     7
100
AcDbPolyline
 90
        9
 70
   128
 43
0.0
 10
115.4695332539
 20
323.3922598563
 10
116.0065971942
 20
323.3922577135
 10
116.5292815551
 20
323.3922469913
 10
117.0334793672
 20
323.3922482164
 10
117.5152186984
 20
323.3922566411
 10
117.9707088179
 20
323.3922516899
 10
118.3963640107
 20
323.3922451208
 10
118.788825928
 20
323.3922423113
 10
119.1450097532
 20
323.392251705
  0
LWPOLYLINE
  5
DB
330
1F
100
AcDbEntity
  8
0
  6
Continuous
 62
     7
100
AcDbPolyline
 90
        9
 70
   128
 43
0.0
 10
31.2171285095
 20
323.3922497763
 10
30.9890563024
 20
323.3922526435
 10
30.7873479885
 20
323.3922490662
 10
30.6132714461
 20
323.3922483865
 10
30.4679078975
 20
323.3922554186
 10
30.3522000703
 20
323.3922466361
 10
30.2668409733
 20
323.3922436076
 10
30.2123980256
 20
323.3922470112
 10
30.1891854695
 20
323.3922490048
  0
LWPOLYLINE
  5
DC
330
1F
100
AcDbEntity
  8
0
  6
Continuous
 62
     7
100
AcDbPolyline
 90
        9
 70
   128
 43
0.0
 10
119.1450097532
 20
323.392251705
 10
119.3730819603
 20
323.3922488378
 10
119.5747902742
 20
323.3922524151
 10
119.7488668166
 20
323.3922530948
 10
119.8942303652
 20
323.3922460627
 10
120.0099381924
 20
323.3922548452
 10
120.0952972893
 20
323.3922578737
 10
120.1497402371
 20
323.3922544701
 10
120.1729527932
 20
323.3922524765
  0
LINE
  5
DD
330
1F
100
AcDbEntity
  8
0
  6
Continuous
 62
     7
100
AcDbLine
 10
100.1442855781
 20
324.392260509
 30
0.0
 11
103.4961763027
 21
324.3922568852
 31
0.0
  0
ARC
  5
DE
330
1F
100
AcDbEntity
  8
0
  6
Continuous
 62
     7
100
AcDbCircle
 10
30.1864533967
 20
325.0994587691
 30
0.0
 40
1.707211950408833
100
AcDbArc
 50
269.8190053073
 51
270.091691195
  0
LWPOLYLINE
  5
DF
330
1F
100
AcDbEntity
  8
0
  6
Continuous
 62
     7
100
AcDbPolyline
 90
        5
 70
   128
 43
0.0
 10
120.1810704092
 20
323.3922590492
 10
120.1805566058
 20
323.3922549132
 10
120.1790410052
 20
323.3922574061
 10
120.1764977978
 20
323.3922516268
 10
120.1729527932
 20
323.3922524765
  0
LINE
  5
E0
330
1F
100
AcDbEntity
  8
0
  6
Continuous
 62
     7
100
AcDbLine
 10
99.1636103354
 20
325.392243616
 30
0.0
 11
99.1461645601
 21
324.3922539048
 31
0.0
  0
LWPOLYLINE
  5
E1
330
1F
100
AcDbEntity
  8
0
  6
Continuous
 62
     7
100
AcDbPolyline
 90
       12
 70
   128
 43
0.0
 10
99.1636103354
 20
325.392243616
 10
99.3668471547
 20
325.392252151
 10
99.9601228198
 20
325.3922526321
 10
100.8953432219
 20
325.3922490082
 10
102.0967417699
 20
325.392253239
 10
103.4670103097
 20
325.392246056
 10
104.8951188601
 20
325.3922524438
 10
106.2654003047
 20
325.3922527114
 10
107.4667988527
 20
325.3922569422
 10
108.4020192548
 20
325.3922533183
 10
108.9952820151
 20
325.3922463488
 10
109.1985188344
 20
325.3922548838
  0
LINE
  5
E2
330
1F
100
AcDbEntity
  8
0
  6
Continuous
 62
     7
100
AcDbLine
 10
109.1985188344
 20
325.3922548838
 30
0.0
 11
109.2159760419
 21
324.392250543
 31
0.0
  0
ARC
  5
E3
330
1F
100
AcDbEntity
  8
0
  6
Continuous
 62
     7
100
AcDbCircle
 10
102.9471215413
 20
89.3162724944
 30
0.0
 40
0.0704817741071451
100
AcDbArc
 50
111.9534500783
 51
201.7846295911
  0
SPLINE
  5
E4
330
1F
100
AcDbEntity
  8
0
  6
Continuous
 62
     7
100
AcDbSpline
210
0.0
220
0.0
230
1.0
 70
     8
 71
     3
 72
    10
 73
     6
 74
     0
 42
0.000000001
 43
0.00000001
 40
0.0
 40
0.0
 40
0.0
 40
0.0
 40
0.3717333742337426
 40
0.8418910379821947
 40
0.9999999999999999
 40
0.9999999999999999
 40
0.9999999999999999
 40
0.9999999999999999
 10
102.8816731936534
 20
89.2901153870595
 30
0.0
 10
102.930912691828
 20
89.29471402114493
 30
0.0
 10
103.0424288889234
 20
89.30512887515552
 30
0.0
 10
103.1705289154797
 20
89.2902767776601
 30
0.0
 10
103.2388937323893
 20
89.27461558606723
 30
0.0
 10
103.2560983550714
 20
89.27067430597188
 30
0.0
  0
SPLINE
  5
E5
330
1F
100
AcDbEntity
  8
0
  6
Continuous
 62
     7
100
AcDbSpline
210
0.0
220
0.0
230
1.0
 70
     8
 71
     3
 72
    10
 73
     6
 74
     0
 42
0.000000001
 43
0.00000001
 40
0.0
 40
0.0
 40
0.0
 40
0.0
 40
0.342412712724857
 40
0.807560156128938
 40
1.0
 40
1.0
 40
1.0
 40
1.0
 10
103.4792588862975
 20
89.15836009593339
 30
0.0
 10
103.4739371387175
 20
89.14984813473001
 30
0.0
 10
103.4613861114134
 20
89.1297731770462
 30
0.0
 10
103.4001260150557
 20
89.09823823079404
 30
0.0
 10
103.3438134960363
 20
89.07315241795783
 30
0.0
 10
103.3273339007373
 20
89.06581117216584
 30
0.0
  0
ARC
  5
E6
330
1F
100
AcDbEntity
  8
0
  6
Continuous
 62
     7
100
AcDbCircle
 10
104.6281472808
 20
93.6258565543
 30
0.0
 40
4.741954168545468
100
AcDbArc
 50
254.078498849
 51
259.2640208682
  0
SPLINE
  5
E7
330
1F
100
AcDbEntity
  8
0
  6
Continuous
 62
     7
100
AcDbSpline
210
0.0
220
0.0
230
1.0
 70
     8
 71
     3
 72
    10
 73
     6
 74
     0
 42
0.000000001
 43
0.00000001
 40
0.0
 40
0.0
 40
0.0
 40
0.0
 40
0.1468026611027108
 40
0.6365774466429152
 40
1.0
 40
1.0
 40
1.0
 40
1.0
 10
103.7447989176411
 20
88.96690549143243
 30
0.0
 10
103.7542287727208
 20
88.97330251199377
 30
0.0
 10
103.7951192649213
 20
89.00104178445979
 30
0.0
 10
103.886231828776
 20
89.02704574297974
 30
0.0
 10
103.9859759079161
 20
89.02788355606987
 30
0.0
 10
104.0284622663126
 20
89.02824042564573
 30
0.0
  0
SPLINE
  5
E8
330
1F
100
AcDbEntity
  8
0
  6
Continuous
 62
     7
100
AcDbSpline
210
0.0
220
0.0
230
1.0
 70
     8
 71
     3
 72
    10
 73
     6
 74
     0
 42
0.000000001
 43
0.00000001
 40
0.0
 40
0.0
 40
0.0
 40
0.0
 40
0.133868157205631
 40
0.6023222184123636
 40
1.0
 40
1.0
 40
1.0
 40
1.0
 10
104.5439632686917
 20
88.96555489176532
 30
0.0
 10
104.5585143388363
 20
88.96202629976365
 30
0.0
 10
104.6239849707829
 20
88.94614986277745
 30
0.0
 10
104.7159331245182
 20
88.91040028850642
 30
0.0
 10
104.7559258787986
 20
88.86332494857147
 30
0.0
 10
104.7742882446834
 20
88.84171066789519
 30
0.0
  0
ARC
  5
E9
330
1F
100
AcDbEntity
  8
0
  6
Continuous
 62
     7
100
AcDbCircle
 10
105.0951176279
 20
94.5630506894
 30
0.0
 40
5.730328361836079
100
AcDbArc
 50
266.7904480112
 51
271.3573924458
  0
SPLINE
  5
EA
330
1F
100
AcDbEntity
  8
0
  6
Continuous
 62
     7
100
AcDbSpline
210
0.0
220
0.0
230
1.0
 70
     8
 71
     3
 72
    10
 73
     6
 74
     0
 42
0.000000001
 43
0.00000001
 40
0.0
 40
0.0
 40
0.0
 40
0.0
 40
0.1766166334543905
 40
0.6639534847657168
 40
1.0
 40
1.0
 40
1.0
 40
1.0
 10
105.2308619515783
 20
88.83433035991976
 30
0.0
 10
105.219650505513
 20
88.84428879505032
 30
0.0
 10
105.1775034068014
 20
88.88172545986735
 30
0.0
 10
105.1383598081828
 20
88.92565400063003
 30
0.0
 10
105.1427969107053
 20
88.94709580561918
 30
0.0
 10
105.1446078203022
 20
88.95584682505884
 30
0.0
  0
SPLINE
  5
EB
330
1F
100
AcDbEntity
  8
0
  6
Continuous
 62
     7
100
AcDbSpline
210
0.0
220
0.0
230
1.0
 70
     8
 71
     3
 72
    10
 73
     6
 74
     0
 42
0.000000001
 43
0.00000001
 40
0.0
 40
0.0
 40
0.0
 40
0.0
 40
0.1613788635923572
 40
0.6295670791059762
 40
1.0
 40
1.0
 40
1.0
 40
1.0
 10
105.4369547438473
 20
89.00547922650723
 30
0.0
 10
105.4561296715184
 20
89.00502831397539
 30
0.0
 10
105.5309344070164
 20
89.0032692255837
 30
0.0
 10
105.6631915032964
 20
88.98632538039136
 30
0.0
 10
105.7682758103298
 20
88.94965003829158
 30
0.0
 10
105.8146932986384
 20
88.93344992895857
 30
0.0
  0
ARC
  5
EC
330
1F
100
AcDbEntity
  8
0
  6
Continuous
 62
     7
100
AcDbCircle
 10
105.7883475363
 20
88.9988191815
 30
0.0
 40
0.0704786376901223
100
AcDbArc
 50
291.950907766
 51
21.7871719034
  0
SPLINE
  5
ED
330
1F
100
AcDbEntity
  8
0
  6
Continuous
 62
     7
100
AcDbSpline
210
0.0
220
0.0
230
1.0
 70
     8
 71
     3
 72
    10
 73
     6
 74
     0
 42
0.000000001
 43
0.00000001
 40
0.0
 40
0.0
 40
0.0
 40
0.0
 40
0.3717249306209455
 40
0.8419013778918621
 40
1.0
 40
1.0
 40
1.0
 40
1.0
 10
105.853791810947
 20
89.0249780288183
 30
0.0
 10
105.806743443775
 20
89.04013860570447
 30
0.0
 10
105.700185928024
 20
89.07447504514852
 30
0.0
 10
105.573833445512
 20
89.10507313969383
 30
0.0
 10
105.5055729343671
 20
89.12170548131277
 30
0.0
 10
105.4883959154428
 20
89.1258908300884
 30
0.0
  0
SPLINE
  5
EE
330
1F
100
AcDbEntity
  8
0
  6
Continuous
 62
     7
100
AcDbSpline
210
0.0
220
0.0
230
1.0
 70
     8
 71
     3
 72
    10
 73
     6
 74
     0
 42
0.000000001
 43
0.00000001
 40
0.0
 40
0.0
 40
0.0
 40
0.0
 40
0.3424107145844753
 40
0.807557849052271
 40
1.0
 40
1.0
 40
1.0
 40
1.0
 10
105.2652418366088
 20
89.2382087654172
 30
0.0
 10
105.2704398481157
 20
89.24562998352687
 30
0.0
 10
105.2826990877162
 20
89.2631325401897
 30
0.0
 10
105.3406640653474
 20
89.26492628651091
 30
0.0
 10
105.3928619521225
 20
89.25282684550884
 30
0.0
 10
105.4081375562552
 20
89.24928596900227
 30
0.0
  0
ARC
  5
EF
330
1F
100
AcDbEntity
  8
0
  6
Continuous
 62
     7
100
AcDbCircle
 10
104.1067663433
 20
84.6869236317
 30
0.0
 40
4.74433526756633
100
AcDbArc
 50
74.0796962974
 51
79.2627413416
  0
SPLINE
  5
F0
330
1F
100
AcDbEntity
  8
0
  6
Continuous
 62
     7
100
AcDbSpline
210
0.0
220
0.0
230
1.0
 70
     8
 71
     3
 72
    10
 73
     6
 74
     0
 42
0.000000001
 43
0.00000001
 40
0.0
 40
0.0
 40
0.0
 40
0.0
 40
0.1468101152309809
 40
0.6365711621299708
 40
1.0
 40
1.0
 40
1.0
 40
1.0
 10
104.990662361669
 20
89.34819437683744
 30
0.0
 10
104.9821667727588
 20
89.35022594002774
 30
0.0
 10
104.9453297544307
 20
89.35903483265038
 30
0.0
 10
104.8578133365599
 20
89.36545910357268
 30
0.0
 10
104.7583849812616
 20
89.36746869517746
 30
0.0
 10
104.7160320042016
 20
89.36832471041456
 30
0.0
  0
SPLINE
  5
F1
330
1F
100
AcDbEntity
  8
0
  6
Continuous
 62
     7
100
AcDbSpline
210
0.0
220
0.0
230
1.0
 70
     8
 71
     3
 72
    10
 73
     6
 74
     0
 42
0.000000001
 43
0.00000001
 40
0.0
 40
0.0
 40
0.0
 40
0.0
 40
0.1338596982221747
 40
0.6023214125785185
 40
1.0
 40
1.0
 40
1.0
 40
1.0
 10
104.2005310018226
 20
89.43101024429498
 30
0.0
 10
104.1859609486489
 20
89.43435776204161
 30
0.0
 10
104.1204008500871
 20
89.4494204108042
 30
0.0
 10
104.0269095377893
 20
89.47124948457048
 30
0.0
 10
103.981860513321
 20
89.47271148631089
 30
0.0
 10
103.961176759917
 20
89.47338274798263
 30
0.0
  0
ARC
  5
F2
330
1F
100
AcDbEntity
  8
0
  6
Continuous
 62
     7
100
AcDbCircle
 10
103.6374119798
 20
83.6694427667
 30
0.0
 40
5.812963352684481
100
AcDbArc
 50
86.8071431444
 51
90.9814305549
  0
SPLINE
  5
F3
330
1F
100
AcDbEntity
  8
0
  6
Continuous
 62
     7
100
AcDbSpline
210
0.0
220
0.0
230
1.0
 70
     8
 71
     3
 72
    10
 73
     6
 74
     0
 42
0.000000001
 43
0.00000001
 40
0.0
 40
0.0
 40
0.0
 40
0.0
 40
0.1766125991370218
 40
0.6639433251565136
 40
1.0
 40
1.0
 40
1.0
 40
1.0
 10
103.5046030530221
 20
89.48076305595805
 30
0.0
 10
103.5169266075847
 20
89.48084688345233
 30
0.0
 10
103.5632547961396
 20
89.48116201785137
 30
0.0
 10
103.6057396380282
 20
89.46731282500419
 30
0.0
 10
103.6015829553526
 20
89.4484265430172
 30
0.0
 10
103.599886450212
 20
89.44071831100145
 30
0.0
  0
SPLINE
  5
F4
330
1F
100
AcDbEntity
  8
0
  6
Continuous
 62
     7
100
AcDbSpline
210
0.0
220
0.0
230
1.0
 70
     8
 71
     3
 72
    10
 73
     6
 74
     0
 42
0.000000001
 43
0.00000001
 40
0.0
 40
0.0
 40
0.0
 40
0.0
 40
0.1613911626297199
 40
0.6295611744111879
 40
1.0
 40
1.0
 40
1.0
 40
1.0
 10
103.307545979059
 20
89.39108963484337
 30
0.0
 10
103.2883400601643
 20
89.3912831547626
 30
0.0
 10
103.213420834985
 20
89.39203804509023
 30
0.0
 10
103.079401093753
 20
89.39306236235852
 30
0.0
 10
102.9693739951169
 20
89.3851421040018
 30
0.0
 10
102.920771705962
 20
89.38164348691924
 30
0.0
  0
LWPOLYLINE
  5
F5
330
1F
100
AcDbEntity
  8
0
  6
Continuous
 62
     7
100
AcDbPolyline
 90
       11
 70
   128
 43
0.0
 10
101.5111146255
 20
87.4400199029
 10
101.5133238074
 20
87.4064954734
 10
101.7346694742
 20
87.204073234
 10
102.281540159
 20
86.9940854716
 10
103.0800761572
 20
86.8048913882
 10
104.0224450008
 20
86.662046634
 10
104.9813556888
 20
86.5848451131
 10
105.8273129383
 20
86.5837028678
 10
106.4460609256
 20
86.6587783811
 10
106.7540369036
 20
86.799938808
 10
106.7788550338
 20
86.8561048723
  0
ARC
  5
F6
330
1F
100
AcDbEntity
  8
0
  6
Continuous
 62
     7
100
AcDbCircle
 10
103.9570979538
 20
86.2903877855
 30
0.0
 40
2.738782566049042
100
AcDbArc
 50
77.6267317784
 51
88.5068779077
  0
ARC
  5
F7
330
1F
100
AcDbEntity
  8
0
  6
Continuous
 62
     7
100
AcDbCircle
 10
105.3661712896
 20
88.5365975339
 30
0.0
 40
0.4741944105881388
100
AcDbArc
 50
81.4153200788
 51
117.8554068855
  0
LWPOLYLINE
  5
F8
330
1F
100
AcDbEntity
  8
0
  6
Continuous
 62
     7
100
AcDbPolyline
 90
        9
 70
   128
 43
0.0
 10
103.2560983551
 20
89.270674306
 10
103.3077180269
 20
89.2569792117
 10
103.3536880012
 20
89.2427580772
 10
103.3933050195
 20
89.2282157025
 10
103.4259914137
 20
89.2135777782
 10
103.4512472116
 20
89.1990546301
 10
103.4687017565
 20
89.1848710221
 10
103.4780787178
 20
89.1712373519
 10
103.4792588863
 20
89.1583600959
  0
LWPOLYLINE
  5
F9
330
1F
100
AcDbEntity
  8
0
  6
Continuous
 62
     7
100
AcDbPolyline
 90
        9
 70
   128
 43
0.0
 10
105.4883959154
 20
89.1258908301
 10
105.4367762436
 20
89.1395859244
 10
105.3908127217
 20
89.1538107842
 10
105.351189251
 20
89.1683494335
 10
105.3185093092
 20
89.1829910831
 10
105.2932535113
 20
89.1975142312
 10
105.2757989664
 20
89.2116978392
 10
105.2664155527
 20
89.2253277842
 10
105.2652418366
 20
89.2382087654
  0
ARC
  5
FA
330
1F
100
AcDbEntity
  8
0
  6
Continuous
 62
     7
100
AcDbCircle
 10
103.378328476
 20
89.8599796314
 30
0.0
 40
0.4742024786032412
100
AcDbArc
 50
261.4155842244
 51
297.8541407685
  0
LINE
  5
FB
330
1F
100
AcDbEntity
  8
0
  6
Continuous
 62
     7
100
AcDbLine
 10
104.9906623617
 20
89.3481943768
 30
0.0
 11
104.9637480859
 21
88.9836584302
 31
0.0
  0
LINE
  5
FC
330
1F
100
AcDbEntity
  8
0
  6
Continuous
 62
     7
100
AcDbLine
 10
103.9611767599
 20
89.473382748
 30
0.0
 11
103.8878715838
 21
89.0183563848
 31
0.0
  0
ARC
  5
FD
330
1F
100
AcDbEntity
  8
0
  6
Continuous
 62
     7
100
AcDbCircle
 10
104.787505133
 20
92.1070722129
 30
0.0
 40
2.739679961296792
100
AcDbArc
 50
257.6285190716
 51
268.5050906144
  0
LWPOLYLINE
  5
FE
330
1F
100
AcDbEntity
  8
0
  6
Continuous
 62
     7
100
AcDbPolyline
 90
        5
 70
   128
 43
0.0
 10
18.3938970444
 20
87.4009416295
 10
19.155730742
 20
87.5698355213
 10
19.6606204514
 20
87.6817679611
 10
19.8403788305
 20
87.7216190583
 10
19.8404166804
 20
87.7216280062
  0
LWPOLYLINE
  5
FF
330
1F
100
AcDbEntity
  8
0
  6
Continuous
 62
     7
100
AcDbPolyline
 90
        7
 70
   128
 43
0.0
 10
14.6660483868
 20
86.5744982736
 10
14.7075664439
 20
86.5837013604
 10
15.0462302306
 20
86.6587821861
 10
15.6829622972
 20
86.7999421624
 10
16.5317685159
 20
86.9881168951
 10
17.4780118075
 20
87.1978954518
 10
18.3938970444
 20
87.4009416295
  0
SPLINE
  5
100
330
1F
100
AcDbEntity
  8
0
  6
Continuous
 62
     7
100
AcDbSpline
210
0.0
220
0.0
230
1.0
 70
     8
 71
     3
 72
    10
 73
     6
 74
     0
 42
0.000000001
 43
0.00000001
 40
0.0
 40
0.0
 40
0.0
 40
0.0
 40
0.3717366372323648
 40
0.8418978320864604
 40
1.0
 40
1.0
 40
1.0
 40
1.0
 10
17.40571728079633
 20
89.29011495151491
 30
0.0
 10
17.3797060345636
 20
89.29471405821029
 30
0.0
 10
17.32079655505614
 20
89.30512997520252
 30
0.0
 10
17.21655092052485
 20
89.29027135238358
 30
0.0
 10
17.14361213247049
 20
89.27461670983642
 30
0.0
 10
17.125257122136
 20
89.2706772266972
 30
0.0
  0
LINE
  5
101
330
1F
100
AcDbEntity
  8
0
  6
Continuous
 62
     7
100
AcDbLine
 10
16.0305340981
 20
89.0263456272
 30
0.0
 11
16.031695384
 21
89.0282420504
 31
0.0
  0
LINE
  5
102
330
1F
100
AcDbEntity
  8
0
  6
Continuous
 62
     7
100
AcDbLine
 10
15.3498169101
 20
88.8343339916
 30
0.0
 11
15.3419925557
 21
88.8325975795
 31
0.0
  0
SPLINE
  5
103
330
1F
100
AcDbEntity
  8
0
  6
Continuous
 62
     7
100
AcDbSpline
210
0.0
220
0.0
230
1.0
 70
     8
 71
     3
 72
    10
 73
     6
 74
     0
 42
0.000000001
 43
0.00000001
 40
0.0
 40
0.0
 40
0.0
 40
0.0
 40
0.1766141429213311
 40
0.6639485366504554
 40
1.0
 40
1.0
 40
1.0
 40
1.0
 10
15.3498169100553
 20
88.83433399158868
 30
0.0
 10
15.37097056370591
 20
88.84429070159234
 30
0.0
 10
15.45049385189695
 20
88.88172113002486
 30
0.0
 10
15.57749321160187
 20
88.925661128547
 30
0.0
 10
15.66814937575088
 20
88.94709801632828
 30
0.0
 10
15.70514920561439
 20
88.95584713127435
 30
0.0
  0
LWPOLYLINE
  5
104
330
1F
100
AcDbEntity
  8
0
  6
Continuous
 62
     7
100
AcDbPolyline
 90
        9
 70
   128
 43
0.0
 10
15.7051492056
 20
88.9558471313
 10
15.7214206418
 20
88.9594558045
 10
15.7411938931
 20
88.963838789
 10
15.7644070957
 20
88.9689840268
 10
15.7909810742
 20
88.9748759168
 10
15.820832745
 20
88.9814944512
 10
15.8538633258
 20
88.9888170108
 10
15.8899657195
 20
88.9968204773
 10
15.9290212873
 20
89.0054793706
  0
SPLINE
  5
105
330
1F
100
AcDbEntity
  8
0
  6
Continuous
 62
     7
100
AcDbSpline
210
0.0
220
0.0
230
1.0
 70
     8
 71
     3
 72
    10
 73
     6
 74
     0
 42
0.000000001
 43
0.00000001
 40
0.0
 40
0.0
 40
0.0
 40
0.0
 40
0.161386275493244
 40
0.6295714739986521
 40
1.0
 40
1.0
 40
1.0
 40
1.0
 10
15.92902128733323
 20
89.00547937057382
 30
0.0
 10
15.92759594951736
 20
89.00502841446539
 30
0.0
 10
15.92203567478556
 20
89.00326922458991
 30
0.0
 10
15.88327854809403
 20
88.98632598174696
 30
0.0
 10
15.82336821489791
 20
88.94965007507736
 30
0.0
 10
15.79690490316146
 20
88.93344976538722
 30
0.0
  0
LWPOLYLINE
  5
106
330
1F
100
AcDbEntity
  8
0
  6
Continuous
 62
     7
100
AcDbPolyline
 90
        9
 70
   128
 43
0.0
 10
15.7969049032
 20
88.9334497654
 10
15.8430206264
 20
88.9436748608
 10
15.8908856442
 20
88.9542861806
 10
15.940413397
 20
88.9652660117
 10
15.9915166441
 20
88.9765940967
 10
16.0440988979
 20
88.988251292
 10
16.0980671468
 20
89.0002161595
 10
16.1533226087
 20
89.0124660798
 10
16.2097655698
 20
89.0249800468
  0
SPLINE
  5
107
330
1F
100
AcDbEntity
  8
0
  6
Continuous
 62
     7
100
AcDbSpline
210
0.0
220
0.0
230
1.0
 70
     8
 71
     3
 72
    10
 73
     6
 74
     0
 42
0.000000001
 43
0.00000001
 40
0.0
 40
0.0
 40
0.0
 40
0.0
 40
0.3717350741877851
 40
0.8418974513384869
 40
1.0
 40
1.0
 40
1.0
 40
1.0
 10
16.20976556975916
 20
89.02498004684833
 30
0.0
 10
16.23139610582115
 20
89.04013988712528
 30
0.0
 10
16.28038446997125
 20
89.0744735612338
 30
0.0
 10
16.38114192399404
 20
89.10506557797797
 30
0.0
 10
16.45386274503527
 20
89.12170365177978
 30
0.0
 10
16.47216290262009
 20
89.12589061457973
 30
0.0
  0
LWPOLYLINE
  5
108
330
1F
100
AcDbEntity
  8
0
  6
Continuous
 62
     7
100
AcDbPolyline
 90
        9
 70
   128
 43
0.0
 10
16.4721629026
 20
89.1258906146
 10
16.5339185873
 20
89.1395813332
 10
16.5965340271
 20
89.1534630183
 10
16.6598074998
 20
89.1674901821
 10
16.7235331259
 20
89.1816170869
 10
16.7875024815
 20
89.1957986772
 10
16.8515080739
 20
89.2099882839
 10
16.9153430922
 20
89.2241417828
 10
16.9787977489
 20
89.2382090293
  0
SPLINE
  5
109
330
1F
100
AcDbEntity
  8
0
  6
Continuous
 62
     7
100
AcDbSpline
210
0.0
220
0.0
230
1.0
 70
     8
 71
     3
 72
    10
 73
     6
 74
     0
 42
0.000000001
 43
0.00000001
 40
0.0
 40
0.0
 40
0.0
 40
0.0
 40
0.3424154138304802
 40
0.807557963723191
 40
1.0
 40
1.0
 40
1.0
 40
1.0
 10
16.97879774888152
 20
89.23820902930352
 30
0.0
 10
17.01484881636067
 20
89.24562910212663
 30
0.0
 10
17.09987222788832
 20
89.26312872001091
 30
0.0
 10
17.17835467863102
 20
89.2649305578398
 30
0.0
 10
17.21176794089435
 20
89.25282811396751
 30
0.0
 10
17.22154632737702
 20
89.24928633547742
 30
0.0
  0
LWPOLYLINE
  5
10A
330
1F
100
AcDbEntity
  8
0
  6
Continuous
 62
     7
100
AcDbPolyline
 90
        9
 70
   128
 43
0.0
 10
17.2215463274
 20
89.2492863355
 10
17.2810479469
 20
89.2624779163
 10
17.3396907428
 20
89.2754769176
 10
17.3973673681
 20
89.2882643783
 10
17.4539751327
 20
89.3008132724
 10
17.5094117785
 20
89.3131032754
 10
17.5635727526
 20
89.3251105873
 10
17.6163641122
 20
89.3368153828
 10
17.6676880062
 20
89.3481934297
  0
SPLINE
  5
10B
330
1F
100
AcDbEntity
  8
0
  6
Continuous
 62
     7
100
AcDbSpline
210
0.0
220
0.0
230
1.0
 70
     8
 71
     3
 72
    10
 73
     6
 74
     0
 42
0.000000001
 43
0.00000001
 40
0.0
 40
0.0
 40
0.0
 40
0.0
 40
0.1468082390277378
 40
0.6365813536022198
 40
1.0
 40
1.0
 40
1.0
 40
1.0
 10
17.66768800622231
 20
89.3481934296677
 30
0.0
 10
17.6569019634674
 20
89.35022485989046
 30
0.0
 10
17.61013215175655
 20
89.35903342955599
 30
0.0
 10
17.56239909694976
 20
89.3654596466522
 30
0.0
 10
17.56473060087241
 20
89.36747076449146
 30
0.0
 10
17.56572370938375
 20
89.36832740394384
 30
0.0
  0
LWPOLYLINE
  5
10C
330
1F
100
AcDbEntity
  8
0
  6
Continuous
 62
     7
100
AcDbPolyline
 90
        9
 70
   128
 43
0.0
 10
17.5657237094
 20
89.3683274039
 10
17.6112070266
 20
89.3784110624
 10
17.6540501464
 20
89.3879081499
 10
17.6941104165
 20
89.3967900759
 10
17.7312611328
 20
89.4050267039
 10
17.7653788176
 20
89.4125897597
 10
17.7963554422
 20
89.4194577382
 10
17.8240873851
 20
89.4256052262
 10
17.8484864739
 20
89.4310135794
  0
SPLINE
  5
10D
330
1F
100
AcDbEntity
  8
0
  6
Continuous
 62
     7
100
AcDbSpline
210
0.0
220
0.0
230
1.0
 70
     8
 71
     3
 72
    10
 73
     6
 74
     0
 42
0.000000001
 43
0.00000001
 40
0.0
 40
0.0
 40
0.0
 40
0.0
 40
0.1338647033301497
 40
0.6023168841845867
 40
0.9999999999999999
 40
0.9999999999999999
 40
0.9999999999999999
 40
0.9999999999999999
 10
17.84848647392634
 20
89.43101357936816
 30
0.0
 10
17.86401015296565
 20
89.43436079409456
 30
0.0
 10
17.93385809463694
 20
89.44942140301202
 30
0.0
 10
18.06528935455447
 20
89.47124731195323
 30
0.0
 10
18.17980309999864
 20
89.47271050926373
 30
0.0
 10
18.23238170205657
 20
89.47338233140022
 30
0.0
  0
LWPOLYLINE
  5
10E
330
1F
100
AcDbEntity
  8
0
  6
Continuous
 62
     7
100
AcDbPolyline
 90
        7
 70
   128
 43
0.0
 10
18.2323817021
 20
89.4733823314
 10
18.2457692114
 20
89.4763497482
 10
18.2565460582
 20
89.4787390427
 10
18.2646933176
 20
89.480545741
 10
18.2702003795
 20
89.4817658683
 10
18.2730522271
 20
89.4823993577
 10
18.2734886818
 20
89.4824964876
  0
SPLINE
  5
10F
330
1F
100
AcDbEntity
  8
0
  6
Continuous
 62
     7
100
AcDbSpline
210
0.0
220
0.0
230
1.0
 70
     8
 71
     3
 72
    10
 73
     6
 74
     0
 42
0.000000001
 43
0.00000001
 40
0.0
 40
0.0
 40
0.0
 40
0.0
 40
0.1766165323909825
 40
0.6639474940096665
 40
1.0
 40
1.0
 40
1.0
 40
1.0
 10
18.26566432740219
 20
89.48076007545198
 30
0.0
 10
18.24228444087062
 20
89.48084446386574
 30
0.0
 10
18.15439336486141
 20
89.48116170186762
 30
0.0
 10
18.02072352093392
 20
89.46731101601769
 30
0.0
 10
17.92950172565265
 20
89.44842768061147
 30
0.0
 10
17.89227081914171
 20
89.44072071000255
 30
0.0
  0
LINE
  5
110
330
1F
100
AcDbEntity
  8
0
  6
Continuous
 62
     7
100
AcDbLine
 10
15.9293227229
 20
89.0055458646
 30
0.0
 11
15.9290212873
 21
89.0054793706
 31
0.0
  0
LINE
  5
111
330
1F
100
AcDbEntity
  8
0
  6
Continuous
 62
     7
100
AcDbLine
 10
17.8922708191
 20
89.44072071
 30
0.0
 11
17.8484864739
 21
89.4310135794
 31
0.0
  0
LWPOLYLINE
  5
112
330
1F
100
AcDbEntity
  8
0
  6
Continuous
 62
     7
100
AcDbPolyline
 90
        6
 70
   128
 43
0.0
 10
16.031695384
 20
89.0282420504
 10
16.0210544876
 20
89.0258817786
 10
16.0025264418
 20
89.0217746494
 10
15.9763930755
 20
89.0159801387
 10
15.9430421341
 20
89.0085866112
 10
15.9290212873
 20
89.0054793706
  0
LWPOLYLINE
  5
113
330
1F
100
AcDbEntity
  8
0
  6
Continuous
 62
     7
100
AcDbPolyline
 90
        4
 70
   128
 43
0.0
 10
17.1252571221
 20
89.2706772267
 10
17.0634873518
 20
89.2569848281
 10
16.9993262023
 20
89.2427591804
 10
16.9787977489
 20
89.2382090293
  0
LWPOLYLINE
  5
114
330
1F
100
AcDbEntity
  8
0
  6
Continuous
 62
     7
100
AcDbPolyline
 90
       69
 70
   128
 43
0.0
 10
236.1810644177
 20
43.3831844571
 10
236.1368221055
 20
43.3831926189
 10
235.7830077364
 20
43.3831919274
 10
235.0761534285
 20
43.3831902961
 10
234.0178209475
 20
43.3831946791
 10
232.6103206796
 20
43.3831968811
 10
230.8567707019
 20
43.3831904547
 10
228.7609950047
 20
43.3831979719
 10
226.3276218116
 20
43.3831901371
 10
223.5620036184
 20
43.38319448
 10
220.4702102783
 20
43.3831881241
 10
217.0590304627
 20
43.3831846629
 10
213.3359811086
 20
43.3831879943
 10
209.3092408981
 20
43.3831883285
 10
204.9876482622
 20
43.383195448
 10
200.3807108275
 20
43.3831925422
 10
195.4985552587
 20
43.3831932812
 10
190.3519367055
 20
43.3831956509
 10
184.9521315714
 20
43.3831888685
 10
179.3110223935
 20
43.3831851809
 10
173.4410258673
 20
43.3831955172
 10
167.3550283235
 20
43.3831922353
 10
161.0664010919
 20
43.3831868184
 10
154.5889895929
 20
43.383189164
 10
147.9370210083
 20
43.3831886902
 10
141.1251189143
 20
43.3831885937
 10
134.1682506646
 20
43.3831926783
 10
127.0817283885
 20
43.3831887237
 10
119.8811062156
 20
43.3831923877
 10
112.5822304339
 20
43.383190132
 10
105.2011394418
 20
43.3831933018
 10
97.7540565647
 20
43.3831909617
 10
90.2573473481
 20
43.3831940652
 10
82.7275021969
 20
43.383191018
 10
75.1810668604
 20
43.3831935759
 10
67.6346352492
 20
43.3831896814
 10
60.1047863727
 20
43.3831930866
 10
52.6080841076
 20
43.3831916004
 10
45.1610012305
 20
43.3831892603
 10
37.7799070122
 20
43.3831905674
 10
30.4810266987
 20
43.3831942985
 10
23.2804102674
 20
43.3831926742
 10
16.1938833057
 20
43.3831903161
 10
9.2370220076
 20
43.3831898108
 10
2.4251180509
 20
43.3831929406
 10
-4.2268521468
 20
43.3831915354
 10
-10.7042633962
 20
43.3831897235
 10
-16.9928844251
 20
43.3831921894
 10
-23.0788838315
 20
43.3831921338
 10
-28.9488863109
 20
43.3831904297
 10
-34.5899890365
 20
43.3831904674
 10
-39.9897946696
 20
43.383192
 10
-45.1364247641
 20
43.383192008
 10
-50.0185752441
 20
43.3831913835
 10
-54.6255062264
 20
43.3831922029
 10
-58.9470942057
 20
43.3831912569
 10
-62.9738427312
 20
43.3831910921
 10
-66.6968911539
 20
43.3831928104
 10
-70.1080645172
 20
43.3831930744
 10
-73.1998615826
 20
43.3831931709
 10
-75.9654852968
 20
43.3831921754
 10
-78.3988543659
 20
43.3831920987
 10
-80.4946249407
 20
43.3831907439
 10
-82.2481864932
 20
43.3831894642
 10
-83.6556779803
 20
43.3831913587
 10
-84.7140164481
 20
43.3831912099
 10
-85.4208712216
 20
43.3831903852
 10
-85.774686522
 20
43.3831913068
 10
-85.8189324926
 20
43.3831909039
  0
SPLINE
  5
115
330
1F
100
AcDbEntity
  8
0
  6
Continuous
 62
     7
100
AcDbSpline
210
0.0
220
0.0
230
1.0
 70
     8
 71
     3
 72
    17
 73
    13
 74
     0
 42
0.000000001
 43
0.00000001
 40
0.0
 40
0.0
 40
0.0
 40
0.0
 40
0.0950217750109465
 40
0.1990603638808132
 40
0.3043536017435473
 40
0.4118048644157092
 40
0.5214283560552186
 40
0.6322922388624898
 40
0.7428631584985594
 40
0.851708708410021
 40
0.9582042153981768
 40
1.0
 40
1.0
 40
1.0
 40
1.0
 10
19.67232114584913
 20
87.64603435848358
 30
0.0
 10
19.65806148183953
 20
87.64299393091615
 30
0.0
 10
19.62818902464493
 20
87.6366245632859
 30
0.0
 10
19.32003585252587
 20
87.570945786719
 30
0.0
 10
18.84315941141013
 20
87.46939083004064
 30
0.0
 10
18.22755301695364
 20
87.33843891741571
 30
0.0
 10
17.5424980371839
 20
87.1929100385372
 30
0.0
 10
16.86649907735999
 20
87.04948719562708
 30
0.0
 10
16.2800255861688
 20
86.9252049973597
 30
0.0
 10
15.87469255556156
 20
86.83938155957495
 30
0.0
 10
15.67749370254501
 20
86.79765076397037
 30
0.0
 10
15.70088430641586
 20
86.80260047547885
 30
0.0
 10
15.70747692983031
 20
86.80399554779788
 30
0.0
  0
LWPOLYLINE
  5
116
330
1F
100
AcDbEntity
  8
0
  6
Continuous
 62
     7
100
AcDbPolyline
 90
       13
 70
   128
 43
0.0
 10
128.529552646
 20
88.083062566
 10
128.4296762055
 20
88.083066055
 10
127.9865372595
 20
88.0830613123
 10
127.1919903859
 20
88.0830601244
 10
126.0513198315
 20
88.0830592201
 10
124.5721192312
 20
88.0830637634
 10
122.7642196337
 20
88.0830630045
 10
120.6396708749
 20
88.0830625423
 10
118.2125993576
 20
88.0830624359
 10
115.499160889
 20
88.0830643874
 10
112.5174076394
 20
88.0830637567
 10
109.2871938163
 20
88.0830639275
 10
106.8707471353
 20
88.0830639991
  0
LWPOLYLINE
  5
117
330
1F
100
AcDbEntity
  8
0
  6
Continuous
 62
     7
100
AcDbPolyline
 90
       27
 70
   128
 43
0.0
 10
101.6017576733
 20
88.0830648833
 10
98.3281065014
 20
88.0830647863
 10
94.3333193602
 20
88.083063694
 10
90.2110757598
 20
88.0830629614
 10
85.9888041858
 20
88.0830599603
 10
81.6946150901
 20
88.0830629541
 10
77.357077384
 20
88.0830609925
 10
73.0050593199
 20
88.0830610924
 10
68.6675197511
 20
88.0830623569
 10
64.3733325181
 20
88.0830621245
 10
60.1510641703
 20
88.0830609861
 10
56.0288187073
 20
88.0830634797
 10
52.034031566
 20
88.0830623874
 10
48.1932796044
 20
88.0830623783
 10
44.5321287036
 20
88.0830608479
 10
41.074941025
 20
88.0830613835
 10
37.8447272019
 20
88.0830615543
 10
34.8629771785
 20
88.0830627863
 10
32.1495380281
 20
88.0830621934
 10
29.7224665108
 20
88.083062087
 10
27.5979152076
 20
88.0830623066
 10
25.7900197676
 20
88.0830617972
 10
24.3108152593
 20
88.0830619334
 10
23.1701437736
 20
88.0830626422
 10
22.3755985131
 20
88.0830623856
 10
21.9324618619
 20
88.0830611187
 10
21.8325872841
 20
88.0830613815
  0
ARC
  5
118
330
1F
100
AcDbEntity
  8
0
  6
Continuous
 62
     7
100
AcDbCircle
 10
75.1810688167
 20
28.3922516412
 30
0.0
 40
120.0
100
AcDbArc
 50
109.5
 51
111.5057619349
  0
SPLINE
  5
119
330
1F
100
AcDbEntity
  8
0
  6
Continuous
 62
     7
100
AcDbSpline
210
0.0
220
0.0
230
1.0
 70
     8
 71
     3
 72
    12
 73
     8
 74
     0
 42
0.000000001
 43
0.00000001
 40
0.0
 40
0.0
 40
0.0
 40
0.0
 40
0.2142725238927172
 40
0.4289641857991543
 40
0.6436587457311356
 40
0.8583492190584613
 40
1.0
 40
1.0
 40
1.0
 40
1.0
 10
35.40728863660011
 20
141.6086661103337
 30
0.0
 10
35.40414667153008
 20
141.6076423284173
 30
0.0
 10
35.39785659539907
 20
141.6055927619668
 30
0.0
 10
35.3491161601174
 20
141.5885731988876
 30
0.0
 10
35.27734306772115
 20
141.5633351366179
 30
0.0
 10
35.19776211165329
 20
141.5352508594033
 30
0.0
 10
35.14515582802161
 20
141.5166314911379
 30
0.0
 10
35.12424407259168
 20
141.5092300240784
 30
0.0
  0
LINE
  5
11A
330
1F
100
AcDbEntity
  8
0
  6
Continuous
 62
     7
100
AcDbLine
 10
35.4102942896
 20
141.6001819112
 30
0.0
 11
35.4072886366
 21
141.6086661103
 31
0.0
  0
SPLINE
  5
11B
330
1F
100
AcDbEntity
  8
0
  6
Continuous
 62
     7
100
AcDbSpline
210
0.0
220
0.0
230
1.0
 70
     8
 71
     3
 72
    15
 73
    11
 74
     0
 42
0.000000001
 43
0.00000001
 40
0.0
 40
0.0
 40
0.0
 40
0.0
 40
0.1292133423863957
 40
0.2584531926548426
 40
0.3877146342722341
 40
0.5170188988994661
 40
0.6463614805117255
 40
0.7757210300570576
 40
0.9050694905039885
 40
1.0
 40
1.0
 40
1.0
 40
1.0
 10
40.6415145391083
 20
143.3042575667067
 30
0.0
 10
40.53300508501223
 20
143.2669344802765
 30
0.0
 10
40.31596391630303
 20
143.1922806506528
 30
0.0
 10
39.6532393380539
 20
142.9718500892271
 30
0.0
 10
38.82796879849982
 20
142.7001640214549
 30
0.0
 10
37.90665380072135
 20
142.3992595244551
 30
0.0
 10
36.99862582986796
 20
142.1048233434712
 30
0.0
 10
36.21062040089715
 20
141.8514852653684
 30
0.0
 10
35.66245415534805
 20
141.6774270014242
 30
0.0
 10
35.48528474590651
 20
141.6231540227816
 30
0.0
 10
35.41029428955802
 20
141.6001819112381
 30
0.0
  0
ARC
  5
11C
330
1F
100
AcDbEntity
  8
0
  6
Continuous
 62
     7
100
AcDbCircle
 10
40.2777233287
 20
143.1805423325
 30
0.0
 40
0.3842518756685466
100
AcDbArc
 50
18.7817351557
 51
20.1814866999
  0
LWPOLYLINE
  5
11D
330
1F
100
AcDbEntity
  8
0
  6
Continuous
 62
     7
100
AcDbPolyline
 90
        9
 70
   128
 43
0.0
 10
75.1810682657
 20
148.0467121932
 10
73.3492514617
 20
148.0467120231
 10
71.5924288469
 20
148.046711529
 10
69.9825300329
 20
148.0467135781
 10
68.585457651
 20
148.0467143591
 10
67.4584063814
 20
148.0467126998
 10
66.6475223329
 20
148.0467110236
 10
66.186004302
 20
148.0467109095
 10
66.0810698175
 20
148.0467133051
  0
LWPOLYLINE
  5
11E
330
1F
100
AcDbEntity
  8
0
  6
Continuous
 62
     7
100
AcDbPolyline
 90
        9
 70
   128
 43
0.0
 10
84.2810665976
 20
148.046711283
 10
84.1761322295
 20
148.0467134769
 10
83.714614315
 20
148.0467131611
 10
82.9037301501
 20
148.0467116866
 10
81.7766853329
 20
148.0467137526
 10
80.3796065568
 20
148.0467107074
 10
78.7697076846
 20
148.0467128574
 10
77.0128850843
 20
148.0467123381
 10
75.1810682657
 20
148.0467121932
  0
LWPOLYLINE
  5
11F
330
1F
100
AcDbEntity
  8
0
  6
Continuous
 62
     8
370
    18
100
AcDbPolyline
 90
       40
 70
   128
 43
0.0
 10
25.1810742266
 20
298.3922524105
 10
25.224935776
 20
298.3922480981
 10
25.5753381811
 20
298.3922576249
 10
26.2736941101
 20
298.3922565328
 10
27.3150963538
 20
298.3922506959
 10
28.6922404407
 20
298.3922556448
 10
30.3954802497
 20
298.3922598491
 10
32.4128592727
 20
298.3922599738
 10
34.7302178467
 20
298.3922539635
 10
37.331313289
 20
298.3922415774
 10
40.1979047768
 20
298.3922561881
 10
43.309866567
 20
298.3922580856
 10
46.6453944732
 20
298.3922536861
 10
50.1810689278
 20
298.3922459099
 10
53.892100708
 20
298.392255606
 10
57.7524754197
 20
298.392250113
 10
61.735080549
 20
298.3922510248
 10
65.8120107925
 20
298.3922523777
 10
69.9546529368
 20
298.3922524488
 10
74.1339464855
 20
298.3922493721
 10
78.3205961247
 20
298.392260567
 10
82.4852162068
 20
298.3922512988
 10
86.5986111986
 20
298.3922449762
 10
90.6319201643
 20
298.3922517112
 10
94.5568478584
 20
298.3922554865
 10
98.345866015
 20
298.3922529414
 10
101.9724037296
 20
298.3922514469
 10
105.4110286607
 20
298.392253278
 10
108.637604151
 20
298.392251693
 10
111.6295016936
 20
298.392250362
 10
114.3657451478
 20
298.3922519952
 10
116.8271346005
 20
298.3922524257
 10
118.9963960372
 20
298.3922495929
 10
120.8583476419
 20
298.3922535248
 10
122.3998851645
 20
298.392252079
 10
123.6102330997
 20
298.392252724
 10
124.4808764387
 20
298.3922517384
 10
125.0057066142
 20
298.3922496467
 10
125.1810713904
 20
298.3922542142
 10
125.1810713904
 20
298.3922542142
  0
LWPOLYLINE
  5
120
330
1F
100
AcDbEntity
  8
0
  6
Continuous
 62
     8
370
    18
100
AcDbPolyline
 90
       13
 70
   128
 43
0.0
 10
41.2900644904
 20
294.7780356425
 10
41.2424712802
 20
294.7780362768
 10
40.8671004468
 20
294.7780301668
 10
40.1441697571
 20
294.7780382767
 10
39.1273293694
 20
294.7780296452
 10
37.8919631156
 20
294.7780294222
 10
36.5297124114
 20
294.7780371888
 10
35.1416061632
 20
294.7780351806
 10
33.8306009048
 20
294.7780345475
 10
32.6939124604
 20
294.778035664
 10
31.8158390601
 20
294.7780312901
 10
31.2615306399
 20
294.7780398211
 10
31.0720727209
 20
294.778037191
  0
LWPOLYLINE
  5
121
330
1F
100
AcDbEntity
  8
0
  6
Continuous
 62
     8
370
    18
100
AcDbPolyline
 90
       13
 70
   128
 43
0.0
 10
30.9310624728
 20
295.2316056176
 10
31.1099593488
 20
295.2316018848
 10
31.6344328421
 20
295.2315917359
 10
32.4687648288
 20
295.2316009571
 10
33.5560709307
 20
295.2315999016
 10
34.822266458
 20
295.2316080182
 10
36.181071938
 20
295.2316070904
 10
37.5398645133
 20
295.2315987121
 10
38.8060674911
 20
295.2315939239
 10
39.8933864978
 20
295.231600319
 10
40.7277055797
 20
295.2316020896
 10
41.2521716225
 20
295.2316048455
 10
41.4310684985
 20
295.2316011128
  0
LWPOLYLINE
  5
122
330
1F
100
AcDbEntity
  8
0
  6
Continuous
 62
     8
370
    18
100
AcDbPolyline
 90
       13
 70
   128
 43
0.0
 10
119.2900600273
 20
294.778027835
 10
119.2424797219
 20
294.7780359199
 10
118.8670922584
 20
294.7780288117
 10
118.1441781987
 20
294.7780379197
 10
117.127321181
 20
294.7780282901
 10
115.891967832
 20
294.7780355177
 10
114.529720853
 20
294.7780368319
 10
113.1416146049
 20
294.7780348237
 10
111.8305927164
 20
294.7780331924
 10
110.693904272
 20
294.7780343089
 10
109.8158437764
 20
294.7780373855
 10
109.2615261768
 20
294.7780320136
 10
109.0720682578
 20
294.7780293835
  0
LWPOLYLINE
  5
123
330
1F
100
AcDbEntity
  8
0
  6
Continuous
 62
     8
370
    18
100
AcDbPolyline
 90
       13
 70
   128
 43
0.0
 10
108.9310709144
 20
295.2316052606
 10
109.1099511604
 20
295.2316005297
 10
109.6344375585
 20
295.2315978314
 10
110.4687566404
 20
295.231599602
 10
111.5560627423
 20
295.2315985465
 10
112.8222619949
 20
295.2316002107
 10
114.1810674749
 20
295.2315992829
 10
115.5398692297
 20
295.2316048076
 10
116.8060722075
 20
295.2316000194
 10
117.8933783094
 20
295.2315989639
 10
118.7276973914
 20
295.2316007345
 10
119.2521800641
 20
295.2316044886
 10
119.4310732149
 20
295.2316072082
  0
LINE
  5
124
330
1F
100
AcDbEntity
  8
0
  6
Continuous
 62
     8
370
    18
100
AcDbLine
 10
51.1810766979
 20
320.3922477987
 30
0.0
 11
51.1810724543
 21
323.3922463272
 31
0.0
  0
LINE
  5
125
330
1F
100
AcDbEntity
  8
0
  6
Continuous
 62
     8
370
    18
100
AcDbLine
 10
99.1810627547
 20
321.9177011361
 30
0.0
 11
99.1810658084
 21
323.3922551541
 31
0.0
  0
LINE
  5
126
330
1F
100
AcDbEntity
  8
0
  6
Continuous
 62
     8
370
    18
100
AcDbLine
 10
39.7859801587
 20
320.3922479371
 30
0.0
 11
39.7859759152
 21
323.3922464656
 31
0.0
  0
LINE
  5
127
330
1F
100
AcDbEntity
  8
0
  6
Continuous
 62
     8
370
    18
100
AcDbLine
 10
37.5210351285
 20
320.3922489006
 30
0.0
 11
37.4725763688
 21
323.3922497732
 31
0.0
  0
LINE
  5
128
330
1F
100
AcDbEntity
  8
0
  6
Continuous
 62
     8
370
    18
100
AcDbLine
 10
110.5761536862
 20
320.3922490365
 30
0.0
 11
110.5761623475
 21
323.3922550156
 31
0.0
  0
LINE
  5
129
330
1F
100
AcDbEntity
  8
0
  6
Continuous
 62
     8
370
    18
100
AcDbLine
 10
112.8411116212
 20
320.3922555236
 30
0.0
 11
112.8895618939
 21
323.392251708
 31
0.0
  0
LINE
  5
12A
330
1F
100
AcDbEntity
  8
0
  6
Continuous
 62
     8
370
    18
100
AcDbLine
 10
44.6810709062
 20
325.3922493894
 30
0.0
 11
44.6810766224
 21
324.3922523634
 31
0.0
  0
LINE
  5
12B
330
1F
100
AcDbEntity
  8
0
  6
Continuous
 62
     8
370
    18
100
AcDbLine
 10
47.6810694348
 20
325.392253633
 30
0.0
 11
47.6810679622
 21
323.3922521304
 31
0.0
  0
LINE
  5
12C
330
1F
100
AcDbEntity
  8
0
  6
Continuous
 62
     8
370
    18
100
AcDbLine
 10
31.2587171762
 20
320.3922571272
 30
0.0
 11
31.2171285095
 21
323.3922497763
 31
0.0
  0
LINE
  5
12D
330
1F
100
AcDbEntity
  8
0
  6
Continuous
 62
     8
370
    18
100
AcDbLine
 10
119.1034221229
 20
320.3922602018
 30
0.0
 11
119.1450097532
 21
323.392251705
 31
0.0
  0
LINE
  5
12E
330
1F
100
AcDbEntity
  8
0
  6
Continuous
 62
     8
370
    18
100
AcDbLine
 10
30.2415292859
 20
320.3922543415
 30
0.0
 11
30.1891854695
 21
323.3922490048
 31
0.0
  0
LINE
  5
12F
330
1F
100
AcDbEntity
  8
0
  6
Continuous
 62
     8
370
    18
100
AcDbLine
 10
120.1205971085
 20
320.3922555369
 30
0.0
 11
120.1729527932
 21
323.3922524765
 31
0.0
  0
ARC
  5
130
330
1F
100
AcDbEntity
  8
0
  6
Continuous
 62
     8
370
    18
100
AcDbCircle
 10
103.6573328867
 20
89.790040101
 30
0.0
 40
0.656300219721058
100
AcDbArc
 50
232.3122242364
 51
254.2565694637
  0
ARC
  5
131
330
1F
100
AcDbEntity
  8
0
  6
Continuous
 62
     8
370
    18
100
AcDbCircle
 10
105.0118773233
 20
94.964475547
 30
0.0
 40
6.017141563132993
100
AcDbArc
 50
260.593633479
 51
265.5399762071
  0
ARC
  5
132
330
1F
100
AcDbEntity
  8
0
  6
Continuous
 62
     8
370
    18
100
AcDbCircle
 10
105.107843391
 20
90.0582117257
 30
0.0
 40
1.102977786439574
100
AcDbArc
 50
271.9101353688
 51
287.3605915955
  0
ARC
  5
133
330
1F
100
AcDbEntity
  8
0
  6
Continuous
 62
     8
370
    18
100
AcDbCircle
 10
105.0871644829
 20
88.6065623737
 30
0.0
 40
0.656268777268647
100
AcDbArc
 50
52.3104454068
 51
74.255491434
  0
ARC
  5
134
330
1F
100
AcDbEntity
  8
0
  6
Continuous
 62
     8
370
    18
100
AcDbCircle
 10
103.7331394712
 20
83.436386619
 30
0.0
 40
6.012816914853719
100
AcDbArc
 50
80.5918535726
 51
85.5417561134
  0
ARC
  5
135
330
1F
100
AcDbEntity
  8
0
  6
Continuous
 62
     8
370
    18
100
AcDbCircle
 10
103.6366490323
 20
88.3383280581
 30
0.0
 40
1.10300306305265
100
AcDbArc
 50
91.9099955737
 51
107.3597294192
  0
LWPOLYLINE
  5
136
330
1F
100
AcDbEntity
  8
0
  6
Continuous
 62
     8
370
    18
100
AcDbPolyline
 90
       11
 70
   128
 43
0.0
 10
101.5760799852
 20
88.0260928382
 10
101.578253519
 20
87.9922725252
 10
101.7995991858
 20
87.7898502858
 10
102.3464698706
 20
87.5798625234
 10
103.1450123212
 20
87.3906721653
 10
104.0873747124
 20
87.2478236858
 10
105.0462854004
 20
87.170622165
 10
105.8922426499
 20
87.1694799196
 10
106.5109970896
 20
87.2445591582
 10
106.8189730676
 20
87.3857195851
 10
106.8438060272
 20
87.4420834814
  0
LWPOLYLINE
  5
137
330
1F
100
AcDbEntity
  8
0
  6
Continuous
 62
     8
370
    18
100
AcDbPolyline
 90
        5
 70
   128
 43
0.0
 10
18.2640328374
 20
87.9867195537
 10
19.0258665349
 20
88.1556134455
 10
19.5307571756
 20
88.2675442723
 10
19.7105146234
 20
88.3073969825
 10
19.7105534046
 20
88.3074043173
  0
LWPOLYLINE
  5
138
330
1F
100
AcDbEntity
  8
0
  6
Continuous
 62
     8
370
    18
100
AcDbPolyline
 90
        7
 70
   128
 43
0.0
 10
14.5361851111
 20
87.1602745847
 10
14.5777022368
 20
87.1694792846
 10
14.9163660236
 20
87.2445601103
 10
15.5530980901
 20
87.3857200866
 10
16.4019043088
 20
87.5738948193
 10
17.3481485317
 20
87.7836717629
 10
18.2640328374
 20
87.9867195537
  0
LWPOLYLINE
  5
139
330
1F
100
AcDbEntity
  8
0
  6
Continuous
 62
     8
370
    18
100
AcDbPolyline
 90
       26
 70
   128
 43
0.0
 10
50.9125179981
 20
-33.8308164773
 10
54.3979324815
 20
-33.8308147003
 10
58.0460051911
 20
-33.8308145685
 10
61.8281837878
 20
-33.8308170714
 10
65.7148628388
 20
-33.8308117732
 10
69.6756356531
 20
-33.8308206849
 10
73.6794904548
 20
-33.8308194172
 10
77.6950947528
 20
-33.8308138878
 10
81.6910242403
 20
-33.8308114055
 10
85.6360088132
 20
-33.8308162819
 10
89.499167004
 20
-33.8308149258
 10
93.2502669918
 20
-33.8308144187
 10
96.859951167
 20
-33.8308161015
 10
100.2999699498
 20
-33.8308182295
 10
103.5433936412
 20
-33.8308141052
 10
106.5648456274
 20
-33.8308122949
 10
109.3406848114
 20
-33.8308173338
 10
111.8491735272
 20
-33.830818813
 10
114.0706774834
 20
-33.8308135919
 10
115.9878266101
 20
-33.8308161728
 10
117.5856096166
 20
-33.8308213133
 10
118.8515080306
 20
-33.8308126714
 10
119.7756364571
 20
-33.8308194775
 10
120.3507462684
 20
-33.8308111658
 10
120.5723462744
 20
-33.8308169758
 10
120.5750696855
 20
-33.8308103942
  0
LWPOLYLINE
  5
13A
330
1F
100
AcDbEntity
  8
0
  6
Continuous
 62
     8
370
    18
100
AcDbPolyline
 90
       13
 70
   128
 43
0.0
 10
29.7870617045
 20
-33.8308110861
 10
29.8122103366
 20
-33.8308137004
 10
30.1232647339
 20
-33.8308093364
 10
30.7869589501
 20
-33.8308113591
 10
31.7981041784
 20
-33.8308216175
 10
33.1487658496
 20
-33.8308098277
 10
34.8283945955
 20
-33.8308100248
 10
36.8238380045
 20
-33.830810538
 10
39.1194792677
 20
-33.8308115934
 10
41.697349864
 20
-33.830811875
 10
44.5372765042
 20
-33.8308097185
 10
47.6170355246
 20
-33.8308172097
 10
50.9125179981
 20
-33.8308164773
  0
LWPOLYLINE
  5
13B
330
1F
100
AcDbEntity
  8
0
  6
Continuous
 62
     8
370
    18
100
AcDbPolyline
 90
       68
 70
   128
 43
0.0
 10
234.2661546758
 20
46.7967629697
 10
234.1663087685
 20
46.7967582774
 10
233.722795512
 20
46.7967611095
 10
232.925521502
 20
46.7967597922
 10
231.7762426106
 20
46.7967529026
 10
230.2775482102
 20
46.7967556669
 10
228.4327837445
 20
46.796755257
 10
226.2460412817
 20
46.7967569558
 10
223.7222205804
 20
46.7967677941
 10
220.8669442106
 20
46.7967647521
 10
217.686586821
 20
46.7967632764
 10
214.1882384207
 20
46.7967616674
 10
210.3797098338
 20
46.7967614353
 10
206.2695068898
 20
46.7967523987
 10
201.8668006211
 20
46.7967643037
 10
197.181399992
 20
46.7967650469
 10
192.2237662651
 20
46.7967550024
 10
187.0049668362
 20
46.7967575737
 10
181.5366459669
 20
46.796750678
 10
175.8310058909
 20
46.7967590756
 10
169.9007720921
 20
46.796765498
 10
163.7591838579
 20
46.7967568126
 10
157.4199451196
 20
46.7967644664
 10
150.8972009067
 20
46.7967562565
 10
144.2054998262
 20
46.7967609217
 10
137.3597806953
 20
46.7967571867
 10
130.3753139343
 20
46.7967603701
 10
123.2676889293
 20
46.7967548656
 10
116.0527601497
 20
46.7967576681
 10
108.7466372376
 20
46.796761033
 10
101.3656100386
 20
46.7967580178
 10
93.9261577819
 20
46.7967563855
 10
86.4448803312
 20
46.796756119
 10
78.9384676524
 20
46.7967576022
 10
71.4236697791
 20
46.7967614869
 10
63.9172575993
 20
46.7967546551
 10
56.4359764234
 20
46.7967608409
 10
48.9965241666
 20
46.7967592086
 10
41.615501807
 20
46.7967589874
 10
34.3093748621
 20
46.796760024
 10
27.0944510176
 20
46.7967570727
 10
19.986824351
 20
46.796759212
 10
13.002359002
 20
46.796758909
 10
6.1566392183
 20
46.7967590987
 10
-0.5350616125
 20
46.7967596064
 10
-7.0578079377
 20
46.7967587802
 10
-13.39704779
 20
46.7967571876
 10
-19.5386365233
 20
46.7967568173
 10
-25.4688665967
 20
46.7967567873
 10
-31.1745112625
 20
46.7967582334
 10
-36.6428316996
 20
46.7967580397
 10
-41.8616292659
 20
46.7967573848
 10
-46.8192602657
 20
46.7967575179
 10
-51.5046567373
 20
46.7967585107
 10
-55.9073698906
 20
46.7967599884
 10
-60.0175774912
 20
46.7967590173
 10
-63.826097763
 20
46.7967592843
 10
-67.3244461633
 20
46.7967576753
 10
-70.5048044843
 20
46.7967578127
 10
-73.360082251
 20
46.7967571904
 10
-75.8839056794
 20
46.796757851
 10
-78.0706398272
 20
46.7967600489
 10
-79.9154130736
 20
46.7967599465
 10
-81.414106077
 20
46.7967602911
 10
-82.563378516
 20
46.7967571268
 10
-83.3606543887
 20
46.7967590357
 10
-83.8041653168
 20
46.7967578351
 10
-83.9040135525
 20
46.7967571755
  0
LWPOLYLINE
  5
13C
330
1F
100
AcDbEntity
  8
0
  6
Continuous
 62
     8
370
    18
100
AcDbPolyline
 90
       39
 70
   128
 43
0.0
 10
25.6300883985
 20
134.8230688483
 10
25.6747349882
 20
134.8230682626
 10
26.0314280605
 20
134.8230673324
 10
26.7422483139
 20
134.8230691796
 10
27.8020709514
 20
134.8230691215
 10
29.203256106
 20
134.8230675642
 10
30.9357181559
 20
134.8230691565
 10
32.9869641394
 20
134.8230684058
 10
35.3422212086
 20
134.8230673419
 10
37.9845184487
 20
134.8230679109
 10
40.8948181233
 20
134.8230681695
 10
44.0521533383
 20
134.8230697142
 10
47.4337671691
 20
134.8230676724
 10
51.015308089
 20
134.8230698394
 10
54.7709548038
 20
134.8230667228
 10
58.6736624926
 20
134.8230669768
 10
62.6953086049
 20
134.823068392
 10
66.8069109718
 20
134.8230675451
 10
70.9788541171
 20
134.8230701489
 10
75.1810663347
 20
134.8230674666
 10
79.3832850048
 20
134.8230685095
 10
83.5552219305
 20
134.8230669847
 10
87.6668309826
 20
134.8230694598
 10
91.6884708753
 20
134.8230667465
 10
95.5911785641
 20
134.8230670005
 10
99.3468315567
 20
134.8230679117
 10
102.9283655004
 20
134.8230672607
 10
106.3099857835
 20
134.8230689442
 10
109.4673209985
 20
134.8230704889
 10
112.3776179126
 20
134.8230680783
 10
115.0199151527
 20
134.8230686473
 10
117.3751745167
 20
134.8230710591
 10
119.4264177398
 20
134.8230676393
 10
121.1588770291
 20
134.8230665624
 10
122.560061718
 20
134.8230658116
 10
123.6198875817
 20
134.8230676161
 10
124.3307027797
 20
134.8230633184
 10
124.6874041336
 20
134.8230703958
 10
124.7320548808
 20
134.8230700596
  0
LWPOLYLINE
  5
13D
330
1F
100
AcDbEntity
  8
0
  6
Continuous
 62
     8
370
    18
100
AcDbPolyline
 90
       37
 70
   128
 43
0.0
 10
28.3741234942
 20
138.8870914586
 10
28.5522389884
 20
138.8870925639
 10
29.0852279228
 20
138.8870928385
 10
29.9690333187
 20
138.8870932782
 10
31.1969283682
 20
138.8870923481
 10
32.7595723114
 20
138.8870935084
 10
34.6450650166
 20
138.8870926353
 10
36.8390633572
 20
138.8870925171
 10
39.324871813
 20
138.8870949397
 10
42.0835626392
 20
138.8870937135
 10
45.0941458257
 20
138.8870932199
 10
48.3337105529
 20
138.8870943701
 10
51.7775945528
 20
138.8870918363
 10
55.3995975059
 20
138.8870918672
 10
59.1721480287
 20
138.8870912781
 10
63.0665431508
 20
138.8870947983
 10
67.0531253929
 20
138.8870914851
 10
71.1015780247
 20
138.8870946647
 10
75.1810660771
 20
138.8870914075
 10
79.2605608147
 20
138.8870914723
 10
83.3090067613
 20
138.8870913298
 10
87.2955953976
 20
138.8870918427
 10
91.18998398
 20
138.8870917889
 10
94.9625413335
 20
138.8870942698
 10
98.5845442866
 20
138.8870943006
 10
102.028427588
 20
138.8870929766
 10
105.2679927809
 20
138.8870933203
 10
108.2785764331
 20
138.8870920201
 10
111.037266328
 20
138.8870924071
 10
113.52307801
 20
138.8870966923
 10
115.717066672
 20
138.8870909861
 10
117.6025727476
 20
138.8870967571
 10
119.1652074779
 20
138.8870915229
 10
120.3931057536
 20
138.8870924554
 10
121.2769106838
 20
138.8870937017
 10
121.809896392
 20
138.8870921136
 10
121.9880151124
 20
138.8870950816
  0
LINE
  5
13E
330
1F
100
AcDbEntity
  8
0
  6
Continuous
 62
     7
100
AcDbLine
 10
102.904000148
 20
633.5503691952
 30
0.0
 11
103.0666114374
 21
633.7145203869
 31
0.0
  0
SPLINE
  5
13F
330
1F
100
AcDbEntity
  8
0
  6
Continuous
 62
     7
100
AcDbSpline
210
0.0
220
0.0
230
1.0
 70
     8
 71
     3
 72
     9
 73
     5
 74
     0
 42
0.000000001
 43
0.00000001
 40
0.0
 40
0.0
 40
0.0
 40
0.0
 40
0.1992364861109696
 40
1.0
 40
1.0
 40
1.0
 40
1.0
 10
102.4988241175495
 20
632.5010294239195
 30
0.0
 10
102.4943040421996
 20
632.5209718263019
 30
0.0
 10
102.4716170563053
 20
632.6210659544992
 30
0.0
 10
102.4913328759218
 20
632.7229672433268
 30
0.0
 10
102.507120584917
 20
632.8045660774382
 30
0.0
  0
SPLINE
  5
140
330
1F
100
AcDbEntity
  8
0
  6
Continuous
 62
     7
100
AcDbSpline
210
0.0
220
0.0
230
1.0
 70
     8
 71
     3
 72
     9
 73
     5
 74
     0
 42
0.000000001
 43
0.00000001
 40
0.0
 40
0.0
 40
0.0
 40
0.0
 40
0.1992376152802652
 40
1.0
 40
1.0
 40
1.0
 40
1.0
 10
19.10848247968858
 20
582.6962017016643
 30
0.0
 10
19.09347100978355
 20
582.6823171359631
 30
0.0
 10
19.0181264525627
 20
582.6126286603122
 30
0.0
 10
18.9200233753665
 20
582.5787470702708
 30
0.0
 10
18.84146612132254
 20
582.5516159674311
 30
0.0
  0
SPLINE
  5
141
330
1F
100
AcDbEntity
  8
0
  6
Continuous
 62
     7
100
AcDbSpline
210
0.0
220
0.0
230
1.0
 70
     8
 71
     3
 72
     9
 73
     5
 74
     0
 42
0.000000001
 43
0.00000001
 40
0.0
 40
0.0
 40
0.0
 40
0.0
 40
0.1992378610237226
 40
1.0
 40
1.0
 40
1.0
 40
1.0
 10
103.9358986852859
 20
535.3804612676771
 30
0.0
 10
103.9554285737411
 20
535.3744023550245
 30
0.0
 10
104.0534515516778
 20
535.3439919068214
 30
0.0
 10
104.1318465713955
 20
535.2759755247862
 30
0.0
 10
104.1946223350696
 20
535.2215105812223
 30
0.0
  0
CIRCLE
  5
142
330
1F
100
AcDbEntity
  8
0
  6
Continuous
 62
     7
100
AcDbCircle
 10
75.1810688167
 20
583.5258970182
 30
0.0
 40
50.0050436296075
  0
SPLINE
  5
143
330
1F
100
AcDbEntity
  8
0
  6
Continuous
 62
     7
100
AcDbSpline
210
0.0
220
0.0
230
1.0
 70
     8
 71
     3
 72
    21
 73
    17
 74
     0
 42
0.000000001
 43
0.00000001
 40
0.0
 40
0.0
 40
0.0
 40
0.0
 40
0.0007555313231953
 40
0.0064498856884611
 40
0.012187955565849
 40
0.0173428422618591
 40
0.0259697163383518
 40
0.0504665433251592
 40
0.1610301012856022
 40
0.2997576437583147
 40
0.436858290699533
 40
0.560409774703178
 40
0.68238396837706
 40
0.8020402302377365
 40
0.9254269853462362
 40
1.0
 40
1.0
 40
1.0
 40
1.0
 10
102.837425247567
 20
631.718025557247
 30
0.0
 10
102.8380167444137
 20
631.7179822778432
 30
0.0
 10
102.8430662862781
 20
631.7176128064559
 30
0.0
 10
102.8495633261652
 20
631.7214565362733
 30
0.0
 10
102.8551774149942
 20
631.7286638181364
 30
0.0
 10
102.8550890667762
 20
631.7412661758543
 30
0.0
 10
102.8439329911268
 20
631.7694638912399
 30
0.0
 10
102.7636643733112
 20
631.8794261674192
 30
0.0
 10
102.598532454766
 20
632.0999950334402
 30
0.0
 10
102.4698739883166
 20
632.4742299594413
 30
0.0
 10
102.4868833002282
 20
632.8823240122566
 30
0.0
 10
102.6420603763983
 20
633.2394317708945
 30
0.0
 10
102.8990453185263
 20
633.5114306366007
 30
0.0
 10
103.2320465200899
 20
633.6773238728097
 30
0.0
 10
103.5598447353004
 20
633.7390234194952
 30
0.0
 10
103.757175971291
 20
633.6911107235678
 30
0.0
 10
103.8315122122901
 20
633.6730616311701
 30
0.0
  0
LWPOLYLINE
  5
144
330
1F
100
AcDbEntity
  8
0
  6
Continuous
 62
     7
100
AcDbPolyline
 90
       17
 70
   128
 43
0.0
 10
103.9172338581
 20
631.9520557444
 10
104.1204863214
 20
632.1535008173
 10
104.2286139322
 20
632.4180783848
 10
104.2251540044
 20
632.7055143337
 10
104.1106405048
 20
632.972051404
 10
103.9025034367
 20
633.1771062832
 10
103.632427868
 20
633.2894647638
 10
103.3415280187
 20
633.292020313
 10
103.0741018566
 20
633.1843855004
 10
102.8708493933
 20
632.9829441528
 10
102.7627217826
 20
632.7183628599
 10
102.7661817104
 20
632.4309269111
 10
102.88069521
 20
632.1643898408
 10
103.0888360033
 20
631.9593349616
 10
103.358911572
 20
631.8469764809
 10
103.6498049689
 20
631.8444209318
 10
103.9172338581
 20
631.9520557444
  0
SPLINE
  5
145
330
1F
100
AcDbEntity
  8
0
  6
Continuous
 62
     7
100
AcDbSpline
210
0.0
220
0.0
230
1.0
 70
     8
 71
     3
 72
    21
 73
    17
 74
     0
 42
0.000000001
 43
0.00000001
 40
0.0
 40
0.0
 40
0.0
 40
0.0
 40
0.0007541145338964
 40
0.0064492827036036
 40
0.0121868748156555
 40
0.0173421744077439
 40
0.0259695010261464
 40
0.0504662066473495
 40
0.1610294820448024
 40
0.2997567546525184
 40
0.4368583122136751
 40
0.5604089188912479
 40
0.6823826288229794
 40
0.8020385009548832
 40
0.9254275652059503
 40
1.0
 40
1.0
 40
1.0
 40
1.0
 10
19.61728409223407
 20
583.3809406903032
 30
0.0
 10
19.61702553432044
 20
583.381472762524
 30
0.0
 10
19.61481431439919
 20
583.386023111333
 30
0.0
 10
19.60824978879359
 20
583.3897361820166
 30
0.0
 10
19.59919098239237
 20
583.3909956246686
 30
0.0
 10
19.58832241568308
 20
583.3846171852114
 30
0.0
 10
19.56948774232831
 20
583.3608522867333
 30
0.0
 10
19.51437977022653
 20
583.2363616578547
 30
0.0
 10
19.40593664216377
 20
582.98306446117
 30
0.0
 10
19.14616702403944
 20
582.6845257911859
 30
0.0
 10
18.78424235665436
 20
582.4952112360221
 30
0.0
 10
18.39738876603747
 20
582.4510472940615
 30
0.0
 10
18.03334095420219
 20
582.5376033670441
 30
0.0
 10
17.7231713056867
 20
582.7430439433091
 30
0.0
 10
17.50583363068673
 20
582.9960745482098
 30
0.0
 10
17.44866274421759
 20
583.1909271351232
 30
0.0
 10
17.42712637364097
 20
583.2643284374075
 30
0.0
  0
LWPOLYLINE
  5
146
330
1F
100
AcDbEntity
  8
0
  6
Continuous
 62
     7
100
AcDbPolyline
 90
       17
 70
   128
 43
0.0
 10
18.8747002747
 20
584.1990677435
 10
18.5986214615
 20
584.2743667453
 10
18.3154247867
 20
584.2357180226
 10
18.0682258279
 20
584.0890054968
 10
17.8946563079
 20
583.8565647863
 10
17.8211421567
 20
583.5737829328
 10
17.8588752062
 20
583.2837108609
 10
18.002110311
 20
583.0305094277
 10
18.2290410511
 20
582.8527262928
 10
18.5051207957
 20
582.777427291
 10
18.7883158574
 20
582.8160760137
 10
19.0355156227
 20
582.9627885395
 10
19.2090842114
 20
583.19522925
 10
19.2825983627
 20
583.4780111035
 10
19.2448662445
 20
583.7680831754
 10
19.1016319462
 20
584.0212846087
 10
18.8747002747
 20
584.1990677435
  0
SPLINE
  5
147
330
1F
100
AcDbEntity
  8
0
  6
Continuous
 62
     7
100
AcDbSpline
210
0.0
220
0.0
230
1.0
 70
     8
 71
     3
 72
    21
 73
    17
 74
     0
 42
0.000000001
 43
0.00000001
 40
0.0
 40
0.0
 40
0.0
 40
0.0
 40
0.0007531201781938
 40
0.0064491102003576
 40
0.0121869280363895
 40
0.0173415683459086
 40
0.0259686841010497
 40
0.0504655128505486
 40
0.1610284284224172
 40
0.2997559712361997
 40
0.4368573553886891
 40
0.5604075810421669
 40
0.6823825665515132
 40
0.802038441521111
 40
0.9254276824226991
 40
1.0
 40
1.0
 40
1.0
 40
1.0
 10
103.0884928215811
 20
535.4787269751699
 30
0.0
 10
103.0881625882571
 20
535.478236758685
 30
0.0
 10
103.085334737989
 20
535.4740389424205
 30
0.0
 10
103.0853988793016
 20
535.4665060817566
 30
0.0
 10
103.0888417363072
 20
535.4580292685737
 30
0.0
 10
103.0997899104428
 20
535.4518075660103
 30
0.0
 10
103.1297966083405
 20
535.4473738558576
 30
0.0
 10
103.2651515076394
 20
535.4619062788324
 30
0.0
 10
103.538745798244
 20
535.4946281265917
 30
0.0
 10
103.9271644415178
 20
535.4189324999347
 30
0.0
 10
104.2720844495391
 20
535.2001590377332
 30
0.0
 10
104.503752877923
 20
534.8872102490279
 30
0.0
 10
104.6108262836872
 20
534.5286602708268
 30
0.0
 10
104.5879911502864
 20
534.1573227753362
 30
0.0
 10
104.4775271002632
 20
533.842588563294
 30
0.0
 10
104.3373646811419
 20
533.6956513381984
 30
0.0
 10
104.2845653573165
 20
533.6402999381693
 30
0.0
  0
LWPOLYLINE
  5
148
330
1F
100
AcDbEntity
  8
0
  6
Continuous
 62
     7
100
AcDbPolyline
 90
       17
 70
   128
 43
0.0
 10
102.7512714534
 20
534.4265671591
 10
102.8240981869
 20
534.1498265187
 10
102.9991695896
 20
533.9238951127
 10
103.2498213419
 20
533.7831685464
 10
103.5379103273
 20
533.7490746896
 10
103.8195572337
 20
533.8267991464
 10
104.0519005224
 20
534.0045141201
 10
104.1995670078
 20
534.2551591019
 10
104.2400679866
 20
534.5405796687
 10
104.1672375278
 20
534.8173203091
 10
103.9921698504
 20
535.0432517152
 10
103.7415116457
 20
535.1839745562
 10
103.4534291128
 20
535.2180721383
 10
103.1717720287
 20
535.1403439562
 10
102.9394287399
 20
534.9626327078
 10
102.7917724322
 20
534.7119840007
 10
102.7512714534
 20
534.4265671591
  0
CIRCLE
  5
149
330
1F
100
AcDbEntity
  8
0
  6
Continuous
 62
     7
100
AcDbCircle
 10
75.1810688167
 20
583.5258970182
 30
0.0
 40
160.9999999999998
  0
CIRCLE
  5
14A
330
1F
100
AcDbEntity
  8
0
  6
Continuous
 62
     7
100
AcDbCircle
 10
75.1810688167
 20
583.5258970182
 30
0.0
 40
159.9999999999998
  0
CIRCLE
  5
14B
330
1F
100
AcDbEntity
  8
0
  6
Continuous
 62
     7
100
AcDbCircle
 10
75.1810688167
 20
583.5258970182
 30
0.0
 40
156.4851653725573
  0
CIRCLE
  5
14C
330
1F
100
AcDbEntity
  8
0
  6
Continuous
 62
     7
100
AcDbCircle
 10
75.1810688167
 20
583.5258970182
 30
0.0
 40
156.9999999999999
  0
ARC
  5
14D
330
1F
100
AcDbEntity
  8
0
  6
Continuous
 62
     7
100
AcDbCircle
 10
75.1810688167
 20
583.5258970182
 30
0.0
 40
53.24999999999994
100
AcDbArc
 50
270.0
 51
291.2511805525
  0
ARC
  5
14E
330
1F
100
AcDbEntity
  8
0
  6
Continuous
 62
     7
100
AcDbCircle
 10
75.1810688167
 20
583.5258970182
 30
0.0
 40
53.24999999999999
100
AcDbArc
 50
308.7167448895
 51
51.2771711135
  0
ARC
  5
14F
330
1F
100
AcDbEntity
  8
0
  6
Continuous
 62
     7
100
AcDbCircle
 10
75.1810688167
 20
583.5258970182
 30
0.0
 40
53.25000000000012
100
AcDbArc
 50
68.674066126
 51
171.3101588483
  0
ARC
  5
150
330
1F
100
AcDbEntity
  8
0
  6
Continuous
 62
     7
100
AcDbCircle
 10
75.1810688167
 20
583.5258970182
 30
0.0
 40
53.25000000000003
100
AcDbArc
 50
188.6389479713
 51
270.0
  0
ARC
  5
151
330
1F
100
AcDbEntity
  8
0
  6
Continuous
 62
     7
100
AcDbCircle
 10
75.1810688167
 20
583.5258970182
 30
0.0
 40
51.99999999999994
100
AcDbArc
 50
270.0
 51
289.4716756704
  0
ARC
  5
152
330
1F
100
AcDbEntity
  8
0
  6
Continuous
 62
     7
100
AcDbCircle
 10
75.1810688167
 20
583.5258970182
 30
0.0
 40
51.99999999999998
100
AcDbArc
 50
310.7399205833
 51
49.3567113494
  0
ARC
  5
153
330
1F
100
AcDbEntity
  8
0
  6
Continuous
 62
     7
100
AcDbCircle
 10
75.1810688167
 20
583.5258970182
 30
0.0
 40
51.99999999999999
100
AcDbArc
 50
70.5335386093
 51
169.230311824
  0
ARC
  5
154
330
1F
100
AcDbEntity
  8
0
  6
Continuous
 62
     7
100
AcDbCircle
 10
75.1810688167
 20
583.5258970182
 30
0.0
 40
51.99999999999999
100
AcDbArc
 50
190.6167585143
 51
270.0
  0
LWPOLYLINE
  5
155
330
1F
100
AcDbEntity
  8
0
  6
Continuous
 62
     7
100
AcDbPolyline
 90
       17
 70
   128
 43
0.0
 10
104.0839677959
 20
533.4646077971
 10
104.4370694098
 20
533.7714487831
 10
104.6472416799
 20
534.1860400657
 10
104.6824837734
 20
534.6452640514
 10
104.5374234659
 20
535.0792044918
 10
104.2341420835
 20
535.4218008141
 10
103.8188280744
 20
535.6208989541
 10
103.3546979223
 20
535.6461787741
 10
102.9124117118
 20
535.493803225
 10
102.5593063727
 20
535.1869585137
 10
102.3491341026
 20
534.7723709564
 10
102.3139021868
 20
534.3131469707
 10
102.4589624943
 20
533.8792065303
 10
102.762233699
 20
533.5366064827
 10
103.1775514334
 20
533.337512068
 10
103.6416778602
 20
533.3122285227
 10
104.0839677959
 20
533.4646077971
  0
LWPOLYLINE
  5
156
330
1F
100
AcDbEntity
  8
0
  6
Continuous
 62
     7
100
AcDbPolyline
 90
       17
 70
   128
 43
0.0
 10
17.3752716796
 20
583.5258970182
 10
17.4644512945
 20
583.0666769033
 10
17.7184131306
 20
582.677368904
 10
18.0984928412
 20
582.4172415449
 10
18.5468267215
 20
582.3258969612
 10
18.9951615332
 20
582.4172415449
 10
19.3752420503
 20
582.677368904
 10
19.6292030798
 20
583.0666769033
 10
19.7183835012
 20
583.5258970182
 10
19.6292030798
 20
583.985117133
 10
19.3752420503
 20
584.3744251323
 10
18.9951615332
 20
584.6345524914
 10
18.5468267215
 20
584.7258970752
 10
18.0984928412
 20
584.6345524914
 10
17.7184131306
 20
584.3744251323
 10
17.4644512945
 20
583.985117133
 10
17.3752716796
 20
583.5258970182
  0
LWPOLYLINE
  5
157
330
1F
100
AcDbEntity
  8
0
  6
Continuous
 62
     7
100
AcDbPolyline
 90
       17
 70
   128
 43
0.0
 10
104.0839677959
 20
633.5871862392
 10
103.6416778602
 20
633.7395655136
 10
103.1775514334
 20
633.7142819683
 10
102.762233699
 20
633.5151875536
 10
102.4589624943
 20
633.172587506
 10
102.3139021868
 20
632.7386470656
 10
102.3491341026
 20
632.2794230799
 10
102.5593063727
 20
631.8648355226
 10
102.9124117118
 20
631.5579908113
 10
103.3546979223
 20
631.4056152622
 10
103.8188280744
 20
631.4308950822
 10
104.2341420835
 20
631.6299932222
 10
104.5374234659
 20
631.9725895445
 10
104.6824837734
 20
632.4065299849
 10
104.6472416799
 20
632.8657539706
 10
104.4370694098
 20
633.2803452532
 10
104.0839677959
 20
633.5871862392
  0
LINE
  5
158
330
1F
100
AcDbEntity
  8
0
  6
Continuous
 62
     7
100
AcDbLine
 10
100.3957410922
 20
637.5356028001
 30
0.0
 11
96.3841362894
 21
634.1694677393
 31
0.0
  0
SPLINE
  5
159
330
1F
100
AcDbEntity
  8
0
  6
Continuous
 62
     7
100
AcDbSpline
210
0.0
220
0.0
230
1.0
 70
     8
 71
     3
 72
    15
 73
    11
 74
     0
 42
0.000000001
 43
0.00000001
 40
0.0
 40
0.0
 40
0.0
 40
0.0
 40
0.1397680197222522
 40
0.2796392285048019
 40
0.4173422636074754
 40
0.4999476515174708
 40
0.6347949339131571
 40
0.7696022346462643
 40
0.905537997051944
 40
1.0
 40
1.0
 40
1.0
 40
1.0
 10
109.3475132537033
 20
632.3672915022047
 30
0.0
 10
109.3952243494392
 20
632.9885647400467
 30
0.0
 10
109.4906817654433
 20
634.2315698943451
 30
0.0
 10
108.8350111864008
 20
636.0301118927414
 30
0.0
 10
107.8125229578761
 20
637.3163797425183
 30
0.0
 10
106.5092858843068
 20
638.2561175832293
 30
0.0
 10
104.9950792221181
 20
638.8234710476116
 30
0.0
 10
103.1519975126351
 20
638.8643805702941
 30
0.0
 10
101.5579701894251
 20
638.3846768951676
 30
0.0
 10
100.7336914914594
 20
637.7824946823736
 30
0.0
 10
100.3957410921675
 20
637.5356028000982
 30
0.0
  0
LINE
  5
15A
330
1F
100
AcDbEntity
  8
0
  6
Continuous
 62
     7
100
AcDbLine
 10
109.3475132537
 20
632.3672915022
 30
0.0
 11
108.4381538742
 21
627.2100778441
 31
0.0
  0
SPLINE
  5
15B
330
1F
100
AcDbEntity
  8
0
  6
Continuous
 62
     7
100
AcDbSpline
210
0.0
220
0.0
230
1.0
 70
     8
 71
     3
 72
    10
 73
     6
 74
     0
 42
0.000000001
 43
0.00000001
 40
0.0
 40
0.0
 40
0.0
 40
0.0
 40
0.3477626082304847
 40
0.695852396808003
 40
1.0
 40
1.0
 40
1.0
 40
1.0
 10
108.4381538741804
 20
627.2100778441103
 30
0.0
 10
108.3706787344425
 20
626.3159865748105
 30
0.0
 10
108.2356649733297
 20
624.5269628615566
 30
0.0
 10
109.1075746551363
 20
621.9850118604488
 30
0.0
 10
110.2201193320307
 20
620.6899048457497
 30
0.0
 10
110.7389147908488
 20
620.0859779636534
 30
0.0
  0
ARC
  5
15C
330
1F
100
AcDbEntity
  8
0
  6
Continuous
 62
     7
100
AcDbCircle
 10
75.1810688167
 20
583.5258970182
 30
0.0
 40
51.00000000000002
100
AcDbArc
 50
314.2038030897
 51
45.7961969103
  0
SPLINE
  5
15D
330
1F
100
AcDbEntity
  8
0
  6
Continuous
 62
     7
100
AcDbSpline
210
0.0
220
0.0
230
1.0
 70
     8
 71
     3
 72
    10
 73
     6
 74
     0
 42
0.000000001
 43
0.00000001
 40
0.0
 40
0.0
 40
0.0
 40
0.0
 40
0.3477626082304847
 40
0.695852396808003
 40
1.0
 40
1.0
 40
1.0
 40
1.0
 10
108.4381538741804
 20
539.8417161922129
 30
0.0
 10
108.3706787344425
 20
540.7358074615126
 30
0.0
 10
108.2356649733297
 20
542.5248311747665
 30
0.0
 10
109.1075746551363
 20
545.0667821758743
 30
0.0
 10
110.2201193320307
 20
546.3618891905735
 30
0.0
 10
110.7389147908488
 20
546.9658160726698
 30
0.0
  0
LINE
  5
15E
330
1F
100
AcDbEntity
  8
0
  6
Continuous
 62
     7
100
AcDbLine
 10
109.3475132537
 20
534.6845025341
 30
0.0
 11
108.4381538742
 21
539.8417161922
 31
0.0
  0
SPLINE
  5
15F
330
1F
100
AcDbEntity
  8
0
  6
Continuous
 62
     7
100
AcDbSpline
210
0.0
220
0.0
230
1.0
 70
     8
 71
     3
 72
    15
 73
    11
 74
     0
 42
0.000000001
 43
0.00000001
 40
0.0
 40
0.0
 40
0.0
 40
0.0
 40
0.1397673404600544
 40
0.2796389630123392
 40
0.4173418838877967
 40
0.4999474608815667
 40
0.6347941921480471
 40
0.769601594370996
 40
0.9055374520201452
 40
1.0
 40
1.0
 40
1.0
 40
1.0
 10
100.3957410921675
 20
529.5161912362249
 30
0.0
 10
100.9099205195875
 20
529.1642342757438
 30
0.0
 10
101.9386630098767
 20
528.4600577554642
 30
0.0
 10
103.8240793191836
 20
528.1286266062908
 30
0.0
 10
105.4492693155771
 20
528.3709808401157
 30
0.0
 10
106.9147171045385
 20
529.0297607431476
 30
0.0
 10
108.1631680801724
 20
530.0574139895225
 30
0.0
 10
109.1201373478444
 20
531.6331164951778
 30
0.0
 10
109.5017080670722
 20
533.2534408126024
 30
0.0
 10
109.392349774665
 20
534.2683806979018
 30
0.0
 10
109.3475132537033
 20
534.6845025341185
 30
0.0
  0
LINE
  5
160
330
1F
100
AcDbEntity
  8
0
  6
Continuous
 62
     7
100
AcDbLine
 10
100.3957410922
 20
529.5161912362
 30
0.0
 11
96.3841362894
 21
532.882326297
 31
0.0
  0
SPLINE
  5
161
330
1F
100
AcDbEntity
  8
0
  6
Continuous
 62
     7
100
AcDbSpline
210
0.0
220
0.0
230
1.0
 70
     8
 71
     3
 72
    10
 73
     6
 74
     0
 42
0.000000001
 43
0.00000001
 40
0.0
 40
0.0
 40
0.0
 40
0.0
 40
0.3477623476877975
 40
0.6958525022654554
 40
1.0
 40
1.0
 40
1.0
 40
1.0
 10
96.38413628943623
 20
532.8823262970121
 30
0.0
 10
95.64356845697964
 20
533.3878069044366
 30
0.0
 10
94.1617347198355
 20
534.3992445941743
 30
0.0
 10
91.52438802873338
 20
534.9151233169836
 30
0.0
 10
89.84652006152596
 20
534.5991847208554
 30
0.0
 10
89.06410686911673
 20
534.4518581549795
 30
0.0
  0
ARC
  5
162
330
1F
100
AcDbEntity
  8
0
  6
Continuous
 62
     7
100
AcDbCircle
 10
75.1810688167
 20
583.5258970182
 30
0.0
 40
51.00000000000001
100
AcDbArc
 50
194.2038030897
 51
285.7961969103
  0
SPLINE
  5
163
330
1F
100
AcDbEntity
  8
0
  6
Continuous
 62
     7
100
AcDbSpline
210
0.0
220
0.0
230
1.0
 70
     8
 71
     3
 72
    10
 73
     6
 74
     0
 42
0.000000001
 43
0.00000001
 40
0.0
 40
0.0
 40
0.0
 40
0.0
 40
0.3477623327214109
 40
0.6958522525879818
 40
1.0
 40
1.0
 40
1.0
 40
1.0
 10
20.72091506514437
 20
576.566505725977
 30
0.0
 10
21.52895784051929
 20
576.1778952242902
 30
0.0
 10
23.14580455601024
 20
575.4003081553805
 30
0.0
 10
24.91124739926171
 20
573.374239932009
 30
0.0
 10
25.47656886645294
 20
571.7631925785583
 30
0.0
 10
25.74018634737409
 20
571.0119381691487
 30
0.0
  0
LINE
  5
164
330
1F
100
AcDbEntity
  8
0
  6
Continuous
 62
     7
100
AcDbLine
 10
15.799958354
 20
578.3575875829
 30
0.0
 11
20.7209150651
 21
576.566505726
 31
0.0
  0
SPLINE
  5
165
330
1F
100
AcDbEntity
  8
0
  6
Continuous
 62
     7
100
AcDbSpline
210
0.0
220
0.0
230
1.0
 70
     8
 71
     3
 72
    15
 73
    11
 74
     0
 42
0.000000001
 43
0.00000001
 40
0.0
 40
0.0
 40
0.0
 40
0.0
 40
0.1397679571190244
 40
0.2796391059430935
 40
0.4173421493105214
 40
0.4999478204370069
 40
0.63479443364572
 40
0.7696018761171879
 40
0.9055376555020973
 40
1.0
 40
1.0
 40
1.0
 40
1.0
 10
15.79995835402855
 20
588.69420645341
 30
0.0
 10
15.23806265260167
 20
588.4248906746631
 30
0.0
 10
14.11385639804164
 20
587.8860602793602
 30
0.0
 10
12.88411721607552
 20
586.4189571349616
 30
0.0
 10
12.28141264094707
 20
584.8903233655509
 30
0.0
 10
12.11920215130164
 20
583.2918180350641
 30
0.0
 10
12.38495544719271
 20
581.6968001149008
 30
0.0
 10
13.27106937861292
 20
580.0801913175638
 30
0.0
 10
14.48352280696217
 20
578.9395760319173
 30
0.0
 10
15.41716758611483
 20
578.526817140568
 30
0.0
 10
15.79995835402855
 20
578.3575875829132
 30
0.0
  0
LINE
  5
166
330
1F
100
AcDbEntity
  8
0
  6
Continuous
 62
     7
100
AcDbLine
 10
15.799958354
 20
588.6942064534
 30
0.0
 11
20.7209150651
 21
590.4852883103
 31
0.0
  0
SPLINE
  5
167
330
1F
100
AcDbEntity
  8
0
  6
Continuous
 62
     7
100
AcDbSpline
210
0.0
220
0.0
230
1.0
 70
     8
 71
     3
 72
    10
 73
     6
 74
     0
 42
0.000000001
 43
0.00000001
 40
0.0
 40
0.0
 40
0.0
 40
0.0
 40
0.3477623327214109
 40
0.6958522525879818
 40
1.0
 40
1.0
 40
1.0
 40
1.0
 10
20.72091506514437
 20
590.4852883103462
 30
0.0
 10
21.52895784051929
 20
590.8738988120328
 30
0.0
 10
23.14580455601024
 20
591.6514858809426
 30
0.0
 10
24.91124739926171
 20
593.6775541043141
 30
0.0
 10
25.47656886645294
 20
595.2886014577648
 30
0.0
 10
25.74018634737409
 20
596.0398558671744
 30
0.0
  0
ARC
  5
168
330
1F
100
AcDbEntity
  8
0
  6
Continuous
 62
     7
100
AcDbCircle
 10
75.1810688167
 20
583.5258970182
 30
0.0
 40
51.00000000000005
100
AcDbArc
 50
74.2038030897
 51
165.7961969103
  0
SPLINE
  5
169
330
1F
100
AcDbEntity
  8
0
  6
Continuous
 62
     7
100
AcDbSpline
210
0.0
220
0.0
230
1.0
 70
     8
 71
     3
 72
    10
 73
     6
 74
     0
 42
0.000000001
 43
0.00000001
 40
0.0
 40
0.0
 40
0.0
 40
0.0
 40
0.3477623476877975
 40
0.6958525022654554
 40
1.0
 40
1.0
 40
1.0
 40
1.0
 10
96.38413628943623
 20
634.169467739311
 30
0.0
 10
95.64356845697964
 20
633.6639871318864
 30
0.0
 10
94.1617347198355
 20
632.6525494421489
 30
0.0
 10
91.52438802873338
 20
632.1366707193396
 30
0.0
 10
89.84652006152596
 20
632.4526093154676
 30
0.0
 10
89.06410686911673
 20
632.5999358813436
 30
0.0
  0
CIRCLE
  5
16A
330
1F
100
AcDbEntity
  8
0
  6
Continuous
 62
     8
370
    18
100
AcDbCircle
 10
75.1810688167
 20
583.5258970182
 30
0.0
 40
45.39400325744852
  0
CIRCLE
  5
16B
330
1F
100
AcDbEntity
  8
0
  6
Continuous
 62
     8
370
    18
100
AcDbCircle
 10
75.1810688167
 20
583.5258970182
 30
0.0
 40
50.00000000000136
  0
CIRCLE
  5
16C
330
1F
100
AcDbEntity
  8
0
  6
Continuous
 62
     8
370
    18
100
AcDbCircle
 10
75.1810688167
 20
583.5258970182
 30
0.0
 40
158.5638101808569
  0
LWPOLYLINE
  5
16D
330
1F
100
AcDbEntity
  8
0
  6
Continuous
 62
     8
370
    18
100
AcDbPolyline
 90
       21
 70
   128
 43
0.0
 10
105.3025220548
 20
531.3540110509
 10
104.2449740292
 20
530.9436032693
 10
103.1175968707
 20
530.873623691
 10
102.0307427023
 20
531.1509193997
 10
101.0908020984
 20
531.7483442049
 10
100.3897854911
 20
532.60742595
 10
99.9963050842
 20
533.6440624814
 10
99.9488887038
 20
534.7567880671
 10
100.2521701876
 20
535.8366789441
 10
100.8764642717
 20
536.7780262749
 10
101.7606627169
 20
537.488685004
 10
102.8182107425
 20
537.8990927856
 10
103.945587901
 20
537.9690760891
 10
105.0324457947
 20
537.6917803805
 10
105.9723826733
 20
537.0943555753
 10
106.6733992806
 20
536.2352738301
 10
107.0668796875
 20
535.1986372988
 10
107.1142960678
 20
534.0859117131
 10
106.8110145841
 20
533.0060208361
 10
106.1867140476
 20
532.0646735053
 10
105.3025220548
 20
531.3540110509
  0
LWPOLYLINE
  5
16E
330
1F
100
AcDbEntity
  8
0
  6
Continuous
 62
     8
370
    18
100
AcDbPolyline
 90
       19
 70
   128
 43
0.0
 10
101.9527596882
 20
537.1559718768
 10
101.1082197014
 20
536.453143708
 10
100.5519478098
 20
535.5122247855
 10
100.3510410709
 20
534.4467098038
 10
100.5297211807
 20
533.3851138274
 10
101.0664418972
 20
532.4554825346
 10
101.8964725001
 20
531.7699397127
 10
102.9196925967
 20
531.4111756305
 10
104.0126852048
 20
531.4224632601
 10
105.043626272
 20
531.80243542
 10
105.8881560811
 20
532.5052673142
 10
106.4444279726
 20
533.4461862366
 10
106.6453384369
 20
534.5117012183
 10
106.4666546018
 20
535.5732971947
 10
105.9299338853
 20
536.5029284875
 10
105.0999070076
 20
537.1884675841
 10
104.076686911
 20
537.5472316663
 10
102.9836905777
 20
537.535947762
 10
101.9527596882
 20
537.1559718768
  0
LWPOLYLINE
  5
16F
330
1F
100
AcDbEntity
  8
0
  6
Continuous
 62
     8
370
    18
100
AcDbPolyline
 90
       21
 70
   128
 43
0.0
 10
14.9381651151
 20
583.5258970182
 10
15.1115164077
 20
584.6469644602
 10
15.6145992412
 20
585.6582939304
 10
16.3981711674
 20
586.4608897972
 10
17.3855281406
 20
586.9761877838
 10
18.480021176
 20
587.1537474594
 10
19.5745151427
 20
586.9761877838
 10
20.5618721159
 20
586.4608897972
 10
21.3454423042
 20
585.6582939304
 10
21.8485268756
 20
584.6469644602
 10
22.0218764304
 20
583.5258970182
 10
21.8485268756
 20
582.4048295762
 10
21.3454423042
 20
581.393500106
 10
20.5618721159
 20
580.5909042391
 10
19.5745151427
 20
580.0756062525
 10
18.480021176
 20
579.8980465769
 10
17.3855281406
 20
580.0756062525
 10
16.3981711674
 20
580.5909042391
 10
15.6145992412
 20
581.393500106
 10
15.1115164077
 20
582.4048295762
 10
14.9381651151
 20
583.5258970182
  0
LWPOLYLINE
  5
170
330
1F
100
AcDbEntity
  8
0
  6
Continuous
 62
     8
370
    18
100
AcDbPolyline
 90
       19
 70
   128
 43
0.0
 10
21.6376938125
 20
583.5258970182
 10
21.4512902633
 20
584.6087022363
 10
20.9145690136
 20
585.5609050631
 10
20.0922594604
 20
586.2676561955
 10
19.0835505156
 20
586.6437105141
 10
18.0101038587
 20
586.6437105141
 10
17.0013941073
 20
586.2676561955
 10
16.1790861673
 20
585.5609050631
 10
15.642364111
 20
584.6087022363
 10
15.4559613684
 20
583.5258970182
 10
15.642364111
 20
582.4430918
 10
16.1790861673
 20
581.4908889732
 10
17.0013941073
 20
580.7841378409
 10
18.0101038587
 20
580.4080835222
 10
19.0835505156
 20
580.4080835222
 10
20.0922594604
 20
580.7841378409
 10
20.9145690136
 20
581.4908889732
 10
21.4512902633
 20
582.4430918
 10
21.6376938125
 20
583.5258970182
  0
LWPOLYLINE
  5
171
330
1F
100
AcDbEntity
  8
0
  6
Continuous
 62
     8
370
    18
100
AcDbPolyline
 90
       21
 70
   128
 43
0.0
 10
105.3025220548
 20
635.6977829854
 10
106.1867140476
 20
634.987120531
 10
106.8110145841
 20
634.0457732002
 10
107.1142960678
 20
632.9658823232
 10
107.0668796875
 20
631.8531567375
 10
106.6733992806
 20
630.8165202062
 10
105.9723826733
 20
629.957438461
 10
105.0324457947
 20
629.3600136559
 10
103.945587901
 20
629.0827179472
 10
102.8182107425
 20
629.1527012508
 10
101.7606627169
 20
629.5631090324
 10
100.8764642717
 20
630.2737677614
 10
100.2521701876
 20
631.2151150922
 10
99.9488887038
 20
632.2950059693
 10
99.9963050842
 20
633.407731555
 10
100.3897854911
 20
634.4443680863
 10
101.0908020984
 20
635.3034498315
 10
102.0307427023
 20
635.9008746366
 10
103.1175968707
 20
636.1781703453
 10
104.2449740292
 20
636.108190767
 10
105.3025220548
 20
635.6977829854
  0
LWPOLYLINE
  5
172
330
1F
100
AcDbEntity
  8
0
  6
Continuous
 62
     8
370
    18
100
AcDbPolyline
 90
       19
 70
   128
 43
0.0
 10
101.9527596882
 20
629.8958221595
 10
102.9836905777
 20
629.5158462743
 10
104.076686911
 20
629.50456237
 10
105.0999070076
 20
629.8633264522
 10
105.9299338853
 20
630.5488655488
 10
106.4666546018
 20
631.4784968416
 10
106.6453384369
 20
632.540092818
 10
106.4444279726
 20
633.6056077997
 10
105.8881560811
 20
634.5465267222
 10
105.043626272
 20
635.2493586163
 10
104.0126852048
 20
635.6293307762
 10
102.9196925967
 20
635.6406184058
 10
101.8964725001
 20
635.2818543236
 10
101.0664418972
 20
634.5963115017
 10
100.5297211807
 20
633.6666802089
 10
100.3510410709
 20
632.6050842325
 10
100.5519478098
 20
631.5395692508
 10
101.1082197014
 20
630.5986503284
 10
101.9527596882
 20
629.8958221595
  0
SPLINE
  5
173
330
1F
100
AcDbEntity
  8
0
  6
Continuous
 62
     8
370
    18
100
AcDbSpline
210
0.0
220
0.0
230
1.0
 70
    11
 71
     3
 72
    28
 73
    24
 74
     0
 42
0.000000001
 43
0.00000001
 40
0.0
 40
0.0
 40
0.0
 40
0.0
 40
0.0002243762495298
 40
0.0541406903242133
 40
0.1080522329027167
 40
0.1081271330140628
 40
0.1619711089870868
 40
0.2156542216562405
 40
0.2691815996500841
 40
0.3226193053784201
 40
0.3760704501572665
 40
0.4296416404872742
 40
0.4884968758484717
 40
0.5170669163273436
 40
0.5710084499293706
 40
0.6249647191780705
 40
0.6788195204693731
 40
0.7324818509054395
 40
0.7859442445853589
 40
0.8393112123133472
 40
0.8927503606424606
 40
0.946384213701408
 40
1.0
 40
1.0
 40
1.0
 40
1.0
 10
99.65191188783437
 20
535.141062937227
 30
0.0
 10
99.65141784857975
 20
535.1391929653964
 30
0.0
 10
99.5322090359374
 20
534.6879795860507
 30
0.0
 10
99.44879662553646
 20
533.7442715284662
 30
0.0
 10
99.68838692715137
 20
532.8341573671272
 30
0.0
 10
100.0706882446763
 20
531.9975137453523
 30
0.0
 10
100.6015829091178
 20
531.2226228336281
 30
0.0
 10
101.7409595088381
 20
530.3975661593765
 30
0.0
 10
103.0972162203593
 20
529.9945710199183
 30
0.0
 10
104.5180574165628
 20
530.0597137615883
 30
0.0
 10
105.8459260909207
 20
530.5870027307413
 30
0.0
 10
106.9659872411081
 20
531.5474134542363
 30
0.0
 10
107.5806648243477
 20
532.6440490040086
 30
0.0
 10
107.8700205542502
 20
533.8355011130028
 30
0.0
 10
107.8452157116515
 20
535.0325581860521
 30
0.0
 10
107.3425376587005
 20
536.3476860984765
 30
0.0
 10
106.4281460597151
 20
537.413325319918
 30
0.0
 10
105.2072851306769
 20
538.1100324139098
 30
0.0
 10
103.8183068918262
 20
538.3634253065537
 30
0.0
 10
102.4110760028953
 20
538.1482969117405
 30
0.0
 10
101.1514776398042
 20
537.4849848602065
 30
0.0
 10
100.1417821331476
 20
536.4559050589493
 30
0.0
 10
99.81518363053249
 20
535.5792944212585
 30
0.0
 10
99.65191188783437
 20
535.141062937227
 30
0.0
  0
SPLINE
  5
174
330
1F
100
AcDbEntity
  8
0
  6
Continuous
 62
     8
370
    18
100
AcDbSpline
210
0.0
220
0.0
230
1.0
 70
    11
 71
     3
 72
    28
 73
    24
 74
     0
 42
0.000000001
 43
0.00000001
 40
0.0
 40
0.0
 40
0.0
 40
0.0
 40
0.0002244421325108
 40
0.0541407797578839
 40
0.1080523572253437
 40
0.1081271452961845
 40
0.1619710593132417
 40
0.2156542247886552
 40
0.2691817472051895
 40
0.3226194040494533
 40
0.376070474522275
 40
0.4296417135427249
 40
0.4884968765498099
 40
0.5170670225393874
 40
0.5710085470177779
 40
0.6249647513697245
 40
0.6788194023846917
 40
0.7324818064642524
 40
0.7859441919092601
 40
0.8393112077139315
 40
0.8927503411201734
 40
0.9463843301840457
 40
1.0
 40
1.0
 40
1.0
 40
1.0
 10
21.04315257731066
 20
586.525943144706
 30
0.0
 10
21.04178015581542
 20
586.5273063020835
 30
0.0
 10
20.71071945398727
 20
586.8561322784108
 30
0.0
 10
19.9349781349318
 20
587.4002056633187
 30
0.0
 10
19.02712255971484
 20
587.647898685581
 30
0.0
 10
18.11132264484435
 20
587.7349559218098
 30
0.0
 10
17.17487064365952
 20
587.6627676017794
 30
0.0
 10
15.89063514212526
 20
587.0885122258417
 30
0.0
 10
14.86350690988983
 20
586.1154724549464
 30
0.0
 10
14.2095030310611
 20
584.8524090914315
 30
0.0
 10
14.0022127806796
 20
583.4387998253028
 30
0.0
 10
14.27391933709236
 20
581.9885928804051
 30
0.0
 10
14.91629903273565
 20
580.9079482454018
 30
0.0
 10
15.80344827454778
 20
580.0616354905876
 30
0.0
 10
16.85253377527431
 20
579.4845859558385
 30
0.0
 10
18.24280369995276
 20
579.2623608791954
 30
0.0
 10
19.622873201695
 20
579.521413685865
 30
0.0
 10
20.8366644299219
 20
580.230366267683
 30
0.0
 10
21.75060489844926
 20
581.3065548165554
 30
0.0
 10
22.26790812047859
 20
582.6328197269626
 30
0.0
 10
22.3232664002788
 20
584.0553202899324
 30
0.0
 10
21.9369048041874
 20
585.4442835332272
 30
0.0
 10
21.34103605961231
 20
586.1654310004641
 30
0.0
 10
21.04315257731066
 20
586.525943144706
 30
0.0
  0
SPLINE
  5
175
330
1F
100
AcDbEntity
  8
0
  6
Continuous
 62
     8
370
    18
100
AcDbSpline
210
0.0
220
0.0
230
1.0
 70
    11
 71
     3
 72
    28
 73
    24
 74
     0
 42
0.000000001
 43
0.00000001
 40
0.0
 40
0.0
 40
0.0
 40
0.0
 40
0.0002245543981127
 40
0.0541407472945441
 40
0.1080522701957047
 40
0.1081271736757029
 40
0.1619710879119156
 40
0.2156542845185434
 40
0.2691816223552069
 40
0.3226193946818688
 40
0.3760703786017432
 40
0.4296416520649108
 40
0.4884967776961587
 40
0.5170670686871488
 40
0.5710085570045967
 40
0.6249647880763979
 40
0.6788194356264112
 40
0.7324818447568248
 40
0.7859441011449274
 40
0.839311181139533
 40
0.8927504324930899
 40
0.9463842678752717
 40
1.0
 40
1.0
 40
1.0
 40
1.0
 10
104.8481428775763
 20
628.910684041229
 30
0.0
 10
104.8500105803379
 20
628.9111914760155
 30
0.0
 10
105.3003193878368
 20
629.0335355439711
 30
0.0
 10
106.1596345088957
 20
629.4330933236766
 30
0.0
 10
106.8272533530714
 20
630.0959220096814
 30
0.0
 10
107.3616407488669
 20
630.8449329712887
 30
0.0
 10
107.7665504555663
 20
631.6924356802336
 30
0.0
 10
107.9116610937189
 20
633.0915756563455
 30
0.0
 10
107.5824774927585
 20
634.4676618620821
 30
0.0
 10
106.8156460813887
 20
635.6655588799804
 30
0.0
 10
105.695068670399
 20
636.551889876991
 30
0.0
 10
104.3033003886021
 20
637.0416875154688
 30
0.0
 10
103.0462434606235
 20
637.0256938440136
 30
0.0
 10
101.869740685971
 20
636.6805556903167
 30
0.0
 10
100.845456857831
 20
636.060544997191
 30
0.0
 10
99.9578686084353
 20
634.9676480276241
 30
0.0
 10
99.49218236975949
 20
633.642945447676
 30
0.0
 10
99.49925671157547
 20
632.2372969221673
 30
0.0
 10
99.97429373326838
 20
630.9077076639422
 30
0.0
 10
100.8642211427107
 20
629.7965761935027
 30
0.0
 10
102.0684652862226
 20
629.0373869889814
 30
0.0
 10
103.464522655427
 20
628.6775003200862
 30
0.0
 10
104.386988039566
 20
628.8329648814272
 30
0.0
 10
104.8481428775763
 20
628.910684041229
 30
0.0
  0
SPLINE
  5
176
330
1F
100
AcDbEntity
  8
0
  6
Continuous
 62
     8
370
    18
100
AcDbSpline
210
0.0
220
0.0
230
1.0
 70
    11
 71
     3
 72
    26
 73
    22
 74
     0
 42
0.000000001
 43
0.00000001
 40
0.0
 40
0.0
 40
0.0
 40
0.0
 40
0.0536275706195444
 40
0.1073018919967582
 40
0.1607908848781981
 40
0.2141920281310425
 40
0.267658081237889
 40
0.3212953918795582
 40
0.3751102526734993
 40
0.4290305786410174
 40
0.4829538739994357
 40
0.5115238788027592
 40
0.5703979004950767
 40
0.6240006629513783
 40
0.6774839503676724
 40
0.730942053186441
 40
0.784468677811296
 40
0.8381288170481274
 40
0.8919344027542495
 40
0.9458454836199295
 40
1.0
 40
1.0
 40
1.0
 40
1.0
 10
99.23559945754448
 20
535.187468878475
 30
0.0
 10
99.41774149384344
 20
535.6743987305624
 30
0.0
 10
99.78218435189632
 20
536.6486829242164
 30
0.0
 10
100.9058056244705
 20
537.7919637918325
 30
0.0
 10
102.30632392538
 20
538.5297260008238
 30
0.0
 10
103.8707055602472
 20
538.7704771823097
 30
0.0
 10
105.4150043144379
 20
538.4909660161949
 30
0.0
 10
106.7723970081948
 20
537.7183900181103
 30
0.0
 10
107.7884115946774
 20
536.535063787376
 30
0.0
 10
108.3457280416424
 20
535.074105745405
 30
0.0
 10
108.3714679912297
 20
533.7445085397783
 30
0.0
 10
108.0480120713766
 20
532.4211443412972
 30
0.0
 10
107.3631852593704
 20
531.2031442920642
 30
0.0
 10
106.117447255567
 20
530.1361643017561
 30
0.0
 10
104.6415485898307
 20
529.5493042763957
 30
0.0
 10
103.0622178940497
 20
529.4750958756249
 30
0.0
 10
101.5553508181948
 20
529.920057331065
 30
0.0
 10
100.2859340913947
 20
530.8366733845263
 30
0.0
 10
99.41080089764782
 20
532.1210931134258
 30
0.0
 10
98.9849498674365
 20
533.6425053184233
 30
0.0
 10
99.15192421512373
 20
534.6717082089169
 30
0.0
 10
99.23559945754448
 20
535.187468878475
 30
0.0
  0
SPLINE
  5
177
330
1F
100
AcDbEntity
  8
0
  6
Continuous
 62
     8
370
    18
100
AcDbSpline
210
0.0
220
0.0
230
1.0
 70
    11
 71
     3
 72
    26
 73
    22
 74
     0
 42
0.000000001
 43
0.00000001
 40
0.0
 40
0.0
 40
0.0
 40
0.0
 40
0.053627627958363
 40
0.1073020248285982
 40
0.1607908001281556
 40
0.2141920750002857
 40
0.2676582003467313
 40
0.3212954452320087
 40
0.3751103933567241
 40
0.4290306902785818
 40
0.4829540253058015
 40
0.51152390571301
 40
0.5703979025018153
 40
0.6240007546853589
 40
0.6774841840610255
 40
0.7309420678738429
 40
0.7844688232159728
 40
0.8381288551446098
 40
0.8919345595241284
 40
0.9458454851519014
 40
1.0
 40
1.0
 40
1.0
 40
1.0
 10
21.29149408608517
 20
586.8632760974737
 30
0.0
 10
21.62211674290569
 20
586.4620709750182
 30
0.0
 10
22.28365039415346
 20
585.6593108371932
 30
0.0
 10
22.71195216098797
 20
584.1145872090364
 30
0.0
 10
22.650615272566
 20
582.5328216195581
 30
0.0
 10
22.07691779675242
 20
581.057652282139
 30
0.0
 10
21.06270592611086
 20
579.8600042791503
 30
0.0
 10
19.7149377175691
 20
579.0707570096026
 30
0.0
 10
18.18214114776346
 20
578.7825230855387
 30
0.0
 10
16.63825325271016
 20
579.0303494010647
 30
0.0
 10
15.47392569217541
 20
579.6728674096292
 30
0.0
 10
14.48958054309926
 20
580.6146632293306
 30
0.0
 10
13.77717915207496
 20
581.8167423529633
 30
0.0
 10
13.47601003336719
 20
583.4290741618726
 30
0.0
 10
13.70573117297282
 20
585.0006699838635
 30
0.0
 10
14.43112904897101
 20
586.4055138179139
 30
0.0
 10
15.56990921659818
 20
587.488019350826
 30
0.0
 10
16.99843291533325
 20
588.1290565904958
 30
0.0
 10
18.54833565966142
 20
588.2447379078654
 30
0.0
 10
20.07884447416017
 20
587.8528256170226
 30
0.0
 10
20.88667057788371
 20
587.1936212393049
 30
0.0
 10
21.29149408608516
 20
586.8632760974737
 30
0.0
  0
SPLINE
  5
178
330
1F
100
AcDbEntity
  8
0
  6
Continuous
 62
     8
370
    18
100
AcDbSpline
210
0.0
220
0.0
230
1.0
 70
    11
 71
     3
 72
    26
 73
    22
 74
     0
 42
0.000000001
 43
0.00000001
 40
0.0
 40
0.0
 40
0.0
 40
0.0
 40
0.0536275112866836
 40
0.1073019376123813
 40
0.1607906067602261
 40
0.2141918356869279
 40
0.2676580160265565
 40
0.3212952326498016
 40
0.3751103197791395
 40
0.4290305199022785
 40
0.4829538596074313
 40
0.5115239026699427
 40
0.5703978068127212
 40
0.6240006546388086
 40
0.6774841226375738
 40
0.7309419371919326
 40
0.7844686801649706
 40
0.8381287704610819
 40
0.8919344629593927
 40
0.9458454203477333
 40
0.9999999999999999
 40
0.9999999999999999
 40
0.9999999999999999
 40
0.9999999999999999
 10
105.016106834923
 20
628.5269493381651
 30
0.0
 10
104.5033425519294
 20
628.4412232730313
 30
0.0
 10
103.4773654035681
 20
628.2696961468969
 30
0.0
 10
101.9254478508265
 20
628.671142550265
 30
0.0
 10
100.5862674819632
 20
629.5151429081731
 30
0.0
 10
99.59558465306584
 20
630.7495635696466
 30
0.0
 10
99.06548921012659
 20
632.2267182118343
 30
0.0
 10
99.05586684407578
 20
633.7885467492065
 30
0.0
 10
99.57265292291842
 20
635.2601004902046
 30
0.0
 10
100.5592162785365
 20
636.473239968513
 30
0.0
 10
101.6978196508243
 20
637.160314264625
 30
0.0
 10
103.0056120063025
 20
637.5418830853736
 30
0.0
 10
104.4028449563573
 20
637.5578041068142
 30
0.0
 10
105.9497494816052
 20
637.0124583484821
 30
0.0
 10
107.195927760251
 20
636.0277128377494
 30
0.0
 10
108.0498606599637
 20
634.6970801288933
 30
0.0
 10
108.4179470174635
 20
633.1696134163624
 30
0.0
 10
108.2588436634389
 20
631.6119593334073
 30
0.0
 10
107.5840686156273
 20
630.2118613793659
 30
0.0
 10
106.4794080865196
 20
629.0823594844286
 30
0.0
 10
105.5046064476737
 20
628.7123640920113
 30
0.0
 10
105.0161068349229
 20
628.5269493381651
 30
0.0
  0
CIRCLE
  5
179
330
1F
100
AcDbEntity
  8
0
  6
Continuous
 62
     8
370
    18
100
AcDbCircle
 10
75.1810688167
 20
583.5258970182
 30
0.0
 40
50.35185800852685
  0
ENDSEC
  0
SECTION
  2
OBJECTS
  0
DICTIONARY
  5
C
330
0
100
AcDbDictionary
281
     1
  3
ACAD_DETAILVIEWSTYLE
350
181
  3
ACAD_GROUP
350
D
  3
ACAD_LAYOUT
350
1A
  3
ACAD_MATERIAL
350
43
  3
ACAD_MLEADERSTYLE
350
6B
  3
ACAD_MLINESTYLE
350
17
  3
ACAD_PLOTSETTINGS
350
19
  3
ACAD_PLOTSTYLENAME
350
E
  3
ACAD_SCALELIST
350
47
  3
ACAD_SECTIONVIEWSTYLE
350
182
  3
ACAD_TABLESTYLE
350
69
  3
ACAD_VISUALSTYLE
350
2A
  3
ACDB_RECOMPOSE_DATA
350
17E
  3
AcDbVariableDictionary
350
17A
  0
SUN
  5
6D
330
29
100
AcDbSun
 90
        1
290
     0
 63
     7
421
 16777215
 40
1.0
291
     1
 91
  2455826
 92
 54000000
292
     0
 70
     2
 71
   256
280
     1
  0
DICTIONARY
  5
181
102
{ACAD_REACTORS
330
C
102
}
330
C
100
AcDbDictionary
281
     1
  0
DICTIONARY
  5
D
102
{ACAD_REACTORS
330
C
102
}
330
C
100
AcDbDictionary
281
     1
  0
DICTIONARY
  5
1A
102
{ACAD_REACTORS
330
C
102
}
330
C
100
AcDbDictionary
281
     1
  3
Layout1
350
1E
  3
Layout2
350
26
  3
Model
350
22
  0
DICTIONARY
  5
43
102
{ACAD_REACTORS
330
C
102
}
330
C
100
AcDbDictionary
281
     1
  3
ByBlock
350
45
  3
ByLayer
350
44
  3
Global
350
46
  0
DICTIONARY
  5
6B
102
{ACAD_REACTORS
330
C
102
}
330
C
100
AcDbDictionary
281
     1
  3
Standard
350
6C
  0
DICTIONARY
  5
17
102
{ACAD_REACTORS
330
C
102
}
330
C
100
AcDbDictionary
281
     1
  3
Standard
350
18
  0
DICTIONARY
  5
19
102
{ACAD_REACTORS
330
C
102
}
330
C
100
AcDbDictionary
281
     1
  0
ACDBDICTIONARYWDFLT
  5
E
102
{ACAD_REACTORS
330
C
102
}
330
C
100
AcDbDictionary
281
     1
  3
Normal
350
F
100
AcDbDictionaryWithDefault
340
F
  0
DICTIONARY
  5
47
102
{ACAD_REACTORS
330
C
102
}
330
C
100
AcDbDictionary
281
     1
  3
A0
350
48
  3
A1
350
49
  3
A2
350
4A
  3
A3
350
4B
  3
A4
350
4C
  3
A5
350
4D
  3
A6
350
4E
  3
A7
350
4F
  3
A8
350
50
  3
A9
350
51
  3
B0
350
52
  3
B1
350
53
  3
B2
350
54
  3
B3
350
55
  3
B4
350
56
  3
B5
350
57
  3
B6
350
58
  3
B7
350
59
  3
B8
350
5A
  3
B9
350
5B
  3
C0
350
5C
  3
C1
350
5D
  3
C2
350
5E
  3
C3
350
5F
  3
C4
350
60
  3
C5
350
61
  3
C6
350
62
  3
C7
350
63
  3
C8
350
64
  3
C9
350
65
  3
D0
350
66
  3
D1
350
67
  3
D2
350
68
  0
DICTIONARY
  5
182
102
{ACAD_REACTORS
330
C
102
}
330
C
100
AcDbDictionary
281
     1
  0
DICTIONARY
  5
69
102
{ACAD_REACTORS
330
C
102
}
330
C
100
AcDbDictionary
281
     1
  3
Standard
350
6A
  0
DICTIONARY
  5
2A
102
{ACAD_REACTORS
330
C
102
}
330
C
100
AcDbDictionary
281
     1
  3
2dWireframe
350
2F
  3
Basic
350
32
  3
Brighten
350
36
  3
ColorChange
350
3A
  3
Conceptual
350
34
  3
Dim
350
35
  3
EdgeColorOff
350
3D
  3
Facepattern
350
39
  3
Flat
350
2B
  3
FlatWithEdges
350
2C
  3
Gouraud
350
2D
  3
GouraudWithEdges
350
2E
  3
Hidden
350
31
  3
JitterOff
350
3B
  3
Linepattern
350
38
  3
OverhangOff
350
3C
  3
Realistic
350
33
  3
Shaded
350
42
  3
Shaded with edges
350
41
  3
Shades of Gray
350
3E
  3
Sketchy
350
3F
  3
Thicken
350
37
  3
Wireframe
350
30
  3
X-Ray
350
40
  0
XRECORD
  5
17E
102
{ACAD_REACTORS
330
C
102
}
330
C
100
AcDbXrecord
280
     1
 90
        1
330
6A
  0
DICTIONARY
  5
17A
102
{ACAD_REACTORS
330
C
102
}
330
C
100
AcDbDictionary
281
     1
  3
CANNOSCALE
350
17B
  3
CENTEREXE
350
183
  3
CENTERLTYPEFILE
350
184
  3
CMLEADERSTYLE
350
180
  3
CTABLESTYLE
350
17F
  0
LAYOUT
  5
1E
102
{ACAD_REACTORS
330
1A
102
}
330
1A
100
AcDbPlotSettings
  1

  2
none_device
  4

  6

 40
0.0
 41
0.0
 42
0.0
 43
0.0
 44
0.0
 45
0.0
 46
0.0
 47
0.0
 48
0.0
 49
0.0
140
0.0
141
0.0
142
1.0
143
1.0
 70
   688
 72
     1
 73
     0
 74
     5
  7

 75
    16
 76
     0
 77
     2
 78
   300
147
1.0
148
0.0
149
0.0
100
AcDbLayout
  1
Layout1
 70
     1
 71
     1
 10
0.0
 20
0.0
 11
420.0
 21
297.0
 12
0.0
 22
0.0
 32
0.0
 14
1.0000000000E+20
 24
1.0000000000E+20
 34
1.0000000000E+20
 15
-1.0000000000E+20
 25
-1.0000000000E+20
 35
-1.0000000000E+20
146
0.0
 13
0.0
 23
0.0
 33
0.0
 16
1.0
 26
0.0
 36
0.0
 17
0.0
 27
1.0
 37
0.0
 76
     0
330
1B
  0
LAYOUT
  5
26
102
{ACAD_REACTORS
330
1A
102
}
330
1A
100
AcDbPlotSettings
  1

  2
none_device
  4

  6

 40
0.0
 41
0.0
 42
0.0
 43
0.0
 44
0.0
 45
0.0
 46
0.0
 47
0.0
 48
0.0
 49
0.0
140
0.0
141
0.0
142
1.0
143
1.0
 70
   688
 72
     1
 73
     0
 74
     5
  7

 75
    16
 76
     0
 77
     2
 78
   300
147
1.0
148
0.0
149
0.0
100
AcDbLayout
  1
Layout2
 70
     1
 71
     2
 10
0.0
 20
0.0
 11
0.0
 21
0.0
 12
0.0
 22
0.0
 32
0.0
 14
0.0
 24
0.0
 34
0.0
 15
0.0
 25
0.0
 35
0.0
146
0.0
 13
0.0
 23
0.0
 33
0.0
 16
1.0
 26
0.0
 36
0.0
 17
0.0
 27
1.0
 37
0.0
 76
     0
330
23
  0
LAYOUT
  5
22
102
{ACAD_REACTORS
330
1A
102
}
330
1A
100
AcDbPlotSettings
  1

  2
none_device
  4
Letter_(8.50_x_11.00_Inches)
  6

 40
6.35
 41
6.35
 42
6.35000508
 43
6.35000508
 44
215.9
 45
279.4
 46
0.0
 47
0.0
 48
0.0
 49
0.0
140
0.0
141
0.0
142
1.0
143
1.0
 70
  1712
 72
     1
 73
     0
 74
     0
  7

 75
     0
 76
     0
 77
     2
 78
   300
147
1.0
148
0.0
149
0.0
100
AcDbLayout
  1
Model
 70
     1
 71
     0
 10
0.0
 20
0.0
 11
210.0
 21
297.0
 12
0.0
 22
0.0
 32
0.0
 14
0.0
 24
0.0
 34
0.0
 15
210.0
 25
297.0
 35
0.0
146
0.0
 13
0.0
 23
0.0
 33
0.0
 16
1.0
 26
0.0
 36
0.0
 17
0.0
 27
1.0
 37
0.0
 76
     0
330
1F
331
29
  0
MATERIAL
  5
45
102
{ACAD_REACTORS
330
43
102
}
330
43
100
AcDbMaterial
  1
ByBlock
 72
     1
 94
      127
  0
MATERIAL
  5
44
102
{ACAD_REACTORS
330
43
102
}
330
43
100
AcDbMaterial
  1
ByLayer
 72
     1
 94
      127
  0
MATERIAL
  5
46
102
{ACAD_REACTORS
330
43
102
}
330
43
100
AcDbMaterial
  1
Global
 72
     1
 94
      127
  0
MLEADERSTYLE
  5
6C
102
{ACAD_REACTORS
330
6B
102
}
330
6B
100
AcDbMLeaderStyle
179
     2
170
     2
171
     1
172
     0
 90
        2
 40
0.0
 41
0.0
173
     1
 91
-1056964608
340
14
 92
       -2
290
     1
 42
2.0
291
     1
 43
8.0
  3
Standard
341
0
 44
4.0
300

342
11
174
     1
178
     6
175
     1
176
     0
 93
-1056964608
 45
4.0
292
     0
297
     0
 46
4.0
343
0
 94
-1056964608
 47
1.0
 49
1.0
140
1.0
293
     1
141
0.0
294
     1
177
     0
142
1.0
295
     0
296
     0
143
3.75
271
     0
272
     9
273
     9
  0
MLINESTYLE
  5
18
102
{ACAD_REACTORS
330
17
102
}
330
17
100
AcDbMlineStyle
  2
Standard
 70
     0
  3

 62
   256
 51
90.0
 52
90.0
 71
     2
 49
0.5
 62
   256
  6
BYLAYER
 49
-0.5
 62
   256
  6
BYLAYER
  0
ACDBPLACEHOLDER
  5
F
102
{ACAD_REACTORS
330
E
102
}
330
E
  0
SCALE
  5
48
102
{ACAD_REACTORS
330
47
102
}
330
47
100
AcDbScale
 70
     0
300
1:1
140
1.0
141
1.0
290
     1
  0
SCALE
  5
49
102
{ACAD_REACTORS
330
47
102
}
330
47
100
AcDbScale
 70
     0
300
1:2
140
1.0
141
2.0
290
     0
  0
SCALE
  5
4A
102
{ACAD_REACTORS
330
47
102
}
330
47
100
AcDbScale
 70
     0
300
1:4
140
1.0
141
4.0
290
     0
  0
SCALE
  5
4B
102
{ACAD_REACTORS
330
47
102
}
330
47
100
AcDbScale
 70
     0
300
1:5
140
1.0
141
5.0
290
     0
  0
SCALE
  5
4C
102
{ACAD_REACTORS
330
47
102
}
330
47
100
AcDbScale
 70
     0
300
1:8
140
1.0
141
8.0
290
     0
  0
SCALE
  5
4D
102
{ACAD_REACTORS
330
47
102
}
330
47
100
AcDbScale
 70
     0
300
1:10
140
1.0
141
10.0
290
     0
  0
SCALE
  5
4E
102
{ACAD_REACTORS
330
47
102
}
330
47
100
AcDbScale
 70
     0
300
1:16
140
1.0
141
16.0
290
     0
  0
SCALE
  5
4F
102
{ACAD_REACTORS
330
47
102
}
330
47
100
AcDbScale
 70
     0
300
1:20
140
1.0
141
20.0
290
     0
  0
SCALE
  5
50
102
{ACAD_REACTORS
330
47
102
}
330
47
100
AcDbScale
 70
     0
300
1:30
140
1.0
141
30.0
290
     0
  0
SCALE
  5
51
102
{ACAD_REACTORS
330
47
102
}
330
47
100
AcDbScale
 70
     0
300
1:40
140
1.0
141
40.0
290
     0
  0
SCALE
  5
52
102
{ACAD_REACTORS
330
47
102
}
330
47
100
AcDbScale
 70
     0
300
1:50
140
1.0
141
50.0
290
     0
  0
SCALE
  5
53
102
{ACAD_REACTORS
330
47
102
}
330
47
100
AcDbScale
 70
     0
300
1:100
140
1.0
141
100.0
290
     0
  0
SCALE
  5
54
102
{ACAD_REACTORS
330
47
102
}
330
47
100
AcDbScale
 70
     0
300
2:1
140
2.0
141
1.0
290
     0
  0
SCALE
  5
55
102
{ACAD_REACTORS
330
47
102
}
330
47
100
AcDbScale
 70
     0
300
4:1
140
4.0
141
1.0
290
     0
  0
SCALE
  5
56
102
{ACAD_REACTORS
330
47
102
}
330
47
100
AcDbScale
 70
     0
300
8:1
140
8.0
141
1.0
290
     0
  0
SCALE
  5
57
102
{ACAD_REACTORS
330
47
102
}
330
47
100
AcDbScale
 70
     0
300
10:1
140
10.0
141
1.0
290
     0
  0
SCALE
  5
58
102
{ACAD_REACTORS
330
47
102
}
330
47
100
AcDbScale
 70
     0
300
100:1
140
100.0
141
1.0
290
     0
  0
SCALE
  5
59
102
{ACAD_REACTORS
330
47
102
}
330
47
100
AcDbScale
 70
     0
300
1/128" = 1'-0"
140
0.0078125
141
12.0
290
     0
  0
SCALE
  5
5A
102
{ACAD_REACTORS
330
47
102
}
330
47
100
AcDbScale
 70
     0
300
1/64" = 1'-0"
140
0.015625
141
12.0
290
     0
  0
SCALE
  5
5B
102
{ACAD_REACTORS
330
47
102
}
330
47
100
AcDbScale
 70
     0
300
1/32" = 1'-0"
140
0.03125
141
12.0
290
     0
  0
SCALE
  5
5C
102
{ACAD_REACTORS
330
47
102
}
330
47
100
AcDbScale
 70
     0
300
1/16" = 1'-0"
140
0.0625
141
12.0
290
     0
  0
SCALE
  5
5D
102
{ACAD_REACTORS
330
47
102
}
330
47
100
AcDbScale
 70
     0
300
3/32" = 1'-0"
140
0.09375
141
12.0
290
     0
  0
SCALE
  5
5E
102
{ACAD_REACTORS
330
47
102
}
330
47
100
AcDbScale
 70
     0
300
1/8" = 1'-0"
140
0.125
141
12.0
290
     0
  0
SCALE
  5
5F
102
{ACAD_REACTORS
330
47
102
}
330
47
100
AcDbScale
 70
     0
300
3/16" = 1'-0"
140
0.1875
141
12.0
290
     0
  0
SCALE
  5
60
102
{ACAD_REACTORS
330
47
102
}
330
47
100
AcDbScale
 70
     0
300
1/4" = 1'-0"
140
0.25
141
12.0
290
     0
  0
SCALE
  5
61
102
{ACAD_REACTORS
330
47
102
}
330
47
100
AcDbScale
 70
     0
300
3/8" = 1'-0"
140
0.375
141
12.0
290
     0
  0
SCALE
  5
62
102
{ACAD_REACTORS
330
47
102
}
330
47
100
AcDbScale
 70
     0
300
1/2" = 1'-0"
140
0.5
141
12.0
290
     0
  0
SCALE
  5
63
102
{ACAD_REACTORS
330
47
102
}
330
47
100
AcDbScale
 70
     0
300
3/4" = 1'-0"
140
0.75
141
12.0
290
     0
  0
SCALE
  5
64
102
{ACAD_REACTORS
330
47
102
}
330
47
100
AcDbScale
 70
     0
300
1" = 1'-0"
140
1.0
141
12.0
290
     0
  0
SCALE
  5
65
102
{ACAD_REACTORS
330
47
102
}
330
47
100
AcDbScale
 70
     0
300
1-1/2" = 1'-0"
140
1.5
141
12.0
290
     0
  0
SCALE
  5
66
102
{ACAD_REACTORS
330
47
102
}
330
47
100
AcDbScale
 70
     0
300
3" = 1'-0"
140
3.0
141
12.0
290
     0
  0
SCALE
  5
67
102
{ACAD_REACTORS
330
47
102
}
330
47
100
AcDbScale
 70
     0
300
6" = 1'-0"
140
6.0
141
12.0
290
     0
  0
SCALE
  5
68
102
{ACAD_REACTORS
330
47
102
}
330
47
100
AcDbScale
 70
     0
300
1'-0" = 1'-0"
140
12.0
141
12.0
290
     0
  0
TABLESTYLE
  5
6A
102
{ACAD_REACTORS
330
69
102
}
102
{ACAD_XDICTIONARY
360
17C
102
}
330
69
100
AcDbTableStyle
  3
Standard
 70
     0
 71
     0
 40
0.06
 41
0.06
280
     0
281
     0
  7
Standard
140
4.5
170
     2
 62
     0
 63
   257
283
     0
 90
        4
 91
        0
  1

274
    -2
284
     1
 64
     0
275
    -2
285
     1
 65
     0
276
    -2
286
     1
 66
     0
277
    -2
287
     1
 67
     0
278
    -2
288
     1
 68
     0
279
    -2
289
     1
 69
     0
  7
Standard
140
6.0
170
     5
 62
     0
 63
   257
283
     0
 90
        4
 91
        0
  1

274
    -2
284
     1
 64
     0
275
    -2
285
     1
 65
     0
276
    -2
286
     1
 66
     0
277
    -2
287
     1
 67
     0
278
    -2
288
     1
 68
     0
279
    -2
289
     1
 69
     0
  7
Standard
140
4.5
170
     5
 62
     0
 63
   257
283
     0
 90
        4
 91
        0
  1

274
    -2
284
     1
 64
     0
275
    -2
285
     1
 65
     0
276
    -2
286
     1
 66
     0
277
    -2
287
     1
 67
     0
278
    -2
288
     1
 68
     0
279
    -2
289
     1
 69
     0
  0
VISUALSTYLE
  5
2F
102
{ACAD_REACTORS
330
2A
102
}
330
2A
100
AcDbVisualStyle
  2
2dWireframe
 70
     4
177
     2
291
     0
 71
     0
176
     1
 72
     2
176
     1
 73
     0
176
     1
 90
        0
176
     1
 40
0.6
176
     1
 41
30.0
176
     1
 62
     5
 63
     7
421
 16777215
176
     1
 74
     1
176
     1
 91
        4
176
     1
 64
     7
176
     1
 65
   257
176
     1
 75
     1
176
     1
175
     1
176
     1
 42
1.0
176
     1
 92
        0
176
     1
 66
   257
176
     1
 43
1.0
176
     1
 76
     1
176
     1
 77
     6
176
     1
 78
     2
176
     1
 67
     7
176
     1
 79
     5
176
     1
170
     0
176
     1
171
     0
176
     1
290
     0
176
     1
 93
        1
176
     1
 44
0.0
176
     1
173
     0
176
     1
  0
VISUALSTYLE
  5
32
102
{ACAD_REACTORS
330
2A
102
}
330
2A
100
AcDbVisualStyle
  2
Basic
 70
     7
177
     2
291
     1
 71
     1
176
     1
 72
     0
176
     1
 73
     1
176
     1
 90
        0
176
     1
 40
0.6
176
     1
 41
30.0
176
     1
 62
     5
 63
     7
421
 16777215
176
     1
 74
     0
176
     1
 91
        4
176
     1
 64
     7
176
     1
 65
   257
176
     1
 75
     1
176
     1
175
     1
176
     1
 42
1.0
176
     1
 92
        8
176
     1
 66
     7
176
     1
 43
1.0
176
     1
 76
     1
176
     1
 77
     6
176
     1
 78
     2
176
     1
 67
     7
176
     1
 79
     5
176
     1
170
     0
176
     1
171
     0
176
     1
290
     0
176
     1
 93
        1
176
     1
 44
0.0
176
     1
173
     0
176
     1
  0
VISUALSTYLE
  5
36
102
{ACAD_REACTORS
330
2A
102
}
330
2A
100
AcDbVisualStyle
  2
Brighten
 70
    12
177
     2
291
     1
 71
     2
176
     1
 72
     2
176
     1
 73
     0
176
     1
 90
        0
176
     1
 40
0.6
176
     1
 41
30.0
176
     1
 62
     5
 63
     7
421
 16777215
176
     1
 74
     1
176
     1
 91
        4
176
     1
 64
     7
176
     1
 65
   257
176
     1
 75
     1
176
     1
175
     1
176
     1
 42
1.0
176
     1
 92
        8
176
     1
 66
     7
176
     1
 43
1.0
176
     1
 76
     1
176
     1
 77
     6
176
     1
 78
     2
176
     1
 67
     7
176
     1
 79
     5
176
     1
170
     0
176
     1
171
     0
176
     1
290
     0
176
     1
 93
        1
176
     1
 44
50.0
176
     1
173
     0
176
     1
  0
VISUALSTYLE
  5
3A
102
{ACAD_REACTORS
330
2A
102
}
330
2A
100
AcDbVisualStyle
  2
ColorChange
 70
    16
177
     2
291
     1
 71
     2
176
     1
 72
     2
176
     1
 73
     3
176
     1
 90
        0
176
     1
 40
0.6
176
     1
 41
30.0
176
     1
 62
     5
 63
     8
421
  8421504
176
     1
 74
     1
176
     1
 91
        4
176
     1
 64
     7
176
     1
 65
   257
176
     1
 75
     1
176
     1
175
     1
176
     1
 42
1.0
176
     1
 92
        8
176
     1
 66
     8
424
  8421504
176
     1
 43
1.0
176
     1
 76
     1
176
     1
 77
     6
176
     1
 78
     2
176
     1
 67
     7
176
     1
 79
     5
176
     1
170
     0
176
     1
171
     0
176
     1
290
     0
176
     1
 93
        1
176
     1
 44
0.0
176
     1
173
     0
176
     1
  0
VISUALSTYLE
  5
34
102
{ACAD_REACTORS
330
2A
102
}
330
2A
100
AcDbVisualStyle
  2
Conceptual
 70
     9
177
     2
291
     0
 71
     3
176
     1
 72
     2
176
     1
 73
     0
176
     1
 90
        0
176
     1
 40
0.6
176
     1
 41
30.0
176
     1
 62
     5
 63
     7
421
 16777215
176
     1
 74
     2
176
     1
 91
        2
176
     1
 64
     7
176
     1
 65
   257
176
     1
 75
     1
176
     1
175
     1
176
     1
 42
179.0
176
     1
 92
        8
176
     1
 66
     7
176
     1
 43
1.0
176
     1
 76
     1
176
     1
 77
     6
176
     1
 78
     2
176
     1
 67
     7
176
     1
 79
     3
176
     1
170
     0
176
     1
171
     0
176
     1
290
     0
176
     1
 93
        1
176
     1
 44
0.0
176
     1
173
     0
176
     1
  0
VISUALSTYLE
  5
35
102
{ACAD_REACTORS
330
2A
102
}
330
2A
100
AcDbVisualStyle
  2
Dim
 70
    11
177
     2
291
     1
 71
     2
176
     1
 72
     2
176
     1
 73
     0
176
     1
 90
        0
176
     1
 40
0.6
176
     1
 41
30.0
176
     1
 62
     5
 63
     7
421
 16777215
176
     1
 74
     1
176
     1
 91
        4
176
     1
 64
     7
176
     1
 65
   257
176
     1
 75
     1
176
     1
175
     1
176
     1
 42
1.0
176
     1
 92
        8
176
     1
 66
     7
176
     1
 43
1.0
176
     1
 76
     1
176
     1
 77
     6
176
     1
 78
     2
176
     1
 67
     7
176
     1
 79
     5
176
     1
170
     0
176
     1
171
     0
176
     1
290
     0
176
     1
 93
        1
176
     1
 44
-50.0
176
     1
173
     0
176
     1
  0
VISUALSTYLE
  5
3D
102
{ACAD_REACTORS
330
2A
102
}
330
2A
100
AcDbVisualStyle
  2
EdgeColorOff
 70
    22
177
     2
291
     1
 71
     2
176
     0
 72
     2
176
     0
 73
     0
176
     0
 90
        0
176
     0
 40
0.6
176
     0
 41
30.0
176
     0
 62
     5
 63
     7
421
 16777215
176
     0
 74
     1
176
     0
 91
        4
176
     0
 64
     7
176
     0
 65
   257
176
     0
 75
     1
176
     0
175
     1
176
     0
 42
1.0
176
     0
 92
        8
176
     2
 66
     7
176
     0
 43
1.0
176
     0
 76
     1
176
     0
 77
     6
176
     0
 78
     2
176
     0
 67
     7
176
     0
 79
     5
176
     0
170
     0
176
     0
171
     0
176
     0
290
     0
176
     0
 93
        1
176
     0
 44
0.0
176
     0
173
     0
176
     0
  0
VISUALSTYLE
  5
39
102
{ACAD_REACTORS
330
2A
102
}
330
2A
100
AcDbVisualStyle
  2
Facepattern
 70
    15
177
     2
291
     1
 71
     2
176
     1
 72
     2
176
     1
 73
     0
176
     1
 90
        0
176
     1
 40
0.6
176
     1
 41
30.0
176
     1
 62
     5
 63
     7
421
 16777215
176
     1
 74
     1
176
     1
 91
        4
176
     1
 64
     7
176
     1
 65
   257
176
     1
 75
     1
176
     1
175
     1
176
     1
 42
1.0
176
     1
 92
        8
176
     1
 66
     7
176
     1
 43
1.0
176
     1
 76
     1
176
     1
 77
     6
176
     1
 78
     2
176
     1
 67
     7
176
     1
 79
     5
176
     1
170
     0
176
     1
171
     0
176
     1
290
     0
176
     1
 93
        1
176
     1
 44
0.0
176
     1
173
     0
176
     1
  0
VISUALSTYLE
  5
2B
102
{ACAD_REACTORS
330
2A
102
}
330
2A
100
AcDbVisualStyle
  2
Flat
 70
     0
177
     2
291
     1
 71
     2
176
     1
 72
     1
176
     1
 73
     1
176
     1
 90
        2
176
     1
 40
0.6
176
     1
 41
30.0
176
     1
 62
     5
 63
     7
421
 16777215
176
     1
 74
     0
176
     1
 91
        0
176
     1
 64
     7
176
     1
 65
   257
176
     1
 75
     1
176
     1
175
     1
176
     1
 42
1.0
176
     1
 92
        8
176
     1
 66
     7
176
     1
 43
1.0
176
     1
 76
     1
176
     1
 77
     6
176
     1
 78
     2
176
     1
 67
     7
176
     1
 79
     5
176
     1
170
     0
176
     1
171
     0
176
     1
290
     0
176
     1
 93
       13
176
     1
 44
0.0
176
     1
173
     0
176
     1
  0
VISUALSTYLE
  5
2C
102
{ACAD_REACTORS
330
2A
102
}
330
2A
100
AcDbVisualStyle
  2
FlatWithEdges
 70
     1
177
     2
291
     1
 71
     2
176
     1
 72
     1
176
     1
 73
     1
176
     1
 90
        2
176
     1
 40
0.6
176
     1
 41
30.0
176
     1
 62
     5
 63
     7
421
 16777215
176
     1
 74
     1
176
     1
 91
        0
176
     1
 64
     7
176
     1
 65
   257
176
     1
 75
     1
176
     1
175
     1
176
     1
 42
1.0
176
     1
 92
        0
176
     1
 66
   257
176
     1
 43
1.0
176
     1
 76
     1
176
     1
 77
     6
176
     1
 78
     2
176
     1
 67
     7
176
     1
 79
     5
176
     1
170
     0
176
     1
171
     0
176
     1
290
     0
176
     1
 93
       13
176
     1
 44
0.0
176
     1
173
     0
176
     1
  0
VISUALSTYLE
  5
2D
102
{ACAD_REACTORS
330
2A
102
}
330
2A
100
AcDbVisualStyle
  2
Gouraud
 70
     2
177
     2
291
     1
 71
     2
176
     1
 72
     2
176
     1
 73
     1
176
     1
 90
        2
176
     1
 40
0.6
176
     1
 41
30.0
176
     1
 62
     5
 63
     7
421
 16777215
176
     1
 74
     0
176
     1
 91
        0
176
     1
 64
     7
176
     1
 65
   257
176
     1
 75
     1
176
     1
175
     1
176
     1
 42
1.0
176
     1
 92
        0
176
     1
 66
     7
176
     1
 43
1.0
176
     1
 76
     1
176
     1
 77
     6
176
     1
 78
     2
176
     1
 67
     7
176
     1
 79
     5
176
     1
170
     0
176
     1
171
     0
176
     1
290
     0
176
     1
 93
       13
176
     1
 44
0.0
176
     1
173
     0
176
     1
  0
VISUALSTYLE
  5
2E
102
{ACAD_REACTORS
330
2A
102
}
330
2A
100
AcDbVisualStyle
  2
GouraudWithEdges
 70
     3
177
     2
291
     1
 71
     2
176
     1
 72
     2
176
     1
 73
     1
176
     1
 90
        2
176
     1
 40
0.6
176
     1
 41
30.0
176
     1
 62
     5
 63
     7
421
 16777215
176
     1
 74
     1
176
     1
 91
        0
176
     1
 64
     7
176
     1
 65
   257
176
     1
 75
     1
176
     1
175
     1
176
     1
 42
1.0
176
     1
 92
        0
176
     1
 66
   257
176
     1
 43
1.0
176
     1
 76
     1
176
     1
 77
     6
176
     1
 78
     2
176
     1
 67
     7
176
     1
 79
     5
176
     1
170
     0
176
     1
171
     0
176
     1
290
     0
176
     1
 93
       13
176
     1
 44
0.0
176
     1
173
     0
176
     1
  0
VISUALSTYLE
  5
31
102
{ACAD_REACTORS
330
2A
102
}
330
2A
100
AcDbVisualStyle
  2
Hidden
 70
     6
177
     2
291
     0
 71
     1
176
     1
 72
     2
176
     1
 73
     2
176
     1
 90
        0
176
     1
 40
0.6
176
     1
 41
30.0
176
     1
 62
     5
 63
     7
421
 16777215
176
     1
 74
     2
176
     1
 91
        2
176
     1
 64
     7
176
     1
 65
   257
176
     1
 75
     2
176
     1
175
     1
176
     1
 42
40.0
176
     1
 92
        0
176
     1
 66
   257
176
     1
 43
1.0
176
     1
 76
     1
176
     1
 77
     6
176
     1
 78
     2
176
     1
 67
     7
176
     1
 79
     3
176
     1
170
     0
176
     1
171
     0
176
     1
290
     0
176
     1
 93
        1
176
     1
 44
0.0
176
     1
173
     0
176
     1
  0
VISUALSTYLE
  5
3B
102
{ACAD_REACTORS
330
2A
102
}
330
2A
100
AcDbVisualStyle
  2
JitterOff
 70
    20
177
     2
291
     1
 71
     2
176
     0
 72
     2
176
     0
 73
     0
176
     0
 90
        0
176
     0
 40
0.6
176
     0
 41
30.0
176
     0
 62
     5
 63
     7
421
 16777215
176
     0
 74
     1
176
     0
 91
        4
176
     0
 64
     7
176
     0
 65
   257
176
     0
 75
     1
176
     0
175
     1
176
     0
 42
1.0
176
     0
 92
       10
176
     2
 66
     7
176
     0
 43
1.0
176
     0
 76
     1
176
     0
 77
     6
176
     0
 78
     2
176
     0
 67
     7
176
     0
 79
     5
176
     0
170
     0
176
     0
171
     0
176
     0
290
     0
176
     0
 93
        1
176
     0
 44
0.0
176
     0
173
     0
176
     0
  0
VISUALSTYLE
  5
38
102
{ACAD_REACTORS
330
2A
102
}
330
2A
100
AcDbVisualStyle
  2
Linepattern
 70
    14
177
     2
291
     1
 71
     2
176
     1
 72
     2
176
     1
 73
     0
176
     1
 90
        0
176
     1
 40
0.6
176
     1
 41
30.0
176
     1
 62
     5
 63
     7
421
 16777215
176
     1
 74
     1
176
     1
 91
        4
176
     1
 64
     7
176
     1
 65
   257
176
     1
 75
     7
176
     1
175
     7
176
     1
 42
1.0
176
     1
 92
        8
176
     1
 66
     7
176
     1
 43
1.0
176
     1
 76
     1
176
     1
 77
     6
176
     1
 78
     2
176
     1
 67
     7
176
     1
 79
     5
176
     1
170
     0
176
     1
171
     0
176
     1
290
     0
176
     1
 93
        1
176
     1
 44
0.0
176
     1
173
     0
176
     1
  0
VISUALSTYLE
  5
3C
102
{ACAD_REACTORS
330
2A
102
}
330
2A
100
AcDbVisualStyle
  2
OverhangOff
 70
    21
177
     2
291
     1
 71
     2
176
     0
 72
     2
176
     0
 73
     0
176
     0
 90
        0
176
     0
 40
0.6
176
     0
 41
30.0
176
     0
 62
     5
 63
     7
421
 16777215
176
     0
 74
     1
176
     0
 91
        4
176
     0
 64
     7
176
     0
 65
   257
176
     0
 75
     1
176
     0
175
     1
176
     0
 42
1.0
176
     0
 92
        9
176
     2
 66
     7
176
     0
 43
1.0
176
     0
 76
     1
176
     0
 77
     6
176
     0
 78
     2
176
     0
 67
     7
176
     0
 79
     5
176
     0
170
     0
176
     0
171
     0
176
     0
290
     0
176
     0
 93
        1
176
     0
 44
0.0
176
     0
173
     0
176
     0
  0
VISUALSTYLE
  5
33
102
{ACAD_REACTORS
330
2A
102
}
330
2A
100
AcDbVisualStyle
  2
Realistic
 70
     8
177
     2
291
     0
 71
     2
176
     1
 72
     3
176
     1
 73
     0
176
     1
 90
        2
176
     1
 40
0.6
176
     1
 41
30.0
176
     1
 62
     5
 63
     7
421
 16777215
176
     1
 74
     0
176
     1
 91
        0
176
     1
 64
     7
176
     1
 65
   257
176
     1
 75
     1
176
     1
175
     1
176
     1
 42
1.0
176
     1
 92
        8
176
     1
 66
   257
176
     1
 43
1.0
176
     1
 76
     1
176
     1
 77
     6
176
     1
 78
     2
176
     1
 67
     7
176
     1
 79
     3
176
     1
170
     0
176
     1
171
     0
176
     1
290
     0
176
     1
 93
       13
176
     1
 44
0.0
176
     1
173
     0
176
     1
  0
VISUALSTYLE
  5
42
102
{ACAD_REACTORS
330
2A
102
}
330
2A
100
AcDbVisualStyle
  2
Shaded
 70
    27
177
     2
291
     0
 71
     2
176
     1
 72
     2
176
     1
 73
     1
176
     1
 90
        2
176
     1
 40
0.6
176
     1
 41
30.0
176
     1
 62
     5
 63
     7
421
 16777215
176
     1
 74
     0
176
     1
 91
        4
176
     1
 64
     7
176
     1
 65
   257
176
     1
 75
     1
176
     1
175
     1
176
     1
 42
1.0
176
     1
 92
        8
176
     1
 66
   257
176
     1
 43
1.0
176
     1
 76
     1
176
     1
 77
     6
176
     1
 78
     2
176
     1
 67
     8
425
  7895160
176
     1
 79
     3
176
     1
170
     0
176
     1
171
     0
176
     1
290
     0
176
     1
 93
        5
176
     1
 44
0.0
176
     1
173
     0
176
     1
  0
VISUALSTYLE
  5
41
102
{ACAD_REACTORS
330
2A
102
}
330
2A
100
AcDbVisualStyle
  2
Shaded with edges
 70
    26
177
     2
291
     0
 71
     2
176
     1
 72
     2
176
     1
 73
     1
176
     1
 90
        2
176
     1
 40
0.6
176
     1
 41
30.0
176
     1
 62
     5
 63
     7
421
 16777215
176
     1
 74
     1
176
     1
 91
       10
176
     1
 64
     7
176
     1
 65
   257
176
     1
 75
     2
176
     1
175
     1
176
     1
 42
1.0
176
     1
 92
        8
176
     1
 66
   257
176
     1
 43
1.0
176
     1
 76
     1
176
     1
 77
     6
176
     1
 78
     2
176
     1
 67
     7
176
     1
 79
     3
176
     1
170
     0
176
     1
171
     0
176
     1
290
     0
176
     1
 93
        5
176
     1
 44
0.0
176
     1
173
     0
176
     1
  0
VISUALSTYLE
  5
3E
102
{ACAD_REACTORS
330
2A
102
}
330
2A
100
AcDbVisualStyle
  2
Shades of Gray
 70
    23
177
     2
291
     0
 71
     2
176
     1
 72
     2
176
     1
 73
     3
176
     1
 90
        0
176
     1
 40
0.6
176
     1
 41
30.0
176
     1
 62
     5
 63
     7
421
 16777215
176
     1
 74
     2
176
     1
 91
        2
176
     1
 64
     7
176
     1
 65
     7
176
     1
 75
     1
176
     1
175
     1
176
     1
 42
40.0
176
     1
 92
        8
176
     1
 66
     7
176
     1
 43
1.0
176
     1
 76
     1
176
     1
 77
     6
176
     1
 78
     2
176
     1
 67
     7
176
     1
 79
     3
176
     1
170
     0
176
     1
171
     0
176
     1
290
     0
176
     1
 93
        1
176
     1
 44
0.0
176
     1
173
     0
176
     1
  0
VISUALSTYLE
  5
3F
102
{ACAD_REACTORS
330
2A
102
}
330
2A
100
AcDbVisualStyle
  2
Sketchy
 70
    24
177
     2
291
     0
 71
     1
176
     1
 72
     2
176
     1
 73
     2
176
     1
 90
        0
176
     1
 40
0.6
176
     1
 41
30.0
176
     1
 62
     5
 63
     7
421
 16777215
176
     1
 74
     2
176
     1
 91
        2
176
     1
 64
     7
176
     1
 65
     7
176
     1
 75
     1
176
     1
175
     1
176
     1
 42
40.0
176
     1
 92
       11
176
     1
 66
     7
176
     1
 43
1.0
176
     1
 76
     1
176
     1
 77
     6
176
     1
 78
     2
176
     1
 67
     7
176
     1
 79
     6
176
     1
170
     0
176
     1
171
     0
176
     1
290
     0
176
     1
 93
        1
176
     1
 44
0.0
176
     1
173
     0
176
     1
  0
VISUALSTYLE
  5
37
102
{ACAD_REACTORS
330
2A
102
}
330
2A
100
AcDbVisualStyle
  2
Thicken
 70
    13
177
     2
291
     1
 71
     2
176
     1
 72
     2
176
     1
 73
     0
176
     1
 90
        0
176
     1
 40
0.6
176
     1
 41
30.0
176
     1
 62
     5
 63
     7
421
 16777215
176
     1
 74
     1
176
     1
 91
        4
176
     1
 64
     7
176
     1
 65
   257
176
     1
 75
     1
176
     1
175
     1
176
     1
 42
1.0
176
     1
 92
       12
176
     1
 66
     7
176
     1
 43
1.0
176
     1
 76
     1
176
     1
 77
     6
176
     1
 78
     2
176
     1
 67
     7
176
     1
 79
     5
176
     1
170
     0
176
     1
171
     0
176
     1
290
     0
176
     1
 93
        1
176
     1
 44
0.0
176
     1
173
     0
176
     1
  0
VISUALSTYLE
  5
30
102
{ACAD_REACTORS
330
2A
102
}
330
2A
100
AcDbVisualStyle
  2
Wireframe
 70
     5
177
     2
291
     0
 71
     0
176
     1
 72
     2
176
     1
 73
     0
176
     1
 90
        0
176
     1
 40
0.6
176
     1
 41
30.0
176
     1
 62
     5
 63
     7
421
 16777215
176
     1
 74
     1
176
     1
 91
        4
176
     1
 64
     7
176
     1
 65
   257
176
     1
 75
     1
176
     1
175
     1
176
     1
 42
1.0
176
     1
 92
        0
176
     1
 66
   257
176
     1
 43
1.0
176
     1
 76
     1
176
     1
 77
     6
176
     1
 78
     2
176
     1
 67
     7
176
     1
 79
     3
176
     1
170
     0
176
     1
171
     0
176
     1
290
     0
176
     1
 93
        1
176
     1
 44
0.0
176
     1
173
     0
176
     1
  0
VISUALSTYLE
  5
40
102
{ACAD_REACTORS
330
2A
102
}
330
2A
100
AcDbVisualStyle
  2
X-Ray
 70
    25
177
     2
291
     0
 71
     2
176
     1
 72
     2
176
     1
 73
     1
176
     1
 90
        1
176
     1
 40
0.5
176
     1
 41
30.0
176
     1
 62
     5
 63
     7
421
 16777215
176
     1
 74
     1
176
     1
 91
        0
176
     1
 64
     7
176
     1
 65
   257
176
     1
 75
     1
176
     1
175
     1
176
     1
 42
1.0
176
     1
 92
        8
176
     1
 66
     7
176
     1
 43
1.0
176
     1
 76
     1
176
     1
 77
     6
176
     1
 78
     2
176
     1
 67
     7
176
     1
 79
     3
176
     1
170
     0
176
     1
171
     0
176
     1
290
     0
176
     1
 93
       13
176
     1
 44
0.0
176
     1
173
     0
176
     1
  0
DICTIONARYVAR
  5
17B
102
{ACAD_REACTORS
330
17A
102
}
330
17A
100
DictionaryVariables
280
     0
  1
1:1
  0
DICTIONARYVAR
  5
183
102
{ACAD_REACTORS
330
17A
102
}
330
17A
100
DictionaryVariables
280
     0
  1
3.500000
  0
DICTIONARYVAR
  5
184
102
{ACAD_REACTORS
330
17A
102
}
330
17A
100
DictionaryVariables
280
     0
  1
acadiso.lin
  0
DICTIONARYVAR
  5
180
102
{ACAD_REACTORS
330
17A
102
}
330
17A
100
DictionaryVariables
280
     0
  1
Standard
  0
DICTIONARYVAR
  5
17F
102
{ACAD_REACTORS
330
17A
102
}
330
17A
100
DictionaryVariables
280
     0
  1
Standard
  0
DICTIONARY
  5
17C
330
6A
100
AcDbDictionary
280
     1
281
     1
  3
ACAD_ROUNDTRIP_2008_TABLESTYLE_CELLSTYLEMAP
360
17D
  0
CELLSTYLEMAP
  5
17D
102
{ACAD_REACTORS
330
17C
102
}
330
17C
100
AcDbCellStyleMap
 90
        3
300
CELLSTYLE
  1
TABLEFORMAT_BEGIN
 90
        5
170
     1
 91
        0
 92
    32768
 62
   257
 93
        1
300
CONTENTFORMAT
  1
CONTENTFORMAT_BEGIN
 90
        0
 91
        0
 92
        4
 93
        0
300

 40
0.0
140
1.0
 94
        5
 62
     0
340
11
144
6.0
309
CONTENTFORMAT_END
171
     1
301
MARGIN
  1
CELLMARGIN_BEGIN
 40
1.5
 40
1.5
 40
1.5
 40
1.5
 40
1.5
 40
1.5
309
CELLMARGIN_END
 94
        6
 95
        1
302
GRIDFORMAT
  1
GRIDFORMAT_BEGIN
 90
        0
 91
        1
 62
     0
 92
       -2
340
14
 93
        0
 40
0.045
309
GRIDFORMAT_END
 95
        2
302
GRIDFORMAT
  1
GRIDFORMAT_BEGIN
 90
        0
 91
        1
 62
     0
 92
       -2
340
14
 93
        0
 40
0.045
309
GRIDFORMAT_END
 95
        4
302
GRIDFORMAT
  1
GRIDFORMAT_BEGIN
 90
        0
 91
        1
 62
     0
 92
       -2
340
14
 93
        0
 40
0.045
309
GRIDFORMAT_END
 95
        8
302
GRIDFORMAT
  1
GRIDFORMAT_BEGIN
 90
        0
 91
        1
 62
     0
 92
       -2
340
14
 93
        0
 40
0.045
309
GRIDFORMAT_END
 95
       16
302
GRIDFORMAT
  1
GRIDFORMAT_BEGIN
 90
        0
 91
        1
 62
     0
 92
       -2
340
14
 93
        0
 40
0.045
309
GRIDFORMAT_END
 95
       32
302
GRIDFORMAT
  1
GRIDFORMAT_BEGIN
 90
        0
 91
        1
 62
     0
 92
       -2
340
14
 93
        0
 40
0.045
309
GRIDFORMAT_END
309
TABLEFORMAT_END
  1
CELLSTYLE_BEGIN
 90
        1
 91
        1
300
_TITLE
309
CELLSTYLE_END
300
CELLSTYLE
  1
TABLEFORMAT_BEGIN
 90
        5
170
     1
 91
        0
 92
        0
 62
   257
 93
        1
300
CONTENTFORMAT
  1
CONTENTFORMAT_BEGIN
 90
        0
 91
        0
 92
        4
 93
        0
300

 40
0.0
140
1.0
 94
        5
 62
     0
340
11
144
4.5
309
CONTENTFORMAT_END
171
     1
301
MARGIN
  1
CELLMARGIN_BEGIN
 40
1.5
 40
1.5
 40
1.5
 40
1.5
 40
1.5
 40
1.5
309
CELLMARGIN_END
 94
        6
 95
        1
302
GRIDFORMAT
  1
GRIDFORMAT_BEGIN
 90
        0
 91
        1
 62
     0
 92
       -2
340
14
 93
        0
 40
0.045
309
GRIDFORMAT_END
 95
        2
302
GRIDFORMAT
  1
GRIDFORMAT_BEGIN
 90
        0
 91
        1
 62
     0
 92
       -2
340
14
 93
        0
 40
0.045
309
GRIDFORMAT_END
 95
        4
302
GRIDFORMAT
  1
GRIDFORMAT_BEGIN
 90
        0
 91
        1
 62
     0
 92
       -2
340
14
 93
        0
 40
0.045
309
GRIDFORMAT_END
 95
        8
302
GRIDFORMAT
  1
GRIDFORMAT_BEGIN
 90
        0
 91
        1
 62
     0
 92
       -2
340
14
 93
        0
 40
0.045
309
GRIDFORMAT_END
 95
       16
302
GRIDFORMAT
  1
GRIDFORMAT_BEGIN
 90
        0
 91
        1
 62
     0
 92
       -2
340
14
 93
        0
 40
0.045
309
GRIDFORMAT_END
 95
       32
302
GRIDFORMAT
  1
GRIDFORMAT_BEGIN
 90
        0
 91
        1
 62
     0
 92
       -2
340
14
 93
        0
 40
0.045
309
GRIDFORMAT_END
309
TABLEFORMAT_END
  1
CELLSTYLE_BEGIN
 90
        2
 91
        1
300
_HEADER
309
CELLSTYLE_END
300
CELLSTYLE
  1
TABLEFORMAT_BEGIN
 90
        5
170
     1
 91
        0
 92
        0
 62
   257
 93
        1
300
CONTENTFORMAT
  1
CONTENTFORMAT_BEGIN
 90
        0
 91
        0
 92
        4
 93
        0
300

 40
0.0
140
1.0
 94
        2
 62
     0
340
11
144
4.5
309
CONTENTFORMAT_END
171
     1
301
MARGIN
  1
CELLMARGIN_BEGIN
 40
1.5
 40
1.5
 40
1.5
 40
1.5
 40
1.5
 40
1.5
309
CELLMARGIN_END
 94
        6
 95
        1
302
GRIDFORMAT
  1
GRIDFORMAT_BEGIN
 90
        0
 91
        1
 62
     0
 92
       -2
340
14
 93
        0
 40
0.045
309
GRIDFORMAT_END
 95
        2
302
GRIDFORMAT
  1
GRIDFORMAT_BEGIN
 90
        0
 91
        1
 62
     0
 92
       -2
340
14
 93
        0
 40
0.045
309
GRIDFORMAT_END
 95
        4
302
GRIDFORMAT
  1
GRIDFORMAT_BEGIN
 90
        0
 91
        1
 62
     0
 92
       -2
340
14
 93
        0
 40
0.045
309
GRIDFORMAT_END
 95
        8
302
GRIDFORMAT
  1
GRIDFORMAT_BEGIN
 90
        0
 91
        1
 62
     0
 92
       -2
340
14
 93
        0
 40
0.045
309
GRIDFORMAT_END
 95
       16
302
GRIDFORMAT
  1
GRIDFORMAT_BEGIN
 90
        0
 91
        1
 62
     0
 92
       -2
340
14
 93
        0
 40
0.045
309
GRIDFORMAT_END
 95
       32
302
GRIDFORMAT
  1
GRIDFORMAT_BEGIN
 90
        0
 91
        1
 62
     0
 92
       -2
340
14
 93
        0
 40
0.045
309
GRIDFORMAT_END
309
TABLEFORMAT_END
  1
CELLSTYLE_BEGIN
 90
        3
 91
        2
300
_DATA
309
CELLSTYLE_END
  0
ENDSEC
  0
EOF
