  0
SECTION
  2
HEADER
  9
$ACADVER
  1
AC1024
  9
$ACADMAINTVER
 70
     6
  9
$DWGCODEPAGE
  3
ANSI_1252
  9
$INSBASE
 10
0.0
 20
0.0
 30
0.0
  9
$EXTMIN
 10
0.0
 20
0.0
 30
0.0
  9
$EXTMAX
 10
210.0
 20
297.0
 30
0.0
  9
$LIMMIN
 10
0.0
 20
0.0
  9
$LIMMAX
 10
210.0
 20
297.0
  9
$ORTHOMODE
 70
     0
  9
$REGENMODE
 70
     1
  9
$FILLMODE
 70
     1
  9
$QTEXTMODE
 70
     0
  9
$MIRRTEXT
 70
     1
  9
$LTSCALE
 40
1.0
  9
$ATTMODE
 70
     1
  9
$TEXTSIZE
 40
2.0
  9
$TRACEWID
 40
1.0
  9
$TEXTSTYLE
  7
Standard
  9
$CLAYER
  8
0
  9
$CELTYPE
  6
ByLayer
  9
$CECOLOR
 62
   256
  9
$CELTSCALE
 40
1.0
  9
$DISPSILH
 70
     0
  9
$DIMSCALE
 40
1.0
  9
$DIMASZ
 40
2.8
  9
$DIMEXO
 40
1.0
  9
$DIMDLI
 40
3.75
  9
$DIMRND
 40
0.0
  9
$DIMDLE
 40
0.0
  9
$DIMEXE
 40
1.0
  9
$DIMTP
 40
0.0
  9
$DIMTM
 40
0.0
  9
$DIMTXT
 40
2.0
  9
$DIMCEN
 40
2.5
  9
$DIMTSZ
 40
0.0
  9
$DIMTOL
 70
     0
  9
$DIMLIM
 70
     0
  9
$DIMTIH
 70
     1
  9
$DIMTOH
 70
     1
  9
$DIMSE1
 70
     0
  9
$DIMSE2
 70
     0
  9
$DIMTAD
 70
     1
  9
$DIMZIN
 70
     0
  9
$DIMBLK
  1

  9
$DIMASO
 70
     1
  9
$DIMSHO
 70
     1
  9
$DIMPOST
  1

  9
$DIMAPOST
  1

  9
$DIMALT
 70
     0
  9
$DIMALTD
 70
     3
  9
$DIMALTF
 40
0.0393700787
  9
$DIMLFAC
 40
1.0
  9
$DIMTOFL
 70
     1
  9
$DIMTVP
 40
0.0
  9
$DIMTIX
 70
     0
  9
$DIMSOXD
 70
     0
  9
$DIMSAH
 70
     0
  9
$DIMBLK1
  1

  9
$DIMBLK2
  1

  9
$DIMSTYLE
  2
ISO-25
  9
$DIMCLRD
 70
     0
  9
$DIMCLRE
 70
     0
  9
$DIMCLRT
 70
     0
  9
$DIMTFAC
 40
1.0
  9
$DIMGAP
 40
1.524
  9
$DIMJUST
 70
     0
  9
$DIMSD1
 70
     0
  9
$DIMSD2
 70
     0
  9
$DIMTOLJ
 70
     0
  9
$DIMTZIN
 70
     0
  9
$DIMALTZ
 70
     0
  9
$DIMALTTZ
 70
     0
  9
$DIMUPT
 70
     0
  9
$DIMDEC
 70
     2
  9
$DIMTDEC
 70
     2
  9
$DIMALTU
 70
     2
  9
$DIMALTTD
 70
     3
  9
$DIMTXSTY
  7
Standard
  9
$DIMAUNIT
 70
     0
  9
$DIMADEC
 70
     2
  9
$DIMALTRND
 40
0.0
  9
$DIMAZIN
 70
     0
  9
$DIMDSEP
 70
    44
  9
$DIMATFIT
 70
     3
  9
$DIMFRAC
 70
     0
  9
$DIMLDRBLK
  1

  9
$DIMLUNIT
 70
     2
  9
$DIMLWD
 70
    -2
  9
$DIMLWE
 70
    -2
  9
$DIMTMOVE
 70
     0
  9
$DIMFXL
 40
1.0
  9
$DIMFXLON
 70
     0
  9
$DIMJOGANG
 40
0.7853981634
  9
$DIMTFILL
 70
     0
  9
$DIMTFILLCLR
 70
     0
  9
$DIMARCSYM
 70
     0
  9
$DIMLTYPE
  6

  9
$DIMLTEX1
  6

  9
$DIMLTEX2
  6

  9
$DIMTXTDIRECTION
 70
     0
  9
$LUNITS
 70
     2
  9
$LUPREC
 70
     2
  9
$SKETCHINC
 40
1.0
  9
$FILLETRAD
 40
10.0
  9
$AUNITS
 70
     0
  9
$AUPREC
 70
     2
  9
$MENU
  1
.
  9
$ELEVATION
 40
0.0
  9
$PELEVATION
 40
0.0
  9
$THICKNESS
 40
0.0
  9
$LIMCHECK
 70
     0
  9
$CHAMFERA
 40
0.0
  9
$CHAMFERB
 40
0.0
  9
$CHAMFERC
 40
0.0
  9
$CHAMFERD
 40
0.0
  9
$SKPOLY
 70
     0
  9
$TDCREATE
 40
2458543.579341042
  9
$TDUCREATE
 40
2458543.537674375
  9
$TDUPDATE
 40
2458543.579341586
  9
$TDUUPDATE
 40
2458543.537674919
  9
$TDINDWG
 40
0.0000000116
  9
$TDUSRTIMER
 40
0.0000000116
  9
$USRTIMER
 70
     1
  9
$ANGBASE
 50
0.0
  9
$ANGDIR
 70
     0
  9
$PDMODE
 70
     0
  9
$PDSIZE
 40
-1.0
  9
$PLINEWID
 40
0.0
  9
$SPLFRAME
 70
     0
  9
$SPLINETYPE
 70
     6
  9
$SPLINESEGS
 70
     8
  9
$HANDSEED
  5
191
  9
$SURFTAB1
 70
     6
  9
$SURFTAB2
 70
     6
  9
$SURFTYPE
 70
     6
  9
$SURFU
 70
     6
  9
$SURFV
 70
     6
  9
$UCSBASE
  2

  9
$UCSNAME
  2

  9
$UCSORG
 10
0.0
 20
0.0
 30
0.0
  9
$UCSXDIR
 10
1.0
 20
0.0
 30
0.0
  9
$UCSYDIR
 10
0.0
 20
1.0
 30
0.0
  9
$UCSORTHOREF
  2

  9
$UCSORTHOVIEW
 70
     0
  9
$UCSORGTOP
 10
0.0
 20
0.0
 30
0.0
  9
$UCSORGBOTTOM
 10
0.0
 20
0.0
 30
0.0
  9
$UCSORGLEFT
 10
0.0
 20
0.0
 30
0.0
  9
$UCSORGRIGHT
 10
0.0
 20
0.0
 30
0.0
  9
$UCSORGFRONT
 10
0.0
 20
0.0
 30
0.0
  9
$UCSORGBACK
 10
0.0
 20
0.0
 30
0.0
  9
$PUCSBASE
  2

  9
$PUCSNAME
  2

  9
$PUCSORG
 10
0.0
 20
0.0
 30
0.0
  9
$PUCSXDIR
 10
1.0
 20
0.0
 30
0.0
  9
$PUCSYDIR
 10
0.0
 20
1.0
 30
0.0
  9
$PUCSORTHOREF
  2

  9
$PUCSORTHOVIEW
 70
     0
  9
$PUCSORGTOP
 10
0.0
 20
0.0
 30
0.0
  9
$PUCSORGBOTTOM
 10
0.0
 20
0.0
 30
0.0
  9
$PUCSORGLEFT
 10
0.0
 20
0.0
 30
0.0
  9
$PUCSORGRIGHT
 10
0.0
 20
0.0
 30
0.0
  9
$PUCSORGFRONT
 10
0.0
 20
0.0
 30
0.0
  9
$PUCSORGBACK
 10
0.0
 20
0.0
 30
0.0
  9
$USERI1
 70
     0
  9
$USERI2
 70
     0
  9
$USERI3
 70
     0
  9
$USERI4
 70
     0
  9
$USERI5
 70
     0
  9
$USERR1
 40
0.0
  9
$USERR2
 40
0.0
  9
$USERR3
 40
0.0
  9
$USERR4
 40
0.0
  9
$USERR5
 40
0.0
  9
$WORLDVIEW
 70
     1
  9
$SHADEDGE
 70
     3
  9
$SHADEDIF
 70
    70
  9
$TILEMODE
 70
     1
  9
$MAXACTVP
 70
    64
  9
$PINSBASE
 10
0.0
 20
0.0
 30
0.0
  9
$PLIMCHECK
 70
     0
  9
$PEXTMIN
 10
1.0000000000E+20
 20
1.0000000000E+20
 30
1.0000000000E+20
  9
$PEXTMAX
 10
-1.0000000000E+20
 20
-1.0000000000E+20
 30
-1.0000000000E+20
  9
$PLIMMIN
 10
0.0
 20
0.0
  9
$PLIMMAX
 10
420.0
 20
297.0
  9
$UNITMODE
 70
     0
  9
$VISRETAIN
 70
     1
  9
$PLINEGEN
 70
     0
  9
$PSLTSCALE
 70
     1
  9
$TREEDEPTH
 70
  3020
  9
$CMLSTYLE
  2
Standard
  9
$CMLJUST
 70
     0
  9
$CMLSCALE
 40
20.0
  9
$PROXYGRAPHICS
 70
     1
  9
$MEASUREMENT
 70
     1
  9
$CELWEIGHT
370
    -1
  9
$ENDCAPS
280
     0
  9
$JOINSTYLE
280
     0
  9
$LWDISPLAY
290
     1
  9
$INSUNITS
 70
     4
  9
$HYPERLINKBASE
  1

  9
$STYLESHEET
  1

  9
$XEDIT
290
     1
  9
$CEPSNTYPE
380
     0
  9
$PSTYLEMODE
290
     1
  9
$FINGERPRINTGUID
  2
{513ef1b7-7449-4a6b-85d2-2fa2ceac1303}
  9
$VERSIONGUID
  2
{FAEB1C32-E019-11D5-929B-00C0DF256EC4}
  9
$EXTNAMES
290
     1
  9
$PSVPSCALE
 40
0.0
  9
$OLESTARTUP
290
     0
  9
$SORTENTS
280
   127
  9
$INDEXCTL
280
     0
  9
$HIDETEXT
280
     1
  9
$XCLIPFRAME
280
     2
  9
$HALOGAP
280
     0
  9
$OBSCOLOR
 70
   257
  9
$OBSLTYPE
280
     0
  9
$INTERSECTIONDISPLAY
280
     0
  9
$INTERSECTIONCOLOR
 70
   257
  9
$DIMASSOC
280
     2
  9
$PROJECTNAME
  1

  9
$CAMERADISPLAY
290
     0
  9
$LENSLENGTH
 40
50.0
  9
$CAMERAHEIGHT
 40
0.0
  9
$STEPSPERSEC
 40
2.0
  9
$STEPSIZE
 40
6.0
  9
$3DDWFPREC
 40
2.0
  9
$PSOLWIDTH
 40
5.0
  9
$PSOLHEIGHT
 40
80.0
  9
$LOFTANG1
 40
1.5707963268
  9
$LOFTANG2
 40
1.5707963268
  9
$LOFTMAG1
 40
0.0
  9
$LOFTMAG2
 40
0.0
  9
$LOFTPARAM
 70
     7
  9
$LOFTNORMALS
280
     1
  9
$LATITUDE
 40
37.795
  9
$LONGITUDE
 40
-122.394
  9
$NORTHDIRECTION
 40
0.0
  9
$TIMEZONE
 70
 -8000
  9
$LIGHTGLYPHDISPLAY
280
     1
  9
$TILEMODELIGHTSYNCH
280
     1
  9
$CMATERIAL
347
44
  9
$SOLIDHIST
280
     0
  9
$SHOWHIST
280
     1
  9
$DWFFRAME
280
     2
  9
$DGNFRAME
280
     2
  9
$REALWORLDSCALE
290
     1
  9
$INTERFERECOLOR
 62
   256
  9
$CSHADOW
280
     0
  9
$SHADOWPLANELOCATION
 40
0.0
  0
ENDSEC
  0
SECTION
  2
CLASSES
  0
CLASS
  1
ACDBDICTIONARYWDFLT
  2
AcDbDictionaryWithDefault
  3
ObjectDBX Classes
 90
        0
 91
        3
280
     0
281
     0
  0
CLASS
  1
VISUALSTYLE
  2
AcDbVisualStyle
  3
ObjectDBX Classes
 90
     4095
 91
        3
280
     0
281
     0
  0
CLASS
  1
MATERIAL
  2
AcDbMaterial
  3
ObjectDBX Classes
 90
     1153
 91
        3
280
     0
281
     0
  0
CLASS
  1
SCALE
  2
AcDbScale
  3
ObjectDBX Classes
 90
     1153
 91
        3
280
     0
281
     0
  0
CLASS
  1
TABLESTYLE
  2
AcDbTableStyle
  3
ObjectDBX Classes
 90
     4095
 91
        3
280
     0
281
     0
  0
CLASS
  1
MLEADERSTYLE
  2
AcDbMLeaderStyle
  3
ACDB_MLEADERSTYLE_CLASS
 90
     4095
 91
        3
280
     0
281
     0
  0
CLASS
  1
SUN
  2
AcDbSun
  3
SCENEOE
 90
     1153
 91
        3
280
     0
281
     0
  0
CLASS
  1
DICTIONARYVAR
  2
AcDbDictionaryVar
  3
ObjectDBX Classes
 90
        0
 91
        3
280
     0
281
     0
  0
CLASS
  1
CELLSTYLEMAP
  2
AcDbCellStyleMap
  3
ObjectDBX Classes
 90
     1152
 91
        3
280
     0
281
     0
  0
ENDSEC
  0
SECTION
  2
TABLES
  0
TABLE
  2
VPORT
  5
8
330
0
100
AcDbSymbolTable
 70
     1
  0
VPORT
  5
29
330
8
100
AcDbSymbolTableRecord
100
AcDbViewportTableRecord
  2
*Active
 70
     0
 10
0.0
 20
0.0
 11
1.0
 21
1.0
 12
105.0
 22
148.5
 13
0.0
 23
0.0
 14
10.0
 24
10.0
 15
10.0
 25
10.0
 16
0.0
 26
0.0
 36
1.0
 17
0.0
 27
0.0
 37
0.0
 40
297.0
 41
0.7070707071
 42
50.0
 43
0.0
 44
0.0
 50
0.0
 51
0.0
 71
     0
 72
  2000
 73
     1
 74
     3
 75
     0
 76
     0
 77
     0
 78
     0
281
     0
 65
     1
110
0.0
120
0.0
130
0.0
111
1.0
121
0.0
131
0.0
112
0.0
122
1.0
132
0.0
 79
     0
146
0.0
348
2F
 60
     3
 61
     5
292
     1
282
     1
141
0.0
142
0.0
 63
   250
361
6D
  0
ENDTAB
  0
TABLE
  2
LTYPE
  5
5
330
0
100
AcDbSymbolTable
 70
     6
  0
LTYPE
  5
14
330
5
100
AcDbSymbolTableRecord
100
AcDbLinetypeTableRecord
  2
ByBlock
 70
     0
  3

 72
    65
 73
     0
 40
0.0
  0
LTYPE
  5
15
330
5
100
AcDbSymbolTableRecord
100
AcDbLinetypeTableRecord
  2
ByLayer
 70
     0
  3

 72
    65
 73
     0
 40
0.0
  0
LTYPE
  5
16
330
5
100
AcDbSymbolTableRecord
100
AcDbLinetypeTableRecord
  2
Continuous
 70
     0
  3
Solid line
 72
    65
 73
     0
 40
0.0
  0
LTYPE
  5
6E
330
5
100
AcDbSymbolTableRecord
100
AcDbLinetypeTableRecord
  2
HIDDEN
 70
     0
  3
Hidden __ __ __ __ __ __ __ __ __ __ __ __ __ __
 72
    65
 73
     2
 40
1.905
 49
1.27
 74
     0
 49
-0.635
 74
     0
  0
LTYPE
  5
6F
330
5
100
AcDbSymbolTableRecord
100
AcDbLinetypeTableRecord
  2
PHANTOM
 70
     0
  3
Phantom ______  __  __  ______  __  __  ______
 72
    65
 73
     6
 40
12.7
 49
6.35
 74
     0
 49
-1.27
 74
     0
 49
1.27
 74
     0
 49
-1.27
 74
     0
 49
1.27
 74
     0
 49
-1.27
 74
     0
  0
LTYPE
  5
70
330
5
100
AcDbSymbolTableRecord
100
AcDbLinetypeTableRecord
  2
CENTER
 70
     0
  3
Center ____ _ ____ _ ____ _ ____ _ ____ _ ____
 72
    65
 73
     4
 40
10.16
 49
6.35
 74
     0
 49
-1.27
 74
     0
 49
1.27
 74
     0
 49
-1.27
 74
     0
  0
LTYPE
  5
71
330
5
100
AcDbSymbolTableRecord
100
AcDbLinetypeTableRecord
  2
CENTERX2
 70
     0
  3
Center (2x) ________  __  ________  __  _____
 72
    65
 73
     4
 40
20.32
 49
12.7
 74
     0
 49
-2.54
 74
     0
 49
2.54
 74
     0
 49
-2.54
 74
     0
  0
LTYPE
  5
72
330
5
100
AcDbSymbolTableRecord
100
AcDbLinetypeTableRecord
  2
DOT2
 70
     0
  3
Dot (.5x) ........................................
 72
    65
 73
     2
 40
0.635
 49
0.0
 74
     0
 49
-0.635
 74
     0
  0
ENDTAB
  0
TABLE
  2
LAYER
  5
2
330
0
100
AcDbSymbolTable
 70
     1
  0
LAYER
  5
10
330
2
100
AcDbSymbolTableRecord
100
AcDbLayerTableRecord
  2
0
 70
     0
 62
     7
  6
Continuous
370
    -3
390
F
347
46
  0
ENDTAB
  0
TABLE
  2
STYLE
  5
3
330
0
100
AcDbSymbolTable
 70
     1
  0
STYLE
  5
11
330
3
100
AcDbSymbolTableRecord
100
AcDbTextStyleTableRecord
  2
Standard
 70
     0
 40
0.0
 41
1.0
 50
0.0
 71
     0
 42
2.0
  3
txt
  4

  0
ENDTAB
  0
TABLE
  2
VIEW
  5
6
330
0
100
AcDbSymbolTable
 70
     0
  0
ENDTAB
  0
TABLE
  2
UCS
  5
7
330
0
100
AcDbSymbolTable
 70
     0
  0
ENDTAB
  0
TABLE
  2
APPID
  5
9
330
0
100
AcDbSymbolTable
 70
     1
  0
APPID
  5
12
330
9
100
AcDbSymbolTableRecord
100
AcDbRegAppTableRecord
  2
ACAD
 70
     0
  0
ENDTAB
  0
TABLE
  2
DIMSTYLE
  5
A
330
0
100
AcDbSymbolTable
 70
     1
100
AcDbDimStyleTable
  0
DIMSTYLE
105
27
330
A
100
AcDbSymbolTableRecord
100
AcDbDimStyleTableRecord
  2
ISO-25
 70
     0
 41
2.5
 42
0.625
 43
3.75
 44
1.25
 73
     0
 74
     0
 77
     1
 78
     8
140
2.5
141
2.5
143
0.0393700787
147
0.625
171
     3
172
     1
178
     0
271
     2
272
     2
274
     3
278
    44
283
     0
284
     8
340
11
  0
ENDTAB
  0
TABLE
  2
BLOCK_RECORD
  5
1
330
0
100
AcDbSymbolTable
 70
     1
  0
BLOCK_RECORD
  5
1F
330
1
100
AcDbSymbolTableRecord
100
AcDbBlockTableRecord
  2
*Model_Space
340
22
 70
     0
280
     1
281
     0
  0
BLOCK_RECORD
  5
1B
330
1
100
AcDbSymbolTableRecord
100
AcDbBlockTableRecord
  2
*Paper_Space
340
1E
 70
     0
280
     1
281
     0
  0
BLOCK_RECORD
  5
23
330
1
100
AcDbSymbolTableRecord
100
AcDbBlockTableRecord
  2
*Paper_Space0
340
26
 70
     0
280
     1
281
     0
  0
ENDTAB
  0
ENDSEC
  0
SECTION
  2
BLOCKS
  0
BLOCK
  5
20
330
1F
100
AcDbEntity
  8
0
100
AcDbBlockBegin
  2
*Model_Space
 70
     0
 10
0.0
 20
0.0
 30
0.0
  3
*Model_Space
  1

  0
ENDBLK
  5
21
330
1F
100
AcDbEntity
  8
0
100
AcDbBlockEnd
  0
BLOCK
  5
1C
330
1B
100
AcDbEntity
 67
     1
  8
0
100
AcDbBlockBegin
  2
*Paper_Space
 70
     0
 10
0.0
 20
0.0
 30
0.0
  3
*Paper_Space
  1

  0
ENDBLK
  5
1D
330
1B
100
AcDbEntity
 67
     1
  8
0
100
AcDbBlockEnd
  0
BLOCK
  5
24
330
23
100
AcDbEntity
  8
0
100
AcDbBlockBegin
  2
*Paper_Space0
 70
     0
 10
0.0
 20
0.0
 30
0.0
  3
*Paper_Space0
  1

  0
ENDBLK
  5
25
330
23
100
AcDbEntity
  8
0
100
AcDbBlockEnd
  0
ENDSEC
  0
SECTION
  2
ENTITIES
  0
ARC
  5
73
330
1F
100
AcDbEntity
  8
0
  6
Continuous
 62
     7
100
AcDbCircle
 10
86.4251244752
 20
104.3914223615
 30
0.0
 40
75.00000000000003
100
AcDbArc
 50
180.0
 51
0.0
  0
ARC
  5
74
330
1F
100
AcDbEntity
  8
0
  6
Continuous
 62
     7
100
AcDbCircle
 10
86.4251244752
 20
104.3914223615
 30
0.0
 40
100.0
100
AcDbArc
 50
271.4271804851
 51
0.0
  0
ARC
  5
75
330
1F
100
AcDbEntity
  8
0
  6
Continuous
 62
     7
100
AcDbCircle
 10
86.4251244752
 20
104.3914223615
 30
0.0
 40
100.0
100
AcDbArc
 50
181.0239461415
 51
268.5713702735
  0
LINE
  5
76
330
1F
100
AcDbEntity
  8
0
  6
Continuous
 62
     7
100
AcDbLine
 10
161.4251244752
 20
104.3941050042
 30
0.0
 11
161.4251244752
 21
104.3914223615
 31
0.0
  0
LINE
  5
77
330
1F
100
AcDbEntity
  8
0
  6
Continuous
 62
     7
100
AcDbLine
 10
186.4251244752
 20
104.3914223615
 30
0.0
 11
186.4251244752
 21
104.3941050042
 31
0.0
  0
LINE
  5
78
330
1F
100
AcDbEntity
  8
0
  6
Continuous
 62
     7
100
AcDbLine
 10
-13.5748755248
 20
169.3914223615
 30
0.0
 11
-13.5748755248
 21
156.3199860687
 31
0.0
  0
LINE
  5
79
330
1F
100
AcDbEntity
  8
0
  6
Continuous
 62
     7
100
AcDbLine
 10
11.4251244752
 20
104.3914223615
 30
0.0
 11
11.4251244752
 21
169.3914223615
 31
0.0
  0
LINE
  5
7A
330
1F
100
AcDbEntity
  8
0
  6
Continuous
 62
     7
100
AcDbLine
 10
181.4251244752
 20
134.3914223615
 30
0.0
 11
181.4251244752
 21
134.8914223615
 31
0.0
  0
LINE
  5
7B
330
1F
100
AcDbEntity
  8
0
  6
Continuous
 62
     7
100
AcDbLine
 10
166.4251244752
 20
134.8914223615
 30
0.0
 11
166.4251244752
 21
134.3914223615
 31
0.0
  0
ARC
  5
7C
330
1F
100
AcDbEntity
  8
0
  6
Continuous
 62
     7
100
AcDbCircle
 10
218.0561546971
 20
181.4186659613
 30
0.0
 40
5.999999999999984
100
AcDbArc
 50
300.0
 51
1.3518438956
  0
ARC
  5
7D
330
1F
100
AcDbEntity
  8
0
  6
Continuous
 62
     7
100
AcDbCircle
 10
130.0528147551
 20
181.4186659613
 30
0.0
 40
6.000000000000022
100
AcDbArc
 50
201.995739461
 51
240.0
  0
LINE
  5
7E
330
1F
100
AcDbEntity
  8
0
  6
Continuous
 62
     7
100
AcDbLine
 10
224.0544847261
 20
181.560217589
 30
0.0
 11
221.8300948248
 21
275.8199937901
 31
0.0
  0
LINE
  5
7F
330
1F
100
AcDbEntity
  8
0
  6
Continuous
 62
     7
100
AcDbLine
 10
126.2788746274
 20
275.8199937901
 30
0.0
 11
124.4895445076
 21
199.9961211222
 31
0.0
  0
ARC
  5
80
330
1F
100
AcDbEntity
  8
0
  6
Continuous
 62
     7
100
AcDbCircle
 10
174.0544847261
 20
286.378198077
 30
0.0
 40
47.51322428450262
100
AcDbArc
 50
12.1660761842
 51
167.8339238158
  0
LINE
  5
81
330
1F
100
AcDbEntity
  8
0
  6
Continuous
 62
     7
100
AcDbLine
 10
127.0528147551
 20
176.2225135386
 30
0.0
 11
132.8224339185
 21
172.8914223615
 31
0.0
  0
LINE
  5
82
330
1F
100
AcDbEntity
  8
0
  6
Continuous
 62
     7
100
AcDbLine
 10
215.2865355337
 20
172.8914223615
 30
0.0
 11
221.0561546971
 21
176.2225135386
 31
0.0
  0
LINE
  5
83
330
1F
100
AcDbEntity
  8
0
  6
Continuous
 62
     7
100
AcDbLine
 10
48.5544847261
 20
276.3914223615
 30
0.0
 11
49.3751365327
 21
275.8199937901
 31
0.0
  0
LINE
  5
84
330
1F
100
AcDbEntity
  8
0
  6
Continuous
 62
     7
100
AcDbLine
 10
298.7338329195
 20
275.8199937901
 30
0.0
 11
299.5544847261
 21
276.3914223615
 31
0.0
  0
LINE
  5
85
330
1F
100
AcDbEntity
  8
0
  6
Continuous
 62
     7
100
AcDbLine
 10
299.5544847261
 20
276.3914223615
 30
0.0
 11
298.2146669208
 21
278.3155891909
 31
0.0
  0
LINE
  5
86
330
1F
100
AcDbEntity
  8
0
  6
Continuous
 62
     7
100
AcDbLine
 10
49.8943025314
 20
278.3155891909
 30
0.0
 11
48.5544847261
 21
276.3914223615
 31
0.0
  0
ARC
  5
87
330
1F
100
AcDbEntity
  8
0
  6
Continuous
 62
     7
100
AcDbCircle
 10
295.3423855975
 20
276.3155891909
 30
0.0
 40
3.500000000000006
100
AcDbArc
 50
34.8499045791
 51
71.4647792925
  0
ARC
  5
88
330
1F
100
AcDbEntity
  8
0
  6
Continuous
 62
     7
100
AcDbCircle
 10
52.7665838547
 20
276.3155891909
 30
0.0
 40
3.500000000000005
100
AcDbArc
 50
108.5352207075
 51
145.1500954209
  0
ARC
  5
89
330
1F
100
AcDbEntity
  8
0
  6
Continuous
 62
     7
100
AcDbCircle
 10
184.5309722454
 20
-116.6836422995
 30
0.0
 40
418.0000000000001
100
AcDbArc
 50
98.9113940148
 51
108.5352207075
  0
ARC
  5
8A
330
1F
100
AcDbEntity
  8
0
  6
Continuous
 62
     7
100
AcDbCircle
 10
163.5779972068
 20
-116.6836422995
 30
0.0
 40
418.0000000000001
100
AcDbArc
 50
71.4647792925
 51
81.0886059852
  0
ARC
  5
8B
330
1F
100
AcDbEntity
  8
0
  6
Continuous
 62
     7
100
AcDbCircle
 10
121.3289766398
 20
286.3914223615
 30
0.0
 40
9.999999999999943
100
AcDbArc
 50
90.0
 51
98.9113940148
  0
ARC
  5
8C
330
1F
100
AcDbEntity
  8
0
  6
Continuous
 62
     7
100
AcDbCircle
 10
226.7799928124
 20
286.3914223615
 30
0.0
 40
10.0
100
AcDbArc
 50
81.0886059852
 51
90.0
  0
ARC
  5
8D
330
1F
100
AcDbEntity
  8
0
  6
Continuous
 62
     7
100
AcDbCircle
 10
198.5396649796
 20
174.4182817092
 30
0.0
 40
3.500000000000044
100
AcDbArc
 50
264.0731712206
 51
332.6411014639
  0
LINE
  5
8E
330
1F
100
AcDbEntity
  8
0
  6
Continuous
 62
     7
100
AcDbLine
 10
127.5570233905
 20
170.7675633536
 30
0.0
 11
128.9080381167
 21
169.4165486273
 31
0.0
  0
ARC
  5
8F
330
1F
100
AcDbEntity
  8
0
  6
Continuous
 62
     7
100
AcDbCircle
 10
128.5544847261
 20
169.0629952368
 30
0.0
 40
0.500000000000004
100
AcDbArc
 50
0.0
 51
45.0
  0
LINE
  5
90
330
1F
100
AcDbEntity
  8
0
  6
Continuous
 62
     7
100
AcDbLine
 10
129.0544847261
 20
169.0629952368
 30
0.0
 11
129.0544847261
 21
152.8914223615
 31
0.0
  0
SPLINE
  5
91
330
1F
100
AcDbEntity
  8
0
  6
Continuous
 62
     7
100
AcDbSpline
210
0.0
220
0.0
230
1.0
 70
     8
 71
     3
 72
    14
 73
    10
 74
     0
 42
0.000000001
 43
0.00000001
 40
0.0
 40
0.0
 40
0.0
 40
0.0
 40
0.2273255126031526
 40
0.4283352325944055
 40
0.5820813162584377
 40
0.6854966417899341
 40
0.7785323134935499
 40
0.9019112202430457
 40
1.0
 40
1.0
 40
1.0
 40
1.0
 10
127.0081940185325
 20
170.9239024011227
 30
0.0
 10
127.082128569398
 20
170.9187503331222
 30
0.0
 10
127.2214388152172
 20
170.9090426139136
 30
0.0
 10
127.3984399757347
 20
170.8447865505221
 30
0.0
 10
127.5203252547915
 20
170.7774573629513
 30
0.0
 10
127.5861003584103
 20
170.7307160094649
 30
0.0
 10
127.6202192671221
 20
170.703416923346
 30
0.0
 10
127.6365801593685
 20
170.6889015462088
 30
0.0
 10
127.6347793312435
 20
170.6905507830961
 30
0.0
 10
127.6339817384383
 20
170.6912812356345
 30
0.0
  0
SPLINE
  5
92
330
1F
100
AcDbEntity
  8
0
  6
Continuous
 62
     7
100
AcDbSpline
210
0.0
220
0.0
230
1.0
 70
     8
 71
     3
 72
    10
 73
     6
 74
     0
 42
0.000000001
 43
0.00000001
 40
0.0
 40
0.0
 40
0.0
 40
0.0
 40
0.3410242707490692
 40
0.6998096878814785
 40
1.0
 40
1.0
 40
1.0
 40
1.0
 10
120.0664151087033
 20
177.8040681467827
 30
0.0
 10
120.0949593326757
 20
177.4477224108392
 30
0.0
 10
120.1535344142236
 20
176.7164718235987
 30
0.0
 10
120.5800820159829
 20
175.7345640013375
 30
0.0
 10
121.0318879605207
 20
175.2133357231642
 30
0.0
 10
121.2377039890746
 20
174.9758949911851
 30
0.0
  0
ARC
  5
93
330
1F
100
AcDbEntity
  8
0
  6
Continuous
 62
     7
100
AcDbCircle
 10
126.7444424795
 20
174.4182817092
 30
0.0
 40
3.499999999999996
100
AcDbArc
 50
224.9941206642
 51
273.2045028502
  0
LINE
  5
94
330
1F
100
AcDbEntity
  8
0
  6
Continuous
 62
     7
100
AcDbLine
 10
120.0664151087
 20
275.8199937901
 30
0.0
 11
120.0664151087
 21
177.8040681468
 31
0.0
  0
LINE
  5
95
330
1F
100
AcDbEntity
  8
0
  6
Continuous
 62
     7
100
AcDbLine
 10
121.2377039891
 20
174.9758949912
 30
0.0
 11
124.2693148022
 21
171.9436619442
 31
0.0
  0
LINE
  5
96
330
1F
100
AcDbEntity
  8
0
  6
Continuous
 62
     7
100
AcDbLine
 10
217.6884593223
 20
170.0253969577
 30
0.0
 11
219.0544847261
 21
172.3914223615
 31
0.0
  0
LINE
  5
97
330
1F
100
AcDbEntity
  8
0
  6
Continuous
 62
     7
100
AcDbLine
 10
219.0544847261
 20
172.3914223615
 30
0.0
 11
218.1884593223
 21
172.8914223615
 31
0.0
  0
LINE
  5
98
330
1F
100
AcDbEntity
  8
0
  6
Continuous
 62
     7
100
AcDbLine
 10
129.9205101299
 20
172.8914223615
 30
0.0
 11
129.4134176086
 21
172.5986523578
 31
0.0
  0
ARC
  5
99
330
1F
100
AcDbEntity
  8
0
  6
Continuous
 62
     7
100
AcDbCircle
 10
218.5544847261
 20
169.5253969577
 30
0.0
 40
1.0
100
AcDbArc
 50
150.0
 51
180.0
  0
LINE
  5
9A
330
1F
100
AcDbEntity
  8
0
  6
Continuous
 62
     7
100
AcDbLine
 10
217.5544847261
 20
151.2377930813
 30
0.0
 11
217.5544847261
 21
169.5253969577
 31
0.0
  0
LINE
  5
9B
330
1F
100
AcDbEntity
  8
0
  6
Continuous
 62
     7
100
AcDbLine
 10
130.5544847261
 20
152.8914223615
 30
0.0
 11
130.5544847261
 21
151.2377930813
 31
0.0
  0
ARC
  5
9C
330
1F
100
AcDbEntity
  8
0
  6
Continuous
 62
     7
100
AcDbCircle
 10
215.5544847261
 20
151.2377930813
 30
0.0
 40
2.0
100
AcDbArc
 50
292.731494667
 51
0.0
  0
ARC
  5
9D
330
1F
100
AcDbEntity
  8
0
  6
Continuous
 62
     7
100
AcDbCircle
 10
132.5544847261
 20
151.2377930813
 30
0.0
 40
2.000000000000016
100
AcDbArc
 50
180.0
 51
247.268505333
  0
ARC
  5
9E
330
1F
100
AcDbEntity
  8
0
  6
Continuous
 62
     7
100
AcDbCircle
 10
239.512096302
 20
94.0535920501
 30
0.0
 40
59.99999999999999
100
AcDbArc
 50
112.731494667
 51
133.4389351757
  0
ARC
  5
9F
330
1F
100
AcDbEntity
  8
0
  6
Continuous
 62
     7
100
AcDbCircle
 10
108.5968731502
 20
94.0535920501
 30
0.0
 40
59.99999999999999
100
AcDbArc
 50
46.5586971097
 51
67.268505333
  0
ARC
  5
A0
330
1F
100
AcDbEntity
  8
0
  6
Continuous
 62
     7
100
AcDbCircle
 10
9.4251244752
 20
171.8914223615
 30
0.0
 40
2.000000000000002
100
AcDbArc
 50
0.0
 51
90.0
  0
ARC
  5
A1
330
1F
100
AcDbEntity
  8
0
  6
Continuous
 62
     7
100
AcDbCircle
 10
-11.5748755248
 20
171.8914223615
 30
0.0
 40
2.000000000000002
100
AcDbArc
 50
90.0
 51
180.0
  0
LINE
  5
A2
330
1F
100
AcDbEntity
  8
0
  6
Continuous
 62
     7
100
AcDbLine
 10
11.4251244752
 20
169.3914223615
 30
0.0
 11
11.4251244752
 21
171.8914223615
 31
0.0
  0
LINE
  5
A3
330
1F
100
AcDbEntity
  8
0
  6
Continuous
 62
     7
100
AcDbLine
 10
-13.5748755248
 20
171.8914223615
 30
0.0
 11
-13.5748755248
 21
169.3914223615
 31
0.0
  0
LINE
  5
A4
330
1F
100
AcDbEntity
  8
0
  6
Continuous
 62
     7
100
AcDbLine
 10
-40.0748755248
 20
179.8914223615
 30
0.0
 11
-40.1795102354
 21
178.3950762861
 31
0.0
  0
LINE
  5
A5
330
1F
100
AcDbEntity
  8
0
  6
Continuous
 62
     7
100
AcDbLine
 10
-40.1795102354
 20
80.3877684369
 30
0.0
 11
-40.0748755248
 21
78.8914223615
 31
0.0
  0
LINE
  5
A6
330
1F
100
AcDbEntity
  8
0
  6
Continuous
 62
     7
100
AcDbLine
 10
-40.0748755248
 20
78.8914223615
 30
0.0
 11
-23.7260931561
 21
80.0346405917
 31
0.0
  0
LINE
  5
A7
330
1F
100
AcDbEntity
  8
0
  6
Continuous
 62
     7
100
AcDbLine
 10
-23.7260931561
 20
178.7482041313
 30
0.0
 11
-40.0748755248
 21
179.8914223615
 31
0.0
  0
ARC
  5
A8
330
1F
100
AcDbEntity
  8
0
  6
Continuous
 62
     7
100
AcDbCircle
 10
-24.0748755248
 20
173.76038388
 30
0.0
 40
5.000000000000005
100
AcDbArc
 50
0.0
 51
86.0
  0
ARC
  5
A9
330
1F
100
AcDbEntity
  8
0
  6
Continuous
 62
     7
100
AcDbCircle
 10
-24.0748755248
 20
85.022460843
 30
0.0
 40
5.000000000000004
100
AcDbArc
 50
274.0
 51
0.0
  0
ARC
  5
AA
330
1F
100
AcDbEntity
  8
0
  6
Continuous
 62
     7
100
AcDbCircle
 10
-15.5748755248
 20
161.5545413221
 30
0.0
 40
3.500000000000012
100
AcDbArc
 50
180.0
 51
243.4349488229
  0
ARC
  5
AB
330
1F
100
AcDbEntity
  8
0
  6
Continuous
 62
     7
100
AcDbCircle
 10
-15.5748755248
 20
97.2283034009
 30
0.0
 40
3.499999999999989
100
AcDbArc
 50
116.5650511771
 51
180.0
  0
LINE
  5
AC
330
1F
100
AcDbEntity
  8
0
  6
Continuous
 62
     7
100
AcDbLine
 10
-17.140123109
 20
100.3587985694
 30
0.0
 11
-14.124397411
 21
101.8666614184
 31
0.0
  0
LINE
  5
AD
330
1F
100
AcDbEntity
  8
0
  6
Continuous
 62
     7
100
AcDbLine
 10
-14.124397411
 20
156.9161833046
 30
0.0
 11
-17.140123109
 21
158.4240461536
 31
0.0
  0
ARC
  5
AE
330
1F
100
AcDbEntity
  8
0
  6
Continuous
 62
     7
100
AcDbCircle
 10
190.7251244752
 20
124.0914223615
 30
0.0
 40
1.200000000000017
100
AcDbArc
 50
270.0
 51
0.0
  0
ARC
  5
AF
330
1F
100
AcDbEntity
  8
0
  6
Continuous
 62
     7
100
AcDbCircle
 10
157.1251244752
 20
124.0914223615
 30
0.0
 40
1.200000000000003
100
AcDbArc
 50
180.0
 51
270.0
  0
LINE
  5
B0
330
1F
100
AcDbEntity
  8
0
  6
Continuous
 62
     7
100
AcDbLine
 10
191.9251244752
 20
124.0914223615
 30
0.0
 11
191.9251244752
 21
134.3914223615
 31
0.0
  0
LINE
  5
B1
330
1F
100
AcDbEntity
  8
0
  6
Continuous
 62
     7
100
AcDbLine
 10
155.9251244752
 20
134.3914223615
 30
0.0
 11
155.9251244752
 21
124.0914223615
 31
0.0
  0
LINE
  5
B2
330
1F
100
AcDbEntity
  8
0
  6
Continuous
 62
     7
100
AcDbLine
 10
190.6751244752
 20
112.8914223615
 30
0.0
 11
190.6751244752
 21
122.8914223615
 31
0.0
  0
LINE
  5
B3
330
1F
100
AcDbEntity
  8
0
  6
Continuous
 62
     7
100
AcDbLine
 10
157.1751244752
 20
122.8914223615
 30
0.0
 11
157.1751244752
 21
118.8751698163
 31
0.0
  0
ARC
  5
B4
330
1F
100
AcDbEntity
  8
0
  6
Continuous
 62
     7
100
AcDbCircle
 10
189.1751244752
 20
112.8914223615
 30
0.0
 40
1.5
100
AcDbArc
 50
270.0
 51
0.0
  0
ARC
  5
B5
330
1F
100
AcDbEntity
  8
0
  6
Continuous
 62
     7
100
AcDbCircle
 10
186.9251244752
 20
106.3914223615
 30
0.0
 40
2.0
100
AcDbArc
 50
273.1728936516
 51
0.0
  0
ARC
  5
B6
330
1F
100
AcDbEntity
  8
0
  6
Continuous
 62
     7
100
AcDbCircle
 10
160.9251244752
 20
106.3914223615
 30
0.0
 40
2.0
100
AcDbArc
 50
180.0
 51
266.8271063484
  0
LINE
  5
B7
330
1F
100
AcDbEntity
  8
0
  6
Continuous
 62
     7
100
AcDbLine
 10
188.9251244752
 20
106.3914223615
 30
0.0
 11
188.9251244752
 21
111.3914223615
 31
0.0
  0
LINE
  5
B8
330
1F
100
AcDbEntity
  8
0
  6
Continuous
 62
     7
100
AcDbLine
 10
158.9251244752
 20
109.8919592753
 30
0.0
 11
158.9251244752
 21
106.3914223615
 31
0.0
  0
ARC
  5
B9
330
1F
100
AcDbEntity
  8
0
  6
Continuous
 62
     7
100
AcDbCircle
 10
187.0219854727
 20
104.6441050042
 30
0.0
 40
0.2500000000000142
100
AcDbArc
 50
270.0
 51
273.1728936516
  0
ARC
  5
BA
330
1F
100
AcDbEntity
  8
0
  6
Continuous
 62
     7
100
AcDbCircle
 10
160.8282634778
 20
104.6441050042
 30
0.0
 40
0.2500000000000142
100
AcDbArc
 50
266.8271063484
 51
270.0
  0
LINE
  5
BB
330
1F
100
AcDbEntity
  8
0
  6
Continuous
 62
     7
100
AcDbLine
 10
160.8282634778
 20
104.3941050042
 30
0.0
 11
187.0219854727
 21
104.3941050042
 31
0.0
  0
LINE
  5
BC
330
1F
100
AcDbEntity
  8
0
  6
Continuous
 62
     7
100
AcDbLine
 10
-10.6710279475
 20
133.9875747842
 30
0.0
 11
-12.0748755248
 21
133.9875747842
 31
0.0
  0
LINE
  5
BD
330
1F
100
AcDbEntity
  8
0
  6
Continuous
 62
     7
100
AcDbLine
 10
-12.0748755248
 20
124.7952699388
 30
0.0
 11
-10.6710279475
 21
124.7952699388
 31
0.0
  0
ARC
  5
BE
330
1F
100
AcDbEntity
  8
0
  6
Continuous
 62
     7
100
AcDbCircle
 10
-10.6710279475
 20
129.3914223615
 30
0.0
 40
4.596152422706638
100
AcDbArc
 50
270.0
 51
90.0
  0
ARC
  5
BF
330
1F
100
AcDbEntity
  8
0
  6
Continuous
 62
     7
100
AcDbCircle
 10
-17.7936255248
 20
132.6414223615
 30
0.0
 40
1.281250000000028
100
AcDbArc
 50
102.6803834918
 51
180.0
  0
ARC
  5
C0
330
1F
100
AcDbEntity
  8
0
  6
Continuous
 62
     7
100
AcDbCircle
 10
-17.7936255248
 20
126.1414223615
 30
0.0
 40
1.28125
100
AcDbArc
 50
180.0
 51
257.3196165082
  0
SPLINE
  5
C1
330
1F
100
AcDbEntity
  8
0
  6
Continuous
 62
     7
100
AcDbSpline
210
0.0
220
0.0
230
1.0
 70
     8
 71
     3
 72
    27
 73
    23
 74
     0
 42
0.000000001
 43
0.00000001
 40
0.0
 40
0.0
 40
0.0
 40
0.0
 40
0.0124306342489342
 40
0.0663804797497922
 40
0.1184479543155701
 40
0.1719990128413963
 40
0.2245631083622336
 40
0.2786164936257751
 40
0.331775379718678
 40
0.3864867335799201
 40
0.439408831585513
 40
0.4939087652053878
 40
0.546103396079331
 40
0.5998185852584503
 40
0.6519425886761078
 40
0.7055402515204889
 40
0.7583509788940723
 40
0.8126692927985729
 40
0.865857690010446
 40
0.9206162380383458
 40
0.9732957179814641
 40
1.0
 40
1.0
 40
1.0
 40
1.0
 10
83.9312750739166
 20
4.42375067754322
 30
0.0
 10
83.92938927465782
 20
4.423421592472304
 30
0.0
 10
83.91931897116383
 20
4.421664254556312
 30
0.0
 10
83.97024055582241
 20
4.430590527062211
 30
0.0
 10
84.08589897850467
 20
4.450194264709912
 30
0.0
 10
84.27013899023503
 20
4.479591685749074
 30
0.0
 10
84.51485170610194
 20
4.514999243195455
 30
0.0
 10
84.81257244412745
 20
4.552508657829579
 30
0.0
 10
85.16000929793944
 20
4.588399679292032
 30
0.0
 10
85.54159555749865
 20
4.61793326727078
 30
0.0
 10
85.95202990248565
 20
4.638030666853643
 30
0.0
 10
86.370069254354
 20
4.645990745383354
 30
0.0
 10
86.79150673676268
 20
4.641214023594631
 30
0.0
 10
87.19647398312387
 20
4.624561845112924
 30
0.0
 10
87.58292553643223
 20
4.597696250692923
 30
0.0
 10
87.93503731979897
 20
4.563969528414508
 30
0.0
 10
88.24952389823339
 20
4.526464513171513
 30
0.0
 10
88.5118834462106
 20
4.489890333888441
 30
0.0
 10
88.71901794611819
 20
4.457658225327482
 30
0.0
 10
88.85526666899813
 20
4.434865721871962
 30
0.0
 10
88.92321737944269
 20
4.423012775344098
 30
0.0
 10
88.91782966681629
 20
4.423952581383533
 30
0.0
 10
88.91601726848877
 20
4.42426872721613
 30
0.0
  0
LINE
  5
C2
330
1F
100
AcDbEntity
  8
0
  6
Continuous
 62
     7
100
AcDbLine
 10
-1.0748755248
 20
169.3914223615
 30
0.0
 11
11.4251244752
 21
169.3914223615
 31
0.0
  0
LINE
  5
C3
330
1F
100
AcDbEntity
  8
0
  6
Continuous
 62
     7
100
AcDbLine
 10
-13.5748755248
 20
169.3914223615
 30
0.0
 11
-1.0748755248
 21
169.3914223615
 31
0.0
  0
LINE
  5
C4
330
1F
100
AcDbEntity
  8
0
  6
Continuous
 62
     7
100
AcDbLine
 10
67.3640120716
 20
275.8199937901
 30
0.0
 11
49.3751365327
 21
275.8199937901
 31
0.0
  0
LINE
  5
C5
330
1F
100
AcDbEntity
  8
0
  6
Continuous
 62
     7
100
AcDbLine
 10
298.7338329195
 20
275.8199937901
 30
0.0
 11
67.3640120716
 21
275.8199937901
 31
0.0
  0
LINE
  5
C6
330
1F
100
AcDbEntity
  8
0
  6
Continuous
 62
     7
100
AcDbLine
 10
66.6617648237
 20
276.3914223615
 30
0.0
 11
48.5544847261
 21
276.3914223615
 31
0.0
  0
LINE
  5
C7
330
1F
100
AcDbEntity
  8
0
  6
Continuous
 62
     7
100
AcDbLine
 10
299.5544847261
 20
276.3914223615
 30
0.0
 11
66.6617648237
 21
276.3914223615
 31
0.0
  0
LINE
  5
C8
330
1F
100
AcDbEntity
  8
0
  6
Continuous
 62
     7
100
AcDbLine
 10
121.3289766398
 20
296.3914223615
 30
0.0
 11
226.7799928124
 21
296.3914223615
 31
0.0
  0
LINE
  5
C9
330
1F
100
AcDbEntity
  8
0
  6
Continuous
 62
     7
100
AcDbLine
 10
186.4187134454
 20
152.8914223615
 30
0.0
 11
186.4187134454
 21
169.0629952368
 31
0.0
  0
SPLINE
  5
CA
330
1F
100
AcDbEntity
  8
0
  6
Continuous
 62
     7
100
AcDbSpline
210
0.0
220
0.0
230
1.0
 70
     8
 71
     3
 72
    10
 73
     6
 74
     0
 42
0.000000001
 43
0.00000001
 40
0.0
 40
0.0
 40
0.0
 40
0.0
 40
0.2450596974510943
 40
0.6664586318036956
 40
0.9999999999999999
 40
0.9999999999999999
 40
0.9999999999999999
 40
0.9999999999999999
 10
186.4187134453714
 20
169.0629952367515
 30
0.0
 10
186.42280439202
 20
169.1915574149457
 30
0.0
 10
186.4339300350146
 20
169.5411921132342
 30
0.0
 10
186.5353180595112
 20
170.047551583335
 30
0.0
 10
186.6716364613008
 20
170.3455497556502
 30
0.0
 10
186.7318635098366
 20
170.4772087991248
 30
0.0
  0
SPLINE
  5
CB
330
1F
100
AcDbEntity
  8
0
  6
Continuous
 62
     7
100
AcDbSpline
210
0.0
220
0.0
230
1.0
 70
     8
 71
     3
 72
     9
 73
     5
 74
     0
 42
0.000000001
 43
0.00000001
 40
0.0
 40
0.0
 40
0.0
 40
0.0
 40
0.9536084747597289
 40
0.9999999999999999
 40
0.9999999999999999
 40
0.9999999999999999
 40
0.9999999999999999
 10
186.7318635098366
 20
170.4772087991248
 30
0.0
 10
187.8524715127874
 20
172.5793044635062
 30
0.0
 10
189.0275953006011
 20
174.7836637157781
 30
0.0
 10
190.1995035233193
 20
176.99440185157
 30
0.0
 10
190.2538701332128
 20
177.0969613655962
 30
0.0
  0
SPLINE
  5
CC
330
1F
100
AcDbEntity
  8
0
  6
Continuous
 62
     7
100
AcDbSpline
210
0.0
220
0.0
230
1.0
 70
     8
 71
     3
 72
    11
 73
     7
 74
     0
 42
0.000000001
 43
0.00000001
 40
0.0
 40
0.0
 40
0.0
 40
0.0
 40
0.2659555069155066
 40
0.5437356058246475
 40
0.9615521725941603
 40
1.0
 40
1.0
 40
1.0
 40
1.0
 10
190.2538701332128
 20
177.0969613655962
 30
0.0
 10
190.2782178525341
 20
177.1487860534548
 30
0.0
 10
190.3279958100173
 20
177.2547395957458
 30
0.0
 10
190.387479143499
 20
177.4819869759058
 30
0.0
 10
190.4084394649641
 20
177.6743854867769
 30
0.0
 10
190.4090490192647
 20
177.7939895267044
 30
0.0
 10
190.409100384304
 20
177.8040681467827
 30
0.0
  0
LINE
  5
CD
330
1F
100
AcDbEntity
  8
0
  6
Continuous
 62
     7
100
AcDbLine
 10
190.4091003843
 20
177.8040681468
 30
0.0
 11
190.4091003843
 21
275.8199937901
 31
0.0
  0
LINE
  5
CE
330
1F
100
AcDbEntity
  8
0
  6
Continuous
 62
     7
100
AcDbLine
 10
191.2034188629
 20
177.8040681468
 30
0.0
 11
191.2034188629
 21
275.8199937901
 31
0.0
  0
SPLINE
  5
CF
330
1F
100
AcDbEntity
  8
0
  6
Continuous
 62
     7
100
AcDbSpline
210
0.0
220
0.0
230
1.0
 70
     8
 71
     3
 72
    11
 73
     7
 74
     0
 42
0.000000001
 43
0.00000001
 40
0.0
 40
0.0
 40
0.0
 40
0.0
 40
0.09401568082413
 40
0.5290447106683333
 40
0.7966319509245103
 40
1.0
 40
1.0
 40
1.0
 40
1.0
 10
190.815804139819
 20
176.0363011938162
 30
0.0
 10
190.8380977725521
 20
176.0803544563149
 30
0.0
 10
190.9635484247802
 20
176.3282508211371
 30
0.0
 10
191.1062811428579
 20
176.7862449187041
 30
0.0
 10
191.1923518001618
 20
177.3615796635605
 30
0.0
 10
191.2000811659369
 20
177.6706187843688
 30
0.0
 10
191.2034188628985
 20
177.8040681467827
 30
0.0
  0
SPLINE
  5
D0
330
1F
100
AcDbEntity
  8
0
  6
Continuous
 62
     7
100
AcDbSpline
210
0.0
220
0.0
230
1.0
 70
     8
 71
     3
 72
     9
 73
     5
 74
     0
 42
0.000000001
 43
0.00000001
 40
0.0
 40
0.0
 40
0.0
 40
0.0
 40
0.9512925882262907
 40
1.0
 40
1.0
 40
1.0
 40
1.0
 10
187.2981769666751
 20
169.4165486273448
 30
0.0
 10
188.4146074357082
 20
171.5136751164554
 30
0.0
 10
189.58820058975
 20
173.7181771961162
 30
0.0
 10
190.7587878634612
 20
175.9286354914183
 30
0.0
 10
190.8158041398189
 20
176.0363011938162
 30
0.0
  0
SPLINE
  5
D1
330
1F
100
AcDbEntity
  8
0
  6
Continuous
 62
     7
100
AcDbSpline
210
0.0
220
0.0
230
1.0
 70
     8
 71
     3
 72
    11
 73
     7
 74
     0
 42
0.000000001
 43
0.00000001
 40
0.0
 40
0.0
 40
0.0
 40
0.0
 40
0.1144794128049861
 40
0.5288366908976375
 40
0.9451970143052953
 40
0.9999999999999999
 40
0.9999999999999999
 40
0.9999999999999999
 40
0.9999999999999999
 10
187.2200367796506
 20
169.0629952367516
 30
0.0
 10
187.2202607218335
 20
169.0780077925994
 30
0.0
 10
187.2212952208766
 20
169.147358168898
 30
0.0
 10
187.2387993896982
 20
169.2694687003956
 30
0.0
 10
187.2728956221517
 20
169.3678657131802
 30
0.0
 10
187.2955427804621
 20
169.4114761178039
 30
0.0
 10
187.2981769666751
 20
169.4165486273448
 30
0.0
  0
LINE
  5
D2
330
1F
100
AcDbEntity
  8
0
  6
Continuous
 62
     7
100
AcDbLine
 10
187.2200367797
 20
152.8914223615
 30
0.0
 11
187.2200367797
 21
169.0629952368
 31
0.0
  0
LINE
  5
D3
330
1F
100
AcDbEntity
  8
0
  6
Continuous
 62
     7
100
AcDbLine
 10
187.2200367797
 20
152.8914223615
 30
0.0
 11
186.4187134454
 21
152.8914223615
 31
0.0
  0
SPLINE
  5
D4
330
1F
100
AcDbEntity
  8
0
  6
Continuous
 62
     7
100
AcDbSpline
210
0.0
220
0.0
230
1.0
 70
     8
 71
     3
 72
     9
 73
     5
 74
     0
 42
0.000000001
 43
0.00000001
 40
0.0
 40
0.0
 40
0.0
 40
0.0
 40
0.9512925882262975
 40
1.0
 40
1.0
 40
1.0
 40
1.0
 10
206.1239924077315
 20
169.4165486273448
 30
0.0
 10
207.240422876764
 20
171.5136751164554
 30
0.0
 10
208.4140160308052
 20
173.7181771961161
 30
0.0
 10
209.5846033045176
 20
175.9286354914182
 30
0.0
 10
209.6416195808753
 20
176.0363011938161
 30
0.0
  0
LINE
  5
D5
330
1F
100
AcDbEntity
  8
0
  6
Continuous
 62
     7
100
AcDbLine
 10
203.189300648
 20
175.7881794222
 30
0.0
 11
203.2184575356
 21
175.844529899
 31
0.0
  0
LINE
  5
D6
330
1F
100
AcDbEntity
  8
0
  6
Continuous
 62
     7
100
AcDbLine
 10
201.6506203082
 20
172.8145649428
 30
0.0
 11
203.189300648
 21
175.7881794222
 31
0.0
  0
SPLINE
  5
D7
330
1F
100
AcDbEntity
  8
0
  6
Continuous
 62
     7
100
AcDbSpline
210
0.0
220
0.0
230
1.0
 70
     8
 71
     3
 72
    11
 73
     7
 74
     0
 42
0.000000001
 43
0.00000001
 40
0.0
 40
0.0
 40
0.0
 40
0.0
 40
0.114479412804991
 40
0.5288366908978475
 40
0.9451970143055165
 40
1.0
 40
1.0
 40
1.0
 40
1.0
 10
206.0458522207072
 20
169.0629952367516
 30
0.0
 10
206.04607616289
 20
169.0780077925994
 30
0.0
 10
206.0471106619325
 20
169.147358168898
 30
0.0
 10
206.0646148307551
 20
169.2694687003956
 30
0.0
 10
206.0987110632079
 20
169.36786571318
 30
0.0
 10
206.1213582215185
 20
169.4114761178039
 30
0.0
 10
206.1239924077315
 20
169.4165486273448
 30
0.0
  0
LINE
  5
D8
330
1F
100
AcDbEntity
  8
0
  6
Continuous
 62
     7
100
AcDbLine
 10
206.0458522207
 20
152.8914223615
 30
0.0
 11
187.2200367797
 21
152.8914223615
 31
0.0
  0
LINE
  5
D9
330
1F
100
AcDbEntity
  8
0
  6
Continuous
 62
     7
100
AcDbLine
 10
206.0458522207
 20
152.8914223615
 30
0.0
 11
206.0458522207
 21
169.0629952368
 31
0.0
  0
SPLINE
  5
DA
330
1F
100
AcDbEntity
  8
0
  6
Continuous
 62
     7
100
AcDbSpline
210
0.0
220
0.0
230
1.0
 70
     8
 71
     3
 72
    11
 73
     7
 74
     0
 42
0.000000001
 43
0.00000001
 40
0.0
 40
0.0
 40
0.0
 40
0.0
 40
0.0940156808241384
 40
0.5290447106683468
 40
0.7966319509245147
 40
1.0
 40
1.0
 40
1.0
 40
1.0
 10
209.6416195808753
 20
176.0363011938161
 30
0.0
 10
209.6639132136085
 20
176.0803544563147
 30
0.0
 10
209.7893638658365
 20
176.3282508211369
 30
0.0
 10
209.9320965839139
 20
176.7862449187039
 30
0.0
 10
210.0181672412184
 20
177.3615796635604
 30
0.0
 10
210.0258966069935
 20
177.6706187843687
 30
0.0
 10
210.0292343039551
 20
177.8040681467826
 30
0.0
  0
LINE
  5
DB
330
1F
100
AcDbEntity
  8
0
  6
Continuous
 62
     7
100
AcDbLine
 10
210.029234304
 20
177.8040681468
 30
0.0
 11
210.029234304
 21
275.8199937901
 31
0.0
  0
LINE
  5
DC
330
1F
100
AcDbEntity
  8
0
  6
Continuous
 62
     7
100
AcDbLine
 10
130.6514241549
 20
152.8914223615
 30
0.0
 11
130.6514241549
 21
169.0629952368
 31
0.0
  0
SPLINE
  5
DD
330
1F
100
AcDbEntity
  8
0
  6
Continuous
 62
     7
100
AcDbSpline
210
0.0
220
0.0
230
1.0
 70
     8
 71
     3
 72
    11
 73
     7
 74
     0
 42
0.000000001
 43
0.00000001
 40
0.0
 40
0.0
 40
0.0
 40
0.0
 40
0.1144794128049876
 40
0.5288366908978268
 40
0.9451970143054965
 40
1.0
 40
1.0
 40
1.0
 40
1.0
 10
130.6514241548694
 20
169.0629952367516
 30
0.0
 10
130.6509914558236
 20
169.0780077925994
 30
0.0
 10
130.6489926061969
 20
169.1473581688981
 30
0.0
 10
130.6151712106461
 20
169.2694687003956
 30
0.0
 10
130.5492907808891
 20
169.3678657131801
 30
0.0
 10
130.5055321478972
 20
169.4114761178039
 30
0.0
 10
130.5004423972916
 20
169.4165486273448
 30
0.0
  0
SPLINE
  5
DE
330
1F
100
AcDbEntity
  8
0
  6
Continuous
 62
     7
100
AcDbSpline
210
0.0
220
0.0
230
1.0
 70
     8
 71
     3
 72
     9
 73
     5
 74
     0
 42
0.000000001
 43
0.00000001
 40
0.0
 40
0.0
 40
0.0
 40
0.0
 40
0.9512925882262973
 40
1.0
 40
1.0
 40
1.0
 40
1.0
 10
130.5004423972915
 20
169.4165486273448
 30
0.0
 10
128.3432856147587
 20
171.5136751164555
 30
0.0
 10
126.0756796129556
 20
173.7181771961162
 30
0.0
 10
123.8138815457469
 20
175.9286354914182
 30
0.0
 10
123.7037152159384
 20
176.0363011938161
 30
0.0
  0
SPLINE
  5
DF
330
1F
100
AcDbEntity
  8
0
  6
Continuous
 62
     7
100
AcDbSpline
210
0.0
220
0.0
230
1.0
 70
     8
 71
     3
 72
    11
 73
     7
 74
     0
 42
0.000000001
 43
0.00000001
 40
0.0
 40
0.0
 40
0.0
 40
0.0
 40
0.0940156808241369
 40
0.5290447106683489
 40
0.796631950924515
 40
1.0
 40
1.0
 40
1.0
 40
1.0
 10
123.7037152159384
 20
176.0363011938161
 30
0.0
 10
123.6606396618474
 20
176.0803544563148
 30
0.0
 10
123.4182450543609
 20
176.328250821137
 30
0.0
 10
123.1424581966655
 20
176.786244918704
 30
0.0
 10
122.9761532566531
 20
177.3615796635604
 30
0.0
 10
122.9612186465103
 20
177.6706187843687
 30
0.0
 10
122.9547695788446
 20
177.8040681467826
 30
0.0
  0
LINE
  5
E0
330
1F
100
AcDbEntity
  8
0
  6
Continuous
 62
     7
100
AcDbLine
 10
122.9547695788
 20
177.8040681468
 30
0.0
 11
122.9547695788
 21
275.8199937901
 31
0.0
  0
LINE
  5
E1
330
1F
100
AcDbEntity
  8
0
  6
Continuous
 62
     7
100
AcDbLine
 10
124.4895445076
 20
177.8040681468
 30
0.0
 11
124.4895445076
 21
275.8199937901
 31
0.0
  0
SPLINE
  5
E2
330
1F
100
AcDbEntity
  8
0
  6
Continuous
 62
     7
100
AcDbSpline
210
0.0
220
0.0
230
1.0
 70
     8
 71
     3
 72
    11
 73
     7
 74
     0
 42
0.000000001
 43
0.00000001
 40
0.0
 40
0.0
 40
0.0
 40
0.0
 40
0.2659555069154025
 40
0.5437356058244762
 40
0.9615521725941446
 40
0.9999999999999999
 40
0.9999999999999999
 40
0.9999999999999999
 40
0.9999999999999999
 10
124.7894789847612
 20
177.0969613655962
 30
0.0
 10
124.7424345432756
 20
177.1487860534548
 30
0.0
 10
124.6462540272619
 20
177.2547395957457
 30
0.0
 10
124.5313208721506
 20
177.4819869759058
 30
0.0
 10
124.4908215299481
 20
177.6743854867768
 30
0.0
 10
124.4896437546794
 20
177.7939895267043
 30
0.0
 10
124.4895445076182
 20
177.8040681467826
 30
0.0
  0
SPLINE
  5
E3
330
1F
100
AcDbEntity
  8
0
  6
Continuous
 62
     7
100
AcDbSpline
210
0.0
220
0.0
230
1.0
 70
     8
 71
     3
 72
     9
 73
     5
 74
     0
 42
0.000000001
 43
0.00000001
 40
0.0
 40
0.0
 40
0.0
 40
0.0
 40
0.953608474759719
 40
1.0
 40
1.0
 40
1.0
 40
1.0
 10
131.5946680999605
 20
170.4772087991248
 30
0.0
 10
129.4294395244461
 20
172.5793044635065
 30
0.0
 10
127.1588760460122
 20
174.7836637157787
 30
0.0
 10
124.8945256531638
 20
176.99440185157
 30
0.0
 10
124.7894789847612
 20
177.0969613655962
 30
0.0
  0
SPLINE
  5
E4
330
1F
100
AcDbEntity
  8
0
  6
Continuous
 62
     7
100
AcDbSpline
210
0.0
220
0.0
230
1.0
 70
     8
 71
     3
 72
    10
 73
     6
 74
     0
 42
0.000000001
 43
0.00000001
 40
0.0
 40
0.0
 40
0.0
 40
0.0
 40
0.2450596974511065
 40
0.6664586318036706
 40
1.0
 40
1.0
 40
1.0
 40
1.0
 10
132.1997338019892
 20
169.0629952367514
 30
0.0
 10
132.1918293121397
 20
169.1915574149456
 30
0.0
 10
132.1703324460907
 20
169.5411921132342
 30
0.0
 10
131.9744314287176
 20
170.047551583335
 30
0.0
 10
131.7110382545242
 20
170.3455497556502
 30
0.0
 10
131.5946680999605
 20
170.4772087991248
 30
0.0
  0
LINE
  5
E5
330
1F
100
AcDbEntity
  8
0
  6
Continuous
 62
     7
100
AcDbLine
 10
132.199733802
 20
152.8914223615
 30
0.0
 11
132.199733802
 21
169.0629952368
 31
0.0
  0
LINE
  5
E6
330
1F
100
AcDbEntity
  8
0
  6
Continuous
 62
     7
100
AcDbLine
 10
130.6514241549
 20
152.8914223615
 30
0.0
 11
132.199733802
 21
152.8914223615
 31
0.0
  0
LINE
  5
E7
330
1F
100
AcDbEntity
  8
0
  6
Continuous
 62
     7
100
AcDbLine
 10
127.6356129605
 20
170.6926796408
 30
0.0
 11
127.5586790088
 21
170.7692189719
 31
0.0
  0
LINE
  5
E8
330
1F
100
AcDbEntity
  8
0
  6
Continuous
 62
     7
100
AcDbLine
 10
130.6514241549
 20
152.8914223615
 30
0.0
 11
129.0544847261
 21
152.8914223615
 31
0.0
  0
LINE
  5
E9
330
1F
100
AcDbEntity
  8
0
  6
Continuous
 62
     7
100
AcDbLine
 10
135.5471349603
 20
172.3914223615
 30
0.0
 11
129.4797375121
 21
172.3914223615
 31
0.0
  0
LINE
  5
EA
330
1F
100
AcDbEntity
  8
0
  6
Continuous
 62
     7
100
AcDbLine
 10
219.0544847261
 20
172.3914223615
 30
0.0
 11
207.7063487168
 21
172.3914223615
 31
0.0
  0
LINE
  5
EB
330
1F
100
AcDbEntity
  8
0
  6
Continuous
 62
     7
100
AcDbLine
 10
187.7567521348
 20
172.3914223615
 30
0.0
 11
135.5471349603
 21
172.3914223615
 31
0.0
  0
LINE
  5
EC
330
1F
100
AcDbEntity
  8
0
  6
Continuous
 62
     7
100
AcDbLine
 10
136.2882092521
 20
172.8914223615
 30
0.0
 11
129.9205101299
 21
172.8914223615
 31
0.0
  0
LINE
  5
ED
330
1F
100
AcDbEntity
  8
0
  6
Continuous
 62
     7
100
AcDbLine
 10
218.1884593223
 20
172.8914223615
 30
0.0
 11
208.1048467595
 21
172.8914223615
 31
0.0
  0
LINE
  5
EE
330
1F
100
AcDbEntity
  8
0
  6
Continuous
 62
     7
100
AcDbLine
 10
188.0673813508
 20
172.8914223615
 30
0.0
 11
136.2882092521
 21
172.8914223615
 31
0.0
  0
SPLINE
  5
EF
330
1F
100
AcDbEntity
  8
0
  6
Continuous
 62
     7
100
AcDbSpline
210
0.0
220
0.0
230
1.0
 70
     8
 71
     3
 72
    11
 73
     7
 74
     0
 42
0.000000001
 43
0.00000001
 40
0.0
 40
0.0
 40
0.0
 40
0.0
 40
0.3418158806170236
 40
0.6155381444631753
 40
0.8344765662705506
 40
1.0
 40
1.0
 40
1.0
 40
1.0
 10
152.0894226376547
 20
135.5095568675827
 30
0.0
 10
151.7647489107472
 20
135.8334391495974
 30
0.0
 10
151.1800801614314
 20
136.4166826739649
 30
0.0
 10
150.4643248177785
 20
137.0715038352293
 30
0.0
 10
150.0112240770135
 20
137.4745219482261
 30
0.0
 10
149.9009842730406
 20
137.5757023678018
 30
0.0
 10
149.8535224231211
 20
137.6192638557184
 30
0.0
  0
SPLINE
  5
F0
330
1F
100
AcDbEntity
  8
0
  6
Continuous
 62
     7
100
AcDbSpline
210
0.0
220
0.0
230
1.0
 70
     8
 71
     3
 72
    14
 73
    10
 74
     0
 42
0.000000001
 43
0.00000001
 40
0.0
 40
0.0
 40
0.0
 40
0.0
 40
0.0868360286648982
 40
0.2407860275823927
 40
0.4030452153056022
 40
0.6369940378846863
 40
0.792196750082159
 40
0.9517996542216576
 40
1.0
 40
1.0
 40
1.0
 40
1.0
 10
149.8350719090873
 20
137.6423223993285
 30
0.0
 10
149.8305692532386
 20
137.6483888411601
 30
0.0
 10
149.8180839216078
 20
137.665210366196
 30
0.0
 10
150.0124051939809
 20
137.5122210248314
 30
0.0
 10
150.4072735502096
 20
137.1854625960298
 30
0.0
 10
150.9497098669282
 20
136.7111275996141
 30
0.0
 10
151.5297768934932
 20
136.1719723701978
 30
0.0
 10
151.9238251873615
 20
135.7883176479666
 30
0.0
 10
152.147650091547
 20
135.5620419350967
 30
0.0
 10
152.1995666894819
 20
135.5095568675827
 30
0.0
  0
SPLINE
  5
F1
330
1F
100
AcDbEntity
  8
0
  6
Continuous
 62
     7
100
AcDbSpline
210
0.0
220
0.0
230
1.0
 70
     8
 71
     3
 72
    11
 73
     7
 74
     0
 42
0.000000001
 43
0.00000001
 40
0.0
 40
0.0
 40
0.0
 40
0.0
 40
0.3415779727738095
 40
0.6151097227289425
 40
0.833895760838884
 40
1.0
 40
1.0
 40
1.0
 40
1.0
 10
196.0195468145442
 20
135.5095568675827
 30
0.0
 10
196.3442163872915
 20
135.8334355386936
 30
0.0
 10
196.9288776558429
 20
136.4166725605865
 30
0.0
 10
197.6446776463931
 20
137.071532530093
 30
0.0
 10
198.098137392674
 20
137.4748724050372
 30
0.0
 10
198.2085267129547
 20
137.5761924931025
 30
0.0
 10
198.2561666122702
 20
137.6199184512097
 30
0.0
  0
SPLINE
  5
F2
330
1F
100
AcDbEntity
  8
0
  6
Continuous
 62
     7
100
AcDbSpline
210
0.0
220
0.0
230
1.0
 70
     8
 71
     3
 72
    17
 73
    13
 74
     0
 42
0.000000001
 43
0.00000001
 40
0.0
 40
0.0
 40
0.0
 40
0.0
 40
0.1522777574536481
 40
0.2742200511481001
 40
0.3717563383243592
 40
0.4546861805767731
 40
0.5378487799221026
 40
0.6158512998057695
 40
0.6980638727559685
 40
0.8165997468274243
 40
0.9755781198024591
 40
1.0
 40
1.0
 40
1.0
 40
1.0
 10
171.7803934979944
 20
135.5095568675827
 30
0.0
 10
171.8698058350273
 20
135.8329196815908
 30
0.0
 10
172.0308185531317
 20
136.4152277538887
 30
0.0
 10
172.644813997518
 20
137.075631905068
 30
0.0
 10
173.3596110963173
 20
137.475760794791
 30
0.0
 10
174.1248463299683
 20
137.6676029647755
 30
0.0
 10
174.8836371946308
 20
137.6755556703023
 30
0.0
 10
175.5909617768443
 20
137.517441685484
 30
0.0
 10
176.2717941201817
 20
137.1831740347799
 30
0.0
 10
176.8964685699178
 20
136.5767440673363
 30
0.0
 10
177.1500206657748
 20
135.9560258253636
 30
0.0
 10
177.2086404108524
 20
135.5620229414413
 30
0.0
 10
177.2164463127894
 20
135.5095568675827
 30
0.0
  0
SPLINE
  5
F3
330
1F
100
AcDbEntity
  8
0
  6
Continuous
 62
     7
100
AcDbSpline
210
0.0
220
0.0
230
1.0
 70
     8
 71
     3
 72
    10
 73
     6
 74
     0
 42
0.000000001
 43
0.00000001
 40
0.0
 40
0.0
 40
0.0
 40
0.0
 40
0.3796659680738619
 40
0.76104410597363
 40
1.0
 40
1.0
 40
1.0
 40
1.0
 10
152.1995666894819
 20
135.5095568675827
 30
0.0
 10
152.3563567470573
 20
135.375354084538
 30
0.0
 10
152.6706439342874
 20
135.1063433076185
 30
0.0
 10
153.1963203674952
 20
134.9175689898204
 30
0.0
 10
153.5110693109825
 20
134.898693354393
 30
0.0
 10
153.632312240298
 20
134.8914223614977
 30
0.0
  0
SPLINE
  5
F4
330
1F
100
AcDbEntity
  8
0
  6
Continuous
 62
     7
100
AcDbSpline
210
0.0
220
0.0
230
1.0
 70
     8
 71
     3
 72
    11
 73
     7
 74
     0
 42
0.000000001
 43
0.00000001
 40
0.0
 40
0.0
 40
0.0
 40
0.0
 40
0.2386465147048364
 40
0.5868928394832792
 40
0.933574039737152
 40
0.9999999999999999
 40
0.9999999999999999
 40
0.9999999999999999
 40
0.9999999999999999
 10
171.9167677566244
 20
134.8914223614977
 30
0.0
 10
171.8761751290382
 20
134.8984191408045
 30
0.0
 10
171.7763474718205
 20
134.9156260113079
 30
0.0
 10
171.7260282846111
 20
135.0908111067622
 30
0.0
 10
171.7501952164596
 20
135.3280526628979
 30
0.0
 10
171.7762103670231
 20
135.4844145143949
 30
0.0
 10
171.7803934979943
 20
135.5095568675827
 30
0.0
  0
LINE
  5
F5
330
1F
100
AcDbEntity
  8
0
  6
Continuous
 62
     7
100
AcDbLine
 10
171.9167677566
 20
134.8914223615
 30
0.0
 11
153.6323122403
 21
134.8914223615
 31
0.0
  0
SPLINE
  5
F6
330
1F
100
AcDbEntity
  8
0
  6
Continuous
 62
     7
100
AcDbSpline
210
0.0
220
0.0
230
1.0
 70
     8
 71
     3
 72
    10
 73
     6
 74
     0
 42
0.000000001
 43
0.00000001
 40
0.0
 40
0.0
 40
0.0
 40
0.0
 40
0.3796659680738462
 40
0.761044105973624
 40
0.9999999999999999
 40
0.9999999999999999
 40
0.9999999999999999
 40
0.9999999999999999
 10
177.2164463127894
 20
135.5095568675827
 30
0.0
 10
177.230055114534
 20
135.375354084538
 30
0.0
 10
177.2573340892855
 20
135.1063433076185
 30
0.0
 10
177.1852733669101
 20
134.9175689898204
 30
0.0
 10
177.0673145979232
 20
134.898693354393
 30
0.0
 10
177.0218762668775
 20
134.8914223614977
 30
0.0
  0
LINE
  5
F7
330
1F
100
AcDbEntity
  8
0
  6
Continuous
 62
     7
100
AcDbLine
 10
177.0218762669
 20
134.8914223615
 30
0.0
 11
171.9167677566
 21
134.8914223615
 31
0.0
  0
LINE
  5
F8
330
1F
100
AcDbEntity
  8
0
  6
Continuous
 62
     7
100
AcDbLine
 10
177.0218762669
 20
135.8914223615
 30
0.0
 11
171.9167677566
 21
135.8914223615
 31
0.0
  0
SPLINE
  5
F9
330
1F
100
AcDbEntity
  8
0
  6
Continuous
 62
     7
100
AcDbSpline
210
0.0
220
0.0
230
1.0
 70
     8
 71
     3
 72
    11
 73
     7
 74
     0
 42
0.000000001
 43
0.00000001
 40
0.0
 40
0.0
 40
0.0
 40
0.0
 40
0.2386465147049383
 40
0.586892839483387
 40
0.9335740397372847
 40
1.0
 40
1.0
 40
1.0
 40
1.0
 10
194.5800957463474
 20
134.8914223614977
 30
0.0
 10
194.7032971940003
 20
134.8984191408045
 30
0.0
 10
195.0062810759602
 20
134.9156260113079
 30
0.0
 10
195.4922762753454
 20
135.0908111067622
 30
0.0
 10
195.8360933944533
 20
135.328052662898
 30
0.0
 10
195.9941344518418
 20
135.4844145143949
 30
0.0
 10
196.0195468145441
 20
135.5095568675827
 30
0.0
  0
LINE
  5
FA
330
1F
100
AcDbEntity
  8
0
  6
Continuous
 62
     7
100
AcDbLine
 10
194.5800957463
 20
134.8914223615
 30
0.0
 11
177.0218762669
 21
134.8914223615
 31
0.0
  0
SPLINE
  5
FB
330
1F
100
AcDbEntity
  8
0
  6
Continuous
 62
     7
100
AcDbSpline
210
0.0
220
0.0
230
1.0
 70
     8
 71
     3
 72
    11
 73
     7
 74
     0
 42
0.000000001
 43
0.00000001
 40
0.0
 40
0.0
 40
0.0
 40
0.0
 40
0.2386465147048136
 40
0.5868928394832447
 40
0.933574039737134
 40
1.0
 40
1.0
 40
1.0
 40
1.0
 10
153.5288737058515
 20
134.8914223614977
 30
0.0
 10
153.4056722581986
 20
134.8984191408045
 30
0.0
 10
153.1026883762387
 20
134.9156260113079
 30
0.0
 10
152.6166931768537
 20
135.0908111067622
 30
0.0
 10
152.2728760577455
 20
135.3280526628979
 30
0.0
 10
152.1148350003571
 20
135.4844145143948
 30
0.0
 10
152.0894226376547
 20
135.5095568675827
 30
0.0
  0
LINE
  5
FC
330
1F
100
AcDbEntity
  8
0
  6
Continuous
 62
     7
100
AcDbLine
 10
153.6323122403
 20
134.8914223615
 30
0.0
 11
153.5288737059
 21
134.8914223615
 31
0.0
  0
LINE
  5
FD
330
1F
100
AcDbEntity
  8
0
  6
Continuous
 62
     7
100
AcDbLine
 10
-1.0748755248
 20
173.8914223615
 30
0.0
 11
-11.5748755248
 21
173.8914223615
 31
0.0
  0
LINE
  5
FE
330
1F
100
AcDbEntity
  8
0
  6
Continuous
 62
     7
100
AcDbLine
 10
9.4251244752
 20
173.8914223615
 30
0.0
 11
-1.0748755248
 21
173.8914223615
 31
0.0
  0
LINE
  5
FF
330
1F
100
AcDbEntity
  8
0
  6
Continuous
 62
     7
100
AcDbLine
 10
-40.0748755248
 20
179.8914223615
 30
0.0
 11
-40.0748755248
 21
78.8914223615
 31
0.0
  0
LINE
  5
100
330
1F
100
AcDbEntity
  8
0
  6
Continuous
 62
     7
100
AcDbLine
 10
-40.1795102354
 20
178.3950762861
 30
0.0
 11
-40.1795102354
 21
80.3877684369
 31
0.0
  0
LINE
  5
101
330
1F
100
AcDbEntity
  8
0
  6
Continuous
 62
     7
100
AcDbLine
 10
-19.0748755248
 20
173.76038388
 30
0.0
 11
-19.0748755248
 21
85.022460843
 31
0.0
  0
SPLINE
  5
102
330
1F
100
AcDbEntity
  8
0
  6
Continuous
 62
     7
100
AcDbSpline
210
0.0
220
0.0
230
1.0
 70
     8
 71
     3
 72
     9
 73
     5
 74
     0
 42
0.000000001
 43
0.00000001
 40
0.0
 40
0.0
 40
0.0
 40
0.0
 40
0.5559684114601599
 40
1.0
 40
1.0
 40
1.0
 40
1.0
 10
-14.15663294045802
 20
101.8914223614976
 30
0.0
 10
-14.16751445894668
 20
101.9117381484343
 30
0.0
 10
-14.18708664733792
 20
101.9482794096244
 30
0.0
 10
-13.94590141093079
 20
102.1459875126001
 30
0.0
 10
-13.83880754727657
 20
102.2337761556316
 30
0.0
  0
SPLINE
  5
103
330
1F
100
AcDbEntity
  8
0
  6
Continuous
 62
     7
100
AcDbSpline
210
0.0
220
0.0
230
1.0
 70
    24
 71
     3
 72
     9
 73
     5
 74
     0
 42
0.000000001
 43
0.00000001
 40
0.0
 40
0.0
 40
0.0
 40
0.0
 40
0.756219538578618
 40
0.9999999999999999
 40
0.9999999999999999
 40
0.9999999999999999
 40
0.9999999999999999
 10
-14.13677788255126
 20
101.8914223614976
 30
0.0
 10
-14.11623629635236
 20
101.8914223614976
 30
0.0
 10
-14.0890727741859
 20
101.8914223614976
 30
0.0
 10
-14.14339117551769
 20
101.8914223614976
 30
0.0
 10
-14.15663294045802
 20
101.8914223614976
 30
0.0
  0
SPLINE
  5
104
330
1F
100
AcDbEntity
  8
0
  6
Continuous
 62
     7
100
AcDbSpline
210
0.0
220
0.0
230
1.0
 70
    24
 71
     3
 72
     9
 73
     5
 74
     0
 42
0.000000001
 43
0.00000001
 40
0.0
 40
0.0
 40
0.0
 40
0.0
 40
0.2437804614213815
 40
1.0
 40
1.0
 40
1.0
 40
1.0
 10
-14.15663294045798
 20
156.8914223614976
 30
0.0
 10
-14.14339117551765
 20
156.8914223614976
 30
0.0
 10
-14.08907277418589
 20
156.8914223614976
 30
0.0
 10
-14.11623629635235
 20
156.8914223614976
 30
0.0
 10
-14.13677788255123
 20
156.8914223614976
 30
0.0
  0
SPLINE
  5
105
330
1F
100
AcDbEntity
  8
0
  6
Continuous
 62
     7
100
AcDbSpline
210
0.0
220
0.0
230
1.0
 70
     8
 71
     3
 72
     9
 73
     5
 74
     0
 42
0.000000001
 43
0.00000001
 40
0.0
 40
0.0
 40
0.0
 40
0.0
 40
0.5574218439303058
 40
1.0
 40
1.0
 40
1.0
 40
1.0
 10
-13.83880754727657
 20
156.5490685673635
 30
0.0
 10
-13.96882613225026
 20
156.656785084989
 30
0.0
 10
-14.20207602439109
 20
156.8500256599653
 30
0.0
 10
-14.1705747267027
 20
156.8787219918473
 30
0.0
 10
-14.15663294045798
 20
156.8914223614976
 30
0.0
  0
SPLINE
  5
106
330
1F
100
AcDbEntity
  8
0
  6
Continuous
 62
     7
100
AcDbSpline
210
0.0
220
0.0
230
1.0
 70
     8
 71
     3
 72
    15
 73
    11
 74
     0
 42
0.000000001
 43
0.00000001
 40
0.0
 40
0.0
 40
0.0
 40
0.0
 40
0.1607280865666262
 40
0.3267798407618273
 40
0.4787077997428835
 40
0.6352256292412094
 40
0.7432708612484483
 40
0.8540539641640886
 40
0.9264235227343377
 40
1.0
 40
1.0
 40
1.0
 40
1.0
 10
-13.83880754727657
 20
102.2337761556316
 30
0.0
 10
-13.66047922641103
 20
102.3802178162657
 30
0.0
 10
-13.29791595859281
 20
102.6779516073231
 30
0.0
 10
-12.68963951311636
 20
103.3312119636789
 30
0.0
 10
-12.1252597224005
 20
104.1250109984163
 30
0.0
 10
-11.68550542760835
 20
104.9594953787001
 30
0.0
 10
-11.36713619461555
 20
105.8058199343576
 30
0.0
 10
-11.18875958184902
 20
106.5171174295875
 30
0.0
 10
-11.09161695152255
 20
107.1716068281887
 30
0.0
 10
-11.08048668140436
 20
107.5517415264319
 30
0.0
 10
-11.07487552477636
 20
107.7433806608763
 30
0.0
  0
SPLINE
  5
107
330
1F
100
AcDbEntity
  8
0
  6
Continuous
 62
     7
100
AcDbSpline
210
0.0
220
0.0
230
1.0
 70
     8
 71
     3
 72
    15
 73
    11
 74
     0
 42
0.000000001
 43
0.00000001
 40
0.0
 40
0.0
 40
0.0
 40
0.0
 40
0.0915465841305317
 40
0.1856185543308251
 40
0.2860028758843702
 40
0.3885896315468803
 40
0.5330374073145867
 40
0.6816408762193675
 40
0.8385996604473935
 40
1.0
 40
1.0
 40
1.0
 40
1.0
 10
-11.07487552477636
 20
151.0394640621188
 30
0.0
 10
-11.08358816299696
 20
151.2779525967555
 30
0.0
 10
-11.10125378456302
 20
151.761508563853
 30
0.0
 10
-11.23554325424943
 20
152.4828978211577
 30
0.0
 10
-11.44062035732479
 20
153.1916606507343
 30
0.0
 10
-11.75131280998164
 20
153.9578030210628
 30
0.0
 10
-12.17639425865683
 20
154.7355870696225
 30
0.0
 10
-12.7143663288886
 20
155.4789909791714
 30
0.0
 10
-13.30648630313414
 20
156.1118897384943
 30
0.0
 10
-13.65972441057567
 20
156.4019931747606
 30
0.0
 10
-13.83880754727657
 20
156.5490685673635
 30
0.0
  0
LINE
  5
108
330
1F
100
AcDbEntity
  8
0
  6
Continuous
 62
     7
100
AcDbLine
 10
-11.0748755248
 20
151.0394640621
 30
0.0
 11
-11.0748755248
 21
133.9875747842
 31
0.0
  0
LINE
  5
109
330
1F
100
AcDbEntity
  8
0
  6
Continuous
 62
     7
100
AcDbLine
 10
-11.0748755248
 20
124.7952699388
 30
0.0
 11
-11.0748755248
 21
107.7433806609
 31
0.0
  0
LINE
  5
10A
330
1F
100
AcDbEntity
  8
0
  6
Continuous
 62
     7
100
AcDbLine
 10
190.7251242429
 20
122.8914223615
 30
0.0
 11
157.1251244752
 21
122.8914223615
 31
0.0
  0
LINE
  5
10B
330
1F
100
AcDbEntity
  8
0
  6
Continuous
 62
     7
100
AcDbLine
 10
191.9251244752
 20
134.3914223615
 30
0.0
 11
155.9251244752
 21
134.3914223615
 31
0.0
  0
SPLINE
  5
10C
330
1F
100
AcDbEntity
  8
0
  6
Continuous
 62
     7
100
AcDbSpline
210
0.0
220
0.0
230
1.0
 70
     8
 71
     3
 72
    20
 73
    16
 74
     0
 42
0.000000001
 43
0.00000001
 40
0.0
 40
0.0
 40
0.0
 40
0.0
 40
0.0411397330177361
 40
0.1251220312291449
 40
0.2115081724198804
 40
0.2962044345412601
 40
0.3832141500146327
 40
0.4705114428752896
 40
0.5602916431133736
 40
0.6482574040536858
 40
0.7389221735432949
 40
0.8243307501586268
 40
0.9123299855005168
 40
0.9560022214073758
 40
1.0
 40
1.0
 40
1.0
 40
1.0
 10
157.179483350576
 20
118.8751698163276
 30
0.0
 10
157.1785294049012
 20
118.8787313283224
 30
0.0
 10
157.1756280827059
 20
118.8895632803638
 30
0.0
 10
157.2060660224324
 20
118.7759380717898
 30
0.0
 10
157.2647147379153
 20
118.5485759628938
 30
0.0
 10
157.3487001415596
 20
118.2012397808865
 30
0.0
 10
157.4467960719024
 20
117.7532786754083
 30
0.0
 10
157.5511772376445
 20
117.2034936843966
 30
0.0
 10
157.6488177690995
 20
116.5715247741907
 30
0.0
 10
157.7290205576029
 20
115.8669366078688
 30
0.0
 10
157.7799169541922
 20
115.1287651621574
 30
0.0
 10
157.7968177813059
 20
114.3686038146328
 30
0.0
 10
157.7811028785544
 20
113.7440994796411
 30
0.0
 10
157.7523071439552
 20
113.2502476862856
 30
0.0
 10
157.7316906010181
 20
113.0113265295762
 30
0.0
 10
157.7213440521248
 20
112.8914223614977
 30
0.0
  0
SPLINE
  5
10D
330
1F
100
AcDbEntity
  8
0
  6
Continuous
 62
     7
100
AcDbSpline
210
0.0
220
0.0
230
1.0
 70
     8
 71
     3
 72
    15
 73
    11
 74
     0
 42
0.000000001
 43
0.00000001
 40
0.0
 40
0.0
 40
0.0
 40
0.0
 40
0.1148854245834348
 40
0.2331379236041154
 40
0.3480460591838761
 40
0.4662848431821541
 40
0.5805882582044485
 40
0.6991786259336472
 40
0.8601916334557109
 40
1.0
 40
1.0
 40
1.0
 40
1.0
 10
157.7213440521248
 20
112.8914223614977
 30
0.0
 10
157.7174445350388
 20
112.8031896209678
 30
0.0
 10
157.7095312133988
 20
112.624138205215
 30
0.0
 10
157.7543941502745
 20
112.3674537152241
 30
0.0
 10
157.8400649206283
 20
112.1250734500234
 30
0.0
 10
157.9677567971242
 20
111.9079776759493
 30
0.0
 10
158.1384832012624
 20
111.7168740483415
 30
0.0
 10
158.3760127967298
 20
111.5432341212083
 30
0.0
 10
158.6862488062833
 20
111.4148850698438
 30
0.0
 10
158.9335939364873
 20
111.3988668951418
 30
0.0
 10
159.0485489284118
 20
111.3914223614977
 30
0.0
  0
LINE
  5
10E
330
1F
100
AcDbEntity
  8
0
  6
Continuous
 62
     7
100
AcDbLine
 10
189.1751244752
 20
111.3914223615
 30
0.0
 11
159.0485489284
 21
111.3914223615
 31
0.0
  0
SPLINE
  5
10F
330
1F
100
AcDbEntity
  8
0
  6
Continuous
 62
     7
100
AcDbSpline
210
0.0
220
0.0
230
1.0
 70
     8
 71
     3
 72
    13
 73
     9
 74
     0
 42
0.000000001
 43
0.00000001
 40
0.0
 40
0.0
 40
0.0
 40
0.0
 40
0.1983747738961408
 40
0.4023777734217643
 40
0.6007902216696147
 40
0.8052600060631604
 40
0.9983055232386626
 40
1.0
 40
1.0
 40
1.0
 40
1.0
 10
159.3049329580102
 20
111.3914223614977
 30
0.0
 10
159.2665365848386
 20
111.2138639421567
 30
0.0
 10
159.188654468878
 20
110.853709472798
 30
0.0
 10
159.0810173675029
 20
110.4378919891185
 30
0.0
 10
158.992599800613
 20
110.1192922269117
 30
0.0
 10
158.94089164654
 20
109.9438841853418
 30
0.0
 10
158.9191034902117
 20
109.8712251922935
 30
0.0
 10
158.9252312200799
 20
109.8917804196521
 30
0.0
 10
158.9252845388442
 20
109.8919592753375
 30
0.0
  0
LINE
  5
110
330
1F
100
AcDbEntity
  8
0
  6
Continuous
 62
     7
100
AcDbLine
 10
-12.0748755248
 20
130.0978705254
 30
0.0
 11
-12.4212856863
 21
128.54114462
 31
0.0
  0
LINE
  5
111
330
1F
100
AcDbEntity
  8
0
  6
Continuous
 62
     7
100
AcDbLine
 10
-18.0748755248
 20
128.54114462
 30
0.0
 11
-12.4212856863
 21
128.54114462
 31
0.0
  0
LINE
  5
112
330
1F
100
AcDbEntity
  8
0
  6
Continuous
 62
     7
100
AcDbLine
 10
-18.0748755248
 20
128.54114462
 30
0.0
 11
-18.0748755248
 21
130.9733858116
 31
0.0
  0
LINE
  5
113
330
1F
100
AcDbEntity
  8
0
  6
Continuous
 62
     7
100
AcDbLine
 10
-18.0748755248
 20
130.9733858116
 30
0.0
 11
-18.0748755248
 21
133.4056270032
 31
0.0
  0
LINE
  5
114
330
1F
100
AcDbEntity
  8
0
  6
Continuous
 62
     7
100
AcDbLine
 10
-18.0748755248
 20
133.4056270032
 30
0.0
 11
-12.4212856863
 21
133.4056270032
 31
0.0
  0
SPLINE
  5
115
330
1F
100
AcDbEntity
  8
0
  6
Continuous
 62
     7
100
AcDbSpline
210
0.0
220
0.0
230
1.0
 70
     8
 71
     3
 72
     9
 73
     5
 74
     0
 42
0.000000001
 43
0.00000001
 40
0.0
 40
0.0
 40
0.0
 40
0.0
 40
0.2979468128935026
 40
1.0
 40
1.0
 40
1.0
 40
1.0
 10
-12.42128568629007
 20
133.4056270032222
 30
0.0
 10
-12.37574072219005
 20
133.2533681177722
 30
0.0
 10
-12.22287798921529
 20
132.7423410523327
 30
0.0
 10
-12.13592273684119
 20
132.2174221125096
 30
0.0
 10
-12.0748755247763
 20
131.8489010978342
 30
0.0
  0
LINE
  5
116
330
1F
100
AcDbEntity
  8
0
  6
Continuous
 62
     7
100
AcDbLine
 10
-12.0748755248
 20
124.7990448566
 30
0.0
 11
-12.0748755248
 21
124.7952699388
 31
0.0
  0
LINE
  5
117
330
1F
100
AcDbEntity
  8
0
  6
Continuous
 62
     7
100
AcDbLine
 10
-12.0748755248
 20
124.7990448566
 30
0.0
 11
-12.0748755248
 21
125.8115610053
 31
0.0
  0
LINE
  5
118
330
1F
100
AcDbEntity
  8
0
  6
Continuous
 62
     7
100
AcDbLine
 10
-12.0748755248
 20
127.2565235929
 30
0.0
 11
-12.0748755248
 21
125.8115610053
 31
0.0
  0
LINE
  5
119
330
1F
100
AcDbEntity
  8
0
  6
Continuous
 62
     7
100
AcDbLine
 10
-12.0748755248
 20
127.2565235929
 30
0.0
 11
-12.0748755248
 21
130.0978705254
 31
0.0
  0
LINE
  5
11A
330
1F
100
AcDbEntity
  8
0
  6
Continuous
 62
     7
100
AcDbLine
 10
-12.0748755248
 20
131.8489010978
 30
0.0
 11
-12.0748755248
 21
130.0978705254
 31
0.0
  0
LINE
  5
11B
330
1F
100
AcDbEntity
  8
0
  6
Continuous
 62
     7
100
AcDbLine
 10
-12.0748755248
 20
131.8489010978
 30
0.0
 11
-12.0748755248
 21
133.6777318815
 31
0.0
  0
LINE
  5
11C
330
1F
100
AcDbEntity
  8
0
  6
Continuous
 62
     7
100
AcDbLine
 10
-12.0748755248
 20
133.9875747842
 30
0.0
 11
-12.0748755248
 21
133.6777318815
 31
0.0
  0
SPLINE
  5
11D
330
1F
100
AcDbEntity
  8
0
  6
Continuous
 62
     7
100
AcDbSpline
210
0.0
220
0.0
230
1.0
 70
     8
 71
     3
 72
     9
 73
     5
 74
     0
 42
0.000000001
 43
0.00000001
 40
0.0
 40
0.0
 40
0.0
 40
0.0
 40
0.5507269055913271
 40
0.9999999999999999
 40
0.9999999999999999
 40
0.9999999999999999
 40
0.9999999999999999
 10
-12.42128568629013
 20
128.5411446200006
 30
0.0
 10
-12.33934844127949
 20
128.3082097192727
 30
0.0
 10
-12.19056826697032
 20
127.8852507202426
 30
0.0
 10
-12.11074014993682
 20
127.4514283235264
 30
0.0
 10
-12.07487552477637
 20
127.25652359293
 30
0.0
  0
SPLINE
  5
11E
330
1F
100
AcDbEntity
  8
0
  6
Continuous
 62
     7
100
AcDbSpline
210
0.0
220
0.0
230
1.0
 70
     8
 71
     3
 72
     9
 73
     5
 74
     0
 42
0.000000001
 43
0.00000001
 40
0.0
 40
0.0
 40
0.0
 40
0.0
 40
0.2514578839353487
 40
1.0
 40
1.0
 40
1.0
 40
1.0
 10
-12.07487552477635
 20
125.8115610053468
 30
0.0
 10
-12.09346311934566
 20
125.7023814648057
 30
0.0
 10
-12.16738243449465
 20
125.2681952749259
 30
0.0
 10
-12.31259097677839
 20
124.8442676555455
 30
0.0
 10
-12.42128568629014
 20
124.5269399782762
 30
0.0
  0
LINE
  5
11F
330
1F
100
AcDbEntity
  8
0
  6
Continuous
 62
     7
100
AcDbLine
 10
-18.0748755248
 20
124.5269399783
 30
0.0
 11
-12.4212856863
 21
124.5269399783
 31
0.0
  0
LINE
  5
120
330
1F
100
AcDbEntity
  8
0
  6
Continuous
 62
     7
100
AcDbLine
 10
-18.0748755248
 20
124.5269399783
 30
0.0
 11
-18.0748755248
 21
126.5340422991
 31
0.0
  0
LINE
  5
121
330
1F
100
AcDbEntity
  8
0
  6
Continuous
 62
     7
100
AcDbLine
 10
-18.0748755248
 20
126.5340422991
 30
0.0
 11
-18.0748755248
 21
128.54114462
 31
0.0
  0
LINE
  5
122
330
1F
100
AcDbEntity
  8
0
  6
Continuous
 62
     7
100
AcDbLine
 10
-12.0748755248
 20
133.6777318815
 30
0.0
 11
-12.4212856863
 21
133.4056270032
 31
0.0
  0
LINE
  5
123
330
1F
100
AcDbEntity
  8
0
  6
Continuous
 62
     7
100
AcDbLine
 10
-18.0748755248
 20
133.830765874
 30
0.0
 11
-18.0748755248
 21
134.2559047447
 31
0.0
  0
LINE
  5
124
330
1F
100
AcDbEntity
  8
0
  6
Continuous
 62
     7
100
AcDbLine
 10
-18.0748755248
 20
134.2559047447
 30
0.0
 11
-12.4212856863
 21
134.2559047447
 31
0.0
  0
SPLINE
  5
125
330
1F
100
AcDbEntity
  8
0
  6
Continuous
 62
     7
100
AcDbSpline
210
0.0
220
0.0
230
1.0
 70
     8
 71
     3
 72
     9
 73
     5
 74
     0
 42
0.000000001
 43
0.00000001
 40
0.0
 40
0.0
 40
0.0
 40
0.0
 40
0.2979468128935186
 40
1.0
 40
1.0
 40
1.0
 40
1.0
 10
-12.42128568629011
 20
134.2559047447193
 30
0.0
 10
-12.37574072219008
 20
134.2292909488322
 30
0.0
 10
-12.22287798921529
 20
134.1399669663784
 30
0.0
 10
-12.13592273684119
 20
134.0482147807478
 30
0.0
 10
-12.0748755247763
 20
133.9837998664019
 30
0.0
  0
LINE
  5
126
330
1F
100
AcDbEntity
  8
0
  6
Continuous
 62
     7
100
AcDbLine
 10
-18.0748755248
 20
133.4056270032
 30
0.0
 11
-18.0748755248
 21
133.830765874
 31
0.0
  0
SPLINE
  5
127
330
1F
100
AcDbEntity
  8
0
  6
Continuous
 62
     7
100
AcDbSpline
210
0.0
220
0.0
230
1.0
 70
     8
 71
     3
 72
     9
 73
     5
 74
     0
 42
0.000000001
 43
0.00000001
 40
0.0
 40
0.0
 40
0.0
 40
0.0
 40
0.2979468128935281
 40
1.0
 40
1.0
 40
1.0
 40
1.0
 10
-12.42128568629013
 20
124.5269399782762
 30
0.0
 10
-12.37574072219012
 20
124.5535537741632
 30
0.0
 10
-12.22287798921541
 20
124.642877756617
 30
0.0
 10
-12.13592273684126
 20
124.7346299422476
 30
0.0
 10
-12.07487552477633
 20
124.7990448565935
 30
0.0
  0
LINE
  5
128
330
1F
100
AcDbEntity
  8
0
  6
Continuous
 62
     8
370
    18
100
AcDbLine
 10
173.9251244752
 20
104.3914223615
 30
0.0
 11
161.4251244752
 21
104.3914223615
 31
0.0
  0
LINE
  5
129
330
1F
100
AcDbEntity
  8
0
  6
Continuous
 62
     8
370
    18
100
AcDbLine
 10
186.4251244752
 20
104.3914223615
 30
0.0
 11
173.9251244752
 21
104.3914223615
 31
0.0
  0
LINE
  5
12A
330
1F
100
AcDbEntity
  8
0
  6
Continuous
 62
     8
370
    18
100
AcDbLine
 10
-1.0748755248
 20
104.3914223615
 30
0.0
 11
11.4251244752
 21
104.3914223615
 31
0.0
  0
LINE
  5
12B
330
1F
100
AcDbEntity
  8
0
  6
Continuous
 62
     8
370
    18
100
AcDbLine
 10
-11.956790118
 20
104.3914223615
 30
0.0
 11
-1.0748755248
 21
104.3914223615
 31
0.0
  0
LINE
  5
12C
330
1F
100
AcDbEntity
  8
0
  6
Continuous
 62
     8
370
    18
100
AcDbLine
 10
128.3401450958
 20
181.560217589
 30
0.0
 11
124.4895445076
 21
181.560217589
 31
0.0
  0
LINE
  5
12D
330
1F
100
AcDbEntity
  8
0
  6
Continuous
 62
     8
370
    18
100
AcDbLine
 10
224.0544847261
 20
181.560217589
 30
0.0
 11
210.029234304
 21
181.560217589
 31
0.0
  0
LINE
  5
12E
330
1F
100
AcDbEntity
  8
0
  6
Continuous
 62
     8
370
    18
100
AcDbLine
 10
190.4091003843
 20
181.560217589
 30
0.0
 11
128.3401450958
 21
181.560217589
 31
0.0
  0
LINE
  5
12F
330
1F
100
AcDbEntity
  8
0
  6
Continuous
 62
     8
370
    18
100
AcDbLine
 10
131.0814786411
 20
176.2225135386
 30
0.0
 11
127.0528147551
 21
176.2225135386
 31
0.0
  0
LINE
  5
130
330
1F
100
AcDbEntity
  8
0
  6
Continuous
 62
     8
370
    18
100
AcDbLine
 10
221.0561546971
 20
176.2225135386
 30
0.0
 11
209.7088308598
 21
176.2225135386
 31
0.0
  0
LINE
  5
131
330
1F
100
AcDbEntity
  8
0
  6
Continuous
 62
     8
370
    18
100
AcDbLine
 10
189.8391236291
 20
176.2225135386
 30
0.0
 11
131.0814786411
 21
176.2225135386
 31
0.0
  0
LINE
  5
132
330
1F
100
AcDbEntity
  8
0
  6
Continuous
 62
     8
370
    18
100
AcDbLine
 10
67.8082722204
 20
278.3155891909
 30
0.0
 11
49.8943025314
 21
278.3155891909
 31
0.0
  0
LINE
  5
133
330
1F
100
AcDbEntity
  8
0
  6
Continuous
 62
     8
370
    18
100
AcDbLine
 10
298.2146669208
 20
278.3155891909
 30
0.0
 11
67.8082722204
 21
278.3155891909
 31
0.0
  0
LINE
  5
134
330
1F
100
AcDbEntity
  8
0
  6
Continuous
 62
     8
370
    18
100
AcDbLine
 10
69.3140592678
 20
279.6340386727
 30
0.0
 11
51.6539774388
 21
279.6340386727
 31
0.0
  0
LINE
  5
135
330
1F
100
AcDbEntity
  8
0
  6
Continuous
 62
     8
370
    18
100
AcDbLine
 10
296.4549920134
 20
279.6340386727
 30
0.0
 11
69.3140592678
 21
279.6340386727
 31
0.0
  0
LINE
  5
136
330
1F
100
AcDbEntity
  8
0
  6
Continuous
 62
     8
370
    18
100
AcDbLine
 10
127.6107046204
 20
296.270713162
 30
0.0
 11
119.7799081201
 21
296.270713162
 31
0.0
  0
LINE
  5
137
330
1F
100
AcDbEntity
  8
0
  6
Continuous
 62
     8
370
    18
100
AcDbLine
 10
228.3290613321
 20
296.270713162
 30
0.0
 11
127.6107046204
 21
296.270713162
 31
0.0
  0
LINE
  5
138
330
1F
100
AcDbEntity
  8
0
  6
Continuous
 62
     8
370
    18
100
AcDbLine
 10
197.9142930345
 20
176.0766459582
 30
0.0
 11
197.8935975289
 21
176.0363011938
 31
0.0
  0
LINE
  5
139
330
1F
100
AcDbEntity
  8
0
  6
Continuous
 62
     8
370
    18
100
AcDbLine
 10
190.8158041398
 20
176.0363011938
 30
0.0
 11
197.8935975289
 21
176.0363011938
 31
0.0
  0
LINE
  5
13A
330
1F
100
AcDbEntity
  8
0
  6
Continuous
 62
     8
370
    18
100
AcDbLine
 10
191.2034188629
 20
177.8040681468
 30
0.0
 11
198.2653019521
 21
177.8040681468
 31
0.0
  0
SPLINE
  5
13B
330
1F
100
AcDbEntity
  8
0
  6
Continuous
 62
     8
370
    18
100
AcDbSpline
210
0.0
220
0.0
230
1.0
 70
     8
 71
     3
 72
    13
 73
     9
 74
     0
 42
0.000000001
 43
0.00000001
 40
0.0
 40
0.0
 40
0.0
 40
0.0
 40
0.0944285886647255
 40
0.1893522962720842
 40
0.4072156627924826
 40
0.6314110963037993
 40
0.813877462409495
 40
0.9999999999999999
 40
0.9999999999999999
 40
0.9999999999999999
 40
0.9999999999999999
 10
198.2653019520929
 20
177.8040681467827
 30
0.0
 10
198.2646670254338
 20
177.7440632282616
 30
0.0
 10
198.2633938429944
 20
177.6237387664618
 30
0.0
 10
198.2487460159259
 20
177.3663986179046
 30
0.0
 10
198.209932699275
 20
177.0322361001924
 30
0.0
 10
198.1315384669517
 20
176.6651415103807
 30
0.0
 10
198.0324018431808
 20
176.3414545913791
 30
0.0
 10
197.9539221273156
 20
176.1654972980179
 30
0.0
 10
197.9142930345249
 20
176.076645958166
 30
0.0
  0
LINE
  5
13C
330
1F
100
AcDbEntity
  8
0
  6
Continuous
 62
     8
370
    18
100
AcDbLine
 10
198.2653019521
 20
275.8199937901
 30
0.0
 11
198.2653019521
 21
177.8040681468
 31
0.0
  0
LINE
  5
13D
330
1F
100
AcDbEntity
  8
0
  6
Continuous
 62
     8
370
    18
100
AcDbLine
 10
209.6416195809
 20
176.0363011938
 30
0.0
 11
203.6731642419
 21
176.0363011938
 31
0.0
  0
LINE
  5
13E
330
1F
100
AcDbEntity
  8
0
  6
Continuous
 62
     8
370
    18
100
AcDbLine
 10
206.1239924077
 20
169.4165486273
 30
0.0
 11
187.2981769667
 21
169.4165486273
 31
0.0
  0
LINE
  5
13F
330
1F
100
AcDbEntity
  8
0
  6
Continuous
 62
     8
370
    18
100
AcDbLine
 10
197.8935975289
 20
176.0363011938
 30
0.0
 11
196.3505985535
 21
173.0634669335
 31
0.0
  0
SPLINE
  5
140
330
1F
100
AcDbEntity
  8
0
  6
Continuous
 62
     8
370
    18
100
AcDbSpline
210
0.0
220
0.0
230
1.0
 70
     8
 71
     3
 72
    18
 73
    14
 74
     0
 42
0.000000001
 43
0.00000001
 40
0.0
 40
0.0
 40
0.0
 40
0.0
 40
0.1054650904000523
 40
0.2106137503079437
 40
0.3157330212485355
 40
0.4225798617060484
 40
0.4999811610598934
 40
0.531715311026852
 40
0.6418529579314317
 40
0.7486882792363979
 40
0.8561484843656502
 40
0.9628984817295722
 40
1.0
 40
1.0
 40
1.0
 40
1.0
 10
202.1325610402099
 20
173.0634669335391
 30
0.0
 10
201.9659432406969
 20
172.7993890303752
 30
0.0
 10
201.633207550713
 20
172.272025545948
 30
0.0
 10
200.7974771199931
 20
171.5541235915489
 30
0.0
 10
199.8166358122082
 20
170.9940138897071
 30
0.0
 10
198.8590067411386
 20
170.6902698194927
 30
0.0
 10
198.1766816861783
 20
170.6224535814868
 30
0.0
 10
197.5311211627675
 20
170.6504503475983
 30
0.0
 10
196.8768382537392
 20
170.8268168034271
 30
0.0
 10
196.2939867048029
 20
171.3161993892856
 30
0.0
 10
196.050846876587
 20
171.9939099869045
 30
0.0
 10
196.1376445377451
 20
172.613880457873
 30
0.0
 10
196.3069357469869
 20
172.9712864352014
 30
0.0
 10
196.3505985534927
 20
173.0634669335392
 30
0.0
  0
LINE
  5
141
330
1F
100
AcDbEntity
  8
0
  6
Continuous
 62
     8
370
    18
100
AcDbLine
 10
203.6731642419
 20
176.0363011938
 30
0.0
 11
202.1325610402
 21
173.0634669335
 31
0.0
  0
SPLINE
  5
142
330
1F
100
AcDbEntity
  8
0
  6
Continuous
 62
     8
370
    18
100
AcDbSpline
210
0.0
220
0.0
230
1.0
 70
     8
 71
     3
 72
    13
 73
     9
 74
     0
 42
0.000000001
 43
0.00000001
 40
0.0
 40
0.0
 40
0.0
 40
0.0
 40
0.1824184565252287
 40
0.3684970838255641
 40
0.5863794168917815
 40
0.8106022444440018
 40
0.9050531758793421
 40
1.0
 40
1.0
 40
1.0
 40
1.0
 10
198.6608806772003
 20
175.844529899046
 30
0.0
 10
198.7040131233126
 20
175.9432108974071
 30
0.0
 10
198.7911434549326
 20
176.1425528983083
 30
0.0
 10
198.9002597515028
 20
176.5055098389546
 30
0.0
 10
198.9882603789782
 20
176.9238118447915
 30
0.0
 10
199.0317896559504
 20
177.3025438811377
 30
0.0
 10
199.0483344032755
 20
177.5990745605441
 30
0.0
 10
199.049755218242
 20
177.7356177827891
 30
0.0
 10
199.0504674857571
 20
177.8040681467827
 30
0.0
  0
LINE
  5
143
330
1F
100
AcDbEntity
  8
0
  6
Continuous
 62
     8
370
    18
100
AcDbLine
 10
199.0504674858
 20
177.8040681468
 30
0.0
 11
203.6434871361
 21
177.8040681468
 31
0.0
  0
SPLINE
  5
144
330
1F
100
AcDbEntity
  8
0
  6
Continuous
 62
     8
370
    18
100
AcDbSpline
210
0.0
220
0.0
230
1.0
 70
     8
 71
     3
 72
    10
 73
     6
 74
     0
 42
0.000000001
 43
0.00000001
 40
0.0
 40
0.0
 40
0.0
 40
0.0
 40
0.3685481118005868
 40
0.8102303726273723
 40
1.0
 40
1.0
 40
1.0
 40
1.0
 10
203.2184575355982
 20
175.844529899046
 30
0.0
 10
203.3088765664643
 20
176.0514333818777
 30
0.0
 10
203.5076572486211
 20
176.5062979724834
 30
0.0
 10
203.6289963895416
 20
177.2144694106359
 30
0.0
 10
203.640138583309
 20
177.667822407556
 30
0.0
 10
203.6434871360632
 20
177.8040681467826
 30
0.0
  0
LWPOLYLINE
  5
145
330
1F
100
AcDbEntity
  8
0
  6
Continuous
 62
     8
370
    18
100
AcDbPolyline
 90
        9
 70
   128
 43
0.0
 10
198.6608806772
 20
175.844529899
 10
199.3203981547
 20
175.4780308907
 10
200.0166042018
 20
175.203337667
 10
200.717095135
 20
175.0332353398
 10
201.3892678389
 20
174.975641022
 10
202.0018372195
 20
175.0332353398
 10
202.526292315
 20
175.203337667
 10
202.9382232874
 20
175.4780308907
 10
203.2184575356
 20
175.844529899
  0
LINE
  5
146
330
1F
100
AcDbEntity
  8
0
  6
Continuous
 62
     8
370
    18
100
AcDbLine
 10
199.0504674858
 20
177.8040681468
 30
0.0
 11
199.0504674858
 21
275.8199937901
 31
0.0
  0
LINE
  5
147
330
1F
100
AcDbEntity
  8
0
  6
Continuous
 62
     8
370
    18
100
AcDbLine
 10
203.6434871361
 20
177.8040681468
 30
0.0
 11
203.6434871361
 21
275.8199937901
 31
0.0
  0
ARC
  5
148
330
1F
100
AcDbEntity
  8
0
  6
Continuous
 62
     8
370
    18
100
AcDbCircle
 10
197.847231355
 20
174.5442103776
 30
0.0
 40
1.533902238536621
100
AcDbArc
 50
57.9645373048
 51
87.4942494937
  0
LINE
  5
149
330
1F
100
AcDbEntity
  8
0
  6
Continuous
 62
     8
370
    18
100
AcDbLine
 10
198.2653019521
 20
177.8040681468
 30
0.0
 11
199.0504674858
 21
177.8040681468
 31
0.0
  0
LINE
  5
14A
330
1F
100
AcDbEntity
  8
0
  6
Continuous
 62
     8
370
    18
100
AcDbLine
 10
197.0883672768
 20
172.8145649428
 30
0.0
 11
198.6326791012
 21
175.7881794222
 31
0.0
  0
LINE
  5
14B
330
1F
100
AcDbEntity
  8
0
  6
Continuous
 62
     8
370
    18
100
AcDbLine
 10
198.6326791012
 20
175.7881794222
 30
0.0
 11
198.6608806772
 21
175.844529899
 31
0.0
  0
LWPOLYLINE
  5
14C
330
1F
100
AcDbEntity
  8
0
  6
Continuous
 62
     8
370
    18
100
AcDbPolyline
 90
        9
 70
   128
 43
0.0
 10
197.0883672768
 20
172.8145649428
 10
197.7485431509
 20
172.4471482705
 10
198.4456426023
 20
172.1717291834
 10
199.1471303063
 20
172.0011621591
 10
199.8202661281
 20
171.943407975
 10
200.433633184
 20
172.0011621591
 10
200.9586041436
 20
172.1717291834
 10
201.3706773373
 20
172.4471482705
 10
201.6506203082
 20
172.8145649428
  0
ARC
  5
14D
330
1F
100
AcDbEntity
  8
0
  6
Continuous
 62
     8
370
    18
100
AcDbCircle
 10
197.7994278305
 20
174.5309835491
 30
0.0
 40
1.508260303642073
100
AcDbArc
 50
56.4641575393
 51
86.4203540022
  0
ARC
  5
14E
330
1F
100
AcDbEntity
  8
0
  6
Continuous
 62
     8
370
    18
100
AcDbCircle
 10
196.253172207
 20
171.5568274921
 30
0.0
 40
1.509786176741022
100
AcDbArc
 50
56.41402475
 51
86.3001384421
  0
LINE
  5
14F
330
1F
100
AcDbEntity
  8
0
  6
Continuous
 62
     8
370
    18
100
AcDbLine
 10
206.0458522207
 20
169.0629952368
 30
0.0
 11
187.2200367797
 21
169.0629952368
 31
0.0
  0
SPLINE
  5
150
330
1F
100
AcDbEntity
  8
0
  6
Continuous
 62
     8
370
    18
100
AcDbSpline
210
0.0
220
0.0
230
1.0
 70
     8
 71
     3
 72
    12
 73
     8
 74
     0
 42
0.000000001
 43
0.00000001
 40
0.0
 40
0.0
 40
0.0
 40
0.0
 40
0.0797862317426029
 40
0.3095415207531469
 40
0.541690205148196
 40
0.7736841717595101
 40
0.9999999999999999
 40
0.9999999999999999
 40
0.9999999999999999
 40
0.9999999999999999
 10
197.0883672768459
 20
172.8145649427533
 30
0.0
 10
197.0543945139613
 20
172.7428792341372
 30
0.0
 10
196.9225925669612
 20
172.4647647928774
 30
0.0
 10
196.8569250109317
 20
171.9807146511395
 30
0.0
 10
197.0556021855139
 20
171.4573530344479
 30
0.0
 10
197.5016837112
 20
171.0707952164915
 30
0.0
 10
197.9550430016203
 20
170.9855709105419
 30
0.0
 10
198.1789142442919
 20
170.9434866923911
 30
0.0
  0
SPLINE
  5
151
330
1F
100
AcDbEntity
  8
0
  6
Continuous
 62
     8
370
    18
100
AcDbSpline
210
0.0
220
0.0
230
1.0
 70
     8
 71
     3
 72
    10
 73
     6
 74
     0
 42
0.000000001
 43
0.00000001
 40
0.0
 40
0.0
 40
0.0
 40
0.0
 40
0.1897235229223264
 40
0.6313599991498461
 40
1.0
 40
1.0
 40
1.0
 40
1.0
 10
204.0602300519021
 20
177.8040681467826
 30
0.0
 10
204.0573404303697
 20
177.6840044483315
 30
0.0
 10
204.0477243773885
 20
177.2844577005988
 30
0.0
 10
203.942970286153
 20
176.6602426370575
 30
0.0
 10
203.7714352628631
 20
176.2591330844643
 30
0.0
 10
203.6933944053037
 20
176.076645958166
 30
0.0
  0
ARC
  5
152
330
1F
100
AcDbEntity
  8
0
  6
Continuous
 62
     8
370
    18
100
AcDbCircle
 10
203.6517661059
 20
175.5598758829
 30
0.0
 40
0.5184440432622436
100
AcDbArc
 50
85.3944957582
 51
146.6978306145
  0
LINE
  5
153
330
1F
100
AcDbEntity
  8
0
  6
Continuous
 62
     8
370
    18
100
AcDbLine
 10
204.0602300519
 20
177.8040681468
 30
0.0
 11
203.6434871361
 21
177.8040681468
 31
0.0
  0
ARC
  5
154
330
1F
100
AcDbEntity
  8
0
  6
Continuous
 62
     8
370
    18
100
AcDbCircle
 10
202.1050297551
 20
172.5257408714
 30
0.0
 40
0.538430394352178
100
AcDbArc
 50
87.0690461725
 51
147.5598322727
  0
LINE
  5
155
330
1F
100
AcDbEntity
  8
0
  6
Continuous
 62
     8
370
    18
100
AcDbLine
 10
204.0602300519
 20
275.8199937901
 30
0.0
 11
204.0602300519
 21
177.8040681468
 31
0.0
  0
LINE
  5
156
330
1F
100
AcDbEntity
  8
0
  6
Continuous
 62
     8
370
    18
100
AcDbLine
 10
210.029234304
 20
177.8040681468
 30
0.0
 11
204.0602300519
 21
177.8040681468
 31
0.0
  0
LINE
  5
157
330
1F
100
AcDbEntity
  8
0
  6
Continuous
 62
     8
370
    18
100
AcDbLine
 10
203.6933944053
 20
176.0766459582
 30
0.0
 11
203.6731642419
 21
176.0363011938
 31
0.0
  0
ARC
  5
158
330
1F
100
AcDbEntity
  8
0
  6
Continuous
 62
     8
370
    18
100
AcDbCircle
 10
203.6440493345
 20
175.4972249533
 30
0.0
 40
0.5398618998700886
100
AcDbArc
 50
86.9085223329
 51
147.3883274647
  0
LINE
  5
159
330
1F
100
AcDbEntity
  8
0
  6
Continuous
 62
     8
370
    18
100
AcDbLine
 10
122.9547695788
 20
177.8040681468
 30
0.0
 11
121.7447028508
 21
177.8040681468
 31
0.0
  0
LINE
  5
15A
330
1F
100
AcDbEntity
  8
0
  6
Continuous
 62
     8
370
    18
100
AcDbLine
 10
123.7037152159
 20
176.0363011938
 30
0.0
 11
122.4775654906
 21
176.0363011938
 31
0.0
  0
LINE
  5
15B
330
1F
100
AcDbEntity
  8
0
  6
Continuous
 62
     8
370
    18
100
AcDbLine
 10
122.4380218801
 20
176.0766459582
 30
0.0
 11
122.4775654906
 21
176.0363011938
 31
0.0
  0
SPLINE
  5
15C
330
1F
100
AcDbEntity
  8
0
  6
Continuous
 62
     8
370
    18
100
AcDbSpline
210
0.0
220
0.0
230
1.0
 70
     8
 71
     3
 72
    10
 73
     6
 74
     0
 42
0.000000001
 43
0.00000001
 40
0.0
 40
0.0
 40
0.0
 40
0.0
 40
0.1897235229223266
 40
0.6313599991498478
 40
1.0
 40
1.0
 40
1.0
 40
1.0
 10
121.7447028508275
 20
177.8040681467826
 30
0.0
 10
121.7501644217562
 20
177.6840044483315
 30
0.0
 10
121.7683393816336
 20
177.2844577005988
 30
0.0
 10
121.9663351711052
 20
176.6602426370575
 30
0.0
 10
122.2905283196192
 20
176.2591330844643
 30
0.0
 10
122.4380218800578
 20
176.076645958166
 30
0.0
  0
LINE
  5
15D
330
1F
100
AcDbEntity
  8
0
  6
Continuous
 62
     8
370
    18
100
AcDbLine
 10
121.7447028508
 20
275.8199937901
 30
0.0
 11
121.7447028508
 21
177.8040681468
 31
0.0
  0
LINE
  5
15E
330
1F
100
AcDbEntity
  8
0
  6
Continuous
 62
     8
370
    18
100
AcDbLine
 10
130.5004423973
 20
169.4165486273
 30
0.0
 11
128.9080381167
 21
169.4165486273
 31
0.0
  0
SPLINE
  5
15F
330
1F
100
AcDbEntity
  8
0
  6
Continuous
 62
     8
370
    18
100
AcDbSpline
210
0.0
220
0.0
230
1.0
 70
     8
 71
     3
 72
    14
 73
    10
 74
     0
 42
0.000000001
 43
0.00000001
 40
0.0
 40
0.0
 40
0.0
 40
0.0
 40
0.1900864282407926
 40
0.3796025337158896
 40
0.5690656695893617
 40
0.7616425136838536
 40
0.9011477895960933
 40
0.9583442628328319
 40
1.0
 40
1.0
 40
1.0
 40
1.0
 10
125.4566478672012
 20
173.0634669335392
 30
0.0
 10
125.7179711218357
 20
172.7994146913562
 30
0.0
 10
126.2398335740695
 20
172.2721024518992
 30
0.0
 10
126.9111795977848
 20
171.5538170799285
 30
0.0
 10
127.4115216144588
 20
170.9951710383059
 30
0.0
 10
127.671777079756
 20
170.6863837806179
 30
0.0
 10
127.7069566587178
 20
170.6301379916943
 30
0.0
 10
127.6980117098765
 20
170.6297016467804
 30
0.0
 10
127.654112027296
 20
170.674008848062
 30
0.0
 10
127.6356129605394
 20
170.6926796407905
 30
0.0
  0
LINE
  5
160
330
1F
100
AcDbEntity
  8
0
  6
Continuous
 62
     8
370
    18
100
AcDbLine
 10
122.4775654906
 20
176.0363011938
 30
0.0
 11
125.4566478672
 21
173.0634669335
 31
0.0
  0
LINE
  5
161
330
1F
100
AcDbEntity
  8
0
  6
Continuous
 62
     8
370
    18
100
AcDbLine
 10
130.6514241549
 20
169.0629952368
 30
0.0
 11
129.0544847261
 21
169.0629952368
 31
0.0
  0
ARC
  5
162
330
1F
100
AcDbEntity
  8
0
  6
Continuous
 62
     8
370
    18
100
AcDbCircle
 10
123.7929896175
 20
174.1790386747
 30
0.0
 40
2.331705592893745
100
AcDbArc
 50
125.5283591851
 51
134.4157569804
  0
SPLINE
  5
163
330
1F
100
AcDbEntity
  8
0
  6
Continuous
 62
     8
370
    18
100
AcDbSpline
210
0.0
220
0.0
230
1.0
 70
     8
 71
     3
 72
    10
 73
     6
 74
     0
 42
0.000000001
 43
0.00000001
 40
0.0
 40
0.0
 40
0.0
 40
0.0
 40
0.3685481118005892
 40
0.810230372627373
 40
1.0
 40
1.0
 40
1.0
 40
1.0
 10
122.1611226028826
 20
175.844529899046
 30
0.0
 10
121.9938204507993
 20
176.0514333818778
 30
0.0
 10
121.6260169519248
 20
176.5062979724834
 30
0.0
 10
121.4013688221426
 20
177.2144694106359
 30
0.0
 10
121.3807434468348
 20
177.667822407556
 30
0.0
 10
121.3745449226721
 20
177.8040681467826
 30
0.0
  0
LINE
  5
164
330
1F
100
AcDbEntity
  8
0
  6
Continuous
 62
     8
370
    18
100
AcDbLine
 10
121.7447028508
 20
177.8040681468
 30
0.0
 11
121.3745449227
 21
177.8040681468
 31
0.0
  0
ARC
  5
165
330
1F
100
AcDbEntity
  8
0
  6
Continuous
 62
     8
370
    18
100
AcDbCircle
 10
129.3280551726
 20
168.7327731621
 30
0.0
 40
5.808846965307467
100
AcDbArc
 50
131.7950012957
 51
135.3571493388
  0
SPLINE
  5
166
330
1F
100
AcDbEntity
  8
0
  6
Continuous
 62
     8
370
    18
100
AcDbSpline
210
0.0
220
0.0
230
1.0
 70
     8
 71
     3
 72
    13
 73
     9
 74
     0
 42
0.000000001
 43
0.00000001
 40
0.0
 40
0.0
 40
0.0
 40
0.0
 40
0.0293233107385524
 40
0.1807412630892433
 40
0.3892664373960127
 40
0.5934382073405624
 40
0.7966884051829887
 40
1.0
 40
1.0
 40
1.0
 40
1.0
 10
126.9325915939887
 20
170.9281876647721
 30
0.0
 10
126.9350720345636
 20
170.9263650242304
 30
0.0
 10
126.950360825332
 20
170.915130741833
 30
0.0
 10
126.9109358587184
 20
170.9714638879492
 30
0.0
 10
126.7165816254184
 20
171.2033020476508
 30
0.0
 10
126.3265379818966
 20
171.639581998082
 30
0.0
 10
125.805058379904
 20
172.1981126274977
 30
0.0
 10
125.3984108575225
 20
172.6090601512394
 30
0.0
 10
125.1950563913713
 20
172.8145649427533
 30
0.0
  0
LINE
  5
167
330
1F
100
AcDbEntity
  8
0
  6
Continuous
 62
     8
370
    18
100
AcDbLine
 10
121.3745449227
 20
177.8040681468
 30
0.0
 11
121.3745449227
 21
275.8199937901
 31
0.0
  0
ARC
  5
168
330
1F
100
AcDbEntity
  8
0
  6
Continuous
 62
     8
370
    18
100
AcDbCircle
 10
126.2528677983
 20
171.8030577705
 30
0.0
 40
5.672147511811063
100
AcDbArc
 50
131.72730195
 51
135.365857513
  0
LINE
  5
169
330
1F
100
AcDbEntity
  8
0
  6
Continuous
 62
     8
370
    18
100
AcDbLine
 10
122.2165250457
 20
175.7881794222
 30
0.0
 11
122.1611226029
 21
175.844529899
 31
0.0
  0
LINE
  5
16A
330
1F
100
AcDbEntity
  8
0
  6
Continuous
 62
     8
370
    18
100
AcDbLine
 10
125.1950563914
 20
172.8145649428
 30
0.0
 11
122.2165250457
 21
175.7881794222
 31
0.0
  0
LINE
  5
16B
330
1F
100
AcDbEntity
  8
0
  6
Continuous
 62
     8
370
    18
100
AcDbLine
 10
120.0664154284
 20
177.8040681468
 30
0.0
 11
121.3745449227
 21
177.8040681468
 31
0.0
  0
ARC
  5
16C
330
1F
100
AcDbEntity
  8
0
  6
Continuous
 62
     8
370
    18
100
AcDbCircle
 10
113.0047734349
 20
184.6535274905
 30
0.0
 40
12.70579272039067
100
AcDbArc
 50
310.3883854259
 51
316.1076490892
  0
ARC
  5
16D
330
1F
100
AcDbEntity
  8
0
  6
Continuous
 62
     8
370
    18
100
AcDbCircle
 10
115.9921314095
 20
181.6695070526
 30
0.0
 40
12.77121090541545
100
AcDbArc
 50
310.3994547439
 51
316.1039776941
  0
LINE
  5
16E
330
1F
100
AcDbEntity
  8
0
  6
Continuous
 62
     8
370
    18
100
AcDbLine
 10
136.7160686939
 20
170.0253969577
 30
0.0
 11
132.0613016044
 21
170.0253969577
 31
0.0
  0
LINE
  5
16F
330
1F
100
AcDbEntity
  8
0
  6
Continuous
 62
     8
370
    18
100
AcDbLine
 10
217.6884593223
 20
170.0253969577
 30
0.0
 11
206.5692455182
 21
170.0253969577
 31
0.0
  0
LINE
  5
170
330
1F
100
AcDbEntity
  8
0
  6
Continuous
 62
     8
370
    18
100
AcDbLine
 10
186.5998552661
 20
170.0253969577
 30
0.0
 11
136.7160686939
 21
170.0253969577
 31
0.0
  0
LINE
  5
171
330
1F
100
AcDbEntity
  8
0
  6
Continuous
 62
     8
370
    18
100
AcDbLine
 10
136.8307132858
 20
169.5253969577
 30
0.0
 11
132.199733802
 21
169.5253969577
 31
0.0
  0
LINE
  5
172
330
1F
100
AcDbEntity
  8
0
  6
Continuous
 62
     8
370
    18
100
AcDbLine
 10
217.5544847261
 20
169.5253969577
 30
0.0
 11
206.3037345653
 21
169.5253969577
 31
0.0
  0
LINE
  5
173
330
1F
100
AcDbEntity
  8
0
  6
Continuous
 62
     8
370
    18
100
AcDbLine
 10
186.5015108147
 20
169.5253969577
 30
0.0
 11
136.8307132858
 21
169.5253969577
 31
0.0
  0
LINE
  5
174
330
1F
100
AcDbEntity
  8
0
  6
Continuous
 62
     8
370
    18
100
AcDbLine
 10
136.8307132858
 20
151.2377930813
 30
0.0
 11
130.5544847261
 21
151.2377930813
 31
0.0
  0
LINE
  5
175
330
1F
100
AcDbEntity
  8
0
  6
Continuous
 62
     8
370
    18
100
AcDbLine
 10
217.5544847261
 20
151.2377930813
 30
0.0
 11
136.8307132858
 21
151.2377930813
 31
0.0
  0
LINE
  5
176
330
1F
100
AcDbEntity
  8
0
  6
Continuous
 62
     8
370
    18
100
AcDbLine
 10
137.8808290973
 20
149.3931414352
 30
0.0
 11
131.7816585462
 21
149.3931414352
 31
0.0
  0
LINE
  5
177
330
1F
100
AcDbEntity
  8
0
  6
Continuous
 62
     8
370
    18
100
AcDbLine
 10
216.327310906
 20
149.3931414352
 30
0.0
 11
137.8808290973
 21
149.3931414352
 31
0.0
  0
LINE
  5
178
330
1F
100
AcDbEntity
  8
0
  6
Continuous
 62
     8
370
    18
100
AcDbLine
 10
196.0195468145
 20
135.5095568676
 30
0.0
 11
177.2164463128
 21
135.5095568676
 31
0.0
  0
LINE
  5
179
330
1F
100
AcDbEntity
  8
0
  6
Continuous
 62
     8
370
    18
100
AcDbLine
 10
171.780393498
 20
135.5095568676
 30
0.0
 11
152.1995666895
 21
135.5095568676
 31
0.0
  0
LINE
  5
17A
330
1F
100
AcDbEntity
  8
0
  6
Continuous
 62
     8
370
    18
100
AcDbLine
 10
-1.0748755248
 20
171.8914223615
 30
0.0
 11
-13.5748755248
 21
171.8914223615
 31
0.0
  0
LINE
  5
17B
330
1F
100
AcDbEntity
  8
0
  6
Continuous
 62
     8
370
    18
100
AcDbLine
 10
11.4251244752
 20
171.8914223615
 30
0.0
 11
-1.0748755248
 21
171.8914223615
 31
0.0
  0
LINE
  5
17C
330
1F
100
AcDbEntity
  8
0
  6
Continuous
 62
     8
370
    18
100
AcDbLine
 10
-23.7260931561
 20
178.7482041313
 30
0.0
 11
-23.7260931561
 21
80.0346405917
 31
0.0
  0
LINE
  5
17D
330
1F
100
AcDbEntity
  8
0
  6
Continuous
 62
     8
370
    18
100
AcDbLine
 10
-17.140123109
 20
158.4240461536
 30
0.0
 11
-17.140123109
 21
134.2559047447
 31
0.0
  0
LINE
  5
17E
330
1F
100
AcDbEntity
  8
0
  6
Continuous
 62
     8
370
    18
100
AcDbLine
 10
-17.140123109
 20
124.5269399783
 30
0.0
 11
-17.140123109
 21
100.3587985694
 31
0.0
  0
LINE
  5
17F
330
1F
100
AcDbEntity
  8
0
  6
Continuous
 62
     8
370
    18
100
AcDbLine
 10
-13.8388075473
 20
156.5490685674
 30
0.0
 11
-13.8388075473
 21
134.2559047447
 31
0.0
  0
LINE
  5
180
330
1F
100
AcDbEntity
  8
0
  6
Continuous
 62
     8
370
    18
100
AcDbLine
 10
-13.8388075473
 20
124.5269399783
 30
0.0
 11
-13.8388075473
 21
102.2337761556
 31
0.0
  0
LINE
  5
181
330
1F
100
AcDbEntity
  8
0
  6
Continuous
 62
     8
370
    18
100
AcDbLine
 10
191.9251244752
 20
124.0914223615
 30
0.0
 11
155.9251244752
 21
124.0914223615
 31
0.0
  0
LINE
  5
182
330
1F
100
AcDbEntity
  8
0
  6
Continuous
 62
     8
370
    18
100
AcDbLine
 10
190.6751244752
 20
112.8914223615
 30
0.0
 11
157.7213440521
 21
112.8914223615
 31
0.0
  0
LINE
  5
183
330
1F
100
AcDbEntity
  8
0
  6
Continuous
 62
     8
370
    18
100
AcDbLine
 10
188.9251244752
 20
106.3914223615
 30
0.0
 11
158.9251244752
 21
106.3914223615
 31
0.0
  0
LINE
  5
184
330
1F
100
AcDbEntity
  8
0
  6
Continuous
 62
     8
370
    18
100
AcDbLine
 10
160.8144261924
 20
104.3944882389
 30
0.0
 11
187.035822758
 21
104.3944882389
 31
0.0
  0
LINE
  5
185
330
1F
100
AcDbEntity
  8
0
  6
Continuous
 62
     8
370
    18
100
AcDbLine
 10
-10.6710279475
 20
133.9875747842
 30
0.0
 11
-10.6710279475
 21
124.7952699388
 31
0.0
  0
ENDSEC
  0
SECTION
  2
OBJECTS
  0
DICTIONARY
  5
C
330
0
100
AcDbDictionary
281
     1
  3
ACAD_DETAILVIEWSTYLE
350
18D
  3
ACAD_GROUP
350
D
  3
ACAD_LAYOUT
350
1A
  3
ACAD_MATERIAL
350
43
  3
ACAD_MLEADERSTYLE
350
6B
  3
ACAD_MLINESTYLE
350
17
  3
ACAD_PLOTSETTINGS
350
19
  3
ACAD_PLOTSTYLENAME
350
E
  3
ACAD_SCALELIST
350
47
  3
ACAD_SECTIONVIEWSTYLE
350
18E
  3
ACAD_TABLESTYLE
350
69
  3
ACAD_VISUALSTYLE
350
2A
  3
ACDB_RECOMPOSE_DATA
350
18A
  3
AcDbVariableDictionary
350
186
  0
SUN
  5
6D
330
29
100
AcDbSun
 90
        1
290
     0
 63
     7
421
 16777215
 40
1.0
291
     1
 91
  2455826
 92
 54000000
292
     0
 70
     2
 71
   256
280
     1
  0
DICTIONARY
  5
18D
102
{ACAD_REACTORS
330
C
102
}
330
C
100
AcDbDictionary
281
     1
  0
DICTIONARY
  5
D
102
{ACAD_REACTORS
330
C
102
}
330
C
100
AcDbDictionary
281
     1
  0
DICTIONARY
  5
1A
102
{ACAD_REACTORS
330
C
102
}
330
C
100
AcDbDictionary
281
     1
  3
Layout1
350
1E
  3
Layout2
350
26
  3
Model
350
22
  0
DICTIONARY
  5
43
102
{ACAD_REACTORS
330
C
102
}
330
C
100
AcDbDictionary
281
     1
  3
ByBlock
350
45
  3
ByLayer
350
44
  3
Global
350
46
  0
DICTIONARY
  5
6B
102
{ACAD_REACTORS
330
C
102
}
330
C
100
AcDbDictionary
281
     1
  3
Standard
350
6C
  0
DICTIONARY
  5
17
102
{ACAD_REACTORS
330
C
102
}
330
C
100
AcDbDictionary
281
     1
  3
Standard
350
18
  0
DICTIONARY
  5
19
102
{ACAD_REACTORS
330
C
102
}
330
C
100
AcDbDictionary
281
     1
  0
ACDBDICTIONARYWDFLT
  5
E
102
{ACAD_REACTORS
330
C
102
}
330
C
100
AcDbDictionary
281
     1
  3
Normal
350
F
100
AcDbDictionaryWithDefault
340
F
  0
DICTIONARY
  5
47
102
{ACAD_REACTORS
330
C
102
}
330
C
100
AcDbDictionary
281
     1
  3
A0
350
48
  3
A1
350
49
  3
A2
350
4A
  3
A3
350
4B
  3
A4
350
4C
  3
A5
350
4D
  3
A6
350
4E
  3
A7
350
4F
  3
A8
350
50
  3
A9
350
51
  3
B0
350
52
  3
B1
350
53
  3
B2
350
54
  3
B3
350
55
  3
B4
350
56
  3
B5
350
57
  3
B6
350
58
  3
B7
350
59
  3
B8
350
5A
  3
B9
350
5B
  3
C0
350
5C
  3
C1
350
5D
  3
C2
350
5E
  3
C3
350
5F
  3
C4
350
60
  3
C5
350
61
  3
C6
350
62
  3
C7
350
63
  3
C8
350
64
  3
C9
350
65
  3
D0
350
66
  3
D1
350
67
  3
D2
350
68
  0
DICTIONARY
  5
18E
102
{ACAD_REACTORS
330
C
102
}
330
C
100
AcDbDictionary
281
     1
  0
DICTIONARY
  5
69
102
{ACAD_REACTORS
330
C
102
}
330
C
100
AcDbDictionary
281
     1
  3
Standard
350
6A
  0
DICTIONARY
  5
2A
102
{ACAD_REACTORS
330
C
102
}
330
C
100
AcDbDictionary
281
     1
  3
2dWireframe
350
2F
  3
Basic
350
32
  3
Brighten
350
36
  3
ColorChange
350
3A
  3
Conceptual
350
34
  3
Dim
350
35
  3
EdgeColorOff
350
3D
  3
Facepattern
350
39
  3
Flat
350
2B
  3
FlatWithEdges
350
2C
  3
Gouraud
350
2D
  3
GouraudWithEdges
350
2E
  3
Hidden
350
31
  3
JitterOff
350
3B
  3
Linepattern
350
38
  3
OverhangOff
350
3C
  3
Realistic
350
33
  3
Shaded
350
42
  3
Shaded with edges
350
41
  3
Shades of Gray
350
3E
  3
Sketchy
350
3F
  3
Thicken
350
37
  3
Wireframe
350
30
  3
X-Ray
350
40
  0
XRECORD
  5
18A
102
{ACAD_REACTORS
330
C
102
}
330
C
100
AcDbXrecord
280
     1
 90
        1
330
6A
  0
DICTIONARY
  5
186
102
{ACAD_REACTORS
330
C
102
}
330
C
100
AcDbDictionary
281
     1
  3
CANNOSCALE
350
187
  3
CENTEREXE
350
18F
  3
CENTERLTYPEFILE
350
190
  3
CMLEADERSTYLE
350
18C
  3
CTABLESTYLE
350
18B
  0
LAYOUT
  5
1E
102
{ACAD_REACTORS
330
1A
102
}
330
1A
100
AcDbPlotSettings
  1

  2
none_device
  4

  6

 40
0.0
 41
0.0
 42
0.0
 43
0.0
 44
0.0
 45
0.0
 46
0.0
 47
0.0
 48
0.0
 49
0.0
140
0.0
141
0.0
142
1.0
143
1.0
 70
   688
 72
     1
 73
     0
 74
     5
  7

 75
    16
 76
     0
 77
     2
 78
   300
147
1.0
148
0.0
149
0.0
100
AcDbLayout
  1
Layout1
 70
     1
 71
     1
 10
0.0
 20
0.0
 11
420.0
 21
297.0
 12
0.0
 22
0.0
 32
0.0
 14
1.0000000000E+20
 24
1.0000000000E+20
 34
1.0000000000E+20
 15
-1.0000000000E+20
 25
-1.0000000000E+20
 35
-1.0000000000E+20
146
0.0
 13
0.0
 23
0.0
 33
0.0
 16
1.0
 26
0.0
 36
0.0
 17
0.0
 27
1.0
 37
0.0
 76
     0
330
1B
  0
LAYOUT
  5
26
102
{ACAD_REACTORS
330
1A
102
}
330
1A
100
AcDbPlotSettings
  1

  2
none_device
  4

  6

 40
0.0
 41
0.0
 42
0.0
 43
0.0
 44
0.0
 45
0.0
 46
0.0
 47
0.0
 48
0.0
 49
0.0
140
0.0
141
0.0
142
1.0
143
1.0
 70
   688
 72
     1
 73
     0
 74
     5
  7

 75
    16
 76
     0
 77
     2
 78
   300
147
1.0
148
0.0
149
0.0
100
AcDbLayout
  1
Layout2
 70
     1
 71
     2
 10
0.0
 20
0.0
 11
0.0
 21
0.0
 12
0.0
 22
0.0
 32
0.0
 14
0.0
 24
0.0
 34
0.0
 15
0.0
 25
0.0
 35
0.0
146
0.0
 13
0.0
 23
0.0
 33
0.0
 16
1.0
 26
0.0
 36
0.0
 17
0.0
 27
1.0
 37
0.0
 76
     0
330
23
  0
LAYOUT
  5
22
102
{ACAD_REACTORS
330
1A
102
}
330
1A
100
AcDbPlotSettings
  1

  2
none_device
  4
Letter_(8.50_x_11.00_Inches)
  6

 40
6.35
 41
6.35
 42
6.35000508
 43
6.35000508
 44
215.9
 45
279.4
 46
0.0
 47
0.0
 48
0.0
 49
0.0
140
0.0
141
0.0
142
1.0
143
1.0
 70
  1712
 72
     1
 73
     0
 74
     0
  7

 75
     0
 76
     0
 77
     2
 78
   300
147
1.0
148
0.0
149
0.0
100
AcDbLayout
  1
Model
 70
     1
 71
     0
 10
0.0
 20
0.0
 11
210.0
 21
297.0
 12
0.0
 22
0.0
 32
0.0
 14
0.0
 24
0.0
 34
0.0
 15
210.0
 25
297.0
 35
0.0
146
0.0
 13
0.0
 23
0.0
 33
0.0
 16
1.0
 26
0.0
 36
0.0
 17
0.0
 27
1.0
 37
0.0
 76
     0
330
1F
331
29
  0
MATERIAL
  5
45
102
{ACAD_REACTORS
330
43
102
}
330
43
100
AcDbMaterial
  1
ByBlock
 72
     1
 94
      127
  0
MATERIAL
  5
44
102
{ACAD_REACTORS
330
43
102
}
330
43
100
AcDbMaterial
  1
ByLayer
 72
     1
 94
      127
  0
MATERIAL
  5
46
102
{ACAD_REACTORS
330
43
102
}
330
43
100
AcDbMaterial
  1
Global
 72
     1
 94
      127
  0
MLEADERSTYLE
  5
6C
102
{ACAD_REACTORS
330
6B
102
}
330
6B
100
AcDbMLeaderStyle
179
     2
170
     2
171
     1
172
     0
 90
        2
 40
0.0
 41
0.0
173
     1
 91
-1056964608
340
14
 92
       -2
290
     1
 42
2.0
291
     1
 43
8.0
  3
Standard
341
0
 44
4.0
300

342
11
174
     1
178
     6
175
     1
176
     0
 93
-1056964608
 45
4.0
292
     0
297
     0
 46
4.0
343
0
 94
-1056964608
 47
1.0
 49
1.0
140
1.0
293
     1
141
0.0
294
     1
177
     0
142
1.0
295
     0
296
     0
143
3.75
271
     0
272
     9
273
     9
  0
MLINESTYLE
  5
18
102
{ACAD_REACTORS
330
17
102
}
330
17
100
AcDbMlineStyle
  2
Standard
 70
     0
  3

 62
   256
 51
90.0
 52
90.0
 71
     2
 49
0.5
 62
   256
  6
BYLAYER
 49
-0.5
 62
   256
  6
BYLAYER
  0
ACDBPLACEHOLDER
  5
F
102
{ACAD_REACTORS
330
E
102
}
330
E
  0
SCALE
  5
48
102
{ACAD_REACTORS
330
47
102
}
330
47
100
AcDbScale
 70
     0
300
1:1
140
1.0
141
1.0
290
     1
  0
SCALE
  5
49
102
{ACAD_REACTORS
330
47
102
}
330
47
100
AcDbScale
 70
     0
300
1:2
140
1.0
141
2.0
290
     0
  0
SCALE
  5
4A
102
{ACAD_REACTORS
330
47
102
}
330
47
100
AcDbScale
 70
     0
300
1:4
140
1.0
141
4.0
290
     0
  0
SCALE
  5
4B
102
{ACAD_REACTORS
330
47
102
}
330
47
100
AcDbScale
 70
     0
300
1:5
140
1.0
141
5.0
290
     0
  0
SCALE
  5
4C
102
{ACAD_REACTORS
330
47
102
}
330
47
100
AcDbScale
 70
     0
300
1:8
140
1.0
141
8.0
290
     0
  0
SCALE
  5
4D
102
{ACAD_REACTORS
330
47
102
}
330
47
100
AcDbScale
 70
     0
300
1:10
140
1.0
141
10.0
290
     0
  0
SCALE
  5
4E
102
{ACAD_REACTORS
330
47
102
}
330
47
100
AcDbScale
 70
     0
300
1:16
140
1.0
141
16.0
290
     0
  0
SCALE
  5
4F
102
{ACAD_REACTORS
330
47
102
}
330
47
100
AcDbScale
 70
     0
300
1:20
140
1.0
141
20.0
290
     0
  0
SCALE
  5
50
102
{ACAD_REACTORS
330
47
102
}
330
47
100
AcDbScale
 70
     0
300
1:30
140
1.0
141
30.0
290
     0
  0
SCALE
  5
51
102
{ACAD_REACTORS
330
47
102
}
330
47
100
AcDbScale
 70
     0
300
1:40
140
1.0
141
40.0
290
     0
  0
SCALE
  5
52
102
{ACAD_REACTORS
330
47
102
}
330
47
100
AcDbScale
 70
     0
300
1:50
140
1.0
141
50.0
290
     0
  0
SCALE
  5
53
102
{ACAD_REACTORS
330
47
102
}
330
47
100
AcDbScale
 70
     0
300
1:100
140
1.0
141
100.0
290
     0
  0
SCALE
  5
54
102
{ACAD_REACTORS
330
47
102
}
330
47
100
AcDbScale
 70
     0
300
2:1
140
2.0
141
1.0
290
     0
  0
SCALE
  5
55
102
{ACAD_REACTORS
330
47
102
}
330
47
100
AcDbScale
 70
     0
300
4:1
140
4.0
141
1.0
290
     0
  0
SCALE
  5
56
102
{ACAD_REACTORS
330
47
102
}
330
47
100
AcDbScale
 70
     0
300
8:1
140
8.0
141
1.0
290
     0
  0
SCALE
  5
57
102
{ACAD_REACTORS
330
47
102
}
330
47
100
AcDbScale
 70
     0
300
10:1
140
10.0
141
1.0
290
     0
  0
SCALE
  5
58
102
{ACAD_REACTORS
330
47
102
}
330
47
100
AcDbScale
 70
     0
300
100:1
140
100.0
141
1.0
290
     0
  0
SCALE
  5
59
102
{ACAD_REACTORS
330
47
102
}
330
47
100
AcDbScale
 70
     0
300
1/128" = 1'-0"
140
0.0078125
141
12.0
290
     0
  0
SCALE
  5
5A
102
{ACAD_REACTORS
330
47
102
}
330
47
100
AcDbScale
 70
     0
300
1/64" = 1'-0"
140
0.015625
141
12.0
290
     0
  0
SCALE
  5
5B
102
{ACAD_REACTORS
330
47
102
}
330
47
100
AcDbScale
 70
     0
300
1/32" = 1'-0"
140
0.03125
141
12.0
290
     0
  0
SCALE
  5
5C
102
{ACAD_REACTORS
330
47
102
}
330
47
100
AcDbScale
 70
     0
300
1/16" = 1'-0"
140
0.0625
141
12.0
290
     0
  0
SCALE
  5
5D
102
{ACAD_REACTORS
330
47
102
}
330
47
100
AcDbScale
 70
     0
300
3/32" = 1'-0"
140
0.09375
141
12.0
290
     0
  0
SCALE
  5
5E
102
{ACAD_REACTORS
330
47
102
}
330
47
100
AcDbScale
 70
     0
300
1/8" = 1'-0"
140
0.125
141
12.0
290
     0
  0
SCALE
  5
5F
102
{ACAD_REACTORS
330
47
102
}
330
47
100
AcDbScale
 70
     0
300
3/16" = 1'-0"
140
0.1875
141
12.0
290
     0
  0
SCALE
  5
60
102
{ACAD_REACTORS
330
47
102
}
330
47
100
AcDbScale
 70
     0
300
1/4" = 1'-0"
140
0.25
141
12.0
290
     0
  0
SCALE
  5
61
102
{ACAD_REACTORS
330
47
102
}
330
47
100
AcDbScale
 70
     0
300
3/8" = 1'-0"
140
0.375
141
12.0
290
     0
  0
SCALE
  5
62
102
{ACAD_REACTORS
330
47
102
}
330
47
100
AcDbScale
 70
     0
300
1/2" = 1'-0"
140
0.5
141
12.0
290
     0
  0
SCALE
  5
63
102
{ACAD_REACTORS
330
47
102
}
330
47
100
AcDbScale
 70
     0
300
3/4" = 1'-0"
140
0.75
141
12.0
290
     0
  0
SCALE
  5
64
102
{ACAD_REACTORS
330
47
102
}
330
47
100
AcDbScale
 70
     0
300
1" = 1'-0"
140
1.0
141
12.0
290
     0
  0
SCALE
  5
65
102
{ACAD_REACTORS
330
47
102
}
330
47
100
AcDbScale
 70
     0
300
1-1/2" = 1'-0"
140
1.5
141
12.0
290
     0
  0
SCALE
  5
66
102
{ACAD_REACTORS
330
47
102
}
330
47
100
AcDbScale
 70
     0
300
3" = 1'-0"
140
3.0
141
12.0
290
     0
  0
SCALE
  5
67
102
{ACAD_REACTORS
330
47
102
}
330
47
100
AcDbScale
 70
     0
300
6" = 1'-0"
140
6.0
141
12.0
290
     0
  0
SCALE
  5
68
102
{ACAD_REACTORS
330
47
102
}
330
47
100
AcDbScale
 70
     0
300
1'-0" = 1'-0"
140
12.0
141
12.0
290
     0
  0
TABLESTYLE
  5
6A
102
{ACAD_REACTORS
330
69
102
}
102
{ACAD_XDICTIONARY
360
188
102
}
330
69
100
AcDbTableStyle
  3
Standard
 70
     0
 71
     0
 40
0.06
 41
0.06
280
     0
281
     0
  7
Standard
140
4.5
170
     2
 62
     0
 63
   257
283
     0
 90
        4
 91
        0
  1

274
    -2
284
     1
 64
     0
275
    -2
285
     1
 65
     0
276
    -2
286
     1
 66
     0
277
    -2
287
     1
 67
     0
278
    -2
288
     1
 68
     0
279
    -2
289
     1
 69
     0
  7
Standard
140
6.0
170
     5
 62
     0
 63
   257
283
     0
 90
        4
 91
        0
  1

274
    -2
284
     1
 64
     0
275
    -2
285
     1
 65
     0
276
    -2
286
     1
 66
     0
277
    -2
287
     1
 67
     0
278
    -2
288
     1
 68
     0
279
    -2
289
     1
 69
     0
  7
Standard
140
4.5
170
     5
 62
     0
 63
   257
283
     0
 90
        4
 91
        0
  1

274
    -2
284
     1
 64
     0
275
    -2
285
     1
 65
     0
276
    -2
286
     1
 66
     0
277
    -2
287
     1
 67
     0
278
    -2
288
     1
 68
     0
279
    -2
289
     1
 69
     0
  0
VISUALSTYLE
  5
2F
102
{ACAD_REACTORS
330
2A
102
}
330
2A
100
AcDbVisualStyle
  2
2dWireframe
 70
     4
177
     2
291
     0
 71
     0
176
     1
 72
     2
176
     1
 73
     0
176
     1
 90
        0
176
     1
 40
0.6
176
     1
 41
30.0
176
     1
 62
     5
 63
     7
421
 16777215
176
     1
 74
     1
176
     1
 91
        4
176
     1
 64
     7
176
     1
 65
   257
176
     1
 75
     1
176
     1
175
     1
176
     1
 42
1.0
176
     1
 92
        0
176
     1
 66
   257
176
     1
 43
1.0
176
     1
 76
     1
176
     1
 77
     6
176
     1
 78
     2
176
     1
 67
     7
176
     1
 79
     5
176
     1
170
     0
176
     1
171
     0
176
     1
290
     0
176
     1
 93
        1
176
     1
 44
0.0
176
     1
173
     0
176
     1
  0
VISUALSTYLE
  5
32
102
{ACAD_REACTORS
330
2A
102
}
330
2A
100
AcDbVisualStyle
  2
Basic
 70
     7
177
     2
291
     1
 71
     1
176
     1
 72
     0
176
     1
 73
     1
176
     1
 90
        0
176
     1
 40
0.6
176
     1
 41
30.0
176
     1
 62
     5
 63
     7
421
 16777215
176
     1
 74
     0
176
     1
 91
        4
176
     1
 64
     7
176
     1
 65
   257
176
     1
 75
     1
176
     1
175
     1
176
     1
 42
1.0
176
     1
 92
        8
176
     1
 66
     7
176
     1
 43
1.0
176
     1
 76
     1
176
     1
 77
     6
176
     1
 78
     2
176
     1
 67
     7
176
     1
 79
     5
176
     1
170
     0
176
     1
171
     0
176
     1
290
     0
176
     1
 93
        1
176
     1
 44
0.0
176
     1
173
     0
176
     1
  0
VISUALSTYLE
  5
36
102
{ACAD_REACTORS
330
2A
102
}
330
2A
100
AcDbVisualStyle
  2
Brighten
 70
    12
177
     2
291
     1
 71
     2
176
     1
 72
     2
176
     1
 73
     0
176
     1
 90
        0
176
     1
 40
0.6
176
     1
 41
30.0
176
     1
 62
     5
 63
     7
421
 16777215
176
     1
 74
     1
176
     1
 91
        4
176
     1
 64
     7
176
     1
 65
   257
176
     1
 75
     1
176
     1
175
     1
176
     1
 42
1.0
176
     1
 92
        8
176
     1
 66
     7
176
     1
 43
1.0
176
     1
 76
     1
176
     1
 77
     6
176
     1
 78
     2
176
     1
 67
     7
176
     1
 79
     5
176
     1
170
     0
176
     1
171
     0
176
     1
290
     0
176
     1
 93
        1
176
     1
 44
50.0
176
     1
173
     0
176
     1
  0
VISUALSTYLE
  5
3A
102
{ACAD_REACTORS
330
2A
102
}
330
2A
100
AcDbVisualStyle
  2
ColorChange
 70
    16
177
     2
291
     1
 71
     2
176
     1
 72
     2
176
     1
 73
     3
176
     1
 90
        0
176
     1
 40
0.6
176
     1
 41
30.0
176
     1
 62
     5
 63
     8
421
  8421504
176
     1
 74
     1
176
     1
 91
        4
176
     1
 64
     7
176
     1
 65
   257
176
     1
 75
     1
176
     1
175
     1
176
     1
 42
1.0
176
     1
 92
        8
176
     1
 66
     8
424
  8421504
176
     1
 43
1.0
176
     1
 76
     1
176
     1
 77
     6
176
     1
 78
     2
176
     1
 67
     7
176
     1
 79
     5
176
     1
170
     0
176
     1
171
     0
176
     1
290
     0
176
     1
 93
        1
176
     1
 44
0.0
176
     1
173
     0
176
     1
  0
VISUALSTYLE
  5
34
102
{ACAD_REACTORS
330
2A
102
}
330
2A
100
AcDbVisualStyle
  2
Conceptual
 70
     9
177
     2
291
     0
 71
     3
176
     1
 72
     2
176
     1
 73
     0
176
     1
 90
        0
176
     1
 40
0.6
176
     1
 41
30.0
176
     1
 62
     5
 63
     7
421
 16777215
176
     1
 74
     2
176
     1
 91
        2
176
     1
 64
     7
176
     1
 65
   257
176
     1
 75
     1
176
     1
175
     1
176
     1
 42
179.0
176
     1
 92
        8
176
     1
 66
     7
176
     1
 43
1.0
176
     1
 76
     1
176
     1
 77
     6
176
     1
 78
     2
176
     1
 67
     7
176
     1
 79
     3
176
     1
170
     0
176
     1
171
     0
176
     1
290
     0
176
     1
 93
        1
176
     1
 44
0.0
176
     1
173
     0
176
     1
  0
VISUALSTYLE
  5
35
102
{ACAD_REACTORS
330
2A
102
}
330
2A
100
AcDbVisualStyle
  2
Dim
 70
    11
177
     2
291
     1
 71
     2
176
     1
 72
     2
176
     1
 73
     0
176
     1
 90
        0
176
     1
 40
0.6
176
     1
 41
30.0
176
     1
 62
     5
 63
     7
421
 16777215
176
     1
 74
     1
176
     1
 91
        4
176
     1
 64
     7
176
     1
 65
   257
176
     1
 75
     1
176
     1
175
     1
176
     1
 42
1.0
176
     1
 92
        8
176
     1
 66
     7
176
     1
 43
1.0
176
     1
 76
     1
176
     1
 77
     6
176
     1
 78
     2
176
     1
 67
     7
176
     1
 79
     5
176
     1
170
     0
176
     1
171
     0
176
     1
290
     0
176
     1
 93
        1
176
     1
 44
-50.0
176
     1
173
     0
176
     1
  0
VISUALSTYLE
  5
3D
102
{ACAD_REACTORS
330
2A
102
}
330
2A
100
AcDbVisualStyle
  2
EdgeColorOff
 70
    22
177
     2
291
     1
 71
     2
176
     0
 72
     2
176
     0
 73
     0
176
     0
 90
        0
176
     0
 40
0.6
176
     0
 41
30.0
176
     0
 62
     5
 63
     7
421
 16777215
176
     0
 74
     1
176
     0
 91
        4
176
     0
 64
     7
176
     0
 65
   257
176
     0
 75
     1
176
     0
175
     1
176
     0
 42
1.0
176
     0
 92
        8
176
     2
 66
     7
176
     0
 43
1.0
176
     0
 76
     1
176
     0
 77
     6
176
     0
 78
     2
176
     0
 67
     7
176
     0
 79
     5
176
     0
170
     0
176
     0
171
     0
176
     0
290
     0
176
     0
 93
        1
176
     0
 44
0.0
176
     0
173
     0
176
     0
  0
VISUALSTYLE
  5
39
102
{ACAD_REACTORS
330
2A
102
}
330
2A
100
AcDbVisualStyle
  2
Facepattern
 70
    15
177
     2
291
     1
 71
     2
176
     1
 72
     2
176
     1
 73
     0
176
     1
 90
        0
176
     1
 40
0.6
176
     1
 41
30.0
176
     1
 62
     5
 63
     7
421
 16777215
176
     1
 74
     1
176
     1
 91
        4
176
     1
 64
     7
176
     1
 65
   257
176
     1
 75
     1
176
     1
175
     1
176
     1
 42
1.0
176
     1
 92
        8
176
     1
 66
     7
176
     1
 43
1.0
176
     1
 76
     1
176
     1
 77
     6
176
     1
 78
     2
176
     1
 67
     7
176
     1
 79
     5
176
     1
170
     0
176
     1
171
     0
176
     1
290
     0
176
     1
 93
        1
176
     1
 44
0.0
176
     1
173
     0
176
     1
  0
VISUALSTYLE
  5
2B
102
{ACAD_REACTORS
330
2A
102
}
330
2A
100
AcDbVisualStyle
  2
Flat
 70
     0
177
     2
291
     1
 71
     2
176
     1
 72
     1
176
     1
 73
     1
176
     1
 90
        2
176
     1
 40
0.6
176
     1
 41
30.0
176
     1
 62
     5
 63
     7
421
 16777215
176
     1
 74
     0
176
     1
 91
        0
176
     1
 64
     7
176
     1
 65
   257
176
     1
 75
     1
176
     1
175
     1
176
     1
 42
1.0
176
     1
 92
        8
176
     1
 66
     7
176
     1
 43
1.0
176
     1
 76
     1
176
     1
 77
     6
176
     1
 78
     2
176
     1
 67
     7
176
     1
 79
     5
176
     1
170
     0
176
     1
171
     0
176
     1
290
     0
176
     1
 93
       13
176
     1
 44
0.0
176
     1
173
     0
176
     1
  0
VISUALSTYLE
  5
2C
102
{ACAD_REACTORS
330
2A
102
}
330
2A
100
AcDbVisualStyle
  2
FlatWithEdges
 70
     1
177
     2
291
     1
 71
     2
176
     1
 72
     1
176
     1
 73
     1
176
     1
 90
        2
176
     1
 40
0.6
176
     1
 41
30.0
176
     1
 62
     5
 63
     7
421
 16777215
176
     1
 74
     1
176
     1
 91
        0
176
     1
 64
     7
176
     1
 65
   257
176
     1
 75
     1
176
     1
175
     1
176
     1
 42
1.0
176
     1
 92
        0
176
     1
 66
   257
176
     1
 43
1.0
176
     1
 76
     1
176
     1
 77
     6
176
     1
 78
     2
176
     1
 67
     7
176
     1
 79
     5
176
     1
170
     0
176
     1
171
     0
176
     1
290
     0
176
     1
 93
       13
176
     1
 44
0.0
176
     1
173
     0
176
     1
  0
VISUALSTYLE
  5
2D
102
{ACAD_REACTORS
330
2A
102
}
330
2A
100
AcDbVisualStyle
  2
Gouraud
 70
     2
177
     2
291
     1
 71
     2
176
     1
 72
     2
176
     1
 73
     1
176
     1
 90
        2
176
     1
 40
0.6
176
     1
 41
30.0
176
     1
 62
     5
 63
     7
421
 16777215
176
     1
 74
     0
176
     1
 91
        0
176
     1
 64
     7
176
     1
 65
   257
176
     1
 75
     1
176
     1
175
     1
176
     1
 42
1.0
176
     1
 92
        0
176
     1
 66
     7
176
     1
 43
1.0
176
     1
 76
     1
176
     1
 77
     6
176
     1
 78
     2
176
     1
 67
     7
176
     1
 79
     5
176
     1
170
     0
176
     1
171
     0
176
     1
290
     0
176
     1
 93
       13
176
     1
 44
0.0
176
     1
173
     0
176
     1
  0
VISUALSTYLE
  5
2E
102
{ACAD_REACTORS
330
2A
102
}
330
2A
100
AcDbVisualStyle
  2
GouraudWithEdges
 70
     3
177
     2
291
     1
 71
     2
176
     1
 72
     2
176
     1
 73
     1
176
     1
 90
        2
176
     1
 40
0.6
176
     1
 41
30.0
176
     1
 62
     5
 63
     7
421
 16777215
176
     1
 74
     1
176
     1
 91
        0
176
     1
 64
     7
176
     1
 65
   257
176
     1
 75
     1
176
     1
175
     1
176
     1
 42
1.0
176
     1
 92
        0
176
     1
 66
   257
176
     1
 43
1.0
176
     1
 76
     1
176
     1
 77
     6
176
     1
 78
     2
176
     1
 67
     7
176
     1
 79
     5
176
     1
170
     0
176
     1
171
     0
176
     1
290
     0
176
     1
 93
       13
176
     1
 44
0.0
176
     1
173
     0
176
     1
  0
VISUALSTYLE
  5
31
102
{ACAD_REACTORS
330
2A
102
}
330
2A
100
AcDbVisualStyle
  2
Hidden
 70
     6
177
     2
291
     0
 71
     1
176
     1
 72
     2
176
     1
 73
     2
176
     1
 90
        0
176
     1
 40
0.6
176
     1
 41
30.0
176
     1
 62
     5
 63
     7
421
 16777215
176
     1
 74
     2
176
     1
 91
        2
176
     1
 64
     7
176
     1
 65
   257
176
     1
 75
     2
176
     1
175
     1
176
     1
 42
40.0
176
     1
 92
        0
176
     1
 66
   257
176
     1
 43
1.0
176
     1
 76
     1
176
     1
 77
     6
176
     1
 78
     2
176
     1
 67
     7
176
     1
 79
     3
176
     1
170
     0
176
     1
171
     0
176
     1
290
     0
176
     1
 93
        1
176
     1
 44
0.0
176
     1
173
     0
176
     1
  0
VISUALSTYLE
  5
3B
102
{ACAD_REACTORS
330
2A
102
}
330
2A
100
AcDbVisualStyle
  2
JitterOff
 70
    20
177
     2
291
     1
 71
     2
176
     0
 72
     2
176
     0
 73
     0
176
     0
 90
        0
176
     0
 40
0.6
176
     0
 41
30.0
176
     0
 62
     5
 63
     7
421
 16777215
176
     0
 74
     1
176
     0
 91
        4
176
     0
 64
     7
176
     0
 65
   257
176
     0
 75
     1
176
     0
175
     1
176
     0
 42
1.0
176
     0
 92
       10
176
     2
 66
     7
176
     0
 43
1.0
176
     0
 76
     1
176
     0
 77
     6
176
     0
 78
     2
176
     0
 67
     7
176
     0
 79
     5
176
     0
170
     0
176
     0
171
     0
176
     0
290
     0
176
     0
 93
        1
176
     0
 44
0.0
176
     0
173
     0
176
     0
  0
VISUALSTYLE
  5
38
102
{ACAD_REACTORS
330
2A
102
}
330
2A
100
AcDbVisualStyle
  2
Linepattern
 70
    14
177
     2
291
     1
 71
     2
176
     1
 72
     2
176
     1
 73
     0
176
     1
 90
        0
176
     1
 40
0.6
176
     1
 41
30.0
176
     1
 62
     5
 63
     7
421
 16777215
176
     1
 74
     1
176
     1
 91
        4
176
     1
 64
     7
176
     1
 65
   257
176
     1
 75
     7
176
     1
175
     7
176
     1
 42
1.0
176
     1
 92
        8
176
     1
 66
     7
176
     1
 43
1.0
176
     1
 76
     1
176
     1
 77
     6
176
     1
 78
     2
176
     1
 67
     7
176
     1
 79
     5
176
     1
170
     0
176
     1
171
     0
176
     1
290
     0
176
     1
 93
        1
176
     1
 44
0.0
176
     1
173
     0
176
     1
  0
VISUALSTYLE
  5
3C
102
{ACAD_REACTORS
330
2A
102
}
330
2A
100
AcDbVisualStyle
  2
OverhangOff
 70
    21
177
     2
291
     1
 71
     2
176
     0
 72
     2
176
     0
 73
     0
176
     0
 90
        0
176
     0
 40
0.6
176
     0
 41
30.0
176
     0
 62
     5
 63
     7
421
 16777215
176
     0
 74
     1
176
     0
 91
        4
176
     0
 64
     7
176
     0
 65
   257
176
     0
 75
     1
176
     0
175
     1
176
     0
 42
1.0
176
     0
 92
        9
176
     2
 66
     7
176
     0
 43
1.0
176
     0
 76
     1
176
     0
 77
     6
176
     0
 78
     2
176
     0
 67
     7
176
     0
 79
     5
176
     0
170
     0
176
     0
171
     0
176
     0
290
     0
176
     0
 93
        1
176
     0
 44
0.0
176
     0
173
     0
176
     0
  0
VISUALSTYLE
  5
33
102
{ACAD_REACTORS
330
2A
102
}
330
2A
100
AcDbVisualStyle
  2
Realistic
 70
     8
177
     2
291
     0
 71
     2
176
     1
 72
     3
176
     1
 73
     0
176
     1
 90
        2
176
     1
 40
0.6
176
     1
 41
30.0
176
     1
 62
     5
 63
     7
421
 16777215
176
     1
 74
     0
176
     1
 91
        0
176
     1
 64
     7
176
     1
 65
   257
176
     1
 75
     1
176
     1
175
     1
176
     1
 42
1.0
176
     1
 92
        8
176
     1
 66
   257
176
     1
 43
1.0
176
     1
 76
     1
176
     1
 77
     6
176
     1
 78
     2
176
     1
 67
     7
176
     1
 79
     3
176
     1
170
     0
176
     1
171
     0
176
     1
290
     0
176
     1
 93
       13
176
     1
 44
0.0
176
     1
173
     0
176
     1
  0
VISUALSTYLE
  5
42
102
{ACAD_REACTORS
330
2A
102
}
330
2A
100
AcDbVisualStyle
  2
Shaded
 70
    27
177
     2
291
     0
 71
     2
176
     1
 72
     2
176
     1
 73
     1
176
     1
 90
        2
176
     1
 40
0.6
176
     1
 41
30.0
176
     1
 62
     5
 63
     7
421
 16777215
176
     1
 74
     0
176
     1
 91
        4
176
     1
 64
     7
176
     1
 65
   257
176
     1
 75
     1
176
     1
175
     1
176
     1
 42
1.0
176
     1
 92
        8
176
     1
 66
   257
176
     1
 43
1.0
176
     1
 76
     1
176
     1
 77
     6
176
     1
 78
     2
176
     1
 67
     8
425
  7895160
176
     1
 79
     3
176
     1
170
     0
176
     1
171
     0
176
     1
290
     0
176
     1
 93
        5
176
     1
 44
0.0
176
     1
173
     0
176
     1
  0
VISUALSTYLE
  5
41
102
{ACAD_REACTORS
330
2A
102
}
330
2A
100
AcDbVisualStyle
  2
Shaded with edges
 70
    26
177
     2
291
     0
 71
     2
176
     1
 72
     2
176
     1
 73
     1
176
     1
 90
        2
176
     1
 40
0.6
176
     1
 41
30.0
176
     1
 62
     5
 63
     7
421
 16777215
176
     1
 74
     1
176
     1
 91
       10
176
     1
 64
     7
176
     1
 65
   257
176
     1
 75
     2
176
     1
175
     1
176
     1
 42
1.0
176
     1
 92
        8
176
     1
 66
   257
176
     1
 43
1.0
176
     1
 76
     1
176
     1
 77
     6
176
     1
 78
     2
176
     1
 67
     7
176
     1
 79
     3
176
     1
170
     0
176
     1
171
     0
176
     1
290
     0
176
     1
 93
        5
176
     1
 44
0.0
176
     1
173
     0
176
     1
  0
VISUALSTYLE
  5
3E
102
{ACAD_REACTORS
330
2A
102
}
330
2A
100
AcDbVisualStyle
  2
Shades of Gray
 70
    23
177
     2
291
     0
 71
     2
176
     1
 72
     2
176
     1
 73
     3
176
     1
 90
        0
176
     1
 40
0.6
176
     1
 41
30.0
176
     1
 62
     5
 63
     7
421
 16777215
176
     1
 74
     2
176
     1
 91
        2
176
     1
 64
     7
176
     1
 65
     7
176
     1
 75
     1
176
     1
175
     1
176
     1
 42
40.0
176
     1
 92
        8
176
     1
 66
     7
176
     1
 43
1.0
176
     1
 76
     1
176
     1
 77
     6
176
     1
 78
     2
176
     1
 67
     7
176
     1
 79
     3
176
     1
170
     0
176
     1
171
     0
176
     1
290
     0
176
     1
 93
        1
176
     1
 44
0.0
176
     1
173
     0
176
     1
  0
VISUALSTYLE
  5
3F
102
{ACAD_REACTORS
330
2A
102
}
330
2A
100
AcDbVisualStyle
  2
Sketchy
 70
    24
177
     2
291
     0
 71
     1
176
     1
 72
     2
176
     1
 73
     2
176
     1
 90
        0
176
     1
 40
0.6
176
     1
 41
30.0
176
     1
 62
     5
 63
     7
421
 16777215
176
     1
 74
     2
176
     1
 91
        2
176
     1
 64
     7
176
     1
 65
     7
176
     1
 75
     1
176
     1
175
     1
176
     1
 42
40.0
176
     1
 92
       11
176
     1
 66
     7
176
     1
 43
1.0
176
     1
 76
     1
176
     1
 77
     6
176
     1
 78
     2
176
     1
 67
     7
176
     1
 79
     6
176
     1
170
     0
176
     1
171
     0
176
     1
290
     0
176
     1
 93
        1
176
     1
 44
0.0
176
     1
173
     0
176
     1
  0
VISUALSTYLE
  5
37
102
{ACAD_REACTORS
330
2A
102
}
330
2A
100
AcDbVisualStyle
  2
Thicken
 70
    13
177
     2
291
     1
 71
     2
176
     1
 72
     2
176
     1
 73
     0
176
     1
 90
        0
176
     1
 40
0.6
176
     1
 41
30.0
176
     1
 62
     5
 63
     7
421
 16777215
176
     1
 74
     1
176
     1
 91
        4
176
     1
 64
     7
176
     1
 65
   257
176
     1
 75
     1
176
     1
175
     1
176
     1
 42
1.0
176
     1
 92
       12
176
     1
 66
     7
176
     1
 43
1.0
176
     1
 76
     1
176
     1
 77
     6
176
     1
 78
     2
176
     1
 67
     7
176
     1
 79
     5
176
     1
170
     0
176
     1
171
     0
176
     1
290
     0
176
     1
 93
        1
176
     1
 44
0.0
176
     1
173
     0
176
     1
  0
VISUALSTYLE
  5
30
102
{ACAD_REACTORS
330
2A
102
}
330
2A
100
AcDbVisualStyle
  2
Wireframe
 70
     5
177
     2
291
     0
 71
     0
176
     1
 72
     2
176
     1
 73
     0
176
     1
 90
        0
176
     1
 40
0.6
176
     1
 41
30.0
176
     1
 62
     5
 63
     7
421
 16777215
176
     1
 74
     1
176
     1
 91
        4
176
     1
 64
     7
176
     1
 65
   257
176
     1
 75
     1
176
     1
175
     1
176
     1
 42
1.0
176
     1
 92
        0
176
     1
 66
   257
176
     1
 43
1.0
176
     1
 76
     1
176
     1
 77
     6
176
     1
 78
     2
176
     1
 67
     7
176
     1
 79
     3
176
     1
170
     0
176
     1
171
     0
176
     1
290
     0
176
     1
 93
        1
176
     1
 44
0.0
176
     1
173
     0
176
     1
  0
VISUALSTYLE
  5
40
102
{ACAD_REACTORS
330
2A
102
}
330
2A
100
AcDbVisualStyle
  2
X-Ray
 70
    25
177
     2
291
     0
 71
     2
176
     1
 72
     2
176
     1
 73
     1
176
     1
 90
        1
176
     1
 40
0.5
176
     1
 41
30.0
176
     1
 62
     5
 63
     7
421
 16777215
176
     1
 74
     1
176
     1
 91
        0
176
     1
 64
     7
176
     1
 65
   257
176
     1
 75
     1
176
     1
175
     1
176
     1
 42
1.0
176
     1
 92
        8
176
     1
 66
     7
176
     1
 43
1.0
176
     1
 76
     1
176
     1
 77
     6
176
     1
 78
     2
176
     1
 67
     7
176
     1
 79
     3
176
     1
170
     0
176
     1
171
     0
176
     1
290
     0
176
     1
 93
       13
176
     1
 44
0.0
176
     1
173
     0
176
     1
  0
DICTIONARYVAR
  5
187
102
{ACAD_REACTORS
330
186
102
}
330
186
100
DictionaryVariables
280
     0
  1
1:1
  0
DICTIONARYVAR
  5
18F
102
{ACAD_REACTORS
330
186
102
}
330
186
100
DictionaryVariables
280
     0
  1
3.500000
  0
DICTIONARYVAR
  5
190
102
{ACAD_REACTORS
330
186
102
}
330
186
100
DictionaryVariables
280
     0
  1
acadiso.lin
  0
DICTIONARYVAR
  5
18C
102
{ACAD_REACTORS
330
186
102
}
330
186
100
DictionaryVariables
280
     0
  1
Standard
  0
DICTIONARYVAR
  5
18B
102
{ACAD_REACTORS
330
186
102
}
330
186
100
DictionaryVariables
280
     0
  1
Standard
  0
DICTIONARY
  5
188
330
6A
100
AcDbDictionary
280
     1
281
     1
  3
ACAD_ROUNDTRIP_2008_TABLESTYLE_CELLSTYLEMAP
360
189
  0
CELLSTYLEMAP
  5
189
102
{ACAD_REACTORS
330
188
102
}
330
188
100
AcDbCellStyleMap
 90
        3
300
CELLSTYLE
  1
TABLEFORMAT_BEGIN
 90
        5
170
     1
 91
        0
 92
    32768
 62
   257
 93
        1
300
CONTENTFORMAT
  1
CONTENTFORMAT_BEGIN
 90
        0
 91
        0
 92
        4
 93
        0
300

 40
0.0
140
1.0
 94
        5
 62
     0
340
11
144
6.0
309
CONTENTFORMAT_END
171
     1
301
MARGIN
  1
CELLMARGIN_BEGIN
 40
1.5
 40
1.5
 40
1.5
 40
1.5
 40
1.5
 40
1.5
309
CELLMARGIN_END
 94
        6
 95
        1
302
GRIDFORMAT
  1
GRIDFORMAT_BEGIN
 90
        0
 91
        1
 62
     0
 92
       -2
340
14
 93
        0
 40
0.045
309
GRIDFORMAT_END
 95
        2
302
GRIDFORMAT
  1
GRIDFORMAT_BEGIN
 90
        0
 91
        1
 62
     0
 92
       -2
340
14
 93
        0
 40
0.045
309
GRIDFORMAT_END
 95
        4
302
GRIDFORMAT
  1
GRIDFORMAT_BEGIN
 90
        0
 91
        1
 62
     0
 92
       -2
340
14
 93
        0
 40
0.045
309
GRIDFORMAT_END
 95
        8
302
GRIDFORMAT
  1
GRIDFORMAT_BEGIN
 90
        0
 91
        1
 62
     0
 92
       -2
340
14
 93
        0
 40
0.045
309
GRIDFORMAT_END
 95
       16
302
GRIDFORMAT
  1
GRIDFORMAT_BEGIN
 90
        0
 91
        1
 62
     0
 92
       -2
340
14
 93
        0
 40
0.045
309
GRIDFORMAT_END
 95
       32
302
GRIDFORMAT
  1
GRIDFORMAT_BEGIN
 90
        0
 91
        1
 62
     0
 92
       -2
340
14
 93
        0
 40
0.045
309
GRIDFORMAT_END
309
TABLEFORMAT_END
  1
CELLSTYLE_BEGIN
 90
        1
 91
        1
300
_TITLE
309
CELLSTYLE_END
300
CELLSTYLE
  1
TABLEFORMAT_BEGIN
 90
        5
170
     1
 91
        0
 92
        0
 62
   257
 93
        1
300
CONTENTFORMAT
  1
CONTENTFORMAT_BEGIN
 90
        0
 91
        0
 92
        4
 93
        0
300

 40
0.0
140
1.0
 94
        5
 62
     0
340
11
144
4.5
309
CONTENTFORMAT_END
171
     1
301
MARGIN
  1
CELLMARGIN_BEGIN
 40
1.5
 40
1.5
 40
1.5
 40
1.5
 40
1.5
 40
1.5
309
CELLMARGIN_END
 94
        6
 95
        1
302
GRIDFORMAT
  1
GRIDFORMAT_BEGIN
 90
        0
 91
        1
 62
     0
 92
       -2
340
14
 93
        0
 40
0.045
309
GRIDFORMAT_END
 95
        2
302
GRIDFORMAT
  1
GRIDFORMAT_BEGIN
 90
        0
 91
        1
 62
     0
 92
       -2
340
14
 93
        0
 40
0.045
309
GRIDFORMAT_END
 95
        4
302
GRIDFORMAT
  1
GRIDFORMAT_BEGIN
 90
        0
 91
        1
 62
     0
 92
       -2
340
14
 93
        0
 40
0.045
309
GRIDFORMAT_END
 95
        8
302
GRIDFORMAT
  1
GRIDFORMAT_BEGIN
 90
        0
 91
        1
 62
     0
 92
       -2
340
14
 93
        0
 40
0.045
309
GRIDFORMAT_END
 95
       16
302
GRIDFORMAT
  1
GRIDFORMAT_BEGIN
 90
        0
 91
        1
 62
     0
 92
       -2
340
14
 93
        0
 40
0.045
309
GRIDFORMAT_END
 95
       32
302
GRIDFORMAT
  1
GRIDFORMAT_BEGIN
 90
        0
 91
        1
 62
     0
 92
       -2
340
14
 93
        0
 40
0.045
309
GRIDFORMAT_END
309
TABLEFORMAT_END
  1
CELLSTYLE_BEGIN
 90
        2
 91
        1
300
_HEADER
309
CELLSTYLE_END
300
CELLSTYLE
  1
TABLEFORMAT_BEGIN
 90
        5
170
     1
 91
        0
 92
        0
 62
   257
 93
        1
300
CONTENTFORMAT
  1
CONTENTFORMAT_BEGIN
 90
        0
 91
        0
 92
        4
 93
        0
300

 40
0.0
140
1.0
 94
        2
 62
     0
340
11
144
4.5
309
CONTENTFORMAT_END
171
     1
301
MARGIN
  1
CELLMARGIN_BEGIN
 40
1.5
 40
1.5
 40
1.5
 40
1.5
 40
1.5
 40
1.5
309
CELLMARGIN_END
 94
        6
 95
        1
302
GRIDFORMAT
  1
GRIDFORMAT_BEGIN
 90
        0
 91
        1
 62
     0
 92
       -2
340
14
 93
        0
 40
0.045
309
GRIDFORMAT_END
 95
        2
302
GRIDFORMAT
  1
GRIDFORMAT_BEGIN
 90
        0
 91
        1
 62
     0
 92
       -2
340
14
 93
        0
 40
0.045
309
GRIDFORMAT_END
 95
        4
302
GRIDFORMAT
  1
GRIDFORMAT_BEGIN
 90
        0
 91
        1
 62
     0
 92
       -2
340
14
 93
        0
 40
0.045
309
GRIDFORMAT_END
 95
        8
302
GRIDFORMAT
  1
GRIDFORMAT_BEGIN
 90
        0
 91
        1
 62
     0
 92
       -2
340
14
 93
        0
 40
0.045
309
GRIDFORMAT_END
 95
       16
302
GRIDFORMAT
  1
GRIDFORMAT_BEGIN
 90
        0
 91
        1
 62
     0
 92
       -2
340
14
 93
        0
 40
0.045
309
GRIDFORMAT_END
 95
       32
302
GRIDFORMAT
  1
GRIDFORMAT_BEGIN
 90
        0
 91
        1
 62
     0
 92
       -2
340
14
 93
        0
 40
0.045
309
GRIDFORMAT_END
309
TABLEFORMAT_END
  1
CELLSTYLE_BEGIN
 90
        3
 91
        2
300
_DATA
309
CELLSTYLE_END
  0
ENDSEC
  0
EOF
