  0
SECTION
  2
HEADER
  9
$ACADVER
  1
AC1024
  9
$ACADMAINTVER
 70
     6
  9
$DWGCODEPAGE
  3
ANSI_1252
  9
$INSBASE
 10
0.0
 20
0.0
 30
0.0
  9
$EXTMIN
 10
0.0
 20
0.0
 30
0.0
  9
$EXTMAX
 10
210.0
 20
297.0
 30
0.0
  9
$LIMMIN
 10
0.0
 20
0.0
  9
$LIMMAX
 10
210.0
 20
297.0
  9
$ORTHOMODE
 70
     0
  9
$REGENMODE
 70
     1
  9
$FILLMODE
 70
     1
  9
$QTEXTMODE
 70
     0
  9
$MIRRTEXT
 70
     1
  9
$LTSCALE
 40
1.0
  9
$ATTMODE
 70
     1
  9
$TEXTSIZE
 40
2.0
  9
$TRACEWID
 40
1.0
  9
$TEXTSTYLE
  7
Standard
  9
$CLAYER
  8
0
  9
$CELTYPE
  6
ByLayer
  9
$CECOLOR
 62
   256
  9
$CELTSCALE
 40
1.0
  9
$DISPSILH
 70
     0
  9
$DIMSCALE
 40
1.0
  9
$DIMASZ
 40
2.8
  9
$DIMEXO
 40
1.0
  9
$DIMDLI
 40
3.75
  9
$DIMRND
 40
0.0
  9
$DIMDLE
 40
0.0
  9
$DIMEXE
 40
1.0
  9
$DIMTP
 40
0.0
  9
$DIMTM
 40
0.0
  9
$DIMTXT
 40
2.0
  9
$DIMCEN
 40
2.5
  9
$DIMTSZ
 40
0.0
  9
$DIMTOL
 70
     0
  9
$DIMLIM
 70
     0
  9
$DIMTIH
 70
     1
  9
$DIMTOH
 70
     1
  9
$DIMSE1
 70
     0
  9
$DIMSE2
 70
     0
  9
$DIMTAD
 70
     1
  9
$DIMZIN
 70
     0
  9
$DIMBLK
  1

  9
$DIMASO
 70
     1
  9
$DIMSHO
 70
     1
  9
$DIMPOST
  1

  9
$DIMAPOST
  1

  9
$DIMALT
 70
     0
  9
$DIMALTD
 70
     3
  9
$DIMALTF
 40
0.0393700787
  9
$DIMLFAC
 40
1.0
  9
$DIMTOFL
 70
     1
  9
$DIMTVP
 40
0.0
  9
$DIMTIX
 70
     0
  9
$DIMSOXD
 70
     0
  9
$DIMSAH
 70
     0
  9
$DIMBLK1
  1

  9
$DIMBLK2
  1

  9
$DIMSTYLE
  2
ISO-25
  9
$DIMCLRD
 70
     0
  9
$DIMCLRE
 70
     0
  9
$DIMCLRT
 70
     0
  9
$DIMTFAC
 40
1.0
  9
$DIMGAP
 40
1.524
  9
$DIMJUST
 70
     0
  9
$DIMSD1
 70
     0
  9
$DIMSD2
 70
     0
  9
$DIMTOLJ
 70
     0
  9
$DIMTZIN
 70
     0
  9
$DIMALTZ
 70
     0
  9
$DIMALTTZ
 70
     0
  9
$DIMUPT
 70
     0
  9
$DIMDEC
 70
     2
  9
$DIMTDEC
 70
     2
  9
$DIMALTU
 70
     2
  9
$DIMALTTD
 70
     3
  9
$DIMTXSTY
  7
Standard
  9
$DIMAUNIT
 70
     0
  9
$DIMADEC
 70
     2
  9
$DIMALTRND
 40
0.0
  9
$DIMAZIN
 70
     0
  9
$DIMDSEP
 70
    44
  9
$DIMATFIT
 70
     3
  9
$DIMFRAC
 70
     0
  9
$DIMLDRBLK
  1

  9
$DIMLUNIT
 70
     2
  9
$DIMLWD
 70
    -2
  9
$DIMLWE
 70
    -2
  9
$DIMTMOVE
 70
     0
  9
$DIMFXL
 40
1.0
  9
$DIMFXLON
 70
     0
  9
$DIMJOGANG
 40
0.7853981634
  9
$DIMTFILL
 70
     0
  9
$DIMTFILLCLR
 70
     0
  9
$DIMARCSYM
 70
     0
  9
$DIMLTYPE
  6

  9
$DIMLTEX1
  6

  9
$DIMLTEX2
  6

  9
$DIMTXTDIRECTION
 70
     0
  9
$LUNITS
 70
     2
  9
$LUPREC
 70
     2
  9
$SKETCHINC
 40
1.0
  9
$FILLETRAD
 40
10.0
  9
$AUNITS
 70
     0
  9
$AUPREC
 70
     2
  9
$MENU
  1
.
  9
$ELEVATION
 40
0.0
  9
$PELEVATION
 40
0.0
  9
$THICKNESS
 40
0.0
  9
$LIMCHECK
 70
     0
  9
$CHAMFERA
 40
0.0
  9
$CHAMFERB
 40
0.0
  9
$CHAMFERC
 40
0.0
  9
$CHAMFERD
 40
0.0
  9
$SKPOLY
 70
     0
  9
$TDCREATE
 40
2458543.588046805
  9
$TDUCREATE
 40
2458543.546380139
  9
$TDUPDATE
 40
2458543.588047708
  9
$TDUUPDATE
 40
2458543.546381042
  9
$TDINDWG
 40
0.0000000116
  9
$TDUSRTIMER
 40
0.0000000116
  9
$USRTIMER
 70
     1
  9
$ANGBASE
 50
0.0
  9
$ANGDIR
 70
     0
  9
$PDMODE
 70
     0
  9
$PDSIZE
 40
-1.0
  9
$PLINEWID
 40
0.0
  9
$SPLFRAME
 70
     0
  9
$SPLINETYPE
 70
     6
  9
$SPLINESEGS
 70
     8
  9
$HANDSEED
  5
351
  9
$SURFTAB1
 70
     6
  9
$SURFTAB2
 70
     6
  9
$SURFTYPE
 70
     6
  9
$SURFU
 70
     6
  9
$SURFV
 70
     6
  9
$UCSBASE
  2

  9
$UCSNAME
  2

  9
$UCSORG
 10
0.0
 20
0.0
 30
0.0
  9
$UCSXDIR
 10
1.0
 20
0.0
 30
0.0
  9
$UCSYDIR
 10
0.0
 20
1.0
 30
0.0
  9
$UCSORTHOREF
  2

  9
$UCSORTHOVIEW
 70
     0
  9
$UCSORGTOP
 10
0.0
 20
0.0
 30
0.0
  9
$UCSORGBOTTOM
 10
0.0
 20
0.0
 30
0.0
  9
$UCSORGLEFT
 10
0.0
 20
0.0
 30
0.0
  9
$UCSORGRIGHT
 10
0.0
 20
0.0
 30
0.0
  9
$UCSORGFRONT
 10
0.0
 20
0.0
 30
0.0
  9
$UCSORGBACK
 10
0.0
 20
0.0
 30
0.0
  9
$PUCSBASE
  2

  9
$PUCSNAME
  2

  9
$PUCSORG
 10
0.0
 20
0.0
 30
0.0
  9
$PUCSXDIR
 10
1.0
 20
0.0
 30
0.0
  9
$PUCSYDIR
 10
0.0
 20
1.0
 30
0.0
  9
$PUCSORTHOREF
  2

  9
$PUCSORTHOVIEW
 70
     0
  9
$PUCSORGTOP
 10
0.0
 20
0.0
 30
0.0
  9
$PUCSORGBOTTOM
 10
0.0
 20
0.0
 30
0.0
  9
$PUCSORGLEFT
 10
0.0
 20
0.0
 30
0.0
  9
$PUCSORGRIGHT
 10
0.0
 20
0.0
 30
0.0
  9
$PUCSORGFRONT
 10
0.0
 20
0.0
 30
0.0
  9
$PUCSORGBACK
 10
0.0
 20
0.0
 30
0.0
  9
$USERI1
 70
     0
  9
$USERI2
 70
     0
  9
$USERI3
 70
     0
  9
$USERI4
 70
     0
  9
$USERI5
 70
     0
  9
$USERR1
 40
0.0
  9
$USERR2
 40
0.0
  9
$USERR3
 40
0.0
  9
$USERR4
 40
0.0
  9
$USERR5
 40
0.0
  9
$WORLDVIEW
 70
     1
  9
$SHADEDGE
 70
     3
  9
$SHADEDIF
 70
    70
  9
$TILEMODE
 70
     1
  9
$MAXACTVP
 70
    64
  9
$PINSBASE
 10
0.0
 20
0.0
 30
0.0
  9
$PLIMCHECK
 70
     0
  9
$PEXTMIN
 10
1.0000000000E+20
 20
1.0000000000E+20
 30
1.0000000000E+20
  9
$PEXTMAX
 10
-1.0000000000E+20
 20
-1.0000000000E+20
 30
-1.0000000000E+20
  9
$PLIMMIN
 10
0.0
 20
0.0
  9
$PLIMMAX
 10
420.0
 20
297.0
  9
$UNITMODE
 70
     0
  9
$VISRETAIN
 70
     1
  9
$PLINEGEN
 70
     0
  9
$PSLTSCALE
 70
     1
  9
$TREEDEPTH
 70
  3020
  9
$CMLSTYLE
  2
Standard
  9
$CMLJUST
 70
     0
  9
$CMLSCALE
 40
20.0
  9
$PROXYGRAPHICS
 70
     1
  9
$MEASUREMENT
 70
     1
  9
$CELWEIGHT
370
    -1
  9
$ENDCAPS
280
     0
  9
$JOINSTYLE
280
     0
  9
$LWDISPLAY
290
     1
  9
$INSUNITS
 70
     4
  9
$HYPERLINKBASE
  1

  9
$STYLESHEET
  1

  9
$XEDIT
290
     1
  9
$CEPSNTYPE
380
     0
  9
$PSTYLEMODE
290
     1
  9
$FINGERPRINTGUID
  2
{c31ee6bc-cc5d-400b-ac1a-a021c59c0223}
  9
$VERSIONGUID
  2
{FAEB1C32-E019-11D5-929B-00C0DF256EC4}
  9
$EXTNAMES
290
     1
  9
$PSVPSCALE
 40
0.0
  9
$OLESTARTUP
290
     0
  9
$SORTENTS
280
   127
  9
$INDEXCTL
280
     0
  9
$HIDETEXT
280
     1
  9
$XCLIPFRAME
280
     2
  9
$HALOGAP
280
     0
  9
$OBSCOLOR
 70
   257
  9
$OBSLTYPE
280
     0
  9
$INTERSECTIONDISPLAY
280
     0
  9
$INTERSECTIONCOLOR
 70
   257
  9
$DIMASSOC
280
     2
  9
$PROJECTNAME
  1

  9
$CAMERADISPLAY
290
     0
  9
$LENSLENGTH
 40
50.0
  9
$CAMERAHEIGHT
 40
0.0
  9
$STEPSPERSEC
 40
2.0
  9
$STEPSIZE
 40
6.0
  9
$3DDWFPREC
 40
2.0
  9
$PSOLWIDTH
 40
5.0
  9
$PSOLHEIGHT
 40
80.0
  9
$LOFTANG1
 40
1.5707963268
  9
$LOFTANG2
 40
1.5707963268
  9
$LOFTMAG1
 40
0.0
  9
$LOFTMAG2
 40
0.0
  9
$LOFTPARAM
 70
     7
  9
$LOFTNORMALS
280
     1
  9
$LATITUDE
 40
37.795
  9
$LONGITUDE
 40
-122.394
  9
$NORTHDIRECTION
 40
0.0
  9
$TIMEZONE
 70
 -8000
  9
$LIGHTGLYPHDISPLAY
280
     1
  9
$TILEMODELIGHTSYNCH
280
     1
  9
$CMATERIAL
347
44
  9
$SOLIDHIST
280
     0
  9
$SHOWHIST
280
     1
  9
$DWFFRAME
280
     2
  9
$DGNFRAME
280
     2
  9
$REALWORLDSCALE
290
     1
  9
$INTERFERECOLOR
 62
   256
  9
$CSHADOW
280
     0
  9
$SHADOWPLANELOCATION
 40
0.0
  0
ENDSEC
  0
SECTION
  2
CLASSES
  0
CLASS
  1
ACDBDICTIONARYWDFLT
  2
AcDbDictionaryWithDefault
  3
ObjectDBX Classes
 90
        0
 91
        3
280
     0
281
     0
  0
CLASS
  1
VISUALSTYLE
  2
AcDbVisualStyle
  3
ObjectDBX Classes
 90
     4095
 91
        3
280
     0
281
     0
  0
CLASS
  1
MATERIAL
  2
AcDbMaterial
  3
ObjectDBX Classes
 90
     1153
 91
        3
280
     0
281
     0
  0
CLASS
  1
SCALE
  2
AcDbScale
  3
ObjectDBX Classes
 90
     1153
 91
        3
280
     0
281
     0
  0
CLASS
  1
TABLESTYLE
  2
AcDbTableStyle
  3
ObjectDBX Classes
 90
     4095
 91
        3
280
     0
281
     0
  0
CLASS
  1
MLEADERSTYLE
  2
AcDbMLeaderStyle
  3
ACDB_MLEADERSTYLE_CLASS
 90
     4095
 91
        3
280
     0
281
     0
  0
CLASS
  1
SUN
  2
AcDbSun
  3
SCENEOE
 90
     1153
 91
        3
280
     0
281
     0
  0
CLASS
  1
DICTIONARYVAR
  2
AcDbDictionaryVar
  3
ObjectDBX Classes
 90
        0
 91
        3
280
     0
281
     0
  0
CLASS
  1
CELLSTYLEMAP
  2
AcDbCellStyleMap
  3
ObjectDBX Classes
 90
     1152
 91
        3
280
     0
281
     0
  0
ENDSEC
  0
SECTION
  2
TABLES
  0
TABLE
  2
VPORT
  5
8
330
0
100
AcDbSymbolTable
 70
     1
  0
VPORT
  5
29
330
8
100
AcDbSymbolTableRecord
100
AcDbViewportTableRecord
  2
*Active
 70
     0
 10
0.0
 20
0.0
 11
1.0
 21
1.0
 12
105.0
 22
148.5
 13
0.0
 23
0.0
 14
10.0
 24
10.0
 15
10.0
 25
10.0
 16
0.0
 26
0.0
 36
1.0
 17
0.0
 27
0.0
 37
0.0
 40
297.0
 41
0.7070707071
 42
50.0
 43
0.0
 44
0.0
 50
0.0
 51
0.0
 71
     0
 72
  2000
 73
     1
 74
     3
 75
     0
 76
     0
 77
     0
 78
     0
281
     0
 65
     1
110
0.0
120
0.0
130
0.0
111
1.0
121
0.0
131
0.0
112
0.0
122
1.0
132
0.0
 79
     0
146
0.0
348
2F
 60
     3
 61
     5
292
     1
282
     1
141
0.0
142
0.0
 63
   250
361
6D
  0
ENDTAB
  0
TABLE
  2
LTYPE
  5
5
330
0
100
AcDbSymbolTable
 70
     6
  0
LTYPE
  5
14
330
5
100
AcDbSymbolTableRecord
100
AcDbLinetypeTableRecord
  2
ByBlock
 70
     0
  3

 72
    65
 73
     0
 40
0.0
  0
LTYPE
  5
15
330
5
100
AcDbSymbolTableRecord
100
AcDbLinetypeTableRecord
  2
ByLayer
 70
     0
  3

 72
    65
 73
     0
 40
0.0
  0
LTYPE
  5
16
330
5
100
AcDbSymbolTableRecord
100
AcDbLinetypeTableRecord
  2
Continuous
 70
     0
  3
Solid line
 72
    65
 73
     0
 40
0.0
  0
LTYPE
  5
6E
330
5
100
AcDbSymbolTableRecord
100
AcDbLinetypeTableRecord
  2
HIDDEN
 70
     0
  3
Hidden __ __ __ __ __ __ __ __ __ __ __ __ __ __
 72
    65
 73
     2
 40
1.905
 49
1.27
 74
     0
 49
-0.635
 74
     0
  0
LTYPE
  5
6F
330
5
100
AcDbSymbolTableRecord
100
AcDbLinetypeTableRecord
  2
PHANTOM
 70
     0
  3
Phantom ______  __  __  ______  __  __  ______
 72
    65
 73
     6
 40
12.7
 49
6.35
 74
     0
 49
-1.27
 74
     0
 49
1.27
 74
     0
 49
-1.27
 74
     0
 49
1.27
 74
     0
 49
-1.27
 74
     0
  0
LTYPE
  5
70
330
5
100
AcDbSymbolTableRecord
100
AcDbLinetypeTableRecord
  2
CENTER
 70
     0
  3
Center ____ _ ____ _ ____ _ ____ _ ____ _ ____
 72
    65
 73
     4
 40
10.16
 49
6.35
 74
     0
 49
-1.27
 74
     0
 49
1.27
 74
     0
 49
-1.27
 74
     0
  0
LTYPE
  5
71
330
5
100
AcDbSymbolTableRecord
100
AcDbLinetypeTableRecord
  2
CENTERX2
 70
     0
  3
Center (2x) ________  __  ________  __  _____
 72
    65
 73
     4
 40
20.32
 49
12.7
 74
     0
 49
-2.54
 74
     0
 49
2.54
 74
     0
 49
-2.54
 74
     0
  0
LTYPE
  5
72
330
5
100
AcDbSymbolTableRecord
100
AcDbLinetypeTableRecord
  2
DOT2
 70
     0
  3
Dot (.5x) ........................................
 72
    65
 73
     2
 40
0.635
 49
0.0
 74
     0
 49
-0.635
 74
     0
  0
ENDTAB
  0
TABLE
  2
LAYER
  5
2
330
0
100
AcDbSymbolTable
 70
     1
  0
LAYER
  5
10
330
2
100
AcDbSymbolTableRecord
100
AcDbLayerTableRecord
  2
0
 70
     0
 62
     7
  6
Continuous
370
    -3
390
F
347
46
  0
ENDTAB
  0
TABLE
  2
STYLE
  5
3
330
0
100
AcDbSymbolTable
 70
     1
  0
STYLE
  5
11
330
3
100
AcDbSymbolTableRecord
100
AcDbTextStyleTableRecord
  2
Standard
 70
     0
 40
0.0
 41
1.0
 50
0.0
 71
     0
 42
2.0
  3
txt
  4

  0
ENDTAB
  0
TABLE
  2
VIEW
  5
6
330
0
100
AcDbSymbolTable
 70
     0
  0
ENDTAB
  0
TABLE
  2
UCS
  5
7
330
0
100
AcDbSymbolTable
 70
     0
  0
ENDTAB
  0
TABLE
  2
APPID
  5
9
330
0
100
AcDbSymbolTable
 70
     1
  0
APPID
  5
12
330
9
100
AcDbSymbolTableRecord
100
AcDbRegAppTableRecord
  2
ACAD
 70
     0
  0
ENDTAB
  0
TABLE
  2
DIMSTYLE
  5
A
330
0
100
AcDbSymbolTable
 70
     1
100
AcDbDimStyleTable
  0
DIMSTYLE
105
27
330
A
100
AcDbSymbolTableRecord
100
AcDbDimStyleTableRecord
  2
ISO-25
 70
     0
 41
2.5
 42
0.625
 43
3.75
 44
1.25
 73
     0
 74
     0
 77
     1
 78
     8
140
2.5
141
2.5
143
0.0393700787
147
0.625
171
     3
172
     1
178
     0
271
     2
272
     2
274
     3
278
    44
283
     0
284
     8
340
11
  0
ENDTAB
  0
TABLE
  2
BLOCK_RECORD
  5
1
330
0
100
AcDbSymbolTable
 70
     1
  0
BLOCK_RECORD
  5
1F
330
1
100
AcDbSymbolTableRecord
100
AcDbBlockTableRecord
  2
*Model_Space
340
22
 70
     0
280
     1
281
     0
  0
BLOCK_RECORD
  5
1B
330
1
100
AcDbSymbolTableRecord
100
AcDbBlockTableRecord
  2
*Paper_Space
340
1E
 70
     0
280
     1
281
     0
  0
BLOCK_RECORD
  5
23
330
1
100
AcDbSymbolTableRecord
100
AcDbBlockTableRecord
  2
*Paper_Space0
340
26
 70
     0
280
     1
281
     0
  0
ENDTAB
  0
ENDSEC
  0
SECTION
  2
BLOCKS
  0
BLOCK
  5
20
330
1F
100
AcDbEntity
  8
0
100
AcDbBlockBegin
  2
*Model_Space
 70
     0
 10
0.0
 20
0.0
 30
0.0
  3
*Model_Space
  1

  0
ENDBLK
  5
21
330
1F
100
AcDbEntity
  8
0
100
AcDbBlockEnd
  0
BLOCK
  5
1C
330
1B
100
AcDbEntity
 67
     1
  8
0
100
AcDbBlockBegin
  2
*Paper_Space
 70
     0
 10
0.0
 20
0.0
 30
0.0
  3
*Paper_Space
  1

  0
ENDBLK
  5
1D
330
1B
100
AcDbEntity
 67
     1
  8
0
100
AcDbBlockEnd
  0
BLOCK
  5
24
330
23
100
AcDbEntity
  8
0
100
AcDbBlockBegin
  2
*Paper_Space0
 70
     0
 10
0.0
 20
0.0
 30
0.0
  3
*Paper_Space0
  1

  0
ENDBLK
  5
25
330
23
100
AcDbEntity
  8
0
100
AcDbBlockEnd
  0
ENDSEC
  0
SECTION
  2
ENTITIES
  0
LINE
  5
73
330
1F
100
AcDbEntity
  8
0
  6
Continuous
 62
     7
100
AcDbLine
 10
131.4036714605
 20
1138.0525446926
 30
0.0
 11
131.4036714605
 21
1198.0525446926
 31
0.0
  0
LINE
  5
74
330
1F
100
AcDbEntity
  8
0
  6
Continuous
 62
     7
100
AcDbLine
 10
131.4036714605
 20
-903.4474553074
 30
0.0
 11
131.4036714605
 21
1088.0525446926
 31
0.0
  0
LINE
  5
75
330
1F
100
AcDbEntity
  8
0
  6
Continuous
 62
     7
100
AcDbLine
 10
68.4036714605
 20
1088.0525446926
 30
0.0
 11
68.4036714605
 21
-903.4474553074
 31
0.0
  0
LINE
  5
76
330
1F
100
AcDbEntity
  8
0
  6
Continuous
 62
     7
100
AcDbLine
 10
68.4036714605
 20
1198.0525446926
 30
0.0
 11
68.4036714605
 21
1138.0525446926
 31
0.0
  0
LINE
  5
77
330
1F
100
AcDbEntity
  8
0
  6
Continuous
 62
     7
100
AcDbLine
 10
-95.5963285395
 20
1178.0525446926
 30
0.0
 11
-95.5963285395
 21
1179.2211042395
 31
0.0
  0
LINE
  5
78
330
1F
100
AcDbEntity
  8
0
  6
Continuous
 62
     7
100
AcDbLine
 10
317.4036714605
 20
1178.0525446926
 30
0.0
 11
317.4036714605
 21
1179.0511960254
 31
0.0
  0
ARC
  5
79
330
1F
100
AcDbEntity
  8
0
  6
Continuous
 62
     7
100
AcDbCircle
 10
350.5207590322
 20
1223.5797882924
 30
0.0
 40
6.00000000000002
100
AcDbArc
 50
300.0
 51
1.3518438956
  0
ARC
  5
7A
330
1F
100
AcDbEntity
  8
0
  6
Continuous
 62
     7
100
AcDbCircle
 10
262.5174190902
 20
1223.5797882924
 30
0.0
 40
6.000000000000015
100
AcDbArc
 50
208.5989145193
 51
240.0
  0
LINE
  5
7B
330
1F
100
AcDbEntity
  8
0
  6
Continuous
 62
     7
100
AcDbLine
 10
356.5190890612
 20
1223.72133992
 30
0.0
 11
354.2946991599
 21
1317.9811161211
 31
0.0
  0
LINE
  5
7C
330
1F
100
AcDbEntity
  8
0
  6
Continuous
 62
     7
100
AcDbLine
 10
258.7434789624
 20
1317.9811161211
 30
0.0
 11
257.249466825
 21
1254.6715094583
 31
0.0
  0
ARC
  5
7D
330
1F
100
AcDbEntity
  8
0
  6
Continuous
 62
     7
100
AcDbCircle
 10
306.5190890612
 20
1328.5393204081
 30
0.0
 40
47.51322428450268
100
AcDbArc
 50
12.1660761842
 51
167.8339238158
  0
LINE
  5
7E
330
1F
100
AcDbEntity
  8
0
  6
Continuous
 62
     7
100
AcDbLine
 10
259.5174190902
 20
1218.3836358697
 30
0.0
 11
265.2870382536
 21
1215.0525446926
 31
0.0
  0
LINE
  5
7F
330
1F
100
AcDbEntity
  8
0
  6
Continuous
 62
     7
100
AcDbLine
 10
347.7511398687
 20
1215.0525446926
 30
0.0
 11
353.5207590322
 21
1218.3836358697
 31
0.0
  0
ARC
  5
80
330
1F
100
AcDbEntity
  8
0
  6
Continuous
 62
     7
100
AcDbCircle
 10
-62.7100761692
 20
1223.5797882924
 30
0.0
 40
6.000000000000198
100
AcDbArc
 50
300.0
 51
1.3518438956
  0
ARC
  5
81
330
1F
100
AcDbEntity
  8
0
  6
Continuous
 62
     7
100
AcDbCircle
 10
-150.7134161112
 20
1223.5797882924
 30
0.0
 40
6.000000000000212
100
AcDbArc
 50
178.6481561044
 51
240.0
  0
LINE
  5
82
330
1F
100
AcDbEntity
  8
0
  6
Continuous
 62
     7
100
AcDbLine
 10
-56.7117461402
 20
1223.72133992
 30
0.0
 11
-58.9361360415
 21
1317.9811161211
 31
0.0
  0
LINE
  5
83
330
1F
100
AcDbEntity
  8
0
  6
Continuous
 62
     7
100
AcDbLine
 10
-154.487356239
 20
1317.9811161211
 30
0.0
 11
-156.7117461402
 21
1223.72133992
 31
0.0
  0
ARC
  5
84
330
1F
100
AcDbEntity
  8
0
  6
Continuous
 62
     7
100
AcDbCircle
 10
-106.7117461402
 20
1328.5393204081
 30
0.0
 40
47.51322428450257
100
AcDbArc
 50
12.1660761842
 51
167.8339238158
  0
LINE
  5
85
330
1F
100
AcDbEntity
  8
0
  6
Continuous
 62
     7
100
AcDbLine
 10
-153.7134161112
 20
1218.3836358697
 30
0.0
 11
-147.9437969478
 21
1215.0525446926
 31
0.0
  0
LINE
  5
86
330
1F
100
AcDbEntity
  8
0
  6
Continuous
 62
     7
100
AcDbLine
 10
-65.4796953327
 20
1215.0525446926
 30
0.0
 11
-59.7100761692
 21
1218.3836358697
 31
0.0
  0
LINE
  5
87
330
1F
100
AcDbEntity
  8
0
  6
Continuous
 62
     7
100
AcDbLine
 10
-232.2117461402
 20
1318.5525446926
 30
0.0
 11
-231.3910943336
 21
1317.9811161211
 31
0.0
  0
LINE
  5
88
330
1F
100
AcDbEntity
  8
0
  6
Continuous
 62
     7
100
AcDbLine
 10
17.9676020531
 20
1317.9811161211
 30
0.0
 11
18.7882538598
 21
1318.5525446926
 31
0.0
  0
LINE
  5
89
330
1F
100
AcDbEntity
  8
0
  6
Continuous
 62
     7
100
AcDbLine
 10
18.7882538598
 20
1318.5525446926
 30
0.0
 11
17.4484360545
 21
1320.4767115219
 31
0.0
  0
LINE
  5
8A
330
1F
100
AcDbEntity
  8
0
  6
Continuous
 62
     7
100
AcDbLine
 10
-230.871928335
 20
1320.4767115219
 30
0.0
 11
-232.2117461402
 21
1318.5525446926
 31
0.0
  0
ARC
  5
8B
330
1F
100
AcDbEntity
  8
0
  6
Continuous
 62
     7
100
AcDbCircle
 10
14.5761547312
 20
1318.4767115219
 30
0.0
 40
3.500000000000155
100
AcDbArc
 50
34.8499045791
 51
71.4647792925
  0
ARC
  5
8C
330
1F
100
AcDbEntity
  8
0
  6
Continuous
 62
     7
100
AcDbCircle
 10
-227.9996470117
 20
1318.4767115219
 30
0.0
 40
3.50000000000014
100
AcDbArc
 50
108.5352207075
 51
145.1500954209
  0
ARC
  5
8D
330
1F
100
AcDbEntity
  8
0
  6
Continuous
 62
     7
100
AcDbCircle
 10
-96.2352586209
 20
925.4774800316
 30
0.0
 40
418.0000000000001
100
AcDbArc
 50
98.9113940148
 51
108.5352207075
  0
ARC
  5
8E
330
1F
100
AcDbEntity
  8
0
  6
Continuous
 62
     7
100
AcDbCircle
 10
-117.1882336595
 20
925.4774800316
 30
0.0
 40
418.0000000000001
100
AcDbArc
 50
71.4647792925
 51
81.0886059852
  0
ARC
  5
8F
330
1F
100
AcDbEntity
  8
0
  6
Continuous
 62
     7
100
AcDbCircle
 10
-159.4372542265
 20
1328.5525446926
 30
0.0
 40
10.00000000000023
100
AcDbArc
 50
90.0
 51
98.9113940148
  0
ARC
  5
90
330
1F
100
AcDbEntity
  8
0
  6
Continuous
 62
     7
100
AcDbCircle
 10
-53.986238054
 20
1328.5525446926
 30
0.0
 40
10.00000000000019
100
AcDbArc
 50
81.0886059852
 51
90.0
  0
LINE
  5
91
330
1F
100
AcDbEntity
  8
0
  6
Continuous
 62
     7
100
AcDbLine
 10
181.0190890612
 20
1318.5525446926
 30
0.0
 11
181.8397408678
 21
1317.9811161211
 31
0.0
  0
LINE
  5
92
330
1F
100
AcDbEntity
  8
0
  6
Continuous
 62
     7
100
AcDbLine
 10
431.1984372545
 20
1317.9811161211
 30
0.0
 11
432.0190890612
 21
1318.5525446926
 31
0.0
  0
LINE
  5
93
330
1F
100
AcDbEntity
  8
0
  6
Continuous
 62
     7
100
AcDbLine
 10
432.0190890612
 20
1318.5525446926
 30
0.0
 11
430.6792712559
 21
1320.4767115219
 31
0.0
  0
LINE
  5
94
330
1F
100
AcDbEntity
  8
0
  6
Continuous
 62
     7
100
AcDbLine
 10
182.3589068665
 20
1320.4767115219
 30
0.0
 11
181.0190890612
 21
1318.5525446926
 31
0.0
  0
ARC
  5
95
330
1F
100
AcDbEntity
  8
0
  6
Continuous
 62
     7
100
AcDbCircle
 10
427.8069899326
 20
1318.4767115219
 30
0.0
 40
3.500000000000167
100
AcDbArc
 50
34.8499045791
 51
71.4647792925
  0
ARC
  5
96
330
1F
100
AcDbEntity
  8
0
  6
Continuous
 62
     7
100
AcDbCircle
 10
185.2311881897
 20
1318.4767115219
 30
0.0
 40
3.500000000000158
100
AcDbArc
 50
108.5352207075
 51
145.1500954209
  0
ARC
  5
97
330
1F
100
AcDbEntity
  8
0
  6
Continuous
 62
     7
100
AcDbCircle
 10
316.9955765805
 20
925.4774800316
 30
0.0
 40
418.0
100
AcDbArc
 50
98.9113940148
 51
108.5352207075
  0
ARC
  5
98
330
1F
100
AcDbEntity
  8
0
  6
Continuous
 62
     7
100
AcDbCircle
 10
296.0426015419
 20
925.4774800316
 30
0.0
 40
418.0000000000002
100
AcDbArc
 50
71.4647792925
 51
81.0886059852
  0
ARC
  5
99
330
1F
100
AcDbEntity
  8
0
  6
Continuous
 62
     7
100
AcDbCircle
 10
253.7935809749
 20
1328.5525446926
 30
0.0
 40
10.00000000000023
100
AcDbArc
 50
90.0
 51
98.9113940148
  0
ARC
  5
9A
330
1F
100
AcDbEntity
  8
0
  6
Continuous
 62
     7
100
AcDbCircle
 10
359.2445971474
 20
1328.5525446926
 30
0.0
 40
10.00000000000018
100
AcDbArc
 50
81.0886059852
 51
90.0
  0
LINE
  5
9B
330
1F
100
AcDbEntity
  8
0
  6
Continuous
 62
     7
100
AcDbLine
 10
260.050859477
 20
1212.8994539332
 30
0.0
 11
261.3726424518
 21
1211.5776709584
 31
0.0
  0
ARC
  5
9C
330
1F
100
AcDbEntity
  8
0
  6
Continuous
 62
     7
100
AcDbCircle
 10
261.0190890612
 20
1211.2241175678
 30
0.0
 40
0.4999999999999432
100
AcDbArc
 50
0.0
 51
45.0
  0
LINE
  5
9D
330
1F
100
AcDbEntity
  8
0
  6
Continuous
 62
     7
100
AcDbLine
 10
261.5190890612
 20
1211.2241175678
 30
0.0
 11
261.5190890612
 21
1195.0525446926
 31
0.0
  0
SPLINE
  5
9E
330
1F
100
AcDbEntity
  8
0
  6
Continuous
 62
     7
100
AcDbSpline
210
0.0
220
0.0
230
1.0
 70
     8
 71
     3
 72
    15
 73
    11
 74
     0
 42
0.000000001
 43
0.00000001
 40
0.0
 40
0.0
 40
0.0
 40
0.0
 40
0.1652453321070666
 40
0.3059422624714157
 40
0.4142717329788506
 40
0.5019767374092023
 40
0.6001825369314149
 40
0.7396225220873739
 40
0.990306405057796
 40
0.9999999999999999
 40
0.9999999999999999
 40
0.9999999999999999
 40
0.9999999999999999
 10
259.4388842608507
 20
1213.084476197187
 30
0.0
 10
259.5186942373757
 20
1213.083622915688
 30
0.0
 10
259.6664578351397
 20
1213.082043113893
 30
0.0
 10
259.8507966151039
 20
1213.024313633762
 30
0.0
 10
259.9686055366126
 20
1212.966228949636
 30
0.0
 10
260.0317358886232
 20
1212.92585052876
 30
0.0
 10
260.0634393897288
 20
1212.902084149062
 30
0.0
 10
260.0625967119478
 20
1212.902670576175
 30
0.0
 10
260.0475032143392
 20
1212.913594671831
 30
0.0
 10
260.0118915147961
 20
1212.947722044298
 30
0.0
 10
260.0105657265853
 20
1212.948992572486
 30
0.0
  0
SPLINE
  5
9F
330
1F
100
AcDbEntity
  8
0
  6
Continuous
 62
     7
100
AcDbSpline
210
0.0
220
0.0
230
1.0
 70
     8
 71
     3
 72
    10
 73
     6
 74
     0
 42
0.000000001
 43
0.00000001
 40
0.0
 40
0.0
 40
0.0
 40
0.0
 40
0.3411702500423884
 40
0.700184631000109
 40
1.0
 40
1.0
 40
1.0
 40
1.0
 10
252.5689145675397
 20
1219.965190477841
 30
0.0
 10
252.5974553729793
 20
1219.608845602587
 30
0.0
 10
252.6560297455179
 20
1218.877518047042
 30
0.0
 10
253.0823992394731
 20
1217.896037326186
 30
0.0
 10
253.5337619010939
 20
1217.375038859081
 30
0.0
 10
253.7391646822453
 20
1217.137946730692
 30
0.0
  0
LINE
  5
A0
330
1F
100
AcDbEntity
  8
0
  6
Continuous
 62
     7
100
AcDbLine
 10
252.5689145675
 20
1317.9811161211
 30
0.0
 11
252.5689145675
 21
1219.9651904778
 31
0.0
  0
ARC
  5
A1
330
1F
100
AcDbEntity
  8
0
  6
Continuous
 62
     7
100
AcDbCircle
 10
259.2445565878
 20
1216.5794040402
 30
0.0
 40
3.500000000000145
100
AcDbArc
 50
224.9726101816
 51
273.2010165591
  0
LINE
  5
A2
330
1F
100
AcDbEntity
  8
0
  6
Continuous
 62
     7
100
AcDbLine
 10
253.7391646822
 20
1217.1379467307
 30
0.0
 11
256.7685000417
 21
1214.1057136837
 31
0.0
  0
LINE
  5
A3
330
1F
100
AcDbEntity
  8
0
  6
Continuous
 62
     7
100
AcDbLine
 10
335.0305397191
 20
1214.922654616
 30
0.0
 11
336.6599828264
 21
1217.954887663
 31
0.0
  0
ARC
  5
A4
330
1F
100
AcDbEntity
  8
0
  6
Continuous
 62
     7
100
AcDbCircle
 10
331.947492307
 20
1216.5794040402
 30
0.0
 40
3.500000000000036
100
AcDbArc
 50
264.2306951082
 51
332.0708231947
  0
ARC
  5
A5
330
1F
100
AcDbEntity
  8
0
  6
Continuous
 62
     7
100
AcDbCircle
 10
-61.2117461402
 20
1211.2241175678
 30
0.0
 40
0.5
100
AcDbArc
 50
135.0
 51
180.0
  0
LINE
  5
A6
330
1F
100
AcDbEntity
  8
0
  6
Continuous
 62
     7
100
AcDbLine
 10
-61.7117461402
 20
1195.0525446926
 30
0.0
 11
-61.7117461402
 21
1211.2241175678
 31
0.0
  0
LINE
  5
A7
330
1F
100
AcDbEntity
  8
0
  6
Continuous
 62
     7
100
AcDbLine
 10
-61.5652995308
 20
1211.5776709584
 30
0.0
 11
-59.8022673827
 21
1213.3407031065
 31
0.0
  0
SPLINE
  5
A8
330
1F
100
AcDbEntity
  8
0
  6
Continuous
 62
     7
100
AcDbSpline
210
0.0
220
0.0
230
1.0
 70
     8
 71
     3
 72
    11
 73
     7
 74
     0
 42
0.000000001
 43
0.00000001
 40
0.0
 40
0.0
 40
0.0
 40
0.0
 40
0.1156381521239566
 40
0.4055497265066872
 40
0.8564176451674538
 40
1.0
 40
1.0
 40
1.0
 40
1.0
 10
-60.17180710791914
 20
1212.957046771905
 30
0.0
 10
-60.16029257708141
 20
1212.964100252796
 30
0.0
 10
-60.11991044759968
 20
1212.988837220601
 30
0.0
 10
-59.967077884578
 20
1213.052250441065
 30
0.0
 10
-59.78711008044122
 20
1213.099166332195
 30
0.0
 10
-59.66315218708871
 20
1213.07930438953
 30
0.0
 10
-59.63321164029908
 20
1213.074506974798
 30
0.0
  0
ARC
  5
A9
330
1F
100
AcDbEntity
  8
0
  6
Continuous
 62
     7
100
AcDbCircle
 10
-59.4372136669
 20
1216.5794040402
 30
0.0
 40
3.499999999999972
100
AcDbArc
 50
266.837354768
 51
315.0273898184
  0
SPLINE
  5
AA
330
1F
100
AcDbEntity
  8
0
  6
Continuous
 62
     7
100
AcDbSpline
210
0.0
220
0.0
230
1.0
 70
     8
 71
     3
 72
    10
 73
     6
 74
     0
 42
0.000000001
 43
0.00000001
 40
0.0
 40
0.0
 40
0.0
 40
0.0
 40
0.3411946242857731
 40
0.6999823002693536
 40
1.0
 40
1.0
 40
1.0
 40
1.0
 10
-53.93182176131581
 20
1217.137946730693
 30
0.0
 10
-53.70014824568708
 20
1217.410235584417
 30
0.0
 10
-53.22485541034195
 20
1217.968853348591
 30
0.0
 10
-52.83278629465313
 20
1218.964505956434
 30
0.0
 10
-52.78385485551504
 20
1219.652074246122
 30
0.0
 10
-52.76157164661014
 20
1219.965190477841
 30
0.0
  0
LINE
  5
AB
330
1F
100
AcDbEntity
  8
0
  6
Continuous
 62
     7
100
AcDbLine
 10
-56.9611571207
 20
1214.1057136837
 30
0.0
 11
-53.9318217613
 21
1217.1379467307
 31
0.0
  0
LINE
  5
AC
330
1F
100
AcDbEntity
  8
0
  6
Continuous
 62
     7
100
AcDbLine
 10
-52.7615716466
 20
1219.9651904778
 30
0.0
 11
-52.7615716466
 21
1317.9811161211
 31
0.0
  0
ARC
  5
AD
330
1F
100
AcDbEntity
  8
0
  6
Continuous
 62
     7
100
AcDbCircle
 10
-128.5578753677
 20
1216.5794040402
 30
0.0
 40
3.500000000000203
100
AcDbArc
 50
211.6547213153
 51
276.1244513291
  0
LINE
  5
AE
330
1F
100
AcDbEntity
  8
0
  6
Continuous
 62
     7
100
AcDbLine
 10
350.1530636574
 20
1212.1865192888
 30
0.0
 11
351.5190890612
 21
1214.5525446926
 31
0.0
  0
LINE
  5
AF
330
1F
100
AcDbEntity
  8
0
  6
Continuous
 62
     7
100
AcDbLine
 10
351.5190890612
 20
1214.5525446926
 30
0.0
 11
350.6530636574
 21
1215.0525446926
 31
0.0
  0
LINE
  5
B0
330
1F
100
AcDbEntity
  8
0
  6
Continuous
 62
     7
100
AcDbLine
 10
262.385114465
 20
1215.0525446926
 30
0.0
 11
262.0610659388
 21
1214.8654551888
 31
0.0
  0
ARC
  5
B1
330
1F
100
AcDbEntity
  8
0
  6
Continuous
 62
     7
100
AcDbCircle
 10
351.0190890612
 20
1211.6865192888
 30
0.0
 40
1.000000000000018
100
AcDbArc
 50
150.0
 51
180.0
  0
LINE
  5
B2
330
1F
100
AcDbEntity
  8
0
  6
Continuous
 62
     7
100
AcDbLine
 10
350.0190890612
 20
1193.3989154124
 30
0.0
 11
350.0190890612
 21
1211.6865192888
 31
0.0
  0
LINE
  5
B3
330
1F
100
AcDbEntity
  8
0
  6
Continuous
 62
     7
100
AcDbLine
 10
263.0190890612
 20
1195.0525446926
 30
0.0
 11
263.0190890612
 21
1193.3989154124
 31
0.0
  0
ARC
  5
B4
330
1F
100
AcDbEntity
  8
0
  6
Continuous
 62
     7
100
AcDbCircle
 10
348.0190890612
 20
1193.3989154124
 30
0.0
 40
2.000000000000003
100
AcDbArc
 50
292.731494667
 51
0.0
  0
ARC
  5
B5
330
1F
100
AcDbEntity
  8
0
  6
Continuous
 62
     7
100
AcDbCircle
 10
265.0190890612
 20
1193.3989154124
 30
0.0
 40
2.000000000000025
100
AcDbArc
 50
180.0
 51
247.268505333
  0
ARC
  5
B6
330
1F
100
AcDbEntity
  8
0
  6
Continuous
 62
     7
100
AcDbCircle
 10
371.9767006371
 20
1136.2147143812
 30
0.0
 40
60.00000000000006
100
AcDbArc
 50
112.731494667
 51
136.2960107047
  0
ARC
  5
B7
330
1F
100
AcDbEntity
  8
0
  6
Continuous
 62
     7
100
AcDbCircle
 10
241.0614774852
 20
1136.2147143812
 30
0.0
 40
60.00000000000006
100
AcDbArc
 50
43.7039892953
 51
67.268505333
  0
ARC
  5
B8
330
1F
100
AcDbEntity
  8
0
  6
Continuous
 62
     7
100
AcDbCircle
 10
327.1557201233
 20
1179.0525446926
 30
0.0
 40
2.000000000000227
100
AcDbArc
 50
270.0
 51
316.2960107047
  0
ARC
  5
B9
330
1F
100
AcDbEntity
  8
0
  6
Continuous
 62
     7
100
AcDbCircle
 10
285.882457999
 20
1179.0525446926
 30
0.0
 40
1.999999999999999
100
AcDbArc
 50
223.7039892953
 51
270.0
  0
LINE
  5
BA
330
1F
100
AcDbEntity
  8
0
  6
Continuous
 62
     7
100
AcDbLine
 10
-151.7117461402
 20
1214.5525446926
 30
0.0
 11
-150.3457207365
 21
1212.1865192888
 31
0.0
  0
LINE
  5
BB
330
1F
100
AcDbEntity
  8
0
  6
Continuous
 62
     7
100
AcDbLine
 10
-61.7117461402
 20
1214.5525446926
 30
0.0
 11
-62.577771544
 21
1215.0525446926
 31
0.0
  0
LINE
  5
BC
330
1F
100
AcDbEntity
  8
0
  6
Continuous
 62
     7
100
AcDbLine
 10
-150.8457207365
 20
1215.0525446926
 30
0.0
 11
-151.7117461402
 21
1214.5525446926
 31
0.0
  0
ARC
  5
BD
330
1F
100
AcDbEntity
  8
0
  6
Continuous
 62
     7
100
AcDbCircle
 10
-151.2117461402
 20
1211.6865192888
 30
0.0
 40
1.0
100
AcDbArc
 50
0.0
 51
30.0
  0
ARC
  5
BE
330
1F
100
AcDbEntity
  8
0
  6
Continuous
 62
     7
100
AcDbCircle
 10
-65.2117461402
 20
1193.3989154124
 30
0.0
 40
2.00000000000002
100
AcDbArc
 50
292.731494667
 51
0.0
  0
ARC
  5
BF
330
1F
100
AcDbEntity
  8
0
  6
Continuous
 62
     7
100
AcDbCircle
 10
-148.2117461402
 20
1193.3989154124
 30
0.0
 40
2.000000000000036
100
AcDbArc
 50
180.0
 51
247.268505333
  0
LINE
  5
C0
330
1F
100
AcDbEntity
  8
0
  6
Continuous
 62
     7
100
AcDbLine
 10
-63.2117461402
 20
1193.3989154124
 30
0.0
 11
-63.2117461402
 21
1195.0525446926
 31
0.0
  0
LINE
  5
C1
330
1F
100
AcDbEntity
  8
0
  6
Continuous
 62
     7
100
AcDbLine
 10
-150.2117461402
 20
1211.6865192888
 30
0.0
 11
-150.2117461402
 21
1193.3989154124
 31
0.0
  0
ARC
  5
C2
330
1F
100
AcDbEntity
  8
0
  6
Continuous
 62
     7
100
AcDbCircle
 10
-41.2541345643
 20
1136.2147143812
 30
0.0
 40
60.00000000000009
100
AcDbArc
 50
112.731494667
 51
136.2960107047
  0
ARC
  5
C3
330
1F
100
AcDbEntity
  8
0
  6
Continuous
 62
     7
100
AcDbCircle
 10
-172.1693577162
 20
1136.2147143812
 30
0.0
 40
60.00000000000011
100
AcDbArc
 50
43.7039892953
 51
67.268505333
  0
ARC
  5
C4
330
1F
100
AcDbEntity
  8
0
  6
Continuous
 62
     7
100
AcDbCircle
 10
-86.0751150781
 20
1179.0525446926
 30
0.0
 40
2.000000000000227
100
AcDbArc
 50
270.0
 51
316.2960107047
  0
ARC
  5
C5
330
1F
100
AcDbEntity
  8
0
  6
Continuous
 62
     7
100
AcDbCircle
 10
-127.3483772024
 20
1179.0525446926
 30
0.0
 40
2.0
100
AcDbArc
 50
223.7039892953
 51
270.0
  0
LINE
  5
C6
330
1F
100
AcDbEntity
  8
0
  6
Continuous
 62
     7
100
AcDbLine
 10
-109.0733363147
 20
1156.0525446926
 30
0.0
 11
-108.9985990111
 21
1156.0525446926
 31
0.0
  0
LINE
  5
C7
330
1F
100
AcDbEntity
  8
0
  6
Continuous
 62
     7
100
AcDbLine
 10
-108.9985990111
 20
1162.0525446926
 30
0.0
 11
-109.0733363147
 21
1162.0525446926
 31
0.0
  0
LINE
  5
C8
330
1F
100
AcDbEntity
  8
0
  6
Continuous
 62
     7
100
AcDbLine
 10
326.4333279335
 20
1157.0021663637
 30
0.0
 11
326.6596996772
 21
1157.4122420294
 31
0.0
  0
LINE
  5
C9
330
1F
100
AcDbEntity
  8
0
  6
Continuous
 62
     7
100
AcDbLine
 10
326.6596996772
 20
1160.6928473557
 30
0.0
 11
326.4333279335
 21
1161.1029230215
 31
0.0
  0
LINE
  5
CA
330
1F
100
AcDbEntity
  8
0
  6
Continuous
 62
     7
100
AcDbLine
 10
325.1421123934
 20
1162.0525446926
 30
0.0
 11
324.5767283998
 21
1162.0525446926
 31
0.0
  0
LINE
  5
CB
330
1F
100
AcDbEntity
  8
0
  6
Continuous
 62
     7
100
AcDbLine
 10
324.5767283998
 20
1156.0525446926
 30
0.0
 11
325.1421123934
 21
1156.0525446926
 31
0.0
  0
LINE
  5
CC
330
1F
100
AcDbEntity
  8
0
  6
Continuous
 62
     7
100
AcDbLine
 10
-129.0963285395
 20
1175.0525446926
 30
0.0
 11
-129.0963285395
 21
1154.0525446926
 31
0.0
  0
LINE
  5
CD
330
1F
100
AcDbEntity
  8
0
  6
Continuous
 62
     7
100
AcDbLine
 10
-84.0963285395
 20
1154.0525446926
 30
0.0
 11
-84.0963285395
 21
1175.0525446926
 31
0.0
  0
LINE
  5
CE
330
1F
100
AcDbEntity
  8
0
  6
Continuous
 62
     7
100
AcDbLine
 10
-129.0963285395
 20
1154.0525446926
 30
0.0
 11
-127.0963285395
 21
1152.0525446926
 31
0.0
  0
LINE
  5
CF
330
1F
100
AcDbEntity
  8
0
  6
Continuous
 62
     7
100
AcDbLine
 10
-86.0963285395
 20
1152.0525446926
 30
0.0
 11
-84.0963285395
 21
1154.0525446926
 31
0.0
  0
LINE
  5
D0
330
1F
100
AcDbEntity
  8
0
  6
Continuous
 62
     7
100
AcDbLine
 10
-84.0963285395
 20
1175.0525446926
 30
0.0
 11
-86.0963285395
 21
1177.0525446926
 31
0.0
  0
LINE
  5
D1
330
1F
100
AcDbEntity
  8
0
  6
Continuous
 62
     7
100
AcDbLine
 10
-127.0963285395
 20
1177.0525446926
 30
0.0
 11
-129.0963285395
 21
1175.0525446926
 31
0.0
  0
LINE
  5
D2
330
1F
100
AcDbEntity
  8
0
  6
Continuous
 62
     7
100
AcDbLine
 10
283.9036714605
 20
1154.0525446926
 30
0.0
 11
285.9036714605
 21
1152.0525446926
 31
0.0
  0
LINE
  5
D3
330
1F
100
AcDbEntity
  8
0
  6
Continuous
 62
     7
100
AcDbLine
 10
326.9036714605
 20
1152.0525446926
 30
0.0
 11
328.9036714605
 21
1154.0525446926
 31
0.0
  0
LINE
  5
D4
330
1F
100
AcDbEntity
  8
0
  6
Continuous
 62
     7
100
AcDbLine
 10
283.9036714605
 20
1175.0525446926
 30
0.0
 11
283.9036714605
 21
1154.0525446926
 31
0.0
  0
LINE
  5
D5
330
1F
100
AcDbEntity
  8
0
  6
Continuous
 62
     7
100
AcDbLine
 10
328.9036714605
 20
1154.0525446926
 30
0.0
 11
328.9036714605
 21
1175.0525446926
 31
0.0
  0
LINE
  5
D6
330
1F
100
AcDbEntity
  8
0
  6
Continuous
 62
     7
100
AcDbLine
 10
328.9036714605
 20
1175.0525446926
 30
0.0
 11
326.9036714605
 21
1177.0525446926
 31
0.0
  0
LINE
  5
D7
330
1F
100
AcDbEntity
  8
0
  6
Continuous
 62
     7
100
AcDbLine
 10
285.9036714605
 20
1177.0525446926
 30
0.0
 11
283.9036714605
 21
1175.0525446926
 31
0.0
  0
SPLINE
  5
D8
330
1F
100
AcDbEntity
  8
0
  6
Continuous
 62
     7
100
AcDbSpline
210
0.0
220
0.0
230
1.0
 70
     8
 71
     3
 72
     9
 73
     5
 74
     0
 42
0.000000001
 43
0.00000001
 40
0.0
 40
0.0
 40
0.0
 40
0.0
 40
0.4999807125420804
 40
1.0
 40
1.0
 40
1.0
 40
1.0
 10
282.4050367393817
 20
1100.552544692559
 30
0.0
 10
283.0714512221262
 20
1099.886314474945
 30
0.0
 10
284.404331603364
 20
1098.553802638184
 30
0.0
 10
285.7372077029044
 20
1097.221283596246
 30
0.0
 10
286.4036714604661
 20
1096.554998374371
 30
0.0
  0
SPLINE
  5
D9
330
1F
100
AcDbEntity
  8
0
  6
Continuous
 62
     7
100
AcDbSpline
210
0.0
220
0.0
230
1.0
 70
     8
 71
     3
 72
     9
 73
     5
 74
     0
 42
0.000000001
 43
0.00000001
 40
0.0
 40
0.0
 40
0.0
 40
0.0
 40
0.5000861741227881
 40
1.0
 40
1.0
 40
1.0
 40
1.0
 10
286.4036714604662
 20
1129.551780337771
 30
0.0
 10
285.7370101163287
 20
1128.885126497631
 30
0.0
 10
284.4039171842819
 20
1127.552048570994
 30
0.0
 10
283.0708243123146
 20
1126.218969400752
 30
0.0
 10
282.4043927544398
 20
1125.552544692559
 30
0.0
  0
SPLINE
  5
DA
330
1F
100
AcDbEntity
  8
0
  6
Continuous
 62
     7
100
AcDbSpline
210
0.0
220
0.0
230
1.0
 70
     8
 71
     3
 72
     9
 73
     5
 74
     0
 42
0.000000001
 43
0.00000001
 40
0.0
 40
0.0
 40
0.0
 40
0.0
 40
0.4999138258772446
 40
1.0
 40
1.0
 40
1.0
 40
1.0
 10
-82.59704983351016
 20
1125.552544692559
 30
0.0
 10
-83.26348139138508
 20
1126.218969400752
 30
0.0
 10
-84.59657426335235
 20
1127.552048570994
 30
0.0
 10
-85.92966719539926
 20
1128.885126497632
 30
0.0
 10
-86.59632853953667
 20
1129.551780337771
 30
0.0
  0
SPLINE
  5
DB
330
1F
100
AcDbEntity
  8
0
  6
Continuous
 62
     7
100
AcDbSpline
210
0.0
220
0.0
230
1.0
 70
     8
 71
     3
 72
     9
 73
     5
 74
     0
 42
0.000000001
 43
0.00000001
 40
0.0
 40
0.0
 40
0.0
 40
0.0
 40
0.5000192874579185
 40
1.0
 40
1.0
 40
1.0
 40
1.0
 10
-86.59632853953673
 20
1096.554998374372
 30
0.0
 10
-85.92986478197487
 20
1097.221283596246
 30
0.0
 10
-84.59698868243451
 20
1098.553802638185
 30
0.0
 10
-83.26410830119683
 20
1099.886314474945
 30
0.0
 10
-82.5976938184522
 20
1100.55254469256
 30
0.0
  0
LINE
  5
DC
330
1F
100
AcDbEntity
  8
0
  6
Continuous
 62
     7
100
AcDbLine
 10
-82.5976114925
 20
1100.5525446926
 30
0.0
 11
62.4370803386
 21
1100.5525446926
 31
0.0
  0
LINE
  5
DD
330
1F
100
AcDbEntity
  8
0
  6
Continuous
 62
     7
100
AcDbLine
 10
62.437078147
 20
1125.5525446926
 30
0.0
 11
-82.5970498335
 21
1125.5525446926
 31
0.0
  0
LINE
  5
DE
330
1F
100
AcDbEntity
  8
0
  6
Continuous
 62
     7
100
AcDbLine
 10
282.4043206681
 20
1125.5525446926
 30
0.0
 11
137.3702647739
 21
1125.5525446926
 31
0.0
  0
LINE
  5
DF
330
1F
100
AcDbEntity
  8
0
  6
Continuous
 62
     7
100
AcDbLine
 10
137.3702625823
 20
1100.5525446926
 30
0.0
 11
282.4050367394
 21
1100.5525446926
 31
0.0
  0
LINE
  5
E0
330
1F
100
AcDbEntity
  8
0
  6
Continuous
 62
     7
100
AcDbLine
 10
286.4036714605
 20
1096.5549983744
 30
0.0
 11
286.4036714605
 21
1048.0525446926
 31
0.0
  0
LINE
  5
E1
330
1F
100
AcDbEntity
  8
0
  6
Continuous
 62
     7
100
AcDbLine
 10
286.4036714605
 20
1152.0525446926
 30
0.0
 11
286.4036714605
 21
1129.5518155762
 31
0.0
  0
LINE
  5
E2
330
1F
100
AcDbEntity
  8
0
  6
Continuous
 62
     7
100
AcDbLine
 10
326.4036714605
 20
1048.0525446926
 30
0.0
 11
326.4036714605
 21
1152.0525446926
 31
0.0
  0
LINE
  5
E3
330
1F
100
AcDbEntity
  8
0
  6
Continuous
 62
     7
100
AcDbLine
 10
-126.5963285395
 20
1152.0525446926
 30
0.0
 11
-126.5963285395
 21
1048.0525446926
 31
0.0
  0
LINE
  5
E4
330
1F
100
AcDbEntity
  8
0
  6
Continuous
 62
     7
100
AcDbLine
 10
-86.5963285395
 20
1129.5517803378
 30
0.0
 11
-86.5963285395
 21
1152.0525446926
 31
0.0
  0
LINE
  5
E5
330
1F
100
AcDbEntity
  8
0
  6
Continuous
 62
     7
100
AcDbLine
 10
-86.5963285395
 20
1048.0525446926
 30
0.0
 11
-86.5963285395
 21
1096.5549302342
 31
0.0
  0
LINE
  5
E6
330
1F
100
AcDbEntity
  8
0
  6
Continuous
 62
     7
100
AcDbLine
 10
286.4036714605
 20
1048.0525446926
 30
0.0
 11
286.4036714605
 21
1045.5525446926
 31
0.0
  0
LINE
  5
E7
330
1F
100
AcDbEntity
  8
0
  6
Continuous
 62
     7
100
AcDbLine
 10
326.4036714605
 20
1045.5525446926
 30
0.0
 11
326.4036714605
 21
1048.0525446926
 31
0.0
  0
ARC
  5
E8
330
1F
100
AcDbEntity
  8
0
  6
Continuous
 62
     7
100
AcDbCircle
 10
288.4036714605
 20
1045.5525446926
 30
0.0
 40
2.000000000000227
100
AcDbArc
 50
180.0
 51
270.0
  0
ARC
  5
E9
330
1F
100
AcDbEntity
  8
0
  6
Continuous
 62
     7
100
AcDbCircle
 10
324.4036714605
 20
1045.5525446926
 30
0.0
 40
2.0
100
AcDbArc
 50
270.0
 51
0.0
  0
LINE
  5
EA
330
1F
100
AcDbEntity
  8
0
  6
Continuous
 62
     7
100
AcDbLine
 10
-126.5963285395
 20
1048.0525446926
 30
0.0
 11
-126.5963285395
 21
1045.5525446926
 31
0.0
  0
LINE
  5
EB
330
1F
100
AcDbEntity
  8
0
  6
Continuous
 62
     7
100
AcDbLine
 10
-86.5963285395
 20
1045.5525446926
 30
0.0
 11
-86.5963285395
 21
1048.0525446926
 31
0.0
  0
ARC
  5
EC
330
1F
100
AcDbEntity
  8
0
  6
Continuous
 62
     7
100
AcDbCircle
 10
-124.5963285395
 20
1045.5525446926
 30
0.0
 40
2.0
100
AcDbArc
 50
180.0
 51
270.0
  0
ARC
  5
ED
330
1F
100
AcDbEntity
  8
0
  6
Continuous
 62
     7
100
AcDbCircle
 10
-88.5963285395
 20
1045.5525446926
 30
0.0
 40
2.000000000000227
100
AcDbArc
 50
270.0
 51
0.0
  0
LINE
  5
EE
330
1F
100
AcDbEntity
  8
0
  6
Continuous
 62
     7
100
AcDbLine
 10
131.4036714605
 20
1198.0525446926
 30
0.0
 11
131.4036714605
 21
1202.0525446926
 31
0.0
  0
LINE
  5
EF
330
1F
100
AcDbEntity
  8
0
  6
Continuous
 62
     7
100
AcDbLine
 10
68.4036714605
 20
1202.0525446926
 30
0.0
 11
68.4036714605
 21
1198.0525446926
 31
0.0
  0
ARC
  5
F0
330
1F
100
AcDbEntity
  8
0
  6
Continuous
 62
     7
100
AcDbCircle
 10
130.4036714605
 20
1202.0525446926
 30
0.0
 40
1.0
100
AcDbArc
 50
0.0
 51
90.0
  0
ARC
  5
F1
330
1F
100
AcDbEntity
  8
0
  6
Continuous
 62
     7
100
AcDbCircle
 10
69.4036714605
 20
1202.0525446926
 30
0.0
 40
1.0
100
AcDbArc
 50
90.0
 51
180.0
  0
ARC
  5
F2
330
1F
100
AcDbEntity
  8
0
  6
Continuous
 62
     7
100
AcDbCircle
 10
127.9204379142
 20
1113.0525446926
 30
0.0
 40
6.202155172413883
100
AcDbArc
 50
317.563002719
 51
42.436997281
  0
ARC
  5
F3
330
1F
100
AcDbEntity
  8
0
  6
Continuous
 62
     7
100
AcDbCircle
 10
71.8869050067
 20
1113.0525446926
 30
0.0
 40
6.202155172413732
100
AcDbArc
 50
137.5630027193
 51
222.4369972807
  0
LINE
  5
F4
330
1F
100
AcDbEntity
  8
0
  6
Continuous
 62
     7
100
AcDbLine
 10
224.9036714605
 20
-981.4474553074
 30
0.0
 11
223.4804329861
 21
-954.2904474387
 31
0.0
  0
LINE
  5
F5
330
1F
100
AcDbEntity
  8
0
  6
Continuous
 62
     7
100
AcDbLine
 10
-23.6730900652
 20
-954.2904474387
 30
0.0
 11
-25.0963285395
 21
-981.4474553074
 31
0.0
  0
ARC
  5
F6
330
1F
100
AcDbEntity
  8
0
  6
Continuous
 62
     7
100
AcDbCircle
 10
220.4845443818
 20
-954.4474553074
 30
0.0
 40
3.000000000000114
100
AcDbArc
 50
3.0
 51
90.0
  0
ARC
  5
F7
330
1F
100
AcDbEntity
  8
0
  6
Continuous
 62
     7
100
AcDbCircle
 10
-20.6772014609
 20
-954.4474553074
 30
0.0
 40
3.000000000000114
100
AcDbArc
 50
90.0
 51
177.0
  0
LINE
  5
F8
330
1F
100
AcDbEntity
  8
0
  6
Continuous
 62
     7
100
AcDbLine
 10
195.9036714605
 20
-951.4474553074
 30
0.0
 11
146.4036714605
 21
-903.4474553074
 31
0.0
  0
LINE
  5
F9
330
1F
100
AcDbEntity
  8
0
  6
Continuous
 62
     7
100
AcDbLine
 10
53.4036714605
 20
-903.4474553074
 30
0.0
 11
3.9036714605
 21
-951.4474553074
 31
0.0
  0
LINE
  5
FA
330
1F
100
AcDbEntity
  8
0
  6
Continuous
 62
     7
100
AcDbLine
 10
92.7385161572
 20
-950.8849553074
 30
0.0
 11
92.7385161572
 21
-951.4474553074
 31
0.0
  0
LINE
  5
FB
330
1F
100
AcDbEntity
  8
0
  6
Continuous
 62
     7
100
AcDbLine
 10
108.6498769499
 20
-950.8849553074
 30
0.0
 11
108.6498769499
 21
-951.4474553074
 31
0.0
  0
LINE
  5
FC
330
1F
100
AcDbEntity
  8
0
  6
Continuous
 62
     7
100
AcDbLine
 10
124.7466946377
 20
-951.4474553074
 30
0.0
 11
124.7466946377
 21
-950.8849553074
 31
0.0
  0
LINE
  5
FD
330
1F
100
AcDbEntity
  8
0
  6
Continuous
 62
     7
100
AcDbLine
 10
81.485557142
 20
-950.8849553074
 30
0.0
 11
81.485557142
 21
-951.4474553074
 31
0.0
  0
LINE
  5
FE
330
1F
100
AcDbEntity
  8
0
  6
Continuous
 62
     7
100
AcDbLine
 10
130.9088218664
 20
-951.4474553074
 30
0.0
 11
130.9088218664
 21
-950.8849553074
 31
0.0
  0
LINE
  5
FF
330
1F
100
AcDbEntity
  8
0
  6
Continuous
 62
     7
100
AcDbLine
 10
68.1561162419
 20
-950.8849553074
 30
0.0
 11
68.1561162419
 21
-951.4474553074
 31
0.0
  0
LINE
  5
100
330
1F
100
AcDbEntity
  8
0
  6
Continuous
 62
     7
100
AcDbLine
 10
125.4082619079
 20
-950.8849553074
 30
0.0
 11
125.4082619079
 21
-951.4474553074
 31
0.0
  0
LINE
  5
101
330
1F
100
AcDbEntity
  8
0
  6
Continuous
 62
     7
100
AcDbLine
 10
132.1584513082
 20
-950.8849553074
 30
0.0
 11
132.1584513082
 21
-951.4474553074
 31
0.0
  0
LINE
  5
102
330
1F
100
AcDbEntity
  8
0
  6
Continuous
 62
     7
100
AcDbLine
 10
131.4036714605
 20
1198.0525446926
 30
0.0
 11
68.4036714605
 21
1198.0525446926
 31
0.0
  0
LINE
  5
103
330
1F
100
AcDbEntity
  8
0
  6
Continuous
 62
     7
100
AcDbLine
 10
17.9676020531
 20
1317.9811161211
 30
0.0
 11
-231.3910943336
 21
1317.9811161211
 31
0.0
  0
LINE
  5
104
330
1F
100
AcDbEntity
  8
0
  6
Continuous
 62
     7
100
AcDbLine
 10
18.7882538598
 20
1318.5525446926
 30
0.0
 11
-232.2117461402
 21
1318.5525446926
 31
0.0
  0
LINE
  5
105
330
1F
100
AcDbEntity
  8
0
  6
Continuous
 62
     7
100
AcDbLine
 10
-59.9415028593
 20
1338.5525446926
 30
0.0
 11
-53.986238054
 21
1338.5525446926
 31
0.0
  0
LINE
  5
106
330
1F
100
AcDbEntity
  8
0
  6
Continuous
 62
     7
100
AcDbLine
 10
-159.4372542265
 20
1338.5525446926
 30
0.0
 11
-59.9415028593
 21
1338.5525446926
 31
0.0
  0
LINE
  5
107
330
1F
100
AcDbEntity
  8
0
  6
Continuous
 62
     7
100
AcDbLine
 10
417.1160972033
 20
1317.9811161211
 30
0.0
 11
181.8397408678
 21
1317.9811161211
 31
0.0
  0
LINE
  5
108
330
1F
100
AcDbEntity
  8
0
  6
Continuous
 62
     7
100
AcDbLine
 10
431.1984372545
 20
1317.9811161211
 30
0.0
 11
417.1160972033
 21
1317.9811161211
 31
0.0
  0
LINE
  5
109
330
1F
100
AcDbEntity
  8
0
  6
Continuous
 62
     7
100
AcDbLine
 10
417.8440576543
 20
1318.5525446926
 30
0.0
 11
181.0190890612
 21
1318.5525446926
 31
0.0
  0
LINE
  5
10A
330
1F
100
AcDbEntity
  8
0
  6
Continuous
 62
     7
100
AcDbLine
 10
432.0190890612
 20
1318.5525446926
 30
0.0
 11
417.8440576543
 21
1318.5525446926
 31
0.0
  0
LINE
  5
10B
330
1F
100
AcDbEntity
  8
0
  6
Continuous
 62
     7
100
AcDbLine
 10
253.7935809749
 20
1338.5525446926
 30
0.0
 11
359.2445971474
 21
1338.5525446926
 31
0.0
  0
LINE
  5
10C
330
1F
100
AcDbEntity
  8
0
  6
Continuous
 62
     7
100
AcDbLine
 10
263.4067215145
 20
1195.0525446926
 30
0.0
 11
263.4067215145
 21
1211.2241175678
 31
0.0
  0
SPLINE
  5
10D
330
1F
100
AcDbEntity
  8
0
  6
Continuous
 62
     7
100
AcDbSpline
210
0.0
220
0.0
230
1.0
 70
     8
 71
     3
 72
    11
 73
     7
 74
     0
 42
0.000000001
 43
0.00000001
 40
0.0
 40
0.0
 40
0.0
 40
0.0
 40
0.1144794128044147
 40
0.5288366908981008
 40
0.9451970143055366
 40
1.0
 40
1.0
 40
1.0
 40
1.0
 10
263.4067215144701
 20
1211.22411756781
 30
0.0
 10
263.4062891401978
 20
1211.239130123657
 30
0.0
 10
263.4042917908592
 20
1211.308480499956
 30
0.0
 10
263.3704957808299
 20
1211.430591031454
 30
0.0
 10
263.3046647993295
 20
1211.528988044239
 30
0.0
 10
263.2609390105093
 20
1211.572598448863
 30
0.0
 10
263.2558530801473
 20
1211.577670958403
 30
0.0
  0
SPLINE
  5
10E
330
1F
100
AcDbEntity
  8
0
  6
Continuous
 62
     7
100
AcDbSpline
210
0.0
220
0.0
230
1.0
 70
     8
 71
     3
 72
     9
 73
     5
 74
     0
 42
0.000000001
 43
0.00000001
 40
0.0
 40
0.0
 40
0.0
 40
0.0
 40
0.9512925882262918
 40
1.0
 40
1.0
 40
1.0
 40
1.0
 10
263.2558530801473
 20
1211.577670958403
 30
0.0
 10
261.1003154073152
 20
1213.674797447512
 30
0.0
 10
258.8344114157251
 20
1215.879299527171
 30
0.0
 10
256.5743109994323
 20
1218.089757822476
 30
0.0
 10
256.4642273578061
 20
1218.197423524874
 30
0.0
  0
SPLINE
  5
10F
330
1F
100
AcDbEntity
  8
0
  6
Continuous
 62
     7
100
AcDbSpline
210
0.0
220
0.0
230
1.0
 70
     8
 71
     3
 72
    11
 73
     7
 74
     0
 42
0.000000001
 43
0.00000001
 40
0.0
 40
0.0
 40
0.0
 40
0.0
 40
0.0940156808240407
 40
0.5290447106682457
 40
0.7966319509246085
 40
1.0
 40
1.0
 40
1.0
 40
1.0
 10
256.4642273578061
 20
1218.197423524874
 30
0.0
 10
256.421184135184
 20
1218.241476787373
 30
0.0
 10
256.1789714632266
 20
1218.489373152194
 30
0.0
 10
255.9033916044751
 20
1218.947367249762
 30
0.0
 10
255.7372114889279
 20
1219.522701994618
 30
0.0
 10
255.7222880883423
 20
1219.831741115426
 30
0.0
 10
255.7158438611908
 20
1219.965190477841
 30
0.0
  0
LINE
  5
110
330
1F
100
AcDbEntity
  8
0
  6
Continuous
 62
     7
100
AcDbLine
 10
255.7158438612
 20
1219.9651904778
 30
0.0
 11
255.7158438612
 21
1317.9811161211
 31
0.0
  0
LINE
  5
111
330
1F
100
AcDbEntity
  8
0
  6
Continuous
 62
     7
100
AcDbLine
 10
257.249466825
 20
1219.9651904778
 30
0.0
 11
257.249466825
 21
1317.9811161211
 31
0.0
  0
SPLINE
  5
112
330
1F
100
AcDbEntity
  8
0
  6
Continuous
 62
     7
100
AcDbSpline
210
0.0
220
0.0
230
1.0
 70
     8
 71
     3
 72
    11
 73
     7
 74
     0
 42
0.000000001
 43
0.00000001
 40
0.0
 40
0.0
 40
0.0
 40
0.0
 40
0.2659555069152187
 40
0.5437356058246338
 40
0.9615521725941402
 40
1.0
 40
1.0
 40
1.0
 40
1.0
 10
257.5491761786083
 20
1219.258083696654
 30
0.0
 10
257.5021670475426
 20
1219.309908384513
 30
0.0
 10
257.4060587222975
 20
1219.415861926805
 30
0.0
 10
257.291211833232
 20
1219.643109306963
 30
0.0
 10
257.2507428888567
 20
1219.835507817836
 30
0.0
 10
257.2495659975973
 20
1219.955111857762
 30
0.0
 10
257.2494668250285
 20
1219.965190477841
 30
0.0
  0
SPLINE
  5
113
330
1F
100
AcDbEntity
  8
0
  6
Continuous
 62
     7
100
AcDbSpline
210
0.0
220
0.0
230
1.0
 70
     8
 71
     3
 72
     9
 73
     5
 74
     0
 42
0.000000001
 43
0.00000001
 40
0.0
 40
0.0
 40
0.0
 40
0.0
 40
0.9536084747597233
 40
1.0
 40
1.0
 40
1.0
 40
1.0
 10
264.3492574834728
 20
1212.638331130183
 30
0.0
 10
262.1856540761511
 20
1214.740426794565
 30
0.0
 10
259.9167948277401
 20
1216.944786046837
 30
0.0
 10
257.6541440015226
 20
1219.155524182628
 30
0.0
 10
257.5491761786083
 20
1219.258083696655
 30
0.0
  0
SPLINE
  5
114
330
1F
100
AcDbEntity
  8
0
  6
Continuous
 62
     7
100
AcDbSpline
210
0.0
220
0.0
230
1.0
 70
     8
 71
     3
 72
    10
 73
     6
 74
     0
 42
0.000000001
 43
0.00000001
 40
0.0
 40
0.0
 40
0.0
 40
0.0
 40
0.2450596974510784
 40
0.6664586318037419
 40
0.9999999999999999
 40
0.9999999999999999
 40
0.9999999999999999
 40
0.9999999999999999
 10
264.9538690378219
 20
1211.22411756781
 30
0.0
 10
264.9459704808914
 20
1211.352679746004
 30
0.0
 10
264.9244897498699
 20
1211.702314444292
 30
0.0
 10
264.7287357710615
 20
1212.208673914392
 30
0.0
 10
264.4655402934134
 20
1212.506672086708
 30
0.0
 10
264.3492574834728
 20
1212.638331130183
 30
0.0
  0
LINE
  5
115
330
1F
100
AcDbEntity
  8
0
  6
Continuous
 62
     7
100
AcDbLine
 10
264.9538690378
 20
1195.0525446926
 30
0.0
 11
264.9538690378
 21
1211.2241175678
 31
0.0
  0
LINE
  5
116
330
1F
100
AcDbEntity
  8
0
  6
Continuous
 62
     7
100
AcDbLine
 10
263.4067215145
 20
1195.0525446926
 30
0.0
 11
264.9538690378
 21
1195.0525446926
 31
0.0
  0
LINE
  5
117
330
1F
100
AcDbEntity
  8
0
  6
Continuous
 62
     7
100
AcDbLine
 10
263.4067215145
 20
1195.0525446926
 30
0.0
 11
261.5190890612
 21
1195.0525446926
 31
0.0
  0
LINE
  5
118
330
1F
100
AcDbEntity
  8
0
  6
Continuous
 62
     7
100
AcDbLine
 10
319.8583439389
 20
1195.0525446926
 30
0.0
 11
319.8583439389
 21
1211.2241175678
 31
0.0
  0
SPLINE
  5
119
330
1F
100
AcDbEntity
  8
0
  6
Continuous
 62
     7
100
AcDbSpline
210
0.0
220
0.0
230
1.0
 70
     8
 71
     3
 72
    10
 73
     6
 74
     0
 42
0.000000001
 43
0.00000001
 40
0.0
 40
0.0
 40
0.0
 40
0.0
 40
0.2450596974510887
 40
0.6664586318037498
 40
1.0
 40
1.0
 40
1.0
 40
1.0
 10
319.8583439388686
 20
1211.22411756781
 30
0.0
 10
319.8625924777792
 20
1211.352679746004
 30
0.0
 10
319.8741467050099
 20
1211.702314444292
 30
0.0
 10
319.9794404191876
 20
1212.208673914393
 30
0.0
 10
320.1210101056122
 20
1212.506672086708
 30
0.0
 10
320.1835572325118
 20
1212.638331130183
 30
0.0
  0
SPLINE
  5
11A
330
1F
100
AcDbEntity
  8
0
  6
Continuous
 62
     7
100
AcDbSpline
210
0.0
220
0.0
230
1.0
 70
     8
 71
     3
 72
     9
 73
     5
 74
     0
 42
0.000000001
 43
0.00000001
 40
0.0
 40
0.0
 40
0.0
 40
0.0
 40
0.953608474759733
 40
1.0
 40
1.0
 40
1.0
 40
1.0
 10
320.1835572325119
 20
1212.638331130183
 30
0.0
 10
321.3473335202324
 20
1214.740426794565
 30
0.0
 10
322.5677256607423
 20
1216.944786046837
 30
0.0
 10
323.784778365517
 20
1219.155524182628
 30
0.0
 10
323.8412392967892
 20
1219.258083696654
 30
0.0
  0
SPLINE
  5
11B
330
1F
100
AcDbEntity
  8
0
  6
Continuous
 62
     7
100
AcDbSpline
210
0.0
220
0.0
230
1.0
 70
     8
 71
     3
 72
    11
 73
     7
 74
     0
 42
0.000000001
 43
0.00000001
 40
0.0
 40
0.0
 40
0.0
 40
0.0
 40
0.2659555069152624
 40
0.543735605824743
 40
0.9615521725941464
 40
1.0
 40
1.0
 40
1.0
 40
1.0
 10
323.8412392967892
 20
1219.258083696654
 30
0.0
 10
323.8665249438056
 20
1219.309908384513
 30
0.0
 10
323.9182204576853
 20
1219.415861926805
 30
0.0
 10
323.9799952199912
 20
1219.643109306963
 30
0.0
 10
324.0017629791358
 20
1219.835507817838
 30
0.0
 10
324.0023960148089
 20
1219.955111857762
 30
0.0
 10
324.0024493585425
 20
1219.965190477841
 30
0.0
  0
LINE
  5
11C
330
1F
100
AcDbEntity
  8
0
  6
Continuous
 62
     7
100
AcDbLine
 10
324.0024493585
 20
1219.9651904778
 30
0.0
 11
324.0024493585
 21
1317.9811161211
 31
0.0
  0
LINE
  5
11D
330
1F
100
AcDbEntity
  8
0
  6
Continuous
 62
     7
100
AcDbLine
 10
324.8273667318
 20
1219.9651904778
 30
0.0
 11
324.8273667318
 21
1317.9811161211
 31
0.0
  0
SPLINE
  5
11E
330
1F
100
AcDbEntity
  8
0
  6
Continuous
 62
     7
100
AcDbSpline
210
0.0
220
0.0
230
1.0
 70
     8
 71
     3
 72
    11
 73
     7
 74
     0
 42
0.000000001
 43
0.00000001
 40
0.0
 40
0.0
 40
0.0
 40
0.0
 40
0.0940156808242474
 40
0.5290447106684567
 40
0.7966319509245946
 40
1.0
 40
1.0
 40
1.0
 40
1.0
 10
324.4248202371625
 20
1218.197423524874
 30
0.0
 10
324.4479726696579
 20
1218.241476787373
 30
0.0
 10
324.5782559569072
 20
1218.489373152196
 30
0.0
 10
324.7264870531897
 20
1218.947367249762
 30
0.0
 10
324.8158733415037
 20
1219.522701994618
 30
0.0
 10
324.8239004594474
 20
1219.831741115428
 30
0.0
 10
324.8273667318364
 20
1219.965190477841
 30
0.0
  0
SPLINE
  5
11F
330
1F
100
AcDbEntity
  8
0
  6
Continuous
 62
     7
100
AcDbSpline
210
0.0
220
0.0
230
1.0
 70
     8
 71
     3
 72
     9
 73
     5
 74
     0
 42
0.000000001
 43
0.00000001
 40
0.0
 40
0.0
 40
0.0
 40
0.0
 40
0.9512925882262977
 40
1.0
 40
1.0
 40
1.0
 40
1.0
 10
320.7716863291722
 20
1211.577670958403
 30
0.0
 10
321.9311241551804
 20
1213.674797447516
 30
0.0
 10
323.1499266985392
 20
1215.879299527181
 30
0.0
 10
324.3656075684465
 20
1218.089757822476
 30
0.0
 10
324.4248202371625
 20
1218.197423524874
 30
0.0
  0
SPLINE
  5
120
330
1F
100
AcDbEntity
  8
0
  6
Continuous
 62
     7
100
AcDbSpline
210
0.0
220
0.0
230
1.0
 70
     8
 71
     3
 72
    11
 73
     7
 74
     0
 42
0.000000001
 43
0.00000001
 40
0.0
 40
0.0
 40
0.0
 40
0.0
 40
0.1144794128043798
 40
0.5288366908978209
 40
0.9451970143053392
 40
1.0
 40
1.0
 40
1.0
 40
1.0
 10
320.6905360102936
 20
1211.22411756781
 30
0.0
 10
320.690768579222
 20
1211.239130123658
 30
0.0
 10
320.6918429294431
 20
1211.308480499956
 30
0.0
 10
320.7100213973444
 20
1211.430591031455
 30
0.0
 10
320.7454310916575
 20
1211.528988044238
 30
0.0
 10
320.768950668313
 20
1211.572598448862
 30
0.0
 10
320.7716863291722
 20
1211.577670958403
 30
0.0
  0
LINE
  5
121
330
1F
100
AcDbEntity
  8
0
  6
Continuous
 62
     7
100
AcDbLine
 10
320.6905360103
 20
1195.0525446926
 30
0.0
 11
320.6905360103
 21
1211.2241175678
 31
0.0
  0
LINE
  5
122
330
1F
100
AcDbEntity
  8
0
  6
Continuous
 62
     7
100
AcDbLine
 10
320.6905360103
 20
1195.0525446926
 30
0.0
 11
319.8583439389
 21
1195.0525446926
 31
0.0
  0
SPLINE
  5
123
330
1F
100
AcDbEntity
  8
0
  6
Continuous
 62
     7
100
AcDbSpline
210
0.0
220
0.0
230
1.0
 70
     8
 71
     3
 72
     9
 73
     5
 74
     0
 42
0.000000001
 43
0.00000001
 40
0.0
 40
0.0
 40
0.0
 40
0.0
 40
0.951292588226292
 40
1.0
 40
1.0
 40
1.0
 40
1.0
 10
339.3252558313773
 20
1211.577670958403
 30
0.0
 10
340.4846936573857
 20
1213.674797447513
 30
0.0
 10
341.7034962007442
 20
1215.879299527174
 30
0.0
 10
342.9191770706519
 20
1218.089757822476
 30
0.0
 10
342.9783897393679
 20
1218.197423524874
 30
0.0
  0
LINE
  5
124
330
1F
100
AcDbEntity
  8
0
  6
Continuous
 62
     7
100
AcDbLine
 10
336.6599828264
 20
1217.954887663
 30
0.0
 11
336.685784036
 21
1218.0056522301
 31
0.0
  0
SPLINE
  5
125
330
1F
100
AcDbEntity
  8
0
  6
Continuous
 62
     7
100
AcDbSpline
210
0.0
220
0.0
230
1.0
 70
     8
 71
     3
 72
    11
 73
     7
 74
     0
 42
0.000000001
 43
0.00000001
 40
0.0
 40
0.0
 40
0.0
 40
0.0
 40
0.1144794128044156
 40
0.5288366908981218
 40
0.945197014305532
 40
1.0
 40
1.0
 40
1.0
 40
1.0
 10
339.2441055124991
 20
1211.22411756781
 30
0.0
 10
339.2443380814273
 20
1211.239130123658
 30
0.0
 10
339.2454124316482
 20
1211.308480499956
 30
0.0
 10
339.2635908995499
 20
1211.430591031455
 30
0.0
 10
339.2990005938624
 20
1211.528988044236
 30
0.0
 10
339.3225201705181
 20
1211.572598448862
 30
0.0
 10
339.3252558313773
 20
1211.577670958403
 30
0.0
  0
LINE
  5
126
330
1F
100
AcDbEntity
  8
0
  6
Continuous
 62
     7
100
AcDbLine
 10
339.2441055125
 20
1195.0525446926
 30
0.0
 11
320.6905360103
 21
1195.0525446926
 31
0.0
  0
LINE
  5
127
330
1F
100
AcDbEntity
  8
0
  6
Continuous
 62
     7
100
AcDbLine
 10
339.2441055125
 20
1195.0525446926
 30
0.0
 11
339.2441055125
 21
1211.2241175678
 31
0.0
  0
LINE
  5
128
330
1F
100
AcDbEntity
  8
0
  6
Continuous
 62
     7
100
AcDbLine
 10
336.6927502069
 20
1218.0194007953
 30
0.0
 11
336.685784036
 21
1218.0056522301
 31
0.0
  0
SPLINE
  5
129
330
1F
100
AcDbEntity
  8
0
  6
Continuous
 62
     7
100
AcDbSpline
210
0.0
220
0.0
230
1.0
 70
     8
 71
     3
 72
    11
 73
     7
 74
     0
 42
0.000000001
 43
0.00000001
 40
0.0
 40
0.0
 40
0.0
 40
0.0
 40
0.0940156808240375
 40
0.5290447106682453
 40
0.7966319509246084
 40
1.0
 40
1.0
 40
1.0
 40
1.0
 10
342.9783897393679
 20
1218.197423524874
 30
0.0
 10
343.0015421718633
 20
1218.241476787373
 30
0.0
 10
343.1318254591125
 20
1218.489373152195
 30
0.0
 10
343.2800565553949
 20
1218.947367249762
 30
0.0
 10
343.3694428437094
 20
1219.522701994618
 30
0.0
 10
343.377469961653
 20
1219.831741115426
 30
0.0
 10
343.380936234042
 20
1219.965190477841
 30
0.0
  0
LINE
  5
12A
330
1F
100
AcDbEntity
  8
0
  6
Continuous
 62
     7
100
AcDbLine
 10
343.380936234
 20
1219.9651904778
 30
0.0
 11
343.380936234
 21
1317.9811161211
 31
0.0
  0
LINE
  5
12B
330
1F
100
AcDbEntity
  8
0
  6
Continuous
 62
     7
100
AcDbLine
 10
-64.1849616825
 20
1195.0525446926
 30
0.0
 11
-64.1849616825
 21
1211.2241175678
 31
0.0
  0
SPLINE
  5
12C
330
1F
100
AcDbEntity
  8
0
  6
Continuous
 62
     7
100
AcDbSpline
210
0.0
220
0.0
230
1.0
 70
     8
 71
     3
 72
    10
 73
     6
 74
     0
 42
0.000000001
 43
0.00000001
 40
0.0
 40
0.0
 40
0.0
 40
0.0
 40
0.2450596974510888
 40
0.6664586318037568
 40
1.0
 40
1.0
 40
1.0
 40
1.0
 10
-64.18496168245127
 20
1211.22411756781
 30
0.0
 10
-64.17706312552079
 20
1211.352679746004
 30
0.0
 10
-64.15558239449939
 20
1211.702314444293
 30
0.0
 10
-63.95982841569101
 20
1212.208673914393
 30
0.0
 10
-63.69663293804298
 20
1212.506672086709
 30
0.0
 10
-63.5803501281024
 20
1212.638331130183
 30
0.0
  0
SPLINE
  5
12D
330
1F
100
AcDbEntity
  8
0
  6
Continuous
 62
     7
100
AcDbSpline
210
0.0
220
0.0
230
1.0
 70
     8
 71
     3
 72
     9
 73
     5
 74
     0
 42
0.000000001
 43
0.00000001
 40
0.0
 40
0.0
 40
0.0
 40
0.0
 40
0.9536084747597334
 40
1.0
 40
1.0
 40
1.0
 40
1.0
 10
-63.5803501281024
 20
1212.638331130183
 30
0.0
 10
-61.41674672078043
 20
1214.740426794567
 30
0.0
 10
-59.14788747236926
 20
1216.944786046842
 30
0.0
 10
-56.88523664615195
 20
1219.155524182628
 30
0.0
 10
-56.78026882323758
 20
1219.258083696655
 30
0.0
  0
SPLINE
  5
12E
330
1F
100
AcDbEntity
  8
0
  6
Continuous
 62
     7
100
AcDbSpline
210
0.0
220
0.0
230
1.0
 70
     8
 71
     3
 72
    11
 73
     7
 74
     0
 42
0.000000001
 43
0.00000001
 40
0.0
 40
0.0
 40
0.0
 40
0.0
 40
0.2659555069152651
 40
0.5437356058247428
 40
0.9615521725941468
 40
1.0
 40
1.0
 40
1.0
 40
1.0
 10
-56.78026882323761
 20
1219.258083696655
 30
0.0
 10
-56.73325969217183
 20
1219.309908384514
 30
0.0
 10
-56.63715136692674
 20
1219.415861926805
 30
0.0
 10
-56.52230447786119
 20
1219.643109306963
 30
0.0
 10
-56.4818355334854
 20
1219.835507817836
 30
0.0
 10
-56.48065864222671
 20
1219.955111857762
 30
0.0
 10
-56.48055946965799
 20
1219.965190477841
 30
0.0
  0
LINE
  5
12F
330
1F
100
AcDbEntity
  8
0
  6
Continuous
 62
     7
100
AcDbLine
 10
-56.4805594697
 20
1219.9651904778
 30
0.0
 11
-56.4805594697
 21
1317.9811161211
 31
0.0
  0
LINE
  5
130
330
1F
100
AcDbEntity
  8
0
  6
Continuous
 62
     7
100
AcDbLine
 10
-54.9469365058
 20
1219.9651904778
 30
0.0
 11
-54.9469365058
 21
1317.9811161211
 31
0.0
  0
SPLINE
  5
131
330
1F
100
AcDbEntity
  8
0
  6
Continuous
 62
     7
100
AcDbSpline
210
0.0
220
0.0
230
1.0
 70
     8
 71
     3
 72
    11
 73
     7
 74
     0
 42
0.000000001
 43
0.00000001
 40
0.0
 40
0.0
 40
0.0
 40
0.0
 40
0.094015680824252
 40
0.5290447106684526
 40
0.7966319509245953
 40
1.0
 40
1.0
 40
1.0
 40
1.0
 10
-55.69532000243552
 20
1218.197423524874
 30
0.0
 10
-55.65227677981349
 20
1218.241476787373
 30
0.0
 10
-55.41006410785634
 20
1218.489373152197
 30
0.0
 10
-55.13448424910461
 20
1218.947367249762
 30
0.0
 10
-54.96830413355755
 20
1219.522701994619
 30
0.0
 10
-54.95338073297187
 20
1219.831741115427
 30
0.0
 10
-54.94693650582036
 20
1219.965190477841
 30
0.0
  0
SPLINE
  5
132
330
1F
100
AcDbEntity
  8
0
  6
Continuous
 62
     7
100
AcDbSpline
210
0.0
220
0.0
230
1.0
 70
     8
 71
     3
 72
     9
 73
     5
 74
     0
 42
0.000000001
 43
0.00000001
 40
0.0
 40
0.0
 40
0.0
 40
0.0
 40
0.9512925882262968
 40
1.0
 40
1.0
 40
1.0
 40
1.0
 10
-62.48694572477659
 20
1211.577670958403
 30
0.0
 10
-60.33140805194434
 20
1213.674797447513
 30
0.0
 10
-58.06550406035407
 20
1215.879299527172
 30
0.0
 10
-55.8054036440618
 20
1218.089757822476
 30
0.0
 10
-55.69532000243552
 20
1218.197423524874
 30
0.0
  0
SPLINE
  5
133
330
1F
100
AcDbEntity
  8
0
  6
Continuous
 62
     7
100
AcDbSpline
210
0.0
220
0.0
230
1.0
 70
     8
 71
     3
 72
    11
 73
     7
 74
     0
 42
0.000000001
 43
0.00000001
 40
0.0
 40
0.0
 40
0.0
 40
0.0
 40
0.1144794128043784
 40
0.5288366908978306
 40
0.9451970143053631
 40
1.0
 40
1.0
 40
1.0
 40
1.0
 10
-62.63781415909983
 20
1211.22411756781
 30
0.0
 10
-62.63738178482739
 20
1211.239130123658
 30
0.0
 10
-62.63538443548858
 20
1211.308480499957
 30
0.0
 10
-62.60158842545943
 20
1211.430591031454
 30
0.0
 10
-62.53575744395909
 20
1211.528988044239
 30
0.0
 10
-62.49203165513856
 20
1211.572598448862
 30
0.0
 10
-62.48694572477659
 20
1211.577670958403
 30
0.0
  0
LINE
  5
134
330
1F
100
AcDbEntity
  8
0
  6
Continuous
 62
     7
100
AcDbLine
 10
-62.6378141591
 20
1195.0525446926
 30
0.0
 11
-62.6378141591
 21
1211.2241175678
 31
0.0
  0
LINE
  5
135
330
1F
100
AcDbEntity
  8
0
  6
Continuous
 62
     7
100
AcDbLine
 10
-62.6378141591
 20
1195.0525446926
 30
0.0
 11
-64.1849616825
 21
1195.0525446926
 31
0.0
  0
SPLINE
  5
136
330
1F
100
AcDbEntity
  8
0
  6
Continuous
 62
     7
100
AcDbSpline
210
0.0
220
0.0
230
1.0
 70
     8
 71
     3
 72
     9
 73
     5
 74
     0
 42
0.000000001
 43
0.00000001
 40
0.0
 40
0.0
 40
0.0
 40
0.0
 40
0.9309124286062423
 40
1.0
 40
1.0
 40
1.0
 40
1.0
 10
-62.30782194969811
 20
1214.812800054711
 30
0.0
 10
-60.88959374659655
 20
1216.190769017183
 30
0.0
 10
-59.36611188136373
 20
1217.671003806331
 30
0.0
 10
-57.8467989016351
 20
1219.155521943844
 30
0.0
 10
-57.74183325767859
 20
1219.258083696655
 30
0.0
  0
LINE
  5
137
330
1F
100
AcDbEntity
  8
0
  6
Continuous
 62
     7
100
AcDbLine
 10
-61.7117461402
 20
1195.0525446926
 30
0.0
 11
-62.6378141591
 21
1195.0525446926
 31
0.0
  0
SPLINE
  5
138
330
1F
100
AcDbEntity
  8
0
  6
Continuous
 62
     7
100
AcDbSpline
210
0.0
220
0.0
230
1.0
 70
     8
 71
     3
 72
    11
 73
     7
 74
     0
 42
0.000000001
 43
0.00000001
 40
0.0
 40
0.0
 40
0.0
 40
0.0
 40
0.1302290782175599
 40
0.502140747861266
 40
0.8715944419641906
 40
1.0
 40
1.0
 40
1.0
 40
1.0
 10
-59.80326249216847
 20
1213.341698216021
 30
0.0
 10
-59.74992581448232
 20
1213.394543803445
 30
0.0
 10
-59.5442688322759
 20
1213.598307226743
 30
0.0
 10
-58.98916570883003
 20
1214.164525402282
 30
0.0
 10
-58.38464138709079
 20
1214.774313164168
 30
0.0
 10
-58.02666376066082
 20
1215.132267369759
 30
0.0
 10
-57.934335825228
 20
1215.224589264597
 30
0.0
  0
SPLINE
  5
139
330
1F
100
AcDbEntity
  8
0
  6
Continuous
 62
     7
100
AcDbSpline
210
0.0
220
0.0
230
1.0
 70
     8
 71
     3
 72
    11
 73
     7
 74
     0
 42
0.000000001
 43
0.00000001
 40
0.0
 40
0.0
 40
0.0
 40
0.0
 40
0.2659555069152122
 40
0.5437356058246341
 40
0.96155217259414
 40
1.0
 40
1.0
 40
1.0
 40
1.0
 10
-57.74183325767859
 20
1219.258083696655
 30
0.0
 10
-57.69482412661286
 20
1219.309908384513
 30
0.0
 10
-57.5987158013678
 20
1219.415861926803
 30
0.0
 10
-57.48386891230242
 20
1219.643109306965
 30
0.0
 10
-57.44339996792702
 20
1219.835507817834
 30
0.0
 10
-57.4422230766676
 20
1219.955111857763
 30
0.0
 10
-57.44212390409881
 20
1219.965190477841
 30
0.0
  0
LINE
  5
13A
330
1F
100
AcDbEntity
  8
0
  6
Continuous
 62
     7
100
AcDbLine
 10
-57.4421239041
 20
1219.9651904778
 30
0.0
 11
-57.4421239041
 21
1220.7077369467
 31
0.0
  0
LINE
  5
13B
330
1F
100
AcDbEntity
  8
0
  6
Continuous
 62
     7
100
AcDbLine
 10
-57.4421239041
 20
1254.6715094583
 30
0.0
 11
-57.4421239041
 21
1317.9811161211
 31
0.0
  0
LINE
  5
13C
330
1F
100
AcDbEntity
  8
0
  6
Continuous
 62
     7
100
AcDbLine
 10
-117.0990972356
 20
1195.0525446926
 30
0.0
 11
-117.0990972356
 21
1211.2241175678
 31
0.0
  0
SPLINE
  5
13D
330
1F
100
AcDbEntity
  8
0
  6
Continuous
 62
     7
100
AcDbSpline
210
0.0
220
0.0
230
1.0
 70
     8
 71
     3
 72
    11
 73
     7
 74
     0
 42
0.000000001
 43
0.00000001
 40
0.0
 40
0.0
 40
0.0
 40
0.0
 40
0.1144794128044144
 40
0.5288366908981083
 40
0.9451970143055418
 40
1.0
 40
1.0
 40
1.0
 40
1.0
 10
-117.0990972356095
 20
1211.22411756781
 30
0.0
 10
-117.0992970409536
 20
1211.239130123658
 30
0.0
 10
-117.1002200400712
 20
1211.308480499956
 30
0.0
 10
-117.1158375821992
 20
1211.430591031455
 30
0.0
 10
-117.1462588693867
 20
1211.528988044239
 30
0.0
 10
-117.1664650815513
 20
1211.572598448863
 30
0.0
 10
-117.1688153510541
 20
1211.577670958403
 30
0.0
  0
SPLINE
  5
13E
330
1F
100
AcDbEntity
  8
0
  6
Continuous
 62
     7
100
AcDbSpline
210
0.0
220
0.0
230
1.0
 70
     8
 71
     3
 72
     9
 73
     5
 74
     0
 42
0.000000001
 43
0.00000001
 40
0.0
 40
0.0
 40
0.0
 40
0.0
 40
0.951292588226292
 40
1.0
 40
1.0
 40
1.0
 40
1.0
 10
-117.1688153510541
 20
1211.577670958403
 30
0.0
 10
-118.164915197878
 20
1213.674797447514
 30
0.0
 10
-119.2120166461098
 20
1215.879299527174
 30
0.0
 10
-120.2564361924945
 20
1218.089757822476
 30
0.0
 10
-120.3073071654048
 20
1218.197423524874
 30
0.0
  0
SPLINE
  5
13F
330
1F
100
AcDbEntity
  8
0
  6
Continuous
 62
     7
100
AcDbSpline
210
0.0
220
0.0
230
1.0
 70
     8
 71
     3
 72
    11
 73
     7
 74
     0
 42
0.000000001
 43
0.00000001
 40
0.0
 40
0.0
 40
0.0
 40
0.0
 40
0.0940156808240434
 40
0.5290447106682518
 40
0.7966319509246103
 40
1.0
 40
1.0
 40
1.0
 40
1.0
 10
-120.3073071654048
 20
1218.197423524874
 30
0.0
 10
-120.3271979555315
 20
1218.241476787373
 30
0.0
 10
-120.4391273402397
 20
1218.489373152196
 30
0.0
 10
-120.5664761027089
 20
1218.947367249762
 30
0.0
 10
-120.6432699299415
 20
1219.52270199462
 30
0.0
 10
-120.6501662125835
 20
1219.831741115427
 30
0.0
 10
-120.653144167346
 20
1219.965190477841
 30
0.0
  0
LINE
  5
140
330
1F
100
AcDbEntity
  8
0
  6
Continuous
 62
     7
100
AcDbLine
 10
-120.6531441673
 20
1219.9651904778
 30
0.0
 11
-120.6531441673
 21
1317.9811161211
 31
0.0
  0
LINE
  5
141
330
1F
100
AcDbEntity
  8
0
  6
Continuous
 62
     7
100
AcDbLine
 10
-119.9444385768
 20
1219.9651904778
 30
0.0
 11
-119.9444385768
 21
1317.9811161211
 31
0.0
  0
SPLINE
  5
142
330
1F
100
AcDbEntity
  8
0
  6
Continuous
 62
     7
100
AcDbSpline
210
0.0
220
0.0
230
1.0
 70
     8
 71
     3
 72
    11
 73
     7
 74
     0
 42
0.000000001
 43
0.00000001
 40
0.0
 40
0.0
 40
0.0
 40
0.0
 40
0.265955506915223
 40
0.5437356058246273
 40
0.9615521725941403
 40
1.0
 40
1.0
 40
1.0
 40
1.0
 10
-119.8059392849758
 20
1219.258083696655
 30
0.0
 10
-119.8276627690253
 20
1219.309908384514
 30
0.0
 10
-119.8720755803908
 20
1219.415861926805
 30
0.0
 10
-119.9251477071501
 20
1219.643109306964
 30
0.0
 10
-119.9438488923808
 20
1219.835507817837
 30
0.0
 10
-119.9443927479671
 20
1219.955111857762
 30
0.0
 10
-119.9444385768023
 20
1219.965190477841
 30
0.0
  0
SPLINE
  5
143
330
1F
100
AcDbEntity
  8
0
  6
Continuous
 62
     7
100
AcDbSpline
210
0.0
220
0.0
230
1.0
 70
     8
 71
     3
 72
     9
 73
     5
 74
     0
 42
0.000000001
 43
0.00000001
 40
0.0
 40
0.0
 40
0.0
 40
0.0
 40
0.9536084747597227
 40
1.0
 40
1.0
 40
1.0
 40
1.0
 10
-116.6635400443886
 20
1212.638331130183
 30
0.0
 10
-117.6633671639901
 20
1214.740426794563
 30
0.0
 10
-118.7118342718914
 20
1216.944786046832
 30
0.0
 10
-119.7574323933337
 20
1219.155524182629
 30
0.0
 10
-119.8059392849758
 20
1219.258083696655
 30
0.0
  0
SPLINE
  5
144
330
1F
100
AcDbEntity
  8
0
  6
Continuous
 62
     7
100
AcDbSpline
210
0.0
220
0.0
230
1.0
 70
     8
 71
     3
 72
    10
 73
     6
 74
     0
 42
0.000000001
 43
0.00000001
 40
0.0
 40
0.0
 40
0.0
 40
0.0
 40
0.2450596974510783
 40
0.6664586318037414
 40
1.0
 40
1.0
 40
1.0
 40
1.0
 10
-116.384141783683
 20
1211.22411756781
 30
0.0
 10
-116.387791801703
 20
1211.352679746005
 30
0.0
 10
-116.3977183054933
 20
1211.702314444293
 30
0.0
 10
-116.4881785701246
 20
1212.208673914394
 30
0.0
 10
-116.6098043613477
 20
1212.506672086709
 30
0.0
 10
-116.6635400443886
 20
1212.638331130183
 30
0.0
  0
LINE
  5
145
330
1F
100
AcDbEntity
  8
0
  6
Continuous
 62
     7
100
AcDbLine
 10
-116.3841417837
 20
1195.0525446926
 30
0.0
 11
-116.3841417837
 21
1211.2241175678
 31
0.0
  0
LINE
  5
146
330
1F
100
AcDbEntity
  8
0
  6
Continuous
 62
     7
100
AcDbLine
 10
-117.0990972356
 20
1195.0525446926
 30
0.0
 11
-116.3841417837
 21
1195.0525446926
 31
0.0
  0
SPLINE
  5
147
330
1F
100
AcDbEntity
  8
0
  6
Continuous
 62
     7
100
AcDbSpline
210
0.0
220
0.0
230
1.0
 70
     8
 71
     3
 72
     9
 73
     5
 74
     0
 42
0.000000001
 43
0.00000001
 40
0.0
 40
0.0
 40
0.0
 40
0.0
 40
0.9512925882262979
 40
1.0
 40
1.0
 40
1.0
 40
1.0
 10
-136.6839492877005
 20
1211.577670958404
 30
0.0
 10
-137.6800491345244
 20
1213.674797447515
 30
0.0
 10
-138.7271505827562
 20
1215.879299527176
 30
0.0
 10
-139.771570129141
 20
1218.089757822477
 30
0.0
 10
-139.8224411020512
 20
1218.197423524875
 30
0.0
  0
SPLINE
  5
148
330
1F
100
AcDbEntity
  8
0
  6
Continuous
 62
     7
100
AcDbSpline
210
0.0
220
0.0
230
1.0
 70
     8
 71
     3
 72
     9
 73
     5
 74
     0
 42
0.000000001
 43
0.00000001
 40
0.0
 40
0.0
 40
0.0
 40
0.0
 40
0.4480602199635251
 40
1.0
 40
1.0
 40
1.0
 40
1.0
 10
-131.6629152610383
 20
1214.975687273812
 30
0.0
 10
-131.6288936230451
 20
1214.903563858545
 30
0.0
 10
-131.5529626734152
 20
1214.742595729589
 30
0.0
 10
-131.4142555710929
 20
1214.588668309851
 30
0.0
 10
-131.3376976035478
 20
1214.503709643659
 30
0.0
  0
SPLINE
  5
149
330
1F
100
AcDbEntity
  8
0
  6
Continuous
 62
     7
100
AcDbSpline
210
0.0
220
0.0
230
1.0
 70
     8
 71
     3
 72
    11
 73
     7
 74
     0
 42
0.000000001
 43
0.00000001
 40
0.0
 40
0.0
 40
0.0
 40
0.0
 40
0.1144794128043847
 40
0.5288366908978531
 40
0.9451970143053886
 40
1.0
 40
1.0
 40
1.0
 40
1.0
 10
-136.6142311722556
 20
1211.22411756781
 30
0.0
 10
-136.6144309775998
 20
1211.239130123658
 30
0.0
 10
-136.6153539767177
 20
1211.308480499958
 30
0.0
 10
-136.6309715188454
 20
1211.430591031454
 30
0.0
 10
-136.6613928060324
 20
1211.528988044237
 30
0.0
 10
-136.6815990181977
 20
1211.572598448863
 30
0.0
 10
-136.6839492877005
 20
1211.577670958403
 30
0.0
  0
SPLINE
  5
14A
330
1F
100
AcDbEntity
  8
0
  6
Continuous
 62
     7
100
AcDbSpline
210
0.0
220
0.0
230
1.0
 70
     8
 71
     3
 72
    11
 73
     7
 74
     0
 42
0.000000001
 43
0.00000001
 40
0.0
 40
0.0
 40
0.0
 40
0.0
 40
0.0940156808242546
 40
0.5290447106684598
 40
0.7966319509245962
 40
1.0
 40
1.0
 40
1.0
 40
1.0
 10
-139.8224411020512
 20
1218.197423524875
 30
0.0
 10
-139.842331892178
 20
1218.241476787373
 30
0.0
 10
-139.9542612768858
 20
1218.489373152196
 30
0.0
 10
-140.0816100393549
 20
1218.947367249762
 30
0.0
 10
-140.1584038665879
 20
1219.522701994619
 30
0.0
 10
-140.16530014923
 20
1219.831741115427
 30
0.0
 10
-140.1682781039925
 20
1219.965190477841
 30
0.0
  0
LINE
  5
14B
330
1F
100
AcDbEntity
  8
0
  6
Continuous
 62
     7
100
AcDbLine
 10
-117.0990972356
 20
1195.0525446926
 30
0.0
 11
-136.6142311723
 21
1195.0525446926
 31
0.0
  0
LINE
  5
14C
330
1F
100
AcDbEntity
  8
0
  6
Continuous
 62
     7
100
AcDbLine
 10
-136.6142311723
 20
1195.0525446926
 30
0.0
 11
-136.6142311723
 21
1211.2241175678
 31
0.0
  0
LINE
  5
14D
330
1F
100
AcDbEntity
  8
0
  6
Continuous
 62
     7
100
AcDbLine
 10
-140.168278104
 20
1219.9651904778
 30
0.0
 11
-140.168278104
 21
1317.9811161211
 31
0.0
  0
LINE
  5
14E
330
1F
100
AcDbEntity
  8
0
  6
Continuous
 62
     7
100
AcDbLine
 10
346.436408477
 20
1214.5525446926
 30
0.0
 11
341.057992668
 21
1214.5525446926
 31
0.0
  0
LINE
  5
14F
330
1F
100
AcDbEntity
  8
0
  6
Continuous
 62
     7
100
AcDbLine
 10
321.285133702
 20
1214.5525446926
 30
0.0
 11
262.3702615331
 21
1214.5525446926
 31
0.0
  0
LINE
  5
150
330
1F
100
AcDbEntity
  8
0
  6
Continuous
 62
     7
100
AcDbLine
 10
351.5190890612
 20
1214.5525446926
 30
0.0
 11
346.436408477
 21
1214.5525446926
 31
0.0
  0
LINE
  5
151
330
1F
100
AcDbEntity
  8
0
  6
Continuous
 62
     7
100
AcDbLine
 10
345.6681993067
 20
1215.0525446926
 30
0.0
 11
341.26167275
 21
1215.0525446926
 31
0.0
  0
LINE
  5
152
330
1F
100
AcDbEntity
  8
0
  6
Continuous
 62
     7
100
AcDbLine
 10
321.5481229351
 20
1215.0525446926
 30
0.0
 11
262.385114465
 21
1215.0525446926
 31
0.0
  0
LINE
  5
153
330
1F
100
AcDbEntity
  8
0
  6
Continuous
 62
     7
100
AcDbLine
 10
350.6530636574
 20
1215.0525446926
 30
0.0
 11
345.6681993067
 21
1215.0525446926
 31
0.0
  0
SPLINE
  5
154
330
1F
100
AcDbEntity
  8
0
  6
Continuous
 62
     7
100
AcDbSpline
210
0.0
220
0.0
230
1.0
 70
     8
 71
     3
 72
    17
 73
    13
 74
     0
 42
0.000000001
 43
0.00000001
 40
0.0
 40
0.0
 40
0.0
 40
0.0
 40
0.1522777574536459
 40
0.2742200511480828
 40
0.3717563383243518
 40
0.4546861805767795
 40
0.5378487799221027
 40
0.6158512998057607
 40
0.6980638727559791
 40
0.8165997468274322
 40
0.975578119802462
 40
1.0
 40
1.0
 40
1.0
 40
1.0
 10
316.002662023001
 20
1177.670679198642
 30
0.0
 10
316.2475929227035
 20
1177.994042012651
 30
0.0
 10
316.688661697075
 20
1178.576350084948
 30
0.0
 10
317.5888195975668
 20
1179.236754236128
 30
0.0
 10
318.4327882112815
 20
1179.636883125851
 30
0.0
 10
319.1971308849132
 20
1179.828725295835
 30
0.0
 10
319.8421257148926
 20
1179.836678001362
 30
0.0
 10
320.3407633303166
 20
1179.678564016544
 30
0.0
 10
320.7121676391387
 20
1179.344296365839
 30
0.0
 10
320.8850947567617
 20
1178.737866398396
 30
0.0
 10
320.7610779991355
 20
1178.117148156422
 30
0.0
 10
320.6083971124938
 20
1177.723145272501
 30
0.0
 10
320.5880658738095
 20
1177.670679198643
 30
0.0
  0
SPLINE
  5
155
330
1F
100
AcDbEntity
  8
0
  6
Continuous
 62
     7
100
AcDbSpline
210
0.0
220
0.0
230
1.0
 70
     8
 71
     3
 72
    17
 73
    13
 74
     0
 42
0.000000001
 43
0.00000001
 40
0.0
 40
0.0
 40
0.0
 40
0.0
 40
0.1522777574536455
 40
0.27422005114808
 40
0.3717563383243576
 40
0.4546861805767756
 40
0.5378487799221083
 40
0.6158512998057696
 40
0.6980638727559755
 40
0.8165997468274258
 40
0.9755781198024626
 40
1.0
 40
1.0
 40
1.0
 40
1.0
 10
286.5767399683319
 20
1177.670679198642
 30
0.0
 10
286.3464875657753
 20
1177.994042012651
 30
0.0
 10
285.9318516618727
 20
1178.576350084948
 30
0.0
 10
285.6342801046796
 20
1179.236754236127
 30
0.0
 10
285.6227453612696
 20
1179.636883125851
 30
0.0
 10
285.8389074160985
 20
1179.828725295835
 30
0.0
 10
286.2386320144999
 20
1179.836678001362
 30
0.0
 10
286.7797137816417
 20
1179.678564016544
 30
0.0
 10
287.478764553674
 20
1179.344296365839
 30
0.0
 10
288.3957264746403
 20
1178.737866398396
 30
0.0
 10
289.0867752860556
 20
1178.117148156422
 30
0.0
 10
289.4501457988144
 20
1177.723145272501
 30
0.0
 10
289.4985328156064
 20
1177.670679198643
 30
0.0
  0
SPLINE
  5
156
330
1F
100
AcDbEntity
  8
0
  6
Continuous
 62
     7
100
AcDbSpline
210
0.0
220
0.0
230
1.0
 70
     8
 71
     3
 72
     9
 73
     5
 74
     0
 42
0.000000001
 43
0.00000001
 40
0.0
 40
0.0
 40
0.0
 40
0.0
 40
0.8610570566385874
 40
1.0
 40
1.0
 40
1.0
 40
1.0
 10
287.1855748577657
 20
1178.3616119456
 30
0.0
 10
286.8055821707196
 20
1178.805460173535
 30
0.0
 10
286.3642726383066
 20
1179.320929182833
 30
0.0
 10
286.1253118274402
 20
1179.745117845459
 30
0.0
 10
286.0921099090303
 20
1179.804055866785
 30
0.0
  0
SPLINE
  5
157
330
1F
100
AcDbEntity
  8
0
  6
Continuous
 62
     7
100
AcDbSpline
210
0.0
220
0.0
230
1.0
 70
     8
 71
     3
 72
     9
 73
     5
 74
     0
 42
0.000000001
 43
0.00000001
 40
0.0
 40
0.0
 40
0.0
 40
0.0
 40
0.798648632525319
 40
1.0
 40
1.0
 40
1.0
 40
1.0
 10
320.6390990686184
 20
1179.358859346132
 30
0.0
 10
320.5564968622892
 20
1179.099352413023
 30
0.0
 10
320.4530693937312
 20
1178.774419867544
 30
0.0
 10
320.2480257294811
 20
1178.430800229593
 30
0.0
 10
320.2067399072923
 20
1178.3616119456
 30
0.0
  0
SPLINE
  5
158
330
1F
100
AcDbEntity
  8
0
  6
Continuous
 62
     7
100
AcDbSpline
210
0.0
220
0.0
230
1.0
 70
     8
 71
     3
 72
    11
 73
     7
 74
     0
 42
0.000000001
 43
0.00000001
 40
0.0
 40
0.0
 40
0.0
 40
0.0
 40
0.2386465147048228
 40
0.5868928394831716
 40
0.9335740397371688
 40
1.0
 40
1.0
 40
1.0
 40
1.0
 10
315.370360380324
 20
1177.052544692557
 30
0.0
 10
315.3997788404914
 20
1177.059541471864
 30
0.0
 10
315.4721263610165
 20
1177.076748342367
 30
0.0
 10
315.6819556794936
 20
1177.251933437822
 30
0.0
 10
315.8814422524118
 20
1177.489174993957
 30
0.0
 10
315.9858703994085
 20
1177.645536845455
 30
0.0
 10
316.002662023001
 20
1177.670679198642
 30
0.0
  0
SPLINE
  5
159
330
1F
100
AcDbEntity
  8
0
  6
Continuous
 62
     7
100
AcDbSpline
210
0.0
220
0.0
230
1.0
 70
     8
 71
     3
 72
    10
 73
     6
 74
     0
 42
0.000000001
 43
0.00000001
 40
0.0
 40
0.0
 40
0.0
 40
0.0
 40
0.3796659680738055
 40
0.7610441059735641
 40
0.9999999999999999
 40
0.9999999999999999
 40
0.9999999999999999
 40
0.9999999999999999
 10
289.4985328156063
 20
1177.670679198642
 30
0.0
 10
289.639519470082
 20
1177.536476415597
 30
0.0
 10
289.9221285829134
 20
1177.267465638678
 30
0.0
 10
290.3336016646507
 20
1177.07869132088
 30
0.0
 10
290.5410554380823
 20
1177.059815685453
 30
0.0
 10
290.6209677100974
 20
1177.052544692557
 30
0.0
  0
SPLINE
  5
15A
330
1F
100
AcDbEntity
  8
0
  6
Continuous
 62
     7
100
AcDbSpline
210
0.0
220
0.0
230
1.0
 70
     8
 71
     3
 72
    10
 73
     6
 74
     0
 42
0.000000001
 43
0.00000001
 40
0.0
 40
0.0
 40
0.0
 40
0.0
 40
0.3987955457371147
 40
0.7982165460736595
 40
1.0
 40
1.0
 40
1.0
 40
1.0
 10
320.2067399072923
 20
1178.3616119456
 30
0.0
 10
320.153374143991
 20
1178.290521606075
 30
0.0
 10
320.0465589207112
 20
1178.148229431848
 30
0.0
 10
319.8506768768012
 20
1178.062971325953
 30
0.0
 10
319.7203491768157
 20
1178.055164809346
 30
0.0
 10
319.6766070300986
 20
1178.052544692557
 30
0.0
  0
SPLINE
  5
15B
330
1F
100
AcDbEntity
  8
0
  6
Continuous
 62
     7
100
AcDbSpline
210
0.0
220
0.0
230
1.0
 70
     8
 71
     3
 72
    10
 73
     6
 74
     0
 42
0.000000001
 43
0.00000001
 40
0.0
 40
0.0
 40
0.0
 40
0.0
 40
0.3796659680738539
 40
0.7610441059736694
 40
0.9999999999999999
 40
0.9999999999999999
 40
0.9999999999999999
 40
0.9999999999999999
 10
320.5880658738095
 20
1177.670679198643
 30
0.0
 10
320.5181295820923
 20
1177.536476415598
 30
0.0
 10
320.3779416087669
 20
1177.267465638678
 30
0.0
 10
320.042951514667
 20
1177.078691320879
 30
0.0
 10
319.7784820447913
 20
1177.059815685453
 30
0.0
 10
319.6766070300986
 20
1177.052544692557
 30
0.0
  0
LINE
  5
15C
330
1F
100
AcDbEntity
  8
0
  6
Continuous
 62
     7
100
AcDbLine
 10
319.6766070301
 20
1178.0525446926
 30
0.0
 11
316.2968486634
 21
1178.0525446926
 31
0.0
  0
LINE
  5
15D
330
1F
100
AcDbEntity
  8
0
  6
Continuous
 62
     7
100
AcDbLine
 10
327.1557201233
 20
1177.0525446926
 30
0.0
 11
319.6766070301
 21
1177.0525446926
 31
0.0
  0
SPLINE
  5
15E
330
1F
100
AcDbEntity
  8
0
  6
Continuous
 62
     7
100
AcDbSpline
210
0.0
220
0.0
230
1.0
 70
     8
 71
     3
 72
    10
 73
     6
 74
     0
 42
0.000000001
 43
0.00000001
 40
0.0
 40
0.0
 40
0.0
 40
0.0
 40
0.3638598614712857
 40
0.7676508559533586
 40
1.0
 40
1.0
 40
1.0
 40
1.0
 10
287.8770522188384
 20
1178.052544692557
 30
0.0
 10
287.780637166094
 20
1178.060744576212
 30
0.0
 10
287.5772261675112
 20
1178.078044224713
 30
0.0
 10
287.3415297769514
 20
1178.201204695341
 30
0.0
 10
287.2272978734778
 20
1178.318697786445
 30
0.0
 10
287.1855748577657
 20
1178.3616119456
 30
0.0
  0
SPLINE
  5
15F
330
1F
100
AcDbEntity
  8
0
  6
Continuous
 62
     7
100
AcDbSpline
210
0.0
220
0.0
230
1.0
 70
     8
 71
     3
 72
    11
 73
     7
 74
     0
 42
0.000000001
 43
0.00000001
 40
0.0
 40
0.0
 40
0.0
 40
0.0
 40
0.2386465147048205
 40
0.5868928394832138
 40
0.9335740397371336
 40
1.0
 40
1.0
 40
1.0
 40
1.0
 10
287.8770522188384
 20
1177.052544692558
 30
0.0
 10
287.7507157145355
 20
1177.059541471865
 30
0.0
 10
287.4400219261411
 20
1177.076748342369
 30
0.0
 10
286.9987793493941
 20
1177.251933437821
 30
0.0
 10
286.7177111028558
 20
1177.489174993957
 30
0.0
 10
286.5962675933786
 20
1177.645536845455
 30
0.0
 10
286.5767399683319
 20
1177.670679198642
 30
0.0
  0
LINE
  5
160
330
1F
100
AcDbEntity
  8
0
  6
Continuous
 62
     7
100
AcDbLine
 10
289.1127045388
 20
1178.0525446926
 30
0.0
 11
287.8770522188
 21
1178.0525446926
 31
0.0
  0
LINE
  5
161
330
1F
100
AcDbEntity
  8
0
  6
Continuous
 62
     7
100
AcDbLine
 10
285.9927037343
 20
1177.0525446927
 30
0.0
 11
285.882457999
 21
1177.0525446926
 31
0.0
  0
LINE
  5
162
330
1F
100
AcDbEntity
  8
0
  6
Continuous
 62
     7
100
AcDbLine
 10
-61.7117461402
 20
1214.5525446926
 30
0.0
 11
-117.6144680987
 21
1214.5525446926
 31
0.0
  0
LINE
  5
163
330
1F
100
AcDbEntity
  8
0
  6
Continuous
 62
     7
100
AcDbLine
 10
-138.2120164476
 20
1214.5525446926
 30
0.0
 11
-151.7117461402
 21
1214.5525446926
 31
0.0
  0
LINE
  5
164
330
1F
100
AcDbEntity
  8
0
  6
Continuous
 62
     7
100
AcDbLine
 10
-62.577771544
 20
1215.0525446926
 30
0.0
 11
-117.8404028578
 21
1215.0525446926
 31
0.0
  0
LINE
  5
165
330
1F
100
AcDbEntity
  8
0
  6
Continuous
 62
     7
100
AcDbLine
 10
-138.4304541869
 20
1215.0525446926
 30
0.0
 11
-150.8457207365
 21
1215.0525446926
 31
0.0
  0
SPLINE
  5
166
330
1F
100
AcDbEntity
  8
0
  6
Continuous
 62
     7
100
AcDbSpline
210
0.0
220
0.0
230
1.0
 70
     8
 71
     3
 72
    17
 73
    13
 74
     0
 42
0.000000001
 43
0.00000001
 40
0.0
 40
0.0
 40
0.0
 40
0.0
 40
0.1522777574536263
 40
0.2742200511480907
 40
0.371756338324332
 40
0.4546861805767616
 40
0.537848779922097
 40
0.6158512998057527
 40
0.6980638727559599
 40
0.8165997468273988
 40
0.9755781198024496
 40
1.0
 40
1.0
 40
1.0
 40
1.0
 10
-97.22817317840784
 20
1177.670679198643
 30
0.0
 10
-96.98324227870533
 20
1177.994042012651
 30
0.0
 10
-96.5421735043335
 20
1178.576350084949
 30
0.0
 10
-95.64201560384186
 20
1179.236754236128
 30
0.0
 10
-94.79804699012642
 20
1179.636883125851
 30
0.0
 10
-94.0337043164949
 20
1179.828725295836
 30
0.0
 10
-93.38870948651537
 20
1179.836678001363
 30
0.0
 10
-92.89007187109135
 20
1179.678564016544
 30
0.0
 10
-92.51866756226914
 20
1179.344296365841
 30
0.0
 10
-92.34574044464614
 20
1178.737866398396
 30
0.0
 10
-92.46975720227199
 20
1178.117148156424
 30
0.0
 10
-92.62243808891415
 20
1177.723145272502
 30
0.0
 10
-92.64276932759854
 20
1177.670679198643
 30
0.0
  0
SPLINE
  5
167
330
1F
100
AcDbEntity
  8
0
  6
Continuous
 62
     7
100
AcDbSpline
210
0.0
220
0.0
230
1.0
 70
     8
 71
     3
 72
    17
 73
    13
 74
     0
 42
0.000000001
 43
0.00000001
 40
0.0
 40
0.0
 40
0.0
 40
0.0
 40
0.15227775745365
 40
0.2742200511480844
 40
0.371756338324357
 40
0.4546861805767804
 40
0.5378487799221084
 40
0.6158512998057676
 40
0.6980638727559759
 40
0.8165997468274215
 40
0.9755781198024577
 40
1.0
 40
1.0
 40
1.0
 40
1.0
 10
-126.6540952330769
 20
1177.670679198643
 30
0.0
 10
-126.8843476356336
 20
1177.994042012651
 30
0.0
 10
-127.2989835395362
 20
1178.576350084949
 30
0.0
 10
-127.596555096729
 20
1179.236754236128
 30
0.0
 10
-127.6080898401392
 20
1179.636883125852
 30
0.0
 10
-127.3919277853102
 20
1179.828725295835
 30
0.0
 10
-126.992203186909
 20
1179.836678001362
 30
0.0
 10
-126.4511214197674
 20
1179.678564016544
 30
0.0
 10
-125.7520706477346
 20
1179.34429636584
 30
0.0
 10
-124.8351087267684
 20
1178.737866398396
 30
0.0
 10
-124.1440599153532
 20
1178.117148156425
 30
0.0
 10
-123.7806894025943
 20
1177.723145272501
 30
0.0
 10
-123.7323023858023
 20
1177.670679198643
 30
0.0
  0
SPLINE
  5
168
330
1F
100
AcDbEntity
  8
0
  6
Continuous
 62
     7
100
AcDbSpline
210
0.0
220
0.0
230
1.0
 70
     8
 71
     3
 72
     9
 73
     5
 74
     0
 42
0.000000001
 43
0.00000001
 40
0.0
 40
0.0
 40
0.0
 40
0.0
 40
0.7986486325253833
 40
1.0
 40
1.0
 40
1.0
 40
1.0
 10
-92.59173613278945
 20
1179.358859346133
 30
0.0
 10
-92.67433833911879
 20
1179.099352413024
 30
0.0
 10
-92.77776580767663
 20
1178.774419867544
 30
0.0
 10
-92.98280947192697
 20
1178.430800229594
 30
0.0
 10
-93.02409529411574
 20
1178.361611945601
 30
0.0
  0
SPLINE
  5
169
330
1F
100
AcDbEntity
  8
0
  6
Continuous
 62
     7
100
AcDbSpline
210
0.0
220
0.0
230
1.0
 70
     8
 71
     3
 72
     9
 73
     5
 74
     0
 42
0.000000001
 43
0.00000001
 40
0.0
 40
0.0
 40
0.0
 40
0.0
 40
0.8610570566386018
 40
1.0
 40
1.0
 40
1.0
 40
1.0
 10
-126.045260343643
 20
1178.3616119456
 30
0.0
 10
-126.4252530306892
 20
1178.805460173535
 30
0.0
 10
-126.8665625631022
 20
1179.320929182834
 30
0.0
 10
-127.1055233739688
 20
1179.745117845459
 30
0.0
 10
-127.1387252923786
 20
1179.804055866785
 30
0.0
  0
SPLINE
  5
16A
330
1F
100
AcDbEntity
  8
0
  6
Continuous
 62
     7
100
AcDbSpline
210
0.0
220
0.0
230
1.0
 70
     8
 71
     3
 72
    11
 73
     7
 74
     0
 42
0.000000001
 43
0.00000001
 40
0.0
 40
0.0
 40
0.0
 40
0.0
 40
0.2386465147049437
 40
0.586892839483251
 40
0.9335740397372309
 40
1.0
 40
1.0
 40
1.0
 40
1.0
 10
-97.86047482108481
 20
1177.052544692558
 30
0.0
 10
-97.8310563609173
 20
1177.059541471865
 30
0.0
 10
-97.75870884039198
 20
1177.076748342368
 30
0.0
 10
-97.54887952191524
 20
1177.251933437823
 30
0.0
 10
-97.34939294899684
 20
1177.489174993958
 30
0.0
 10
-97.24496480200015
 20
1177.645536845455
 30
0.0
 10
-97.22817317840779
 20
1177.670679198643
 30
0.0
  0
SPLINE
  5
16B
330
1F
100
AcDbEntity
  8
0
  6
Continuous
 62
     7
100
AcDbSpline
210
0.0
220
0.0
230
1.0
 70
     8
 71
     3
 72
    10
 73
     6
 74
     0
 42
0.000000001
 43
0.00000001
 40
0.0
 40
0.0
 40
0.0
 40
0.0
 40
0.3796659680738528
 40
0.7610441059736094
 40
0.9999999999999999
 40
0.9999999999999999
 40
0.9999999999999999
 40
0.9999999999999999
 10
-123.7323023858023
 20
1177.670679198643
 30
0.0
 10
-123.5913157313267
 20
1177.536476415598
 30
0.0
 10
-123.3087066184953
 20
1177.267465638678
 30
0.0
 10
-122.8972335367578
 20
1177.07869132088
 30
0.0
 10
-122.6897797633264
 20
1177.059815685453
 30
0.0
 10
-122.6098674913115
 20
1177.052544692558
 30
0.0
  0
LINE
  5
16C
330
1F
100
AcDbEntity
  8
0
  6
Continuous
 62
     7
100
AcDbLine
 10
-97.8604748211
 20
1177.0525446926
 30
0.0
 11
-122.6098674913
 21
1177.0525446926
 31
0.0
  0
SPLINE
  5
16D
330
1F
100
AcDbEntity
  8
0
  6
Continuous
 62
     7
100
AcDbSpline
210
0.0
220
0.0
230
1.0
 70
     8
 71
     3
 72
    10
 73
     6
 74
     0
 42
0.000000001
 43
0.00000001
 40
0.0
 40
0.0
 40
0.0
 40
0.0
 40
0.3987955457373845
 40
0.7982165460737708
 40
0.9999999999999999
 40
0.9999999999999999
 40
0.9999999999999999
 40
0.9999999999999999
 10
-93.02409529411574
 20
1178.3616119456
 30
0.0
 10
-93.07746105741691
 20
1178.290521606075
 30
0.0
 10
-93.18427628069666
 20
1178.148229431848
 30
0.0
 10
-93.38015832460681
 20
1178.062971325954
 30
0.0
 10
-93.5104860245922
 20
1178.055164809346
 30
0.0
 10
-93.55422817130929
 20
1178.052544692558
 30
0.0
  0
SPLINE
  5
16E
330
1F
100
AcDbEntity
  8
0
  6
Continuous
 62
     7
100
AcDbSpline
210
0.0
220
0.0
230
1.0
 70
     8
 71
     3
 72
    10
 73
     6
 74
     0
 42
0.000000001
 43
0.00000001
 40
0.0
 40
0.0
 40
0.0
 40
0.0
 40
0.3796659680738976
 40
0.7610441059737066
 40
1.0
 40
1.0
 40
1.0
 40
1.0
 10
-92.64276932759854
 20
1177.670679198643
 30
0.0
 10
-92.71270561931568
 20
1177.536476415598
 30
0.0
 10
-92.8528935926413
 20
1177.267465638678
 30
0.0
 10
-93.18788368674089
 20
1177.07869132088
 30
0.0
 10
-93.45235315661662
 20
1177.059815685453
 30
0.0
 10
-93.55422817130929
 20
1177.052544692558
 30
0.0
  0
LINE
  5
16F
330
1F
100
AcDbEntity
  8
0
  6
Continuous
 62
     7
100
AcDbLine
 10
-93.5542281713
 20
1178.0525446926
 30
0.0
 11
-96.933986538
 21
1178.0525446926
 31
0.0
  0
LINE
  5
170
330
1F
100
AcDbEntity
  8
0
  6
Continuous
 62
     7
100
AcDbLine
 10
-93.5542281713
 20
1177.0525446926
 30
0.0
 11
-93.7613924966
 21
1177.0525446926
 31
0.0
  0
LINE
  5
171
330
1F
100
AcDbEntity
  8
0
  6
Continuous
 62
     7
100
AcDbLine
 10
-86.0751150781
 20
1177.0525446926
 30
0.0
 11
-93.5542281713
 21
1177.0525446926
 31
0.0
  0
SPLINE
  5
172
330
1F
100
AcDbEntity
  8
0
  6
Continuous
 62
     7
100
AcDbSpline
210
0.0
220
0.0
230
1.0
 70
     8
 71
     3
 72
    10
 73
     6
 74
     0
 42
0.000000001
 43
0.00000001
 40
0.0
 40
0.0
 40
0.0
 40
0.0
 40
0.3638598614709914
 40
0.7676508559530576
 40
1.0
 40
1.0
 40
1.0
 40
1.0
 10
-125.3537829825703
 20
1178.052544692558
 30
0.0
 10
-125.4501980353147
 20
1178.060744576213
 30
0.0
 10
-125.6536090338973
 20
1178.078044224714
 30
0.0
 10
-125.8893054244572
 20
1178.201204695341
 30
0.0
 10
-126.0035373279309
 20
1178.318697786446
 30
0.0
 10
-126.0452603436431
 20
1178.361611945601
 30
0.0
  0
SPLINE
  5
173
330
1F
100
AcDbEntity
  8
0
  6
Continuous
 62
     7
100
AcDbSpline
210
0.0
220
0.0
230
1.0
 70
     8
 71
     3
 72
    11
 73
     7
 74
     0
 42
0.000000001
 43
0.00000001
 40
0.0
 40
0.0
 40
0.0
 40
0.0
 40
0.2386465147048493
 40
0.5868928394831853
 40
0.9335740397371597
 40
1.0
 40
1.0
 40
1.0
 40
1.0
 10
-125.3537829825703
 20
1177.052544692558
 30
0.0
 10
-125.4801194868733
 20
1177.059541471864
 30
0.0
 10
-125.7908132752677
 20
1177.076748342368
 30
0.0
 10
-126.2320558520146
 20
1177.251933437822
 30
0.0
 10
-126.5131240985529
 20
1177.489174993958
 30
0.0
 10
-126.6345676080301
 20
1177.645536845455
 30
0.0
 10
-126.6540952330769
 20
1177.670679198643
 30
0.0
  0
LINE
  5
174
330
1F
100
AcDbEntity
  8
0
  6
Continuous
 62
     7
100
AcDbLine
 10
-124.1181306626
 20
1178.0525446926
 30
0.0
 11
-125.3537829826
 21
1178.0525446926
 31
0.0
  0
LINE
  5
175
330
1F
100
AcDbEntity
  8
0
  6
Continuous
 62
     7
100
AcDbLine
 10
-125.0004878574
 20
1177.0525446926
 30
0.0
 11
-125.3537829826
 21
1177.0525446926
 31
0.0
  0
LINE
  5
176
330
1F
100
AcDbEntity
  8
0
  6
Continuous
 62
     7
100
AcDbLine
 10
-125.3537829826
 20
1177.0525446926
 30
0.0
 11
-127.3483772024
 21
1177.0525446926
 31
0.0
  0
CIRCLE
  5
177
330
1F
100
AcDbEntity
  8
0
  6
Continuous
 62
     7
100
AcDbCircle
 10
-109.0761963924
 20
1159.0391781022
 30
0.0
 40
2.986528706851824
  0
CIRCLE
  5
178
330
1F
100
AcDbEntity
  8
0
  6
Continuous
 62
     7
100
AcDbCircle
 10
-109.1395028026
 20
1159.0433287058
 30
0.0
 40
2.390570245167451
  0
LINE
  5
179
330
1F
100
AcDbEntity
  8
0
  6
Continuous
 62
     7
100
AcDbLine
 10
-110.7743075935
 20
1158.5143747806
 30
0.0
 11
-110.4192569958
 21
1160.2092156271
 31
0.0
  0
LINE
  5
17A
330
1F
100
AcDbEntity
  8
0
  6
Continuous
 62
     7
100
AcDbLine
 10
-109.4924474583
 20
1157.3577038461
 30
0.0
 11
-110.7743075935
 21
1158.5143747806
 31
0.0
  0
LINE
  5
17B
330
1F
100
AcDbEntity
  8
0
  6
Continuous
 62
     7
100
AcDbLine
 10
-107.8555367254
 20
1157.895873758
 30
0.0
 11
-109.4924474583
 21
1157.3577038461
 31
0.0
  0
LINE
  5
17C
330
1F
100
AcDbEntity
  8
0
  6
Continuous
 62
     7
100
AcDbLine
 10
-107.5004861276
 20
1159.5907146045
 30
0.0
 11
-107.8555367254
 21
1157.895873758
 31
0.0
  0
LINE
  5
17D
330
1F
100
AcDbEntity
  8
0
  6
Continuous
 62
     7
100
AcDbLine
 10
-108.7823462628
 20
1160.7473855391
 30
0.0
 11
-107.5004861276
 21
1159.5907146045
 31
0.0
  0
LINE
  5
17E
330
1F
100
AcDbEntity
  8
0
  6
Continuous
 62
     7
100
AcDbLine
 10
-110.4192569958
 20
1160.2092156271
 30
0.0
 11
-108.7823462628
 21
1160.7473855391
 31
0.0
  0
LINE
  5
17F
330
1F
100
AcDbEntity
  8
0
  6
Continuous
 62
     7
100
AcDbLine
 10
-110.0989542662
 20
1160.2092156271
 30
0.0
 11
-108.6968084079
 21
1160.6702014939
 31
0.0
  0
LINE
  5
180
330
1F
100
AcDbEntity
  8
0
  6
Continuous
 62
     7
100
AcDbLine
 10
-110.0989542662
 20
1160.2092156271
 30
0.0
 11
-110.4192569958
 21
1160.2092156271
 31
0.0
  0
LINE
  5
181
330
1F
100
AcDbEntity
  8
0
  6
Continuous
 62
     7
100
AcDbLine
 10
-110.4540048639
 20
1158.5143747806
 30
0.0
 11
-110.7743075935
 21
1158.5143747806
 31
0.0
  0
LINE
  5
182
330
1F
100
AcDbEntity
  8
0
  6
Continuous
 62
     7
100
AcDbLine
 10
-109.2576825836
 20
1157.4348878912
 30
0.0
 11
-110.4540048639
 21
1158.5143747806
 31
0.0
  0
LINE
  5
183
330
1F
100
AcDbEntity
  8
0
  6
Continuous
 62
     7
100
AcDbLine
 10
-110.4540048639
 20
1158.5143747806
 30
0.0
 11
-110.0989542662
 21
1160.2092156271
 31
0.0
  0
LWPOLYLINE
  5
184
330
1F
100
AcDbEntity
  8
0
  6
Continuous
 62
     7
100
AcDbPolyline
 90
        3
 70
   128
 43
0.0
 10
325.3723436276
 20
1156.0780661528
 10
325.9582832135
 20
1156.3910024037
 10
326.4333279335
 20
1157.0021663637
  0
LWPOLYLINE
  5
185
330
1F
100
AcDbEntity
  8
0
  6
Continuous
 62
     7
100
AcDbPolyline
 90
       14
 70
   128
 43
0.0
 10
326.4333279335
 20
1161.1029230215
 10
326.0930458381
 20
1161.582125448
 10
325.5255900299
 20
1161.9811934727
 10
324.9118811593
 20
1162.0270232324
 10
324.3259415733
 20
1161.7140869814
 10
323.8384442337
 20
1161.0801294503
 10
323.5081885142
 20
1160.2016152734
 10
323.3750081287
 20
1159.184506226
 10
323.4549665972
 20
1158.1514806702
 10
323.7384197483
 20
1157.2271367337
 10
324.1911789488
 20
1156.5229639372
 10
324.7586347569
 20
1156.1238959124
 10
325.3723436276
 20
1156.0780661528
 10
325.3723436276
 20
1156.0780661528
  0
LWPOLYLINE
  5
186
330
1F
100
AcDbEntity
  8
0
  6
Continuous
 62
     7
100
AcDbPolyline
 90
       17
 70
   128
 43
0.0
 10
325.8109122325
 20
1156.6729618607
 10
326.3338025712
 20
1156.9736420918
 10
326.7490471012
 20
1157.5908163985
 10
326.9934286069
 20
1158.4305255873
 10
327.0297422195
 20
1159.3649315464
 10
326.8524595207
 20
1160.2517794387
 10
326.4885701941
 20
1160.956054712
 10
325.9934730912
 20
1161.3705378403
 10
325.4425422578
 20
1161.4321275244
 10
324.9196519191
 20
1161.1314472934
 10
324.5044073891
 20
1160.5142729867
 10
324.2600258833
 20
1159.6745637978
 10
324.2237122707
 20
1158.7401578387
 10
324.4009949696
 20
1157.8533099464
 10
324.7648842962
 20
1157.1490346731
 10
325.259981399
 20
1156.7345515449
 10
325.8109122325
 20
1156.6729618607
  0
LINE
  5
187
330
1F
100
AcDbEntity
  8
0
  6
Continuous
 62
     7
100
AcDbLine
 10
324.6141884037
 20
1158.8270988999
 30
0.0
 11
325.0053422073
 21
1160.4270610661
 31
0.0
  0
LINE
  5
188
330
1F
100
AcDbEntity
  8
0
  6
Continuous
 62
     7
100
AcDbLine
 10
325.2355734415
 20
1157.4525825263
 30
0.0
 11
324.6141884037
 21
1158.8270988999
 31
0.0
  0
LINE
  5
189
330
1F
100
AcDbEntity
  8
0
  6
Continuous
 62
     7
100
AcDbLine
 10
326.2481122829
 20
1157.678028319
 30
0.0
 11
325.2355734415
 21
1157.4525825263
 31
0.0
  0
LINE
  5
18A
330
1F
100
AcDbEntity
  8
0
  6
Continuous
 62
     7
100
AcDbLine
 10
326.6392660866
 20
1159.2779904852
 30
0.0
 11
326.2481122829
 21
1157.678028319
 31
0.0
  0
LINE
  5
18B
330
1F
100
AcDbEntity
  8
0
  6
Continuous
 62
     7
100
AcDbLine
 10
326.0178810488
 20
1160.6525068588
 30
0.0
 11
326.6392660866
 21
1159.2779904852
 31
0.0
  0
LINE
  5
18C
330
1F
100
AcDbEntity
  8
0
  6
Continuous
 62
     7
100
AcDbLine
 10
325.0053422073
 20
1160.4270610661
 30
0.0
 11
326.0178810488
 21
1160.6525068588
 31
0.0
  0
LINE
  5
18D
330
1F
100
AcDbEntity
  8
0
  6
Continuous
 62
     7
100
AcDbLine
 10
325.1336549448
 20
1157.678028319
 30
0.0
 11
326.2481122829
 21
1157.678028319
 31
0.0
  0
LINE
  5
18E
330
1F
100
AcDbEntity
  8
0
  6
Continuous
 62
     7
100
AcDbLine
 10
324.7244209844
 20
1159.2779904852
 30
0.0
 11
326.6392660866
 21
1159.2779904852
 31
0.0
  0
LINE
  5
18F
330
1F
100
AcDbEntity
  8
0
  6
Continuous
 62
     7
100
AcDbLine
 10
-84.2249384043
 20
1154.0525446926
 30
0.0
 11
-84.0963285395
 21
1154.0525446926
 31
0.0
  0
LINE
  5
190
330
1F
100
AcDbEntity
  8
0
  6
Continuous
 62
     7
100
AcDbLine
 10
-129.0963285395
 20
1154.0525446926
 30
0.0
 11
-84.2249384043
 21
1154.0525446926
 31
0.0
  0
LINE
  5
191
330
1F
100
AcDbEntity
  8
0
  6
Continuous
 62
     7
100
AcDbLine
 10
-84.0963285395
 20
1175.0525446926
 30
0.0
 11
-129.0963285395
 21
1175.0525446926
 31
0.0
  0
LINE
  5
192
330
1F
100
AcDbEntity
  8
0
  6
Continuous
 62
     7
100
AcDbLine
 10
-86.0963285395
 20
1152.0525446926
 30
0.0
 11
-127.0963285395
 21
1152.0525446926
 31
0.0
  0
LINE
  5
193
330
1F
100
AcDbEntity
  8
0
  6
Continuous
 62
     7
100
AcDbLine
 10
-125.0004878574
 20
1177.0525446926
 30
0.0
 11
-122.6185380388
 21
1177.0525446926
 31
0.0
  0
LINE
  5
194
330
1F
100
AcDbEntity
  8
0
  6
Continuous
 62
     7
100
AcDbLine
 10
-97.8281727496
 20
1177.0525446926
 30
0.0
 11
-93.7613924966
 21
1177.0525446926
 31
0.0
  0
LINE
  5
195
330
1F
100
AcDbEntity
  8
0
  6
Continuous
 62
     7
100
AcDbLine
 10
283.9036714605
 20
1154.0525446926
 30
0.0
 11
328.9036714605
 21
1154.0525446926
 31
0.0
  0
LINE
  5
196
330
1F
100
AcDbEntity
  8
0
  6
Continuous
 62
     7
100
AcDbLine
 10
326.9036714605
 20
1152.0525446926
 30
0.0
 11
285.9036714605
 21
1152.0525446926
 31
0.0
  0
LINE
  5
197
330
1F
100
AcDbEntity
  8
0
  6
Continuous
 62
     7
100
AcDbLine
 10
328.9036714605
 20
1175.0525446926
 30
0.0
 11
283.9036714605
 21
1175.0525446926
 31
0.0
  0
LINE
  5
198
330
1F
100
AcDbEntity
  8
0
  6
Continuous
 62
     7
100
AcDbLine
 10
285.9927037343
 20
1177.0525446927
 30
0.0
 11
319.6766070301
 21
1177.0525446926
 31
0.0
  0
LINE
  5
199
330
1F
100
AcDbEntity
  8
0
  6
Continuous
 62
     7
100
AcDbLine
 10
76.0507382
 20
1095.0525446926
 30
0.0
 11
76.0507382
 21
1131.0525446926
 31
0.0
  0
LINE
  5
19A
330
1F
100
AcDbEntity
  8
0
  6
Continuous
 62
     7
100
AcDbLine
 10
79.2311293014
 20
1131.0525446926
 30
0.0
 11
76.0507382
 21
1131.0525446926
 31
0.0
  0
LINE
  5
19B
330
1F
100
AcDbEntity
  8
0
  6
Continuous
 62
     7
100
AcDbLine
 10
79.2311293014
 20
1095.0525446926
 30
0.0
 11
79.2311293014
 21
1131.0525446926
 31
0.0
  0
LINE
  5
19C
330
1F
100
AcDbEntity
  8
0
  6
Continuous
 62
     7
100
AcDbLine
 10
79.2311293014
 20
1095.0525446926
 30
0.0
 11
76.0507382
 21
1095.0525446926
 31
0.0
  0
SPLINE
  5
19D
330
1F
100
AcDbEntity
  8
0
  6
Continuous
 62
     7
100
AcDbSpline
210
0.0
220
0.0
230
1.0
 70
     8
 71
     3
 72
    12
 73
     8
 74
     0
 42
0.000000001
 43
0.00000001
 40
0.0
 40
0.0
 40
0.0
 40
0.0
 40
0.2391077250264834
 40
0.4260178796925737
 40
0.6053547529248686
 40
0.8081128717070274
 40
1.0
 40
1.0
 40
1.0
 40
1.0
 10
76.05073820004866
 20
1095.052544692557
 30
0.0
 10
75.55773006694349
 20
1094.492194731896
 30
0.0
 10
74.67933820606409
 20
1093.493820036555
 30
0.0
 10
73.49536891663112
 20
1092.076650509658
 30
0.0
 10
72.42153756950286
 20
1090.747588288197
 30
0.0
 10
71.3801064280415
 20
1089.411082297201
 30
0.0
 10
70.70599971780284
 20
1088.496997361465
 30
0.0
 10
70.3782309134161
 20
1088.052544692557
 30
0.0
  0
SPLINE
  5
19E
330
1F
100
AcDbEntity
  8
0
  6
Continuous
 62
     7
100
AcDbSpline
210
0.0
220
0.0
230
1.0
 70
     8
 71
     3
 72
    12
 73
     8
 74
     0
 42
0.000000001
 43
0.00000001
 40
0.0
 40
0.0
 40
0.0
 40
0.0
 40
0.2392306479587544
 40
0.4262117672131794
 40
0.6055689557020136
 40
0.8082661950957396
 40
1.0
 40
1.0
 40
1.0
 40
1.0
 10
79.23112930143749
 20
1095.052544692559
 30
0.0
 10
78.80386559971656
 20
1094.492208360743
 30
0.0
 10
78.04265536628556
 20
1093.493916794614
 30
0.0
 10
77.01659958232797
 20
1092.076824265504
 30
0.0
 10
76.08601131245055
 20
1090.747860612316
 30
0.0
 10
75.18349446447769
 20
1089.411459707072
 30
0.0
 10
74.59905408404927
 20
1088.497044130948
 30
0.0
 10
74.31495631968926
 20
1088.052544692558
 30
0.0
  0
LINE
  5
19F
330
1F
100
AcDbEntity
  8
0
  6
Continuous
 62
     7
100
AcDbLine
 10
74.3149563197
 20
1088.0525446926
 30
0.0
 11
70.3782309134
 21
1088.0525446926
 31
0.0
  0
LINE
  5
1A0
330
1F
100
AcDbEntity
  8
0
  6
Continuous
 62
     7
100
AcDbLine
 10
62.4036714605
 20
1125.6525446926
 30
0.0
 11
62.4036714605
 21
1138.0525446926
 31
0.0
  0
LINE
  5
1A1
330
1F
100
AcDbEntity
  8
0
  6
Continuous
 62
     7
100
AcDbLine
 10
62.4036714605
 20
1138.0525446926
 30
0.0
 11
70.3782309134
 21
1138.0525446926
 31
0.0
  0
SPLINE
  5
1A2
330
1F
100
AcDbEntity
  8
0
  6
Continuous
 62
     7
100
AcDbSpline
210
0.0
220
0.0
230
1.0
 70
     8
 71
     3
 72
    11
 73
     7
 74
     0
 42
0.000000001
 43
0.00000001
 40
0.0
 40
0.0
 40
0.0
 40
0.0
 40
0.2415267545443225
 40
0.5001018393664943
 40
0.70924937455493
 40
1.0
 40
1.0
 40
1.0
 40
1.0
 10
70.37823091341612
 20
1138.052544692559
 30
0.0
 10
70.7922402664131
 20
1137.492927397538
 30
0.0
 10
71.64948210423496
 20
1136.334191840025
 30
0.0
 10
72.96150432394414
 20
1134.680097915042
 30
0.0
 10
74.42435905627198
 20
1132.905463471124
 30
0.0
 10
75.45265879792981
 20
1131.733931046717
 30
0.0
 10
76.05073820004868
 20
1131.052544692556
 30
0.0
  0
LINE
  5
1A3
330
1F
100
AcDbEntity
  8
0
  6
Continuous
 62
     7
100
AcDbLine
 10
62.4036714605
 20
1088.0525446926
 30
0.0
 11
70.3782309134
 21
1088.0525446926
 31
0.0
  0
LINE
  5
1A4
330
1F
100
AcDbEntity
  8
0
  6
Continuous
 62
     7
100
AcDbLine
 10
62.4036714605
 20
1088.0525446926
 30
0.0
 11
62.4036714605
 21
1100.4525446926
 31
0.0
  0
SPLINE
  5
1A5
330
1F
100
AcDbEntity
  8
0
  6
Continuous
 62
     7
100
AcDbSpline
210
0.0
220
0.0
230
1.0
 70
     8
 71
     3
 72
    24
 73
    20
 74
     0
 42
0.000000001
 43
0.00000001
 40
0.0
 40
0.0
 40
0.0
 40
0.0
 40
0.0509664717356423
 40
0.1034598348576764
 40
0.1544134446574384
 40
0.206760558316221
 40
0.2593388031924069
 40
0.3133543931254781
 40
0.3673747158709714
 40
0.4230665006049219
 40
0.4751998597003728
 40
0.5289963239373061
 40
0.6296409600073618
 40
0.7319711120602199
 40
0.7852811978539095
 40
0.8401014604991378
 40
0.893862227576145
 40
0.9493230446967142
 40
1.0
 40
1.0
 40
1.0
 40
1.0
 10
62.40367146046471
 20
1100.452544692558
 30
0.0
 10
62.41437037496177
 20
1100.48420694581
 30
0.0
 10
62.43608872997689
 20
1100.548480013596
 30
0.0
 10
62.60640473685819
 20
1101.063919501867
 30
0.0
 10
62.86084552195144
 20
1101.874420993482
 30
0.0
 10
63.18253164016235
 20
1102.981131521519
 30
0.0
 10
63.5437267729719
 20
1104.375932985128
 30
0.0
 10
63.90578522378221
 20
1106.026503644811
 30
0.0
 10
64.2304011456729
 20
1107.916358414356
 30
0.0
 10
64.46784178357876
 20
1109.945180033882
 30
0.0
 10
64.59110269068196
 20
1112.068846902213
 30
0.0
 10
64.58635079114894
 20
1114.823027690817
 30
0.0
 10
64.27903428194325
 20
1118.175466102884
 30
0.0
 10
63.71240552823124
 20
1121.049038622677
 30
0.0
 10
63.23161305773333
 20
1122.946779216295
 30
0.0
 10
62.89054354690551
 20
1124.134078725194
 30
0.0
 10
62.61577296673358
 20
1125.012901361524
 30
0.0
 10
62.43652345021801
 20
1125.555300600841
 30
0.0
 10
62.41428805777343
 20
1125.6211188529
 30
0.0
 10
62.40367146046471
 20
1125.652544692558
 30
0.0
  0
LINE
  5
1A6
330
1F
100
AcDbEntity
  8
0
  6
Continuous
 62
     7
100
AcDbLine
 10
74.3149563197
 20
1138.0525446926
 30
0.0
 11
70.3782309134
 21
1138.0525446926
 31
0.0
  0
SPLINE
  5
1A7
330
1F
100
AcDbEntity
  8
0
  6
Continuous
 62
     7
100
AcDbSpline
210
0.0
220
0.0
230
1.0
 70
     8
 71
     3
 72
    11
 73
     7
 74
     0
 42
0.000000001
 43
0.00000001
 40
0.0
 40
0.0
 40
0.0
 40
0.0
 40
0.2413494737469615
 40
0.4998918172323573
 40
0.7091035967122032
 40
1.0
 40
1.0
 40
1.0
 40
1.0
 10
74.31495631968932
 20
1138.052544692558
 30
0.0
 10
74.67381418921788
 20
1137.492854858772
 30
0.0
 10
75.41709367411472
 20
1136.333604897487
 30
0.0
 10
76.55404488931617
 20
1134.679743988818
 30
0.0
 10
77.82172432483142
 20
1132.905296116779
 30
0.0
 10
78.71281266244664
 20
1131.733904491215
 30
0.0
 10
79.23112930143752
 20
1131.052544692556
 30
0.0
  0
LINE
  5
1A8
330
1F
100
AcDbEntity
  8
0
  6
Continuous
 62
     7
100
AcDbLine
 10
137.4036714605
 20
1125.6525446926
 30
0.0
 11
137.4036714605
 21
1138.0525446926
 31
0.0
  0
LINE
  5
1A9
330
1F
100
AcDbEntity
  8
0
  6
Continuous
 62
     7
100
AcDbLine
 10
137.4036714605
 20
1088.0525446926
 30
0.0
 11
137.4036714605
 21
1100.4525446926
 31
0.0
  0
LINE
  5
1AA
330
1F
100
AcDbEntity
  8
0
  6
Continuous
 62
     7
100
AcDbLine
 10
137.4036714605
 20
1088.0525446926
 30
0.0
 11
129.4291120075
 21
1088.0525446926
 31
0.0
  0
SPLINE
  5
1AB
330
1F
100
AcDbEntity
  8
0
  6
Continuous
 62
     7
100
AcDbSpline
210
0.0
220
0.0
230
1.0
 70
     8
 71
     3
 72
    11
 73
     7
 74
     0
 42
0.000000001
 43
0.00000001
 40
0.0
 40
0.0
 40
0.0
 40
0.0
 40
0.2415267545443291
 40
0.5001018393664807
 40
0.7092493745549225
 40
1.0
 40
1.0
 40
1.0
 40
1.0
 10
129.4291120075129
 20
1088.052544692558
 30
0.0
 10
129.0151026545159
 20
1088.612161987579
 30
0.0
 10
128.1578608166941
 20
1089.77089754509
 30
0.0
 10
126.8458385969847
 20
1091.424991470073
 30
0.0
 10
125.3829838646569
 20
1093.199625913993
 30
0.0
 10
124.3546841229991
 20
1094.371158338399
 30
0.0
 10
123.7566047208802
 20
1095.052544692559
 30
0.0
  0
LINE
  5
1AC
330
1F
100
AcDbEntity
  8
0
  6
Continuous
 62
     7
100
AcDbLine
 10
123.7566047209
 20
1131.0525446926
 30
0.0
 11
123.7566047209
 21
1095.0525446926
 31
0.0
  0
SPLINE
  5
1AD
330
1F
100
AcDbEntity
  8
0
  6
Continuous
 62
     7
100
AcDbSpline
210
0.0
220
0.0
230
1.0
 70
     8
 71
     3
 72
    12
 73
     8
 74
     0
 42
0.000000001
 43
0.00000001
 40
0.0
 40
0.0
 40
0.0
 40
0.0
 40
0.239107725026504
 40
0.4260178796925622
 40
0.605354752924852
 40
0.8081128717070324
 40
1.0
 40
1.0
 40
1.0
 40
1.0
 10
123.7566047208802
 20
1131.052544692559
 30
0.0
 10
124.2496128539853
 20
1131.61289465322
 30
0.0
 10
125.1280047148645
 20
1132.611269348561
 30
0.0
 10
126.3119740042978
 20
1134.028438875458
 30
0.0
 10
127.3858053514261
 20
1135.357501096919
 30
0.0
 10
128.4272364928873
 20
1136.694007087914
 30
0.0
 10
129.1013432031261
 20
1137.608092023651
 30
0.0
 10
129.4291120075128
 20
1138.052544692559
 30
0.0
  0
LINE
  5
1AE
330
1F
100
AcDbEntity
  8
0
  6
Continuous
 62
     7
100
AcDbLine
 10
137.4036714605
 20
1138.0525446926
 30
0.0
 11
129.4291120075
 21
1138.0525446926
 31
0.0
  0
SPLINE
  5
1AF
330
1F
100
AcDbEntity
  8
0
  6
Continuous
 62
     7
100
AcDbSpline
210
0.0
220
0.0
230
1.0
 70
     8
 71
     3
 72
    24
 73
    20
 74
     0
 42
0.000000001
 43
0.00000001
 40
0.0
 40
0.0
 40
0.0
 40
0.0
 40
0.0509664717356423
 40
0.1034598348576762
 40
0.1544134446574381
 40
0.2067605583162205
 40
0.2593388031924061
 40
0.3133543931254771
 40
0.3673747158709703
 40
0.4230665006049206
 40
0.4751998597003714
 40
0.5289963239373048
 40
0.6296409600073606
 40
0.7319711120602191
 40
0.785281197853909
 40
0.8401014604991373
 40
0.8938622275761449
 40
0.9493230446967142
 40
1.0
 40
1.0
 40
1.0
 40
1.0
 10
137.4036714604647
 20
1125.652544692558
 30
0.0
 10
137.3929725459677
 20
1125.620882439306
 30
0.0
 10
137.3712541909525
 20
1125.55660937152
 30
0.0
 10
137.2009381840712
 20
1125.04116988325
 30
0.0
 10
136.9464973989779
 20
1124.230668391633
 30
0.0
 10
136.6248112807669
 20
1123.123957863597
 30
0.0
 10
136.2636161479574
 20
1121.729156399987
 30
0.0
 10
135.901557697147
 20
1120.078585740304
 30
0.0
 10
135.5769417752563
 20
1118.188730970759
 30
0.0
 10
135.3395011373504
 20
1116.159909351234
 30
0.0
 10
135.2162402302472
 20
1114.036242482903
 30
0.0
 10
135.2209921297803
 20
1111.282061694298
 30
0.0
 10
135.5283086389859
 20
1107.929623282231
 30
0.0
 10
136.094937392698
 20
1105.056050762439
 30
0.0
 10
136.575729863196
 20
1103.15831016882
 30
0.0
 10
136.9167993740238
 20
1101.971010659921
 30
0.0
 10
137.1915699541958
 20
1101.092188023591
 30
0.0
 10
137.3708194707114
 20
1100.549788784276
 30
0.0
 10
137.393054863156
 20
1100.483970532215
 30
0.0
 10
137.4036714604647
 20
1100.452544692558
 30
0.0
  0
LINE
  5
1B0
330
1F
100
AcDbEntity
  8
0
  6
Continuous
 62
     7
100
AcDbLine
 10
120.5762136195
 20
1095.0525446926
 30
0.0
 11
123.7566047209
 21
1095.0525446926
 31
0.0
  0
LINE
  5
1B1
330
1F
100
AcDbEntity
  8
0
  6
Continuous
 62
     7
100
AcDbLine
 10
120.5762136195
 20
1131.0525446926
 30
0.0
 11
120.5762136195
 21
1095.0525446926
 31
0.0
  0
LINE
  5
1B2
330
1F
100
AcDbEntity
  8
0
  6
Continuous
 62
     7
100
AcDbLine
 10
120.5762136195
 20
1131.0525446926
 30
0.0
 11
123.7566047209
 21
1131.0525446926
 31
0.0
  0
LINE
  5
1B3
330
1F
100
AcDbEntity
  8
0
  6
Continuous
 62
     7
100
AcDbLine
 10
125.4923866012
 20
1088.0525446926
 30
0.0
 11
129.4291120075
 21
1088.0525446926
 31
0.0
  0
SPLINE
  5
1B4
330
1F
100
AcDbEntity
  8
0
  6
Continuous
 62
     7
100
AcDbSpline
210
0.0
220
0.0
230
1.0
 70
     8
 71
     3
 72
    11
 73
     7
 74
     0
 42
0.000000001
 43
0.00000001
 40
0.0
 40
0.0
 40
0.0
 40
0.0
 40
0.2413494737469693
 40
0.4998918172323419
 40
0.7091035967121945
 40
1.0
 40
1.0
 40
1.0
 40
1.0
 10
125.4923866012397
 20
1088.052544692558
 30
0.0
 10
125.1335287317112
 20
1088.612234526343
 30
0.0
 10
124.3902492468144
 20
1089.771484487629
 30
0.0
 10
123.2532980316127
 20
1091.425345396297
 30
0.0
 10
121.9856185960976
 20
1093.199793268339
 30
0.0
 10
121.0945302584823
 20
1094.371184893901
 30
0.0
 10
120.5762136194914
 20
1095.052544692559
 30
0.0
  0
SPLINE
  5
1B5
330
1F
100
AcDbEntity
  8
0
  6
Continuous
 62
     7
100
AcDbSpline
210
0.0
220
0.0
230
1.0
 70
     8
 71
     3
 72
    12
 73
     8
 74
     0
 42
0.000000001
 43
0.00000001
 40
0.0
 40
0.0
 40
0.0
 40
0.0
 40
0.2392306479587542
 40
0.4262117672131477
 40
0.6055689557019821
 40
0.808266195095739
 40
1.0
 40
1.0
 40
1.0
 40
1.0
 10
120.5762136194914
 20
1131.052544692557
 30
0.0
 10
121.0034773212123
 20
1131.612881024372
 30
0.0
 10
121.7646875546432
 20
1132.611172590501
 30
0.0
 10
122.7907433386011
 20
1134.028265119612
 30
0.0
 10
123.7213316084785
 20
1135.357228772799
 30
0.0
 10
124.6238484564512
 20
1136.693629678043
 30
0.0
 10
125.2082888368797
 20
1137.608045254169
 30
0.0
 10
125.4923866012397
 20
1138.052544692559
 30
0.0
  0
LINE
  5
1B6
330
1F
100
AcDbEntity
  8
0
  6
Continuous
 62
     7
100
AcDbLine
 10
125.4923866012
 20
1138.0525446926
 30
0.0
 11
129.4291120075
 21
1138.0525446926
 31
0.0
  0
SPLINE
  5
1B7
330
1F
100
AcDbEntity
  8
0
  6
Continuous
 62
     7
100
AcDbSpline
210
0.0
220
0.0
230
1.0
 70
     8
 71
     3
 72
    27
 73
    23
 74
     0
 42
0.000000001
 43
0.00000001
 40
0.0
 40
0.0
 40
0.0
 40
0.0
 40
0.0076825081684076
 40
0.0780253249317055
 40
0.1484448499468294
 40
0.2010207097056981
 40
0.2550996602506685
 40
0.3090052212414549
 40
0.3640642184322295
 40
0.4259984543848598
 40
0.4903439839140975
 40
0.5434542110979239
 40
0.598311396726894
 40
0.6489148606559184
 40
0.7005513434058842
 40
0.7607131602407871
 40
0.8226414313013019
 40
0.864647190952785
 40
0.9076882998154318
 40
0.9497657080876979
 40
0.9934568658161158
 40
1.0
 40
1.0
 40
1.0
 40
1.0
 10
286.4191522366726
 20
1129.525093100857
 30
0.0
 10
286.4144532999212
 20
1129.533326938994
 30
0.0
 10
286.3667298144638
 20
1129.616951698249
 30
0.0
 10
286.6998350881243
 20
1129.03805977159
 30
0.0
 10
287.45869961674
 20
1127.668102850542
 30
0.0
 10
288.3706901922462
 20
1125.904643202457
 30
0.0
 10
289.2578999023915
 20
1124.030703730316
 30
0.0
 10
290.1482401807904
 20
1121.891442279006
 30
0.0
 10
290.9809552452573
 20
1119.437716353573
 30
0.0
 10
291.6461028057676
 20
1116.630896135254
 30
0.0
 10
291.9371838066528
 20
1113.704803760968
 30
0.0
 10
291.8221976285207
 20
1110.877667833632
 30
0.0
 10
291.4038071493812
 20
1108.345616298717
 30
0.0
 10
290.7580960398526
 20
1105.970305795697
 30
0.0
 10
289.9423716958336
 20
1103.677351505676
 30
0.0
 10
288.9794741438846
 20
1101.45445721322
 30
0.0
 10
288.0829074412517
 20
1099.632656055661
 30
0.0
 10
287.3737111773385
 20
1098.290852710776
 30
0.0
 10
286.8653314794438
 20
1097.365448691585
 30
0.0
 10
286.5268131103608
 20
1096.784155654242
 30
0.0
 10
286.3837317365557
 20
1096.522389646278
 30
0.0
 10
286.4117445022891
 20
1096.570272313726
 30
0.0
 10
286.4153932306394
 20
1096.576509143316
 30
0.0
  0
SPLINE
  5
1B8
330
1F
100
AcDbEntity
  8
0
  6
Continuous
 62
     7
100
AcDbSpline
210
0.0
220
0.0
230
1.0
 70
     8
 71
     3
 72
    23
 73
    19
 74
     0
 42
0.000000001
 43
0.00000001
 40
0.0
 40
0.0
 40
0.0
 40
0.0
 40
0.0445727487003741
 40
0.1189915468398468
 40
0.1703820147045794
 40
0.2232471014257116
 40
0.3293791345637307
 40
0.3739515866475658
 40
0.4195029164798009
 40
0.4872058336901551
 40
0.5551642196385673
 40
0.6382803543370758
 40
0.6981604452420932
 40
0.7597251212656487
 40
0.8207145226047405
 40
0.8838871008923741
 40
0.9644188919061117
 40
0.9999999999999999
 40
0.9999999999999999
 40
0.9999999999999999
 40
0.9999999999999999
 10
282.5100129421945
 20
1100.665227135735
 30
0.0
 10
282.4967484982885
 20
1100.648725225266
 30
0.0
 10
282.4613376980943
 20
1100.604671674392
 30
0.0
 10
283.1091376766621
 20
1101.337720833456
 30
0.0
 10
284.0049803550148
 20
1102.38304246059
 30
0.0
 10
285.2752923670461
 20
1103.960666933202
 30
0.0
 10
286.6489968957346
 20
1105.890604105851
 30
0.0
 10
287.8190185553872
 20
1108.089415757695
 30
0.0
 10
288.5990194033795
 20
1110.033049500278
 30
0.0
 10
289.1023413597198
 20
1112.523371238094
 30
0.0
 10
288.8043688009008
 20
1115.612410995114
 30
0.0
 10
287.745710132139
 20
1118.260538795435
 30
0.0
 10
286.4629570361415
 20
1120.448327274067
 30
0.0
 10
285.2685807234708
 20
1122.141893680456
 30
0.0
 10
284.1116166698066
 20
1123.598114172729
 30
0.0
 10
283.0824146192363
 20
1124.807221776112
 30
0.0
 10
282.4061904983408
 20
1125.553455717616
 30
0.0
 10
282.4836138194674
 20
1125.466377695052
 30
0.0
 10
282.5073390694539
 20
1125.439693902319
 30
0.0
  0
SPLINE
  5
1B9
330
1F
100
AcDbEntity
  8
0
  6
Continuous
 62
     7
100
AcDbSpline
210
0.0
220
0.0
230
1.0
 70
     8
 71
     3
 72
    17
 73
    13
 74
     0
 42
0.000000001
 43
0.00000001
 40
0.0
 40
0.0
 40
0.0
 40
0.0
 40
0.1036536293984926
 40
0.2101950676270107
 40
0.3173922551804583
 40
0.4268071521161995
 40
0.5532219918236281
 40
0.6838510887702028
 40
0.7656380411257107
 40
0.8494836047554282
 40
0.9313996740970408
 40
1.0
 40
1.0
 40
1.0
 40
1.0
 10
-92.06059570094557
 20
1113.762523189371
 30
0.0
 10
-92.00471615122066
 20
1114.583035574932
 30
0.0
 10
-91.89140023742634
 20
1116.246919969261
 30
0.0
 10
-91.37401364878409
 20
1118.661776718416
 30
0.0
 10
-90.67229189194961
 20
1120.979972228226
 30
0.0
 10
-89.79319602638961
 20
1123.254572502414
 30
0.0
 10
-88.80052180742945
 20
1125.432912962211
 30
0.0
 10
-87.9329759786965
 20
1127.131100120484
 30
0.0
 10
-87.29682760244586
 20
1128.309084221875
 30
0.0
 10
-86.88983878295622
 20
1129.036565123785
 30
0.0
 10
-86.63446355524904
 20
1129.48550580114
 30
0.0
 10
-86.61922286435033
 20
1129.512136041203
 30
0.0
 10
-86.61227666848283
 20
1129.52427321167
 30
0.0
  0
SPLINE
  5
1BA
330
1F
100
AcDbEntity
  8
0
  6
Continuous
 62
     7
100
AcDbSpline
210
0.0
220
0.0
230
1.0
 70
     8
 71
     3
 72
    17
 73
    13
 74
     0
 42
0.000000001
 43
0.00000001
 40
0.0
 40
0.0
 40
0.0
 40
0.0
 40
0.0585150585040474
 40
0.1316898782943142
 40
0.2644565258234802
 40
0.3619283138190792
 40
0.462194083416929
 40
0.5620922349980424
 40
0.6639393983798605
 40
0.7845773509796462
 40
0.9095454048401341
 40
1.0
 40
1.0
 40
1.0
 40
1.0
 10
-86.60767500521308
 20
1096.575874140766
 30
0.0
 10
-86.61352204956899
 20
1096.584493507695
 30
0.0
 10
-86.62668099667245
 20
1096.603891649146
 30
0.0
 10
-86.90312459877927
 20
1097.104731872037
 30
0.0
 10
-87.48092674470689
 20
1098.122341314212
 30
0.0
 10
-88.32055979712386
 20
1099.720227423158
 30
0.0
 10
-89.15614947351949
 20
1101.431983194963
 30
0.0
 10
-90.01567201274082
 20
1103.398364315857
 30
0.0
 10
-90.87344177468212
 20
1105.703176785237
 30
0.0
 10
-91.62237944461447
 20
1108.39970508799
 30
0.0
 10
-92.06477260314819
 20
1111.183215434394
 30
0.0
 10
-92.06183090233752
 20
1112.999765438646
 30
0.0
 10
-92.06059570094563
 20
1113.762523189372
 30
0.0
  0
SPLINE
  5
1BB
330
1F
100
AcDbEntity
  8
0
  6
Continuous
 62
     7
100
AcDbSpline
210
0.0
220
0.0
230
1.0
 70
     8
 71
     3
 72
    15
 73
    11
 74
     0
 42
0.000000001
 43
0.00000001
 40
0.0
 40
0.0
 40
0.0
 40
0.0
 40
0.1341865421860527
 40
0.2957131916170981
 40
0.4121275320810612
 40
0.5318162455290992
 40
0.6504521168233922
 40
0.7733435740978174
 40
0.9296776819326226
 40
1.0
 40
1.0
 40
1.0
 40
1.0
 10
-89.15187087753088
 20
1113.619008317624
 30
0.0
 10
-89.12035849729801
 20
1112.650465079815
 30
0.0
 10
-89.05091318346628
 20
1110.516040811885
 30
0.0
 10
-87.9325348856004
 20
1107.851216397246
 30
0.0
 10
-86.66418879429324
 20
1105.665895185513
 30
0.0
 10
-85.46658938294301
 20
1103.972780971186
 30
0.0
 10
-84.30857740480704
 20
1102.516242300848
 30
0.0
 10
-83.28186253942263
 20
1101.304891034883
 30
0.0
 10
-82.59930649361877
 20
1100.555499134267
 30
0.0
 10
-82.67819432051101
 20
1100.639244375767
 30
0.0
 10
-82.70267002126505
 20
1100.665227135735
 30
0.0
  0
SPLINE
  5
1BC
330
1F
100
AcDbEntity
  8
0
  6
Continuous
 62
     7
100
AcDbSpline
210
0.0
220
0.0
230
1.0
 70
     8
 71
     3
 72
    15
 73
    11
 74
     0
 42
0.000000001
 43
0.00000001
 40
0.0
 40
0.0
 40
0.0
 40
0.0
 40
0.0932588703649639
 40
0.2465425536772519
 40
0.3523362347518274
 40
0.4611633108194352
 40
0.6798059131634351
 40
0.7712335021095433
 40
0.8646654820634024
 40
1.0
 40
1.0
 40
1.0
 40
1.0
 10
-82.69999614852443
 20
1125.439693902319
 30
0.0
 10
-82.68556801391449
 20
1125.45512811665
 30
0.0
 10
-82.64742527062793
 20
1125.495930569013
 30
0.0
 10
-83.3150879956566
 20
1124.754700662243
 30
0.0
 10
-84.21286319677637
 20
1123.702921913916
 30
0.0
 10
-85.4872676341791
 20
1122.118548989081
 30
0.0
 10
-86.86700894459939
 20
1120.18454016096
 30
0.0
 10
-88.02282246103991
 20
1117.980865380185
 30
0.0
 10
-88.81580143808634
 20
1116.063326647193
 30
0.0
 10
-89.026955555674
 20
1114.527549157765
 30
0.0
 10
-89.15187087753088
 20
1113.619008317624
 30
0.0
  0
SPLINE
  5
1BD
330
1F
100
AcDbEntity
  8
0
  6
Continuous
 62
     7
100
AcDbSpline
210
0.0
220
0.0
230
1.0
 70
     8
 71
     3
 72
     9
 73
     5
 74
     0
 42
0.000000001
 43
0.00000001
 40
0.0
 40
0.0
 40
0.0
 40
0.0
 40
0.1839375112558827
 40
1.0
 40
1.0
 40
1.0
 40
1.0
 10
286.5282404337134
 20
1100.753788911153
 30
0.0
 10
286.5095633756367
 20
1100.723322445323
 30
0.0
 10
286.4080231408622
 20
1100.557687574969
 30
0.0
 10
286.4056269235388
 20
1100.554855688708
 30
0.0
 10
286.403671460466
 20
1100.552544692558
 30
0.0
  0
LINE
  5
1BE
330
1F
100
AcDbEntity
  8
0
  6
Continuous
 62
     7
100
AcDbLine
 10
286.4036714605
 20
1048.0525446926
 30
0.0
 11
326.4036714605
 21
1048.0525446926
 31
0.0
  0
LINE
  5
1BF
330
1F
100
AcDbEntity
  8
0
  6
Continuous
 62
     7
100
AcDbLine
 10
-86.6107683597
 20
1125.5293829574
 30
0.0
 11
-86.6475145982
 21
1125.4700102371
 31
0.0
  0
LINE
  5
1C0
330
1F
100
AcDbEntity
  8
0
  6
Continuous
 62
     7
100
AcDbLine
 10
-106.5963285395
 20
1048.0525446926
 30
0.0
 11
-86.5963285395
 21
1048.0525446926
 31
0.0
  0
LINE
  5
1C1
330
1F
100
AcDbEntity
  8
0
  6
Continuous
 62
     7
100
AcDbLine
 10
-126.5963285395
 20
1048.0525446926
 30
0.0
 11
-106.5963285395
 21
1048.0525446926
 31
0.0
  0
LINE
  5
1C2
330
1F
100
AcDbEntity
  8
0
  6
Continuous
 62
     7
100
AcDbLine
 10
311.1705952846
 20
1048.0525446926
 30
0.0
 11
326.4036714605
 21
1048.0525446926
 31
0.0
  0
LINE
  5
1C3
330
1F
100
AcDbEntity
  8
0
  6
Continuous
 62
     7
100
AcDbLine
 10
286.4036714605
 20
1048.0525446926
 30
0.0
 11
311.1705952846
 21
1048.0525446926
 31
0.0
  0
LINE
  5
1C4
330
1F
100
AcDbEntity
  8
0
  6
Continuous
 62
     7
100
AcDbLine
 10
310.6939029022
 20
1043.5525446926
 30
0.0
 11
324.4036714605
 21
1043.5525446926
 31
0.0
  0
LINE
  5
1C5
330
1F
100
AcDbEntity
  8
0
  6
Continuous
 62
     7
100
AcDbLine
 10
288.4036714605
 20
1043.5525446926
 30
0.0
 11
310.6939029022
 21
1043.5525446926
 31
0.0
  0
LINE
  5
1C6
330
1F
100
AcDbEntity
  8
0
  6
Continuous
 62
     7
100
AcDbLine
 10
-126.5963285395
 20
1048.0525446926
 30
0.0
 11
-86.5963285395
 21
1048.0525446926
 31
0.0
  0
LINE
  5
1C7
330
1F
100
AcDbEntity
  8
0
  6
Continuous
 62
     7
100
AcDbLine
 10
-124.5963285395
 20
1043.5525446926
 30
0.0
 11
-88.5963285395
 21
1043.5525446926
 31
0.0
  0
LINE
  5
1C8
330
1F
100
AcDbEntity
  8
0
  6
Continuous
 62
     7
100
AcDbLine
 10
113.5131563781
 20
1198.0525446926
 30
0.0
 11
68.4036714605
 21
1198.0525446926
 31
0.0
  0
LINE
  5
1C9
330
1F
100
AcDbEntity
  8
0
  6
Continuous
 62
     7
100
AcDbLine
 10
131.4036714605
 20
1198.0525446926
 30
0.0
 11
113.5131563781
 21
1198.0525446926
 31
0.0
  0
LINE
  5
1CA
330
1F
100
AcDbEntity
  8
0
  6
Continuous
 62
     7
100
AcDbLine
 10
113.0811092379
 20
1203.0525446926
 30
0.0
 11
69.4036714605
 21
1203.0525446926
 31
0.0
  0
LINE
  5
1CB
330
1F
100
AcDbEntity
  8
0
  6
Continuous
 62
     7
100
AcDbLine
 10
130.4036714605
 20
1203.0525446926
 30
0.0
 11
113.0811092379
 21
1203.0525446926
 31
0.0
  0
ARC
  5
1CC
330
1F
100
AcDbEntity
  8
0
  6
Continuous
 62
     7
100
AcDbCircle
 10
124.2173278502
 20
1110.5818574427
 30
0.0
 40
7.416088469627456
100
AcDbArc
 50
2.4150524356
 51
22.6452439192
  0
ARC
  5
1CD
330
1F
100
AcDbEntity
  8
0
  6
Continuous
 62
     7
100
AcDbCircle
 10
125.7848890633
 20
1085.0355118205
 30
0.0
 40
26.51052942436632
100
AcDbArc
 50
73.9264824033
 51
77.2696443875
  0
ARC
  5
1CE
330
1F
100
AcDbEntity
  8
0
  6
Continuous
 62
     7
100
AcDbCircle
 10
128.9428097972
 20
1113.5981336328
 30
0.0
 40
5.198871040699692
100
AcDbArc
 50
323.5540596931
 51
349.6920949544
  0
ARC
  5
1CF
330
1F
100
AcDbEntity
  8
0
  6
Continuous
 62
     7
100
AcDbCircle
 10
127.9644928775
 20
1112.6478840722
 30
0.0
 40
6.093312788536774
100
AcDbArc
 50
0.187818793
 51
24.8724775617
  0
ARC
  5
1D0
330
1F
100
AcDbEntity
  8
0
  6
Continuous
 62
     7
100
AcDbCircle
 10
131.409099312
 20
1110.2062468739
 30
0.0
 40
5.42088175408262
100
AcDbArc
 50
67.3964660633
 51
83.7996607273
  0
ARC
  5
1D1
330
1F
100
AcDbEntity
  8
0
  6
Continuous
 62
     7
100
AcDbCircle
 10
125.6158260821
 20
1117.0719817517
 30
0.0
 40
6.547425383387375
100
AcDbArc
 50
326.2795061229
 51
346.9666485245
  0
LINE
  5
1D2
330
1F
100
AcDbEntity
  8
0
  6
Continuous
 62
     7
100
AcDbLine
 10
133.4926274895
 20
1115.2107317949
 30
0.0
 11
131.8207684524
 21
1114.9704894263
 31
0.0
  0
LINE
  5
1D3
330
1F
100
AcDbEntity
  8
0
  6
Continuous
 62
     7
100
AcDbLine
 10
131.3412038509
 20
1113.9043242789
 30
0.0
 11
131.6025348322
 21
1112.7284647714
 31
0.0
  0
LINE
  5
1D4
330
1F
100
AcDbEntity
  8
0
  6
Continuous
 62
     7
100
AcDbLine
 10
131.6025348322
 20
1112.7284647714
 30
0.0
 11
131.4259852781
 21
1112.3200315609
 31
0.0
  0
LINE
  5
1D5
330
1F
100
AcDbEntity
  8
0
  6
Continuous
 62
     7
100
AcDbLine
 10
134.0577729277
 20
1112.667858259
 30
0.0
 11
131.6025348322
 21
1112.7284647714
 31
0.0
  0
ARC
  5
1D6
330
1F
100
AcDbEntity
  8
0
  6
Continuous
 62
     7
100
AcDbCircle
 10
72.4208292382
 20
1113.0559168953
 30
0.0
 40
6.626823042251652
100
AcDbArc
 50
168.1517782956
 51
192.0252958691
  0
ARC
  5
1D7
330
1F
100
AcDbEntity
  8
0
  6
Continuous
 62
     7
100
AcDbCircle
 10
69.4171985422
 20
1113.7081541727
 30
0.0
 40
4.028343055980349
100
AcDbArc
 50
210.3079497805
 51
237.4844687147
  0
ARC
  5
1D8
330
1F
100
AcDbEntity
  8
0
  6
Continuous
 62
     7
100
AcDbCircle
 10
72.0580129724
 20
1107.0561462604
 30
0.0
 40
5.804742391225892
100
AcDbArc
 50
127.0567977343
 51
145.8909433761
  0
ARC
  5
1D9
330
1F
100
AcDbEntity
  8
0
  6
Continuous
 62
     7
100
AcDbCircle
 10
76.3937637962
 20
1113.0712996993
 30
0.0
 40
7.954825295678085
100
AcDbArc
 50
170.1668024566
 51
190.010271708
  0
ARC
  5
1DA
330
1F
100
AcDbEntity
  8
0
  6
Continuous
 62
     7
100
AcDbCircle
 10
72.0311456317
 20
1119.087181427
 30
0.0
 40
5.811106053034942
100
AcDbArc
 50
214.5229290657
 51
233.2694894295
  0
ARC
  5
1DB
330
1F
100
AcDbEntity
  8
0
  6
Continuous
 62
     7
100
AcDbCircle
 10
69.4354516905
 20
1112.4017972958
 30
0.0
 40
4.038686944058345
100
AcDbArc
 50
122.8723209547
 51
150.0754201555
  0
LINE
  5
1DC
330
1F
100
AcDbEntity
  8
0
  6
Continuous
 62
     7
100
AcDbLine
 10
68.5598776668
 20
1111.6894585415
 30
0.0
 11
68.3647536218
 21
1111.8922492768
 31
0.0
  0
LINE
  5
1DD
330
1F
100
AcDbEntity
  8
0
  6
Continuous
 62
     7
100
AcDbLine
 10
68.3647536218
 20
1111.8922492768
 30
0.0
 11
68.3611849995
 21
1114.2016413026
 31
0.0
  0
LINE
  5
1DE
330
1F
100
AcDbEntity
  8
0
  6
Continuous
 62
     7
100
AcDbLine
 10
68.3611849995
 20
1114.2016413026
 30
0.0
 11
68.5508984693
 21
1114.4013750825
 31
0.0
  0
LINE
  5
1DF
330
1F
100
AcDbEntity
  8
0
  6
Continuous
 62
     7
100
AcDbLine
 10
65.9394271015
 20
1111.675261263
 30
0.0
 11
68.3647536218
 21
1111.8922492768
 31
0.0
  0
LINE
  5
1E0
330
1F
100
AcDbEntity
  8
0
  6
Continuous
 62
     7
100
AcDbLine
 10
65.9351911076
 20
1114.4165350165
 30
0.0
 11
68.3611849995
 21
1114.2016413026
 31
0.0
  0
ARC
  5
1E1
330
1F
100
AcDbEntity
  8
0
  6
Continuous
 62
     7
100
AcDbCircle
 10
62.1678977999
 20
-788.3693871831
 30
0.0
 40
42.4478343117698
100
AcDbArc
 50
17.7291477715
 51
21.4299570401
  0
ARC
  5
1E2
330
1F
100
AcDbEntity
  8
0
  6
Continuous
 62
     7
100
AcDbCircle
 10
92.6595186024
 20
-814.3385598664
 30
0.0
 40
42.44783431145041
100
AcDbArc
 50
77.7291477715
 51
81.4299570401
  0
ARC
  5
1E3
330
1F
100
AcDbEntity
  8
0
  6
Continuous
 62
     7
100
AcDbCircle
 10
130.3952922628
 20
-800.9166279911
 30
0.0
 40
42.44783431166388
100
AcDbArc
 50
137.7291477715
 51
141.4299570401
  0
ARC
  5
1E4
330
1F
100
AcDbEntity
  8
0
  6
Continuous
 62
     7
100
AcDbCircle
 10
137.639445121
 20
-761.5255234318
 30
0.0
 40
42.44783431172252
100
AcDbArc
 50
197.7291477715
 51
201.4299570401
  0
ARC
  5
1E5
330
1F
100
AcDbEntity
  8
0
  6
Continuous
 62
     7
100
AcDbCircle
 10
107.1478243186
 20
-735.5563507483
 30
0.0
 40
42.44783431158272
100
AcDbArc
 50
257.7291477715
 51
261.4299570401
  0
ARC
  5
1E6
330
1F
100
AcDbEntity
  8
0
  6
Continuous
 62
     7
100
AcDbCircle
 10
69.4120506581
 20
-748.9782826237
 30
0.0
 40
42.44783431175458
100
AcDbArc
 50
317.7291477715
 51
321.4299570401
  0
LINE
  5
1E7
330
1F
100
AcDbEntity
  8
0
  6
Continuous
 62
     7
100
AcDbLine
 10
98.1262455209
 20
-777.0344142728
 30
0.0
 11
98.4062751183
 21
-776.7056184193
 31
0.0
  0
LINE
  5
1E8
330
1F
100
AcDbEntity
  8
0
  6
Continuous
 62
     7
100
AcDbLine
 10
100.6775872082
 20
-777.1233201352
 30
0.0
 11
98.4062751183
 21
-776.7056184193
 31
0.0
  0
LINE
  5
1E9
330
1F
100
AcDbEntity
  8
0
  6
Continuous
 62
     7
100
AcDbLine
 10
100.8223179713
 20
-777.5302308072
 30
0.0
 11
100.6775872082
 21
-777.1233201352
 31
0.0
  0
LINE
  5
1EA
330
1F
100
AcDbEntity
  8
0
  6
Continuous
 62
     7
100
AcDbLine
 10
97.20759901
 20
-774.4516387731
 30
0.0
 11
97.6323593705
 21
-774.5297535915
 31
0.0
  0
LINE
  5
1EB
330
1F
100
AcDbEntity
  8
0
  6
Continuous
 62
     7
100
AcDbLine
 10
98.4062751183
 20
-776.7056184193
 30
0.0
 11
97.6323593705
 21
-774.5297535915
 31
0.0
  0
LINE
  5
1EC
330
1F
100
AcDbEntity
  8
0
  6
Continuous
 62
     7
100
AcDbLine
 10
102.5997439109
 20
-775.4432718418
 30
0.0
 11
102.1749835504
 21
-775.3651570234
 31
0.0
  0
LINE
  5
1ED
330
1F
100
AcDbEntity
  8
0
  6
Continuous
 62
     7
100
AcDbLine
 10
101.4010678027
 20
-773.1892921956
 30
0.0
 11
102.1749835504
 21
-775.3651570234
 31
0.0
  0
LINE
  5
1EE
330
1F
100
AcDbEntity
  8
0
  6
Continuous
 62
     7
100
AcDbLine
 10
101.6810974001
 20
-772.8604963421
 30
0.0
 11
101.4010678027
 21
-773.1892921956
 31
0.0
  0
LINE
  5
1EF
330
1F
100
AcDbEntity
  8
0
  6
Continuous
 62
     7
100
AcDbLine
 10
102.1749835504
 20
-775.3651570234
 30
0.0
 11
100.6775872082
 21
-777.1233201352
 31
0.0
  0
LINE
  5
1F0
330
1F
100
AcDbEntity
  8
0
  6
Continuous
 62
     7
100
AcDbLine
 10
99.1297557127
 20
-772.7715904797
 30
0.0
 11
101.4010678027
 21
-773.1892921956
 31
0.0
  0
LINE
  5
1F1
330
1F
100
AcDbEntity
  8
0
  6
Continuous
 62
     7
100
AcDbLine
 10
98.9850249496
 20
-772.3646798077
 30
0.0
 11
99.1297557127
 21
-772.7715904797
 31
0.0
  0
LINE
  5
1F2
330
1F
100
AcDbEntity
  8
0
  6
Continuous
 62
     7
100
AcDbLine
 10
97.6323593705
 20
-774.5297535915
 30
0.0
 11
99.1297557127
 21
-772.7715904797
 31
0.0
  0
CIRCLE
  5
1F3
330
1F
100
AcDbEntity
  8
0
  6
Continuous
 62
     7
100
AcDbCircle
 10
99.9036714605
 20
-774.9474553074
 30
0.0
 40
5.250000000000016
  0
ARC
  5
1F4
330
1F
100
AcDbEntity
  8
0
  6
Continuous
 62
     7
100
AcDbCircle
 10
72.0717233174
 20
-873.7488360312
 30
0.0
 40
42.44783431172844
100
AcDbArc
 50
44.1302718036
 51
47.8310810722
  0
ARC
  5
1F5
330
1F
100
AcDbEntity
  8
0
  6
Continuous
 62
     7
100
AcDbCircle
 10
110.9304247597
 20
-883.4513197977
 30
0.0
 40
42.44783431135313
100
AcDbArc
 50
104.1302718036
 51
107.8310810722
  0
ARC
  5
1F6
330
1F
100
AcDbEntity
  8
0
  6
Continuous
 62
     7
100
AcDbCircle
 10
138.7623729027
 20
-854.6499390743
 30
0.0
 40
42.44783431164375
100
AcDbArc
 50
164.1302718036
 51
167.8310810722
  0
ARC
  5
1F7
330
1F
100
AcDbEntity
  8
0
  6
Continuous
 62
     7
100
AcDbCircle
 10
127.7356196035
 20
-816.1460745837
 30
0.0
 40
42.4478343117458
100
AcDbArc
 50
224.1302718036
 51
227.8310810722
  0
ARC
  5
1F8
330
1F
100
AcDbEntity
  8
0
  6
Continuous
 62
     7
100
AcDbCircle
 10
88.8769181613
 20
-806.4435908171
 30
0.0
 40
42.44783431144425
100
AcDbArc
 50
284.1302718036
 51
287.8310810722
  0
ARC
  5
1F9
330
1F
100
AcDbEntity
  8
0
  6
Continuous
 62
     7
100
AcDbCircle
 10
61.0449700182
 20
-835.2449715406
 30
0.0
 40
42.44783431165235
100
AcDbArc
 50
344.1302718036
 51
347.8310810722
  0
LINE
  5
1FA
330
1F
100
AcDbEntity
  8
0
  6
Continuous
 62
     7
100
AcDbLine
 10
97.268324992
 20
-845.7021669643
 30
0.0
 11
97.6835181059
 21
-845.5832637815
 31
0.0
  0
LINE
  5
1FB
330
1F
100
AcDbEntity
  8
0
  6
Continuous
 62
     7
100
AcDbLine
 10
99.3442210737
 20
-847.1880687498
 30
0.0
 11
97.6835181059
 21
-845.5832637815
 31
0.0
  0
LINE
  5
1FC
330
1F
100
AcDbEntity
  8
0
  6
Continuous
 62
     7
100
AcDbLine
 10
99.2395976936
 20
-847.6070881253
 30
0.0
 11
99.3442210737
 21
-847.1880687498
 31
0.0
  0
LINE
  5
1FD
330
1F
100
AcDbEntity
  8
0
  6
Continuous
 62
     7
100
AcDbLine
 10
101.5643744282
 20
-846.5522602757
 30
0.0
 11
99.3442210737
 21
-847.1880687498
 31
0.0
  0
LINE
  5
1FE
330
1F
100
AcDbEntity
  8
0
  6
Continuous
 62
     7
100
AcDbLine
 10
101.8749441621
 20
-846.8523764685
 30
0.0
 11
101.5643744282
 21
-846.5522602757
 31
0.0
  0
LINE
  5
1FF
330
1F
100
AcDbEntity
  8
0
  6
Continuous
 62
     7
100
AcDbLine
 10
97.9323987589
 20
-843.0425341464
 30
0.0
 11
98.2429684927
 21
-843.3426503391
 31
0.0
  0
LINE
  5
200
330
1F
100
AcDbEntity
  8
0
  6
Continuous
 62
     7
100
AcDbLine
 10
97.6835181059
 20
-845.5832637815
 30
0.0
 11
98.2429684927
 21
-843.3426503391
 31
0.0
  0
LINE
  5
201
330
1F
100
AcDbEntity
  8
0
  6
Continuous
 62
     7
100
AcDbLine
 10
102.5390179289
 20
-844.1927436506
 30
0.0
 11
102.123824815
 21
-844.3116468334
 31
0.0
  0
LINE
  5
202
330
1F
100
AcDbEntity
  8
0
  6
Continuous
 62
     7
100
AcDbLine
 10
100.4631218473
 20
-842.7068418651
 30
0.0
 11
102.123824815
 21
-844.3116468334
 31
0.0
  0
LINE
  5
203
330
1F
100
AcDbEntity
  8
0
  6
Continuous
 62
     7
100
AcDbLine
 10
100.5677452273
 20
-842.2878224896
 30
0.0
 11
100.4631218473
 21
-842.7068418651
 31
0.0
  0
LINE
  5
204
330
1F
100
AcDbEntity
  8
0
  6
Continuous
 62
     7
100
AcDbLine
 10
102.123824815
 20
-844.3116468334
 30
0.0
 11
101.5643744282
 21
-846.5522602757
 31
0.0
  0
LINE
  5
205
330
1F
100
AcDbEntity
  8
0
  6
Continuous
 62
     7
100
AcDbLine
 10
98.2429684927
 20
-843.3426503391
 30
0.0
 11
100.4631218473
 21
-842.7068418651
 31
0.0
  0
CIRCLE
  5
206
330
1F
100
AcDbEntity
  8
0
  6
Continuous
 62
     7
100
AcDbCircle
 10
99.9036714605
 20
-844.9474553074
 30
0.0
 40
5.24999999999993
  0
LINE
  5
207
330
1F
100
AcDbEntity
  8
0
  6
Continuous
 62
     7
100
AcDbLine
 10
87.7503333141
 20
-775.9474553074
 30
0.0
 11
86.7613514155
 21
-775.9474553074
 31
0.0
  0
LINE
  5
208
330
1F
100
AcDbEntity
  8
0
  6
Continuous
 62
     7
100
AcDbLine
 10
99.9036714605
 20
-762.6722580609
 30
0.0
 11
99.9036714605
 21
-764.3203857206
 31
0.0
  0
LINE
  5
209
330
1F
100
AcDbEntity
  8
0
  6
Continuous
 62
     7
100
AcDbLine
 10
99.9036714605
 20
-857.222652554
 30
0.0
 11
99.9036714605
 21
-855.5745248943
 31
0.0
  0
LINE
  5
20A
330
1F
100
AcDbEntity
  8
0
  6
Continuous
 62
     7
100
AcDbLine
 10
87.7503333141
 20
-843.9474553074
 30
0.0
 11
86.7613514155
 21
-843.9474553074
 31
0.0
  0
LINE
  5
20B
330
1F
100
AcDbEntity
  8
0
  6
Continuous
 62
     7
100
AcDbLine
 10
112.0570096068
 20
-775.9474553074
 30
0.0
 11
113.0459899097
 21
-775.9474553074
 31
0.0
  0
LINE
  5
20C
330
1F
100
AcDbEntity
  8
0
  6
Continuous
 62
     7
100
AcDbLine
 10
112.0570096068
 20
-843.9474553074
 30
0.0
 11
113.0459915055
 21
-843.9474553074
 31
0.0
  0
SPLINE
  5
20D
330
1F
100
AcDbEntity
  8
0
  6
Continuous
 62
     7
100
AcDbSpline
210
0.0
220
0.0
230
1.0
 70
     8
 71
     3
 72
    27
 73
    23
 74
     0
 42
0.000000001
 43
0.00000001
 40
0.0
 40
0.0
 40
0.0
 40
0.0
 40
0.0384579390482174
 40
0.0777003236103549
 40
0.1336100336826149
 40
0.1915006263107235
 40
0.2431486562159362
 40
0.296081332355908
 40
0.3428835469290227
 40
0.390753554714184
 40
0.4371158396610014
 40
0.4847242422920484
 40
0.5362506117876323
 40
0.5895876744846796
 40
0.6455380885344195
 40
0.7034586746674414
 40
0.7551814401104469
 40
0.8081999398401604
 40
0.8553807799559074
 40
0.9036463019914251
 40
0.9511058500882712
 40
1.0
 40
1.0
 40
1.0
 40
1.0
 10
119.9036714604651
 20
-843.9474553074424
 30
0.0
 10
119.8744050824321
 20
-844.7668409089125
 30
0.0
 10
119.8152753656468
 20
-846.4223255233135
 30
0.0
 10
119.2726873067148
 20
-849.2108645722774
 30
0.0
 10
118.214541149526
 20
-852.2554953936179
 30
0.0
 10
116.5185513581956
 20
-855.251295722748
 30
0.0
 10
114.4009487387924
 20
-857.8513047614455
 30
0.0
 10
112.0605571747455
 20
-859.9290365455885
 30
0.0
 10
109.4792830532634
 20
-861.589322209147
 30
0.0
 10
106.7794139635508
 20
-862.807091614234
 30
0.0
 10
103.885681196826
 20
-863.6232784678847
 30
0.0
 10
100.8039465099052
 20
-864.0113291930963
 30
0.0
 10
97.54189998620062
 20
-863.9020217710364
 30
0.0
 10
94.1840901780943
 20
-863.2168853183376
 30
0.0
 10
90.9006542765485
 20
-861.9256414147579
 30
0.0
 10
87.96200453644597
 20
-860.111178144897
 30
0.0
 10
85.44095322529519
 20
-857.8876339480245
 30
0.0
 10
83.45278503119056
 20
-855.4614142843604
 30
0.0
 10
81.88902089272415
 20
-852.8068289587782
 30
0.0
 10
80.77622637796887
 20
-850.0279923146683
 30
0.0
 10
80.04384272111214
 20
-847.0436166314076
 30
0.0
 10
79.95085670093216
 20
-844.9897025977976
 30
0.0
 10
79.9036714604656
 20
-843.9474553074424
 30
0.0
  0
SPLINE
  5
20E
330
1F
100
AcDbEntity
  8
0
  6
Continuous
 62
     7
100
AcDbSpline
210
0.0
220
0.0
230
1.0
 70
     8
 71
     3
 72
    27
 73
    23
 74
     0
 42
0.000000001
 43
0.00000001
 40
0.0
 40
0.0
 40
0.0
 40
0.0
 40
0.0474376820137817
 40
0.0963540992749643
 40
0.1435121500552466
 40
0.1918007960653522
 40
0.243526157294776
 40
0.2965421125263645
 40
0.3525304667157464
 40
0.4104125808492011
 40
0.4619521024576621
 40
0.5152758780585791
 40
0.5616251001100885
 40
0.6092468111503458
 40
0.6560316454778113
 40
0.7039193035062451
 40
0.7555649563945234
 40
0.808500121916378
 40
0.8644598012203824
 40
0.9222996928138711
 40
0.960765540938989
 40
1.0
 40
1.0
 40
1.0
 40
1.0
 10
79.90367146046555
 20
-775.9474553074424
 30
0.0
 10
79.94823158222782
 20
-774.9363710901557
 30
0.0
 10
80.038740861217
 20
-772.8826849716079
 30
0.0
 10
80.75933763457208
 20
-769.9179577062695
 30
0.0
 10
81.87860709234613
 20
-767.1091878945815
 30
0.0
 10
83.42479166659693
 20
-764.474207862768
 30
0.0
 10
85.42206557523139
 20
-762.0268913150661
 30
0.0
 10
87.90937823846772
 20
-759.8242523992957
 30
0.0
 10
90.86348439509861
 20
-757.9880331937651
 30
0.0
 10
94.10879761677926
 20
-756.700177882233
 30
0.0
 10
97.50265613633783
 20
-755.9976170155765
 30
0.0
 10
100.739155612912
 20
-755.879758640074
 30
0.0
 10
103.8588058090592
 20
-756.2661892821293
 30
0.0
 10
106.7332940167315
 20
-757.0707804142946
 30
0.0
 10
109.4589796323086
 20
-758.2945425179855
 30
0.0
 10
112.0213616469889
 20
-759.9366229641879
 30
0.0
 10
114.382186808959
 20
-762.0240522127991
 30
0.0
 10
116.4802532047863
 20
-764.5896726080006
 30
0.0
 10
118.1972318144009
 20
-767.6017345986213
 30
0.0
 10
119.2595052172462
 20
-770.6284648243621
 30
0.0
 10
119.8130844632913
 20
-773.4559044012329
 30
0.0
 10
119.8732773189609
 20
-775.1114793597804
 30
0.0
 10
119.903671460465
 20
-775.9474553074426
 30
0.0
  0
SPLINE
  5
20F
330
1F
100
AcDbEntity
  8
0
  6
Continuous
 62
     7
100
AcDbSpline
210
0.0
220
0.0
230
1.0
 70
     8
 71
     3
 72
    12
 73
     8
 74
     0
 42
0.000000001
 43
0.00000001
 40
0.0
 40
0.0
 40
0.0
 40
0.0
 40
0.0422186906129923
 40
0.1766227577247679
 40
0.4510879544773774
 40
0.7255437916148993
 40
1.0
 40
1.0
 40
1.0
 40
1.0
 10
88.5860717279365
 20
-843.9404352275023
 30
0.0
 10
88.57389557064505
 20
-843.9405643871747
 30
0.0
 10
88.52295636698712
 20
-843.9411047293116
 30
0.0
 10
88.38753296512003
 20
-843.942476938326
 30
0.0
 10
88.17534683824302
 20
-843.9444330599598
 30
0.0
 10
87.93205620530014
 20
-843.9463849925155
 30
0.0
 10
87.81092744051071
 20
-843.9470985356393
 30
0.0
 10
87.75036301715427
 20
-843.9474553074424
 30
0.0
  0
SPLINE
  5
210
330
1F
100
AcDbEntity
  8
0
  6
Continuous
 62
     7
100
AcDbSpline
210
0.0
220
0.0
230
1.0
 70
     8
 71
     3
 72
    11
 73
     7
 74
     0
 42
0.000000001
 43
0.00000001
 40
0.0
 40
0.0
 40
0.0
 40
0.0
 40
0.0537450431876011
 40
0.2275377004326644
 40
0.6137684651563601
 40
1.0
 40
1.0
 40
1.0
 40
1.0
 10
99.90367146046471
 20
-854.9999348269008
 30
0.0
 10
99.90367146043391
 20
-855.0116197345599
 30
0.0
 10
99.90367146030351
 20
-855.0610895435102
 30
0.0
 10
99.90367146059303
 20
-855.1935777298876
 30
0.0
 10
99.90367146042611
 20
-855.3929940786529
 30
0.0
 10
99.90367146045222
 20
-855.5140145822112
 30
0.0
 10
99.90367146046528
 20
-855.5745248943172
 30
0.0
  0
LINE
  5
211
330
1F
100
AcDbEntity
  8
0
  6
Continuous
 62
     7
100
AcDbLine
 10
87.7503630172
 20
-843.9474553074
 30
0.0
 11
87.7503333141
 21
-843.9474553074
 31
0.0
  0
SPLINE
  5
212
330
1F
100
AcDbEntity
  8
0
  6
Continuous
 62
     7
100
AcDbSpline
210
0.0
220
0.0
230
1.0
 70
     8
 71
     3
 72
    12
 73
     8
 74
     0
 42
0.000000001
 43
0.00000001
 40
0.0
 40
0.0
 40
0.0
 40
0.0
 40
0.0422186905937157
 40
0.176622757724673
 40
0.4510879544773251
 40
0.7255437916148794
 40
1.0
 40
1.0
 40
1.0
 40
1.0
 10
111.2212711929943
 20
-843.9404352275028
 30
0.0
 10
111.2334473502802
 20
-843.9405643871753
 30
0.0
 10
111.2843865539379
 20
-843.9411047293137
 30
0.0
 10
111.4198099558049
 20
-843.9424769383169
 30
0.0
 10
111.6319960826877
 20
-843.9444330599628
 30
0.0
 10
111.8752867156306
 20
-843.9463849925147
 30
0.0
 10
111.9964154804201
 20
-843.9470985356389
 30
0.0
 10
112.0569799037765
 20
-843.9474553074424
 30
0.0
  0
LINE
  5
213
330
1F
100
AcDbEntity
  8
0
  6
Continuous
 62
     7
100
AcDbLine
 10
112.0569799038
 20
-843.9474553074
 30
0.0
 11
112.0570096068
 21
-843.9474553074
 31
0.0
  0
LINE
  5
214
330
1F
100
AcDbEntity
  8
0
  6
Continuous
 62
     7
100
AcDbLine
 10
112.0569799038
 20
-775.9474553074
 30
0.0
 11
112.0570096068
 21
-775.9474553074
 31
0.0
  0
SPLINE
  5
215
330
1F
100
AcDbEntity
  8
0
  6
Continuous
 62
     7
100
AcDbSpline
210
0.0
220
0.0
230
1.0
 70
     8
 71
     3
 72
    12
 73
     8
 74
     0
 42
0.000000001
 43
0.00000001
 40
0.0
 40
0.0
 40
0.0
 40
0.0
 40
0.2744562083851222
 40
0.5489120455226699
 40
0.823377242275251
 40
0.9577813093926412
 40
1.0
 40
1.0
 40
1.0
 40
1.0
 10
112.0569799037765
 20
-775.9474553074426
 30
0.0
 10
111.9964154804201
 20
-775.9478120792437
 30
0.0
 10
111.8752867156306
 20
-775.948525622363
 30
0.0
 10
111.631996082688
 20
-775.9504775549484
 30
0.0
 10
111.4198099558085
 20
-775.9524336765091
 30
0.0
 10
111.2843865539425
 20
-775.9538058856232
 30
0.0
 10
111.2334473502842
 20
-775.9543462277196
 30
0.0
 10
111.2212711929943
 20
-775.9544753873821
 30
0.0
  0
SPLINE
  5
216
330
1F
100
AcDbEntity
  8
0
  6
Continuous
 62
     7
100
AcDbSpline
210
0.0
220
0.0
230
1.0
 70
    24
 71
     3
 72
    11
 73
     7
 74
     0
 42
0.000000001
 43
0.00000001
 40
0.0
 40
0.0
 40
0.0
 40
0.0
 40
0.3862315348437436
 40
0.7724622995676579
 40
0.9462549568779959
 40
1.0
 40
1.0
 40
1.0
 40
1.0
 10
99.90367146046525
 20
-764.320385720568
 30
0.0
 10
99.90367146047035
 20
-764.380896032674
 30
0.0
 10
99.90367146048058
 20
-764.5019165362323
 30
0.0
 10
99.90367146041737
 20
-764.7013328850112
 30
0.0
 10
99.90367146054552
 20
-764.8338210713893
 30
0.0
 10
99.90367146048084
 20
-764.8832908803394
 30
0.0
 10
99.90367146046556
 20
-764.8949757879842
 30
0.0
  0
LINE
  5
217
330
1F
100
AcDbEntity
  8
0
  6
Continuous
 62
     7
100
AcDbLine
 10
87.7503630172
 20
-775.9474553074
 30
0.0
 11
87.7503333141
 21
-775.9474553074
 31
0.0
  0
SPLINE
  5
218
330
1F
100
AcDbEntity
  8
0
  6
Continuous
 62
     7
100
AcDbSpline
210
0.0
220
0.0
230
1.0
 70
     8
 71
     3
 72
    12
 73
     8
 74
     0
 42
0.000000001
 43
0.00000001
 40
0.0
 40
0.0
 40
0.0
 40
0.0
 40
0.2744562083851584
 40
0.5489120455227144
 40
0.8233772422753243
 40
0.9577813094228688
 40
1.0
 40
1.0
 40
1.0
 40
1.0
 10
87.75036301715424
 20
-775.9474553074424
 30
0.0
 10
87.8109274405107
 20
-775.9478120792458
 30
0.0
 10
87.93205620530014
 20
-775.9485256223702
 30
0.0
 10
88.17534683824304
 20
-775.9504775549218
 30
0.0
 10
88.38753296513103
 20
-775.9524336765685
 30
0.0
 10
88.52295636699797
 20
-775.9538058855547
 30
0.0
 10
88.57389557065547
 20
-775.9543462277061
 30
0.0
 10
88.58607172793647
 20
-775.9544753873819
 30
0.0
  0
SPLINE
  5
219
330
1F
100
AcDbEntity
  8
0
  6
Continuous
 62
     7
100
AcDbSpline
210
0.0
220
0.0
230
1.0
 70
    11
 71
     3
 72
    27
 73
    23
 74
     0
 42
0.000000001
 43
0.00000001
 40
0.0
 40
0.0
 40
0.0
 40
0.0
 40
0.0531469460263362
 40
0.1062753952728469
 40
0.1598863097726459
 40
0.2138446524485153
 40
0.267268814168117
 40
0.3201082447137878
 40
0.3732243419994288
 40
0.4270424990653282
 40
0.4809034683759338
 40
0.4999999999999997
 40
0.553146946026336
 40
0.606275395272846
 40
0.6598863097726502
 40
0.7138446524485208
 40
0.7672688141681225
 40
0.8201082447137931
 40
0.8732243419994282
 40
0.9270424990653277
 40
0.980903468375934
 40
1.0
 40
1.0
 40
1.0
 40
1.0
 10
99.90367146046559
 20
-839.3474553074427
 30
0.0
 10
99.27911319737854
 20
-839.4084399591245
 30
0.0
 10
98.03021403678314
 20
-839.5303880379447
 30
0.0
 10
96.36459539745212
 20
-840.4799170833081
 30
0.0
 10
95.08600629472943
 20
-841.8854162440339
 30
0.0
 10
94.34448494414922
 20
-843.6547105732227
 30
0.0
 10
94.23135178076286
 20
-845.5615728147874
 30
0.0
 10
94.74757680694147
 20
-847.3875838245109
 30
0.0
 10
95.83166015090029
 20
-848.9440223272022
 30
0.0
 10
97.37603128153211
 20
-850.0656238238478
 30
0.0
 10
98.82726425336683
 20
-850.4964937339795
 30
0.0
 10
100.3011942183344
 20
-850.5848524248969
 30
0.0
 10
101.7780916320238
 20
-850.3364437829904
 30
0.0
 10
103.4424869856133
 20
-849.4225921866717
 30
0.0
 10
104.721407417866
 20
-848.0074297134192
 30
0.0
 10
105.4628384719177
 20
-846.2407689061366
 30
0.0
 10
105.5759988026464
 20
-844.3331143219172
 30
0.0
 10
105.0597547440966
 20
-842.5076583962887
 30
0.0
 10
103.9757210600332
 20
-840.9497715497351
 30
0.0
 10
102.4311678784846
 20
-839.8334796157623
 30
0.0
 10
100.9804687083287
 20
-839.3870412398577
 30
0.0
 10
100.1270521437986
 20
-839.3556673758249
 30
0.0
 10
99.90367146046559
 20
-839.3474553074427
 30
0.0
  0
SPLINE
  5
21A
330
1F
100
AcDbEntity
  8
0
  6
Continuous
 62
     7
100
AcDbSpline
210
0.0
220
0.0
230
1.0
 70
    11
 71
     3
 72
    27
 73
    23
 74
     0
 42
0.000000001
 43
0.00000001
 40
0.0
 40
0.0
 40
0.0
 40
0.0
 40
0.0531469460263355
 40
0.1062753952728461
 40
0.1598863097726506
 40
0.2138446524485192
 40
0.2672688141681196
 40
0.3201082447137896
 40
0.3732243419994296
 40
0.4270424990653294
 40
0.4809034683759346
 40
0.5000000000000001
 40
0.5531469460263359
 40
0.6062753952728455
 40
0.6598863097726494
 40
0.7138446524485185
 40
0.7672688141681197
 40
0.8201082447137892
 40
0.8732243419994304
 40
0.9270424990653282
 40
0.9809034683759336
 40
1.0
 40
1.0
 40
1.0
 40
1.0
 10
99.90367146046559
 20
-780.5474553074426
 30
0.0
 10
99.27911319737854
 20
-780.4864706557607
 30
0.0
 10
98.03021403678316
 20
-780.3645225769405
 30
0.0
 10
96.36459539745199
 20
-779.414993531577
 30
0.0
 10
95.08600629472944
 20
-778.0094943708511
 30
0.0
 10
94.34448494414924
 20
-776.2402000416623
 30
0.0
 10
94.23135178076288
 20
-774.3333378000976
 30
0.0
 10
94.74757680694144
 20
-772.5073267903742
 30
0.0
 10
95.83166015090025
 20
-770.9508882876827
 30
0.0
 10
97.37603128153206
 20
-769.8292867910372
 30
0.0
 10
98.82726425336682
 20
-769.3984168809055
 30
0.0
 10
100.3011942183344
 20
-769.3100581899881
 30
0.0
 10
101.7780916320238
 20
-769.5584668318945
 30
0.0
 10
103.4424869856133
 20
-770.4723184282134
 30
0.0
 10
104.721407417866
 20
-771.887480901466
 30
0.0
 10
105.4628384719177
 20
-773.6541417087484
 30
0.0
 10
105.5759988026464
 20
-775.561796292968
 30
0.0
 10
105.0597547440964
 20
-777.3872522185962
 30
0.0
 10
103.9757210600333
 20
-778.9451390651501
 30
0.0
 10
102.4311678784846
 20
-780.0614309991232
 30
0.0
 10
100.9804687083287
 20
-780.5078693750274
 30
0.0
 10
100.1270521437986
 20
-780.5392432390604
 30
0.0
 10
99.90367146046559
 20
-780.5474553074426
 30
0.0
  0
LINE
  5
21B
330
1F
100
AcDbEntity
  8
0
  6
Continuous
 62
     7
100
AcDbLine
 10
119.9036714605
 20
-775.9474553074
 30
0.0
 11
119.9036714605
 21
-843.9474553074
 31
0.0
  0
LINE
  5
21C
330
1F
100
AcDbEntity
  8
0
  6
Continuous
 62
     7
100
AcDbLine
 10
79.9036714605
 20
-843.9474553074
 30
0.0
 11
79.9036714605
 21
-775.9474553074
 31
0.0
  0
LINE
  5
21D
330
1F
100
AcDbEntity
  8
0
  6
Continuous
 62
     7
100
AcDbLine
 10
224.9036714605
 20
-981.4474553074
 30
0.0
 11
-25.0963285395
 21
-981.4474553074
 31
0.0
  0
LINE
  5
21E
330
1F
100
AcDbEntity
  8
0
  6
Continuous
 62
     7
100
AcDbLine
 10
220.4845443818
 20
-951.4474553074
 30
0.0
 11
-20.6772014609
 21
-951.4474553074
 31
0.0
  0
LINE
  5
21F
330
1F
100
AcDbEntity
  8
0
  6
Continuous
 62
     7
100
AcDbLine
 10
146.4036714605
 20
-903.4474553074
 30
0.0
 11
53.4036714605
 21
-903.4474553074
 31
0.0
  0
LINE
  5
220
330
1F
100
AcDbEntity
  8
0
  6
Continuous
 62
     7
100
AcDbLine
 10
97.1623325895
 20
-950.9474553074
 30
0.0
 11
97.1623325895
 21
-951.4474553074
 31
0.0
  0
LINE
  5
221
330
1F
100
AcDbEntity
  8
0
  6
Continuous
 62
     7
100
AcDbLine
 10
97.1623325895
 20
-950.9474553074
 30
0.0
 11
94.6675719443
 21
-950.9474553074
 31
0.0
  0
LINE
  5
222
330
1F
100
AcDbEntity
  8
0
  6
Continuous
 62
     7
100
AcDbLine
 10
102.7320393816
 20
-950.9474553074
 30
0.0
 11
102.7320393816
 21
-951.4474553074
 31
0.0
  0
LINE
  5
223
330
1F
100
AcDbEntity
  8
0
  6
Continuous
 62
     7
100
AcDbLine
 10
102.7320393816
 20
-950.9474553074
 30
0.0
 11
100.6043683956
 21
-950.9474553074
 31
0.0
  0
LINE
  5
224
330
1F
100
AcDbEntity
  8
0
  6
Continuous
 62
     7
100
AcDbLine
 10
114.7554168794
 20
-950.9474553074
 30
0.0
 11
114.7554168794
 21
-951.4474553074
 31
0.0
  0
LINE
  5
225
330
1F
100
AcDbEntity
  8
0
  6
Continuous
 62
     7
100
AcDbLine
 10
118.7885730049
 20
-950.9474553074
 30
0.0
 11
114.7554168794
 21
-950.9474553074
 31
0.0
  0
LINE
  5
226
330
1F
100
AcDbEntity
  8
0
  6
Continuous
 62
     7
100
AcDbLine
 10
118.7885730049
 20
-950.9474553074
 30
0.0
 11
118.7885730049
 21
-951.4474553074
 31
0.0
  0
LINE
  5
227
330
1F
100
AcDbEntity
  8
0
  6
Continuous
 62
     7
100
AcDbLine
 10
113.298544401
 20
-950.9474553074
 30
0.0
 11
113.298544401
 21
-951.4474553074
 31
0.0
  0
LINE
  5
228
330
1F
100
AcDbEntity
  8
0
  6
Continuous
 62
     7
100
AcDbLine
 10
113.298544401
 20
-950.9474553074
 30
0.0
 11
110.8166640946
 21
-950.9474553074
 31
0.0
  0
LINE
  5
229
330
1F
100
AcDbEntity
  8
0
  6
Continuous
 62
     7
100
AcDbLine
 10
99.7462158148
 20
-950.9474553074
 30
0.0
 11
99.7462158148
 21
-951.4474553074
 31
0.0
  0
SPLINE
  5
22A
330
1F
100
AcDbEntity
  8
0
  6
Continuous
 62
     7
100
AcDbSpline
210
0.0
220
0.0
230
1.0
 70
    24
 71
     3
 72
    15
 73
    11
 74
     0
 42
0.000000001
 43
0.00000001
 40
0.0
 40
0.0
 40
0.0
 40
0.0
 40
0.1580958107017867
 40
0.3068607088331017
 40
0.4453596105306025
 40
0.5755535789612118
 40
0.6955263260277768
 40
0.8063064906224604
 40
0.9081816729582861
 40
1.0
 40
1.0
 40
1.0
 40
1.0
 10
100.6043683956235
 20
-950.9474553074424
 30
0.0
 10
100.5590167851779
 20
-950.9474553074424
 30
0.0
 10
100.4709902443967
 20
-950.9474553074424
 30
0.0
 10
100.3432678746147
 20
-950.9474553074424
 30
0.0
 10
100.2235348927551
 20
-950.9474553074424
 30
0.0
 10
100.112198182691
 20
-950.9474553074424
 30
0.0
 10
100.0088557938676
 20
-950.9474553074424
 30
0.0
 10
99.91369483342463
 20
-950.9474553074424
 30
0.0
 10
99.82710521520988
 20
-950.9474553074424
 30
0.0
 10
99.7722292001664
 20
-950.9474553074424
 30
0.0
 10
99.74621581483304
 20
-950.9474553074424
 30
0.0
  0
SPLINE
  5
22B
330
1F
100
AcDbEntity
  8
0
  6
Continuous
 62
     7
100
AcDbSpline
210
0.0
220
0.0
230
1.0
 70
    24
 71
     3
 72
    27
 73
    23
 74
     0
 42
0.000000001
 43
0.00000001
 40
0.0
 40
0.0
 40
0.0
 40
0.0
 40
0.063035506800595
 40
0.122566855301742
 40
0.1778484465732544
 40
0.2297475689440872
 40
0.2777929024274972
 40
0.3222874272918997
 40
0.3633111469865549
 40
0.4014101848454028
 40
0.4375144171856728
 40
0.4728440372436972
 40
0.5083137678827397
 40
0.5438533466743881
 40
0.5796817727709385
 40
0.6160746297701651
 40
0.6532949660491235
 40
0.691489487822316
 40
0.7682125914080675
 40
0.8443129668068566
 40
0.9209309480470098
 40
0.9999999999999999
 40
0.9999999999999999
 40
0.9999999999999999
 40
0.9999999999999999
 10
94.66757194425868
 20
-950.9474553074424
 30
0.0
 10
94.60690716347916
 20
-950.9474553074424
 30
0.0
 10
94.48894997101564
 20
-950.9474553074424
 30
0.0
 10
94.31811700994811
 20
-950.9474553074424
 30
0.0
 10
94.1586981374821
 20
-950.9474553074424
 30
0.0
 10
94.01088793539199
 20
-950.9474553074424
 30
0.0
 10
93.87461598057918
 20
-950.9474553074424
 30
0.0
 10
93.74935438369236
 20
-950.9474553074424
 30
0.0
 10
93.6362423734161
 20
-950.9474553074424
 30
0.0
 10
93.53274978764144
 20
-950.9474553074424
 30
0.0
 10
93.43845296970393
 20
-950.9474553074424
 30
0.0
 10
93.34945726175945
 20
-950.9474553074424
 30
0.0
 10
93.26686317133401
 20
-950.9474553074424
 30
0.0
 10
93.18823951276111
 20
-950.9474553074424
 30
0.0
 10
93.11564024041532
 20
-950.9474553074424
 30
0.0
 10
93.04856251298679
 20
-950.9474553074424
 30
0.0
 10
92.98758318207007
 20
-950.9474553074424
 30
0.0
 10
92.91279286562066
 20
-950.9474553074424
 30
0.0
 10
92.83420682437213
 20
-950.9474553074424
 30
0.0
 10
92.77208805660558
 20
-950.9474553074424
 30
0.0
 10
92.7359166734068
 20
-950.9474553074424
 30
0.0
 10
92.73832373363643
 20
-950.9474553074424
 30
0.0
 10
92.73954621161964
 20
-950.9474553074424
 30
0.0
  0
LINE
  5
22C
330
1F
100
AcDbEntity
  8
0
  6
Continuous
 62
     7
100
AcDbLine
 10
98.4147107786
 20
-950.9474553074
 30
0.0
 11
98.4147107786
 21
-951.4474553074
 31
0.0
  0
SPLINE
  5
22D
330
1F
100
AcDbEntity
  8
0
  6
Continuous
 62
     7
100
AcDbSpline
210
0.0
220
0.0
230
1.0
 70
    24
 71
     3
 72
    19
 73
    15
 74
     0
 42
0.000000001
 43
0.00000001
 40
0.0
 40
0.0
 40
0.0
 40
0.0
 40
0.0897270088018006
 40
0.174577733546237
 40
0.2545539628377634
 40
0.3314316541011091
 40
0.4069422486751267
 40
0.4839268779387857
 40
0.5638350281939452
 40
0.647808606953742
 40
0.7340427420236096
 40
0.8202944878768621
 40
0.9087886433018804
 40
1.0
 40
1.0
 40
1.0
 40
1.0
 10
99.74621581483304
 20
-950.9474553074424
 30
0.0
 10
99.67964666380507
 20
-950.9474553074424
 30
0.0
 10
99.55012611402023
 20
-950.9474553074424
 30
0.0
 10
99.36605746584733
 20
-950.9474553074424
 30
0.0
 10
99.19846297748921
 20
-950.9474553074424
 30
0.0
 10
99.0469286877976
 20
-950.9474553074424
 30
0.0
 10
98.91050612466883
 20
-950.9474553074424
 30
0.0
 10
98.78745396237865
 20
-950.9474553074424
 30
0.0
 10
98.68073202071214
 20
-950.9474553074424
 30
0.0
 10
98.58701669326193
 20
-950.9474553074424
 30
0.0
 10
98.51040369297964
 20
-950.9474553074424
 30
0.0
 10
98.45740737425946
 20
-950.9474553074424
 30
0.0
 10
98.42048168319687
 20
-950.9474553074424
 30
0.0
 10
98.41665370684744
 20
-950.9474553074424
 30
0.0
 10
98.41471077859714
 20
-950.9474553074424
 30
0.0
  0
LINE
  5
22E
330
1F
100
AcDbEntity
  8
0
  6
Continuous
 62
     7
100
AcDbLine
 10
108.6600123461
 20
-950.9474553074
 30
0.0
 11
108.6600123461
 21
-951.4474553074
 31
0.0
  0
SPLINE
  5
22F
330
1F
100
AcDbEntity
  8
0
  6
Continuous
 62
     7
100
AcDbSpline
210
0.0
220
0.0
230
1.0
 70
    24
 71
     3
 72
    27
 73
    23
 74
     0
 42
0.000000001
 43
0.00000001
 40
0.0
 40
0.0
 40
0.0
 40
0.0
 40
0.0629292509686716
 40
0.1223548568611545
 40
0.1778057107000975
 40
0.2296021119140251
 40
0.2778434826876923
 40
0.3220676009922855
 40
0.3635015029037572
 40
0.4011976343868211
 40
0.4373136338386662
 40
0.4727883673380304
 40
0.508287138913797
 40
0.5435337931269749
 40
0.5793457568449041
 40
0.6160242384561426
 40
0.6530520267822953
 40
0.6914169864590357
 40
0.7681115242727689
 40
0.8440898683920232
 40
0.9208894921807453
 40
1.0
 40
1.0
 40
1.0
 40
1.0
 10
110.8166640946187
 20
-950.9474553074424
 30
0.0
 10
110.7563240824123
 20
-950.9474553074424
 30
0.0
 10
110.6390035447789
 20
-950.9474553074424
 30
0.0
 10
110.4679108751074
 20
-950.9474553074424
 30
0.0
 10
110.3074148541511
 20
-950.9474553074424
 30
0.0
 10
110.1575246194519
 20
-950.9474553074424
 30
0.0
 10
110.0186401839924
 20
-950.9474553074424
 30
0.0
 10
109.8902124864824
 20
-950.9474553074424
 30
0.0
 10
109.7726195952526
 20
-950.9474553074424
 30
0.0
 10
109.6642176596989
 20
-950.9474553074424
 30
0.0
 10
109.5633361893605
 20
-950.9474553074424
 30
0.0
 10
109.4674328929845
 20
-950.9474553074424
 30
0.0
 10
109.3770957215206
 20
-950.9474553074424
 30
0.0
 10
109.288894007915
 20
-950.9474553074424
 30
0.0
 10
109.2057672004396
 20
-950.9474553074424
 30
0.0
 10
109.1274005120998
 20
-950.9474553074424
 30
0.0
 10
109.0526361676863
 20
-950.9474553074424
 30
0.0
 10
108.9590755690367
 20
-950.9474553074424
 30
0.0
 10
108.8561262246525
 20
-950.9474553074424
 30
0.0
 10
108.7605915252712
 20
-950.9474553074424
 30
0.0
 10
108.6918928594902
 20
-950.9474553074424
 30
0.0
 10
108.67074367424
 20
-950.9474553074424
 30
0.0
 10
108.6600123460842
 20
-950.9474553074424
 30
0.0
  0
LINE
  5
230
330
1F
100
AcDbEntity
  8
0
  6
Continuous
 62
     7
100
AcDbLine
 10
97.437649834
 20
-950.9474553074
 30
0.0
 11
97.437649834
 21
-951.4474553074
 31
0.0
  0
LINE
  5
231
330
1F
100
AcDbEntity
  8
0
  6
Continuous
 62
     7
100
AcDbLine
 10
97.437649834
 20
-950.9474553074
 30
0.0
 11
97.1623325895
 21
-950.9474553074
 31
0.0
  0
LINE
  5
232
330
1F
100
AcDbEntity
  8
0
  6
Continuous
 62
     7
100
AcDbLine
 10
88.852520994
 20
-950.9474553074
 30
0.0
 11
88.852520994
 21
-951.4474553074
 31
0.0
  0
LINE
  5
233
330
1F
100
AcDbEntity
  8
0
  6
Continuous
 62
     7
100
AcDbLine
 10
89.6535170708
 20
-950.9474553074
 30
0.0
 11
88.852520994
 21
-950.9474553074
 31
0.0
  0
LINE
  5
234
330
1F
100
AcDbEntity
  8
0
  6
Continuous
 62
     7
100
AcDbLine
 10
89.6535170708
 20
-950.9474553074
 30
0.0
 11
89.6535170708
 21
-951.4474553074
 31
0.0
  0
LINE
  5
235
330
1F
100
AcDbEntity
  8
0
  6
Continuous
 62
     7
100
AcDbLine
 10
85.6774420025
 20
-950.9474553074
 30
0.0
 11
85.6774420025
 21
-951.4474553074
 31
0.0
  0
LINE
  5
236
330
1F
100
AcDbEntity
  8
0
  6
Continuous
 62
     7
100
AcDbLine
 10
85.6774420025
 20
-950.9474553074
 30
0.0
 11
83.771956863
 21
-950.9474553074
 31
0.0
  0
LINE
  5
237
330
1F
100
AcDbEntity
  8
0
  6
Continuous
 62
     7
100
AcDbLine
 10
92.3905890921
 20
-950.9474553074
 30
0.0
 11
92.3905890921
 21
-951.4474553074
 31
0.0
  0
LINE
  5
238
330
1F
100
AcDbEntity
  8
0
  6
Continuous
 62
     7
100
AcDbLine
 10
92.3905890921
 20
-950.9474553074
 30
0.0
 11
89.6535170708
 21
-950.9474553074
 31
0.0
  0
LINE
  5
239
330
1F
100
AcDbEntity
  8
0
  6
Continuous
 62
     7
100
AcDbLine
 10
87.1354108112
 20
-950.9474553074
 30
0.0
 11
87.1354108112
 21
-951.4474553074
 31
0.0
  0
LINE
  5
23A
330
1F
100
AcDbEntity
  8
0
  6
Continuous
 62
     7
100
AcDbLine
 10
88.852520994
 20
-950.9474553074
 30
0.0
 11
87.1354108112
 21
-950.9474553074
 31
0.0
  0
LINE
  5
23B
330
1F
100
AcDbEntity
  8
0
  6
Continuous
 62
     7
100
AcDbLine
 10
73.5304607247
 20
-950.9474553074
 30
0.0
 11
73.5304607247
 21
-951.4474553074
 31
0.0
  0
LINE
  5
23C
330
1F
100
AcDbEntity
  8
0
  6
Continuous
 62
     7
100
AcDbLine
 10
77.4855297954
 20
-950.9474553074
 30
0.0
 11
77.4855297954
 21
-951.4474553074
 31
0.0
  0
LINE
  5
23D
330
1F
100
AcDbEntity
  8
0
  6
Continuous
 62
     7
100
AcDbLine
 10
77.4855297954
 20
-950.9474553074
 30
0.0
 11
73.5304607247
 21
-950.9474553074
 31
0.0
  0
LINE
  5
23E
330
1F
100
AcDbEntity
  8
0
  6
Continuous
 62
     7
100
AcDbLine
 10
82.8011013166
 20
-950.9474553074
 30
0.0
 11
82.8011013166
 21
-951.4474553074
 31
0.0
  0
SPLINE
  5
23F
330
1F
100
AcDbEntity
  8
0
  6
Continuous
 62
     7
100
AcDbSpline
210
0.0
220
0.0
230
1.0
 70
    24
 71
     3
 72
    15
 73
    11
 74
     0
 42
0.000000001
 43
0.00000001
 40
0.0
 40
0.0
 40
0.0
 40
0.0
 40
0.1580838030530053
 40
0.306943406271326
 40
0.445702847725279
 40
0.5744233416703743
 40
0.6947390375775497
 40
0.8061736566613915
 40
0.9078726002744003
 40
1.0
 40
1.0
 40
1.0
 40
1.0
 10
83.77195686300348
 20
-950.9474553074424
 30
0.0
 10
83.71985619563569
 20
-950.9474553074424
 30
0.0
 10
83.61869493811258
 20
-950.9474553074424
 30
0.0
 10
83.47250198725195
 20
-950.9474553074424
 30
0.0
 10
83.33637169844825
 20
-950.9474553074424
 30
0.0
 10
83.21028038855255
 20
-950.9474553074424
 30
0.0
 10
83.09355827539574
 20
-950.9474553074424
 30
0.0
 10
82.98679446709212
 20
-950.9474553074424
 30
0.0
 10
82.88991434891575
 20
-950.9474553074424
 30
0.0
 10
82.8297147337467
 20
-950.9474553074424
 30
0.0
 10
82.80110131663074
 20
-950.9474553074424
 30
0.0
  0
LINE
  5
240
330
1F
100
AcDbEntity
  8
0
  6
Continuous
 62
     7
100
AcDbLine
 10
86.5637703247
 20
-950.9474553074
 30
0.0
 11
86.5637703247
 21
-951.4474553074
 31
0.0
  0
LINE
  5
241
330
1F
100
AcDbEntity
  8
0
  6
Continuous
 62
     7
100
AcDbLine
 10
86.5637703247
 20
-950.9474553074
 30
0.0
 11
85.6774420025
 21
-950.9474553074
 31
0.0
  0
LINE
  5
242
330
1F
100
AcDbEntity
  8
0
  6
Continuous
 62
     7
100
AcDbLine
 10
114.6475440409
 20
-950.9474553074
 30
0.0
 11
114.6475440409
 21
-951.4474553074
 31
0.0
  0
LINE
  5
243
330
1F
100
AcDbEntity
  8
0
  6
Continuous
 62
     7
100
AcDbLine
 10
114.7554168794
 20
-950.9474553074
 30
0.0
 11
114.6475440409
 21
-950.9474553074
 31
0.0
  0
SPLINE
  5
244
330
1F
100
AcDbEntity
  8
0
  6
Continuous
 62
     7
100
AcDbSpline
210
0.0
220
0.0
230
1.0
 70
    24
 71
     3
 72
    11
 73
     7
 74
     0
 42
0.000000001
 43
0.00000001
 40
0.0
 40
0.0
 40
0.0
 40
0.0
 40
0.2608312478039415
 40
0.5128503229813305
 40
0.7571657685622091
 40
0.9936908376833681
 40
0.9936908376833681
 40
0.9936908376833681
 40
0.9936908376833681
 10
82.80110131663074
 20
-950.9474553074424
 30
0.0
 10
82.72746762876612
 20
-950.9474553074424
 30
0.0
 10
82.58268796405329
 20
-950.9474553074424
 30
0.0
 10
82.38457807369574
 20
-950.9474553074424
 30
0.0
 10
82.20624575720116
 20
-950.9474553074424
 30
0.0
 10
82.10572334182773
 20
-950.9474553074424
 30
0.0
 10
82.05638007415655
 20
-950.9474553074424
 30
0.0
  0
LINE
  5
245
330
1F
100
AcDbEntity
  8
0
  6
Continuous
 62
     7
100
AcDbLine
 10
119.9326650008
 20
-950.9474553074
 30
0.0
 11
119.9326650008
 21
-951.4474553074
 31
0.0
  0
LINE
  5
246
330
1F
100
AcDbEntity
  8
0
  6
Continuous
 62
     7
100
AcDbLine
 10
122.5433486964
 20
-950.9474553074
 30
0.0
 11
122.5433486964
 21
-951.4474553074
 31
0.0
  0
SPLINE
  5
247
330
1F
100
AcDbEntity
  8
0
  6
Continuous
 62
     7
100
AcDbSpline
210
0.0
220
0.0
230
1.0
 70
    24
 71
     3
 72
    19
 73
    15
 74
     0
 42
0.000000001
 43
0.00000001
 40
0.0
 40
0.0
 40
0.0
 40
0.0
 40
0.0959943514990211
 40
0.1877465024144382
 40
0.2763002283410444
 40
0.3625380570688739
 40
0.44521896889802
 40
0.5235093066348318
 40
0.5983129763740791
 40
0.6712185288855845
 40
0.7456096876327739
 40
0.8242179326901204
 40
0.9091104592167629
 40
1.0
 40
1.0
 40
1.0
 40
1.0
 10
122.5433486964062
 20
-950.9474553074424
 30
0.0
 10
122.445686682816
 20
-950.9474553074424
 30
0.0
 10
122.2546785538586
 20
-950.9474553074424
 30
0.0
 10
121.9688119413068
 20
-950.9474553074424
 30
0.0
 10
121.6921302987654
 20
-950.9474553074424
 30
0.0
 10
121.426586197757
 20
-950.9474553074424
 30
0.0
 10
121.1752570722853
 20
-950.9474553074424
 30
0.0
 10
120.9444594468734
 20
-950.9474553074424
 30
0.0
 10
120.7340699947729
 20
-950.9474553074424
 30
0.0
 10
120.5447122339356
 20
-950.9474553074424
 30
0.0
 10
120.3729727108802
 20
-950.9474553074424
 30
0.0
 10
120.2136474328475
 20
-950.9474553074424
 30
0.0
 10
120.0635083742903
 20
-950.9474553074424
 30
0.0
 10
119.9772602774333
 20
-950.9474553074424
 30
0.0
 10
119.9326650008119
 20
-950.9474553074424
 30
0.0
  0
LINE
  5
248
330
1F
100
AcDbEntity
  8
0
  6
Continuous
 62
     7
100
AcDbLine
 10
78.9843236636
 20
-950.9474553074
 30
0.0
 11
78.9843236636
 21
-951.4474553074
 31
0.0
  0
LINE
  5
249
330
1F
100
AcDbEntity
  8
0
  6
Continuous
 62
     7
100
AcDbLine
 10
79.7152828975
 20
-950.9474553074
 30
0.0
 11
78.9843236636
 21
-950.9474553074
 31
0.0
  0
LINE
  5
24A
330
1F
100
AcDbEntity
  8
0
  6
Continuous
 62
     7
100
AcDbLine
 10
79.7152828975
 20
-950.9474553074
 30
0.0
 11
79.7152828975
 21
-951.4474553074
 31
0.0
  0
LINE
  5
24B
330
1F
100
AcDbEntity
  8
0
  6
Continuous
 62
     7
100
AcDbLine
 10
80.8294322144
 20
-950.9474553074
 30
0.0
 11
80.8294322144
 21
-951.4474553074
 31
0.0
  0
LINE
  5
24C
330
1F
100
AcDbEntity
  8
0
  6
Continuous
 62
     7
100
AcDbLine
 10
80.8294322144
 20
-950.9474553074
 30
0.0
 11
79.7152828975
 21
-950.9474553074
 31
0.0
  0
SPLINE
  5
24D
330
1F
100
AcDbEntity
  8
0
  6
Continuous
 62
     7
100
AcDbSpline
210
0.0
220
0.0
230
1.0
 70
    24
 71
     3
 72
    11
 73
     7
 74
     0
 42
0.000000001
 43
0.00000001
 40
0.0
 40
0.0
 40
0.0
 40
0.0
 40
0.1295649634480873
 40
0.4669594012406144
 40
0.7330881222200721
 40
0.9999999999999999
 40
0.9999999999999999
 40
0.9999999999999999
 40
0.9999999999999999
 10
124.6909756188652
 20
-950.9474553074424
 30
0.0
 10
124.7051827300174
 20
-950.9474553074424
 30
0.0
 10
124.7563859561089
 20
-950.9474553074424
 30
0.0
 10
124.3715433812688
 20
-950.9474553074424
 30
0.0
 10
123.5165562078976
 20
-950.9474553074424
 30
0.0
 10
122.8680687916367
 20
-950.9474553074424
 30
0.0
 10
122.5433486964062
 20
-950.9474553074424
 30
0.0
  0
LINE
  5
24E
330
1F
100
AcDbEntity
  8
0
  6
Continuous
 62
     7
100
AcDbLine
 10
82.0487407184
 20
-950.9474553074
 30
0.0
 11
82.0563800742
 21
-950.9474553074
 31
0.0
  0
SPLINE
  5
24F
330
1F
100
AcDbEntity
  8
0
  6
Continuous
 62
     7
100
AcDbSpline
210
0.0
220
0.0
230
1.0
 70
    24
 71
     3
 72
    10
 73
     6
 74
     0
 42
0.000000001
 43
0.00000001
 40
0.0
 40
0.0
 40
0.0
 40
0.0
 40
0.3825005582587968
 40
0.7655525764524282
 40
1.0
 40
1.0
 40
1.0
 40
1.0
 10
82.04874071841787
 20
-950.9474553074424
 30
0.0
 10
81.9147481332359
 20
-950.9474553074424
 30
0.0
 10
81.64656978265114
 20
-950.9474553074424
 30
0.0
 10
81.48498280551034
 20
-950.9474553074424
 30
0.0
 10
81.5123470913599
 20
-950.9474553074424
 30
0.0
 10
81.52273655227432
 20
-950.9474553074424
 30
0.0
  0
LINE
  5
250
330
1F
100
AcDbEntity
  8
0
  6
Continuous
 62
     7
100
AcDbLine
 10
114.5775071981
 20
-950.9474553074
 30
0.0
 11
114.5775071981
 21
-951.4474553074
 31
0.0
  0
LINE
  5
251
330
1F
100
AcDbEntity
  8
0
  6
Continuous
 62
     7
100
AcDbLine
 10
114.6475440409
 20
-950.9474553074
 30
0.0
 11
114.5775071981
 21
-950.9474553074
 31
0.0
  0
LINE
  5
252
330
1F
100
AcDbEntity
  8
0
  6
Continuous
 62
     7
100
AcDbLine
 10
78.7993243656
 20
-950.9474553074
 30
0.0
 11
78.7993243656
 21
-951.4474553074
 31
0.0
  0
LINE
  5
253
330
1F
100
AcDbEntity
  8
0
  6
Continuous
 62
     7
100
AcDbLine
 10
78.7993243656
 20
-950.9474553074
 30
0.0
 11
77.4855297954
 21
-950.9474553074
 31
0.0
  0
LINE
  5
254
330
1F
100
AcDbEntity
  8
0
  6
Continuous
 62
     7
100
AcDbLine
 10
72.0954202655
 20
-950.9474553074
 30
0.0
 11
72.0954202655
 21
-951.4474553074
 31
0.0
  0
LINE
  5
255
330
1F
100
AcDbEntity
  8
0
  6
Continuous
 62
     7
100
AcDbLine
 10
72.0954202655
 20
-950.9474553074
 30
0.0
 11
69.7053123739
 21
-950.9474553074
 31
0.0
  0
LINE
  5
256
330
1F
100
AcDbEntity
  8
0
  6
Continuous
 62
     7
100
AcDbLine
 10
125.556386268
 20
-950.9474553074
 30
0.0
 11
125.556386268
 21
-951.4474553074
 31
0.0
  0
LINE
  5
257
330
1F
100
AcDbEntity
  8
0
  6
Continuous
 62
     7
100
AcDbLine
 10
128.9672610192
 20
-950.9474553074
 30
0.0
 11
128.9672610192
 21
-951.4474553074
 31
0.0
  0
SPLINE
  5
258
330
1F
100
AcDbEntity
  8
0
  6
Continuous
 62
     7
100
AcDbSpline
210
0.0
220
0.0
230
1.0
 70
    24
 71
     3
 72
    31
 73
    27
 74
     0
 42
0.000000001
 43
0.00000001
 40
0.0
 40
0.0
 40
0.0
 40
0.0
 40
0.0431369026880405
 40
0.0853743609494165
 40
0.1269577813391027
 40
0.1677647792756965
 40
0.2085085815447499
 40
0.2488399969908035
 40
0.2893522985096024
 40
0.3298431272863236
 40
0.3702750463857505
 40
0.4102712363631978
 40
0.4497812703201685
 40
0.4893173835103153
 40
0.5289909433095129
 40
0.5689097461974116
 40
0.609330510564782
 40
0.6504512467713335
 40
0.6922070448227469
 40
0.7339882912681234
 40
0.7764478453092468
 40
0.8193000623060882
 40
0.8631236903734711
 40
0.9075698515968604
 40
0.9533413066301933
 40
1.0
 40
1.0
 40
1.0
 40
1.0
 10
128.9672610192189
 20
-950.9474553074424
 30
0.0
 10
128.9049039147898
 20
-950.9474553074424
 30
0.0
 10
128.7814899093896
 20
-950.9474553074424
 30
0.0
 10
128.5950600282372
 20
-950.9474553074424
 30
0.0
 10
128.40989413562
 20
-950.9474553074424
 30
0.0
 10
128.2259838054834
 20
-950.9474553074424
 30
0.0
 10
128.0436276337243
 20
-950.9474553074424
 30
0.0
 10
127.862223461279
 20
-950.9474553074424
 30
0.0
 10
127.6828768958456
 20
-950.9474553074424
 30
0.0
 10
127.5058215374247
 20
-950.9474553074424
 30
0.0
 10
127.3319771916026
 20
-950.9474553074424
 30
0.0
 10
127.1649260037132
 20
-950.9474553074424
 30
0.0
 10
127.0024932025263
 20
-950.9474553074424
 30
0.0
 10
126.8482289193519
 20
-950.9474553074424
 30
0.0
 10
126.6985211058934
 20
-950.9474553074424
 30
0.0
 10
126.5567565141894
 20
-950.9474553074424
 30
0.0
 10
126.421170841856
 20
-950.9474553074424
 30
0.0
 10
126.2924070699409
 20
-950.9474553074424
 30
0.0
 10
126.1715119149467
 20
-950.9474553074424
 30
0.0
 10
126.0583487433759
 20
-950.9474553074424
 30
0.0
 10
125.9526128105578
 20
-950.9474553074424
 30
0.0
 10
125.8569855289997
 20
-950.9474553074424
 30
0.0
 10
125.7683621920041
 20
-950.9474553074424
 30
0.0
 10
125.6884790310335
 20
-950.9474553074424
 30
0.0
 10
125.616632584055
 20
-950.9474553074424
 30
0.0
 10
125.5765964757404
 20
-950.9474553074424
 30
0.0
 10
125.5563862679906
 20
-950.9474553074424
 30
0.0
  0
LINE
  5
259
330
1F
100
AcDbEntity
  8
0
  6
Continuous
 62
     7
100
AcDbLine
 10
114.4704393807
 20
-950.9474553074
 30
0.0
 11
114.4704393807
 21
-951.4474553074
 31
0.0
  0
LINE
  5
25A
330
1F
100
AcDbEntity
  8
0
  6
Continuous
 62
     7
100
AcDbLine
 10
114.5775071981
 20
-950.9474553074
 30
0.0
 11
114.4704393807
 21
-950.9474553074
 31
0.0
  0
SPLINE
  5
25B
330
1F
100
AcDbEntity
  8
0
  6
Continuous
 62
     7
100
AcDbSpline
210
0.0
220
0.0
230
1.0
 70
    24
 71
     3
 72
    11
 73
     7
 74
     0
 42
0.000000001
 43
0.00000001
 40
0.0
 40
0.0
 40
0.0
 40
0.0
 40
0.045725629603371
 40
0.4158715425214791
 40
0.7076712922494237
 40
1.0
 40
1.0
 40
1.0
 40
1.0
 10
130.8844882076023
 20
-950.9474553074424
 30
0.0
 10
130.8923245482685
 20
-950.9474553074424
 30
0.0
 10
130.963595542432
 20
-950.9474553074424
 30
0.0
 10
130.6417672035344
 20
-950.9474553074424
 30
0.0
 10
129.9167889522004
 20
-950.9474553074424
 30
0.0
 10
129.2839613494044
 20
-950.9474553074424
 30
0.0
 10
128.9672610192189
 20
-950.9474553074424
 30
0.0
  0
LINE
  5
25C
330
1F
100
AcDbEntity
  8
0
  6
Continuous
 62
     7
100
AcDbLine
 10
73.5304607247
 20
-950.9474553074
 30
0.0
 11
72.0954202655
 21
-950.9474553074
 31
0.0
  0
LINE
  5
25D
330
1F
100
AcDbEntity
  8
0
  6
Continuous
 62
     7
100
AcDbLine
 10
119.5953611252
 20
-950.9474553074
 30
0.0
 11
119.5953611252
 21
-951.4474553074
 31
0.0
  0
LINE
  5
25E
330
1F
100
AcDbEntity
  8
0
  6
Continuous
 62
     7
100
AcDbLine
 10
119.7576550008
 20
-950.9474553074
 30
0.0
 11
119.5953611252
 21
-950.9474553074
 31
0.0
  0
SPLINE
  5
25F
330
1F
100
AcDbEntity
  8
0
  6
Continuous
 62
     7
100
AcDbSpline
210
0.0
220
0.0
230
1.0
 70
    24
 71
     3
 72
    11
 73
     7
 74
     0
 42
0.000000001
 43
0.00000001
 40
0.0
 40
0.0
 40
0.0
 40
0.0
 40
0.3383518956974674
 40
0.6722535585545418
 40
0.9365591285496668
 40
1.0
 40
1.0
 40
1.0
 40
1.0
 10
69.70531237393243
 20
-950.9474553074424
 30
0.0
 10
69.44712753974275
 20
-950.9474553074424
 30
0.0
 10
68.93415369282214
 20
-950.9474553074424
 30
0.0
 10
68.33219935461238
 20
-950.9474553074424
 30
0.0
 10
68.13680586837053
 20
-950.9474553074424
 30
0.0
 10
68.17204922262027
 20
-950.9474553074424
 30
0.0
 10
68.17887117039359
 20
-950.9474553074424
 30
0.0
  0
LINE
  5
260
330
1F
100
AcDbEntity
  8
0
  6
Continuous
 62
     7
100
AcDbLine
 10
92.4795243696
 20
-950.9474553074
 30
0.0
 11
92.4795243696
 21
-951.4474553074
 31
0.0
  0
LINE
  5
261
330
1F
100
AcDbEntity
  8
0
  6
Continuous
 62
     7
100
AcDbLine
 10
92.7385161572
 20
-950.9474553074
 30
0.0
 11
92.4795243696
 21
-950.9474553074
 31
0.0
  0
LINE
  5
262
330
1F
100
AcDbEntity
  8
0
  6
Continuous
 62
     7
100
AcDbLine
 10
113.8207872863
 20
-950.9474553074
 30
0.0
 11
113.8207872863
 21
-951.4474553074
 31
0.0
  0
LINE
  5
263
330
1F
100
AcDbEntity
  8
0
  6
Continuous
 62
     7
100
AcDbLine
 10
114.4704393807
 20
-950.9474553074
 30
0.0
 11
113.8207872863
 21
-950.9474553074
 31
0.0
  0
LINE
  5
264
330
1F
100
AcDbEntity
  8
0
  6
Continuous
 62
     7
100
AcDbLine
 10
107.7672438544
 20
-950.9474553074
 30
0.0
 11
107.7672438544
 21
-951.4474553074
 31
0.0
  0
LINE
  5
265
330
1F
100
AcDbEntity
  8
0
  6
Continuous
 62
     7
100
AcDbLine
 10
108.4850023461
 20
-950.9474553074
 30
0.0
 11
107.7672438544
 21
-950.9474553074
 31
0.0
  0
LINE
  5
266
330
1F
100
AcDbEntity
  8
0
  6
Continuous
 62
     7
100
AcDbLine
 10
119.1437442417
 20
-950.9474553074
 30
0.0
 11
119.1437442417
 21
-951.4474553074
 31
0.0
  0
LINE
  5
267
330
1F
100
AcDbEntity
  8
0
  6
Continuous
 62
     7
100
AcDbLine
 10
119.5953611252
 20
-950.9474553074
 30
0.0
 11
119.1437442417
 21
-950.9474553074
 31
0.0
  0
LINE
  5
268
330
1F
100
AcDbEntity
  8
0
  6
Continuous
 62
     7
100
AcDbLine
 10
132.2514182756
 20
-950.9474553074
 30
0.0
 11
132.2514182756
 21
-951.4474553074
 31
0.0
  0
SPLINE
  5
269
330
1F
100
AcDbEntity
  8
0
  6
Continuous
 62
     7
100
AcDbSpline
210
0.0
220
0.0
230
1.0
 70
    24
 71
     3
 72
    27
 73
    23
 74
     0
 42
0.000000001
 43
0.00000001
 40
0.0
 40
0.0
 40
0.0
 40
0.0
 40
0.0631303438779461
 40
0.1225597978372936
 40
0.1776375854954673
 40
0.229653835448176
 40
0.2776947346153287
 40
0.3222978370201961
 40
0.3635140516193988
 40
0.4012611803644133
 40
0.4374173444753671
 40
0.4727688687044263
 40
0.5084396055019121
 40
0.5438066061799822
 40
0.579861004079389
 40
0.6162585280272571
 40
0.6534863913631319
 40
0.6917927063718805
 40
0.7685531537165596
 40
0.8444903540237235
 40
0.9212131095278581
 40
1.0
 40
1.0
 40
1.0
 40
1.0
 10
134.6439412307148
 20
-950.9474553074424
 30
0.0
 10
134.5866014864869
 20
-950.9474553074424
 30
0.0
 10
134.4752834256475
 20
-950.9474553074424
 30
0.0
 10
134.3125449328968
 20
-950.9474553074424
 30
0.0
 10
134.1583100616778
 20
-950.9474553074424
 30
0.0
 10
134.0136316104653
 20
-950.9474553074424
 30
0.0
 10
133.8769047363311
 20
-950.9474553074424
 30
0.0
 10
133.7497434127679
 20
-950.9474553074424
 30
0.0
 10
133.6313831001225
 20
-950.9474553074424
 30
0.0
 10
133.5208159096098
 20
-950.9474553074424
 30
0.0
 10
133.4161012519854
 20
-950.9474553074424
 30
0.0
 10
133.3142493962717
 20
-950.9474553074424
 30
0.0
 10
133.2149523290738
 20
-950.9474553074424
 30
0.0
 10
133.1171504015466
 20
-950.9474553074424
 30
0.0
 10
133.0226736038202
 20
-950.9474553074424
 30
0.0
 10
132.9293740788462
 20
-950.9474553074424
 30
0.0
 10
132.8389845958409
 20
-950.9474553074424
 30
0.0
 10
132.7229584189074
 20
-950.9474553074424
 30
0.0
 10
132.5878007683373
 20
-950.9474553074424
 30
0.0
 10
132.4487594006725
 20
-950.9474553074424
 30
0.0
 10
132.3344885432581
 20
-950.9474553074424
 30
0.0
 10
132.2793523124618
 20
-950.9474553074424
 30
0.0
 10
132.2514182756404
 20
-950.9474553074424
 30
0.0
  0
LINE
  5
26A
330
1F
100
AcDbEntity
  8
0
  6
Continuous
 62
     7
100
AcDbLine
 10
136.9865528725
 20
-950.9474553074
 30
0.0
 11
136.9865528725
 21
-951.4474553074
 31
0.0
  0
LINE
  5
26B
330
1F
100
AcDbEntity
  8
0
  6
Continuous
 62
     7
100
AcDbLine
 10
136.9865528725
 20
-950.9474553074
 30
0.0
 11
134.6439412307
 21
-950.9474553074
 31
0.0
  0
LINE
  5
26C
330
1F
100
AcDbEntity
  8
0
  6
Continuous
 62
     7
100
AcDbLine
 10
113.7129144478
 20
-950.9474553074
 30
0.0
 11
113.7129144478
 21
-951.4474553074
 31
0.0
  0
LINE
  5
26D
330
1F
100
AcDbEntity
  8
0
  6
Continuous
 62
     7
100
AcDbLine
 10
113.8207872863
 20
-950.9474553074
 30
0.0
 11
113.7129144478
 21
-950.9474553074
 31
0.0
  0
LINE
  5
26E
330
1F
100
AcDbEntity
  8
0
  6
Continuous
 62
     7
100
AcDbLine
 10
131.887548701
 20
-950.9474553074
 30
0.0
 11
131.887548701
 21
-951.4474553074
 31
0.0
  0
LINE
  5
26F
330
1F
100
AcDbEntity
  8
0
  6
Continuous
 62
     7
100
AcDbLine
 10
131.949989382
 20
-950.9474553074
 30
0.0
 11
131.887548701
 21
-950.9474553074
 31
0.0
  0
LINE
  5
270
330
1F
100
AcDbEntity
  8
0
  6
Continuous
 62
     7
100
AcDbLine
 10
131.887548701
 20
-950.9474553074
 30
0.0
 11
130.4594411229
 21
-950.9474553074
 31
0.0
  0
LINE
  5
271
330
1F
100
AcDbEntity
  8
0
  6
Continuous
 62
     8
370
    18
100
AcDbLine
 10
347.5962882311
 20
1223.72133992
 30
0.0
 11
343.380936234
 21
1223.72133992
 31
0.0
  0
LINE
  5
272
330
1F
100
AcDbEntity
  8
0
  6
Continuous
 62
     8
370
    18
100
AcDbLine
 10
324.0024493585
 20
1223.72133992
 30
0.0
 11
257.249466825
 21
1223.72133992
 31
0.0
  0
LINE
  5
273
330
1F
100
AcDbEntity
  8
0
  6
Continuous
 62
     8
370
    18
100
AcDbLine
 10
356.5190890612
 20
1223.72133992
 30
0.0
 11
347.5962882311
 21
1223.72133992
 31
0.0
  0
LINE
  5
274
330
1F
100
AcDbEntity
  8
0
  6
Continuous
 62
     8
370
    18
100
AcDbLine
 10
345.1330282355
 20
1218.3836358697
 30
0.0
 11
343.0716146475
 21
1218.3836358697
 31
0.0
  0
LINE
  5
275
330
1F
100
AcDbEntity
  8
0
  6
Continuous
 62
     8
370
    18
100
AcDbLine
 10
323.4201587242
 20
1218.3836358697
 30
0.0
 11
259.5174190902
 21
1218.3836358697
 31
0.0
  0
LINE
  5
276
330
1F
100
AcDbEntity
  8
0
  6
Continuous
 62
     8
370
    18
100
AcDbLine
 10
353.5207590322
 20
1218.3836358697
 30
0.0
 11
345.1330282355
 21
1218.3836358697
 31
0.0
  0
LINE
  5
277
330
1F
100
AcDbEntity
  8
0
  6
Continuous
 62
     8
370
    18
100
AcDbLine
 10
-56.7117461402
 20
1223.72133992
 30
0.0
 11
-119.9444385768
 21
1223.72133992
 31
0.0
  0
LINE
  5
278
330
1F
100
AcDbEntity
  8
0
  6
Continuous
 62
     8
370
    18
100
AcDbLine
 10
-140.168278104
 20
1223.72133992
 30
0.0
 11
-156.7117461402
 21
1223.72133992
 31
0.0
  0
LINE
  5
279
330
1F
100
AcDbEntity
  8
0
  6
Continuous
 62
     8
370
    18
100
AcDbLine
 10
-59.7100761692
 20
1218.3836358697
 30
0.0
 11
-119.4378377646
 21
1218.3836358697
 31
0.0
  0
LINE
  5
27A
330
1F
100
AcDbEntity
  8
0
  6
Continuous
 62
     8
370
    18
100
AcDbLine
 10
-139.8837106162
 20
1218.3836358697
 30
0.0
 11
-153.7134161112
 21
1218.3836358697
 31
0.0
  0
LINE
  5
27B
330
1F
100
AcDbEntity
  8
0
  6
Continuous
 62
     8
370
    18
100
AcDbLine
 10
17.4484360545
 20
1320.4767115219
 30
0.0
 11
-230.871928335
 21
1320.4767115219
 31
0.0
  0
LINE
  5
27C
330
1F
100
AcDbEntity
  8
0
  6
Continuous
 62
     8
370
    18
100
AcDbLine
 10
15.688761147
 20
1321.7951610037
 30
0.0
 11
-229.1122534275
 21
1321.7951610037
 31
0.0
  0
LINE
  5
27D
330
1F
100
AcDbEntity
  8
0
  6
Continuous
 62
     8
370
    18
100
AcDbLine
 10
-52.4371695342
 20
1338.4318354931
 30
0.0
 11
-160.9863227463
 21
1338.4318354931
 31
0.0
  0
LINE
  5
27E
330
1F
100
AcDbEntity
  8
0
  6
Continuous
 62
     8
370
    18
100
AcDbLine
 10
416.6555702034
 20
1320.4767115219
 30
0.0
 11
182.3589068665
 21
1320.4767115219
 31
0.0
  0
LINE
  5
27F
330
1F
100
AcDbEntity
  8
0
  6
Continuous
 62
     8
370
    18
100
AcDbLine
 10
430.6792712559
 20
1320.4767115219
 30
0.0
 11
416.6555702034
 21
1320.4767115219
 31
0.0
  0
LINE
  5
280
330
1F
100
AcDbEntity
  8
0
  6
Continuous
 62
     8
370
    18
100
AcDbLine
 10
415.0946478623
 20
1321.7951610037
 30
0.0
 11
184.1185817739
 21
1321.7951610037
 31
0.0
  0
LINE
  5
281
330
1F
100
AcDbEntity
  8
0
  6
Continuous
 62
     8
370
    18
100
AcDbLine
 10
428.9195963485
 20
1321.7951610037
 30
0.0
 11
415.0946478623
 21
1321.7951610037
 31
0.0
  0
LINE
  5
282
330
1F
100
AcDbEntity
  8
0
  6
Continuous
 62
     8
370
    18
100
AcDbLine
 10
354.6634359621
 20
1338.4318354931
 30
0.0
 11
252.2445124551
 21
1338.4318354931
 31
0.0
  0
LINE
  5
283
330
1F
100
AcDbEntity
  8
0
  6
Continuous
 62
     8
370
    18
100
AcDbLine
 10
360.7936656672
 20
1338.4318354931
 30
0.0
 11
354.6634359621
 21
1338.4318354931
 31
0.0
  0
LINE
  5
284
330
1F
100
AcDbEntity
  8
0
  6
Continuous
 62
     8
370
    18
100
AcDbLine
 10
255.7158438612
 20
1219.9651904778
 30
0.0
 11
254.3280223573
 21
1219.9651904778
 31
0.0
  0
LINE
  5
285
330
1F
100
AcDbEntity
  8
0
  6
Continuous
 62
     8
370
    18
100
AcDbLine
 10
256.4642273578
 20
1218.1974235249
 30
0.0
 11
255.0601243122
 21
1218.1974235249
 31
0.0
  0
LINE
  5
286
330
1F
100
AcDbEntity
  8
0
  6
Continuous
 62
     8
370
    18
100
AcDbLine
 10
255.0206040019
 20
1218.2377682892
 30
0.0
 11
255.0601243122
 21
1218.1974235249
 31
0.0
  0
SPLINE
  5
287
330
1F
100
AcDbEntity
  8
0
  6
Continuous
 62
     8
370
    18
100
AcDbSpline
210
0.0
220
0.0
230
1.0
 70
     8
 71
     3
 72
    10
 73
     6
 74
     0
 42
0.000000001
 43
0.00000001
 40
0.0
 40
0.0
 40
0.0
 40
0.0
 40
0.1897235229223446
 40
0.6313599991498116
 40
1.0
 40
1.0
 40
1.0
 40
1.0
 10
254.3280223572578
 20
1219.965190477841
 30
0.0
 10
254.3334781222006
 20
1219.84512677939
 30
0.0
 10
254.3516337609771
 20
1219.445580031657
 30
0.0
 10
254.5494191232888
 20
1218.821364968115
 30
0.0
 10
254.8732673607747
 20
1218.420255415522
 30
0.0
 10
255.020604001933
 20
1218.237768289224
 30
0.0
  0
LINE
  5
288
330
1F
100
AcDbEntity
  8
0
  6
Continuous
 62
     8
370
    18
100
AcDbLine
 10
254.3280223573
 20
1317.9811161211
 30
0.0
 11
254.3280223573
 21
1219.9651904778
 31
0.0
  0
LINE
  5
289
330
1F
100
AcDbEntity
  8
0
  6
Continuous
 62
     8
370
    18
100
AcDbLine
 10
263.2558530801
 20
1211.5776709584
 30
0.0
 11
261.3726424518
 21
1211.5776709584
 31
0.0
  0
SPLINE
  5
28A
330
1F
100
AcDbEntity
  8
0
  6
Continuous
 62
     8
370
    18
100
AcDbSpline
210
0.0
220
0.0
230
1.0
 70
     8
 71
     3
 72
    14
 73
    10
 74
     0
 42
0.000000001
 43
0.00000001
 40
0.0
 40
0.0
 40
0.0
 40
0.0
 40
0.175329199031613
 40
0.3501323519134494
 40
0.5248866474523337
 40
0.7025129206145363
 40
0.8311878003139658
 40
0.8839438646623692
 40
1.0
 40
1.0
 40
1.0
 40
1.0
 10
258.037003509428
 20
1215.224589264597
 30
0.0
 10
258.2972963228081
 20
1214.960520283653
 30
0.0
 10
258.8171009842011
 20
1214.433174616897
 30
0.0
 10
259.4744840052094
 20
1213.715139349745
 30
0.0
 10
259.9557799911487
 20
1213.155538556696
 30
0.0
 10
260.1904970640871
 20
1212.850040990405
 30
0.0
 10
260.2146573579195
 20
1212.786247751181
 30
0.0
 10
260.1739460255871
 20
1212.800946198341
 30
0.0
 10
260.0785386137649
 20
1212.889877761325
 30
0.0
 10
260.0129472908673
 20
1212.951017024534
 30
0.0
  0
LINE
  5
28B
330
1F
100
AcDbEntity
  8
0
  6
Continuous
 62
     8
370
    18
100
AcDbLine
 10
255.0601243122
 20
1218.1974235249
 30
0.0
 11
258.0370035094
 21
1215.2245892646
 31
0.0
  0
LINE
  5
28C
330
1F
100
AcDbEntity
  8
0
  6
Continuous
 62
     8
370
    18
100
AcDbLine
 10
263.4067215145
 20
1211.2241175678
 30
0.0
 11
261.5190890612
 21
1211.2241175678
 31
0.0
  0
ARC
  5
28D
330
1F
100
AcDbEntity
  8
0
  6
Continuous
 62
     8
370
    18
100
AcDbCircle
 10
255.9636688149
 20
1216.7440125485
 30
0.0
 40
1.766543929355026
100
AcDbArc
 50
122.2657759268
 51
134.4235298662
  0
SPLINE
  5
28E
330
1F
100
AcDbEntity
  8
0
  6
Continuous
 62
     8
370
    18
100
AcDbSpline
210
0.0
220
0.0
230
1.0
 70
     8
 71
     3
 72
    10
 73
     6
 74
     0
 42
0.000000001
 43
0.00000001
 40
0.0
 40
0.0
 40
0.0
 40
0.0
 40
0.3685481118005101
 40
0.8102303726274335
 40
1.0
 40
1.0
 40
1.0
 40
1.0
 10
254.7271645616863
 20
1218.005652230104
 30
0.0
 10
254.5600917970595
 20
1218.212555712936
 30
0.0
 10
254.1927925924099
 20
1218.667420303542
 30
0.0
 10
253.968450506931
 20
1219.375591741693
 30
0.0
 10
253.9478532792968
 20
1219.828944738614
 30
0.0
 10
253.9416632143273
 20
1219.965190477841
 30
0.0
  0
LINE
  5
28F
330
1F
100
AcDbEntity
  8
0
  6
Continuous
 62
     8
370
    18
100
AcDbLine
 10
254.3280223573
 20
1219.9651904778
 30
0.0
 11
253.9416632143
 21
1219.9651904778
 31
0.0
  0
ARC
  5
290
330
1F
100
AcDbEntity
  8
0
  6
Continuous
 62
     8
370
    18
100
AcDbCircle
 10
259.8221425309
 20
1212.9500766943
 30
0.0
 40
2.891388724929278
100
AcDbArc
 50
128.1264060341
 51
135.5275140418
  0
SPLINE
  5
291
330
1F
100
AcDbEntity
  8
0
  6
Continuous
 62
     8
370
    18
100
AcDbSpline
210
0.0
220
0.0
230
1.0
 70
     8
 71
     3
 72
    12
 73
     8
 74
     0
 42
0.000000001
 43
0.00000001
 40
0.0
 40
0.0
 40
0.0
 40
0.0
 40
0.1548503394343099
 40
0.3699655067736585
 40
0.5805896896982704
 40
0.7902631762016837
 40
1.0
 40
1.0
 40
1.0
 40
1.0
 10
259.4389183367526
 20
1213.085315204065
 30
0.0
 10
259.4382560071041
 20
1213.096423197651
 30
0.0
 10
259.4366735816154
 20
1213.122962206161
 30
0.0
 10
259.248673185803
 20
1213.367441804235
 30
0.0
 10
258.8777717295229
 20
1213.799910891334
 30
0.0
 10
258.3662514449421
 20
1214.359433013752
 30
0.0
 10
257.9613610409201
 20
1214.770248507343
 30
0.0
 10
257.7588852666242
 20
1214.975687273811
 30
0.0
  0
LINE
  5
292
330
1F
100
AcDbEntity
  8
0
  6
Continuous
 62
     8
370
    18
100
AcDbLine
 10
253.9416632143
 20
1219.9651904778
 30
0.0
 11
253.9416632143
 21
1317.9811161211
 31
0.0
  0
ARC
  5
293
330
1F
100
AcDbEntity
  8
0
  6
Continuous
 62
     8
370
    18
100
AcDbCircle
 10
256.8097234002
 20
1215.9605134178
 30
0.0
 40
2.839870383617544
100
AcDbArc
 50
128.0307377487
 51
135.5481559036
  0
LINE
  5
294
330
1F
100
AcDbEntity
  8
0
  6
Continuous
 62
     8
370
    18
100
AcDbLine
 10
254.7825123227
 20
1217.9493017533
 30
0.0
 11
254.7271645617
 21
1218.0056522301
 31
0.0
  0
LINE
  5
295
330
1F
100
AcDbEntity
  8
0
  6
Continuous
 62
     8
370
    18
100
AcDbLine
 10
257.7588852666
 20
1214.9756872738
 30
0.0
 11
254.7825123227
 21
1217.9493017533
 31
0.0
  0
LINE
  5
296
330
1F
100
AcDbEntity
  8
0
  6
Continuous
 62
     8
370
    18
100
AcDbLine
 10
252.5689147159
 20
1219.9651904778
 30
0.0
 11
253.9416632143
 21
1219.9651904778
 31
0.0
  0
ARC
  5
297
330
1F
100
AcDbEntity
  8
0
  6
Continuous
 62
     8
370
    18
100
AcDbCircle
 10
250.0288170991
 20
1222.359284901
 30
0.0
 40
6.405356064506575
100
AcDbArc
 50
305.3980198678
 51
317.1808668505
  0
ARC
  5
298
330
1F
100
AcDbEntity
  8
0
  6
Continuous
 62
     8
370
    18
100
AcDbCircle
 10
253.0390923153
 20
1219.3500209044
 30
0.0
 40
6.435156580487143
100
AcDbArc
 50
305.4179448011
 51
317.1754533982
  0
LINE
  5
299
330
1F
100
AcDbEntity
  8
0
  6
Continuous
 62
     8
370
    18
100
AcDbLine
 10
331.4511281926
 20
1218.2377682892
 30
0.0
 11
331.4296477783
 21
1218.1974235249
 31
0.0
  0
LINE
  5
29A
330
1F
100
AcDbEntity
  8
0
  6
Continuous
 62
     8
370
    18
100
AcDbLine
 10
324.4248202372
 20
1218.1974235249
 30
0.0
 11
331.4296477783
 21
1218.1974235249
 31
0.0
  0
LINE
  5
29B
330
1F
100
AcDbEntity
  8
0
  6
Continuous
 62
     8
370
    18
100
AcDbLine
 10
324.8273667318
 20
1219.9651904778
 30
0.0
 11
331.8160780234
 21
1219.9651904778
 31
0.0
  0
SPLINE
  5
29C
330
1F
100
AcDbEntity
  8
0
  6
Continuous
 62
     8
370
    18
100
AcDbSpline
210
0.0
220
0.0
230
1.0
 70
     8
 71
     3
 72
    10
 73
     6
 74
     0
 42
0.000000001
 43
0.00000001
 40
0.0
 40
0.0
 40
0.0
 40
0.0
 40
0.1897235229223493
 40
0.631359999149788
 40
1.0
 40
1.0
 40
1.0
 40
1.0
 10
331.8160780234119
 20
1219.965190477841
 30
0.0
 10
331.8132030612233
 20
1219.845126779389
 30
0.0
 10
331.8036357914558
 20
1219.445580031656
 30
0.0
 10
331.6994091899046
 20
1218.821364968116
 30
0.0
 10
331.5287641479409
 20
1218.420255415523
 30
0.0
 10
331.4511281925673
 20
1218.237768289224
 30
0.0
  0
LINE
  5
29D
330
1F
100
AcDbEntity
  8
0
  6
Continuous
 62
     8
370
    18
100
AcDbLine
 10
331.8160780234
 20
1317.9811161211
 30
0.0
 11
331.8160780234
 21
1219.9651904778
 31
0.0
  0
LINE
  5
29E
330
1F
100
AcDbEntity
  8
0
  6
Continuous
 62
     8
370
    18
100
AcDbLine
 10
342.9783897394
 20
1218.1974235249
 30
0.0
 11
337.1256343897
 21
1218.1974235249
 31
0.0
  0
LINE
  5
29F
330
1F
100
AcDbEntity
  8
0
  6
Continuous
 62
     8
370
    18
100
AcDbLine
 10
339.3252558314
 20
1211.5776709584
 30
0.0
 11
320.7716863292
 21
1211.5776709584
 31
0.0
  0
LINE
  5
2A0
330
1F
100
AcDbEntity
  8
0
  6
Continuous
 62
     8
370
    18
100
AcDbLine
 10
331.4296477783
 20
1218.1974235249
 30
0.0
 11
329.8272725572
 21
1215.2245892646
 31
0.0
  0
SPLINE
  5
2A1
330
1F
100
AcDbEntity
  8
0
  6
Continuous
 62
     8
370
    18
100
AcDbSpline
210
0.0
220
0.0
230
1.0
 70
     8
 71
     3
 72
    18
 73
    14
 74
     0
 42
0.000000001
 43
0.00000001
 40
0.0
 40
0.0
 40
0.0
 40
0.0
 40
0.1054650904000429
 40
0.2106137503079191
 40
0.3157330212485291
 40
0.4225798617060431
 40
0.4999811610598843
 40
0.5317153110268352
 40
0.6418529579314287
 40
0.7486882792363859
 40
0.8561484843656707
 40
0.96289848172958
 40
1.0
 40
1.0
 40
1.0
 40
1.0
 10
335.5256202963162
 20
1215.224589264597
 30
0.0
 10
335.3542253942085
 20
1214.960511361433
 30
0.0
 10
335.0119498319382
 20
1214.433147877006
 30
0.0
 10
334.1695921357552
 20
1213.715245922606
 30
0.0
 10
333.1887161288616
 20
1213.155136220767
 30
0.0
 10
332.2373949593066
 20
1212.851392150551
 30
0.0
 10
331.563262927808
 20
1212.783575912544
 30
0.0
 10
330.9277300760151
 20
1212.811572678657
 30
0.0
 10
330.2872645228575
 20
1212.987939134486
 30
0.0
 10
329.725135602235
 20
1213.477321720344
 30
0.0
 10
329.5030117409727
 20
1214.155032317962
 30
0.0
 10
329.6050855029998
 20
1214.775002788931
 30
0.0
 10
329.7817166641611
 20
1215.132408766259
 30
0.0
 10
329.8272725571529
 20
1215.224589264597
 30
0.0
  0
LINE
  5
2A2
330
1F
100
AcDbEntity
  8
0
  6
Continuous
 62
     8
370
    18
100
AcDbLine
 10
337.1256343897
 20
1218.1974235249
 30
0.0
 11
335.5256202963
 21
1215.2245892646
 31
0.0
  0
SPLINE
  5
2A3
330
1F
100
AcDbEntity
  8
0
  6
Continuous
 62
     8
370
    18
100
AcDbSpline
210
0.0
220
0.0
230
1.0
 70
     8
 71
     3
 72
    10
 73
     6
 74
     0
 42
0.000000001
 43
0.00000001
 40
0.0
 40
0.0
 40
0.0
 40
0.0
 40
0.3685481118004498
 40
0.8102303726274201
 40
1.0
 40
1.0
 40
1.0
 40
1.0
 10
332.1941157059831
 20
1218.005652230104
 30
0.0
 10
332.2803550158817
 20
1218.212555712936
 30
0.0
 10
332.4699468383793
 20
1218.667420303542
 30
0.0
 10
332.5858161932974
 20
1219.375591741693
 30
0.0
 10
332.5964526368174
 20
1219.828944738614
 30
0.0
 10
332.599649196937
 20
1219.965190477841
 30
0.0
  0
LINE
  5
2A4
330
1F
100
AcDbEntity
  8
0
  6
Continuous
 62
     8
370
    18
100
AcDbLine
 10
332.5996491969
 20
1219.9651904778
 30
0.0
 11
337.1262477697
 21
1219.9651904778
 31
0.0
  0
SPLINE
  5
2A5
330
1F
100
AcDbEntity
  8
0
  6
Continuous
 62
     8
370
    18
100
AcDbSpline
210
0.0
220
0.0
230
1.0
 70
     8
 71
     3
 72
    10
 73
     6
 74
     0
 42
0.000000001
 43
0.00000001
 40
0.0
 40
0.0
 40
0.0
 40
0.0
 40
0.3685481118005084
 40
0.8102303726274327
 40
1.0
 40
1.0
 40
1.0
 40
1.0
 10
336.6857840360314
 20
1218.005652230104
 30
0.0
 10
336.7794856173732
 20
1218.212555712936
 30
0.0
 10
336.9854827850034
 20
1218.667420303542
 30
0.0
 10
337.1112306377131
 20
1219.375591741694
 30
0.0
 10
337.1227775786792
 20
1219.828944738614
 30
0.0
 10
337.126247769719
 20
1219.965190477841
 30
0.0
  0
LWPOLYLINE
  5
2A6
330
1F
100
AcDbEntity
  8
0
  6
Continuous
 62
     8
370
    18
100
AcDbPolyline
 90
        9
 70
   128
 43
0.0
 10
332.194115706
 20
1218.0056522301
 10
332.8541435754
 20
1217.6391532218
 10
333.5478125169
 20
1217.3644599981
 10
334.2428369324
 20
1217.1943576708
 10
334.9068681354
 20
1217.1367633531
 10
335.5089999642
 20
1217.1943576708
 10
336.0212072543
 20
1217.3644599981
 10
336.41965022
 20
1217.6391532218
 10
336.6599828264
 20
1217.954887663
  0
LINE
  5
2A7
330
1F
100
AcDbEntity
  8
0
  6
Continuous
 62
     8
370
    18
100
AcDbLine
 10
332.5996491969
 20
1219.9651904778
 30
0.0
 11
332.5996491969
 21
1317.9811161211
 31
0.0
  0
LINE
  5
2A8
330
1F
100
AcDbEntity
  8
0
  6
Continuous
 62
     8
370
    18
100
AcDbLine
 10
337.1262477697
 20
1219.9651904778
 30
0.0
 11
337.1262477697
 21
1317.9811161211
 31
0.0
  0
ARC
  5
2A9
330
1F
100
AcDbEntity
  8
0
  6
Continuous
 62
     8
370
    18
100
AcDbCircle
 10
331.3801529372
 20
1216.7053974362
 30
0.0
 40
1.534013662964055
100
AcDbArc
 50
57.953330394
 51
87.348110405
  0
LINE
  5
2AA
330
1F
100
AcDbEntity
  8
0
  6
Continuous
 62
     8
370
    18
100
AcDbLine
 10
331.8160780234
 20
1219.9651904778
 30
0.0
 11
332.5996491969
 21
1219.9651904778
 31
0.0
  0
LINE
  5
2AB
330
1F
100
AcDbEntity
  8
0
  6
Continuous
 62
     8
370
    18
100
AcDbLine
 10
330.5611495111
 20
1214.9756872738
 30
0.0
 11
332.1648024354
 21
1217.9493017533
 31
0.0
  0
LINE
  5
2AC
330
1F
100
AcDbEntity
  8
0
  6
Continuous
 62
     8
370
    18
100
AcDbLine
 10
332.1648024354
 20
1217.9493017533
 30
0.0
 11
332.194115706
 21
1218.0056522301
 31
0.0
  0
LWPOLYLINE
  5
2AD
330
1F
100
AcDbEntity
  8
0
  6
Continuous
 62
     8
370
    18
100
AcDbPolyline
 90
        9
 70
   128
 43
0.0
 10
330.5611495111
 20
1214.9756872738
 10
331.2218514144
 20
1214.6082706016
 10
331.9164207405
 20
1214.3328515144
 10
332.6124402522
 20
1214.1622844902
 10
333.2774250282
 20
1214.1045303061
 10
333.8803386139
 20
1214.1622844902
 10
334.3930415679
 20
1214.3328515144
 10
334.7916047982
 20
1214.6082706016
 10
335.0305397191
 20
1214.922654616
  0
ARC
  5
2AE
330
1F
100
AcDbEntity
  8
0
  6
Continuous
 62
     8
370
    18
100
AcDbCircle
 10
331.3312158196
 20
1216.6926337512
 30
0.0
 40
1.508005674227003
100
AcDbArc
 50
56.4424570161
 51
86.2574754661
  0
ARC
  5
2AF
330
1F
100
AcDbEntity
  8
0
  6
Continuous
 62
     8
370
    18
100
AcDbCircle
 10
329.7255471056
 20
1213.7183025705
 30
0.0
 40
1.509717745916267
100
AcDbArc
 50
56.3937409385
 51
86.1364576904
  0
LINE
  5
2B0
330
1F
100
AcDbEntity
  8
0
  6
Continuous
 62
     8
370
    18
100
AcDbLine
 10
339.2441055125
 20
1211.2241175678
 30
0.0
 11
320.6905360103
 21
1211.2241175678
 31
0.0
  0
SPLINE
  5
2B1
330
1F
100
AcDbEntity
  8
0
  6
Continuous
 62
     8
370
    18
100
AcDbSpline
210
0.0
220
0.0
230
1.0
 70
     8
 71
     3
 72
    12
 73
     8
 74
     0
 42
0.000000001
 43
0.00000001
 40
0.0
 40
0.0
 40
0.0
 40
0.0
 40
0.0795253063843744
 40
0.30852922539305
 40
0.5399187126520396
 40
0.7711539881017312
 40
1.0
 40
1.0
 40
1.0
 40
1.0
 10
330.5611495111241
 20
1214.975687273811
 30
0.0
 10
330.5257044011079
 20
1214.904001201161
 30
0.0
 10
330.388190283471
 20
1214.625885347582
 30
0.0
 10
330.3105968416991
 20
1214.141861500175
 30
0.0
 10
330.4927893167115
 20
1213.618385403735
 30
0.0
 10
330.9251645726834
 20
1213.230413868665
 30
0.0
 10
331.3732281879147
 20
1213.144771617707
 30
0.0
 10
331.5960965684425
 20
1213.102172868049
 30
0.0
  0
ARC
  5
2B2
330
1F
100
AcDbEntity
  8
0
  6
Continuous
 62
     8
370
    18
100
AcDbCircle
 10
335.5021561598
 20
1214.693051215
 30
0.0
 40
0.5320556962395281
100
AcDbArc
 50
87.472384631
 51
141.8378336988
  0
SPLINE
  5
2B3
330
1F
100
AcDbEntity
  8
0
  6
Continuous
 62
     8
370
    18
100
AcDbSpline
210
0.0
220
0.0
230
1.0
 70
     8
 71
     3
 72
    10
 73
     6
 74
     0
 42
0.000000001
 43
0.00000001
 40
0.0
 40
0.0
 40
0.0
 40
0.0
 40
0.1897235229223444
 40
0.6313599991498136
 40
1.0
 40
1.0
 40
1.0
 40
1.0
 10
337.5272038759268
 20
1219.965190477841
 30
0.0
 10
337.5242062374168
 20
1219.84512677939
 30
0.0
 10
337.5142307266413
 20
1219.445580031658
 30
0.0
 10
337.4055607183424
 20
1218.821364968116
 30
0.0
 10
337.2276140596777
 20
1218.420255415522
 30
0.0
 10
337.1466561912747
 20
1218.237768289224
 30
0.0
  0
ARC
  5
2B4
330
1F
100
AcDbEntity
  8
0
  6
Continuous
 62
     8
370
    18
100
AcDbCircle
 10
337.1061152859
 20
1217.7411021372
 30
0.0
 40
0.4983180025093441
100
AcDbArc
 50
85.3335163911
 51
146.0495297736
  0
LINE
  5
2B5
330
1F
100
AcDbEntity
  8
0
  6
Continuous
 62
     8
370
    18
100
AcDbLine
 10
337.5272038759
 20
1219.9651904778
 30
0.0
 11
337.1262477697
 21
1219.9651904778
 31
0.0
  0
LINE
  5
2B6
330
1F
100
AcDbEntity
  8
0
  6
Continuous
 62
     8
370
    18
100
AcDbLine
 10
337.5272038759
 20
1317.9811161211
 30
0.0
 11
337.5272038759
 21
1219.9651904778
 31
0.0
  0
LINE
  5
2B7
330
1F
100
AcDbEntity
  8
0
  6
Continuous
 62
     8
370
    18
100
AcDbLine
 10
343.380936234
 20
1219.9651904778
 30
0.0
 11
337.5272038759
 21
1219.9651904778
 31
0.0
  0
LINE
  5
2B8
330
1F
100
AcDbEntity
  8
0
  6
Continuous
 62
     8
370
    18
100
AcDbLine
 10
337.1466561913
 20
1218.2377682892
 30
0.0
 11
337.1256343897
 21
1218.1974235249
 31
0.0
  0
ARC
  5
2B9
330
1F
100
AcDbEntity
  8
0
  6
Continuous
 62
     8
370
    18
100
AcDbCircle
 10
337.0973490693
 20
1217.6784068102
 30
0.0
 40
0.519786888517524
100
AcDbArc
 50
86.8805862003
 51
146.7130054817
  0
LINE
  5
2BA
330
1F
100
AcDbEntity
  8
0
  6
Continuous
 62
     8
370
    18
100
AcDbLine
 10
-57.7418332577
 20
1219.2580836967
 30
0.0
 11
-56.6214564966
 21
1219.2580836967
 31
0.0
  0
LINE
  5
2BB
330
1F
100
AcDbEntity
  8
0
  6
Continuous
 62
     8
370
    18
100
AcDbLine
 10
-61.5652995308
 20
1211.5776709584
 30
0.0
 11
-62.4869457248
 21
1211.5776709584
 31
0.0
  0
LINE
  5
2BC
330
1F
100
AcDbEntity
  8
0
  6
Continuous
 62
     8
370
    18
100
AcDbLine
 10
-61.7117461402
 20
1211.2241175678
 30
0.0
 11
-62.6378141591
 21
1211.2241175678
 31
0.0
  0
LINE
  5
2BD
330
1F
100
AcDbEntity
  8
0
  6
Continuous
 62
     8
370
    18
100
AcDbLine
 10
-55.6953200024
 20
1218.1974235249
 30
0.0
 11
-54.9575789967
 21
1218.1974235249
 31
0.0
  0
LINE
  5
2BE
330
1F
100
AcDbEntity
  8
0
  6
Continuous
 62
     8
370
    18
100
AcDbLine
 10
-54.9575789967
 20
1218.1974235249
 30
0.0
 11
-57.9343358252
 21
1215.2245892646
 31
0.0
  0
LINE
  5
2BF
330
1F
100
AcDbEntity
  8
0
  6
Continuous
 62
     8
370
    18
100
AcDbLine
 10
-54.9180824547
 20
1218.2377682892
 30
0.0
 11
-54.9575789967
 21
1218.1974235249
 31
0.0
  0
LINE
  5
2C0
330
1F
100
AcDbEntity
  8
0
  6
Continuous
 62
     8
370
    18
100
AcDbLine
 10
-54.9469365058
 20
1219.9651904778
 30
0.0
 11
-54.2246924296
 21
1219.9651904778
 31
0.0
  0
SPLINE
  5
2C1
330
1F
100
AcDbEntity
  8
0
  6
Continuous
 62
     8
370
    18
100
AcDbSpline
210
0.0
220
0.0
230
1.0
 70
     8
 71
     3
 72
    10
 73
     6
 74
     0
 42
0.000000001
 43
0.00000001
 40
0.0
 40
0.0
 40
0.0
 40
0.0
 40
0.1897235229223478
 40
0.6313599991497848
 40
1.0
 40
1.0
 40
1.0
 40
1.0
 10
-54.22469242963709
 20
1219.965190477841
 30
0.0
 10
-54.23015455245009
 20
1219.84512677939
 30
0.0
 10
-54.24833134888227
 20
1219.445580031657
 30
0.0
 10
-54.44634699690202
 20
1218.821364968116
 30
0.0
 10
-54.77057365078572
 20
1218.420255415522
 30
0.0
 10
-54.91808245468735
 20
1218.237768289224
 30
0.0
  0
LINE
  5
2C2
330
1F
100
AcDbEntity
  8
0
  6
Continuous
 62
     8
370
    18
100
AcDbLine
 10
-54.2246924296
 20
1317.9811161211
 30
0.0
 11
-54.2246924296
 21
1219.9651904778
 31
0.0
  0
ARC
  5
2C3
330
1F
100
AcDbEntity
  8
0
  6
Continuous
 62
     8
370
    18
100
AcDbCircle
 10
-56.5011609946
 20
1216.2492562366
 30
0.0
 40
1.761798086797899
100
AcDbArc
 50
215.5633650517
 51
226.2927903798
  0
SPLINE
  5
2C4
330
1F
100
AcDbEntity
  8
0
  6
Continuous
 62
     8
370
    18
100
AcDbSpline
210
0.0
220
0.0
230
1.0
 70
     8
 71
     3
 72
    14
 73
    10
 74
     0
 42
0.000000001
 43
0.00000001
 40
0.0
 40
0.0
 40
0.0
 40
0.0
 40
0.0736277918244535
 40
0.2856490167947506
 40
0.4998788987385713
 40
0.7139660050615528
 40
0.9356000220634713
 40
0.999534045673085
 40
1.0
 40
1.0
 40
1.0
 40
1.0
 10
-57.71851656948676
 20
1214.975687273812
 30
0.0
 10
-57.79022371453038
 20
1214.903994483316
 30
0.0
 10
-58.06842132132148
 20
1214.625852566944
 30
0.0
 10
-58.54712874878557
 20
1214.142313952218
 30
0.0
 10
-59.06440682015099
 20
1213.616725259205
 30
0.0
 10
-59.45001628671523
 20
1213.230768144015
 30
0.0
 10
-59.58651783238367
 20
1213.111702292198
 30
0.0
 10
-59.63491472261131
 20
1213.077127495279
 30
0.0
 10
-59.63172833585067
 20
1213.084938462259
 30
0.0
 10
-59.63170528132886
 20
1213.08499497709
 30
0.0
  0
SPLINE
  5
2C5
330
1F
100
AcDbEntity
  8
0
  6
Continuous
 62
     8
370
    18
100
AcDbSpline
210
0.0
220
0.0
230
1.0
 70
     8
 71
     3
 72
    10
 73
     6
 74
     0
 42
0.000000001
 43
0.00000001
 40
0.0
 40
0.0
 40
0.0
 40
0.0
 40
0.3685481118004457
 40
0.81023037262742
 40
1.0
 40
1.0
 40
1.0
 40
1.0
 10
-54.68703470900374
 20
1218.005652230104
 30
0.0
 10
-54.51957520182501
 20
1218.212555712937
 30
0.0
 10
-54.15142576744425
 20
1218.667420303542
 30
0.0
 10
-53.92657171513629
 20
1219.375591741695
 30
0.0
 10
-53.90592729971086
 20
1219.828944738614
 30
0.0
 10
-53.89972305344001
 20
1219.965190477841
 30
0.0
  0
ARC
  5
2C6
330
1F
100
AcDbEntity
  8
0
  6
Continuous
 62
     8
370
    18
100
AcDbCircle
 10
-51.3078357381
 20
1221.6003486525
 30
0.0
 40
4.933642473278287
100
AcDbArc
 50
222.9657786243
 51
226.7699099511
  0
LINE
  5
2C7
330
1F
100
AcDbEntity
  8
0
  6
Continuous
 62
     8
370
    18
100
AcDbLine
 10
-54.2246924296
 20
1219.9651904778
 30
0.0
 11
-53.8997230534
 21
1219.9651904778
 31
0.0
  0
LINE
  5
2C8
330
1F
100
AcDbEntity
  8
0
  6
Continuous
 62
     8
370
    18
100
AcDbLine
 10
-57.7185165695
 20
1214.9756872738
 30
0.0
 11
-54.7424312644
 21
1217.9493017533
 31
0.0
  0
ARC
  5
2C9
330
1F
100
AcDbEntity
  8
0
  6
Continuous
 62
     8
370
    18
100
AcDbCircle
 10
-53.5426846519
 20
1219.2069473081
 30
0.0
 40
1.738120903677376
100
AcDbArc
 50
215.5077680175
 51
226.3497037348
  0
LINE
  5
2CA
330
1F
100
AcDbEntity
  8
0
  6
Continuous
 62
     8
370
    18
100
AcDbLine
 10
-54.7424312644
 20
1217.9493017533
 30
0.0
 11
-54.687034709
 21
1218.0056522301
 31
0.0
  0
LINE
  5
2CB
330
1F
100
AcDbEntity
  8
0
  6
Continuous
 62
     8
370
    18
100
AcDbLine
 10
-53.8997230534
 20
1219.9651904778
 30
0.0
 11
-53.8997230534
 21
1317.9811161211
 31
0.0
  0
ARC
  5
2CC
330
1F
100
AcDbEntity
  8
0
  6
Continuous
 62
     8
370
    18
100
AcDbCircle
 10
-61.5686957926
 20
1210.8592481708
 30
0.0
 40
5.636395207817078
100
AcDbArc
 50
35.1684726852
 51
46.9142238603
  0
LINE
  5
2CD
330
1F
100
AcDbEntity
  8
0
  6
Continuous
 62
     8
370
    18
100
AcDbLine
 10
-53.8997230534
 20
1219.9651904778
 30
0.0
 11
-52.7615717986
 21
1219.9651904778
 31
0.0
  0
ARC
  5
2CE
330
1F
100
AcDbEntity
  8
0
  6
Continuous
 62
     8
370
    18
100
AcDbCircle
 10
-58.5264956159
 20
1213.9012148083
 30
0.0
 40
5.620308408337984
100
AcDbArc
 50
35.1629630084
 51
46.9104485582
  0
LINE
  5
2CF
330
1F
100
AcDbEntity
  8
0
  6
Continuous
 62
     8
370
    18
100
AcDbLine
 10
-57.4421239041
 20
1219.9651904778
 30
0.0
 11
-56.4805594697
 21
1219.9651904778
 31
0.0
  0
LINE
  5
2D0
330
1F
100
AcDbEntity
  8
0
  6
Continuous
 62
     8
370
    18
100
AcDbLine
 10
-120.6531441673
 20
1219.9651904778
 30
0.0
 11
-127.8946980294
 21
1219.9651904778
 31
0.0
  0
LINE
  5
2D1
330
1F
100
AcDbEntity
  8
0
  6
Continuous
 62
     8
370
    18
100
AcDbLine
 10
-120.3073071654
 20
1218.1974235249
 30
0.0
 11
-127.5641655607
 21
1218.1974235249
 31
0.0
  0
LINE
  5
2D2
330
1F
100
AcDbEntity
  8
0
  6
Continuous
 62
     8
370
    18
100
AcDbLine
 10
-127.5826640694
 20
1218.2377682892
 30
0.0
 11
-127.5641655607
 21
1218.1974235249
 31
0.0
  0
SPLINE
  5
2D3
330
1F
100
AcDbEntity
  8
0
  6
Continuous
 62
     8
370
    18
100
AcDbSpline
210
0.0
220
0.0
230
1.0
 70
     8
 71
     3
 72
    10
 73
     6
 74
     0
 42
0.000000001
 43
0.00000001
 40
0.0
 40
0.0
 40
0.0
 40
0.0
 40
0.1897235229223459
 40
0.6313599991498187
 40
1.0
 40
1.0
 40
1.0
 40
1.0
 10
-127.8946980293941
 20
1219.965190477841
 30
0.0
 10
-127.8922399029616
 20
1219.84512677939
 30
0.0
 10
-127.8840597749603
 20
1219.445580031657
 30
0.0
 10
-127.7949444209478
 20
1218.821364968116
 30
0.0
 10
-127.6490428421262
 20
1218.420255415522
 30
0.0
 10
-127.582664069371
 20
1218.237768289224
 30
0.0
  0
LINE
  5
2D4
330
1F
100
AcDbEntity
  8
0
  6
Continuous
 62
     8
370
    18
100
AcDbLine
 10
-127.8946980294
 20
1317.9811161211
 30
0.0
 11
-127.8946980294
 21
1219.9651904778
 31
0.0
  0
LINE
  5
2D5
330
1F
100
AcDbEntity
  8
0
  6
Continuous
 62
     8
370
    18
100
AcDbLine
 10
-117.1688153511
 20
1211.5776709584
 30
0.0
 11
-136.6839492877
 21
1211.5776709584
 31
0.0
  0
LINE
  5
2D6
330
1F
100
AcDbEntity
  8
0
  6
Continuous
 62
     8
370
    18
100
AcDbLine
 10
-139.8224411021
 20
1218.1974235249
 30
0.0
 11
-133.5553545667
 21
1218.1974235249
 31
0.0
  0
LINE
  5
2D7
330
1F
100
AcDbEntity
  8
0
  6
Continuous
 62
     8
370
    18
100
AcDbLine
 10
-133.5553545667
 20
1218.1974235249
 30
0.0
 11
-132.1809729593
 21
1215.2245892646
 31
0.0
  0
SPLINE
  5
2D8
330
1F
100
AcDbEntity
  8
0
  6
Continuous
 62
     8
370
    18
100
AcDbSpline
210
0.0
220
0.0
230
1.0
 70
     8
 71
     3
 72
    18
 73
    14
 74
     0
 42
0.000000001
 43
0.00000001
 40
0.0
 40
0.0
 40
0.0
 40
0.0
 40
0.1054650904000429
 40
0.2106137503079208
 40
0.3157330212485296
 40
0.4225798617060447
 40
0.4999811610598841
 40
0.5317153110268371
 40
0.6418529579314296
 40
0.7486882792363865
 40
0.856148484365671
 40
0.962898481729581
 40
1.0
 40
1.0
 40
1.0
 40
1.0
 10
-126.1873004568345
 20
1215.224589264597
 30
0.0
 10
-126.0983945292914
 20
1214.960511361433
 30
0.0
 10
-125.9208494216787
 20
1214.433147877007
 30
0.0
 10
-126.10594387322
 20
1213.715245922607
 30
0.0
 10
-126.6050666592529
 20
1213.155136220766
 30
0.0
 10
-127.3232462044601
 20
1212.851392150551
 30
0.0
 10
-127.9696034328907
 20
1212.783575912545
 30
0.0
 10
-128.663994175255
 20
1212.811572678657
 30
0.0
 10
-129.5007959968159
 20
1212.987939134485
 30
0.0
 10
-130.5525388529711
 20
1213.477321720344
 30
0.0
 10
-131.4416532065409
 20
1214.155032317963
 30
0.0
 10
-131.9534901447739
 20
1214.775002788932
 30
0.0
 10
-132.1343312555287
 20
1215.13240876626
 30
0.0
 10
-132.1809729592682
 20
1215.224589264597
 30
0.0
  0
LINE
  5
2D9
330
1F
100
AcDbEntity
  8
0
  6
Continuous
 62
     8
370
    18
100
AcDbLine
 10
-127.5641655607
 20
1218.1974235249
 30
0.0
 11
-126.1873004568
 21
1215.2245892646
 31
0.0
  0
SPLINE
  5
2DA
330
1F
100
AcDbEntity
  8
0
  6
Continuous
 62
     8
370
    18
100
AcDbSpline
210
0.0
220
0.0
230
1.0
 70
     8
 71
     3
 72
    10
 73
     6
 74
     0
 42
0.000000001
 43
0.00000001
 40
0.0
 40
0.0
 40
0.0
 40
0.0
 40
0.3685481118004412
 40
0.8102303726274194
 40
1.0
 40
1.0
 40
1.0
 40
1.0
 10
-133.0614309266624
 20
1218.005652230104
 30
0.0
 10
-133.1426511239426
 20
1218.212555712936
 30
0.0
 10
-133.3212087358258
 20
1218.667420303542
 30
0.0
 10
-133.4301934332152
 20
1219.375591741694
 30
0.0
 10
-133.4402014051211
 20
1219.828944738614
 30
0.0
 10
-133.4432090912723
 20
1219.965190477841
 30
0.0
  0
LINE
  5
2DB
330
1F
100
AcDbEntity
  8
0
  6
Continuous
 62
     8
370
    18
100
AcDbLine
 10
-133.4432090913
 20
1219.9651904778
 30
0.0
 11
-128.6820132785
 21
1219.9651904778
 31
0.0
  0
SPLINE
  5
2DC
330
1F
100
AcDbEntity
  8
0
  6
Continuous
 62
     8
370
    18
100
AcDbSpline
210
0.0
220
0.0
230
1.0
 70
     8
 71
     3
 72
    10
 73
     6
 74
     0
 42
0.000000001
 43
0.00000001
 40
0.0
 40
0.0
 40
0.0
 40
0.0
 40
0.3685481118005097
 40
0.8102303726274334
 40
1.0
 40
1.0
 40
1.0
 40
1.0
 10
-128.3369756648612
 20
1218.005652230104
 30
0.0
 10
-128.4103468481461
 20
1218.212555712936
 30
0.0
 10
-128.5716488851656
 20
1218.667420303542
 30
0.0
 10
-128.6702431179348
 20
1219.375591741695
 30
0.0
 10
-128.6792934046028
 20
1219.828944738615
 30
0.0
 10
-128.6820132785325
 20
1219.965190477841
 30
0.0
  0
LWPOLYLINE
  5
2DD
330
1F
100
AcDbEntity
  8
0
  6
Continuous
 62
     8
370
    18
100
AcDbPolyline
 90
        9
 70
   128
 43
0.0
 10
-133.0614309267
 20
1218.0056522301
 10
-132.7435520227
 20
1217.6391532218
 10
-132.2960136943
 20
1217.3644599981
 10
-131.739645824
 20
1217.1943576708
 10
-131.1003435736
 20
1217.1367633531
 10
-130.4078621395
 20
1217.1943576708
 10
-129.6944318493
 20
1217.3644599981
 10
-128.9932580584
 20
1217.6391532218
 10
-128.3369756649
 20
1218.0056522301
  0
LINE
  5
2DE
330
1F
100
AcDbEntity
  8
0
  6
Continuous
 62
     8
370
    18
100
AcDbLine
 10
-133.4432090913
 20
1219.9651904778
 30
0.0
 11
-133.4432090913
 21
1317.9811161211
 31
0.0
  0
LINE
  5
2DF
330
1F
100
AcDbEntity
  8
0
  6
Continuous
 62
     8
370
    18
100
AcDbLine
 10
-128.6820132785
 20
1219.9651904778
 30
0.0
 11
-128.6820132785
 21
1317.9811161211
 31
0.0
  0
ARC
  5
2E0
330
1F
100
AcDbEntity
  8
0
  6
Continuous
 62
     8
370
    18
100
AcDbCircle
 10
-127.5259580134
 20
1216.7117818455
 30
0.0
 40
1.527039686162571
100
AcDbArc
 50
92.1281469615
 51
122.0801119685
  0
LINE
  5
2E1
330
1F
100
AcDbEntity
  8
0
  6
Continuous
 62
     8
370
    18
100
AcDbLine
 10
-127.8946980294
 20
1219.9651904778
 30
0.0
 11
-128.6820132785
 21
1219.9651904778
 31
0.0
  0
LINE
  5
2E2
330
1F
100
AcDbEntity
  8
0
  6
Continuous
 62
     8
370
    18
100
AcDbLine
 10
-131.662915261
 20
1214.9756872738
 30
0.0
 11
-133.0353476418
 21
1217.9493017533
 31
0.0
  0
LINE
  5
2E3
330
1F
100
AcDbEntity
  8
0
  6
Continuous
 62
     8
370
    18
100
AcDbLine
 10
-133.0353476418
 20
1217.9493017533
 30
0.0
 11
-133.0614309267
 21
1218.0056522301
 31
0.0
  0
LINE
  5
2E4
330
1F
100
AcDbEntity
  8
0
  6
Continuous
 62
     8
370
    18
100
AcDbLine
 10
-128.311882671
 20
1217.9493017533
 30
0.0
 11
-128.3369756649
 21
1218.0056522301
 31
0.0
  0
LINE
  5
2E5
330
1F
100
AcDbEntity
  8
0
  6
Continuous
 62
     8
370
    18
100
AcDbLine
 10
-126.9336126054
 20
1214.9756872738
 30
0.0
 11
-128.311882671
 21
1217.9493017533
 31
0.0
  0
LWPOLYLINE
  5
2E6
330
1F
100
AcDbEntity
  8
0
  6
Continuous
 62
     8
370
    18
100
AcDbPolyline
 90
        9
 70
   128
 43
0.0
 10
-131.662915261
 20
1214.9756872738
 10
-131.3452697346
 20
1214.6082706016
 10
-130.897529743
 20
1214.3328515144
 10
-130.3405923991
 20
1214.1622844902
 10
-129.7004513214
 20
1214.1045303061
 10
-129.0069834488
 20
1214.1622844902
 10
-128.2925546113
 20
1214.3328515144
 10
-127.5905089379
 20
1214.6082706016
 10
-126.9336126054
 20
1214.9756872738
  0
ARC
  5
2E7
330
1F
100
AcDbEntity
  8
0
  6
Continuous
 62
     8
370
    18
100
AcDbCircle
 10
-127.481270199
 20
1216.6969307498
 30
0.0
 40
1.502780825325621
100
AcDbArc
 50
93.1621153418
 51
123.5536092249
  0
ARC
  5
2E8
330
1F
100
AcDbEntity
  8
0
  6
Continuous
 62
     8
370
    18
100
AcDbCircle
 10
-126.1012476854
 20
1213.7232383128
 30
0.0
 40
1.50381506837266
100
AcDbArc
 50
93.2804268738
 51
123.6076105691
  0
ARC
  5
2E9
330
1F
100
AcDbEntity
  8
0
  6
Continuous
 62
     8
370
    18
100
AcDbCircle
 10
-133.5329565898
 20
1217.6462947457
 30
0.0
 40
0.5928526398444716
100
AcDbArc
 50
37.3116230857
 51
93.9088208971
  0
SPLINE
  5
2EA
330
1F
100
AcDbEntity
  8
0
  6
Continuous
 62
     8
370
    18
100
AcDbSpline
210
0.0
220
0.0
230
1.0
 70
     8
 71
     3
 72
    10
 73
     6
 74
     0
 42
0.000000001
 43
0.00000001
 40
0.0
 40
0.0
 40
0.0
 40
0.0
 40
0.1897235229223481
 40
0.6313599991497876
 40
1.0
 40
1.0
 40
1.0
 40
1.0
 10
-133.9018108886001
 20
1219.965190477841
 30
0.0
 10
-133.8992237279759
 20
1219.84512677939
 30
0.0
 10
-133.8906142013112
 20
1219.445580031658
 30
0.0
 10
-133.7968251548427
 20
1218.821364968116
 30
0.0
 10
-133.6432435429227
 20
1218.420255415522
 30
0.0
 10
-133.5733706943946
 20
1218.237768289224
 30
0.0
  0
LINE
  5
2EB
330
1F
100
AcDbEntity
  8
0
  6
Continuous
 62
     8
370
    18
100
AcDbLine
 10
-133.9018108886
 20
1219.9651904778
 30
0.0
 11
-133.4432090913
 21
1219.9651904778
 31
0.0
  0
LINE
  5
2EC
330
1F
100
AcDbEntity
  8
0
  6
Continuous
 62
     8
370
    18
100
AcDbLine
 10
-133.9018108886
 20
1317.9811161211
 30
0.0
 11
-133.9018108886
 21
1219.9651904778
 31
0.0
  0
SPLINE
  5
2ED
330
1F
100
AcDbEntity
  8
0
  6
Continuous
 62
     8
370
    18
100
AcDbSpline
210
0.0
220
0.0
230
1.0
 70
     8
 71
     3
 72
    12
 73
     8
 74
     0
 42
0.000000001
 43
0.00000001
 40
0.0
 40
0.0
 40
0.0
 40
0.0
 40
0.082361696102717
 40
0.3159273312917926
 40
0.5446167894989097
 40
0.7722740098762279
 40
1.0
 40
1.0
 40
1.0
 40
1.0
 10
-128.1883801413322
 20
1213.113865881295
 30
0.0
 10
-128.0989035246925
 20
1213.120647064341
 30
0.0
 10
-127.7556844065146
 20
1213.146658683386
 30
0.0
 10
-127.2775099373573
 20
1213.370891010302
 30
0.0
 10
-126.8762279703465
 20
1213.799003916011
 30
0.0
 10
-126.7269733425718
 20
1214.359659409792
 30
0.0
 10
-126.8647259168688
 20
1214.770323980287
 30
0.0
 10
-126.9336126053776
 20
1214.975687273812
 30
0.0
  0
ARC
  5
2EE
330
1F
100
AcDbEntity
  8
0
  6
Continuous
 62
     8
370
    18
100
AcDbCircle
 10
-132.1555455031
 20
1214.6139268109
 30
0.0
 40
0.6111916131096957
100
AcDbArc
 50
36.291506096
 51
92.3843692985
  0
LINE
  5
2EF
330
1F
100
AcDbEntity
  8
0
  6
Continuous
 62
     8
370
    18
100
AcDbLine
 10
-117.0990972356
 20
1211.2241175678
 30
0.0
 11
-136.6142311723
 21
1211.2241175678
 31
0.0
  0
LINE
  5
2F0
330
1F
100
AcDbEntity
  8
0
  6
Continuous
 62
     8
370
    18
100
AcDbLine
 10
-133.5733706944
 20
1218.2377682892
 30
0.0
 11
-133.5553545667
 21
1218.1974235249
 31
0.0
  0
LINE
  5
2F1
330
1F
100
AcDbEntity
  8
0
  6
Continuous
 62
     8
370
    18
100
AcDbLine
 10
-140.168278104
 20
1219.9651904778
 30
0.0
 11
-133.9018108886
 21
1219.9651904778
 31
0.0
  0
ARC
  5
2F2
330
1F
100
AcDbEntity
  8
0
  6
Continuous
 62
     8
370
    18
100
AcDbCircle
 10
-133.5282612319
 20
1217.5852358678
 30
0.0
 40
0.6127868930124096
100
AcDbArc
 50
36.4495682002
 51
92.5340619269
  0
LINE
  5
2F3
330
1F
100
AcDbEntity
  8
0
  6
Continuous
 62
     8
370
    18
100
AcDbLine
 10
345.2246735354
 20
1212.1865192888
 30
0.0
 11
339.7599566764
 21
1212.1865192888
 31
0.0
  0
LINE
  5
2F4
330
1F
100
AcDbEntity
  8
0
  6
Continuous
 62
     8
370
    18
100
AcDbLine
 10
320.0445352974
 20
1212.1865192888
 30
0.0
 11
264.8155407441
 21
1212.1865192888
 31
0.0
  0
LINE
  5
2F5
330
1F
100
AcDbEntity
  8
0
  6
Continuous
 62
     8
370
    18
100
AcDbLine
 10
350.1530636574
 20
1212.1865192888
 30
0.0
 11
345.2246735354
 21
1212.1865192888
 31
0.0
  0
LINE
  5
2F6
330
1F
100
AcDbEntity
  8
0
  6
Continuous
 62
     8
370
    18
100
AcDbLine
 10
345.1058311632
 20
1211.6865192888
 30
0.0
 11
339.3620963964
 21
1211.6865192888
 31
0.0
  0
LINE
  5
2F7
330
1F
100
AcDbEntity
  8
0
  6
Continuous
 62
     8
370
    18
100
AcDbLine
 10
319.9402039047
 20
1211.6865192888
 30
0.0
 11
264.9538690378
 21
1211.6865192888
 31
0.0
  0
LINE
  5
2F8
330
1F
100
AcDbEntity
  8
0
  6
Continuous
 62
     8
370
    18
100
AcDbLine
 10
350.0190890612
 20
1211.6865192888
 30
0.0
 11
345.1058311632
 21
1211.6865192888
 31
0.0
  0
LINE
  5
2F9
330
1F
100
AcDbEntity
  8
0
  6
Continuous
 62
     8
370
    18
100
AcDbLine
 10
345.1058311632
 20
1193.3989154124
 30
0.0
 11
263.0190890612
 21
1193.3989154124
 31
0.0
  0
LINE
  5
2FA
330
1F
100
AcDbEntity
  8
0
  6
Continuous
 62
     8
370
    18
100
AcDbLine
 10
350.0190890612
 20
1193.3989154124
 30
0.0
 11
345.1058311632
 21
1193.3989154124
 31
0.0
  0
LINE
  5
2FB
330
1F
100
AcDbEntity
  8
0
  6
Continuous
 62
     8
370
    18
100
AcDbLine
 10
344.017264733
 20
1191.5542637662
 30
0.0
 11
264.2462628813
 21
1191.5542637662
 31
0.0
  0
LINE
  5
2FC
330
1F
100
AcDbEntity
  8
0
  6
Continuous
 62
     8
370
    18
100
AcDbLine
 10
348.791915241
 20
1191.5542637662
 30
0.0
 11
344.017264733
 21
1191.5542637662
 31
0.0
  0
LINE
  5
2FD
330
1F
100
AcDbEntity
  8
0
  6
Continuous
 62
     8
370
    18
100
AcDbLine
 10
316.002662023
 20
1177.6706791986
 30
0.0
 11
289.4985328156
 21
1177.6706791986
 31
0.0
  0
LINE
  5
2FE
330
1F
100
AcDbEntity
  8
0
  6
Continuous
 62
     8
370
    18
100
AcDbLine
 10
286.5767399683
 20
1177.6706791986
 30
0.0
 11
284.4366199179
 21
1177.6706791986
 31
0.0
  0
LINE
  5
2FF
330
1F
100
AcDbEntity
  8
0
  6
Continuous
 62
     8
370
    18
100
AcDbLine
 10
328.6015582044
 20
1177.6706791986
 30
0.0
 11
320.5880658738
 21
1177.6706791986
 31
0.0
  0
LINE
  5
300
330
1F
100
AcDbEntity
  8
0
  6
Continuous
 62
     8
370
    18
100
AcDbLine
 10
317.4036714605
 20
1178.3616119456
 30
0.0
 11
320.319925582
 21
1178.3616119456
 31
0.0
  0
LINE
  5
301
330
1F
100
AcDbEntity
  8
0
  6
Continuous
 62
     8
370
    18
100
AcDbLine
 10
287.0394199672
 20
1178.3616119456
 30
0.0
 11
288.7500106887
 21
1178.3616119456
 31
0.0
  0
LINE
  5
302
330
1F
100
AcDbEntity
  8
0
  6
Continuous
 62
     8
370
    18
100
AcDbLine
 10
-64.0466333887
 20
1212.1865192888
 30
0.0
 11
-116.5181805561
 21
1212.1865192888
 31
0.0
  0
LINE
  5
303
330
1F
100
AcDbEntity
  8
0
  6
Continuous
 62
     8
370
    18
100
AcDbLine
 10
-137.0122426111
 20
1212.1865192888
 30
0.0
 11
-150.3457207365
 21
1212.1865192888
 31
0.0
  0
LINE
  5
304
330
1F
100
AcDbEntity
  8
0
  6
Continuous
 62
     8
370
    18
100
AcDbLine
 10
-64.1849616825
 20
1211.6865192888
 30
0.0
 11
-116.4331415163
 21
1211.6865192888
 31
0.0
  0
LINE
  5
305
330
1F
100
AcDbEntity
  8
0
  6
Continuous
 62
     8
370
    18
100
AcDbLine
 10
-136.7975992482
 20
1211.6865192888
 30
0.0
 11
-150.2117461402
 21
1211.6865192888
 31
0.0
  0
LINE
  5
306
330
1F
100
AcDbEntity
  8
0
  6
Continuous
 62
     8
370
    18
100
AcDbLine
 10
-64.4389199604
 20
1191.5542637662
 30
0.0
 11
-148.9845723201
 21
1191.5542637662
 31
0.0
  0
LINE
  5
307
330
1F
100
AcDbEntity
  8
0
  6
Continuous
 62
     8
370
    18
100
AcDbLine
 10
-63.2117461402
 20
1193.3989154124
 30
0.0
 11
-150.2117461402
 21
1193.3989154124
 31
0.0
  0
LINE
  5
308
330
1F
100
AcDbEntity
  8
0
  6
Continuous
 62
     8
370
    18
100
AcDbLine
 10
-84.629276997
 20
1177.6706791986
 30
0.0
 11
-92.6427693276
 21
1177.6706791986
 31
0.0
  0
LINE
  5
309
330
1F
100
AcDbEntity
  8
0
  6
Continuous
 62
     8
370
    18
100
AcDbLine
 10
-97.2281731784
 20
1177.6706791986
 30
0.0
 11
-123.7323023858
 21
1177.6706791986
 31
0.0
  0
LINE
  5
30A
330
1F
100
AcDbEntity
  8
0
  6
Continuous
 62
     8
370
    18
100
AcDbLine
 10
-126.6540952331
 20
1177.6706791986
 30
0.0
 11
-128.7942152835
 21
1177.6706791986
 31
0.0
  0
LINE
  5
30B
330
1F
100
AcDbEntity
  8
0
  6
Continuous
 62
     8
370
    18
100
AcDbLine
 10
-95.5963285395
 20
1178.3616119456
 30
0.0
 11
-92.9109096194
 21
1178.3616119456
 31
0.0
  0
LINE
  5
30C
330
1F
100
AcDbEntity
  8
0
  6
Continuous
 62
     8
370
    18
100
AcDbLine
 10
-126.1914152342
 20
1178.3616119456
 30
0.0
 11
-124.4808245127
 21
1178.3616119456
 31
0.0
  0
LINE
  5
30D
330
1F
100
AcDbEntity
  8
0
  6
Continuous
 62
     8
370
    18
100
AcDbLine
 10
311.1705952846
 20
1045.5525446926
 30
0.0
 11
326.4036714605
 21
1045.5525446926
 31
0.0
  0
LINE
  5
30E
330
1F
100
AcDbEntity
  8
0
  6
Continuous
 62
     8
370
    18
100
AcDbLine
 10
286.4036714605
 20
1045.5525446926
 30
0.0
 11
311.1705952846
 21
1045.5525446926
 31
0.0
  0
LINE
  5
30F
330
1F
100
AcDbEntity
  8
0
  6
Continuous
 62
     8
370
    18
100
AcDbLine
 10
-126.5963285395
 20
1045.5525446926
 30
0.0
 11
-86.5963285395
 21
1045.5525446926
 31
0.0
  0
LINE
  5
310
330
1F
100
AcDbEntity
  8
0
  6
Continuous
 62
     8
370
    18
100
AcDbLine
 10
113.5131563781
 20
1202.0525446926
 30
0.0
 11
68.4036714605
 21
1202.0525446926
 31
0.0
  0
LINE
  5
311
330
1F
100
AcDbEntity
  8
0
  6
Continuous
 62
     8
370
    18
100
AcDbLine
 10
131.4036714605
 20
1202.0525446926
 30
0.0
 11
113.5131563781
 21
1202.0525446926
 31
0.0
  0
ARC
  5
312
330
1F
100
AcDbEntity
  8
0
  6
Continuous
 62
     8
370
    18
100
AcDbCircle
 10
130.9032393313
 20
1109.9977166789
 30
0.0
 40
2.034014547268048
100
AcDbArc
 50
208.4003002873
 51
279.4629267975
  0
LWPOLYLINE
  5
313
330
1F
100
AcDbEntity
  8
0
  6
Continuous
 62
     8
370
    18
100
AcDbPolyline
 90
       11
 70
   128
 43
0.0
 10
131.3507069199
 20
1118.0812315363
 10
130.8003570225
 20
1118.1606609428
 10
130.0416439962
 20
1117.9456556883
 10
129.3430827151
 20
1117.3677507757
 10
128.7564822736
 20
1116.4698067687
 10
128.3253481431
 20
1115.3184200664
 10
128.0816555695
 20
1113.9989837534
 10
128.0434781164
 20
1112.6093543849
 10
128.2136472307
 20
1111.252594414
 10
128.5795422477
 20
1110.0293285211
 10
129.1140264079
 20
1109.0302807413
  0
LWPOLYLINE
  5
314
330
1F
100
AcDbEntity
  8
0
  6
Continuous
 62
     8
370
    18
100
AcDbPolyline
 90
       17
 70
   128
 43
0.0
 10
68.3064330499
 20
1108.0803690565
 10
68.3259324489
 20
1108.0721565396
 10
69.0908806893
 20
1107.9495140579
 10
69.845725366
 20
1108.2053400137
 10
70.5344831025
 20
1108.8206609659
 10
71.1060718883
 20
1109.7498413746
 10
71.518099598
 20
1110.9239681796
 10
71.7400080214
 20
1112.2559617669
 10
71.7553392258
 20
1113.6470342657
 10
71.5629561659
 20
1114.9940161924
 10
71.1771270132
 20
1116.1970080597
 10
70.6264669509
 20
1117.1667894639
 10
69.9518159167
 20
1117.8314361549
 10
69.2032096915
 20
1118.1416543281
 10
68.4361689743
 20
1118.0744365208
 10
67.7075816662
 20
1117.6347679702
 10
67.6700519244
 20
1117.6006078919
  0
CIRCLE
  5
315
330
1F
100
AcDbEntity
  8
0
  6
Continuous
 62
     8
370
    18
100
AcDbCircle
 10
99.9036714605
 20
-774.9474553074
 30
0.0
 40
5.108996249900149
  0
CIRCLE
  5
316
330
1F
100
AcDbEntity
  8
0
  6
Continuous
 62
     8
370
    18
100
AcDbCircle
 10
99.9036714605
 20
-844.9474553074
 30
0.0
 40
5.108996249900203
  0
SPLINE
  5
317
330
1F
100
AcDbEntity
  8
0
  6
Continuous
 62
     8
370
    18
100
AcDbSpline
210
0.0
220
0.0
230
1.0
 70
     8
 71
     3
 72
    17
 73
    13
 74
     0
 42
0.000000001
 43
0.00000001
 40
0.0
 40
0.0
 40
0.0
 40
0.0
 40
0.0000028638083869
 40
0.1847286774017479
 40
0.2962790120287471
 40
0.4078762116730256
 40
0.5140201108998588
 40
0.6201720514734053
 40
0.7215538570335607
 40
0.8229016382348155
 40
0.9999971343352355
 40
1.0
 40
1.0
 40
1.0
 40
1.0
 10
99.90367146046525
 20
-762.672258060878
 30
0.0
 10
99.90365146048748
 20
-762.6722580595869
 30
0.0
 10
98.6135618521368
 20
-762.6721747746383
 30
0.0
 10
96.52639975286519
 20
-762.984533463416
 30
0.0
 10
93.90657257323659
 20
-764.0544762748202
 30
0.0
 10
91.98260117393815
 20
-765.2615194395038
 30
0.0
 10
90.33509531189793
 20
-766.7498421426534
 30
0.0
 10
88.9919430150167
 20
-768.4293515064802
 30
0.0
 10
87.95370436809446
 20
-770.2849640813773
 30
0.0
 10
87.02700733915302
 20
-772.7511337092003
 30
0.0
 10
86.7947325396589
 20
-774.7114629003947
 30
0.0
 10
86.76135195559351
 20
-775.9474353079203
 30
0.0
 10
86.76135141545547
 20
-775.9474553074424
 30
0.0
  0
ARC
  5
318
330
1F
100
AcDbEntity
  8
0
  6
Continuous
 62
     8
370
    18
100
AcDbCircle
 10
87.572972949
 20
-468.813350909
 30
0.0
 40
307.1351767774564
100
AcDbArc
 50
269.6853789619
 51
269.848592587
  0
SPLINE
  5
319
330
1F
100
AcDbEntity
  8
0
  6
Continuous
 62
     8
370
    18
100
AcDbSpline
210
0.0
220
0.0
230
1.0
 70
     8
 71
     3
 72
    15
 73
    11
 74
     0
 42
0.000000001
 43
0.00000001
 40
0.0
 40
0.0
 40
0.0
 40
0.0
 40
0.1776830892485476
 40
0.2792445810353353
 40
0.3808460933277059
 40
0.4868964446267092
 40
0.5929482046381329
 40
0.7043092650930176
 40
0.8156355732683456
 40
0.9999999999999999
 40
0.9999999999999999
 40
0.9999999999999999
 40
0.9999999999999999
 10
85.88644903105747
 20
-775.9438971775554
 30
0.0
 10
85.99318409643519
 20
-774.6303610384302
 30
0.0
 10
86.16092762644264
 20
-772.5660236251396
 30
0.0
 10
87.19656380931707
 20
-769.9687256809029
 30
0.0
 10
88.3200523389763
 20
-768.0271325829093
 30
0.0
 10
89.7711613493059
 20
-766.2811321820101
 30
0.0
 10
91.53570171063686
 20
-764.7424927777707
 30
0.0
 10
93.58188214612444
 20
-763.511938641215
 30
0.0
 10
96.35483915414784
 20
-762.3839678514829
 30
0.0
 10
98.54116695260728
 20
-762.2076551373766
 30
0.0
 10
99.9043516034123
 20
-762.0977234126916
 30
0.0
  0
LWPOLYLINE
  5
31A
330
1F
100
AcDbEntity
  8
0
  6
Continuous
 62
     8
370
    18
100
AcDbPolyline
 90
        9
 70
   128
 43
0.0
 10
99.9036714605
 20
-762.6722580609
 10
99.9037382877
 20
-762.6163594169
 10
99.9038122325
 20
-762.5542955632
 10
99.9038924158
 20
-762.486804277
 10
99.9039778843
 20
-762.4146878536
 10
99.9040676222
 20
-762.3388035688
 10
99.9041605626
 20
-762.2600534887
 10
99.9042556008
 20
-762.1793737462
 10
99.9043516034
 20
-762.0977234127
  0
SPLINE
  5
31B
330
1F
100
AcDbEntity
  8
0
  6
Continuous
 62
     8
370
    18
100
AcDbSpline
210
0.0
220
0.0
230
1.0
 70
     8
 71
     3
 72
    19
 73
    15
 74
     0
 42
0.000000001
 43
0.00000001
 40
0.0
 40
0.0
 40
0.0
 40
0.0
 40
0.0000031837276051
 40
0.0993552228430158
 40
0.198554835527662
 40
0.3032752704560794
 40
0.4080257991004963
 40
0.4521289213340199
 40
0.5608006805340211
 40
0.6694790095624779
 40
0.7769136318732353
 40
0.8843797045366306
 40
0.9999968162723983
 40
1.0
 40
1.0
 40
1.0
 40
1.0
 10
87.75033331411915
 20
-775.9474553074424
 30
0.0
 10
87.75033377215023
 20
-775.9474353127147
 30
0.0
 10
87.76462763968708
 20
-775.3234558576337
 30
0.0
 10
87.86834512884333
 20
-774.0759969670216
 30
0.0
 10
88.31168146718757
 20
-772.2197645022723
 30
0.0
 10
89.09246696057329
 20
-770.4512695314429
 30
0.0
 10
89.95996355017387
 20
-769.1303789859343
 30
0.0
 10
90.99158744801835
 20
-767.914105178238
 30
0.0
 10
92.18920580274853
 20
-766.8142734828123
 30
0.0
 10
93.88970737060872
 20
-765.7174712329513
 30
0.0
 10
95.75584724735258
 20
-764.9313628381146
 30
0.0
 10
97.77223167552422
 20
-764.4270558953319
 30
0.0
 10
99.1773991222839
 20
-764.3302110074884
 30
0.0
 10
99.90365146233593
 20
-764.3203859911101
 30
0.0
 10
99.90367146046525
 20
-764.3203857205679
 30
0.0
  0
SPLINE
  5
31C
330
1F
100
AcDbEntity
  8
0
  6
Continuous
 62
     8
370
    18
100
AcDbSpline
210
0.0
220
0.0
230
1.0
 70
     8
 71
     3
 72
    17
 73
    13
 74
     0
 42
0.000000001
 43
0.00000001
 40
0.0
 40
0.0
 40
0.0
 40
0.0
 40
0.0000028656647633
 40
0.1770983617651846
 40
0.278446142966445
 40
0.3798279485266063
 40
0.4859798891001483
 40
0.592123788326978
 40
0.7037209879712499
 40
0.8152713225982446
 40
0.9999971361916126
 40
1.0
 40
1.0
 40
1.0
 40
1.0
 10
86.76135141545554
 20
-843.9474553074424
 30
0.0
 10
86.7613519555936
 20
-843.9474753069644
 30
0.0
 10
86.79473254005431
 20
-845.1834477155387
 30
0.0
 10
87.02700733905061
 20
-847.1437769054123
 30
0.0
 10
87.95370436811532
 20
-849.6099465335632
 30
0.0
 10
88.99194301501089
 20
-851.4655591083882
 30
0.0
 10
90.3350953118997
 20
-853.1450684722388
 30
0.0
 10
91.9826011739378
 20
-854.6333911753676
 30
0.0
 10
93.90657257323657
 20
-855.8404343401122
 30
0.0
 10
96.52639975286628
 20
-856.9103771512413
 30
0.0
 10
98.61356185213236
 20
-857.2227358410736
 30
0.0
 10
99.90365146048748
 20
-857.2226525552979
 30
0.0
 10
99.90367146046525
 20
-857.2226525540068
 30
0.0
  0
LWPOLYLINE
  5
31D
330
1F
100
AcDbEntity
  8
0
  6
Continuous
 62
     8
370
    18
100
AcDbPolyline
 90
        9
 70
   128
 43
0.0
 10
99.9029913175
 20
-857.7971872022
 10
99.9030873231
 20
-857.7155369463
 10
99.9031823607
 20
-857.6348572972
 10
99.9032753005
 20
-857.5561073236
 10
99.9033650378
 20
-857.4802231554
 10
99.9034505057
 20
-857.4081068559
 10
99.9035306884
 20
-857.3406156981
 10
99.9036046326
 20
-857.2785519743
 10
99.9036714605
 20
-857.222652554
  0
SPLINE
  5
31E
330
1F
100
AcDbEntity
  8
0
  6
Continuous
 62
     8
370
    18
100
AcDbSpline
210
0.0
220
0.0
230
1.0
 70
     8
 71
     3
 72
    15
 73
    11
 74
     0
 42
0.000000001
 43
0.00000001
 40
0.0
 40
0.0
 40
0.0
 40
0.0
 40
0.1843147708065359
 40
0.2956478565317892
 40
0.4070156966523188
 40
0.5130739130989742
 40
0.619130720747446
 40
0.7207384185438063
 40
0.8223060933981325
 40
1.0
 40
1.0
 40
1.0
 40
1.0
 10
99.90299131751827
 20
-857.7971872021932
 30
0.0
 10
98.54027348429165
 20
-857.6871975650897
 30
0.0
 10
96.35442259080041
 20
-857.5107700313218
 30
0.0
 10
93.58188253624861
 20
-856.3829728227942
 30
0.0
 10
91.53570161161412
 20
-855.152417621586
 30
0.0
 10
89.77116137532295
 20
-853.6137784895016
 30
0.0
 10
88.32005233234099
 20
-851.8677780175334
 30
0.0
 10
87.19656381102281
 20
-849.9261849376943
 30
0.0
 10
86.16092762562901
 20
-847.3288869879742
 30
0.0
 10
85.99318409611885
 20
-845.2645495757661
 30
0.0
 10
85.88644903105755
 20
-843.9510134373294
 30
0.0
  0
ARC
  5
31F
330
1F
100
AcDbEntity
  8
0
  6
Continuous
 62
     8
370
    18
100
AcDbCircle
 10
85.6708983105
 20
-683.3837270381
 30
0.0
 40
160.5674310802582
100
AcDbArc
 50
270.0769156621
 51
270.3891127891
  0
SPLINE
  5
320
330
1F
100
AcDbEntity
  8
0
  6
Continuous
 62
     8
370
    18
100
AcDbSpline
210
0.0
220
0.0
230
1.0
 70
     8
 71
     3
 72
    19
 73
    15
 74
     0
 42
0.000000001
 43
0.00000001
 40
0.0
 40
0.0
 40
0.0
 40
0.0
 40
0.0000031837276021
 40
0.1156202954637023
 40
0.2230863681270957
 40
0.3305209904378502
 40
0.4391993194663033
 40
0.5478710786662975
 40
0.5919742008995078
 40
0.6967247295439076
 40
0.8014451644723088
 40
0.9006447771569709
 40
0.9999968162723978
 40
1.0
 40
1.0
 40
1.0
 40
1.0
 10
99.90367146046528
 20
-855.5745248943172
 30
0.0
 10
99.90365146233596
 20
-855.5745246237749
 30
0.0
 10
99.1773991222004
 20
-855.564699607609
 30
0.0
 10
97.77223167555508
 20
-855.4678547194613
 30
0.0
 10
95.75584724733756
 20
-854.9635477767923
 30
0.0
 10
93.88970737060583
 20
-854.1774393819242
 30
0.0
 10
92.18920580274333
 20
-853.0806371320705
 30
0.0
 10
90.99158744801564
 20
-851.9808054366433
 30
0.0
 10
89.95996355017307
 20
-850.7645316289497
 30
0.0
 10
89.0924669605709
 20
-849.4436410834343
 30
0.0
 10
88.31168146719678
 20
-847.6751461126404
 30
0.0
 10
87.86834512881148
 20
-845.8189136477667
 30
0.0
 10
87.76462763975613
 20
-844.5714547574601
 30
0.0
 10
87.75033377215023
 20
-843.94747530217
 30
0.0
 10
87.75033331411915
 20
-843.9474553074424
 30
0.0
  0
SPLINE
  5
321
330
1F
100
AcDbEntity
  8
0
  6
Continuous
 62
     8
370
    18
100
AcDbSpline
210
0.0
220
0.0
230
1.0
 70
     8
 71
     3
 72
    19
 73
    15
 74
     0
 42
0.000000001
 43
0.00000001
 40
0.0
 40
0.0
 40
0.0
 40
0.0
 40
0.0000031837276056
 40
0.1156202954643856
 40
0.2230863681277822
 40
0.3305209904385421
 40
0.4391993194670015
 40
0.5478710786670045
 40
0.591974200899507
 40
0.696724729543929
 40
0.8014451644723528
 40
0.9006447771569931
 40
0.9999968162723963
 40
1.0
 40
1.0
 40
1.0
 40
1.0
 10
99.90367146046525
 20
-764.320385720568
 30
0.0
 10
99.9036914585946
 20
-764.3203859911101
 30
0.0
 10
100.6299437987262
 20
-764.3302110074363
 30
0.0
 10
102.0351112453877
 20
-764.4270558953558
 30
0.0
 10
104.0514956736044
 20
-764.9313628381148
 30
0.0
 10
105.9176355503366
 20
-765.7174712329621
 30
0.0
 10
107.6181371181976
 20
-766.8142734828239
 30
0.0
 10
108.8157554729217
 20
-767.9141051782475
 30
0.0
 10
109.847379370759
 20
-769.1303789859397
 30
0.0
 10
110.714875960372
 20
-770.4512695314437
 30
0.0
 10
111.4956614536918
 20
-772.2197645022709
 30
0.0
 10
111.9389977922682
 20
-774.0759969670279
 30
0.0
 10
112.0427152808529
 20
-775.3234558576219
 30
0.0
 10
112.0570091487806
 20
-775.947435312715
 30
0.0
 10
112.0570096068117
 20
-775.9474553074426
 30
0.0
  0
SPLINE
  5
322
330
1F
100
AcDbEntity
  8
0
  6
Continuous
 62
     8
370
    18
100
AcDbSpline
210
0.0
220
0.0
230
1.0
 70
     8
 71
     3
 72
    17
 73
    13
 74
     0
 42
0.000000001
 43
0.00000001
 40
0.0
 40
0.0
 40
0.0
 40
0.0
 40
0.0000028638083827
 40
0.1770983602375539
 40
0.2784461416269544
 40
0.3798279473753176
 40
0.4859798881459186
 40
0.5921237875697924
 40
0.7037209874212327
 40
0.8152713222553072
 40
0.9999971361916054
 40
1.0
 40
1.0
 40
1.0
 40
1.0
 10
113.0459899096875
 20
-775.9474553074426
 30
0.0
 10
113.0459899014838
 20
-775.9474353079205
 30
0.0
 10
113.045482581376
 20
-774.710661718667
 30
0.0
 10
112.7718074532259
 20
-772.7513415586587
 30
0.0
 10
111.8553732225856
 20
-770.2849218036185
 30
0.0
 10
110.8149106836935
 20
-768.4293634299122
 30
0.0
 10
109.4723809903138
 20
-766.749838891862
 30
0.0
 10
107.8247039896918
 20
-765.2615203597069
 30
0.0
 10
105.9007805498536
 20
-764.0544760262765
 30
0.0
 10
103.2809381653287
 20
-762.9845335848435
 30
0.0
 10
101.1937810688888
 20
-762.6721747764609
 30
0.0
 10
99.90369146044301
 20
-762.6722580595869
 30
0.0
 10
99.90367146046525
 20
-762.672258060878
 30
0.0
  0
SPLINE
  5
323
330
1F
100
AcDbEntity
  8
0
  6
Continuous
 62
     8
370
    18
100
AcDbSpline
210
0.0
220
0.0
230
1.0
 70
     8
 71
     3
 72
    15
 73
    11
 74
     0
 42
0.000000001
 43
0.00000001
 40
0.0
 40
0.0
 40
0.0
 40
0.0
 40
0.1842854205279236
 40
0.295600777575919
 40
0.4069508834849019
 40
0.5129922112243251
 40
0.6190321303899039
 40
0.7206236481794884
 40
0.8221751494002938
 40
1.0
 40
1.0
 40
1.0
 40
1.0
 10
99.9043516034123
 20
-762.0977234126916
 30
0.0
 10
101.2670694384901
 20
-762.2077130507249
 30
0.0
 10
103.4529203349506
 20
-762.3841405859841
 30
0.0
 10
106.2254603739196
 20
-763.511937786685
 30
0.0
 10
108.2716413495312
 20
-764.7424930134987
 30
0.0
 10
110.0361814032641
 20
-766.2811320538847
 30
0.0
 10
111.4872911113069
 20
-768.0271328599109
 30
0.0
 10
112.6107772500596
 20
-769.9687247429952
 30
0.0
 10
113.6468575125663
 20
-772.5671143175061
 30
0.0
 10
113.8143146069547
 20
-774.6326979511117
 30
0.0
 10
113.9209021280438
 20
-775.9474552620063
 30
0.0
  0
LWPOLYLINE
  5
324
330
1F
100
AcDbEntity
  8
0
  6
Continuous
 62
     8
370
    18
100
AcDbPolyline
 90
        9
 70
   128
 43
0.0
 10
113.920902128
 20
-775.947455262
 10
113.8071490958
 20
-775.9474552675
 10
113.6885936852
 20
-775.9474552729
 10
113.5682867994
 20
-775.9474552779
 10
113.449324414
 20
-775.9474552826
 10
113.334767905
 20
-775.9474552867
 10
113.227565268
 20
-775.9474552902
 10
113.1304752538
 20
-775.947455293
 10
113.0459899097
 20
-775.9474553074
  0
SPLINE
  5
325
330
1F
100
AcDbEntity
  8
0
  6
Continuous
 62
     8
370
    18
100
AcDbSpline
210
0.0
220
0.0
230
1.0
 70
     8
 71
     3
 72
    15
 73
    11
 74
     0
 42
0.000000001
 43
0.00000001
 40
0.0
 40
0.0
 40
0.0
 40
0.0
 40
0.177683089248541
 40
0.2792445810353314
 40
0.380846093327702
 40
0.4868964446267036
 40
0.5929482046381259
 40
0.7043092650930083
 40
0.8156355732683345
 40
1.0
 40
1.0
 40
1.0
 40
1.0
 10
113.920893889873
 20
-843.9510134373294
 30
0.0
 10
113.8141588244953
 20
-845.2645495764546
 30
0.0
 10
113.6464152944879
 20
-847.3288869897452
 30
0.0
 10
112.6107791116135
 20
-849.9261849339816
 30
0.0
 10
111.4872905819544
 20
-851.8677780319755
 30
0.0
 10
110.0361815716248
 20
-853.6137784328745
 30
0.0
 10
108.2716412102939
 20
-855.152417837114
 30
0.0
 10
106.2254607748063
 20
-856.3829719736696
 30
0.0
 10
103.4525037667828
 20
-857.5109427634013
 30
0.0
 10
101.2661759683233
 20
-857.687255477508
 30
0.0
 10
99.90299131751827
 20
-857.7971872021932
 30
0.0
  0
SPLINE
  5
326
330
1F
100
AcDbEntity
  8
0
  6
Continuous
 62
     8
370
    18
100
AcDbSpline
210
0.0
220
0.0
230
1.0
 70
     8
 71
     3
 72
    17
 73
    13
 74
     0
 42
0.000000001
 43
0.00000001
 40
0.0
 40
0.0
 40
0.0
 40
0.0
 40
0.0000028638083911
 40
0.1847286774017633
 40
0.2962790120287618
 40
0.4078762116730337
 40
0.5140201108998652
 40
0.6201720514734115
 40
0.7215538570335661
 40
0.8229016382348218
 40
0.9999971343352339
 40
0.9999999999999999
 40
0.9999999999999999
 40
0.9999999999999999
 40
0.9999999999999999
 10
99.90367146046525
 20
-857.2226525540068
 30
0.0
 10
99.90369146044304
 20
-857.2226525552979
 30
0.0
 10
101.1937810688436
 20
-857.2227358397886
 30
0.0
 10
103.2809431680521
 20
-856.9103771515938
 30
0.0
 10
105.9007703476964
 20
-855.8404343400381
 30
0.0
 10
107.8247417469938
 20
-854.633391175386
 30
0.0
 10
109.4722476090263
 20
-853.1450684722349
 30
0.0
 10
110.815399905938
 20
-851.4655591083848
 30
0.0
 10
111.8536385527508
 20
-849.6099465335784
 30
0.0
 10
112.7803355821971
 20
-847.1437769053341
 30
0.0
 10
113.0126103796541
 20
-845.1834477158402
 30
0.0
 10
113.045990965337
 20
-843.9474753069644
 30
0.0
 10
113.0459915054751
 20
-843.9474553074424
 30
0.0
  0
ARC
  5
327
330
1F
100
AcDbEntity
  8
0
  6
Continuous
 62
     8
370
    18
100
AcDbCircle
 10
112.2344053002
 20
-1151.0728728926
 30
0.0
 40
307.1264899011984
100
AcDbArc
 50
89.6853766537
 51
89.8485948952
  0
SPLINE
  5
328
330
1F
100
AcDbEntity
  8
0
  6
Continuous
 62
     8
370
    18
100
AcDbSpline
210
0.0
220
0.0
230
1.0
 70
     8
 71
     3
 72
    19
 73
    15
 74
     0
 42
0.000000001
 43
0.00000001
 40
0.0
 40
0.0
 40
0.0
 40
0.0
 40
0.0000031837276022
 40
0.0993552228430354
 40
0.1985548355277013
 40
0.3032752704560987
 40
0.408025799100494
 40
0.4521289213334401
 40
0.5608006805334329
 40
0.6694790095618841
 40
0.7769136318726376
 40
0.884379704536029
 40
0.9999968162723946
 40
1.0
 40
1.0
 40
1.0
 40
1.0
 10
112.0570096068117
 20
-843.9474553074424
 30
0.0
 10
112.0570091487806
 20
-843.9474753021701
 30
0.0
 10
112.0427152812447
 20
-844.571454757372
 30
0.0
 10
111.938997792087
 20
-845.8189136478076
 30
0.0
 10
111.4956614537432
 20
-847.6751461126289
 30
0.0
 10
110.7148759603572
 20
-849.4436410834377
 30
0.0
 10
109.8473793707588
 20
-850.7645316289481
 30
0.0
 10
108.8157554729172
 20
-851.9808054366414
 30
0.0
 10
107.6181371181913
 20
-853.0806371320665
 30
0.0
 10
105.9176355503295
 20
-854.1774393819253
 30
0.0
 10
104.0514956735968
 20
-854.9635477767786
 30
0.0
 10
102.0351112453832
 20
-855.4678547195084
 30
0.0
 10
100.6299437987219
 20
-855.5646996074987
 30
0.0
 10
99.90369145859462
 20
-855.5745246237749
 30
0.0
 10
99.90367146046528
 20
-855.5745248943172
 30
0.0
  0
SPLINE
  5
329
330
1F
100
AcDbEntity
  8
0
  6
Continuous
 62
     8
370
    18
100
AcDbSpline
210
0.0
220
0.0
230
1.0
 70
     8
 71
     3
 72
    27
 73
    23
 74
     0
 42
0.000000001
 43
0.00000001
 40
0.0
 40
0.0
 40
0.0
 40
0.0
 40
0.0458261761892542
 40
0.0933419431550412
 40
0.1397503106040266
 40
0.1873641641291036
 40
0.2392912115704797
 40
0.2925016859336927
 40
0.3494979711867051
 40
0.4083419278149945
 40
0.4611191897327701
 40
0.5156416575851445
 40
0.5630654600013546
 40
0.6117319088154919
 40
0.6593123790381609
 40
0.7079638997038761
 40
0.7598173828113891
 40
0.812934096042641
 40
0.8678915594190052
 40
0.9248170851434586
 40
0.961972485270244
 40
1.0
 40
1.0
 40
1.0
 40
1.0
 10
80.81276236955654
 20
-843.9474553074424
 30
0.0
 10
80.85548678686348
 20
-844.8582939457236
 30
0.0
 10
80.94251085178061
 20
-846.7135534386115
 30
0.0
 10
81.63450104803685
 20
-849.389550135745
 30
0.0
 10
82.70586770512683
 20
-851.9172204310112
 30
0.0
 10
84.1866925852542
 20
-854.290867899701
 30
0.0
 10
86.09258538380038
 20
-856.4878632552789
 30
0.0
 10
88.46977430509126
 20
-858.4688257572453
 30
0.0
 10
91.2852231777449
 20
-860.1159488463275
 30
0.0
 10
94.3815708783057
 20
-861.2723108947383
 30
0.0
 10
97.61499588189436
 20
-861.902591451677
 30
0.0
 10
100.7017647347553
 20
-862.0081702513572
 30
0.0
 10
103.6765129622292
 20
-861.6610130771302
 30
0.0
 10
106.4171743681114
 20
-860.9382390913532
 30
0.0
 10
109.0177855254025
 20
-859.8385022160018
 30
0.0
 10
111.4586105541071
 20
-858.3653263358639
 30
0.0
 10
113.7121168328574
 20
-856.4900592623405
 30
0.0
 10
115.7100223942799
 20
-854.1915903362254
 30
0.0
 10
117.3538269248446
 20
-851.4830696071052
 30
0.0
 10
118.3743026058604
 20
-848.7559586265494
 30
0.0
 10
118.9073570054793
 20
-846.1967947185167
 30
0.0
 10
118.9652820610461
 20
-844.7030110269943
 30
0.0
 10
118.9945805513746
 20
-843.9474553074424
 30
0.0
  0
LINE
  5
32A
330
1F
100
AcDbEntity
  8
0
  6
Continuous
 62
     8
370
    18
100
AcDbLine
 10
118.9945805514
 20
-843.9474553074
 30
0.0
 11
119.9036714605
 21
-843.9474553074
 31
0.0
  0
LINE
  5
32B
330
1F
100
AcDbEntity
  8
0
  6
Continuous
 62
     8
370
    18
100
AcDbLine
 10
79.9036714605
 20
-843.9474553074
 30
0.0
 11
80.8127623696
 21
-843.9474553074
 31
0.0
  0
LINE
  5
32C
330
1F
100
AcDbEntity
  8
0
  6
Continuous
 62
     8
370
    18
100
AcDbLine
 10
80.8127623696
 20
-775.9474553074
 30
0.0
 11
80.8127623696
 21
-843.9474553074
 31
0.0
  0
SPLINE
  5
32D
330
1F
100
AcDbEntity
  8
0
  6
Continuous
 62
     8
370
    18
100
AcDbSpline
210
0.0
220
0.0
230
1.0
 70
     8
 71
     3
 72
    27
 73
    23
 74
     0
 42
0.000000001
 43
0.00000001
 40
0.0
 40
0.0
 40
0.0
 40
0.0
 40
0.0375851808676244
 40
0.0751829721524474
 40
0.1310845640882399
 40
0.187064884295316
 40
0.2395481464092724
 40
0.2920384802651404
 40
0.3401627086875659
 40
0.3882727586621993
 40
0.43632380590872
 40
0.4843631855944657
 40
0.5380056377555715
 40
0.5916597011849335
 40
0.6495639256918508
 40
0.7074990630548114
 40
0.760072961261132
 40
0.8126398924659926
 40
0.859670409894029
 40
0.906664064827594
 40
0.953349214843671
 40
1.0
 40
1.0
 40
1.0
 40
1.0
 10
118.9945805513741
 20
-775.9474553074426
 30
0.0
 10
118.9653058919143
 20
-775.2008662576324
 30
0.0
 10
118.9067467508876
 20
-773.7074376656856
 30
0.0
 10
118.3827328466475
 20
-771.1662952133191
 30
0.0
 10
117.3591297263668
 20
-768.4323156460886
 30
0.0
 10
115.7302592432296
 20
-765.7274872464203
 30
0.0
 10
113.7194655351374
 20
-763.414548945334
 30
0.0
 10
111.4774128501219
 20
-761.541674447529
 30
0.0
 10
109.0259779305945
 20
-760.0626437572429
 30
0.0
 10
106.4387125321428
 20
-758.9629664122501
 30
0.0
 10
103.6880632808574
 20
-758.2388960848931
 30
0.0
 10
100.7313889079187
 20
-757.8866575258587
 30
0.0
 10
97.63359006125368
 20
-757.9946294699223
 30
0.0
 10
94.41511534725177
 20
-758.6111383537941
 30
0.0
 10
91.30435873632084
 20
-759.7742235616316
 30
0.0
 10
88.49313345062643
 20
-761.4074580332073
 30
0.0
 10
86.10290599386305
 20
-763.3995012342647
 30
0.0
 10
84.19960524807884
 20
-765.5847727105489
 30
0.0
 10
82.71302196518367
 20
-767.968591851229
 30
0.0
 10
81.64226635397095
 20
-770.4788207217563
 30
0.0
 10
80.9493802278146
 20
-773.1658299620702
 30
0.0
 10
80.8582904763594
 20
-775.0204744762062
 30
0.0
 10
80.81276236955648
 20
-775.9474553074424
 30
0.0
  0
LINE
  5
32E
330
1F
100
AcDbEntity
  8
0
  6
Continuous
 62
     8
370
    18
100
AcDbLine
 10
118.9945805514
 20
-843.9474553074
 30
0.0
 11
118.9945805514
 21
-775.9474553074
 31
0.0
  0
LINE
  5
32F
330
1F
100
AcDbEntity
  8
0
  6
Continuous
 62
     8
370
    18
100
AcDbLine
 10
113.920902128
 20
-775.947455262
 30
0.0
 11
113.9208938899
 21
-843.9510134373
 31
0.0
  0
LINE
  5
330
330
1F
100
AcDbEntity
  8
0
  6
Continuous
 62
     8
370
    18
100
AcDbLine
 10
85.8864490311
 20
-843.9510134373
 30
0.0
 11
85.8864490311
 21
-775.9438971776
 31
0.0
  0
LINE
  5
331
330
1F
100
AcDbEntity
  8
0
  6
Continuous
 62
     8
370
    18
100
AcDbLine
 10
79.9036714605
 20
-775.9474553074
 30
0.0
 11
80.8127623696
 21
-775.9474553074
 31
0.0
  0
LINE
  5
332
330
1F
100
AcDbEntity
  8
0
  6
Continuous
 62
     8
370
    18
100
AcDbLine
 10
118.9945805514
 20
-775.9474553074
 30
0.0
 11
119.9036714605
 21
-775.9474553074
 31
0.0
  0
SPLINE
  5
333
330
1F
100
AcDbEntity
  8
0
  6
Continuous
 62
     8
370
    18
100
AcDbSpline
210
0.0
220
0.0
230
1.0
 70
     8
 71
     3
 72
    13
 73
     9
 74
     0
 42
0.000000001
 43
0.00000001
 40
0.0
 40
0.0
 40
0.0
 40
0.0
 40
0.1977565018118013
 40
0.4062766836020926
 40
0.4504355388594335
 40
0.6675997179699295
 40
0.8832485623964279
 40
1.0
 40
1.0
 40
1.0
 40
1.0
 10
88.5860717279365
 20
-843.9404352275023
 30
0.0
 10
88.69277591782279
 20
-845.1112662030288
 30
0.0
 10
88.91199209527473
 20
-847.5166552619846
 30
0.0
 10
90.21633327042686
 20
-849.8907008377711
 30
0.0
 10
91.93810923929074
 20
-852.0024203081675
 30
0.0
 10
94.14564707250351
 20
-853.7627219134985
 30
0.0
 10
97.25255203512258
 20
-854.86762332225
 30
0.0
 10
99.21454573604376
 20
-854.9655420867548
 30
0.0
 10
99.90367146046471
 20
-854.9999348269008
 30
0.0
  0
SPLINE
  5
334
330
1F
100
AcDbEntity
  8
0
  6
Continuous
 62
     8
370
    18
100
AcDbSpline
210
0.0
220
0.0
230
1.0
 70
     8
 71
     3
 72
    13
 73
     9
 74
     0
 42
0.000000001
 43
0.00000001
 40
0.0
 40
0.0
 40
0.0
 40
0.0
 40
0.1167514376039038
 40
0.3324002820303881
 40
0.549564461140872
 40
0.5937233163979485
 40
0.802243498188218
 40
1.0
 40
1.0
 40
1.0
 40
1.0
 10
99.90367146046471
 20
-854.9999348269008
 30
0.0
 10
100.5927971848877
 20
-854.9655420867548
 30
0.0
 10
102.5547908858108
 20
-854.8676233222496
 30
0.0
 10
105.6616958484314
 20
-853.7627219134962
 30
0.0
 10
107.8692336816421
 20
-852.0024203081653
 30
0.0
 10
109.5910096505047
 20
-849.8907008377698
 30
0.0
 10
110.895350825656
 20
-847.5166552619849
 30
0.0
 10
111.114567003108
 20
-845.1112662030291
 30
0.0
 10
111.2212711929943
 20
-843.9404352275028
 30
0.0
  0
SPLINE
  5
335
330
1F
100
AcDbEntity
  8
0
  6
Continuous
 62
     8
370
    18
100
AcDbSpline
210
0.0
220
0.0
230
1.0
 70
     8
 71
     3
 72
    13
 73
     9
 74
     0
 42
0.000000001
 43
0.00000001
 40
0.0
 40
0.0
 40
0.0
 40
0.0
 40
0.1977565018117328
 40
0.4062766836020684
 40
0.4504355388587028
 40
0.6675997179692137
 40
0.8832485623957214
 40
1.0
 40
1.0
 40
1.0
 40
1.0
 10
111.2212711929943
 20
-775.9544753873821
 30
0.0
 10
111.114567003108
 20
-774.7836444118562
 30
0.0
 10
110.8953508256561
 20
-772.3782553529006
 30
0.0
 10
109.5910096505061
 20
-770.0042097771178
 30
0.0
 10
107.8692336816457
 20
-767.8924903067234
 30
0.0
 10
105.6616958484381
 20
-766.1321887013926
 30
0.0
 10
102.5547908858161
 20
-765.0272872926363
 30
0.0
 10
100.5927971848907
 20
-764.9293685281306
 30
0.0
 10
99.90367146046556
 20
-764.8949757879842
 30
0.0
  0
SPLINE
  5
336
330
1F
100
AcDbEntity
  8
0
  6
Continuous
 62
     8
370
    18
100
AcDbSpline
210
0.0
220
0.0
230
1.0
 70
     8
 71
     3
 72
    13
 73
     9
 74
     0
 42
0.000000001
 43
0.00000001
 40
0.0
 40
0.0
 40
0.0
 40
0.0
 40
0.1167514376032842
 40
0.3324002820297907
 40
0.5495644611402866
 40
0.5937233163979421
 40
0.8022434981882609
 40
1.0
 40
1.0
 40
1.0
 40
1.0
 10
99.90367146046556
 20
-764.8949757879842
 30
0.0
 10
99.21454573604629
 20
-764.92936852813
 30
0.0
 10
97.25255203512675
 20
-765.0272872926345
 30
0.0
 10
94.1456470725087
 20
-766.1321887013839
 30
0.0
 10
91.93810923929323
 20
-767.8924903067144
 30
0.0
 10
90.2163332704277
 20
-770.0042097771124
 30
0.0
 10
88.91199209527474
 20
-772.3782553529002
 30
0.0
 10
88.69277591782277
 20
-774.7836444118558
 30
0.0
 10
88.58607172793647
 20
-775.9544753873819
 30
0.0
  0
LINE
  5
337
330
1F
100
AcDbEntity
  8
0
  6
Continuous
 62
     8
370
    18
100
AcDbLine
 10
88.5860717279
 20
-775.9544753874
 30
0.0
 11
88.5860717279
 21
-843.9404352275
 31
0.0
  0
LINE
  5
338
330
1F
100
AcDbEntity
  8
0
  6
Continuous
 62
     8
370
    18
100
AcDbLine
 10
111.221271193
 20
-843.9404352275
 30
0.0
 11
111.221271193
 21
-775.9544753874
 31
0.0
  0
LINE
  5
339
330
1F
100
AcDbEntity
  8
0
  6
Continuous
 62
     8
370
    18
100
AcDbLine
 10
86.7613514155
 20
-775.9474553074
 30
0.0
 11
86.7613514155
 21
-843.9474553074
 31
0.0
  0
LINE
  5
33A
330
1F
100
AcDbEntity
  8
0
  6
Continuous
 62
     8
370
    18
100
AcDbLine
 10
113.0459915055
 20
-843.9474553074
 30
0.0
 11
113.0459899097
 21
-775.9474553074
 31
0.0
  0
LINE
  5
33B
330
1F
100
AcDbEntity
  8
0
  6
Continuous
 62
     8
370
    18
100
AcDbLine
 10
112.0569799038
 20
-775.9474553074
 30
0.0
 11
112.0569799038
 21
-843.9474553074
 31
0.0
  0
LINE
  5
33C
330
1F
100
AcDbEntity
  8
0
  6
Continuous
 62
     8
370
    18
100
AcDbLine
 10
87.7503630172
 20
-843.9474553074
 30
0.0
 11
87.7503630172
 21
-775.9474553074
 31
0.0
  0
LINE
  5
33D
330
1F
100
AcDbEntity
  8
0
  6
Continuous
 62
     8
370
    18
100
AcDbLine
 10
223.4804329861
 20
-954.2904474387
 30
0.0
 11
-23.6730900652
 21
-954.2904474387
 31
0.0
  0
LINE
  5
33E
330
1F
100
AcDbEntity
  8
0
  6
Continuous
 62
     8
370
    18
100
AcDbLine
 10
94.6675719443
 20
-950.9474553074
 30
0.0
 11
94.6675719443
 21
-951.4474553074
 31
0.0
  0
LINE
  5
33F
330
1F
100
AcDbEntity
  8
0
  6
Continuous
 62
     8
370
    18
100
AcDbLine
 10
100.6043683956
 20
-950.9474553074
 30
0.0
 11
100.6043683956
 21
-951.4474553074
 31
0.0
  0
LINE
  5
340
330
1F
100
AcDbEntity
  8
0
  6
Continuous
 62
     8
370
    18
100
AcDbLine
 10
110.8166640946
 20
-950.9474553074
 30
0.0
 11
110.8166640946
 21
-951.4474553074
 31
0.0
  0
LINE
  5
341
330
1F
100
AcDbEntity
  8
0
  6
Continuous
 62
     8
370
    18
100
AcDbLine
 10
83.771956863
 20
-950.9474553074
 30
0.0
 11
83.771956863
 21
-951.4474553074
 31
0.0
  0
LINE
  5
342
330
1F
100
AcDbEntity
  8
0
  6
Continuous
 62
     8
370
    18
100
AcDbLine
 10
82.0563800742
 20
-950.9474553074
 30
0.0
 11
82.0563800742
 21
-951.4474553074
 31
0.0
  0
LINE
  5
343
330
1F
100
AcDbEntity
  8
0
  6
Continuous
 62
     8
370
    18
100
AcDbLine
 10
82.0487407184
 20
-951.4474553074
 30
0.0
 11
82.0487407184
 21
-950.9474553074
 31
0.0
  0
LINE
  5
344
330
1F
100
AcDbEntity
  8
0
  6
Continuous
 62
     8
370
    18
100
AcDbLine
 10
69.7053123739
 20
-950.9474553074
 30
0.0
 11
69.7053123739
 21
-951.4474553074
 31
0.0
  0
LINE
  5
345
330
1F
100
AcDbEntity
  8
0
  6
Continuous
 62
     8
370
    18
100
AcDbLine
 10
134.6439412307
 20
-950.9474553074
 30
0.0
 11
134.6439412307
 21
-951.4474553074
 31
0.0
  0
ENDSEC
  0
SECTION
  2
OBJECTS
  0
DICTIONARY
  5
C
330
0
100
AcDbDictionary
281
     1
  3
ACAD_DETAILVIEWSTYLE
350
34D
  3
ACAD_GROUP
350
D
  3
ACAD_LAYOUT
350
1A
  3
ACAD_MATERIAL
350
43
  3
ACAD_MLEADERSTYLE
350
6B
  3
ACAD_MLINESTYLE
350
17
  3
ACAD_PLOTSETTINGS
350
19
  3
ACAD_PLOTSTYLENAME
350
E
  3
ACAD_SCALELIST
350
47
  3
ACAD_SECTIONVIEWSTYLE
350
34E
  3
ACAD_TABLESTYLE
350
69
  3
ACAD_VISUALSTYLE
350
2A
  3
ACDB_RECOMPOSE_DATA
350
34A
  3
AcDbVariableDictionary
350
346
  0
SUN
  5
6D
330
29
100
AcDbSun
 90
        1
290
     0
 63
     7
421
 16777215
 40
1.0
291
     1
 91
  2455826
 92
 54000000
292
     0
 70
     2
 71
   256
280
     1
  0
DICTIONARY
  5
34D
102
{ACAD_REACTORS
330
C
102
}
330
C
100
AcDbDictionary
281
     1
  0
DICTIONARY
  5
D
102
{ACAD_REACTORS
330
C
102
}
330
C
100
AcDbDictionary
281
     1
  0
DICTIONARY
  5
1A
102
{ACAD_REACTORS
330
C
102
}
330
C
100
AcDbDictionary
281
     1
  3
Layout1
350
1E
  3
Layout2
350
26
  3
Model
350
22
  0
DICTIONARY
  5
43
102
{ACAD_REACTORS
330
C
102
}
330
C
100
AcDbDictionary
281
     1
  3
ByBlock
350
45
  3
ByLayer
350
44
  3
Global
350
46
  0
DICTIONARY
  5
6B
102
{ACAD_REACTORS
330
C
102
}
330
C
100
AcDbDictionary
281
     1
  3
Standard
350
6C
  0
DICTIONARY
  5
17
102
{ACAD_REACTORS
330
C
102
}
330
C
100
AcDbDictionary
281
     1
  3
Standard
350
18
  0
DICTIONARY
  5
19
102
{ACAD_REACTORS
330
C
102
}
330
C
100
AcDbDictionary
281
     1
  0
ACDBDICTIONARYWDFLT
  5
E
102
{ACAD_REACTORS
330
C
102
}
330
C
100
AcDbDictionary
281
     1
  3
Normal
350
F
100
AcDbDictionaryWithDefault
340
F
  0
DICTIONARY
  5
47
102
{ACAD_REACTORS
330
C
102
}
330
C
100
AcDbDictionary
281
     1
  3
A0
350
48
  3
A1
350
49
  3
A2
350
4A
  3
A3
350
4B
  3
A4
350
4C
  3
A5
350
4D
  3
A6
350
4E
  3
A7
350
4F
  3
A8
350
50
  3
A9
350
51
  3
B0
350
52
  3
B1
350
53
  3
B2
350
54
  3
B3
350
55
  3
B4
350
56
  3
B5
350
57
  3
B6
350
58
  3
B7
350
59
  3
B8
350
5A
  3
B9
350
5B
  3
C0
350
5C
  3
C1
350
5D
  3
C2
350
5E
  3
C3
350
5F
  3
C4
350
60
  3
C5
350
61
  3
C6
350
62
  3
C7
350
63
  3
C8
350
64
  3
C9
350
65
  3
D0
350
66
  3
D1
350
67
  3
D2
350
68
  0
DICTIONARY
  5
34E
102
{ACAD_REACTORS
330
C
102
}
330
C
100
AcDbDictionary
281
     1
  0
DICTIONARY
  5
69
102
{ACAD_REACTORS
330
C
102
}
330
C
100
AcDbDictionary
281
     1
  3
Standard
350
6A
  0
DICTIONARY
  5
2A
102
{ACAD_REACTORS
330
C
102
}
330
C
100
AcDbDictionary
281
     1
  3
2dWireframe
350
2F
  3
Basic
350
32
  3
Brighten
350
36
  3
ColorChange
350
3A
  3
Conceptual
350
34
  3
Dim
350
35
  3
EdgeColorOff
350
3D
  3
Facepattern
350
39
  3
Flat
350
2B
  3
FlatWithEdges
350
2C
  3
Gouraud
350
2D
  3
GouraudWithEdges
350
2E
  3
Hidden
350
31
  3
JitterOff
350
3B
  3
Linepattern
350
38
  3
OverhangOff
350
3C
  3
Realistic
350
33
  3
Shaded
350
42
  3
Shaded with edges
350
41
  3
Shades of Gray
350
3E
  3
Sketchy
350
3F
  3
Thicken
350
37
  3
Wireframe
350
30
  3
X-Ray
350
40
  0
XRECORD
  5
34A
102
{ACAD_REACTORS
330
C
102
}
330
C
100
AcDbXrecord
280
     1
 90
        1
330
6A
  0
DICTIONARY
  5
346
102
{ACAD_REACTORS
330
C
102
}
330
C
100
AcDbDictionary
281
     1
  3
CANNOSCALE
350
347
  3
CENTEREXE
350
34F
  3
CENTERLTYPEFILE
350
350
  3
CMLEADERSTYLE
350
34C
  3
CTABLESTYLE
350
34B
  0
LAYOUT
  5
1E
102
{ACAD_REACTORS
330
1A
102
}
330
1A
100
AcDbPlotSettings
  1

  2
none_device
  4

  6

 40
0.0
 41
0.0
 42
0.0
 43
0.0
 44
0.0
 45
0.0
 46
0.0
 47
0.0
 48
0.0
 49
0.0
140
0.0
141
0.0
142
1.0
143
1.0
 70
   688
 72
     1
 73
     0
 74
     5
  7

 75
    16
 76
     0
 77
     2
 78
   300
147
1.0
148
0.0
149
0.0
100
AcDbLayout
  1
Layout1
 70
     1
 71
     1
 10
0.0
 20
0.0
 11
420.0
 21
297.0
 12
0.0
 22
0.0
 32
0.0
 14
1.0000000000E+20
 24
1.0000000000E+20
 34
1.0000000000E+20
 15
-1.0000000000E+20
 25
-1.0000000000E+20
 35
-1.0000000000E+20
146
0.0
 13
0.0
 23
0.0
 33
0.0
 16
1.0
 26
0.0
 36
0.0
 17
0.0
 27
1.0
 37
0.0
 76
     0
330
1B
  0
LAYOUT
  5
26
102
{ACAD_REACTORS
330
1A
102
}
330
1A
100
AcDbPlotSettings
  1

  2
none_device
  4

  6

 40
0.0
 41
0.0
 42
0.0
 43
0.0
 44
0.0
 45
0.0
 46
0.0
 47
0.0
 48
0.0
 49
0.0
140
0.0
141
0.0
142
1.0
143
1.0
 70
   688
 72
     1
 73
     0
 74
     5
  7

 75
    16
 76
     0
 77
     2
 78
   300
147
1.0
148
0.0
149
0.0
100
AcDbLayout
  1
Layout2
 70
     1
 71
     2
 10
0.0
 20
0.0
 11
0.0
 21
0.0
 12
0.0
 22
0.0
 32
0.0
 14
0.0
 24
0.0
 34
0.0
 15
0.0
 25
0.0
 35
0.0
146
0.0
 13
0.0
 23
0.0
 33
0.0
 16
1.0
 26
0.0
 36
0.0
 17
0.0
 27
1.0
 37
0.0
 76
     0
330
23
  0
LAYOUT
  5
22
102
{ACAD_REACTORS
330
1A
102
}
330
1A
100
AcDbPlotSettings
  1

  2
none_device
  4
Letter_(8.50_x_11.00_Inches)
  6

 40
6.35
 41
6.35
 42
6.35000508
 43
6.35000508
 44
215.9
 45
279.4
 46
0.0
 47
0.0
 48
0.0
 49
0.0
140
0.0
141
0.0
142
1.0
143
1.0
 70
  1712
 72
     1
 73
     0
 74
     0
  7

 75
     0
 76
     0
 77
     2
 78
   300
147
1.0
148
0.0
149
0.0
100
AcDbLayout
  1
Model
 70
     1
 71
     0
 10
0.0
 20
0.0
 11
210.0
 21
297.0
 12
0.0
 22
0.0
 32
0.0
 14
0.0
 24
0.0
 34
0.0
 15
210.0
 25
297.0
 35
0.0
146
0.0
 13
0.0
 23
0.0
 33
0.0
 16
1.0
 26
0.0
 36
0.0
 17
0.0
 27
1.0
 37
0.0
 76
     0
330
1F
331
29
  0
MATERIAL
  5
45
102
{ACAD_REACTORS
330
43
102
}
330
43
100
AcDbMaterial
  1
ByBlock
 72
     1
 94
      127
  0
MATERIAL
  5
44
102
{ACAD_REACTORS
330
43
102
}
330
43
100
AcDbMaterial
  1
ByLayer
 72
     1
 94
      127
  0
MATERIAL
  5
46
102
{ACAD_REACTORS
330
43
102
}
330
43
100
AcDbMaterial
  1
Global
 72
     1
 94
      127
  0
MLEADERSTYLE
  5
6C
102
{ACAD_REACTORS
330
6B
102
}
330
6B
100
AcDbMLeaderStyle
179
     2
170
     2
171
     1
172
     0
 90
        2
 40
0.0
 41
0.0
173
     1
 91
-1056964608
340
14
 92
       -2
290
     1
 42
2.0
291
     1
 43
8.0
  3
Standard
341
0
 44
4.0
300

342
11
174
     1
178
     6
175
     1
176
     0
 93
-1056964608
 45
4.0
292
     0
297
     0
 46
4.0
343
0
 94
-1056964608
 47
1.0
 49
1.0
140
1.0
293
     1
141
0.0
294
     1
177
     0
142
1.0
295
     0
296
     0
143
3.75
271
     0
272
     9
273
     9
  0
MLINESTYLE
  5
18
102
{ACAD_REACTORS
330
17
102
}
330
17
100
AcDbMlineStyle
  2
Standard
 70
     0
  3

 62
   256
 51
90.0
 52
90.0
 71
     2
 49
0.5
 62
   256
  6
BYLAYER
 49
-0.5
 62
   256
  6
BYLAYER
  0
ACDBPLACEHOLDER
  5
F
102
{ACAD_REACTORS
330
E
102
}
330
E
  0
SCALE
  5
48
102
{ACAD_REACTORS
330
47
102
}
330
47
100
AcDbScale
 70
     0
300
1:1
140
1.0
141
1.0
290
     1
  0
SCALE
  5
49
102
{ACAD_REACTORS
330
47
102
}
330
47
100
AcDbScale
 70
     0
300
1:2
140
1.0
141
2.0
290
     0
  0
SCALE
  5
4A
102
{ACAD_REACTORS
330
47
102
}
330
47
100
AcDbScale
 70
     0
300
1:4
140
1.0
141
4.0
290
     0
  0
SCALE
  5
4B
102
{ACAD_REACTORS
330
47
102
}
330
47
100
AcDbScale
 70
     0
300
1:5
140
1.0
141
5.0
290
     0
  0
SCALE
  5
4C
102
{ACAD_REACTORS
330
47
102
}
330
47
100
AcDbScale
 70
     0
300
1:8
140
1.0
141
8.0
290
     0
  0
SCALE
  5
4D
102
{ACAD_REACTORS
330
47
102
}
330
47
100
AcDbScale
 70
     0
300
1:10
140
1.0
141
10.0
290
     0
  0
SCALE
  5
4E
102
{ACAD_REACTORS
330
47
102
}
330
47
100
AcDbScale
 70
     0
300
1:16
140
1.0
141
16.0
290
     0
  0
SCALE
  5
4F
102
{ACAD_REACTORS
330
47
102
}
330
47
100
AcDbScale
 70
     0
300
1:20
140
1.0
141
20.0
290
     0
  0
SCALE
  5
50
102
{ACAD_REACTORS
330
47
102
}
330
47
100
AcDbScale
 70
     0
300
1:30
140
1.0
141
30.0
290
     0
  0
SCALE
  5
51
102
{ACAD_REACTORS
330
47
102
}
330
47
100
AcDbScale
 70
     0
300
1:40
140
1.0
141
40.0
290
     0
  0
SCALE
  5
52
102
{ACAD_REACTORS
330
47
102
}
330
47
100
AcDbScale
 70
     0
300
1:50
140
1.0
141
50.0
290
     0
  0
SCALE
  5
53
102
{ACAD_REACTORS
330
47
102
}
330
47
100
AcDbScale
 70
     0
300
1:100
140
1.0
141
100.0
290
     0
  0
SCALE
  5
54
102
{ACAD_REACTORS
330
47
102
}
330
47
100
AcDbScale
 70
     0
300
2:1
140
2.0
141
1.0
290
     0
  0
SCALE
  5
55
102
{ACAD_REACTORS
330
47
102
}
330
47
100
AcDbScale
 70
     0
300
4:1
140
4.0
141
1.0
290
     0
  0
SCALE
  5
56
102
{ACAD_REACTORS
330
47
102
}
330
47
100
AcDbScale
 70
     0
300
8:1
140
8.0
141
1.0
290
     0
  0
SCALE
  5
57
102
{ACAD_REACTORS
330
47
102
}
330
47
100
AcDbScale
 70
     0
300
10:1
140
10.0
141
1.0
290
     0
  0
SCALE
  5
58
102
{ACAD_REACTORS
330
47
102
}
330
47
100
AcDbScale
 70
     0
300
100:1
140
100.0
141
1.0
290
     0
  0
SCALE
  5
59
102
{ACAD_REACTORS
330
47
102
}
330
47
100
AcDbScale
 70
     0
300
1/128" = 1'-0"
140
0.0078125
141
12.0
290
     0
  0
SCALE
  5
5A
102
{ACAD_REACTORS
330
47
102
}
330
47
100
AcDbScale
 70
     0
300
1/64" = 1'-0"
140
0.015625
141
12.0
290
     0
  0
SCALE
  5
5B
102
{ACAD_REACTORS
330
47
102
}
330
47
100
AcDbScale
 70
     0
300
1/32" = 1'-0"
140
0.03125
141
12.0
290
     0
  0
SCALE
  5
5C
102
{ACAD_REACTORS
330
47
102
}
330
47
100
AcDbScale
 70
     0
300
1/16" = 1'-0"
140
0.0625
141
12.0
290
     0
  0
SCALE
  5
5D
102
{ACAD_REACTORS
330
47
102
}
330
47
100
AcDbScale
 70
     0
300
3/32" = 1'-0"
140
0.09375
141
12.0
290
     0
  0
SCALE
  5
5E
102
{ACAD_REACTORS
330
47
102
}
330
47
100
AcDbScale
 70
     0
300
1/8" = 1'-0"
140
0.125
141
12.0
290
     0
  0
SCALE
  5
5F
102
{ACAD_REACTORS
330
47
102
}
330
47
100
AcDbScale
 70
     0
300
3/16" = 1'-0"
140
0.1875
141
12.0
290
     0
  0
SCALE
  5
60
102
{ACAD_REACTORS
330
47
102
}
330
47
100
AcDbScale
 70
     0
300
1/4" = 1'-0"
140
0.25
141
12.0
290
     0
  0
SCALE
  5
61
102
{ACAD_REACTORS
330
47
102
}
330
47
100
AcDbScale
 70
     0
300
3/8" = 1'-0"
140
0.375
141
12.0
290
     0
  0
SCALE
  5
62
102
{ACAD_REACTORS
330
47
102
}
330
47
100
AcDbScale
 70
     0
300
1/2" = 1'-0"
140
0.5
141
12.0
290
     0
  0
SCALE
  5
63
102
{ACAD_REACTORS
330
47
102
}
330
47
100
AcDbScale
 70
     0
300
3/4" = 1'-0"
140
0.75
141
12.0
290
     0
  0
SCALE
  5
64
102
{ACAD_REACTORS
330
47
102
}
330
47
100
AcDbScale
 70
     0
300
1" = 1'-0"
140
1.0
141
12.0
290
     0
  0
SCALE
  5
65
102
{ACAD_REACTORS
330
47
102
}
330
47
100
AcDbScale
 70
     0
300
1-1/2" = 1'-0"
140
1.5
141
12.0
290
     0
  0
SCALE
  5
66
102
{ACAD_REACTORS
330
47
102
}
330
47
100
AcDbScale
 70
     0
300
3" = 1'-0"
140
3.0
141
12.0
290
     0
  0
SCALE
  5
67
102
{ACAD_REACTORS
330
47
102
}
330
47
100
AcDbScale
 70
     0
300
6" = 1'-0"
140
6.0
141
12.0
290
     0
  0
SCALE
  5
68
102
{ACAD_REACTORS
330
47
102
}
330
47
100
AcDbScale
 70
     0
300
1'-0" = 1'-0"
140
12.0
141
12.0
290
     0
  0
TABLESTYLE
  5
6A
102
{ACAD_REACTORS
330
69
102
}
102
{ACAD_XDICTIONARY
360
348
102
}
330
69
100
AcDbTableStyle
  3
Standard
 70
     0
 71
     0
 40
0.06
 41
0.06
280
     0
281
     0
  7
Standard
140
4.5
170
     2
 62
     0
 63
   257
283
     0
 90
        4
 91
        0
  1

274
    -2
284
     1
 64
     0
275
    -2
285
     1
 65
     0
276
    -2
286
     1
 66
     0
277
    -2
287
     1
 67
     0
278
    -2
288
     1
 68
     0
279
    -2
289
     1
 69
     0
  7
Standard
140
6.0
170
     5
 62
     0
 63
   257
283
     0
 90
        4
 91
        0
  1

274
    -2
284
     1
 64
     0
275
    -2
285
     1
 65
     0
276
    -2
286
     1
 66
     0
277
    -2
287
     1
 67
     0
278
    -2
288
     1
 68
     0
279
    -2
289
     1
 69
     0
  7
Standard
140
4.5
170
     5
 62
     0
 63
   257
283
     0
 90
        4
 91
        0
  1

274
    -2
284
     1
 64
     0
275
    -2
285
     1
 65
     0
276
    -2
286
     1
 66
     0
277
    -2
287
     1
 67
     0
278
    -2
288
     1
 68
     0
279
    -2
289
     1
 69
     0
  0
VISUALSTYLE
  5
2F
102
{ACAD_REACTORS
330
2A
102
}
330
2A
100
AcDbVisualStyle
  2
2dWireframe
 70
     4
177
     2
291
     0
 71
     0
176
     1
 72
     2
176
     1
 73
     0
176
     1
 90
        0
176
     1
 40
0.6
176
     1
 41
30.0
176
     1
 62
     5
 63
     7
421
 16777215
176
     1
 74
     1
176
     1
 91
        4
176
     1
 64
     7
176
     1
 65
   257
176
     1
 75
     1
176
     1
175
     1
176
     1
 42
1.0
176
     1
 92
        0
176
     1
 66
   257
176
     1
 43
1.0
176
     1
 76
     1
176
     1
 77
     6
176
     1
 78
     2
176
     1
 67
     7
176
     1
 79
     5
176
     1
170
     0
176
     1
171
     0
176
     1
290
     0
176
     1
 93
        1
176
     1
 44
0.0
176
     1
173
     0
176
     1
  0
VISUALSTYLE
  5
32
102
{ACAD_REACTORS
330
2A
102
}
330
2A
100
AcDbVisualStyle
  2
Basic
 70
     7
177
     2
291
     1
 71
     1
176
     1
 72
     0
176
     1
 73
     1
176
     1
 90
        0
176
     1
 40
0.6
176
     1
 41
30.0
176
     1
 62
     5
 63
     7
421
 16777215
176
     1
 74
     0
176
     1
 91
        4
176
     1
 64
     7
176
     1
 65
   257
176
     1
 75
     1
176
     1
175
     1
176
     1
 42
1.0
176
     1
 92
        8
176
     1
 66
     7
176
     1
 43
1.0
176
     1
 76
     1
176
     1
 77
     6
176
     1
 78
     2
176
     1
 67
     7
176
     1
 79
     5
176
     1
170
     0
176
     1
171
     0
176
     1
290
     0
176
     1
 93
        1
176
     1
 44
0.0
176
     1
173
     0
176
     1
  0
VISUALSTYLE
  5
36
102
{ACAD_REACTORS
330
2A
102
}
330
2A
100
AcDbVisualStyle
  2
Brighten
 70
    12
177
     2
291
     1
 71
     2
176
     1
 72
     2
176
     1
 73
     0
176
     1
 90
        0
176
     1
 40
0.6
176
     1
 41
30.0
176
     1
 62
     5
 63
     7
421
 16777215
176
     1
 74
     1
176
     1
 91
        4
176
     1
 64
     7
176
     1
 65
   257
176
     1
 75
     1
176
     1
175
     1
176
     1
 42
1.0
176
     1
 92
        8
176
     1
 66
     7
176
     1
 43
1.0
176
     1
 76
     1
176
     1
 77
     6
176
     1
 78
     2
176
     1
 67
     7
176
     1
 79
     5
176
     1
170
     0
176
     1
171
     0
176
     1
290
     0
176
     1
 93
        1
176
     1
 44
50.0
176
     1
173
     0
176
     1
  0
VISUALSTYLE
  5
3A
102
{ACAD_REACTORS
330
2A
102
}
330
2A
100
AcDbVisualStyle
  2
ColorChange
 70
    16
177
     2
291
     1
 71
     2
176
     1
 72
     2
176
     1
 73
     3
176
     1
 90
        0
176
     1
 40
0.6
176
     1
 41
30.0
176
     1
 62
     5
 63
     8
421
  8421504
176
     1
 74
     1
176
     1
 91
        4
176
     1
 64
     7
176
     1
 65
   257
176
     1
 75
     1
176
     1
175
     1
176
     1
 42
1.0
176
     1
 92
        8
176
     1
 66
     8
424
  8421504
176
     1
 43
1.0
176
     1
 76
     1
176
     1
 77
     6
176
     1
 78
     2
176
     1
 67
     7
176
     1
 79
     5
176
     1
170
     0
176
     1
171
     0
176
     1
290
     0
176
     1
 93
        1
176
     1
 44
0.0
176
     1
173
     0
176
     1
  0
VISUALSTYLE
  5
34
102
{ACAD_REACTORS
330
2A
102
}
330
2A
100
AcDbVisualStyle
  2
Conceptual
 70
     9
177
     2
291
     0
 71
     3
176
     1
 72
     2
176
     1
 73
     0
176
     1
 90
        0
176
     1
 40
0.6
176
     1
 41
30.0
176
     1
 62
     5
 63
     7
421
 16777215
176
     1
 74
     2
176
     1
 91
        2
176
     1
 64
     7
176
     1
 65
   257
176
     1
 75
     1
176
     1
175
     1
176
     1
 42
179.0
176
     1
 92
        8
176
     1
 66
     7
176
     1
 43
1.0
176
     1
 76
     1
176
     1
 77
     6
176
     1
 78
     2
176
     1
 67
     7
176
     1
 79
     3
176
     1
170
     0
176
     1
171
     0
176
     1
290
     0
176
     1
 93
        1
176
     1
 44
0.0
176
     1
173
     0
176
     1
  0
VISUALSTYLE
  5
35
102
{ACAD_REACTORS
330
2A
102
}
330
2A
100
AcDbVisualStyle
  2
Dim
 70
    11
177
     2
291
     1
 71
     2
176
     1
 72
     2
176
     1
 73
     0
176
     1
 90
        0
176
     1
 40
0.6
176
     1
 41
30.0
176
     1
 62
     5
 63
     7
421
 16777215
176
     1
 74
     1
176
     1
 91
        4
176
     1
 64
     7
176
     1
 65
   257
176
     1
 75
     1
176
     1
175
     1
176
     1
 42
1.0
176
     1
 92
        8
176
     1
 66
     7
176
     1
 43
1.0
176
     1
 76
     1
176
     1
 77
     6
176
     1
 78
     2
176
     1
 67
     7
176
     1
 79
     5
176
     1
170
     0
176
     1
171
     0
176
     1
290
     0
176
     1
 93
        1
176
     1
 44
-50.0
176
     1
173
     0
176
     1
  0
VISUALSTYLE
  5
3D
102
{ACAD_REACTORS
330
2A
102
}
330
2A
100
AcDbVisualStyle
  2
EdgeColorOff
 70
    22
177
     2
291
     1
 71
     2
176
     0
 72
     2
176
     0
 73
     0
176
     0
 90
        0
176
     0
 40
0.6
176
     0
 41
30.0
176
     0
 62
     5
 63
     7
421
 16777215
176
     0
 74
     1
176
     0
 91
        4
176
     0
 64
     7
176
     0
 65
   257
176
     0
 75
     1
176
     0
175
     1
176
     0
 42
1.0
176
     0
 92
        8
176
     2
 66
     7
176
     0
 43
1.0
176
     0
 76
     1
176
     0
 77
     6
176
     0
 78
     2
176
     0
 67
     7
176
     0
 79
     5
176
     0
170
     0
176
     0
171
     0
176
     0
290
     0
176
     0
 93
        1
176
     0
 44
0.0
176
     0
173
     0
176
     0
  0
VISUALSTYLE
  5
39
102
{ACAD_REACTORS
330
2A
102
}
330
2A
100
AcDbVisualStyle
  2
Facepattern
 70
    15
177
     2
291
     1
 71
     2
176
     1
 72
     2
176
     1
 73
     0
176
     1
 90
        0
176
     1
 40
0.6
176
     1
 41
30.0
176
     1
 62
     5
 63
     7
421
 16777215
176
     1
 74
     1
176
     1
 91
        4
176
     1
 64
     7
176
     1
 65
   257
176
     1
 75
     1
176
     1
175
     1
176
     1
 42
1.0
176
     1
 92
        8
176
     1
 66
     7
176
     1
 43
1.0
176
     1
 76
     1
176
     1
 77
     6
176
     1
 78
     2
176
     1
 67
     7
176
     1
 79
     5
176
     1
170
     0
176
     1
171
     0
176
     1
290
     0
176
     1
 93
        1
176
     1
 44
0.0
176
     1
173
     0
176
     1
  0
VISUALSTYLE
  5
2B
102
{ACAD_REACTORS
330
2A
102
}
330
2A
100
AcDbVisualStyle
  2
Flat
 70
     0
177
     2
291
     1
 71
     2
176
     1
 72
     1
176
     1
 73
     1
176
     1
 90
        2
176
     1
 40
0.6
176
     1
 41
30.0
176
     1
 62
     5
 63
     7
421
 16777215
176
     1
 74
     0
176
     1
 91
        0
176
     1
 64
     7
176
     1
 65
   257
176
     1
 75
     1
176
     1
175
     1
176
     1
 42
1.0
176
     1
 92
        8
176
     1
 66
     7
176
     1
 43
1.0
176
     1
 76
     1
176
     1
 77
     6
176
     1
 78
     2
176
     1
 67
     7
176
     1
 79
     5
176
     1
170
     0
176
     1
171
     0
176
     1
290
     0
176
     1
 93
       13
176
     1
 44
0.0
176
     1
173
     0
176
     1
  0
VISUALSTYLE
  5
2C
102
{ACAD_REACTORS
330
2A
102
}
330
2A
100
AcDbVisualStyle
  2
FlatWithEdges
 70
     1
177
     2
291
     1
 71
     2
176
     1
 72
     1
176
     1
 73
     1
176
     1
 90
        2
176
     1
 40
0.6
176
     1
 41
30.0
176
     1
 62
     5
 63
     7
421
 16777215
176
     1
 74
     1
176
     1
 91
        0
176
     1
 64
     7
176
     1
 65
   257
176
     1
 75
     1
176
     1
175
     1
176
     1
 42
1.0
176
     1
 92
        0
176
     1
 66
   257
176
     1
 43
1.0
176
     1
 76
     1
176
     1
 77
     6
176
     1
 78
     2
176
     1
 67
     7
176
     1
 79
     5
176
     1
170
     0
176
     1
171
     0
176
     1
290
     0
176
     1
 93
       13
176
     1
 44
0.0
176
     1
173
     0
176
     1
  0
VISUALSTYLE
  5
2D
102
{ACAD_REACTORS
330
2A
102
}
330
2A
100
AcDbVisualStyle
  2
Gouraud
 70
     2
177
     2
291
     1
 71
     2
176
     1
 72
     2
176
     1
 73
     1
176
     1
 90
        2
176
     1
 40
0.6
176
     1
 41
30.0
176
     1
 62
     5
 63
     7
421
 16777215
176
     1
 74
     0
176
     1
 91
        0
176
     1
 64
     7
176
     1
 65
   257
176
     1
 75
     1
176
     1
175
     1
176
     1
 42
1.0
176
     1
 92
        0
176
     1
 66
     7
176
     1
 43
1.0
176
     1
 76
     1
176
     1
 77
     6
176
     1
 78
     2
176
     1
 67
     7
176
     1
 79
     5
176
     1
170
     0
176
     1
171
     0
176
     1
290
     0
176
     1
 93
       13
176
     1
 44
0.0
176
     1
173
     0
176
     1
  0
VISUALSTYLE
  5
2E
102
{ACAD_REACTORS
330
2A
102
}
330
2A
100
AcDbVisualStyle
  2
GouraudWithEdges
 70
     3
177
     2
291
     1
 71
     2
176
     1
 72
     2
176
     1
 73
     1
176
     1
 90
        2
176
     1
 40
0.6
176
     1
 41
30.0
176
     1
 62
     5
 63
     7
421
 16777215
176
     1
 74
     1
176
     1
 91
        0
176
     1
 64
     7
176
     1
 65
   257
176
     1
 75
     1
176
     1
175
     1
176
     1
 42
1.0
176
     1
 92
        0
176
     1
 66
   257
176
     1
 43
1.0
176
     1
 76
     1
176
     1
 77
     6
176
     1
 78
     2
176
     1
 67
     7
176
     1
 79
     5
176
     1
170
     0
176
     1
171
     0
176
     1
290
     0
176
     1
 93
       13
176
     1
 44
0.0
176
     1
173
     0
176
     1
  0
VISUALSTYLE
  5
31
102
{ACAD_REACTORS
330
2A
102
}
330
2A
100
AcDbVisualStyle
  2
Hidden
 70
     6
177
     2
291
     0
 71
     1
176
     1
 72
     2
176
     1
 73
     2
176
     1
 90
        0
176
     1
 40
0.6
176
     1
 41
30.0
176
     1
 62
     5
 63
     7
421
 16777215
176
     1
 74
     2
176
     1
 91
        2
176
     1
 64
     7
176
     1
 65
   257
176
     1
 75
     2
176
     1
175
     1
176
     1
 42
40.0
176
     1
 92
        0
176
     1
 66
   257
176
     1
 43
1.0
176
     1
 76
     1
176
     1
 77
     6
176
     1
 78
     2
176
     1
 67
     7
176
     1
 79
     3
176
     1
170
     0
176
     1
171
     0
176
     1
290
     0
176
     1
 93
        1
176
     1
 44
0.0
176
     1
173
     0
176
     1
  0
VISUALSTYLE
  5
3B
102
{ACAD_REACTORS
330
2A
102
}
330
2A
100
AcDbVisualStyle
  2
JitterOff
 70
    20
177
     2
291
     1
 71
     2
176
     0
 72
     2
176
     0
 73
     0
176
     0
 90
        0
176
     0
 40
0.6
176
     0
 41
30.0
176
     0
 62
     5
 63
     7
421
 16777215
176
     0
 74
     1
176
     0
 91
        4
176
     0
 64
     7
176
     0
 65
   257
176
     0
 75
     1
176
     0
175
     1
176
     0
 42
1.0
176
     0
 92
       10
176
     2
 66
     7
176
     0
 43
1.0
176
     0
 76
     1
176
     0
 77
     6
176
     0
 78
     2
176
     0
 67
     7
176
     0
 79
     5
176
     0
170
     0
176
     0
171
     0
176
     0
290
     0
176
     0
 93
        1
176
     0
 44
0.0
176
     0
173
     0
176
     0
  0
VISUALSTYLE
  5
38
102
{ACAD_REACTORS
330
2A
102
}
330
2A
100
AcDbVisualStyle
  2
Linepattern
 70
    14
177
     2
291
     1
 71
     2
176
     1
 72
     2
176
     1
 73
     0
176
     1
 90
        0
176
     1
 40
0.6
176
     1
 41
30.0
176
     1
 62
     5
 63
     7
421
 16777215
176
     1
 74
     1
176
     1
 91
        4
176
     1
 64
     7
176
     1
 65
   257
176
     1
 75
     7
176
     1
175
     7
176
     1
 42
1.0
176
     1
 92
        8
176
     1
 66
     7
176
     1
 43
1.0
176
     1
 76
     1
176
     1
 77
     6
176
     1
 78
     2
176
     1
 67
     7
176
     1
 79
     5
176
     1
170
     0
176
     1
171
     0
176
     1
290
     0
176
     1
 93
        1
176
     1
 44
0.0
176
     1
173
     0
176
     1
  0
VISUALSTYLE
  5
3C
102
{ACAD_REACTORS
330
2A
102
}
330
2A
100
AcDbVisualStyle
  2
OverhangOff
 70
    21
177
     2
291
     1
 71
     2
176
     0
 72
     2
176
     0
 73
     0
176
     0
 90
        0
176
     0
 40
0.6
176
     0
 41
30.0
176
     0
 62
     5
 63
     7
421
 16777215
176
     0
 74
     1
176
     0
 91
        4
176
     0
 64
     7
176
     0
 65
   257
176
     0
 75
     1
176
     0
175
     1
176
     0
 42
1.0
176
     0
 92
        9
176
     2
 66
     7
176
     0
 43
1.0
176
     0
 76
     1
176
     0
 77
     6
176
     0
 78
     2
176
     0
 67
     7
176
     0
 79
     5
176
     0
170
     0
176
     0
171
     0
176
     0
290
     0
176
     0
 93
        1
176
     0
 44
0.0
176
     0
173
     0
176
     0
  0
VISUALSTYLE
  5
33
102
{ACAD_REACTORS
330
2A
102
}
330
2A
100
AcDbVisualStyle
  2
Realistic
 70
     8
177
     2
291
     0
 71
     2
176
     1
 72
     3
176
     1
 73
     0
176
     1
 90
        2
176
     1
 40
0.6
176
     1
 41
30.0
176
     1
 62
     5
 63
     7
421
 16777215
176
     1
 74
     0
176
     1
 91
        0
176
     1
 64
     7
176
     1
 65
   257
176
     1
 75
     1
176
     1
175
     1
176
     1
 42
1.0
176
     1
 92
        8
176
     1
 66
   257
176
     1
 43
1.0
176
     1
 76
     1
176
     1
 77
     6
176
     1
 78
     2
176
     1
 67
     7
176
     1
 79
     3
176
     1
170
     0
176
     1
171
     0
176
     1
290
     0
176
     1
 93
       13
176
     1
 44
0.0
176
     1
173
     0
176
     1
  0
VISUALSTYLE
  5
42
102
{ACAD_REACTORS
330
2A
102
}
330
2A
100
AcDbVisualStyle
  2
Shaded
 70
    27
177
     2
291
     0
 71
     2
176
     1
 72
     2
176
     1
 73
     1
176
     1
 90
        2
176
     1
 40
0.6
176
     1
 41
30.0
176
     1
 62
     5
 63
     7
421
 16777215
176
     1
 74
     0
176
     1
 91
        4
176
     1
 64
     7
176
     1
 65
   257
176
     1
 75
     1
176
     1
175
     1
176
     1
 42
1.0
176
     1
 92
        8
176
     1
 66
   257
176
     1
 43
1.0
176
     1
 76
     1
176
     1
 77
     6
176
     1
 78
     2
176
     1
 67
     8
425
  7895160
176
     1
 79
     3
176
     1
170
     0
176
     1
171
     0
176
     1
290
     0
176
     1
 93
        5
176
     1
 44
0.0
176
     1
173
     0
176
     1
  0
VISUALSTYLE
  5
41
102
{ACAD_REACTORS
330
2A
102
}
330
2A
100
AcDbVisualStyle
  2
Shaded with edges
 70
    26
177
     2
291
     0
 71
     2
176
     1
 72
     2
176
     1
 73
     1
176
     1
 90
        2
176
     1
 40
0.6
176
     1
 41
30.0
176
     1
 62
     5
 63
     7
421
 16777215
176
     1
 74
     1
176
     1
 91
       10
176
     1
 64
     7
176
     1
 65
   257
176
     1
 75
     2
176
     1
175
     1
176
     1
 42
1.0
176
     1
 92
        8
176
     1
 66
   257
176
     1
 43
1.0
176
     1
 76
     1
176
     1
 77
     6
176
     1
 78
     2
176
     1
 67
     7
176
     1
 79
     3
176
     1
170
     0
176
     1
171
     0
176
     1
290
     0
176
     1
 93
        5
176
     1
 44
0.0
176
     1
173
     0
176
     1
  0
VISUALSTYLE
  5
3E
102
{ACAD_REACTORS
330
2A
102
}
330
2A
100
AcDbVisualStyle
  2
Shades of Gray
 70
    23
177
     2
291
     0
 71
     2
176
     1
 72
     2
176
     1
 73
     3
176
     1
 90
        0
176
     1
 40
0.6
176
     1
 41
30.0
176
     1
 62
     5
 63
     7
421
 16777215
176
     1
 74
     2
176
     1
 91
        2
176
     1
 64
     7
176
     1
 65
     7
176
     1
 75
     1
176
     1
175
     1
176
     1
 42
40.0
176
     1
 92
        8
176
     1
 66
     7
176
     1
 43
1.0
176
     1
 76
     1
176
     1
 77
     6
176
     1
 78
     2
176
     1
 67
     7
176
     1
 79
     3
176
     1
170
     0
176
     1
171
     0
176
     1
290
     0
176
     1
 93
        1
176
     1
 44
0.0
176
     1
173
     0
176
     1
  0
VISUALSTYLE
  5
3F
102
{ACAD_REACTORS
330
2A
102
}
330
2A
100
AcDbVisualStyle
  2
Sketchy
 70
    24
177
     2
291
     0
 71
     1
176
     1
 72
     2
176
     1
 73
     2
176
     1
 90
        0
176
     1
 40
0.6
176
     1
 41
30.0
176
     1
 62
     5
 63
     7
421
 16777215
176
     1
 74
     2
176
     1
 91
        2
176
     1
 64
     7
176
     1
 65
     7
176
     1
 75
     1
176
     1
175
     1
176
     1
 42
40.0
176
     1
 92
       11
176
     1
 66
     7
176
     1
 43
1.0
176
     1
 76
     1
176
     1
 77
     6
176
     1
 78
     2
176
     1
 67
     7
176
     1
 79
     6
176
     1
170
     0
176
     1
171
     0
176
     1
290
     0
176
     1
 93
        1
176
     1
 44
0.0
176
     1
173
     0
176
     1
  0
VISUALSTYLE
  5
37
102
{ACAD_REACTORS
330
2A
102
}
330
2A
100
AcDbVisualStyle
  2
Thicken
 70
    13
177
     2
291
     1
 71
     2
176
     1
 72
     2
176
     1
 73
     0
176
     1
 90
        0
176
     1
 40
0.6
176
     1
 41
30.0
176
     1
 62
     5
 63
     7
421
 16777215
176
     1
 74
     1
176
     1
 91
        4
176
     1
 64
     7
176
     1
 65
   257
176
     1
 75
     1
176
     1
175
     1
176
     1
 42
1.0
176
     1
 92
       12
176
     1
 66
     7
176
     1
 43
1.0
176
     1
 76
     1
176
     1
 77
     6
176
     1
 78
     2
176
     1
 67
     7
176
     1
 79
     5
176
     1
170
     0
176
     1
171
     0
176
     1
290
     0
176
     1
 93
        1
176
     1
 44
0.0
176
     1
173
     0
176
     1
  0
VISUALSTYLE
  5
30
102
{ACAD_REACTORS
330
2A
102
}
330
2A
100
AcDbVisualStyle
  2
Wireframe
 70
     5
177
     2
291
     0
 71
     0
176
     1
 72
     2
176
     1
 73
     0
176
     1
 90
        0
176
     1
 40
0.6
176
     1
 41
30.0
176
     1
 62
     5
 63
     7
421
 16777215
176
     1
 74
     1
176
     1
 91
        4
176
     1
 64
     7
176
     1
 65
   257
176
     1
 75
     1
176
     1
175
     1
176
     1
 42
1.0
176
     1
 92
        0
176
     1
 66
   257
176
     1
 43
1.0
176
     1
 76
     1
176
     1
 77
     6
176
     1
 78
     2
176
     1
 67
     7
176
     1
 79
     3
176
     1
170
     0
176
     1
171
     0
176
     1
290
     0
176
     1
 93
        1
176
     1
 44
0.0
176
     1
173
     0
176
     1
  0
VISUALSTYLE
  5
40
102
{ACAD_REACTORS
330
2A
102
}
330
2A
100
AcDbVisualStyle
  2
X-Ray
 70
    25
177
     2
291
     0
 71
     2
176
     1
 72
     2
176
     1
 73
     1
176
     1
 90
        1
176
     1
 40
0.5
176
     1
 41
30.0
176
     1
 62
     5
 63
     7
421
 16777215
176
     1
 74
     1
176
     1
 91
        0
176
     1
 64
     7
176
     1
 65
   257
176
     1
 75
     1
176
     1
175
     1
176
     1
 42
1.0
176
     1
 92
        8
176
     1
 66
     7
176
     1
 43
1.0
176
     1
 76
     1
176
     1
 77
     6
176
     1
 78
     2
176
     1
 67
     7
176
     1
 79
     3
176
     1
170
     0
176
     1
171
     0
176
     1
290
     0
176
     1
 93
       13
176
     1
 44
0.0
176
     1
173
     0
176
     1
  0
DICTIONARYVAR
  5
347
102
{ACAD_REACTORS
330
346
102
}
330
346
100
DictionaryVariables
280
     0
  1
1:1
  0
DICTIONARYVAR
  5
34F
102
{ACAD_REACTORS
330
346
102
}
330
346
100
DictionaryVariables
280
     0
  1
3.500000
  0
DICTIONARYVAR
  5
350
102
{ACAD_REACTORS
330
346
102
}
330
346
100
DictionaryVariables
280
     0
  1
acadiso.lin
  0
DICTIONARYVAR
  5
34C
102
{ACAD_REACTORS
330
346
102
}
330
346
100
DictionaryVariables
280
     0
  1
Standard
  0
DICTIONARYVAR
  5
34B
102
{ACAD_REACTORS
330
346
102
}
330
346
100
DictionaryVariables
280
     0
  1
Standard
  0
DICTIONARY
  5
348
330
6A
100
AcDbDictionary
280
     1
281
     1
  3
ACAD_ROUNDTRIP_2008_TABLESTYLE_CELLSTYLEMAP
360
349
  0
CELLSTYLEMAP
  5
349
102
{ACAD_REACTORS
330
348
102
}
330
348
100
AcDbCellStyleMap
 90
        3
300
CELLSTYLE
  1
TABLEFORMAT_BEGIN
 90
        5
170
     1
 91
        0
 92
    32768
 62
   257
 93
        1
300
CONTENTFORMAT
  1
CONTENTFORMAT_BEGIN
 90
        0
 91
        0
 92
        4
 93
        0
300

 40
0.0
140
1.0
 94
        5
 62
     0
340
11
144
6.0
309
CONTENTFORMAT_END
171
     1
301
MARGIN
  1
CELLMARGIN_BEGIN
 40
1.5
 40
1.5
 40
1.5
 40
1.5
 40
1.5
 40
1.5
309
CELLMARGIN_END
 94
        6
 95
        1
302
GRIDFORMAT
  1
GRIDFORMAT_BEGIN
 90
        0
 91
        1
 62
     0
 92
       -2
340
14
 93
        0
 40
0.045
309
GRIDFORMAT_END
 95
        2
302
GRIDFORMAT
  1
GRIDFORMAT_BEGIN
 90
        0
 91
        1
 62
     0
 92
       -2
340
14
 93
        0
 40
0.045
309
GRIDFORMAT_END
 95
        4
302
GRIDFORMAT
  1
GRIDFORMAT_BEGIN
 90
        0
 91
        1
 62
     0
 92
       -2
340
14
 93
        0
 40
0.045
309
GRIDFORMAT_END
 95
        8
302
GRIDFORMAT
  1
GRIDFORMAT_BEGIN
 90
        0
 91
        1
 62
     0
 92
       -2
340
14
 93
        0
 40
0.045
309
GRIDFORMAT_END
 95
       16
302
GRIDFORMAT
  1
GRIDFORMAT_BEGIN
 90
        0
 91
        1
 62
     0
 92
       -2
340
14
 93
        0
 40
0.045
309
GRIDFORMAT_END
 95
       32
302
GRIDFORMAT
  1
GRIDFORMAT_BEGIN
 90
        0
 91
        1
 62
     0
 92
       -2
340
14
 93
        0
 40
0.045
309
GRIDFORMAT_END
309
TABLEFORMAT_END
  1
CELLSTYLE_BEGIN
 90
        1
 91
        1
300
_TITLE
309
CELLSTYLE_END
300
CELLSTYLE
  1
TABLEFORMAT_BEGIN
 90
        5
170
     1
 91
        0
 92
        0
 62
   257
 93
        1
300
CONTENTFORMAT
  1
CONTENTFORMAT_BEGIN
 90
        0
 91
        0
 92
        4
 93
        0
300

 40
0.0
140
1.0
 94
        5
 62
     0
340
11
144
4.5
309
CONTENTFORMAT_END
171
     1
301
MARGIN
  1
CELLMARGIN_BEGIN
 40
1.5
 40
1.5
 40
1.5
 40
1.5
 40
1.5
 40
1.5
309
CELLMARGIN_END
 94
        6
 95
        1
302
GRIDFORMAT
  1
GRIDFORMAT_BEGIN
 90
        0
 91
        1
 62
     0
 92
       -2
340
14
 93
        0
 40
0.045
309
GRIDFORMAT_END
 95
        2
302
GRIDFORMAT
  1
GRIDFORMAT_BEGIN
 90
        0
 91
        1
 62
     0
 92
       -2
340
14
 93
        0
 40
0.045
309
GRIDFORMAT_END
 95
        4
302
GRIDFORMAT
  1
GRIDFORMAT_BEGIN
 90
        0
 91
        1
 62
     0
 92
       -2
340
14
 93
        0
 40
0.045
309
GRIDFORMAT_END
 95
        8
302
GRIDFORMAT
  1
GRIDFORMAT_BEGIN
 90
        0
 91
        1
 62
     0
 92
       -2
340
14
 93
        0
 40
0.045
309
GRIDFORMAT_END
 95
       16
302
GRIDFORMAT
  1
GRIDFORMAT_BEGIN
 90
        0
 91
        1
 62
     0
 92
       -2
340
14
 93
        0
 40
0.045
309
GRIDFORMAT_END
 95
       32
302
GRIDFORMAT
  1
GRIDFORMAT_BEGIN
 90
        0
 91
        1
 62
     0
 92
       -2
340
14
 93
        0
 40
0.045
309
GRIDFORMAT_END
309
TABLEFORMAT_END
  1
CELLSTYLE_BEGIN
 90
        2
 91
        1
300
_HEADER
309
CELLSTYLE_END
300
CELLSTYLE
  1
TABLEFORMAT_BEGIN
 90
        5
170
     1
 91
        0
 92
        0
 62
   257
 93
        1
300
CONTENTFORMAT
  1
CONTENTFORMAT_BEGIN
 90
        0
 91
        0
 92
        4
 93
        0
300

 40
0.0
140
1.0
 94
        2
 62
     0
340
11
144
4.5
309
CONTENTFORMAT_END
171
     1
301
MARGIN
  1
CELLMARGIN_BEGIN
 40
1.5
 40
1.5
 40
1.5
 40
1.5
 40
1.5
 40
1.5
309
CELLMARGIN_END
 94
        6
 95
        1
302
GRIDFORMAT
  1
GRIDFORMAT_BEGIN
 90
        0
 91
        1
 62
     0
 92
       -2
340
14
 93
        0
 40
0.045
309
GRIDFORMAT_END
 95
        2
302
GRIDFORMAT
  1
GRIDFORMAT_BEGIN
 90
        0
 91
        1
 62
     0
 92
       -2
340
14
 93
        0
 40
0.045
309
GRIDFORMAT_END
 95
        4
302
GRIDFORMAT
  1
GRIDFORMAT_BEGIN
 90
        0
 91
        1
 62
     0
 92
       -2
340
14
 93
        0
 40
0.045
309
GRIDFORMAT_END
 95
        8
302
GRIDFORMAT
  1
GRIDFORMAT_BEGIN
 90
        0
 91
        1
 62
     0
 92
       -2
340
14
 93
        0
 40
0.045
309
GRIDFORMAT_END
 95
       16
302
GRIDFORMAT
  1
GRIDFORMAT_BEGIN
 90
        0
 91
        1
 62
     0
 92
       -2
340
14
 93
        0
 40
0.045
309
GRIDFORMAT_END
 95
       32
302
GRIDFORMAT
  1
GRIDFORMAT_BEGIN
 90
        0
 91
        1
 62
     0
 92
       -2
340
14
 93
        0
 40
0.045
309
GRIDFORMAT_END
309
TABLEFORMAT_END
  1
CELLSTYLE_BEGIN
 90
        3
 91
        2
300
_DATA
309
CELLSTYLE_END
  0
ENDSEC
  0
EOF
