  0
SECTION
  2
HEADER
  9
$ACADVER
  1
AC1024
  9
$ACADMAINTVER
 70
     6
  9
$DWGCODEPAGE
  3
ANSI_1252
  9
$INSBASE
 10
0.0
 20
0.0
 30
0.0
  9
$EXTMIN
 10
0.0
 20
0.0
 30
0.0
  9
$EXTMAX
 10
210.0
 20
297.0
 30
0.0
  9
$LIMMIN
 10
0.0
 20
0.0
  9
$LIMMAX
 10
210.0
 20
297.0
  9
$ORTHOMODE
 70
     0
  9
$REGENMODE
 70
     1
  9
$FILLMODE
 70
     1
  9
$QTEXTMODE
 70
     0
  9
$MIRRTEXT
 70
     1
  9
$LTSCALE
 40
1.0
  9
$ATTMODE
 70
     1
  9
$TEXTSIZE
 40
2.0
  9
$TRACEWID
 40
1.0
  9
$TEXTSTYLE
  7
Standard
  9
$CLAYER
  8
0
  9
$CELTYPE
  6
ByLayer
  9
$CECOLOR
 62
   256
  9
$CELTSCALE
 40
1.0
  9
$DISPSILH
 70
     0
  9
$DIMSCALE
 40
1.0
  9
$DIMASZ
 40
2.8
  9
$DIMEXO
 40
1.0
  9
$DIMDLI
 40
3.75
  9
$DIMRND
 40
0.0
  9
$DIMDLE
 40
0.0
  9
$DIMEXE
 40
1.0
  9
$DIMTP
 40
0.0
  9
$DIMTM
 40
0.0
  9
$DIMTXT
 40
2.0
  9
$DIMCEN
 40
2.5
  9
$DIMTSZ
 40
0.0
  9
$DIMTOL
 70
     0
  9
$DIMLIM
 70
     0
  9
$DIMTIH
 70
     1
  9
$DIMTOH
 70
     1
  9
$DIMSE1
 70
     0
  9
$DIMSE2
 70
     0
  9
$DIMTAD
 70
     1
  9
$DIMZIN
 70
     0
  9
$DIMBLK
  1

  9
$DIMASO
 70
     1
  9
$DIMSHO
 70
     1
  9
$DIMPOST
  1

  9
$DIMAPOST
  1

  9
$DIMALT
 70
     0
  9
$DIMALTD
 70
     3
  9
$DIMALTF
 40
0.0393700787
  9
$DIMLFAC
 40
1.0
  9
$DIMTOFL
 70
     1
  9
$DIMTVP
 40
0.0
  9
$DIMTIX
 70
     0
  9
$DIMSOXD
 70
     0
  9
$DIMSAH
 70
     0
  9
$DIMBLK1
  1

  9
$DIMBLK2
  1

  9
$DIMSTYLE
  2
ISO-25
  9
$DIMCLRD
 70
     0
  9
$DIMCLRE
 70
     0
  9
$DIMCLRT
 70
     0
  9
$DIMTFAC
 40
1.0
  9
$DIMGAP
 40
1.524
  9
$DIMJUST
 70
     0
  9
$DIMSD1
 70
     0
  9
$DIMSD2
 70
     0
  9
$DIMTOLJ
 70
     0
  9
$DIMTZIN
 70
     0
  9
$DIMALTZ
 70
     0
  9
$DIMALTTZ
 70
     0
  9
$DIMUPT
 70
     0
  9
$DIMDEC
 70
     2
  9
$DIMTDEC
 70
     2
  9
$DIMALTU
 70
     2
  9
$DIMALTTD
 70
     3
  9
$DIMTXSTY
  7
Standard
  9
$DIMAUNIT
 70
     0
  9
$DIMADEC
 70
     2
  9
$DIMALTRND
 40
0.0
  9
$DIMAZIN
 70
     0
  9
$DIMDSEP
 70
    44
  9
$DIMATFIT
 70
     3
  9
$DIMFRAC
 70
     0
  9
$DIMLDRBLK
  1

  9
$DIMLUNIT
 70
     2
  9
$DIMLWD
 70
    -2
  9
$DIMLWE
 70
    -2
  9
$DIMTMOVE
 70
     0
  9
$DIMFXL
 40
1.0
  9
$DIMFXLON
 70
     0
  9
$DIMJOGANG
 40
0.7853981634
  9
$DIMTFILL
 70
     0
  9
$DIMTFILLCLR
 70
     0
  9
$DIMARCSYM
 70
     0
  9
$DIMLTYPE
  6

  9
$DIMLTEX1
  6

  9
$DIMLTEX2
  6

  9
$DIMTXTDIRECTION
 70
     0
  9
$LUNITS
 70
     2
  9
$LUPREC
 70
     2
  9
$SKETCHINC
 40
1.0
  9
$FILLETRAD
 40
10.0
  9
$AUNITS
 70
     0
  9
$AUPREC
 70
     2
  9
$MENU
  1
.
  9
$ELEVATION
 40
0.0
  9
$PELEVATION
 40
0.0
  9
$THICKNESS
 40
0.0
  9
$LIMCHECK
 70
     0
  9
$CHAMFERA
 40
0.0
  9
$CHAMFERB
 40
0.0
  9
$CHAMFERC
 40
0.0
  9
$CHAMFERD
 40
0.0
  9
$SKPOLY
 70
     0
  9
$TDCREATE
 40
2458515.445621979
  9
$TDUCREATE
 40
2458515.403955312
  9
$TDUPDATE
 40
2458515.445623241
  9
$TDUUPDATE
 40
2458515.403956574
  9
$TDINDWG
 40
0.0000000116
  9
$TDUSRTIMER
 40
0.0000000116
  9
$USRTIMER
 70
     1
  9
$ANGBASE
 50
0.0
  9
$ANGDIR
 70
     0
  9
$PDMODE
 70
     0
  9
$PDSIZE
 40
-1.0
  9
$PLINEWID
 40
0.0
  9
$SPLFRAME
 70
     0
  9
$SPLINETYPE
 70
     6
  9
$SPLINESEGS
 70
     8
  9
$HANDSEED
  5
316
  9
$SURFTAB1
 70
     6
  9
$SURFTAB2
 70
     6
  9
$SURFTYPE
 70
     6
  9
$SURFU
 70
     6
  9
$SURFV
 70
     6
  9
$UCSBASE
  2

  9
$UCSNAME
  2

  9
$UCSORG
 10
0.0
 20
0.0
 30
0.0
  9
$UCSXDIR
 10
1.0
 20
0.0
 30
0.0
  9
$UCSYDIR
 10
0.0
 20
1.0
 30
0.0
  9
$UCSORTHOREF
  2

  9
$UCSORTHOVIEW
 70
     0
  9
$UCSORGTOP
 10
0.0
 20
0.0
 30
0.0
  9
$UCSORGBOTTOM
 10
0.0
 20
0.0
 30
0.0
  9
$UCSORGLEFT
 10
0.0
 20
0.0
 30
0.0
  9
$UCSORGRIGHT
 10
0.0
 20
0.0
 30
0.0
  9
$UCSORGFRONT
 10
0.0
 20
0.0
 30
0.0
  9
$UCSORGBACK
 10
0.0
 20
0.0
 30
0.0
  9
$PUCSBASE
  2

  9
$PUCSNAME
  2

  9
$PUCSORG
 10
0.0
 20
0.0
 30
0.0
  9
$PUCSXDIR
 10
1.0
 20
0.0
 30
0.0
  9
$PUCSYDIR
 10
0.0
 20
1.0
 30
0.0
  9
$PUCSORTHOREF
  2

  9
$PUCSORTHOVIEW
 70
     0
  9
$PUCSORGTOP
 10
0.0
 20
0.0
 30
0.0
  9
$PUCSORGBOTTOM
 10
0.0
 20
0.0
 30
0.0
  9
$PUCSORGLEFT
 10
0.0
 20
0.0
 30
0.0
  9
$PUCSORGRIGHT
 10
0.0
 20
0.0
 30
0.0
  9
$PUCSORGFRONT
 10
0.0
 20
0.0
 30
0.0
  9
$PUCSORGBACK
 10
0.0
 20
0.0
 30
0.0
  9
$USERI1
 70
     0
  9
$USERI2
 70
     0
  9
$USERI3
 70
     0
  9
$USERI4
 70
     0
  9
$USERI5
 70
     0
  9
$USERR1
 40
0.0
  9
$USERR2
 40
0.0
  9
$USERR3
 40
0.0
  9
$USERR4
 40
0.0
  9
$USERR5
 40
0.0
  9
$WORLDVIEW
 70
     1
  9
$SHADEDGE
 70
     3
  9
$SHADEDIF
 70
    70
  9
$TILEMODE
 70
     1
  9
$MAXACTVP
 70
    64
  9
$PINSBASE
 10
0.0
 20
0.0
 30
0.0
  9
$PLIMCHECK
 70
     0
  9
$PEXTMIN
 10
1.0000000000E+20
 20
1.0000000000E+20
 30
1.0000000000E+20
  9
$PEXTMAX
 10
-1.0000000000E+20
 20
-1.0000000000E+20
 30
-1.0000000000E+20
  9
$PLIMMIN
 10
0.0
 20
0.0
  9
$PLIMMAX
 10
420.0
 20
297.0
  9
$UNITMODE
 70
     0
  9
$VISRETAIN
 70
     1
  9
$PLINEGEN
 70
     0
  9
$PSLTSCALE
 70
     1
  9
$TREEDEPTH
 70
  3020
  9
$CMLSTYLE
  2
Standard
  9
$CMLJUST
 70
     0
  9
$CMLSCALE
 40
20.0
  9
$PROXYGRAPHICS
 70
     1
  9
$MEASUREMENT
 70
     1
  9
$CELWEIGHT
370
    -1
  9
$ENDCAPS
280
     0
  9
$JOINSTYLE
280
     0
  9
$LWDISPLAY
290
     1
  9
$INSUNITS
 70
     4
  9
$HYPERLINKBASE
  1

  9
$STYLESHEET
  1

  9
$XEDIT
290
     1
  9
$CEPSNTYPE
380
     0
  9
$PSTYLEMODE
290
     1
  9
$FINGERPRINTGUID
  2
{75b065d3-9fc3-4de5-a2d2-6792b0a7511d}
  9
$VERSIONGUID
  2
{FAEB1C32-E019-11D5-929B-00C0DF256EC4}
  9
$EXTNAMES
290
     1
  9
$PSVPSCALE
 40
0.0
  9
$OLESTARTUP
290
     0
  9
$SORTENTS
280
   127
  9
$INDEXCTL
280
     0
  9
$HIDETEXT
280
     1
  9
$XCLIPFRAME
280
     2
  9
$HALOGAP
280
     0
  9
$OBSCOLOR
 70
   257
  9
$OBSLTYPE
280
     0
  9
$INTERSECTIONDISPLAY
280
     0
  9
$INTERSECTIONCOLOR
 70
   257
  9
$DIMASSOC
280
     2
  9
$PROJECTNAME
  1

  9
$CAMERADISPLAY
290
     0
  9
$LENSLENGTH
 40
50.0
  9
$CAMERAHEIGHT
 40
0.0
  9
$STEPSPERSEC
 40
2.0
  9
$STEPSIZE
 40
6.0
  9
$3DDWFPREC
 40
2.0
  9
$PSOLWIDTH
 40
5.0
  9
$PSOLHEIGHT
 40
80.0
  9
$LOFTANG1
 40
1.5707963268
  9
$LOFTANG2
 40
1.5707963268
  9
$LOFTMAG1
 40
0.0
  9
$LOFTMAG2
 40
0.0
  9
$LOFTPARAM
 70
     7
  9
$LOFTNORMALS
280
     1
  9
$LATITUDE
 40
37.795
  9
$LONGITUDE
 40
-122.394
  9
$NORTHDIRECTION
 40
0.0
  9
$TIMEZONE
 70
 -8000
  9
$LIGHTGLYPHDISPLAY
280
     1
  9
$TILEMODELIGHTSYNCH
280
     1
  9
$CMATERIAL
347
44
  9
$SOLIDHIST
280
     0
  9
$SHOWHIST
280
     1
  9
$DWFFRAME
280
     2
  9
$DGNFRAME
280
     2
  9
$REALWORLDSCALE
290
     1
  9
$INTERFERECOLOR
 62
   256
  9
$CSHADOW
280
     0
  9
$SHADOWPLANELOCATION
 40
0.0
  0
ENDSEC
  0
SECTION
  2
CLASSES
  0
CLASS
  1
ACDBDICTIONARYWDFLT
  2
AcDbDictionaryWithDefault
  3
ObjectDBX Classes
 90
        0
 91
        3
280
     0
281
     0
  0
CLASS
  1
VISUALSTYLE
  2
AcDbVisualStyle
  3
ObjectDBX Classes
 90
     4095
 91
        3
280
     0
281
     0
  0
CLASS
  1
MATERIAL
  2
AcDbMaterial
  3
ObjectDBX Classes
 90
     1153
 91
        3
280
     0
281
     0
  0
CLASS
  1
SCALE
  2
AcDbScale
  3
ObjectDBX Classes
 90
     1153
 91
        3
280
     0
281
     0
  0
CLASS
  1
TABLESTYLE
  2
AcDbTableStyle
  3
ObjectDBX Classes
 90
     4095
 91
        3
280
     0
281
     0
  0
CLASS
  1
MLEADERSTYLE
  2
AcDbMLeaderStyle
  3
ACDB_MLEADERSTYLE_CLASS
 90
     4095
 91
        3
280
     0
281
     0
  0
CLASS
  1
SUN
  2
AcDbSun
  3
SCENEOE
 90
     1153
 91
        3
280
     0
281
     0
  0
CLASS
  1
DICTIONARYVAR
  2
AcDbDictionaryVar
  3
ObjectDBX Classes
 90
        0
 91
        3
280
     0
281
     0
  0
CLASS
  1
CELLSTYLEMAP
  2
AcDbCellStyleMap
  3
ObjectDBX Classes
 90
     1152
 91
        3
280
     0
281
     0
  0
ENDSEC
  0
SECTION
  2
TABLES
  0
TABLE
  2
VPORT
  5
8
330
0
100
AcDbSymbolTable
 70
     1
  0
VPORT
  5
29
330
8
100
AcDbSymbolTableRecord
100
AcDbViewportTableRecord
  2
*Active
 70
     0
 10
0.0
 20
0.0
 11
1.0
 21
1.0
 12
105.0
 22
148.5
 13
0.0
 23
0.0
 14
10.0
 24
10.0
 15
10.0
 25
10.0
 16
0.0
 26
0.0
 36
1.0
 17
0.0
 27
0.0
 37
0.0
 40
297.0
 41
0.7070707071
 42
50.0
 43
0.0
 44
0.0
 50
0.0
 51
0.0
 71
     0
 72
  2000
 73
     1
 74
     3
 75
     0
 76
     0
 77
     0
 78
     0
281
     0
 65
     1
110
0.0
120
0.0
130
0.0
111
1.0
121
0.0
131
0.0
112
0.0
122
1.0
132
0.0
 79
     0
146
0.0
348
2F
 60
     3
 61
     5
292
     1
282
     1
141
0.0
142
0.0
 63
   250
361
6D
  0
ENDTAB
  0
TABLE
  2
LTYPE
  5
5
330
0
100
AcDbSymbolTable
 70
     6
  0
LTYPE
  5
14
330
5
100
AcDbSymbolTableRecord
100
AcDbLinetypeTableRecord
  2
ByBlock
 70
     0
  3

 72
    65
 73
     0
 40
0.0
  0
LTYPE
  5
15
330
5
100
AcDbSymbolTableRecord
100
AcDbLinetypeTableRecord
  2
ByLayer
 70
     0
  3

 72
    65
 73
     0
 40
0.0
  0
LTYPE
  5
16
330
5
100
AcDbSymbolTableRecord
100
AcDbLinetypeTableRecord
  2
Continuous
 70
     0
  3
Solid line
 72
    65
 73
     0
 40
0.0
  0
LTYPE
  5
6E
330
5
100
AcDbSymbolTableRecord
100
AcDbLinetypeTableRecord
  2
HIDDEN
 70
     0
  3
Hidden __ __ __ __ __ __ __ __ __ __ __ __ __ __
 72
    65
 73
     2
 40
1.905
 49
1.27
 74
     0
 49
-0.635
 74
     0
  0
LTYPE
  5
6F
330
5
100
AcDbSymbolTableRecord
100
AcDbLinetypeTableRecord
  2
PHANTOM
 70
     0
  3
Phantom ______  __  __  ______  __  __  ______
 72
    65
 73
     6
 40
12.7
 49
6.35
 74
     0
 49
-1.27
 74
     0
 49
1.27
 74
     0
 49
-1.27
 74
     0
 49
1.27
 74
     0
 49
-1.27
 74
     0
  0
LTYPE
  5
70
330
5
100
AcDbSymbolTableRecord
100
AcDbLinetypeTableRecord
  2
CENTER
 70
     0
  3
Center ____ _ ____ _ ____ _ ____ _ ____ _ ____
 72
    65
 73
     4
 40
10.16
 49
6.35
 74
     0
 49
-1.27
 74
     0
 49
1.27
 74
     0
 49
-1.27
 74
     0
  0
LTYPE
  5
71
330
5
100
AcDbSymbolTableRecord
100
AcDbLinetypeTableRecord
  2
CENTERX2
 70
     0
  3
Center (2x) ________  __  ________  __  _____
 72
    65
 73
     4
 40
20.32
 49
12.7
 74
     0
 49
-2.54
 74
     0
 49
2.54
 74
     0
 49
-2.54
 74
     0
  0
LTYPE
  5
72
330
5
100
AcDbSymbolTableRecord
100
AcDbLinetypeTableRecord
  2
DOT2
 70
     0
  3
Dot (.5x) ........................................
 72
    65
 73
     2
 40
0.635
 49
0.0
 74
     0
 49
-0.635
 74
     0
  0
ENDTAB
  0
TABLE
  2
LAYER
  5
2
330
0
100
AcDbSymbolTable
 70
     1
  0
LAYER
  5
10
330
2
100
AcDbSymbolTableRecord
100
AcDbLayerTableRecord
  2
0
 70
     0
 62
     7
  6
Continuous
370
    -3
390
F
347
46
  0
ENDTAB
  0
TABLE
  2
STYLE
  5
3
330
0
100
AcDbSymbolTable
 70
     1
  0
STYLE
  5
11
330
3
100
AcDbSymbolTableRecord
100
AcDbTextStyleTableRecord
  2
Standard
 70
     0
 40
0.0
 41
1.0
 50
0.0
 71
     0
 42
2.0
  3
txt
  4

  0
ENDTAB
  0
TABLE
  2
VIEW
  5
6
330
0
100
AcDbSymbolTable
 70
     0
  0
ENDTAB
  0
TABLE
  2
UCS
  5
7
330
0
100
AcDbSymbolTable
 70
     0
  0
ENDTAB
  0
TABLE
  2
APPID
  5
9
330
0
100
AcDbSymbolTable
 70
     1
  0
APPID
  5
12
330
9
100
AcDbSymbolTableRecord
100
AcDbRegAppTableRecord
  2
ACAD
 70
     0
  0
ENDTAB
  0
TABLE
  2
DIMSTYLE
  5
A
330
0
100
AcDbSymbolTable
 70
     1
100
AcDbDimStyleTable
  0
DIMSTYLE
105
27
330
A
100
AcDbSymbolTableRecord
100
AcDbDimStyleTableRecord
  2
ISO-25
 70
     0
 41
2.5
 42
0.625
 43
3.75
 44
1.25
 73
     0
 74
     0
 77
     1
 78
     8
140
2.5
141
2.5
143
0.0393700787
147
0.625
171
     3
172
     1
178
     0
271
     2
272
     2
274
     3
278
    44
283
     0
284
     8
340
11
  0
ENDTAB
  0
TABLE
  2
BLOCK_RECORD
  5
1
330
0
100
AcDbSymbolTable
 70
     1
  0
BLOCK_RECORD
  5
1F
330
1
100
AcDbSymbolTableRecord
100
AcDbBlockTableRecord
  2
*Model_Space
340
22
 70
     0
280
     1
281
     0
  0
BLOCK_RECORD
  5
1B
330
1
100
AcDbSymbolTableRecord
100
AcDbBlockTableRecord
  2
*Paper_Space
340
1E
 70
     0
280
     1
281
     0
  0
BLOCK_RECORD
  5
23
330
1
100
AcDbSymbolTableRecord
100
AcDbBlockTableRecord
  2
*Paper_Space0
340
26
 70
     0
280
     1
281
     0
  0
ENDTAB
  0
ENDSEC
  0
SECTION
  2
BLOCKS
  0
BLOCK
  5
20
330
1F
100
AcDbEntity
  8
0
100
AcDbBlockBegin
  2
*Model_Space
 70
     0
 10
0.0
 20
0.0
 30
0.0
  3
*Model_Space
  1

  0
ENDBLK
  5
21
330
1F
100
AcDbEntity
  8
0
100
AcDbBlockEnd
  0
BLOCK
  5
1C
330
1B
100
AcDbEntity
 67
     1
  8
0
100
AcDbBlockBegin
  2
*Paper_Space
 70
     0
 10
0.0
 20
0.0
 30
0.0
  3
*Paper_Space
  1

  0
ENDBLK
  5
1D
330
1B
100
AcDbEntity
 67
     1
  8
0
100
AcDbBlockEnd
  0
BLOCK
  5
24
330
23
100
AcDbEntity
  8
0
100
AcDbBlockBegin
  2
*Paper_Space0
 70
     0
 10
0.0
 20
0.0
 30
0.0
  3
*Paper_Space0
  1

  0
ENDBLK
  5
25
330
23
100
AcDbEntity
  8
0
100
AcDbBlockEnd
  0
ENDSEC
  0
SECTION
  2
ENTITIES
  0
LINE
  5
73
330
1F
100
AcDbEntity
  8
0
  6
Continuous
 62
     7
100
AcDbLine
 10
186.8568151909
 20
168.3659794209
 30
0.0
 11
186.4640263674
 21
183.3659794209
 31
0.0
  0
LINE
  5
74
330
1F
100
AcDbEntity
  8
0
  6
Continuous
 62
     7
100
AcDbLine
 10
47.2496040145
 20
183.3659794209
 30
0.0
 11
46.8568151909
 21
168.3659794209
 31
0.0
  0
LINE
  5
75
330
1F
100
AcDbEntity
  8
0
  6
Continuous
 62
     7
100
AcDbLine
 10
97.6927064692
 20
183.4659794209
 30
0.0
 11
97.6927064692
 21
183.4784794209
 31
0.0
  0
LINE
  5
76
330
1F
100
AcDbEntity
  8
0
  6
Continuous
 62
     7
100
AcDbLine
 10
95.0660670469
 20
183.4659794209
 30
0.0
 11
95.0660670469
 21
183.4784794209
 31
0.0
  0
ARC
  5
77
330
1F
100
AcDbEntity
  8
0
  6
Continuous
 62
     7
100
AcDbCircle
 10
256.4613015242
 20
274.8954973676
 30
0.0
 40
115.0
100
AcDbArc
 50
184.7532866628
 51
225.1497378256
  0
ARC
  5
78
330
1F
100
AcDbEntity
  8
0
  6
Continuous
 62
     7
100
AcDbCircle
 10
-22.7476711423
 20
274.8954973676
 30
0.0
 40
115.0
100
AcDbArc
 50
314.8502621744
 51
355.2467133372
  0
LINE
  5
79
330
1F
100
AcDbEntity
  8
0
  6
Continuous
 62
     7
100
AcDbLine
 10
86.2907177615
 20
183.4659794209
 30
0.0
 11
86.2907177615
 21
183.4784794209
 31
0.0
  0
ARC
  5
7A
330
1F
100
AcDbEntity
  8
0
  6
Continuous
 62
     7
100
AcDbCircle
 10
170.5021057371
 20
181.6675384944
 30
0.0
 40
10.0
100
AcDbArc
 50
9.7787544004
 51
60.4405271139
  0
ARC
  5
7B
330
1F
100
AcDbEntity
  8
0
  6
Continuous
 62
     7
100
AcDbCircle
 10
63.2115246448
 20
181.6675384944
 30
0.0
 40
10.00000000000001
100
AcDbArc
 50
119.5594728861
 51
170.2212455996
  0
LINE
  5
7C
330
1F
100
AcDbEntity
  8
0
  6
Continuous
 62
     7
100
AcDbLine
 10
58.3568151909
 20
193.3659794209
 30
0.0
 11
58.2782574262
 21
190.3659794209
 31
0.0
  0
LINE
  5
7D
330
1F
100
AcDbEntity
  8
0
  6
Continuous
 62
     7
100
AcDbLine
 10
175.4353729556
 20
190.3659794209
 30
0.0
 11
175.3568151909
 21
193.3659794209
 31
0.0
  0
LINE
  5
7E
330
1F
100
AcDbEntity
  8
0
  6
Continuous
 62
     7
100
AcDbLine
 10
13.6068151909
 20
1199.8659794209
 30
0.0
 11
13.6068151909
 21
1199.6659794209
 31
0.0
  0
LINE
  5
7F
330
1F
100
AcDbEntity
  8
0
  6
Continuous
 62
     7
100
AcDbLine
 10
220.1068151909
 20
1199.6659794209
 30
0.0
 11
220.1068151909
 21
1199.8659794209
 31
0.0
  0
LINE
  5
80
330
1F
100
AcDbEntity
  8
0
  6
Continuous
 62
     7
100
AcDbLine
 10
109.3568151909
 20
1344.0659794209
 30
0.0
 11
109.3568151909
 21
1343.5659794209
 31
0.0
  0
LINE
  5
81
330
1F
100
AcDbEntity
  8
0
  6
Continuous
 62
     7
100
AcDbLine
 10
124.3568151909
 20
1343.5659794209
 30
0.0
 11
124.3568151909
 21
1344.0659794209
 31
0.0
  0
LINE
  5
82
330
1F
100
AcDbEntity
  8
0
  6
Continuous
 62
     7
100
AcDbLine
 10
126.8568151909
 20
1344.0659794209
 30
0.0
 11
126.8568151909
 21
1346.5659794209
 31
0.0
  0
LINE
  5
83
330
1F
100
AcDbEntity
  8
0
  6
Continuous
 62
     7
100
AcDbLine
 10
106.8568151909
 20
1346.5659794209
 30
0.0
 11
106.8568151909
 21
1344.0659794209
 31
0.0
  0
ARC
  5
84
330
1F
100
AcDbEntity
  8
0
  6
Continuous
 62
     7
100
AcDbCircle
 10
126.8568151909
 20
1349.0659794209
 30
0.0
 40
2.500000000000002
100
AcDbArc
 50
185.2159085705
 51
270.0
  0
ARC
  5
85
330
1F
100
AcDbEntity
  8
0
  6
Continuous
 62
     7
100
AcDbCircle
 10
106.8568151909
 20
1349.0659794209
 30
0.0
 40
2.500000000000016
100
AcDbArc
 50
270.0
 51
354.7840914295
  0
ARC
  5
86
330
1F
100
AcDbEntity
  8
0
  6
Continuous
 62
     7
100
AcDbCircle
 10
121.3795896159
 20
1348.5659794209
 30
0.0
 40
3.0
100
AcDbArc
 50
5.2159085704
 51
90.0
  0
ARC
  5
87
330
1F
100
AcDbEntity
  8
0
  6
Continuous
 62
     7
100
AcDbCircle
 10
112.334040766
 20
1348.5659794209
 30
0.0
 40
3.0
100
AcDbArc
 50
90.0
 51
174.7840914296
  0
LINE
  5
88
330
1F
100
AcDbEntity
  8
0
  6
Continuous
 62
     7
100
AcDbLine
 10
82.1068151909
 20
1327.5659794209
 30
0.0
 11
83.0993613426
 21
1327.4441100775
 31
0.0
  0
LINE
  5
89
330
1F
100
AcDbEntity
  8
0
  6
Continuous
 62
     7
100
AcDbLine
 10
150.6142690393
 20
1327.4441100775
 30
0.0
 11
151.6068151909
 21
1327.5659794209
 31
0.0
  0
LINE
  5
8A
330
1F
100
AcDbEntity
  8
0
  6
Continuous
 62
     7
100
AcDbLine
 10
151.6068151909
 20
1327.5659794209
 30
0.0
 11
151.1641241425
 21
1331.1714086799
 31
0.0
  0
LINE
  5
8B
330
1F
100
AcDbEntity
  8
0
  6
Continuous
 62
     7
100
AcDbLine
 10
82.5495062394
 20
1331.1714086799
 30
0.0
 11
82.1068151909
 21
1327.5659794209
 31
0.0
  0
ARC
  5
8C
330
1F
100
AcDbEntity
  8
0
  6
Continuous
 62
     7
100
AcDbCircle
 10
148.6827587634
 20
1330.8667353214
 30
0.0
 40
2.499999999999938
100
AcDbArc
 50
7.0
 51
65.6734964785
  0
ARC
  5
8D
330
1F
100
AcDbEntity
  8
0
  6
Continuous
 62
     7
100
AcDbCircle
 10
85.0308716185
 20
1330.8667353214
 30
0.0
 40
2.49999999999998
100
AcDbArc
 50
114.3265035215
 51
173.0
  0
LINE
  5
8E
330
1F
100
AcDbEntity
  8
0
  6
Continuous
 62
     7
100
AcDbLine
 10
149.7125985278
 20
1333.1447673799
 30
0.0
 11
144.9933312779
 21
1335.2782268519
 31
0.0
  0
LINE
  5
8F
330
1F
100
AcDbEntity
  8
0
  6
Continuous
 62
     7
100
AcDbLine
 10
88.720299104
 20
1335.2782268519
 30
0.0
 11
84.0010318541
 21
1333.1447673799
 31
0.0
  0
ARC
  5
90
330
1F
100
AcDbEntity
  8
0
  6
Continuous
 62
     7
100
AcDbCircle
 10
147.0530108067
 20
1339.8342909689
 30
0.0
 40
4.999999999999877
100
AcDbArc
 50
230.3139844146
 51
245.6734964785
  0
ARC
  5
91
330
1F
100
AcDbEntity
  8
0
  6
Continuous
 62
     7
100
AcDbCircle
 10
86.6606195752
 20
1339.8342909689
 30
0.0
 40
4.999999999999881
100
AcDbArc
 50
294.3265035215
 51
309.6860155854
  0
ARC
  5
92
330
1F
100
AcDbEntity
  8
0
  6
Continuous
 62
     7
100
AcDbCircle
 10
122.8568151909
 20
1310.6753544209
 30
0.0
 40
32.8906250000001
100
AcDbArc
 50
50.3139844146
 51
90.0
  0
ARC
  5
93
330
1F
100
AcDbEntity
  8
0
  6
Continuous
 62
     7
100
AcDbCircle
 10
110.8568151909
 20
1310.6753544209
 30
0.0
 40
32.8906250000001
100
AcDbArc
 50
90.0
 51
129.6860155854
  0
ARC
  5
94
330
1F
100
AcDbEntity
  8
0
  6
Continuous
 62
     7
100
AcDbCircle
 10
147.3568151909
 20
1328.0659794209
 30
0.0
 40
3.000000000000048
100
AcDbArc
 50
283.3815234015
 51
348.0364263992
  0
ARC
  5
95
330
1F
100
AcDbEntity
  8
0
  6
Continuous
 62
     7
100
AcDbCircle
 10
86.3568151909
 20
1328.0659794209
 30
0.0
 40
3.000000000000034
100
AcDbArc
 50
191.9635736008
 51
256.6184765985
  0
LINE
  5
96
330
1F
100
AcDbEntity
  8
0
  6
Continuous
 62
     7
100
AcDbLine
 10
85.6625126115
 20
1325.1474277375
 30
0.0
 11
86.7935414641
 21
1322.5083604148
 31
0.0
  0
LINE
  5
97
330
1F
100
AcDbEntity
  8
0
  6
Continuous
 62
     7
100
AcDbLine
 10
146.9200889177
 20
1322.5083604148
 30
0.0
 11
148.0511177703
 21
1325.1474277375
 31
0.0
  0
ARC
  5
98
330
1F
100
AcDbEntity
  8
0
  6
Continuous
 62
     7
100
AcDbCircle
 10
145.0817988577
 20
1323.296199012
 30
0.0
 40
2.000000000000097
100
AcDbArc
 50
297.0150015235
 51
336.8014094864
  0
ARC
  5
99
330
1F
100
AcDbEntity
  8
0
  6
Continuous
 62
     7
100
AcDbCircle
 10
88.6318315241
 20
1323.296199012
 30
0.0
 40
2.000000000000091
100
AcDbArc
 50
203.1985905136
 51
242.9849984765
  0
ARC
  5
9A
330
1F
100
AcDbEntity
  8
0
  6
Continuous
 62
     7
100
AcDbCircle
 10
156.8916169513
 20
1300.1331207063
 30
0.0
 40
24.00000000000005
100
AcDbArc
 50
117.0150015235
 51
158.7276076423
  0
ARC
  5
9B
330
1F
100
AcDbEntity
  8
0
  6
Continuous
 62
     7
100
AcDbCircle
 10
76.8220134306
 20
1300.1331207063
 30
0.0
 40
24.00000000000006
100
AcDbArc
 50
21.2723923577
 51
62.9849984765
  0
ARC
  5
9C
330
1F
100
AcDbEntity
  8
0
  6
Continuous
 62
     7
100
AcDbCircle
 10
132.6630970528
 20
1309.5659794209
 30
0.0
 40
2.0
100
AcDbArc
 50
270.0
 51
338.7276076423
  0
ARC
  5
9D
330
1F
100
AcDbEntity
  8
0
  6
Continuous
 62
     7
100
AcDbCircle
 10
101.050533329
 20
1309.5659794209
 30
0.0
 40
2.0
100
AcDbArc
 50
201.2723923577
 51
270.0
  0
SPLINE
  5
9E
330
1F
100
AcDbEntity
  8
0
  6
Continuous
 62
     7
100
AcDbSpline
210
0.0
220
0.0
230
1.0
 70
     8
 71
     3
 72
    19
 73
    15
 74
     0
 42
0.000000001
 43
0.00000001
 40
0.0
 40
0.0
 40
0.0
 40
0.0
 40
0.0320113426523981
 40
0.144149097302681
 40
0.2405878652773623
 40
0.3302547075092689
 40
0.3931900019407225
 40
0.4525284039319035
 40
0.5202772866083339
 40
0.6113217246251686
 40
0.7243342984646837
 40
0.8576508908761346
 40
0.9569919989593504
 40
1.0
 40
1.0
 40
1.0
 40
1.0
 10
149.9433726624964
 20
1010.365979420862
 30
0.0
 10
149.6581452897208
 20
1010.214990054238
 30
0.0
 10
148.373748419584
 20
1009.535075402187
 30
0.0
 10
146.2889974620421
 20
1008.142096438542
 30
0.0
 10
143.7505921955914
 20
1006.286901131469
 30
0.0
 10
141.7022087715045
 20
1004.574966071786
 30
0.0
 10
140.0103646550331
 20
1003.016374452764
 30
0.0
 10
138.5343297377512
 20
1001.54106634521
 30
0.0
 10
136.8976926295609
 20
999.760932465673
 30
0.0
 10
134.9541512211797
 20
997.4053333476747
 30
0.0
 10
132.6976561984777
 20
994.2580548347248
 30
0.0
 10
130.6357701222838
 20
990.7367649354914
 30
0.0
 10
129.1486732956663
 20
987.7629795185616
 30
0.0
 10
128.5237082890404
 20
986.1170504191754
 30
0.0
 10
128.334887327527
 20
985.6197651122638
 30
0.0
  0
ARC
  5
9F
330
1F
100
AcDbEntity
  8
0
  6
Continuous
 62
     7
100
AcDbCircle
 10
116.7568151909
 20
960.3719794209
 30
0.0
 40
31.49400000000006
100
AcDbArc
 50
90.0
 51
116.3208198059
  0
ARC
  5
A0
330
1F
100
AcDbEntity
  8
0
  6
Continuous
 62
     7
100
AcDbCircle
 10
116.9568151909
 20
960.3719794209
 30
0.0
 40
31.49400000000005
100
AcDbArc
 50
65.7811600888
 51
90.0
  0
SPLINE
  5
A1
330
1F
100
AcDbEntity
  8
0
  6
Continuous
 62
     7
100
AcDbSpline
210
0.0
220
0.0
230
1.0
 70
     8
 71
     3
 72
    10
 73
     6
 74
     0
 42
0.000000001
 43
0.00000001
 40
0.0
 40
0.0
 40
0.0
 40
0.0
 40
0.4076462419709307
 40
0.9469877785333769
 40
0.9999999999999999
 40
0.9999999999999999
 40
0.9999999999999999
 40
0.9999999999999999
 10
160.7502134731226
 20
1010.365979420862
 30
0.0
 10
160.8498979588647
 20
1010.358837587349
 30
0.0
 10
161.0814712692201
 20
1010.342246660323
 30
0.0
 10
161.3338565602077
 20
1010.271142577089
 30
0.0
 10
161.442943253718
 20
1010.173386741254
 30
0.0
 10
161.4527058793063
 20
1010.164638161628
 30
0.0
  0
SPLINE
  5
A2
330
1F
100
AcDbEntity
  8
0
  6
Continuous
 62
     7
100
AcDbSpline
210
0.0
220
0.0
230
1.0
 70
     8
 71
     3
 72
    10
 73
     6
 74
     0
 42
0.000000001
 43
0.00000001
 40
0.0
 40
0.0
 40
0.0
 40
0.0
 40
0.0008277440810652
 40
0.4244310641892079
 40
1.0
 40
1.0
 40
1.0
 40
1.0
 10
72.25694835523716
 20
1010.168139755189
 30
0.0
 10
72.25709820051219
 20
1010.168279130383
 30
0.0
 10
72.33393232231464
 20
1010.239744651514
 30
0.0
 10
72.57817894529525
 20
1010.328727678681
 30
0.0
 10
72.82261218105589
 20
1010.352363884724
 30
0.0
 10
72.96341690871932
 20
1010.365979420862
 30
0.0
  0
SPLINE
  5
A3
330
1F
100
AcDbEntity
  8
0
  6
Continuous
 62
     7
100
AcDbSpline
210
0.0
220
0.0
230
1.0
 70
     8
 71
     3
 72
    22
 73
    18
 74
     0
 42
0.000000001
 43
0.00000001
 40
0.0
 40
0.0
 40
0.0
 40
0.0
 40
0.0417840695426919
 40
0.1263728242690202
 40
0.2091066162185689
 40
0.2896772944617358
 40
0.3678373887751364
 40
0.443405632442532
 40
0.5162701275992903
 40
0.5863891969323216
 40
0.6537900907981977
 40
0.7185658082920421
 40
0.7808703505954949
 40
0.8409127539892701
 40
0.8989502501334382
 40
0.9552808767012373
 40
1.0
 40
1.0
 40
1.0
 40
1.0
 10
158.534970862572
 20
1010.365979420862
 30
0.0
 10
157.9508053800442
 20
1010.217470352719
 30
0.0
 10
156.184040134929
 20
1009.768315673049
 30
0.0
 10
153.3094640076569
 20
1008.696895485321
 30
0.0
 10
149.9556572856973
 20
1007.185155042842
 30
0.0
 10
146.7667108826591
 20
1005.401950313828
 30
0.0
 10
143.7613508125558
 20
1003.388153858753
 30
0.0
 10
140.9582291827153
 20
1001.161330813022
 30
0.0
 10
138.3715682214099
 20
998.7464081179135
 30
0.0
 10
136.0122934714674
 20
996.166940840581
 30
0.0
 10
133.8880360112662
 20
993.4464878985858
 30
0.0
 10
132.0032361457139
 20
990.6076345651054
 30
0.0
 10
130.3605666567828
 20
987.6712633840239
 30
0.0
 10
128.9578396824962
 20
984.6575757435666
 30
0.0
 10
127.8012529633918
 20
981.5809544400032
 30
0.0
 10
126.9176254785595
 20
978.6556752786464
 30
0.0
 10
126.5169430182054
 20
976.7213411896518
 30
0.0
 10
126.3396227539604
 20
975.8653101283082
 30
0.0
  0
SPLINE
  5
A4
330
1F
100
AcDbEntity
  8
0
  6
Continuous
 62
     7
100
AcDbSpline
210
0.0
220
0.0
230
1.0
 70
     8
 71
     3
 72
     9
 73
     5
 74
     0
 42
0.000000001
 43
0.00000001
 40
0.0
 40
0.0
 40
0.0
 40
0.0
 40
0.2162894503846344
 40
1.0
 40
1.0
 40
1.0
 40
1.0
 10
76.01575697389593
 20
1010.166083537913
 30
0.0
 10
75.9612290835087
 20
1010.184601387899
 30
0.0
 10
75.70912298082884
 20
1010.270217445238
 30
0.0
 10
75.45237161394674
 20
1010.323904393294
 30
0.0
 10
75.25115285909308
 20
1010.365979420862
 30
0.0
  0
SPLINE
  5
A5
330
1F
100
AcDbEntity
  8
0
  6
Continuous
 62
     7
100
AcDbSpline
210
0.0
220
0.0
230
1.0
 70
     8
 71
     3
 72
    22
 73
    18
 74
     0
 42
0.000000001
 43
0.00000001
 40
0.0
 40
0.0
 40
0.0
 40
0.0
 40
0.022734955822387
 40
0.0789278916974638
 40
0.1363335250721898
 40
0.1954104752410473
 40
0.25644748107084
 40
0.3196953726119489
 40
0.3853604488212469
 40
0.4535990245066713
 40
0.5245123790680617
 40
0.5981423629009587
 40
0.6744679521497279
 40
0.7534030624712117
 40
0.834795925613156
 40
0.918430297089019
 40
1.0
 40
1.0
 40
1.0
 40
1.0
 10
107.3794330268381
 20
975.8665919542991
 30
0.0
 10
107.2944229623785
 20
976.2942576090784
 30
0.0
 10
106.9992974643002
 20
977.778964627946
 30
0.0
 10
106.3285894379271
 20
980.2753734756366
 30
0.0
 10
105.2907414025363
 20
983.3205856348072
 30
0.0
 10
104.0221159121676
 20
986.3011021267876
 30
0.0
 10
102.5272931238885
 20
989.2085744060952
 30
0.0
 10
100.8040697617285
 20
992.0276010274617
 30
0.0
 10
98.85354769863747
 20
994.74178440944
 30
0.0
 10
96.67772557350203
 20
997.3327909623224
 30
0.0
 10
94.28080117435981
 20
999.7808195747742
 30
0.0
 10
91.66940359784272
 20
1002.06505440862
 30
0.0
 10
88.85291319183956
 20
1004.163374135511
 30
0.0
 10
85.84416309682544
 20
1006.055871790764
 30
0.0
 10
82.6578686749641
 20
1007.713727329203
 30
0.0
 10
79.37116215982265
 20
1009.122589805151
 30
0.0
 10
77.12486754131123
 20
1009.821162474164
 30
0.0
 10
76.01575697389593
 20
1010.166083537913
 30
0.0
  0
SPLINE
  5
A6
330
1F
100
AcDbEntity
  8
0
  6
Continuous
 62
     7
100
AcDbSpline
210
0.0
220
0.0
230
1.0
 70
     8
 71
     3
 72
    18
 73
    14
 74
     0
 42
0.000000001
 43
0.00000001
 40
0.0
 40
0.0
 40
0.0
 40
0.0
 40
0.0308216997509189
 40
0.0590828920611339
 40
0.0758406777375138
 40
0.0811235866940861
 40
0.0873307175107911
 40
0.1051930753014607
 40
0.1898036254955115
 40
0.3357614305279368
 40
0.5696614925061017
 40
0.7882543247118702
 40
1.0
 40
1.0
 40
1.0
 40
1.0
 10
12.08903292635818
 20
1202.306053092063
 30
0.0
 10
12.08892033750933
 20
1202.306064666964
 30
0.0
 10
12.08870451311103
 20
1202.306086855184
 30
0.0
 10
12.08954553402439
 20
1202.305998257325
 30
0.0
 10
12.0909857642923
 20
1202.305857253119
 30
0.0
 10
12.09514310504975
 20
1202.305400535472
 30
0.0
 10
12.1019112497161
 20
1202.304609407326
 30
0.0
 10
12.13008984859196
 20
1202.300799068721
 30
0.0
 10
12.19260875501713
 20
1202.287141832194
 30
0.0
 10
12.30488568238061
 20
1202.240795642525
 30
0.0
 10
12.42596365320428
 20
1202.140036170361
 30
0.0
 10
12.51831965069891
 20
1201.989121395403
 30
0.0
 10
12.53031386407119
 20
1201.877353056429
 30
0.0
 10
12.53621555022247
 20
1201.822358065277
 30
0.0
  0
LINE
  5
A7
330
1F
100
AcDbEntity
  8
0
  6
Continuous
 62
     7
100
AcDbLine
 10
12.5384251862
 20
1201.8244129195
 30
0.0
 11
12.6068151909
 21
1199.8659794209
 31
0.0
  0
LINE
  5
A8
330
1F
100
AcDbEntity
  8
0
  6
Continuous
 62
     7
100
AcDbLine
 10
221.1068151909
 20
1199.8659794209
 30
0.0
 11
221.1749862842
 21
1201.8181441159
 31
0.0
  0
LINE
  5
A9
330
1F
100
AcDbEntity
  8
0
  6
Continuous
 62
     7
100
AcDbLine
 10
22.3133705921
 20
1195.143876748
 30
0.0
 11
22.3136747662
 21
1195.1432415028
 31
0.0
  0
LINE
  5
AA
330
1F
100
AcDbEntity
  8
0
  6
Continuous
 62
     7
100
AcDbLine
 10
211.3999556156
 20
1195.1432415028
 30
0.0
 11
211.4002597897
 21
1195.143876748
 31
0.0
  0
ARC
  5
AB
330
1F
100
AcDbEntity
  8
0
  6
Continuous
 62
     7
100
AcDbCircle
 10
50.3952381511
 20
1271.5659794209
 30
0.0
 40
5.000000000000055
100
AcDbArc
 50
270.0
 51
331.7322302009
  0
ARC
  5
AC
330
1F
100
AcDbEntity
  8
0
  6
Continuous
 62
     7
100
AcDbCircle
 10
183.3183922308
 20
1271.5659794209
 30
0.0
 40
5.000000000000049
100
AcDbArc
 50
208.2677697991
 51
270.0
  0
ARC
  5
AD
330
1F
100
AcDbEntity
  8
0
  6
Continuous
 62
     7
100
AcDbCircle
 10
94.4324331395
 20
1247.8863371612
 30
0.0
 40
44.99999999999999
100
AcDbArc
 50
104.0884901706
 51
151.7322302009
  0
ARC
  5
AE
330
1F
100
AcDbEntity
  8
0
  6
Continuous
 62
     7
100
AcDbCircle
 10
139.2811972423
 20
1247.8863371612
 30
0.0
 40
44.99999999999999
100
AcDbArc
 50
28.2677697991
 51
75.9115098294
  0
ARC
  5
AF
330
1F
100
AcDbEntity
  8
0
  6
Continuous
 62
     7
100
AcDbCircle
 10
83.3568151909
 20
1292.0177396662
 30
0.0
 40
0.5000000000001852
100
AcDbArc
 50
284.0884901706
 51
0.0
  0
ARC
  5
B0
330
1F
100
AcDbEntity
  8
0
  6
Continuous
 62
     7
100
AcDbCircle
 10
150.3568151909
 20
1292.0177396662
 30
0.0
 40
0.5000000000001852
100
AcDbArc
 50
180.0
 51
255.9115098294
  0
ARC
  5
B1
330
1F
100
AcDbEntity
  8
0
  6
Continuous
 62
     7
100
AcDbCircle
 10
148.8568151909
 20
1294.3336444828
 30
0.0
 40
1.0
100
AcDbArc
 50
0.0
 51
75.6878873392
  0
ARC
  5
B2
330
1F
100
AcDbEntity
  8
0
  6
Continuous
 62
     7
100
AcDbCircle
 10
84.8568151909
 20
1294.3336444828
 30
0.0
 40
1.0
100
AcDbArc
 50
104.3121126608
 51
180.0
  0
LINE
  5
B3
330
1F
100
AcDbEntity
  8
0
  6
Continuous
 62
     7
100
AcDbLine
 10
83.8568151909
 20
1294.3336444828
 30
0.0
 11
83.8568151909
 21
1292.0177396662
 31
0.0
  0
LINE
  5
B4
330
1F
100
AcDbEntity
  8
0
  6
Continuous
 62
     7
100
AcDbLine
 10
149.8568151909
 20
1292.0177396662
 30
0.0
 11
149.8568151909
 21
1294.3336444828
 31
0.0
  0
ARC
  5
B5
330
1F
100
AcDbEntity
  8
0
  6
Continuous
 62
     7
100
AcDbCircle
 10
79.665534073
 20
1314.68187783
 30
0.0
 40
20.00000000000024
100
AcDbArc
 50
284.3121126608
 51
337.2648859379
  0
ARC
  5
B6
330
1F
100
AcDbEntity
  8
0
  6
Continuous
 62
     7
100
AcDbCircle
 10
154.0480963089
 20
1314.68187783
 30
0.0
 40
20.00000000000025
100
AcDbArc
 50
202.7351140621
 51
255.6878873392
  0
ARC
  5
B7
330
1F
100
AcDbEntity
  8
0
  6
Continuous
 62
     7
100
AcDbCircle
 10
134.6797666697
 20
1306.5659794209
 30
0.0
 40
1.0
100
AcDbArc
 50
22.7351140621
 51
90.0
  0
ARC
  5
B8
330
1F
100
AcDbEntity
  8
0
  6
Continuous
 62
     7
100
AcDbCircle
 10
99.0338637121
 20
1306.5659794209
 30
0.0
 40
1.0
100
AcDbArc
 50
90.0
 51
157.2648859379
  0
LINE
  5
B9
330
1F
100
AcDbEntity
  8
0
  6
Continuous
 62
     7
100
AcDbLine
 10
141.8568151909
 20
952.8659794209
 30
0.0
 11
141.8568151909
 21
960.3659794209
 31
0.0
  0
LINE
  5
BA
330
1F
100
AcDbEntity
  8
0
  6
Continuous
 62
     7
100
AcDbLine
 10
141.8568151909
 20
944.3659794209
 30
0.0
 11
141.8568151909
 21
946.8659794209
 31
0.0
  0
LINE
  5
BB
330
1F
100
AcDbEntity
  8
0
  6
Continuous
 62
     7
100
AcDbLine
 10
91.8568151909
 20
960.3659794209
 30
0.0
 11
91.8568151909
 21
944.3659794209
 31
0.0
  0
ARC
  5
BC
330
1F
100
AcDbEntity
  8
0
  6
Continuous
 62
     7
100
AcDbCircle
 10
137.8568151909
 20
960.3659794209
 30
0.0
 40
4.0
100
AcDbArc
 50
0.0
 51
90.0
  0
ARC
  5
BD
330
1F
100
AcDbEntity
  8
0
  6
Continuous
 62
     7
100
AcDbCircle
 10
95.8568151909
 20
960.3659794209
 30
0.0
 40
4.0
100
AcDbArc
 50
90.0
 51
180.0
  0
ARC
  5
BE
330
1F
100
AcDbEntity
  8
0
  6
Continuous
 62
     7
100
AcDbCircle
 10
139.8568151909
 20
944.3659794209
 30
0.0
 40
2.0
100
AcDbArc
 50
270.0
 51
0.0
  0
ARC
  5
BF
330
1F
100
AcDbEntity
  8
0
  6
Continuous
 62
     7
100
AcDbCircle
 10
93.8568151909
 20
944.3659794209
 30
0.0
 40
2.0
100
AcDbArc
 50
180.0
 51
270.0
  0
LINE
  5
C0
330
1F
100
AcDbEntity
  8
0
  6
Continuous
 62
     7
100
AcDbLine
 10
96.8568151909
 20
942.3659794209
 30
0.0
 11
96.8568151909
 21
265.3659794209
 31
0.0
  0
LINE
  5
C1
330
1F
100
AcDbEntity
  8
0
  6
Continuous
 62
     7
100
AcDbLine
 10
136.8568151909
 20
265.3659794209
 30
0.0
 11
136.8568151909
 21
942.3659794209
 31
0.0
  0
LINE
  5
C2
330
1F
100
AcDbEntity
  8
0
  6
Continuous
 62
     7
100
AcDbLine
 10
142.1362267434
 20
952.8659794209
 30
0.0
 11
141.8568151909
 21
952.8659794209
 31
0.0
  0
LINE
  5
C3
330
1F
100
AcDbEntity
  8
0
  6
Continuous
 62
     7
100
AcDbLine
 10
141.8568151909
 20
946.8659794209
 30
0.0
 11
142.1362267434
 21
946.8659794209
 31
0.0
  0
LINE
  5
C4
330
1F
100
AcDbEntity
  8
0
  6
Continuous
 62
     7
100
AcDbLine
 10
142.1362267434
 20
946.8659794209
 30
0.0
 11
142.7362267434
 21
947.4659794209
 31
0.0
  0
LINE
  5
C5
330
1F
100
AcDbEntity
  8
0
  6
Continuous
 62
     7
100
AcDbLine
 10
142.7362267434
 20
952.2659794209
 30
0.0
 11
142.1362267434
 21
952.8659794209
 31
0.0
  0
LINE
  5
C6
330
1F
100
AcDbEntity
  8
0
  6
Continuous
 62
     7
100
AcDbLine
 10
104.2171094147
 20
946.8659794209
 30
0.0
 11
104.3568151909
 21
946.8659794209
 31
0.0
  0
LINE
  5
C7
330
1F
100
AcDbEntity
  8
0
  6
Continuous
 62
     7
100
AcDbLine
 10
104.3568151909
 20
952.8659794209
 30
0.0
 11
104.2171094147
 21
952.8659794209
 31
0.0
  0
LINE
  5
C8
330
1F
100
AcDbEntity
  8
0
  6
Continuous
 62
     7
100
AcDbLine
 10
186.8568151909
 20
168.3659794209
 30
0.0
 11
46.8568151909
 21
168.3659794209
 31
0.0
  0
LINE
  5
C9
330
1F
100
AcDbEntity
  8
0
  6
Continuous
 62
     7
100
AcDbLine
 10
186.4640263674
 20
183.3659794209
 30
0.0
 11
47.2496040145
 21
183.3659794209
 31
0.0
  0
LINE
  5
CA
330
1F
100
AcDbEntity
  8
0
  6
Continuous
 62
     7
100
AcDbLine
 10
109.4443000486
 20
183.4659794209
 30
0.0
 11
109.4443000486
 21
183.3659794209
 31
0.0
  0
LINE
  5
CB
330
1F
100
AcDbEntity
  8
0
  6
Continuous
 62
     7
100
AcDbLine
 10
109.870805488
 20
183.4659794209
 30
0.0
 11
109.870805488
 21
183.3659794209
 31
0.0
  0
LINE
  5
CC
330
1F
100
AcDbEntity
  8
0
  6
Continuous
 62
     7
100
AcDbLine
 10
109.870805488
 20
183.4659794209
 30
0.0
 11
109.4443000486
 21
183.4659794209
 31
0.0
  0
LINE
  5
CD
330
1F
100
AcDbEntity
  8
0
  6
Continuous
 62
     7
100
AcDbLine
 10
109.0163681695
 20
183.4659794209
 30
0.0
 11
109.0163681695
 21
183.3659794209
 31
0.0
  0
LINE
  5
CE
330
1F
100
AcDbEntity
  8
0
  6
Continuous
 62
     7
100
AcDbLine
 10
109.4443000486
 20
183.4659794209
 30
0.0
 11
109.0163681695
 21
183.4659794209
 31
0.0
  0
LINE
  5
CF
330
1F
100
AcDbEntity
  8
0
  6
Continuous
 62
     7
100
AcDbLine
 10
107.9108774819
 20
183.4659794209
 30
0.0
 11
107.9108774819
 21
183.3659794209
 31
0.0
  0
LINE
  5
D0
330
1F
100
AcDbEntity
  8
0
  6
Continuous
 62
     7
100
AcDbLine
 10
108.0841898929
 20
183.4659794209
 30
0.0
 11
108.0841898929
 21
183.3659794209
 31
0.0
  0
LINE
  5
D1
330
1F
100
AcDbEntity
  8
0
  6
Continuous
 62
     7
100
AcDbLine
 10
108.0841898929
 20
183.4659794209
 30
0.0
 11
107.9108774819
 21
183.4659794209
 31
0.0
  0
LINE
  5
D2
330
1F
100
AcDbEntity
  8
0
  6
Continuous
 62
     7
100
AcDbLine
 10
107.5293048897
 20
183.4659794209
 30
0.0
 11
107.5293048897
 21
183.3659794209
 31
0.0
  0
LINE
  5
D3
330
1F
100
AcDbEntity
  8
0
  6
Continuous
 62
     7
100
AcDbLine
 10
107.9108774819
 20
183.4659794209
 30
0.0
 11
107.5293048897
 21
183.4659794209
 31
0.0
  0
LINE
  5
D4
330
1F
100
AcDbEntity
  8
0
  6
Continuous
 62
     7
100
AcDbLine
 10
104.8705508737
 20
183.4659794209
 30
0.0
 11
104.8705508737
 21
183.3659794209
 31
0.0
  0
LINE
  5
D5
330
1F
100
AcDbEntity
  8
0
  6
Continuous
 62
     7
100
AcDbLine
 10
106.9759757187
 20
183.4659794209
 30
0.0
 11
106.9759757187
 21
183.3659794209
 31
0.0
  0
LINE
  5
D6
330
1F
100
AcDbEntity
  8
0
  6
Continuous
 62
     7
100
AcDbLine
 10
106.9759757187
 20
183.4659794209
 30
0.0
 11
104.8705508737
 21
183.4659794209
 31
0.0
  0
LINE
  5
D7
330
1F
100
AcDbEntity
  8
0
  6
Continuous
 62
     7
100
AcDbLine
 10
107.0351729619
 20
183.4659794209
 30
0.0
 11
107.0351729619
 21
183.3659794209
 31
0.0
  0
LINE
  5
D8
330
1F
100
AcDbEntity
  8
0
  6
Continuous
 62
     7
100
AcDbLine
 10
107.0351729619
 20
183.4659794209
 30
0.0
 11
106.9759757187
 21
183.4659794209
 31
0.0
  0
LINE
  5
D9
330
1F
100
AcDbEntity
  8
0
  6
Continuous
 62
     7
100
AcDbLine
 10
104.0610884943
 20
183.4659794209
 30
0.0
 11
104.0610884943
 21
183.3659794209
 31
0.0
  0
LINE
  5
DA
330
1F
100
AcDbEntity
  8
0
  6
Continuous
 62
     7
100
AcDbLine
 10
104.6880086971
 20
183.4659794209
 30
0.0
 11
104.6880086971
 21
183.3659794209
 31
0.0
  0
LINE
  5
DB
330
1F
100
AcDbEntity
  8
0
  6
Continuous
 62
     7
100
AcDbLine
 10
104.6880086971
 20
183.4659794209
 30
0.0
 11
104.0610884943
 21
183.4659794209
 31
0.0
  0
LINE
  5
DC
330
1F
100
AcDbEntity
  8
0
  6
Continuous
 62
     7
100
AcDbLine
 10
103.6566928686
 20
183.4659794209
 30
0.0
 11
103.6566928686
 21
183.3659794209
 31
0.0
  0
LINE
  5
DD
330
1F
100
AcDbEntity
  8
0
  6
Continuous
 62
     7
100
AcDbLine
 10
104.0610884943
 20
183.4659794209
 30
0.0
 11
103.6566928686
 21
183.4659794209
 31
0.0
  0
LINE
  5
DE
330
1F
100
AcDbEntity
  8
0
  6
Continuous
 62
     7
100
AcDbLine
 10
101.7426155475
 20
183.4659794209
 30
0.0
 11
101.7426155475
 21
183.3659794209
 31
0.0
  0
LINE
  5
DF
330
1F
100
AcDbEntity
  8
0
  6
Continuous
 62
     7
100
AcDbLine
 10
103.4086969967
 20
183.4659794209
 30
0.0
 11
103.4086969967
 21
183.3659794209
 31
0.0
  0
LINE
  5
E0
330
1F
100
AcDbEntity
  8
0
  6
Continuous
 62
     7
100
AcDbLine
 10
100.5394137476
 20
183.4659794209
 30
0.0
 11
100.5394137476
 21
183.3659794209
 31
0.0
  0
LINE
  5
E1
330
1F
100
AcDbEntity
  8
0
  6
Continuous
 62
     7
100
AcDbLine
 10
101.7426155475
 20
183.4659794209
 30
0.0
 11
100.5394137476
 21
183.4659794209
 31
0.0
  0
LINE
  5
E2
330
1F
100
AcDbEntity
  8
0
  6
Continuous
 62
     7
100
AcDbLine
 10
109.0163681695
 20
183.4659794209
 30
0.0
 11
108.0841898929
 21
183.4659794209
 31
0.0
  0
LINE
  5
E3
330
1F
100
AcDbEntity
  8
0
  6
Continuous
 62
     7
100
AcDbLine
 10
110.1261381759
 20
183.4659794209
 30
0.0
 11
110.1261381759
 21
183.3659794209
 31
0.0
  0
LINE
  5
E4
330
1F
100
AcDbEntity
  8
0
  6
Continuous
 62
     7
100
AcDbLine
 10
99.7065861088
 20
183.4659794209
 30
0.0
 11
99.7065861088
 21
183.3659794209
 31
0.0
  0
LINE
  5
E5
330
1F
100
AcDbEntity
  8
0
  6
Continuous
 62
     7
100
AcDbLine
 10
100.1124081741
 20
183.4659794209
 30
0.0
 11
100.1124081741
 21
183.3659794209
 31
0.0
  0
LINE
  5
E6
330
1F
100
AcDbEntity
  8
0
  6
Continuous
 62
     7
100
AcDbLine
 10
100.1124081741
 20
183.4659794209
 30
0.0
 11
99.7065861088
 21
183.4659794209
 31
0.0
  0
LINE
  5
E7
330
1F
100
AcDbEntity
  8
0
  6
Continuous
 62
     7
100
AcDbLine
 10
99.6395434477
 20
183.4659794209
 30
0.0
 11
99.6395434477
 21
183.3659794209
 31
0.0
  0
LINE
  5
E8
330
1F
100
AcDbEntity
  8
0
  6
Continuous
 62
     7
100
AcDbLine
 10
99.7065861088
 20
183.4659794209
 30
0.0
 11
99.6395434477
 21
183.4659794209
 31
0.0
  0
LINE
  5
E9
330
1F
100
AcDbEntity
  8
0
  6
Continuous
 62
     7
100
AcDbLine
 10
97.9335216899
 20
183.4659794209
 30
0.0
 11
97.9335216899
 21
183.3659794209
 31
0.0
  0
LINE
  5
EA
330
1F
100
AcDbEntity
  8
0
  6
Continuous
 62
     7
100
AcDbLine
 10
98.4691497585
 20
183.4659794209
 30
0.0
 11
98.4691497585
 21
183.3659794209
 31
0.0
  0
LINE
  5
EB
330
1F
100
AcDbEntity
  8
0
  6
Continuous
 62
     7
100
AcDbLine
 10
98.4691497585
 20
183.4659794209
 30
0.0
 11
97.9335216899
 21
183.4659794209
 31
0.0
  0
LINE
  5
EC
330
1F
100
AcDbEntity
  8
0
  6
Continuous
 62
     7
100
AcDbLine
 10
97.6018744836
 20
183.4659794209
 30
0.0
 11
97.6018744836
 21
183.3659794209
 31
0.0
  0
LINE
  5
ED
330
1F
100
AcDbEntity
  8
0
  6
Continuous
 62
     7
100
AcDbLine
 10
97.9335216899
 20
183.4659794209
 30
0.0
 11
97.6018744836
 21
183.4659794209
 31
0.0
  0
LINE
  5
EE
330
1F
100
AcDbEntity
  8
0
  6
Continuous
 62
     7
100
AcDbLine
 10
96.953095853
 20
183.4659794209
 30
0.0
 11
96.953095853
 21
183.3659794209
 31
0.0
  0
LINE
  5
EF
330
1F
100
AcDbEntity
  8
0
  6
Continuous
 62
     7
100
AcDbLine
 10
97.3639104569
 20
183.4659794209
 30
0.0
 11
97.3639104569
 21
183.3659794209
 31
0.0
  0
LINE
  5
F0
330
1F
100
AcDbEntity
  8
0
  6
Continuous
 62
     7
100
AcDbLine
 10
97.3639104569
 20
183.4659794209
 30
0.0
 11
96.953095853
 21
183.4659794209
 31
0.0
  0
LINE
  5
F1
330
1F
100
AcDbEntity
  8
0
  6
Continuous
 62
     7
100
AcDbLine
 10
96.8075990141
 20
183.4659794209
 30
0.0
 11
96.8075990141
 21
183.3659794209
 31
0.0
  0
LINE
  5
F2
330
1F
100
AcDbEntity
  8
0
  6
Continuous
 62
     7
100
AcDbLine
 10
96.953095853
 20
183.4659794209
 30
0.0
 11
96.8075990141
 21
183.4659794209
 31
0.0
  0
LINE
  5
F3
330
1F
100
AcDbEntity
  8
0
  6
Continuous
 62
     7
100
AcDbLine
 10
99.6395434477
 20
183.4659794209
 30
0.0
 11
98.4691497585
 21
183.4659794209
 31
0.0
  0
LINE
  5
F4
330
1F
100
AcDbEntity
  8
0
  6
Continuous
 62
     7
100
AcDbLine
 10
95.4767308702
 20
183.4659794209
 30
0.0
 11
95.4767308702
 21
183.3659794209
 31
0.0
  0
LINE
  5
F5
330
1F
100
AcDbEntity
  8
0
  6
Continuous
 62
     7
100
AcDbLine
 10
95.9096552878
 20
183.4659794209
 30
0.0
 11
95.9096552878
 21
183.3659794209
 31
0.0
  0
LINE
  5
F6
330
1F
100
AcDbEntity
  8
0
  6
Continuous
 62
     7
100
AcDbLine
 10
95.9096552878
 20
183.4659794209
 30
0.0
 11
95.4767308702
 21
183.4659794209
 31
0.0
  0
LINE
  5
F7
330
1F
100
AcDbEntity
  8
0
  6
Continuous
 62
     7
100
AcDbLine
 10
95.109422674
 20
183.4659794209
 30
0.0
 11
95.109422674
 21
183.3659794209
 31
0.0
  0
LINE
  5
F8
330
1F
100
AcDbEntity
  8
0
  6
Continuous
 62
     7
100
AcDbLine
 10
95.4767308702
 20
183.4659794209
 30
0.0
 11
95.109422674
 21
183.4659794209
 31
0.0
  0
LINE
  5
F9
330
1F
100
AcDbEntity
  8
0
  6
Continuous
 62
     7
100
AcDbLine
 10
107.4103265759
 20
183.4659794209
 30
0.0
 11
107.4103265759
 21
183.3659794209
 31
0.0
  0
LINE
  5
FA
330
1F
100
AcDbEntity
  8
0
  6
Continuous
 62
     7
100
AcDbLine
 10
107.4695238192
 20
183.4659794209
 30
0.0
 11
107.4695238192
 21
183.3659794209
 31
0.0
  0
LINE
  5
FB
330
1F
100
AcDbEntity
  8
0
  6
Continuous
 62
     7
100
AcDbLine
 10
107.4695238192
 20
183.4659794209
 30
0.0
 11
107.4103265759
 21
183.4659794209
 31
0.0
  0
LINE
  5
FC
330
1F
100
AcDbEntity
  8
0
  6
Continuous
 62
     7
100
AcDbLine
 10
107.4103265759
 20
183.4659794209
 30
0.0
 11
107.0351729619
 21
183.4659794209
 31
0.0
  0
LINE
  5
FD
330
1F
100
AcDbEntity
  8
0
  6
Continuous
 62
     7
100
AcDbLine
 10
92.5305683892
 20
183.4659794209
 30
0.0
 11
92.5305683892
 21
183.3659794209
 31
0.0
  0
LINE
  5
FE
330
1F
100
AcDbEntity
  8
0
  6
Continuous
 62
     7
100
AcDbLine
 10
92.9149938606
 20
183.4659794209
 30
0.0
 11
92.5305683892
 21
183.4659794209
 31
0.0
  0
LINE
  5
FF
330
1F
100
AcDbEntity
  8
0
  6
Continuous
 62
     7
100
AcDbLine
 10
92.9149938606
 20
183.4659794209
 30
0.0
 11
92.9149938606
 21
183.3659794209
 31
0.0
  0
LINE
  5
100
330
1F
100
AcDbEntity
  8
0
  6
Continuous
 62
     7
100
AcDbLine
 10
93.373594191
 20
183.4659794209
 30
0.0
 11
92.9149938606
 21
183.4659794209
 31
0.0
  0
LINE
  5
101
330
1F
100
AcDbEntity
  8
0
  6
Continuous
 62
     7
100
AcDbLine
 10
93.373594191
 20
183.4659794209
 30
0.0
 11
93.373594191
 21
183.3659794209
 31
0.0
  0
SPLINE
  5
102
330
1F
100
AcDbEntity
  8
0
  6
Continuous
 62
     7
100
AcDbSpline
210
0.0
220
0.0
230
1.0
 70
     8
 71
     3
 72
    11
 73
     7
 74
     0
 42
0.000000001
 43
0.00000001
 40
0.0
 40
0.0
 40
0.0
 40
0.0
 40
0.3237364757028544
 40
0.619411655084856
 40
0.8478955757086319
 40
1.0
 40
1.0
 40
1.0
 40
1.0
 10
65.1079700822917
 20
183.365979420862
 30
0.0
 10
65.3454456960105
 20
184.3250240747294
 30
0.0
 10
65.79981267031114
 20
186.1599839292303
 30
0.0
 10
66.98958355761859
 20
188.3065102743737
 30
0.0
 10
67.91286549753006
 20
189.6689902173879
 30
0.0
 10
68.21620051584615
 20
190.1669619990756
 30
0.0
 10
68.33743018287305
 20
190.365979420862
 30
0.0
  0
LINE
  5
103
330
1F
100
AcDbEntity
  8
0
  6
Continuous
 62
     7
100
AcDbLine
 10
165.376200199
 20
190.3659794209
 30
0.0
 11
68.3374301829
 21
190.3659794209
 31
0.0
  0
SPLINE
  5
104
330
1F
100
AcDbEntity
  8
0
  6
Continuous
 62
     7
100
AcDbSpline
210
0.0
220
0.0
230
1.0
 70
     8
 71
     3
 72
    11
 73
     7
 74
     0
 42
0.000000001
 43
0.00000001
 40
0.0
 40
0.0
 40
0.0
 40
0.0
 40
0.2192786105391164
 40
0.4376005807850186
 40
0.753697650531179
 40
1.0
 40
1.0
 40
1.0
 40
1.0
 10
165.3762001989694
 20
190.365979420862
 30
0.0
 10
165.5666266141976
 20
190.0645723914833
 30
0.0
 10
165.9466486769777
 20
189.4630732722376
 30
0.0
 10
167.0154660802212
 20
187.8257787098159
 30
0.0
 10
168.0556872314683
 20
185.7651898299374
 30
0.0
 10
168.4381576872668
 20
184.0966952218017
 30
0.0
 10
168.6056602995509
 20
183.365979420862
 30
0.0
  0
LINE
  5
105
330
1F
100
AcDbEntity
  8
0
  6
Continuous
 62
     7
100
AcDbLine
 10
96.8075990141
 20
183.4659794209
 30
0.0
 11
95.9096552878
 21
183.4659794209
 31
0.0
  0
LINE
  5
106
330
1F
100
AcDbEntity
  8
0
  6
Continuous
 62
     7
100
AcDbLine
 10
90.3905127128
 20
183.4659794209
 30
0.0
 11
90.3905127128
 21
183.3659794209
 31
0.0
  0
LINE
  5
107
330
1F
100
AcDbEntity
  8
0
  6
Continuous
 62
     7
100
AcDbLine
 10
90.7856364811
 20
183.4659794209
 30
0.0
 11
90.7856364811
 21
183.3659794209
 31
0.0
  0
LINE
  5
108
330
1F
100
AcDbEntity
  8
0
  6
Continuous
 62
     7
100
AcDbLine
 10
90.7856364811
 20
183.4659794209
 30
0.0
 11
90.3905127128
 21
183.4659794209
 31
0.0
  0
LINE
  5
109
330
1F
100
AcDbEntity
  8
0
  6
Continuous
 62
     7
100
AcDbLine
 10
90.8034669761
 20
183.4659794209
 30
0.0
 11
90.8034669761
 21
183.3659794209
 31
0.0
  0
LINE
  5
10A
330
1F
100
AcDbEntity
  8
0
  6
Continuous
 62
     7
100
AcDbLine
 10
90.8034669761
 20
183.4659794209
 30
0.0
 11
90.7856364811
 21
183.4659794209
 31
0.0
  0
LINE
  5
10B
330
1F
100
AcDbEntity
  8
0
  6
Continuous
 62
     7
100
AcDbLine
 10
94.1189088804
 20
183.4659794209
 30
0.0
 11
94.1189088804
 21
183.3659794209
 31
0.0
  0
LINE
  5
10C
330
1F
100
AcDbEntity
  8
0
  6
Continuous
 62
     7
100
AcDbLine
 10
94.1189088804
 20
183.4659794209
 30
0.0
 11
93.373594191
 21
183.4659794209
 31
0.0
  0
LINE
  5
10D
330
1F
100
AcDbEntity
  8
0
  6
Continuous
 62
     7
100
AcDbLine
 10
88.6188747334
 20
183.4659794209
 30
0.0
 11
88.6188747334
 21
183.3659794209
 31
0.0
  0
LINE
  5
10E
330
1F
100
AcDbEntity
  8
0
  6
Continuous
 62
     7
100
AcDbLine
 10
88.9719185337
 20
183.4659794209
 30
0.0
 11
88.9719185337
 21
183.3659794209
 31
0.0
  0
LINE
  5
10F
330
1F
100
AcDbEntity
  8
0
  6
Continuous
 62
     7
100
AcDbLine
 10
88.9719185337
 20
183.4659794209
 30
0.0
 11
88.6188747334
 21
183.4659794209
 31
0.0
  0
LINE
  5
110
330
1F
100
AcDbEntity
  8
0
  6
Continuous
 62
     7
100
AcDbLine
 10
89.5417811526
 20
183.4659794209
 30
0.0
 11
89.5417811526
 21
183.3659794209
 31
0.0
  0
LINE
  5
111
330
1F
100
AcDbEntity
  8
0
  6
Continuous
 62
     7
100
AcDbLine
 10
89.5417811526
 20
183.4659794209
 30
0.0
 11
88.9719185337
 21
183.4659794209
 31
0.0
  0
LINE
  5
112
330
1F
100
AcDbEntity
  8
0
  6
Continuous
 62
     7
100
AcDbLine
 10
88.1011729684
 20
183.4659794209
 30
0.0
 11
88.1011729684
 21
183.3659794209
 31
0.0
  0
LINE
  5
113
330
1F
100
AcDbEntity
  8
0
  6
Continuous
 62
     7
100
AcDbLine
 10
88.2595077637
 20
183.4659794209
 30
0.0
 11
88.1011729684
 21
183.4659794209
 31
0.0
  0
LINE
  5
114
330
1F
100
AcDbEntity
  8
0
  6
Continuous
 62
     7
100
AcDbLine
 10
88.2595077637
 20
183.4659794209
 30
0.0
 11
88.2595077637
 21
183.3659794209
 31
0.0
  0
LINE
  5
115
330
1F
100
AcDbEntity
  8
0
  6
Continuous
 62
     7
100
AcDbLine
 10
86.191883568
 20
183.4659794209
 30
0.0
 11
86.191883568
 21
183.3659794209
 31
0.0
  0
LINE
  5
116
330
1F
100
AcDbEntity
  8
0
  6
Continuous
 62
     7
100
AcDbLine
 10
88.1011729684
 20
183.4659794209
 30
0.0
 11
86.191883568
 21
183.4659794209
 31
0.0
  0
LINE
  5
117
330
1F
100
AcDbEntity
  8
0
  6
Continuous
 62
     7
100
AcDbLine
 10
91.7035503617
 20
183.4659794209
 30
0.0
 11
91.7035503617
 21
183.3659794209
 31
0.0
  0
LINE
  5
118
330
1F
100
AcDbEntity
  8
0
  6
Continuous
 62
     7
100
AcDbLine
 10
90.3905127128
 20
183.4659794209
 30
0.0
 11
89.5417811526
 21
183.4659794209
 31
0.0
  0
LINE
  5
119
330
1F
100
AcDbEntity
  8
0
  6
Continuous
 62
     7
100
AcDbLine
 10
85.273563483
 20
183.4659794209
 30
0.0
 11
85.273563483
 21
183.3659794209
 31
0.0
  0
LINE
  5
11A
330
1F
100
AcDbEntity
  8
0
  6
Continuous
 62
     7
100
AcDbLine
 10
85.4960880601
 20
183.4659794209
 30
0.0
 11
85.273563483
 21
183.4659794209
 31
0.0
  0
LINE
  5
11B
330
1F
100
AcDbEntity
  8
0
  6
Continuous
 62
     7
100
AcDbLine
 10
85.4960880601
 20
183.4659794209
 30
0.0
 11
85.4960880601
 21
183.3659794209
 31
0.0
  0
LINE
  5
11C
330
1F
100
AcDbEntity
  8
0
  6
Continuous
 62
     7
100
AcDbLine
 10
86.191883568
 20
183.4659794209
 30
0.0
 11
85.4960880601
 21
183.4659794209
 31
0.0
  0
LINE
  5
11D
330
1F
100
AcDbEntity
  8
0
  6
Continuous
 62
     7
100
AcDbLine
 10
88.4278276361
 20
183.4659794209
 30
0.0
 11
88.4278276361
 21
183.3659794209
 31
0.0
  0
LINE
  5
11E
330
1F
100
AcDbEntity
  8
0
  6
Continuous
 62
     7
100
AcDbLine
 10
88.4278276361
 20
183.4659794209
 30
0.0
 11
88.2595077637
 21
183.4659794209
 31
0.0
  0
LINE
  5
11F
330
1F
100
AcDbEntity
  8
0
  6
Continuous
 62
     7
100
AcDbLine
 10
88.5747509146
 20
183.4659794209
 30
0.0
 11
88.5747509146
 21
183.3659794209
 31
0.0
  0
LINE
  5
120
330
1F
100
AcDbEntity
  8
0
  6
Continuous
 62
     7
100
AcDbLine
 10
88.5747509146
 20
183.4659794209
 30
0.0
 11
88.4278276361
 21
183.4659794209
 31
0.0
  0
LINE
  5
121
330
1F
100
AcDbEntity
  8
0
  6
Continuous
 62
     7
100
AcDbLine
 10
84.3706272182
 20
183.4659794209
 30
0.0
 11
84.3706272182
 21
183.3659794209
 31
0.0
  0
LINE
  5
122
330
1F
100
AcDbEntity
  8
0
  6
Continuous
 62
     7
100
AcDbLine
 10
88.6188747334
 20
183.4659794209
 30
0.0
 11
88.5747509146
 21
183.4659794209
 31
0.0
  0
LINE
  5
123
330
1F
100
AcDbEntity
  8
0
  6
Continuous
 62
     7
100
AcDbLine
 10
68.3374301829
 20
190.3659794209
 30
0.0
 11
68.4213086085
 21
193.3659794209
 31
0.0
  0
LINE
  5
124
330
1F
100
AcDbEntity
  8
0
  6
Continuous
 62
     7
100
AcDbLine
 10
165.2923217734
 20
193.3659794209
 30
0.0
 11
68.4213086085
 21
193.3659794209
 31
0.0
  0
LINE
  5
125
330
1F
100
AcDbEntity
  8
0
  6
Continuous
 62
     7
100
AcDbLine
 10
165.2923217734
 20
193.3659794209
 30
0.0
 11
165.376200199
 21
190.3659794209
 31
0.0
  0
LINE
  5
126
330
1F
100
AcDbEntity
  8
0
  6
Continuous
 62
     7
100
AcDbLine
 10
175.3568151909
 20
193.3659794209
 30
0.0
 11
169.4856363356
 21
193.3659794209
 31
0.0
  0
SPLINE
  5
127
330
1F
100
AcDbEntity
  8
0
  6
Continuous
 62
     7
100
AcDbSpline
210
0.0
220
0.0
230
1.0
 70
     8
 71
     3
 72
    13
 73
     9
 74
     0
 42
0.000000001
 43
0.00000001
 40
0.0
 40
0.0
 40
0.0
 40
0.0
 40
0.2120809746712163
 40
0.3719824798182761
 40
0.5330697072021702
 40
0.6702314506130573
 40
0.8477739727580964
 40
1.0
 40
1.0
 40
1.0
 40
1.0
 10
169.4856363356397
 20
193.365979420862
 30
0.0
 10
168.9320248198756
 20
193.7697689994101
 30
0.0
 10
167.9610099289399
 20
194.4780015458986
 30
0.0
 10
166.6639945568529
 20
195.1256017902829
 30
0.0
 10
165.7674720355826
 20
195.2755003126672
 30
0.0
 10
165.2217052629721
 20
194.9579323880025
 30
0.0
 10
165.063387460686
 20
194.2904529811501
 30
0.0
 10
165.220018551287
 20
193.6579514558113
 30
0.0
 10
165.2923217733775
 20
193.365979420862
 30
0.0
  0
SPLINE
  5
128
330
1F
100
AcDbEntity
  8
0
  6
Continuous
 62
     7
100
AcDbSpline
210
0.0
220
0.0
230
1.0
 70
     8
 71
     3
 72
    13
 73
     9
 74
     0
 42
0.000000001
 43
0.00000001
 40
0.0
 40
0.0
 40
0.0
 40
0.0
 40
0.2120809746712359
 40
0.3719824798182955
 40
0.5330697072021868
 40
0.6702314506130755
 40
0.8477739727581194
 40
1.0
 40
1.0
 40
1.0
 40
1.0
 10
68.42130860846495
 20
193.365979420862
 30
0.0
 10
68.5117140370771
 20
193.7697689994101
 30
0.0
 10
68.67028194056918
 20
194.4780015458983
 30
0.0
 10
68.35107391469211
 20
195.125601790283
 30
0.0
 10
67.6799240874012
 20
195.2755003126673
 30
0.0
 10
66.65642885492105
 20
194.9579323880022
 30
0.0
 10
65.48056700463482
 20
194.2904529811506
 30
0.0
 10
64.62358813488797
 20
193.6579514558113
 30
0.0
 10
64.22799404620264
 20
193.365979420862
 30
0.0
  0
LINE
  5
129
330
1F
100
AcDbEntity
  8
0
  6
Continuous
 62
     7
100
AcDbLine
 10
64.2279940462
 20
193.3659794209
 30
0.0
 11
58.3568151909
 21
193.3659794209
 31
0.0
  0
LINE
  5
12A
330
1F
100
AcDbEntity
  8
0
  6
Continuous
 62
     7
100
AcDbLine
 10
141.8568151909
 20
265.3659794209
 30
0.0
 11
91.8568151909
 21
265.3659794209
 31
0.0
  0
LINE
  5
12B
330
1F
100
AcDbEntity
  8
0
  6
Continuous
 62
     7
100
AcDbLine
 10
81.6419396706
 20
183.4659794209
 30
0.0
 11
81.6419396706
 21
183.3659794209
 31
0.0
  0
LINE
  5
12C
330
1F
100
AcDbEntity
  8
0
  6
Continuous
 62
     7
100
AcDbLine
 10
83.693159811
 20
183.4659794209
 30
0.0
 11
83.693159811
 21
183.3659794209
 31
0.0
  0
LINE
  5
12D
330
1F
100
AcDbEntity
  8
0
  6
Continuous
 62
     7
100
AcDbLine
 10
80.1665893254
 20
183.4659794209
 30
0.0
 11
80.1665893254
 21
183.3659794209
 31
0.0
  0
LINE
  5
12E
330
1F
100
AcDbEntity
  8
0
  6
Continuous
 62
     7
100
AcDbLine
 10
80.4747002783
 20
183.4659794209
 30
0.0
 11
80.1665893254
 21
183.4659794209
 31
0.0
  0
LINE
  5
12F
330
1F
100
AcDbEntity
  8
0
  6
Continuous
 62
     7
100
AcDbLine
 10
80.4747002783
 20
183.4659794209
 30
0.0
 11
80.4747002783
 21
183.3659794209
 31
0.0
  0
LINE
  5
130
330
1F
100
AcDbEntity
  8
0
  6
Continuous
 62
     7
100
AcDbLine
 10
79.807126547
 20
183.4659794209
 30
0.0
 11
79.807126547
 21
183.3659794209
 31
0.0
  0
LINE
  5
131
330
1F
100
AcDbEntity
  8
0
  6
Continuous
 62
     7
100
AcDbLine
 10
80.1665893254
 20
183.4659794209
 30
0.0
 11
79.807126547
 21
183.4659794209
 31
0.0
  0
LINE
  5
132
330
1F
100
AcDbEntity
  8
0
  6
Continuous
 62
     7
100
AcDbLine
 10
78.5176251514
 20
183.4659794209
 30
0.0
 11
78.5176251514
 21
183.3659794209
 31
0.0
  0
LINE
  5
133
330
1F
100
AcDbEntity
  8
0
  6
Continuous
 62
     7
100
AcDbLine
 10
79.3085859079
 20
183.4659794209
 30
0.0
 11
79.3085859079
 21
183.3659794209
 31
0.0
  0
LINE
  5
134
330
1F
100
AcDbEntity
  8
0
  6
Continuous
 62
     7
100
AcDbLine
 10
79.3085859079
 20
183.4659794209
 30
0.0
 11
78.5176251514
 21
183.4659794209
 31
0.0
  0
LINE
  5
135
330
1F
100
AcDbEntity
  8
0
  6
Continuous
 62
     7
100
AcDbLine
 10
78.1966762421
 20
183.4659794209
 30
0.0
 11
78.1966762421
 21
183.3659794209
 31
0.0
  0
LINE
  5
136
330
1F
100
AcDbEntity
  8
0
  6
Continuous
 62
     7
100
AcDbLine
 10
78.5176251514
 20
183.4659794209
 30
0.0
 11
78.1966762421
 21
183.4659794209
 31
0.0
  0
LINE
  5
137
330
1F
100
AcDbEntity
  8
0
  6
Continuous
 62
     7
100
AcDbLine
 10
79.807126547
 20
183.4659794209
 30
0.0
 11
79.3085859079
 21
183.4659794209
 31
0.0
  0
LINE
  5
138
330
1F
100
AcDbEntity
  8
0
  6
Continuous
 62
     7
100
AcDbLine
 10
169.5416291753
 20
190.3659794209
 30
0.0
 11
169.4856363356
 21
193.3659794209
 31
0.0
  0
SPLINE
  5
139
330
1F
100
AcDbEntity
  8
0
  6
Continuous
 62
     7
100
AcDbSpline
210
0.0
220
0.0
230
1.0
 70
     8
 71
     3
 72
    12
 73
     8
 74
     0
 42
0.000000001
 43
0.00000001
 40
0.0
 40
0.0
 40
0.0
 40
0.0
 40
0.0318404238497807
 40
0.3969751231639449
 40
0.672338720244265
 40
0.8929822347186674
 40
0.9999999999999999
 40
0.9999999999999999
 40
0.9999999999999999
 40
0.9999999999999999
 10
174.6017613123554
 20
183.365979420862
 30
0.0
 10
174.5879730026286
 20
183.4611631301648
 30
0.0
 10
174.4160652422982
 20
184.6478798931686
 30
0.0
 10
173.7845020212722
 20
186.5995101214227
 30
0.0
 10
172.2165943194388
 20
188.687845379104
 30
0.0
 10
170.7100758535984
 20
189.8157608500295
 30
0.0
 10
169.8293001679654
 20
190.230515881639
 30
0.0
 10
169.5416291753451
 20
190.365979420862
 30
0.0
  0
SPLINE
  5
13A
330
1F
100
AcDbEntity
  8
0
  6
Continuous
 62
     7
100
AcDbSpline
210
0.0
220
0.0
230
1.0
 70
     8
 71
     3
 72
    11
 73
     7
 74
     0
 42
0.000000001
 43
0.00000001
 40
0.0
 40
0.0
 40
0.0
 40
0.0
 40
0.2192786105390372
 40
0.4376005807849271
 40
0.7536976505310609
 40
1.0
 40
1.0
 40
1.0
 40
1.0
 10
64.17200120649727
 20
190.365979420862
 30
0.0
 10
63.58072900027081
 20
190.0645723914833
 30
0.0
 10
62.40076411354234
 20
189.4630732722374
 30
0.0
 10
60.74374433114335
 20
187.8257787098167
 30
0.0
 10
59.58141840082892
 20
185.7651898299382
 30
0.0
 10
59.25487741691439
 20
184.0966952218021
 30
0.0
 10
59.11186906948704
 20
183.3659794208619
 30
0.0
  0
LINE
  5
13B
330
1F
100
AcDbEntity
  8
0
  6
Continuous
 62
     7
100
AcDbLine
 10
64.2279940462
 20
193.3659794209
 30
0.0
 11
64.1720012065
 21
190.3659794209
 31
0.0
  0
LINE
  5
13C
330
1F
100
AcDbEntity
  8
0
  6
Continuous
 62
     7
100
AcDbLine
 10
175.4353729556
 20
190.3659794209
 30
0.0
 11
169.5416291753
 21
190.3659794209
 31
0.0
  0
LINE
  5
13D
330
1F
100
AcDbEntity
  8
0
  6
Continuous
 62
     7
100
AcDbLine
 10
64.1720012065
 20
190.3659794209
 30
0.0
 11
58.2782574262
 21
190.3659794209
 31
0.0
  0
LINE
  5
13E
330
1F
100
AcDbEntity
  8
0
  6
Continuous
 62
     7
100
AcDbLine
 10
18.7335042997
 20
1199.6659794209
 30
0.0
 11
13.6068151909
 21
1199.6659794209
 31
0.0
  0
LINE
  5
13F
330
1F
100
AcDbEntity
  8
0
  6
Continuous
 62
     7
100
AcDbLine
 10
220.1068151909
 20
1199.6659794209
 30
0.0
 11
215.0287380195
 21
1199.6659794209
 31
0.0
  0
LINE
  5
140
330
1F
100
AcDbEntity
  8
0
  6
Continuous
 62
     7
100
AcDbLine
 10
109.3568151909
 20
1343.5659794209
 30
0.0
 11
124.3568151909
 21
1343.5659794209
 31
0.0
  0
LINE
  5
141
330
1F
100
AcDbEntity
  8
0
  6
Continuous
 62
     7
100
AcDbLine
 10
109.9456179242
 20
1346.5659794209
 30
0.0
 11
106.8568151909
 21
1346.5659794209
 31
0.0
  0
LINE
  5
142
330
1F
100
AcDbEntity
  8
0
  6
Continuous
 62
     7
100
AcDbLine
 10
126.8568151909
 20
1346.5659794209
 30
0.0
 11
109.9456179242
 21
1346.5659794209
 31
0.0
  0
LINE
  5
143
330
1F
100
AcDbEntity
  8
0
  6
Continuous
 62
     7
100
AcDbLine
 10
109.9456179242
 20
1344.0659794209
 30
0.0
 11
106.8568151909
 21
1344.0659794209
 31
0.0
  0
LINE
  5
144
330
1F
100
AcDbEntity
  8
0
  6
Continuous
 62
     7
100
AcDbLine
 10
126.8568151909
 20
1344.0659794209
 30
0.0
 11
109.9456179242
 21
1344.0659794209
 31
0.0
  0
LINE
  5
145
330
1F
100
AcDbEntity
  8
0
  6
Continuous
 62
     7
100
AcDbLine
 10
113.7310365665
 20
1351.5659794209
 30
0.0
 11
112.334040766
 21
1351.5659794209
 31
0.0
  0
LINE
  5
146
330
1F
100
AcDbEntity
  8
0
  6
Continuous
 62
     7
100
AcDbLine
 10
121.3795896159
 20
1351.5659794209
 30
0.0
 11
113.7310365665
 21
1351.5659794209
 31
0.0
  0
LINE
  5
147
330
1F
100
AcDbEntity
  8
0
  6
Continuous
 62
     7
100
AcDbLine
 10
150.6142690393
 20
1327.4441100775
 30
0.0
 11
83.0993613426
 21
1327.4441100775
 31
0.0
  0
LINE
  5
148
330
1F
100
AcDbEntity
  8
0
  6
Continuous
 62
     7
100
AcDbLine
 10
151.6068151909
 20
1327.5659794209
 30
0.0
 11
82.1068151909
 21
1327.5659794209
 31
0.0
  0
LINE
  5
149
330
1F
100
AcDbEntity
  8
0
  6
Continuous
 62
     7
100
AcDbLine
 10
148.0511177703
 20
1325.1474277375
 30
0.0
 11
85.6625126115
 21
1325.1474277375
 31
0.0
  0
LINE
  5
14A
330
1F
100
AcDbEntity
  8
0
  6
Continuous
 62
     7
100
AcDbLine
 10
160.79625728
 20
1010.3482889503
 30
0.0
 11
158.0911862327
 21
1009.5565596002
 31
0.0
  0
LINE
  5
14B
330
1F
100
AcDbEntity
  8
0
  6
Continuous
 62
     7
100
AcDbLine
 10
116.7568151909
 20
991.8659794209
 30
0.0
 11
116.9568151909
 21
991.8659794209
 31
0.0
  0
LINE
  5
14C
330
1F
100
AcDbEntity
  8
0
  6
Continuous
 62
     7
100
AcDbLine
 10
107.0858347153
 20
980.8659794209
 30
0.0
 11
106.1082571895
 21
980.8659794209
 31
0.0
  0
ARC
  5
14D
330
1F
100
AcDbEntity
  8
0
  6
Continuous
 62
     7
100
AcDbCircle
 10
221.8568151909
 20
1203.3294287759
 30
0.0
 40
1.000000000000009
100
AcDbArc
 50
274.1865317246
 51
310.2307636407
  0
ARC
  5
14E
330
1F
100
AcDbEntity
  8
0
  6
Continuous
 62
     7
100
AcDbCircle
 10
11.8568151909
 20
1203.3294287759
 30
0.0
 40
1.000000000000007
100
AcDbArc
 50
229.7692363593
 51
265.8134682754
  0
ARC
  5
14F
330
1F
100
AcDbEntity
  8
0
  6
Continuous
 62
     7
100
AcDbCircle
 10
222.8568151909
 20
1189.6680549391
 30
0.0
 40
12.69792448172246
100
AcDbArc
 50
94.1865317246
 51
171.2215739776
  0
ARC
  5
150
330
1F
100
AcDbEntity
  8
0
  6
Continuous
 62
     7
100
AcDbCircle
 10
10.8568151909
 20
1189.6680549391
 30
0.0
 40
12.69792448172254
100
AcDbArc
 50
8.7784260224
 51
85.8134682754
  0
LINE
  5
151
330
1F
100
AcDbEntity
  8
0
  6
Continuous
 62
     7
100
AcDbLine
 10
210.3076352606
 20
1191.6059324427
 30
0.0
 11
182.45093874
 21
1011.2133656999
 31
0.0
  0
LINE
  5
152
330
1F
100
AcDbEntity
  8
0
  6
Continuous
 62
     7
100
AcDbLine
 10
51.2626916419
 20
1011.2133656999
 30
0.0
 11
23.4059951213
 21
1191.6059324427
 31
0.0
  0
ARC
  5
153
330
1F
100
AcDbEntity
  8
0
  6
Continuous
 62
     7
100
AcDbCircle
 10
194.5375192186
 20
1187.9010749942
 30
0.0
 40
1.984451343983848
100
AcDbArc
 50
351.5861478067
 51
90.404663763
  0
ARC
  5
154
330
1F
100
AcDbEntity
  8
0
  6
Continuous
 62
     7
100
AcDbCircle
 10
39.1761111633
 20
1187.9010749942
 30
0.0
 40
1.984451343983862
100
AcDbArc
 50
89.595336237
 51
188.4138521933
  0
LINE
  5
155
330
1F
100
AcDbEntity
  8
0
  6
Continuous
 62
     7
100
AcDbLine
 10
194.5235037207
 20
1189.8854768442
 30
0.0
 11
39.1901266611
 21
1189.8854768442
 31
0.0
  0
LINE
  5
156
330
1F
100
AcDbEntity
  8
0
  6
Continuous
 62
     7
100
AcDbLine
 10
196.520486312
 20
1188.0174390118
 30
0.0
 11
171.2601067148
 21
1024.4379309728
 31
0.0
  0
LINE
  5
157
330
1F
100
AcDbEntity
  8
0
  6
Continuous
 62
     7
100
AcDbLine
 10
196.5006118851
 20
1187.6107057135
 30
0.0
 11
171.2601067148
 21
1024.1598991834
 31
0.0
  0
LINE
  5
158
330
1F
100
AcDbEntity
  8
0
  6
Continuous
 62
     7
100
AcDbLine
 10
37.1931440699
 20
1188.0174390118
 30
0.0
 11
62.453523667
 21
1024.4379309728
 31
0.0
  0
LINE
  5
159
330
1F
100
AcDbEntity
  8
0
  6
Continuous
 62
     7
100
AcDbLine
 10
37.2130184967
 20
1187.6107057135
 30
0.0
 11
62.453523667
 21
1024.1598991834
 31
0.0
  0
LINE
  5
15A
330
1F
100
AcDbEntity
  8
0
  6
Continuous
 62
     7
100
AcDbLine
 10
169.2811822344
 20
1011.3449099351
 30
0.0
 11
171.2601067148
 21
1024.1598991834
 31
0.0
  0
LINE
  5
15B
330
1F
100
AcDbEntity
  8
0
  6
Continuous
 62
     7
100
AcDbLine
 10
64.4324481474
 20
1011.3449099351
 30
0.0
 11
62.453523667
 21
1024.1598991834
 31
0.0
  0
ARC
  5
15C
330
1F
100
AcDbEntity
  8
0
  6
Continuous
 62
     7
100
AcDbCircle
 10
64.4213141322
 20
1024.4742448101
 30
0.0
 40
1.992739944841956
100
AcDbArc
 50
189.0760572754
 51
270.2679058981
  0
LINE
  5
15D
330
1F
100
AcDbEntity
  8
0
  6
Continuous
 62
     7
100
AcDbLine
 10
169.2829985504
 20
1022.4815266493
 30
0.0
 11
64.4306318314
 21
1022.4815266493
 31
0.0
  0
ARC
  5
15E
330
1F
100
AcDbEntity
  8
0
  6
Continuous
 62
     7
100
AcDbCircle
 10
169.2923162496
 20
1024.4742448101
 30
0.0
 40
1.992739944841956
100
AcDbArc
 50
269.7320941019
 51
350.9239427246
  0
ELLIPSE
  5
15F
330
1F
100
AcDbEntity
  8
0
  6
Continuous
 62
     7
100
AcDbEllipse
 10
170.8581725277
 20
1011.3659794209
 30
0.0
 11
1.579978987215583
 21
0.1932435913831796
 31
0.0
210
0.0
220
0.0
230
1.0
 40
0.6209897848
 41
2.968196716590031
 42
3.100338108836309
  0
ELLIPSE
  5
160
330
1F
100
AcDbEntity
  8
0
  6
Continuous
 62
     7
100
AcDbEllipse
 10
62.8554578541
 20
1011.3659794209
 30
0.0
 11
1.579978987215569
 21
-0.1932435913831796
 31
0.0
210
0.0
220
0.0
230
1.0
 40
0.6209897848
 41
0.0412545447532598
 42
0.1733959369995333
  0
ARC
  5
161
330
1F
100
AcDbEntity
  8
0
  6
Continuous
 62
     7
100
AcDbCircle
 10
169.2923162496
 20
1024.7522765995
 30
0.0
 40
1.992739944842295
100
AcDbArc
 50
269.732094102
 51
350.9239427246
  0
ARC
  5
162
330
1F
100
AcDbEntity
  8
0
  6
Continuous
 62
     7
100
AcDbCircle
 10
64.4213141322
 20
1024.7522765995
 30
0.0
 40
1.992739944842295
100
AcDbArc
 50
189.0760572754
 51
270.267905898
  0
LINE
  5
163
330
1F
100
AcDbEntity
  8
0
  6
Continuous
 62
     7
100
AcDbLine
 10
64.4306318314
 20
1022.7595584387
 30
0.0
 11
169.2829985504
 21
1022.7595584387
 31
0.0
  0
ARC
  5
164
330
1F
100
AcDbEntity
  8
0
  6
Continuous
 62
     7
100
AcDbCircle
 10
181.4626528237
 20
1011.3659794209
 30
0.0
 40
1.000000000000114
100
AcDbArc
 50
270.0
 51
351.2215739775
  0
LINE
  5
165
330
1F
100
AcDbEntity
  8
0
  6
Continuous
 62
     7
100
AcDbLine
 10
181.4626528237
 20
1010.3659794209
 30
0.0
 11
171.691760302
 21
1010.3659794209
 31
0.0
  0
LINE
  5
166
330
1F
100
AcDbEntity
  8
0
  6
Continuous
 62
     7
100
AcDbLine
 10
62.0218700798
 20
1010.3659794209
 30
0.0
 11
52.2509775581
 21
1010.3659794209
 31
0.0
  0
ARC
  5
167
330
1F
100
AcDbEntity
  8
0
  6
Continuous
 62
     7
100
AcDbCircle
 10
52.2509775581
 20
1011.3659794209
 30
0.0
 40
1.000000000000114
100
AcDbArc
 50
188.7784260225
 51
270.0
  0
LINE
  5
168
330
1F
100
AcDbEntity
  8
0
  6
Continuous
 62
     7
100
AcDbLine
 10
171.691760302
 20
1010.3659794209
 30
0.0
 11
169.6290532694
 21
1010.3659794209
 31
0.0
  0
ELLIPSE
  5
169
330
1F
100
AcDbEntity
  8
0
  6
Continuous
 62
     7
100
AcDbEllipse
 10
169.6290532694
 20
1011.3659794209
 30
0.0
 11
0.0
 21
1.000000000000114
 31
0.0
210
0.0
220
0.0
230
1.0
 40
0.3586660874
 41
1.724008764029256
 42
3.141592653589991
  0
ELLIPSE
  5
16A
330
1F
100
AcDbEntity
  8
0
  6
Continuous
 62
     7
100
AcDbEllipse
 10
64.0845771124
 20
1011.3659794209
 30
0.0
 11
0.0
 21
1.000000000000114
 31
0.0
210
0.0
220
0.0
230
1.0
 40
0.3586660874
 41
3.141592653589753
 42
4.559176543150148
  0
LINE
  5
16B
330
1F
100
AcDbEntity
  8
0
  6
Continuous
 62
     7
100
AcDbLine
 10
64.0845771124
 20
1010.3659794209
 30
0.0
 11
62.0218700798
 21
1010.3659794209
 31
0.0
  0
LINE
  5
16C
330
1F
100
AcDbEntity
  8
0
  6
Continuous
 62
     7
100
AcDbLine
 10
169.6290532694
 20
1010.3659794209
 30
0.0
 11
64.0845771124
 21
1010.3659794209
 31
0.0
  0
ARC
  5
16D
330
1F
100
AcDbEntity
  8
0
  6
Continuous
 62
     7
100
AcDbCircle
 10
177.7120661798
 20
1009.8659794209
 30
0.0
 40
0.500000000000083
100
AcDbArc
 50
90.0
 51
115.8768016316
  0
ARC
  5
16E
330
1F
100
AcDbEntity
  8
0
  6
Continuous
 62
     7
100
AcDbCircle
 10
56.001564202
 20
1009.8659794209
 30
0.0
 40
0.5000000000001358
100
AcDbArc
 50
64.1231983684
 51
90.0
  0
SPLINE
  5
16F
330
1F
100
AcDbEntity
  8
0
  6
Continuous
 62
     7
100
AcDbSpline
210
0.0
220
0.0
230
1.0
 70
     8
 71
     3
 72
    12
 73
     8
 74
     0
 42
0.000000001
 43
0.00000001
 40
0.0
 40
0.0
 40
0.0
 40
0.0
 40
0.3712465717668064
 40
0.6554791730354769
 40
0.8323167381005696
 40
0.9214776554107229
 40
1.0
 40
1.0
 40
1.0
 40
1.0
 10
177.4938474135679
 20
1010.315846701352
 30
0.0
 10
177.4582569915933
 20
1010.2956127772
 30
0.0
 10
177.3954179456921
 20
1010.259887421388
 30
0.0
 10
177.3165247709825
 20
1010.17891477398
 30
0.0
 10
177.2659926731378
 20
1010.095380611365
 30
0.0
 10
177.2355331403757
 20
1010.025477609455
 30
0.0
 10
177.223539552396
 20
1009.96881848841
 30
0.0
 10
177.2179232217167
 20
1009.94228628134
 30
0.0
  0
SPLINE
  5
170
330
1F
100
AcDbEntity
  8
0
  6
Continuous
 62
     7
100
AcDbSpline
210
0.0
220
0.0
230
1.0
 70
     8
 71
     3
 72
    10
 73
     6
 74
     0
 42
0.000000001
 43
0.00000001
 40
0.0
 40
0.0
 40
0.0
 40
0.0
 40
0.0787110322663145
 40
0.6278613298926461
 40
1.0
 40
1.0
 40
1.0
 40
1.0
 10
56.4957071601252
 20
1009.94228628134
 30
0.0
 10
56.48998180733092
 20
1009.968037887434
 30
0.0
 10
56.44431187370136
 20
1010.17345302663
 30
0.0
 10
56.34179465485992
 20
1010.234900710875
 30
0.0
 10
56.25488757363059
 20
1010.29255731711
 30
0.0
 10
56.21978296827411
 20
1010.315846701352
 30
0.0
  0
LINE
  5
171
330
1F
100
AcDbEntity
  8
0
  6
Continuous
 62
     7
100
AcDbLine
 10
177.2179232217
 20
1009.9422862813
 30
0.0
 11
177.0632890643
 21
1008.9409165553
 31
0.0
  0
LINE
  5
172
330
1F
100
AcDbEntity
  8
0
  6
Continuous
 62
     7
100
AcDbLine
 10
56.6503413175
 20
1008.9409165553
 30
0.0
 11
56.4957071601
 21
1009.9422862813
 31
0.0
  0
ARC
  5
173
330
1F
100
AcDbEntity
  8
0
  6
Continuous
 62
     7
100
AcDbCircle
 10
175.0867172319
 20
1009.2461439973
 30
0.0
 40
2.000000000000049
100
AcDbArc
 50
275.2243770752
 51
351.2215739776
  0
ARC
  5
174
330
1F
100
AcDbEntity
  8
0
  6
Continuous
 62
     7
100
AcDbCircle
 10
58.62691315
 20
1009.2461439973
 30
0.0
 40
2.000000000000014
100
AcDbArc
 50
188.7784260225
 51
264.7756229248
  0
SPLINE
  5
175
330
1F
100
AcDbEntity
  8
0
  6
Continuous
 62
     7
100
AcDbSpline
210
0.0
220
0.0
230
1.0
 70
     8
 71
     3
 72
    11
 73
     7
 74
     0
 42
0.000000001
 43
0.00000001
 40
0.0
 40
0.0
 40
0.0
 40
0.0
 40
0.0076123758240081
 40
0.427597251443525
 40
0.8626243486643647
 40
1.0
 40
1.0
 40
1.0
 40
1.0
 10
161.8108736449024
 20
1009.865979420862
 30
0.0
 10
161.810126749047
 20
1009.867031387239
 30
0.0
 10
161.768172617738
 20
1009.926121734563
 30
0.0
 10
161.6680032866872
 20
1010.022380246257
 30
0.0
 10
161.5443658541818
 20
1010.106495901574
 30
0.0
 10
161.4735888054598
 20
1010.156991501824
 30
0.0
 10
161.456602438444
 20
1010.169110356934
 30
0.0
  0
SPLINE
  5
176
330
1F
100
AcDbEntity
  8
0
  6
Continuous
 62
     7
100
AcDbSpline
210
0.0
220
0.0
230
1.0
 70
     8
 71
     3
 72
    11
 73
     7
 74
     0
 42
0.000000001
 43
0.00000001
 40
0.0
 40
0.0
 40
0.0
 40
0.0
 40
0.1360010687924832
 40
0.5609742947542833
 40
0.9923750097357605
 40
1.0
 40
1.0
 40
1.0
 40
1.0
 10
72.25643166605788
 20
1010.168695555342
 30
0.0
 10
72.23964346370907
 20
1010.156715417129
 30
0.0
 10
72.17039584634526
 20
1010.107299999701
 30
0.0
 10
72.04701947294434
 20
1010.023271989769
 30
0.0
 10
71.9465079370674
 20
1009.927600702061
 30
0.0
 10
71.90350363485854
 20
1009.867031387587
 30
0.0
 10
71.90275673693948
 20
1009.865979420862
 30
0.0
  0
ARC
  5
177
330
1F
100
AcDbEntity
  8
0
  6
Continuous
 62
     7
100
AcDbCircle
 10
178.9168197996
 20
967.3578601058
 30
0.0
 40
40.06302429745754
100
AcDbArc
 50
95.2243770752
 51
179.2909963221
  0
ARC
  5
178
330
1F
100
AcDbEntity
  8
0
  6
Continuous
 62
     7
100
AcDbCircle
 10
54.7968105822
 20
967.3578601058
 30
0.0
 40
40.06302429745781
100
AcDbArc
 50
0.7090036779
 51
84.7756229248
  0
SPLINE
  5
179
330
1F
100
AcDbEntity
  8
0
  6
Continuous
 62
     7
100
AcDbSpline
210
0.0
220
0.0
230
1.0
 70
    24
 71
     3
 72
    13
 73
     9
 74
     0
 42
0.000000001
 43
0.00000001
 40
0.0
 40
0.0
 40
0.0
 40
0.0
 40
0.0927894217230315
 40
0.1859990528438473
 40
0.4159340513127686
 40
0.6525376575232007
 40
0.8248959752089087
 40
1.0
 40
1.0
 40
1.0
 40
1.0
 10
130.1995623585051
 20
966.8659794208619
 30
0.0
 10
130.1548973543862
 20
966.8659794208619
 30
0.0
 10
130.0653650746596
 20
966.8659794208619
 30
0.0
 10
129.8661102896494
 20
966.8659794208619
 30
0.0
 10
129.6016401106381
 20
966.8659794208619
 30
0.0
 10
129.3158572850147
 20
966.8659794208619
 30
0.0
 10
129.0720637914262
 20
966.8659794208619
 30
0.0
 10
128.9425284580707
 20
966.8659794208619
 30
0.0
 10
128.8772489861673
 20
966.8659794208619
 30
0.0
  0
SPLINE
  5
17A
330
1F
100
AcDbEntity
  8
0
  6
Continuous
 62
     7
100
AcDbSpline
210
0.0
220
0.0
230
1.0
 70
    24
 71
     3
 72
    13
 73
     9
 74
     0
 42
0.000000001
 43
0.00000001
 40
0.0
 40
0.0
 40
0.0
 40
0.0
 40
0.1723558600508087
 40
0.3474573247579952
 40
0.5773891887567314
 40
0.8139891898951445
 40
0.9067844494716797
 40
1.0
 40
1.0
 40
1.0
 40
1.0
 10
104.8363813956748
 20
966.8659794208619
 30
0.0
 10
104.7721558753554
 20
966.8659794208619
 30
0.0
 10
104.6426817311936
 20
966.8659794208619
 30
0.0
 10
104.4017718576719
 20
966.8659794208619
 30
0.0
 10
104.1151410925097
 20
966.8659794208619
 30
0.0
 10
103.850906260011
 20
966.8659794208619
 30
0.0
 10
103.6484580255409
 20
966.8659794208619
 30
0.0
 10
103.5589182195785
 20
966.8659794208619
 30
0.0
 10
103.5140471591155
 20
966.8659794208619
 30
0.0
  0
ARC
  5
17B
330
1F
100
AcDbEntity
  8
0
  6
Continuous
 62
     7
100
AcDbCircle
 10
137.8569393905
 20
967.8659794209
 30
0.0
 40
1.000000000000009
100
AcDbArc
 50
270.0
 51
359.2909963221
  0
SPLINE
  5
17C
330
1F
100
AcDbEntity
  8
0
  6
Continuous
 62
     7
100
AcDbSpline
210
0.0
220
0.0
230
1.0
 70
    24
 71
     3
 72
    12
 73
     8
 74
     0
 42
0.000000001
 43
0.00000001
 40
0.0
 40
0.0
 40
0.0
 40
0.0
 40
0.2147021530034695
 40
0.4294051443536288
 40
0.6440893984657869
 40
0.858765604405915
 40
0.9999999999999999
 40
0.9999999999999999
 40
0.9999999999999999
 40
0.9999999999999999
 10
137.8569393904689
 20
966.8659794208619
 30
0.0
 10
137.8458864731088
 20
966.8659794208619
 30
0.0
 10
137.8237805952303
 20
966.8659794208619
 30
0.0
 10
137.6513820844036
 20
966.8659794208619
 30
0.0
 10
137.3976531578245
 20
966.8659794208619
 30
0.0
 10
137.1165061055237
 20
966.8659794208619
 30
0.0
 10
136.930734757492
 20
966.8659794208619
 30
0.0
 10
136.8570159529808
 20
966.8659794208619
 30
0.0
  0
SPLINE
  5
17D
330
1F
100
AcDbEntity
  8
0
  6
Continuous
 62
     7
100
AcDbSpline
210
0.0
220
0.0
230
1.0
 70
    24
 71
     3
 72
    12
 73
     8
 74
     0
 42
0.000000001
 43
0.00000001
 40
0.0
 40
0.0
 40
0.0
 40
0.0
 40
0.214702153003475
 40
0.4294051443536319
 40
0.6440893984657903
 40
0.858765604405919
 40
1.0
 40
1.0
 40
1.0
 40
1.0
 10
96.8566144288613
 20
966.8659794208619
 30
0.0
 10
96.74419386918481
 20
966.8659794208619
 30
0.0
 10
96.51935231086372
 20
966.8659794208619
 30
0.0
 10
96.21969293039791
 20
966.8659794208619
 30
0.0
 10
95.99356745156217
 20
966.8659794208619
 30
0.0
 10
95.87375902319084
 20
966.8659794208619
 30
0.0
 10
95.86153986478374
 20
966.8659794208619
 30
0.0
 10
95.85669099137324
 20
966.8659794208619
 30
0.0
  0
ARC
  5
17E
330
1F
100
AcDbEntity
  8
0
  6
Continuous
 62
     7
100
AcDbCircle
 10
95.8566909914
 20
967.8659794209
 30
0.0
 40
1.0
100
AcDbArc
 50
180.7090036779
 51
270.0
  0
LINE
  5
17F
330
1F
100
AcDbEntity
  8
0
  6
Continuous
 62
     7
100
AcDbLine
 10
136.857015953
 20
966.8659794209
 30
0.0
 11
130.1995623585
 21
966.8659794209
 31
0.0
  0
LINE
  5
180
330
1F
100
AcDbEntity
  8
0
  6
Continuous
 62
     7
100
AcDbLine
 10
103.5140471591
 20
966.8659794209
 30
0.0
 11
96.8566144289
 21
966.8659794209
 31
0.0
  0
LINE
  5
181
330
1F
100
AcDbEntity
  8
0
  6
Continuous
 62
     7
100
AcDbLine
 10
128.2502134731
 20
975.8659794209
 30
0.0
 11
127.5431066921
 21
975.8659794209
 31
0.0
  0
LINE
  5
182
330
1F
100
AcDbEntity
  8
0
  6
Continuous
 62
     7
100
AcDbLine
 10
105.4634169088
 20
975.8659794209
 30
0.0
 11
106.1705236898
 21
975.8659794209
 31
0.0
  0
SPLINE
  5
183
330
1F
100
AcDbEntity
  8
0
  6
Continuous
 62
     7
100
AcDbSpline
210
0.0
220
0.0
230
1.0
 70
    24
 71
     3
 72
     9
 73
     5
 74
     0
 42
0.000000001
 43
0.00000001
 40
0.0
 40
0.0
 40
0.0
 40
0.0
 40
0.5000006367582391
 40
1.0
 40
1.0
 40
1.0
 40
1.0
 10
106.1594761926439
 20
966.8659794208619
 30
0.0
 10
105.9161121967805
 20
966.8659794208619
 30
0.0
 10
105.4293848249092
 20
966.8659794208619
 30
0.0
 10
105.0340490375974
 20
966.8659794208619
 30
0.0
 10
104.8363813956748
 20
966.8659794208619
 30
0.0
  0
SPLINE
  5
184
330
1F
100
AcDbEntity
  8
0
  6
Continuous
 62
     7
100
AcDbSpline
210
0.0
220
0.0
230
1.0
 70
    24
 71
     3
 72
    10
 73
     6
 74
     0
 42
0.000000001
 43
0.00000001
 40
0.0
 40
0.0
 40
0.0
 40
0.0
 40
0.4665574145896942
 40
0.9331148138897074
 40
1.0
 40
1.0
 40
1.0
 40
1.0
 10
128.8772489861673
 20
966.8659794208619
 30
0.0
 10
128.6942031160673
 20
966.8659794208619
 30
0.0
 10
128.3281113818657
 20
966.8659794208619
 30
0.0
 10
127.8419288895847
 20
966.8659794208619
 30
0.0
 10
127.5862164480281
 20
966.8659794208619
 30
0.0
 10
127.5541541891983
 20
966.8659794208619
 30
0.0
  0
LINE
  5
185
330
1F
100
AcDbEntity
  8
0
  6
Continuous
 62
     7
100
AcDbLine
 10
106.1705236898
 20
975.8659794209
 30
0.0
 11
127.5431066921
 21
975.8659794209
 31
0.0
  0
LINE
  5
186
330
1F
100
AcDbEntity
  8
0
  6
Continuous
 62
     7
100
AcDbLine
 10
127.5541541892
 20
966.8659794209
 30
0.0
 11
106.1594761926
 21
966.8659794209
 31
0.0
  0
SPLINE
  5
187
330
1F
100
AcDbEntity
  8
0
  6
Continuous
 62
     7
100
AcDbSpline
210
0.0
220
0.0
230
1.0
 70
     8
 71
     3
 72
    10
 73
     6
 74
     0
 42
0.000000001
 43
0.00000001
 40
0.0
 40
0.0
 40
0.0
 40
0.0
 40
0.3211460294311819
 40
0.6421692896909833
 40
1.0
 40
1.0
 40
1.0
 40
1.0
 10
135.4827893811814
 20
964.8659794208619
 30
0.0
 10
135.4159612986204
 20
964.7744441649336
 30
0.0
 10
135.2823306808432
 20
964.5914086455928
 30
0.0
 10
134.9694309427469
 20
964.4057703541474
 30
0.0
 10
134.730825731153
 20
964.3797139904799
 30
0.0
 10
134.60505454022
 20
964.365979420862
 30
0.0
  0
SPLINE
  5
188
330
1F
100
AcDbEntity
  8
0
  6
Continuous
 62
     7
100
AcDbSpline
210
0.0
220
0.0
230
1.0
 70
     8
 71
     3
 72
    10
 73
     6
 74
     0
 42
0.000000001
 43
0.00000001
 40
0.0
 40
0.0
 40
0.0
 40
0.0
 40
0.3268597336282564
 40
0.6538015083000793
 40
1.0
 40
1.0
 40
1.0
 40
1.0
 10
99.10857584162231
 20
964.365979420862
 30
0.0
 10
98.99382206250067
 20
964.3774904514923
 30
0.0
 10
98.76428570132195
 20
964.4005154019952
 30
0.0
 10
98.4454797816963
 20
964.5765566088007
 30
0.0
 10
98.3037388686821
 20
964.7676826179534
 30
0.0
 10
98.23084100066096
 20
964.8659794208619
 30
0.0
  0
SPLINE
  5
189
330
1F
100
AcDbEntity
  8
0
  6
Continuous
 62
     7
100
AcDbSpline
210
0.0
220
0.0
230
1.0
 70
     8
 71
     3
 72
     9
 73
     5
 74
     0
 42
0.000000001
 43
0.00000001
 40
0.0
 40
0.0
 40
0.0
 40
0.0
 40
0.6173530235501509
 40
1.0
 40
1.0
 40
1.0
 40
1.0
 10
98.23084100066096
 20
964.8659794208619
 30
0.0
 10
98.1830188090102
 20
964.9656013665585
 30
0.0
 10
98.10555552653408
 20
965.1269708616387
 30
0.0
 10
98.09076634760652
 20
965.2998339013692
 30
0.0
 10
98.08510731300572
 20
965.365979420862
 30
0.0
  0
SPLINE
  5
18A
330
1F
100
AcDbEntity
  8
0
  6
Continuous
 62
     7
100
AcDbSpline
210
0.0
220
0.0
230
1.0
 70
     8
 71
     3
 72
     9
 73
     5
 74
     0
 42
0.000000001
 43
0.00000001
 40
0.0
 40
0.0
 40
0.0
 40
0.0
 40
0.6173939455082414
 40
1.0
 40
1.0
 40
1.0
 40
1.0
 10
135.6285230688366
 20
965.365979420862
 30
0.0
 10
135.6161561117438
 20
965.2584576689164
 30
0.0
 10
135.5961252105943
 20
965.0843034636025
 30
0.0
 10
135.5141525987684
 20
964.9263958354454
 30
0.0
 10
135.4827893811814
 20
964.8659794208619
 30
0.0
  0
SPLINE
  5
18B
330
1F
100
AcDbEntity
  8
0
  6
Continuous
 62
     7
100
AcDbSpline
210
0.0
220
0.0
230
1.0
 70
     8
 71
     3
 72
    12
 73
     8
 74
     0
 42
0.000000001
 43
0.00000001
 40
0.0
 40
0.0
 40
0.0
 40
0.0
 40
0.0622784193685799
 40
0.3152263005772408
 40
0.5700368130449237
 40
0.8270032584824877
 40
1.0
 40
1.0
 40
1.0
 40
1.0
 10
135.6285230688366
 20
965.365979420862
 30
0.0
 10
135.6308600781514
 20
965.4185060720845
 30
0.0
 10
135.6426890039364
 20
965.6843731591819
 30
0.0
 10
135.6801591544892
 20
966.1310409796208
 30
0.0
 10
135.7439302396656
 20
966.5844068127303
 30
0.0
 10
135.7987695463965
 20
966.8301468761691
 30
0.0
 10
135.8213826958537
 20
966.855698615821
 30
0.0
 10
135.8304811519314
 20
966.8659794208619
 30
0.0
  0
SPLINE
  5
18C
330
1F
100
AcDbEntity
  8
0
  6
Continuous
 62
     7
100
AcDbSpline
210
0.0
220
0.0
230
1.0
 70
     8
 71
     3
 72
    11
 73
     7
 74
     0
 42
0.000000001
 43
0.00000001
 40
0.0
 40
0.0
 40
0.0
 40
0.0
 40
0.255842875144441
 40
0.5116303330023109
 40
0.7686604261019696
 40
1.0
 40
1.0
 40
1.0
 40
1.0
 10
97.88314922991087
 20
966.8659794208619
 30
0.0
 10
97.89745530089827
 20
966.843847900694
 30
0.0
 10
97.92606434408191
 20
966.799589654194
 30
0.0
 10
97.99069300459983
 20
966.4540542619876
 30
0.0
 10
98.05198176700308
 20
965.9652955701122
 30
0.0
 10
98.07445961076439
 20
965.5586204691069
 30
0.0
 10
98.08510731300572
 20
965.365979420862
 30
0.0
  0
SPLINE
  5
18D
330
1F
100
AcDbEntity
  8
0
  6
Continuous
 62
     7
100
AcDbSpline
210
0.0
220
0.0
230
1.0
 70
    24
 71
     3
 72
     9
 73
     5
 74
     0
 42
0.000000001
 43
0.00000001
 40
0.0
 40
0.0
 40
0.0
 40
0.0
 40
0.6982846517369409
 40
1.0
 40
1.0
 40
1.0
 40
1.0
 10
216.1585036272509
 20
1199.865979420862
 30
0.0
 10
215.985587733444
 20
1199.865979420862
 30
0.0
 10
215.7379582124789
 20
1199.865979420862
 30
0.0
 10
215.5230371627022
 20
1199.865979420862
 30
0.0
 10
215.4581921833197
 20
1199.865979420862
 30
0.0
  0
SPLINE
  5
18E
330
1F
100
AcDbEntity
  8
0
  6
Continuous
 62
     7
100
AcDbSpline
210
0.0
220
0.0
230
1.0
 70
    24
 71
     3
 72
     9
 73
     5
 74
     0
 42
0.000000001
 43
0.00000001
 40
0.0
 40
0.0
 40
0.0
 40
0.0
 40
0.30171534826411
 40
1.0
 40
1.0
 40
1.0
 40
1.0
 10
18.25543819852346
 20
1199.865979420862
 30
0.0
 10
18.19059321914071
 20
1199.865979420862
 30
0.0
 10
17.97567216936377
 20
1199.865979420862
 30
0.0
 10
17.72804264839825
 20
1199.865979420862
 30
0.0
 10
17.55512675459134
 20
1199.865979420862
 30
0.0
  0
LINE
  5
18F
330
1F
100
AcDbEntity
  8
0
  6
Continuous
 62
     7
100
AcDbLine
 10
17.5551267546
 20
1199.8659794209
 30
0.0
 11
12.6068151909
 21
1199.8659794209
 31
0.0
  0
LINE
  5
190
330
1F
100
AcDbEntity
  8
0
  6
Continuous
 62
     7
100
AcDbLine
 10
216.1585036273
 20
1199.8659794209
 30
0.0
 11
221.1068151909
 21
1199.8659794209
 31
0.0
  0
ARC
  5
191
330
1F
100
AcDbEntity
  8
0
  6
Continuous
 62
     7
100
AcDbCircle
 10
7.8568151909
 20
1206.9584446458
 30
0.0
 40
1.000000000000001
100
AcDbArc
 50
117.4397279482
 51
180.0
  0
LINE
  5
192
330
1F
100
AcDbEntity
  8
0
  6
Continuous
 62
     7
100
AcDbLine
 10
6.8568151909
 20
1203.5659794209
 30
0.0
 11
6.8568151909
 21
1206.9584446458
 31
0.0
  0
ARC
  5
193
330
1F
100
AcDbEntity
  8
0
  6
Continuous
 62
     7
100
AcDbCircle
 10
225.8568151909
 20
1203.5659794209
 30
0.0
 40
1.0
100
AcDbArc
 50
270.0
 51
0.0
  0
ARC
  5
194
330
1F
100
AcDbEntity
  8
0
  6
Continuous
 62
     7
100
AcDbCircle
 10
225.8568151909
 20
1206.9584446458
 30
0.0
 40
1.0
100
AcDbArc
 50
0.0
 51
62.5602720518
  0
ARC
  5
195
330
1F
100
AcDbEntity
  8
0
  6
Continuous
 62
     7
100
AcDbCircle
 10
7.8568151909
 20
1203.5659794209
 30
0.0
 40
1.000000000000001
100
AcDbArc
 50
180.0
 51
270.0
  0
LINE
  5
196
330
1F
100
AcDbEntity
  8
0
  6
Continuous
 62
     7
100
AcDbLine
 10
226.8568151909
 20
1206.9584446458
 30
0.0
 11
226.8568151909
 21
1203.5659794209
 31
0.0
  0
LINE
  5
197
330
1F
100
AcDbEntity
  8
0
  6
Continuous
 62
     7
100
AcDbLine
 10
225.8568151909
 20
1202.5659794209
 30
0.0
 11
7.8568151909
 21
1202.5659794209
 31
0.0
  0
LINE
  5
198
330
1F
100
AcDbEntity
  8
0
  6
Continuous
 62
     7
100
AcDbLine
 10
201.0613606296
 20
1220.9597731354
 30
0.0
 11
226.3176304616
 21
1207.8459407226
 31
0.0
  0
LINE
  5
199
330
1F
100
AcDbEntity
  8
0
  6
Continuous
 62
     7
100
AcDbLine
 10
7.3959999203
 20
1207.8459407226
 30
0.0
 11
32.6522697522
 21
1220.9597731354
 31
0.0
  0
LINE
  5
19A
330
1F
100
AcDbEntity
  8
0
  6
Continuous
 62
     7
100
AcDbLine
 10
191.0294180413
 20
1265.7806364516
 30
0.0
 11
200.7563427363
 21
1221.5231290893
 31
0.0
  0
LINE
  5
19B
330
1F
100
AcDbEntity
  8
0
  6
Continuous
 62
     7
100
AcDbLine
 10
32.9572876455
 20
1221.5231290893
 30
0.0
 11
42.6842123405
 21
1265.7806364516
 31
0.0
  0
ARC
  5
19C
330
1F
100
AcDbEntity
  8
0
  6
Continuous
 62
     7
100
AcDbCircle
 10
31.9805981559
 20
1221.73778612
 30
0.0
 40
0.9999999999999352
100
AcDbArc
 50
297.4397279482
 51
347.6045931662
  0
ARC
  5
19D
330
1F
100
AcDbEntity
  8
0
  6
Continuous
 62
     7
100
AcDbCircle
 10
201.733032226
 20
1221.73778612
 30
0.0
 40
0.9999999999999837
100
AcDbArc
 50
192.3954068338
 51
242.5602720518
  0
ARC
  5
19E
330
1F
100
AcDbEntity
  8
0
  6
Continuous
 62
     7
100
AcDbCircle
 10
43.6609018302
 20
1265.5659794209
 30
0.0
 40
1.0
100
AcDbArc
 50
90.0
 51
167.6045931662
  0
ARC
  5
19F
330
1F
100
AcDbEntity
  8
0
  6
Continuous
 62
     7
100
AcDbCircle
 10
190.0527285517
 20
1265.5659794209
 30
0.0
 40
1.0
100
AcDbArc
 50
12.3954068338
 51
90.0
  0
LINE
  5
1A0
330
1F
100
AcDbEntity
  8
0
  6
Continuous
 62
     7
100
AcDbLine
 10
43.6609018302
 20
1266.5659794209
 30
0.0
 11
190.0527285517
 21
1266.5659794209
 31
0.0
  0
LINE
  5
1A1
330
1F
100
AcDbEntity
  8
0
  6
Continuous
 62
     7
100
AcDbLine
 10
134.6797666697
 20
1307.5659794209
 30
0.0
 11
99.0338637121
 21
1307.5659794209
 31
0.0
  0
LINE
  5
1A2
330
1F
100
AcDbEntity
  8
0
  6
Continuous
 62
     7
100
AcDbLine
 10
95.8568151909
 20
964.3659794209
 30
0.0
 11
137.8568151909
 21
964.3659794209
 31
0.0
  0
LINE
  5
1A3
330
1F
100
AcDbEntity
  8
0
  6
Continuous
 62
     7
100
AcDbLine
 10
139.8568150446
 20
942.3659794209
 30
0.0
 11
93.8568151909
 21
942.3659794209
 31
0.0
  0
LINE
  5
1A4
330
1F
100
AcDbEntity
  8
0
  6
Continuous
 62
     7
100
AcDbLine
 10
142.1362267434
 20
952.8659794209
 30
0.0
 11
142.1362267434
 21
946.8659794209
 31
0.0
  0
LINE
  5
1A5
330
1F
100
AcDbEntity
  8
0
  6
Continuous
 62
     7
100
AcDbLine
 10
142.7362267434
 20
952.2659794209
 30
0.0
 11
142.7362267434
 21
947.4659794209
 31
0.0
  0
LWPOLYLINE
  5
1A6
330
1F
100
AcDbEntity
  8
0
  6
Continuous
 62
     7
100
AcDbPolyline
 90
       19
 70
   128
 43
0.0
 10
106.0012054156
 20
947.6851534429
 10
106.539567844
 20
948.521267881
 10
106.7978075099
 20
949.5195743765
 10
106.7447768986
 20
950.5596624328
 10
106.3868722843
 20
951.5160820802
 10
105.7672622456
 20
952.273474994
 10
104.9606808977
 20
952.7404884107
 10
104.0644138549
 20
952.8607936201
 10
103.1865641503
 20
952.6198800383
 10
102.4330134137
 20
952.0468053988
 10
101.8946509854
 20
951.2106909608
 10
101.6364113194
 20
950.2123844652
 10
101.6894419308
 20
949.1722964089
 10
102.0473465451
 20
948.2158767615
 10
102.6669565838
 20
947.4584838478
 10
103.4735379317
 20
946.991470431
 10
104.3698049744
 20
946.8711652216
 10
105.2476546791
 20
947.1120788034
 10
106.0012054156
 20
947.6851534429
  0
LWPOLYLINE
  5
1A7
330
1F
100
AcDbEntity
  8
0
  6
Continuous
 62
     7
100
AcDbPolyline
 90
       17
 70
   128
 43
0.0
 10
105.3443862154
 20
948.1213186385
 10
105.8139455035
 20
948.8848149071
 10
105.9947286918
 20
949.7976845786
 10
105.859213179
 20
950.7209515208
 10
105.4280299732
 20
951.5140567111
 10
104.7668228089
 20
952.0562570738
 10
103.976254483
 20
952.2650075188
 10
103.1766818566
 20
952.1085276831
 10
102.4898326139
 20
951.6106402032
 10
102.0202733259
 20
950.8471439346
 10
101.8394901375
 20
949.9342742631
 10
101.9750056504
 20
949.0110073209
 10
102.4061888562
 20
948.2179021306
 10
103.0673960205
 20
947.6757017679
 10
103.8579643464
 20
947.466951323
 10
104.6575369728
 20
947.6234311587
 10
105.3443862154
 20
948.1213186385
  0
LINE
  5
1A8
330
1F
100
AcDbEntity
  8
0
  6
Continuous
 62
     7
100
AcDbLine
 10
102.8266964257
 20
948.6765820869
 30
0.0
 11
102.4798549197
 21
950.3616937428
 31
0.0
  0
LINE
  5
1A9
330
1F
100
AcDbEntity
  8
0
  6
Continuous
 62
     7
100
AcDbLine
 10
104.2639509207
 20
948.1808677649
 30
0.0
 11
102.8266964257
 21
948.6765820869
 31
0.0
  0
LINE
  5
1AA
330
1F
100
AcDbEntity
  8
0
  6
Continuous
 62
     7
100
AcDbLine
 10
105.3543639096
 20
949.3702650989
 30
0.0
 11
104.2639509207
 21
948.1808677649
 31
0.0
  0
LINE
  5
1AB
330
1F
100
AcDbEntity
  8
0
  6
Continuous
 62
     7
100
AcDbLine
 10
105.0075224036
 20
951.0553767548
 30
0.0
 11
105.3543639096
 21
949.3702650989
 31
0.0
  0
LINE
  5
1AC
330
1F
100
AcDbEntity
  8
0
  6
Continuous
 62
     7
100
AcDbLine
 10
103.5702679087
 20
951.5510910768
 30
0.0
 11
105.0075224036
 21
951.0553767548
 31
0.0
  0
LINE
  5
1AD
330
1F
100
AcDbEntity
  8
0
  6
Continuous
 62
     7
100
AcDbLine
 10
102.4798549197
 20
950.3616937428
 30
0.0
 11
103.5702679087
 21
951.5510910768
 31
0.0
  0
LINE
  5
1AE
330
1F
100
AcDbEntity
  8
0
  6
Continuous
 62
     7
100
AcDbLine
 10
104.3266964257
 20
948.6765820869
 30
0.0
 11
102.8266964257
 21
948.6765820869
 31
0.0
  0
LINE
  5
1AF
330
1F
100
AcDbEntity
  8
0
  6
Continuous
 62
     7
100
AcDbLine
 10
104.6243064777
 20
948.5739352936
 30
0.0
 11
104.3266964257
 21
948.6765820869
 31
0.0
  0
LINE
  5
1B0
330
1F
100
AcDbEntity
  8
0
  6
Continuous
 62
     7
100
AcDbLine
 10
103.9798549197
 20
950.3616937428
 30
0.0
 11
104.7099123517
 21
951.1580235482
 31
0.0
  0
LINE
  5
1B1
330
1F
100
AcDbEntity
  8
0
  6
Continuous
 62
     7
100
AcDbLine
 10
103.9798549197
 20
950.3616937428
 30
0.0
 11
102.4798549197
 21
950.3616937428
 31
0.0
  0
LINE
  5
1B2
330
1F
100
AcDbEntity
  8
0
  6
Continuous
 62
     7
100
AcDbLine
 10
104.3266964257
 20
948.6765820869
 30
0.0
 11
103.9798549197
 21
950.3616937428
 31
0.0
  0
ELLIPSE
  5
1B3
330
1F
100
AcDbEntity
  8
0
  6
Continuous
 62
     8
370
    18
100
AcDbEllipse
 10
191.3568151909
 20
1107.8741082102
 30
0.0
 11
-5.684341886080801E-14
 21
84.14545454545464
 31
0.0
210
0.0
220
0.0
230
1.0
 40
0.1782627485
 41
5.941262341193863
 42
6.056974205628698
  0
ELLIPSE
  5
1B4
330
1F
100
AcDbEntity
  8
0
  6
Continuous
 62
     8
370
    18
100
AcDbEllipse
 10
191.3568151909
 20
1107.5687422714
 30
0.0
 11
-5.684341886080801E-14
 21
84.14545454545464
 31
0.0
210
0.0
220
0.0
230
1.0
 40
0.154494382
 41
5.904035608774135
 42
6.074321609653247
  0
ELLIPSE
  5
1B5
330
1F
100
AcDbEntity
  8
0
  6
Continuous
 62
     8
370
    18
100
AcDbEllipse
 10
42.3568151909
 20
1107.8741082102
 30
0.0
 11
-8.526512829121202E-14
 21
84.14545454545464
 31
0.0
210
0.0
220
0.0
230
1.0
 40
0.1782627485
 41
0.2262111015504287
 42
0.3419229659856854
  0
ELLIPSE
  5
1B6
330
1F
100
AcDbEntity
  8
0
  6
Continuous
 62
     8
370
    18
100
AcDbEllipse
 10
42.3568151909
 20
1107.5687422714
 30
0.0
 11
-8.526512829121201E-14
 21
84.14545454545441
 31
0.0
210
0.0
220
0.0
230
1.0
 40
0.154494382
 41
0.2088636975261177
 42
0.3791496984054089
  0
LINE
  5
1B7
330
1F
100
AcDbEntity
  8
0
  6
Continuous
 62
     8
370
    18
100
AcDbLine
 10
111.6662627616
 20
1348.8387066936
 30
0.0
 11
109.3464631796
 21
1348.8387066936
 31
0.0
  0
LINE
  5
1B8
330
1F
100
AcDbEntity
  8
0
  6
Continuous
 62
     8
370
    18
100
AcDbLine
 10
124.3671672023
 20
1348.8387066936
 30
0.0
 11
111.6662627616
 21
1348.8387066936
 31
0.0
  0
LINE
  5
1B9
330
1F
100
AcDbEntity
  8
0
  6
Continuous
 62
     8
370
    18
100
AcDbLine
 10
151.1641241425
 20
1331.1714086799
 30
0.0
 11
82.5495062394
 21
1331.1714086799
 31
0.0
  0
LINE
  5
1BA
330
1F
100
AcDbEntity
  8
0
  6
Continuous
 62
     8
370
    18
100
AcDbLine
 10
149.7125985278
 20
1333.1447673799
 30
0.0
 11
84.0010318541
 21
1333.1447673799
 31
0.0
  0
LINE
  5
1BB
330
1F
100
AcDbEntity
  8
0
  6
Continuous
 62
     8
370
    18
100
AcDbLine
 10
144.9933312779
 20
1335.2782268519
 30
0.0
 11
88.720299104
 21
1335.2782268519
 31
0.0
  0
LINE
  5
1BC
330
1F
100
AcDbEntity
  8
0
  6
Continuous
 62
     8
370
    18
100
AcDbLine
 10
143.8601107667
 20
1335.986513775
 30
0.0
 11
89.8535196152
 21
1335.986513775
 31
0.0
  0
LINE
  5
1BD
330
1F
100
AcDbEntity
  8
0
  6
Continuous
 62
     8
370
    18
100
AcDbLine
 10
146.9200889177
 20
1322.5083604148
 30
0.0
 11
86.7935414641
 21
1322.5083604148
 31
0.0
  0
LINE
  5
1BE
330
1F
100
AcDbEntity
  8
0
  6
Continuous
 62
     8
370
    18
100
AcDbLine
 10
145.9902464034
 20
1321.5144237577
 30
0.0
 11
87.7233839785
 21
1321.5144237577
 31
0.0
  0
LINE
  5
1BF
330
1F
100
AcDbEntity
  8
0
  6
Continuous
 62
     8
370
    18
100
AcDbLine
 10
134.5268293527
 20
1308.8403749044
 30
0.0
 11
99.1868010291
 21
1308.8403749044
 31
0.0
  0
SPLINE
  5
1C0
330
1F
100
AcDbEntity
  8
0
  6
Continuous
 62
     8
370
    18
100
AcDbSpline
210
0.0
220
0.0
230
1.0
 70
     8
 71
     3
 72
    17
 73
    13
 74
     0
 42
0.000000001
 43
0.00000001
 40
0.0
 40
0.0
 40
0.0
 40
0.0
 40
0.0216516943984968
 40
0.1193388633301461
 40
0.2550380991125833
 40
0.3910408876687428
 40
0.5265382079947838
 40
0.6222018662020331
 40
0.7180715095839036
 40
0.8135968306145522
 40
0.9068322800887004
 40
1.0
 40
1.0
 40
1.0
 40
1.0
 10
157.5570867291697
 20
1010.365979420862
 30
0.0
 10
157.2809042392585
 20
1010.292369826957
 30
0.0
 10
155.7586536564137
 20
1009.886651682913
 30
0.0
 10
152.5663113331897
 20
1008.617439382625
 30
0.0
 10
148.0322115185586
 20
1006.394302554098
 30
0.0
 10
143.2426756552676
 20
1003.196979516087
 30
0.0
 10
139.1755683210688
 20
999.6525789280904
 30
0.0
 10
135.824702667848
 20
995.9547125859591
 30
0.0
 10
133.1208933903172
 20
992.3136359882237
 30
0.0
 10
130.75049231816
 20
988.2953363655737
 30
0.0
 10
128.7246575211991
 20
983.9598197965881
 30
0.0
 10
127.7497479082581
 20
980.8226960533451
 30
0.0
 10
127.2624702184164
 20
979.2547041184379
 30
0.0
  0
LINE
  5
1C1
330
1F
100
AcDbEntity
  8
0
  6
Continuous
 62
     8
370
    18
100
AcDbLine
 10
127.3846213884
 20
980.0490746308
 30
0.0
 11
127.9428783273
 21
983.6795175556
 31
0.0
  0
SPLINE
  5
1C2
330
1F
100
AcDbEntity
  8
0
  6
Continuous
 62
     8
370
    18
100
AcDbSpline
210
0.0
220
0.0
230
1.0
 70
     8
 71
     3
 72
    10
 73
     6
 74
     0
 42
0.000000001
 43
0.00000001
 40
0.0
 40
0.0
 40
0.0
 40
0.0
 40
0.2081596414453931
 40
0.6137333541743567
 40
1.0
 40
1.0
 40
1.0
 40
1.0
 10
127.9428783273417
 20
983.6795175555665
 30
0.0
 10
127.9666825780725
 20
983.7942518510063
 30
0.0
 10
128.0368665125913
 20
984.1325319493485
 30
0.0
 10
128.1127046996987
 20
984.6752989816746
 30
0.0
 10
128.1501498556676
 20
984.978423228507
 30
0.0
 10
128.1684159299366
 20
985.1262898847434
 30
0.0
  0
LINE
  5
1C3
330
1F
100
AcDbEntity
  8
0
  6
Continuous
 62
     8
370
    18
100
AcDbLine
 10
128.1684159299
 20
985.1262898847
 30
0.0
 11
128.3735252486
 21
985.6044110618
 31
0.0
  0
LINE
  5
1C4
330
1F
100
AcDbEntity
  8
0
  6
Continuous
 62
     8
370
    18
100
AcDbLine
 10
125.8592808742
 20
976.3659794209
 30
0.0
 11
107.0858347153
 21
976.3659794209
 31
0.0
  0
LINE
  5
1C5
330
1F
100
AcDbEntity
  8
0
  6
Continuous
 62
     8
370
    18
100
AcDbLine
 10
107.0858347153
 20
977.2635296608
 30
0.0
 11
107.0858347153
 21
980.8659794209
 31
0.0
  0
LINE
  5
1C6
330
1F
100
AcDbEntity
  8
0
  6
Continuous
 62
     8
370
    18
100
AcDbLine
 10
105.2478901774
 20
983.3161116036
 30
0.0
 11
105.2478901774
 21
983.8990709538
 31
0.0
  0
LINE
  5
1C7
330
1F
100
AcDbEntity
  8
0
  6
Continuous
 62
     8
370
    18
100
AcDbLine
 10
105.2478901774
 20
983.8990709538
 30
0.0
 11
126.5509550306
 21
983.8990709538
 31
0.0
  0
SPLINE
  5
1C8
330
1F
100
AcDbEntity
  8
0
  6
Continuous
 62
     8
370
    18
100
AcDbSpline
210
0.0
220
0.0
230
1.0
 70
     8
 71
     3
 72
     9
 73
     5
 74
     0
 42
0.000000001
 43
0.00000001
 40
0.0
 40
0.0
 40
0.0
 40
0.0
 40
0.4973481859084951
 40
1.0
 40
1.0
 40
1.0
 40
1.0
 10
126.5509550306128
 20
983.899070953816
 30
0.0
 10
126.3572494218053
 20
982.6594774701776
 30
0.0
 10
125.9677725637492
 20
980.1670717094647
 30
0.0
 10
125.895572411656
 20
977.6374821844948
 30
0.0
 10
125.8592808742287
 20
976.365979420862
 30
0.0
  0
LINE
  5
1C9
330
1F
100
AcDbEntity
  8
0
  6
Continuous
 62
     8
370
    18
100
AcDbLine
 10
126.9121799333
 20
984.6706027808
 30
0.0
 11
105.4539113765
 21
984.6706027808
 31
0.0
  0
SPLINE
  5
1CA
330
1F
100
AcDbEntity
  8
0
  6
Continuous
 62
     8
370
    18
100
AcDbSpline
210
0.0
220
0.0
230
1.0
 70
     8
 71
     3
 72
    11
 73
     7
 74
     0
 42
0.000000001
 43
0.00000001
 40
0.0
 40
0.0
 40
0.0
 40
0.0
 40
0.3393802555265392
 40
0.6056071331914141
 40
0.8734930968667759
 40
1.0
 40
1.0
 40
1.0
 40
1.0
 10
105.4539113764992
 20
984.6706027808298
 30
0.0
 10
105.5115898018863
 20
985.010358799798
 30
0.0
 10
105.6145140742234
 20
985.6166364641035
 30
0.0
 10
105.228655611819
 20
986.2013552817647
 30
0.0
 10
104.6466969889742
 20
986.4533935975243
 30
0.0
 10
104.114338134901
 20
986.3860638228114
 30
0.0
 10
103.9435767554437
 20
986.3644668772163
 30
0.0
  0
SPLINE
  5
1CB
330
1F
100
AcDbEntity
  8
0
  6
Continuous
 62
     8
370
    18
100
AcDbSpline
210
0.0
220
0.0
230
1.0
 70
     8
 71
     3
 72
    10
 73
     6
 74
     0
 42
0.000000001
 43
0.00000001
 40
0.0
 40
0.0
 40
0.0
 40
0.0
 40
0.0599289044257567
 40
0.53482259383376
 40
1.0
 40
1.0
 40
1.0
 40
1.0
 10
128.6356870020937
 20
986.3888969643305
 30
0.0
 10
128.5724620951195
 20
986.3822833276349
 30
0.0
 10
128.008225036777
 20
986.3232613520785
 30
0.0
 10
127.2615077401124
 20
985.8255553087889
 30
0.0
 10
127.0278174186595
 20
985.0529250679809
 30
0.0
 10
126.9121799332699
 20
984.6706027808298
 30
0.0
  0
ARC
  5
1CC
330
1F
100
AcDbEntity
  8
0
  6
Continuous
 62
     8
370
    18
100
AcDbCircle
 10
106.6444473154
 20
983.9394227191
 30
0.0
 40
1.397139973142128
100
AcDbArc
 50
148.4434001916
 51
181.6550291558
  0
SPLINE
  5
1CD
330
1F
100
AcDbEntity
  8
0
  6
Continuous
 62
     8
370
    18
100
AcDbSpline
210
0.0
220
0.0
230
1.0
 70
     8
 71
     3
 72
    10
 73
     6
 74
     0
 42
0.000000001
 43
0.00000001
 40
0.0
 40
0.0
 40
0.0
 40
0.0
 40
0.4230128721071963
 40
0.8149433905364423
 40
1.0
 40
1.0
 40
1.0
 40
1.0
 10
126.9121799332699
 20
984.6706027808298
 30
0.0
 10
126.8597411408881
 20
984.5926344120161
 30
0.0
 10
126.7587166802224
 20
984.4424266736107
 30
0.0
 10
126.6451862428959
 20
984.1479042323672
 30
0.0
 10
126.5738383741742
 20
983.9594982502992
 30
0.0
 10
126.5509550306128
 20
983.899070953816
 30
0.0
  0
LWPOLYLINE
  5
1CE
330
1F
100
AcDbEntity
  8
0
  6
Continuous
 62
     8
370
    18
100
AcDbPolyline
 90
        9
 70
   128
 43
0.0
 10
125.6397085405
 20
975.8659794209
 10
125.6825449778
 20
975.8755867807
 10
125.7237352348
 20
975.9040396546
 10
125.7616963931
 20
975.9502446147
 10
125.7949696266
 20
976.0124260303
 10
125.8222762637
 20
976.0881943044
 10
125.8425669255
 20
976.1746377047
 10
125.8550618534
 20
976.2684342599
 10
125.8592808742
 20
976.3659794209
  0
SPLINE
  5
1CF
330
1F
100
AcDbEntity
  8
0
  6
Continuous
 62
     8
370
    18
100
AcDbSpline
210
0.0
220
0.0
230
1.0
 70
     8
 71
     3
 72
    10
 73
     6
 74
     0
 42
0.000000001
 43
0.00000001
 40
0.0
 40
0.0
 40
0.0
 40
0.0
 40
0.4079091319159425
 40
0.8158766366379201
 40
1.0
 40
1.0
 40
1.0
 40
1.0
 10
126.6623981103041
 20
976.3771185728265
 30
0.0
 10
126.5536816588866
 20
976.3758380897093
 30
0.0
 10
126.3362331984584
 20
976.3732769402345
 30
0.0
 10
126.0549592014947
 20
976.369187964567
 30
0.0
 10
125.9056971215657
 20
976.3667405095338
 30
0.0
 10
125.8592808742287
 20
976.365979420862
 30
0.0
  0
ARC
  5
1D0
330
1F
100
AcDbEntity
  8
0
  6
Continuous
 62
     8
370
    18
100
AcDbCircle
 10
128.1715396329
 20
989.6512132251
 30
0.0
 40
5.976071883949754
100
AcDbArc
 50
254.2655696653
 51
267.8071671619
  0
ARC
  5
1D1
330
1F
100
AcDbEntity
  8
0
  6
Continuous
 62
     8
370
    18
100
AcDbCircle
 10
127.2754978936
 20
985.6284457925
 30
0.0
 40
1.024433099459356
100
AcDbArc
 50
249.2278395877
 51
330.6476323536
  0
LINE
  5
1D2
330
1F
100
AcDbEntity
  8
0
  6
Continuous
 62
     8
370
    18
100
AcDbLine
 10
105.2478901774
 20
983.8990709538
 30
0.0
 11
104.8141792025
 21
983.8990709538
 31
0.0
  0
ARC
  5
1D3
330
1F
100
AcDbEntity
  8
0
  6
Continuous
 62
     8
370
    18
100
AcDbCircle
 10
105.5679791489
 20
983.9217057845
 30
0.0
 40
0.7575342683793066
100
AcDbArc
 50
98.6604069413
 51
161.7693124501
  0
SPLINE
  5
1D4
330
1F
100
AcDbEntity
  8
0
  6
Continuous
 62
     8
370
    18
100
AcDbSpline
210
0.0
220
0.0
230
1.0
 70
     8
 71
     3
 72
    11
 73
     7
 74
     0
 42
0.000000001
 43
0.00000001
 40
0.0
 40
0.0
 40
0.0
 40
0.0
 40
0.165961011992105
 40
0.2791350822536414
 40
0.770143492860573
 40
1.0
 40
1.0
 40
1.0
 40
1.0
 10
104.3224619142115
 20
985.4972990571156
 30
0.0
 10
104.3949950524
 20
985.479220296208
 30
0.0
 10
104.5169908347307
 20
985.4488130556617
 30
0.0
 10
104.7334045604527
 20
985.2443789991981
 30
0.0
 10
104.9090062922887
 20
984.9631587307368
 30
0.0
 10
104.8737498118776
 20
984.6118716816846
 30
0.0
 10
104.8625078562188
 20
984.4998595527675
 30
0.0
  0
LINE
  5
1D5
330
1F
100
AcDbEntity
  8
0
  6
Continuous
 62
     8
370
    18
100
AcDbLine
 10
221.8568151909
 20
1202.3320971104
 30
0.0
 11
221.8568151909
 21
1202.5659794209
 31
0.0
  0
LINE
  5
1D6
330
1F
100
AcDbEntity
  8
0
  6
Continuous
 62
     8
370
    18
100
AcDbLine
 10
221.8568151909
 20
1202.3320971104
 30
0.0
 11
11.8568151909
 21
1202.3320971104
 31
0.0
  0
LINE
  5
1D7
330
1F
100
AcDbEntity
  8
0
  6
Continuous
 62
     8
370
    18
100
AcDbLine
 10
11.8568151909
 20
1202.5659794209
 30
0.0
 11
11.8568151909
 21
1202.3320971104
 31
0.0
  0
ARC
  5
1D8
330
1F
100
AcDbEntity
  8
0
  6
Continuous
 62
     8
370
    18
100
AcDbCircle
 10
221.8933170712
 20
1202.8318215099
 30
0.0
 40
0.5010557480880536
100
AcDbArc
 50
265.8223051779
 51
274.1776948221
  0
ARC
  5
1D9
330
1F
100
AcDbEntity
  8
0
  6
Continuous
 62
     8
370
    18
100
AcDbCircle
 10
11.8203133106
 20
1202.8318215099
 30
0.0
 40
0.501055748087825
100
AcDbArc
 50
265.8223051779
 51
274.1776948221
  0
ELLIPSE
  5
1DA
330
1F
100
AcDbEntity
  8
0
  6
Continuous
 62
     8
370
    18
100
AcDbEllipse
 10
222.8568151909
 20
1189.6680549391
 30
0.0
 11
13.69792448172248
 21
0.0
 31
0.0
210
0.0
220
0.0
230
1.0
 40
0.9269962394
 41
1.643865089628491
 42
2.988380216355324
  0
LINE
  5
1DB
330
1F
100
AcDbEntity
  8
0
  6
Continuous
 62
     8
370
    18
100
AcDbLine
 10
209.3193493443
 20
1191.6059324427
 30
0.0
 11
196.2682776905
 21
1191.6059324427
 31
0.0
  0
SPLINE
  5
1DC
330
1F
100
AcDbEntity
  8
0
  6
Continuous
 62
     8
370
    18
100
AcDbSpline
210
0.0
220
0.0
230
1.0
 70
     8
 71
     3
 72
     9
 73
     5
 74
     0
 42
0.000000001
 43
0.00000001
 40
0.0
 40
0.0
 40
0.0
 40
0.0
 40
0.6953234336049077
 40
1.0
 40
1.0
 40
1.0
 40
1.0
 10
196.2682776905106
 20
1191.605932442712
 30
0.0
 10
195.8719879368399
 20
1191.735101323231
 30
0.0
 10
195.3020520846623
 20
1191.920869376308
 30
0.0
 10
194.7053154037348
 20
1191.938695743529
 30
0.0
 10
194.5235037207478
 20
1191.944127019885
 30
0.0
  0
LINE
  5
1DD
330
1F
100
AcDbEntity
  8
0
  6
Continuous
 62
     8
370
    18
100
AcDbLine
 10
39.1901266611
 20
1191.9441270199
 30
0.0
 11
194.5235037207
 21
1191.9441270199
 31
0.0
  0
SPLINE
  5
1DE
330
1F
100
AcDbEntity
  8
0
  6
Continuous
 62
     8
370
    18
100
AcDbSpline
210
0.0
220
0.0
230
1.0
 70
     8
 71
     3
 72
     9
 73
     5
 74
     0
 42
0.000000001
 43
0.00000001
 40
0.0
 40
0.0
 40
0.0
 40
0.0
 40
0.6953234336049077
 40
1.0
 40
1.0
 40
1.0
 40
1.0
 10
37.44535269133104
 20
1191.605932442712
 30
0.0
 10
37.84164244500168
 20
1191.735101323231
 30
0.0
 10
38.41157829717931
 20
1191.920869376308
 30
0.0
 10
39.00831497810678
 20
1191.938695743529
 30
0.0
 10
39.19012666109379
 20
1191.944127019885
 30
0.0
  0
LINE
  5
1DF
330
1F
100
AcDbEntity
  8
0
  6
Continuous
 62
     8
370
    18
100
AcDbLine
 10
24.3942810375
 20
1191.6059324427
 30
0.0
 11
37.4453526913
 21
1191.6059324427
 31
0.0
  0
ELLIPSE
  5
1E0
330
1F
100
AcDbEntity
  8
0
  6
Continuous
 62
     8
370
    18
100
AcDbEllipse
 10
10.8568151909
 20
1189.6680549391
 30
0.0
 11
13.69792448172258
 21
0.0
 31
0.0
210
0.0
220
0.0
230
1.0
 40
0.9269962394
 41
0.1532124372344676
 42
1.497727563961303
  0
ARC
  5
1E1
330
1F
100
AcDbEntity
  8
0
  6
Continuous
 62
     8
370
    18
100
AcDbCircle
 10
209.8134923025
 20
1193.269650622
 30
0.0
 40
1.735550472648639
100
AcDbArc
 50
253.4579899948
 51
286.5420100052
  0
ARC
  5
1E2
330
1F
100
AcDbEntity
  8
0
  6
Continuous
 62
     8
370
    18
100
AcDbCircle
 10
23.9001380794
 20
1193.269650622
 30
0.0
 40
1.735550472633617
100
AcDbArc
 50
253.4579899946
 51
286.5420100054
  0
SPLINE
  5
1E3
330
1F
100
AcDbEntity
  8
0
  6
Continuous
 62
     8
370
    18
100
AcDbSpline
210
0.0
220
0.0
230
1.0
 70
     8
 71
     3
 72
     9
 73
     5
 74
     0
 42
0.000000001
 43
0.00000001
 40
0.0
 40
0.0
 40
0.0
 40
0.0
 40
0.3036832994948692
 40
1.0
 40
1.0
 40
1.0
 40
1.0
 10
194.5235037207478
 20
1191.371207753137
 30
0.0
 10
194.6786759836549
 20
1191.366126181473
 30
0.0
 10
195.1896433735811
 20
1191.349393053005
 30
0.0
 10
195.6740099948405
 20
1191.178416129279
 30
0.0
 10
196.0112825623906
 20
1191.059362041887
 30
0.0
  0
LINE
  5
1E4
330
1F
100
AcDbEntity
  8
0
  6
Continuous
 62
     8
370
    18
100
AcDbLine
 10
194.5235037207
 20
1191.9441270199
 30
0.0
 11
194.5235037207
 21
1191.3712077531
 31
0.0
  0
ARC
  5
1E5
330
1F
100
AcDbEntity
  8
0
  6
Continuous
 62
     8
370
    18
100
AcDbCircle
 10
186.3638470066
 20
1195.9292503164
 30
0.0
 40
10.8068878317816
100
AcDbArc
 50
333.2160050566
 51
336.4185661827
  0
LINE
  5
1E6
330
1F
100
AcDbEntity
  8
0
  6
Continuous
 62
     8
370
    18
100
AcDbLine
 10
39.1901266611
 20
1191.9441270199
 30
0.0
 11
39.1901266611
 21
1191.3712077531
 31
0.0
  0
SPLINE
  5
1E7
330
1F
100
AcDbEntity
  8
0
  6
Continuous
 62
     8
370
    18
100
AcDbSpline
210
0.0
220
0.0
230
1.0
 70
     8
 71
     3
 72
     9
 73
     5
 74
     0
 42
0.000000001
 43
0.00000001
 40
0.0
 40
0.0
 40
0.0
 40
0.0
 40
0.3036832994948692
 40
1.0
 40
1.0
 40
1.0
 40
1.0
 10
39.19012666109381
 20
1191.371207753137
 30
0.0
 10
39.03495439818674
 20
1191.366126181473
 30
0.0
 10
38.52398700826051
 20
1191.349393053005
 30
0.0
 10
38.03962038700118
 20
1191.178416129279
 30
0.0
 10
37.70234781945106
 20
1191.059362041887
 30
0.0
  0
ARC
  5
1E8
330
1F
100
AcDbEntity
  8
0
  6
Continuous
 62
     8
370
    18
100
AcDbCircle
 10
47.3497833751
 20
1195.9292503163
 30
0.0
 40
10.80688783167009
100
AcDbArc
 50
203.5814338173
 51
206.7839949434
  0
LINE
  5
1E9
330
1F
100
AcDbEntity
  8
0
  6
Continuous
 62
     8
370
    18
100
AcDbLine
 10
194.5235037207
 20
1191.3712077531
 30
0.0
 11
39.1901266611
 21
1191.3712077531
 31
0.0
  0
ARC
  5
1EA
330
1F
100
AcDbEntity
  8
0
  6
Continuous
 62
     8
370
    18
100
AcDbCircle
 10
181.9567957819
 20
1012.8770838792
 30
0.0
 40
1.735550472633959
100
AcDbArc
 50
253.4579899946
 51
286.5420100054
  0
LINE
  5
1EB
330
1F
100
AcDbEntity
  8
0
  6
Continuous
 62
     8
370
    18
100
AcDbLine
 10
181.4626528237
 20
1011.2133656999
 30
0.0
 11
209.3193493443
 21
1191.6059324427
 31
0.0
  0
LINE
  5
1EC
330
1F
100
AcDbEntity
  8
0
  6
Continuous
 62
     8
370
    18
100
AcDbLine
 10
171.691760302
 20
1011.2133656999
 30
0.0
 11
198.8375243104
 21
1187.0021223471
 31
0.0
  0
ARC
  5
1ED
330
1F
100
AcDbEntity
  8
0
  6
Continuous
 62
     8
370
    18
100
AcDbCircle
 10
194.5816822148
 20
1187.6458804116
 30
0.0
 40
4.304255613647538
100
AcDbArc
 50
351.3983881893
 51
66.9307310212
  0
LINE
  5
1EE
330
1F
100
AcDbEntity
  8
0
  6
Continuous
 62
     8
370
    18
100
AcDbLine
 10
171.691760302
 20
1011.2133656999
 30
0.0
 11
181.4626528237
 21
1011.2133656999
 31
0.0
  0
ARC
  5
1EF
330
1F
100
AcDbEntity
  8
0
  6
Continuous
 62
     8
370
    18
100
AcDbCircle
 10
194.5731128587
 20
1187.6826028021
 30
0.0
 40
3.670263622672462
100
AcDbArc
 50
351.3983881892
 51
66.9307310212
  0
ARC
  5
1F0
330
1F
100
AcDbEntity
  8
0
  6
Continuous
 62
     8
370
    18
100
AcDbCircle
 10
199.6225602339
 20
1192.3947829198
 30
0.0
 40
5.449501761947353
100
AcDbArc
 50
254.8907818904
 51
261.7173553941
  0
ARC
  5
1F1
330
1F
100
AcDbEntity
  8
0
  6
Continuous
 62
     8
370
    18
100
AcDbCircle
 10
39.131948167
 20
1187.6458804116
 30
0.0
 40
4.30425561364756
100
AcDbArc
 50
113.0692689788
 51
188.6016118108
  0
LINE
  5
1F2
330
1F
100
AcDbEntity
  8
0
  6
Continuous
 62
     8
370
    18
100
AcDbLine
 10
62.0218700798
 20
1011.2133656999
 30
0.0
 11
34.8761060715
 21
1187.0021223471
 31
0.0
  0
LINE
  5
1F3
330
1F
100
AcDbEntity
  8
0
  6
Continuous
 62
     8
370
    18
100
AcDbLine
 10
52.2509775581
 20
1011.2133656999
 30
0.0
 11
62.0218700798
 21
1011.2133656999
 31
0.0
  0
LINE
  5
1F4
330
1F
100
AcDbEntity
  8
0
  6
Continuous
 62
     8
370
    18
100
AcDbLine
 10
24.3942810375
 20
1191.6059324427
 30
0.0
 11
52.2509775581
 21
1011.2133656999
 31
0.0
  0
ARC
  5
1F5
330
1F
100
AcDbEntity
  8
0
  6
Continuous
 62
     8
370
    18
100
AcDbCircle
 10
39.1405175231
 20
1187.6826028021
 30
0.0
 40
3.670263622672413
100
AcDbArc
 50
113.0692689788
 51
188.6016118108
  0
ARC
  5
1F6
330
1F
100
AcDbEntity
  8
0
  6
Continuous
 62
     8
370
    18
100
AcDbCircle
 10
34.0910701479
 20
1192.3947829198
 30
0.0
 40
5.449501761948741
100
AcDbArc
 50
278.2826446059
 51
285.1092181096
  0
ARC
  5
1F7
330
1F
100
AcDbEntity
  8
0
  6
Continuous
 62
     8
370
    18
100
AcDbCircle
 10
51.7568346
 20
1012.8770838792
 30
0.0
 40
1.735550472633947
100
AcDbArc
 50
253.4579899946
 51
286.5420100054
  0
LINE
  5
1F8
330
1F
100
AcDbEntity
  8
0
  6
Continuous
 62
     8
370
    18
100
AcDbLine
 10
198.2020939948
 20
1187.1336665822
 30
0.0
 11
196.5006118851
 21
1187.6107057135
 31
0.0
  0
LINE
  5
1F9
330
1F
100
AcDbEntity
  8
0
  6
Continuous
 62
     8
370
    18
100
AcDbLine
 10
194.5235037207
 20
1191.3712077531
 30
0.0
 11
194.5235037207
 21
1189.8854768442
 31
0.0
  0
LINE
  5
1FA
330
1F
100
AcDbEntity
  8
0
  6
Continuous
 62
     8
370
    18
100
AcDbLine
 10
35.511536387
 20
1187.1336665822
 30
0.0
 11
37.2130184967
 21
1187.6107057135
 31
0.0
  0
LINE
  5
1FB
330
1F
100
AcDbEntity
  8
0
  6
Continuous
 62
     8
370
    18
100
AcDbLine
 10
39.1901266611
 20
1191.3712077531
 30
0.0
 11
39.1901266611
 21
1189.8854768442
 31
0.0
  0
LINE
  5
1FC
330
1F
100
AcDbEntity
  8
0
  6
Continuous
 62
     8
370
    18
100
AcDbLine
 10
171.2601067148
 20
1024.1598991834
 30
0.0
 11
171.2601067148
 21
1024.4379309728
 31
0.0
  0
LINE
  5
1FD
330
1F
100
AcDbEntity
  8
0
  6
Continuous
 62
     8
370
    18
100
AcDbLine
 10
62.453523667
 20
1024.1598991834
 30
0.0
 11
62.453523667
 21
1024.4379309728
 31
0.0
  0
ARC
  5
1FE
330
1F
100
AcDbEntity
  8
0
  6
Continuous
 62
     8
370
    18
100
AcDbCircle
 10
172.4767962256
 20
1016.6060262726
 30
0.0
 40
5.449501761924092
100
AcDbArc
 50
254.8907818904
 51
261.7173553941
  0
LINE
  5
1FF
330
1F
100
AcDbEntity
  8
0
  6
Continuous
 62
     8
370
    18
100
AcDbLine
 10
198.2020939948
 20
1187.1336665822
 30
0.0
 11
171.0563299865
 21
1011.3449099351
 31
0.0
  0
LINE
  5
200
330
1F
100
AcDbEntity
  8
0
  6
Continuous
 62
     8
370
    18
100
AcDbLine
 10
35.511536387
 20
1187.1336665822
 30
0.0
 11
62.6573003953
 21
1011.3449099351
 31
0.0
  0
ARC
  5
201
330
1F
100
AcDbEntity
  8
0
  6
Continuous
 62
     8
370
    18
100
AcDbCircle
 10
61.2368341562
 20
1016.6060262726
 30
0.0
 40
5.449501761923629
100
AcDbArc
 50
278.2826446059
 51
285.1092181096
  0
LINE
  5
202
330
1F
100
AcDbEntity
  8
0
  6
Continuous
 62
     8
370
    18
100
AcDbLine
 10
169.2811822344
 20
1011.3449099351
 30
0.0
 11
171.0563299865
 21
1011.3449099351
 31
0.0
  0
LINE
  5
203
330
1F
100
AcDbEntity
  8
0
  6
Continuous
 62
     8
370
    18
100
AcDbLine
 10
62.6573003953
 20
1011.3449099351
 30
0.0
 11
64.4324481474
 21
1011.3449099351
 31
0.0
  0
LINE
  5
204
330
1F
100
AcDbEntity
  8
0
  6
Continuous
 62
     8
370
    18
100
AcDbLine
 10
64.4390417552
 20
1011.2133656999
 30
0.0
 11
169.2745886266
 21
1011.2133656999
 31
0.0
  0
LINE
  5
205
330
1F
100
AcDbEntity
  8
0
  6
Continuous
 62
     8
370
    18
100
AcDbLine
 10
169.2829985504
 20
1022.7595584387
 30
0.0
 11
169.2829985504
 21
1022.4815266493
 31
0.0
  0
LINE
  5
206
330
1F
100
AcDbEntity
  8
0
  6
Continuous
 62
     8
370
    18
100
AcDbLine
 10
64.4306318314
 20
1022.7595584387
 30
0.0
 11
64.4306318314
 21
1022.4815266493
 31
0.0
  0
LWPOLYLINE
  5
207
330
1F
100
AcDbEntity
  8
0
  6
Continuous
 62
     8
370
    18
100
AcDbPolyline
 90
        9
 70
   128
 43
0.0
 10
171.691760302
 20
1010.3659794209
 10
171.5694087538
 20
1010.3846836984
 10
171.4516342003
 20
1010.4400968312
 10
171.3428424172
 20
1010.5301458939
 10
171.2471031481
 20
1010.6514622812
 10
171.1679978607
 20
1010.7995077223
 10
171.1084857694
 20
1010.9687440512
 10
171.0707931357
 20
1011.1528403814
 10
171.0563299865
 20
1011.3449099351
  0
LINE
  5
208
330
1F
100
AcDbEntity
  8
0
  6
Continuous
 62
     8
370
    18
100
AcDbLine
 10
171.691760302
 20
1010.3659794209
 30
0.0
 11
171.691760302
 21
1011.2133656999
 31
0.0
  0
LINE
  5
209
330
1F
100
AcDbEntity
  8
0
  6
Continuous
 62
     8
370
    18
100
AcDbLine
 10
62.0218700798
 20
1010.3659794209
 30
0.0
 11
62.0218700798
 21
1011.2133656999
 31
0.0
  0
LWPOLYLINE
  5
20A
330
1F
100
AcDbEntity
  8
0
  6
Continuous
 62
     8
370
    18
100
AcDbPolyline
 90
        9
 70
   128
 43
0.0
 10
62.0218700798
 20
1010.3659794209
 10
62.144221628
 20
1010.3846836984
 10
62.2619961816
 20
1010.4400968312
 10
62.3707879646
 20
1010.5301458939
 10
62.4665272337
 20
1010.6514622812
 10
62.5456325212
 20
1010.7995077223
 10
62.6051446124
 20
1010.9687440512
 10
62.6428372461
 20
1011.1528403814
 10
62.6573003953
 20
1011.3449099351
  0
LINE
  5
20B
330
1F
100
AcDbEntity
  8
0
  6
Continuous
 62
     8
370
    18
100
AcDbLine
 10
181.4626528237
 20
1010.3659794209
 30
0.0
 11
181.4626528237
 21
1011.2133656999
 31
0.0
  0
LINE
  5
20C
330
1F
100
AcDbEntity
  8
0
  6
Continuous
 62
     8
370
    18
100
AcDbLine
 10
52.2509775581
 20
1011.2133656999
 30
0.0
 11
52.2509775581
 21
1010.3659794209
 31
0.0
  0
SPLINE
  5
20D
330
1F
100
AcDbEntity
  8
0
  6
Continuous
 62
     8
370
    18
100
AcDbSpline
210
0.0
220
0.0
230
1.0
 70
     8
 71
     3
 72
     9
 73
     5
 74
     0
 42
0.000000001
 43
0.00000001
 40
0.0
 40
0.0
 40
0.0
 40
0.0
 40
0.500000000000002
 40
1.0
 40
1.0
 40
1.0
 40
1.0
 10
176.6209723485557
 20
1010.315846701352
 30
0.0
 10
176.7776495115899
 20
1010.269676453166
 30
0.0
 10
177.0910038376583
 20
1010.177335956795
 30
0.0
 10
177.359566221598
 20
1010.269676453166
 30
0.0
 10
177.4938474135679
 20
1010.315846701352
 30
0.0
  0
ELLIPSE
  5
20E
330
1F
100
AcDbEntity
  8
0
  6
Continuous
 62
     8
370
    18
100
AcDbEllipse
 10
177.7120661798
 20
1009.8659794209
 30
0.0
 11
2.5
 21
0.0
 31
0.0
210
0.0
220
0.0
230
1.0
 40
0.2
 41
1.570796326794737
 42
2.022431715152295
  0
LINE
  5
20F
330
1F
100
AcDbEntity
  8
0
  6
Continuous
 62
     8
370
    18
100
AcDbLine
 10
168.1702835774
 20
1010.3659794209
 30
0.0
 11
168.1702835774
 21
1009.9422862813
 31
0.0
  0
SPLINE
  5
210
330
1F
100
AcDbEntity
  8
0
  6
Continuous
 62
     8
370
    18
100
AcDbSpline
210
0.0
220
0.0
230
1.0
 70
     8
 71
     3
 72
    10
 73
     6
 74
     0
 42
0.000000001
 43
0.00000001
 40
0.0
 40
0.0
 40
0.0
 40
0.0
 40
0.078711032266496
 40
0.6278613298926501
 40
0.9999999999999999
 40
0.9999999999999999
 40
0.9999999999999999
 40
0.9999999999999999
 10
175.2413513892998
 20
1009.94228628134
 30
0.0
 10
175.2698032722298
 20
1009.968037887434
 30
0.0
 10
175.4967579511357
 20
1010.173453026629
 30
0.0
 10
176.011309453258
 20
1010.234900710875
 30
0.0
 10
176.4455631239248
 20
1010.29255731711
 30
0.0
 10
176.6209723485557
 20
1010.315846701352
 30
0.0
  0
LINE
  5
211
330
1F
100
AcDbEntity
  8
0
  6
Continuous
 62
     8
370
    18
100
AcDbLine
 10
168.1702835774
 20
1009.9422862813
 30
0.0
 11
175.2413513893
 21
1009.9422862813
 31
0.0
  0
ELLIPSE
  5
212
330
1F
100
AcDbEntity
  8
0
  6
Continuous
 62
     8
370
    18
100
AcDbEllipse
 10
56.001564202
 20
1009.8659794209
 30
0.0
 11
2.5
 21
0.0
 31
0.0
210
0.0
220
0.0
230
1.0
 40
0.2
 41
1.119160938437283
 42
1.570796326794891
  0
SPLINE
  5
213
330
1F
100
AcDbEntity
  8
0
  6
Continuous
 62
     8
370
    18
100
AcDbSpline
210
0.0
220
0.0
230
1.0
 70
     8
 71
     3
 72
     9
 73
     5
 74
     0
 42
0.000000001
 43
0.00000001
 40
0.0
 40
0.0
 40
0.0
 40
0.0
 40
0.4999999999999984
 40
1.0
 40
1.0
 40
1.0
 40
1.0
 10
56.21978296827412
 20
1010.315846701352
 30
0.0
 10
56.35406416024402
 20
1010.269676453166
 30
0.0
 10
56.62262654418379
 20
1010.177335956795
 30
0.0
 10
56.93598087025239
 20
1010.269676453166
 30
0.0
 10
57.09265803328672
 20
1010.315846701352
 30
0.0
  0
LINE
  5
214
330
1F
100
AcDbEntity
  8
0
  6
Continuous
 62
     8
370
    18
100
AcDbLine
 10
65.5433468044
 20
1010.3659794209
 30
0.0
 11
65.5433468044
 21
1009.9422862813
 31
0.0
  0
LINE
  5
215
330
1F
100
AcDbEntity
  8
0
  6
Continuous
 62
     8
370
    18
100
AcDbLine
 10
65.5433468044
 20
1009.9422862813
 30
0.0
 11
58.4722789925
 21
1009.9422862813
 31
0.0
  0
SPLINE
  5
216
330
1F
100
AcDbEntity
  8
0
  6
Continuous
 62
     8
370
    18
100
AcDbSpline
210
0.0
220
0.0
230
1.0
 70
     8
 71
     3
 72
    12
 73
     8
 74
     0
 42
0.000000001
 43
0.00000001
 40
0.0
 40
0.0
 40
0.0
 40
0.0
 40
0.3712465717668398
 40
0.6554791730354965
 40
0.8323167381005753
 40
0.9214776554108306
 40
1.0
 40
1.0
 40
1.0
 40
1.0
 10
57.09265803328672
 20
1010.315846701352
 30
0.0
 10
57.27057328387902
 20
1010.2956127772
 30
0.0
 10
57.58470343402053
 20
1010.259887421388
 30
0.0
 10
57.97952438515265
 20
1010.17891477398
 30
0.0
 10
58.23148081630157
 20
1010.095380611365
 30
0.0
 10
58.38498784310225
 20
1010.025477609456
 30
0.0
 10
58.44443922961526
 20
1009.96881848841
 30
0.0
 10
58.47227899254208
 20
1009.94228628134
 30
0.0
  0
ELLIPSE
  5
217
330
1F
100
AcDbEntity
  8
0
  6
Continuous
 62
     8
370
    18
100
AcDbEllipse
 10
168.1113660429
 20
1009.8659794209
 30
0.0
 11
2.035520004677636
 21
0.07682891152353477
 31
0.0
210
0.0
220
0.0
230
1.0
 40
0.0363600944
 41
1.540475222859002
 42
2.337519913309987
  0
ARC
  5
218
330
1F
100
AcDbEntity
  8
0
  6
Continuous
 62
     8
370
    18
100
AcDbCircle
 10
166.2552107423
 20
1009.9284794209
 30
0.0
 40
0.446339276783769
100
AcDbArc
 50
351.9505330245
 51
78.5782463411
  0
ARC
  5
219
330
1F
100
AcDbEntity
  8
0
  6
Continuous
 62
     8
370
    18
100
AcDbCircle
 10
67.4584196395
 20
1009.9284794209
 30
0.0
 40
0.4463392767837746
100
AcDbArc
 50
101.4217536589
 51
188.0494669755
  0
ELLIPSE
  5
21A
330
1F
100
AcDbEntity
  8
0
  6
Continuous
 62
     8
370
    18
100
AcDbEllipse
 10
65.6022643389
 20
1009.8659794209
 30
0.0
 11
2.035520004677622
 21
-0.07682891152364846
 31
0.0
210
0.0
220
0.0
230
1.0
 40
0.0363600944
 41
0.8040727402805445
 42
1.60111743073081
  0
SPLINE
  5
21B
330
1F
100
AcDbEntity
  8
0
  6
Continuous
 62
     8
370
    18
100
AcDbSpline
210
0.0
220
0.0
230
1.0
 70
     8
 71
     3
 72
    11
 73
     7
 74
     0
 42
0.000000001
 43
0.00000001
 40
0.0
 40
0.0
 40
0.0
 40
0.0
 40
0.2500000000000001
 40
0.5000000000000016
 40
0.75
 40
1.0
 40
1.0
 40
1.0
 40
1.0
 10
175.2413513892998
 20
1009.94228628134
 30
0.0
 10
175.4965813700004
 20
1009.908241204902
 30
0.0
 10
176.0070413314016
 20
1009.840151052027
 30
0.0
 10
176.6543332621182
 20
1009.811120939104
 30
0.0
 10
177.1136338931795
 20
1009.840151052027
 30
0.0
 10
177.1831601122043
 20
1009.908241204902
 30
0.0
 10
177.2179232217167
 20
1009.94228628134
 30
0.0
  0
SPLINE
  5
21C
330
1F
100
AcDbEntity
  8
0
  6
Continuous
 62
     8
370
    18
100
AcDbSpline
210
0.0
220
0.0
230
1.0
 70
     8
 71
     3
 72
    11
 73
     7
 74
     0
 42
0.000000001
 43
0.00000001
 40
0.0
 40
0.0
 40
0.0
 40
0.0
 40
0.2500000000000004
 40
0.4999999999999999
 40
0.7500000000000008
 40
1.0
 40
1.0
 40
1.0
 40
1.0
 10
56.4957071601252
 20
1009.94228628134
 30
0.0
 10
56.53047026963759
 20
1009.908241204902
 30
0.0
 10
56.59999648866239
 20
1009.840151052027
 30
0.0
 10
57.05929711972363
 20
1009.811120939104
 30
0.0
 10
57.70658905044029
 20
1009.840151052027
 30
0.0
 10
58.2170490118415
 20
1009.908241204902
 30
0.0
 10
58.47227899254209
 20
1009.94228628134
 30
0.0
  0
LINE
  5
21D
330
1F
100
AcDbEntity
  8
0
  6
Continuous
 62
     8
370
    18
100
AcDbLine
 10
175.0867172319
 20
1008.9409165553
 30
0.0
 11
175.2413513893
 21
1009.9422862813
 31
0.0
  0
ARC
  5
21E
330
1F
100
AcDbEntity
  8
0
  6
Continuous
 62
     8
370
    18
100
AcDbCircle
 10
176.0750031481
 20
1012.2683529139
 30
0.0
 40
3.47110094526812
100
AcDbArc
 50
253.4579899946
 51
286.5420100054
  0
LINE
  5
21F
330
1F
100
AcDbEntity
  8
0
  6
Continuous
 62
     8
370
    18
100
AcDbLine
 10
168.01564942
 20
1008.9409165553
 30
0.0
 11
168.1702835774
 21
1009.9422862813
 31
0.0
  0
LINE
  5
220
330
1F
100
AcDbEntity
  8
0
  6
Continuous
 62
     8
370
    18
100
AcDbLine
 10
175.0867172319
 20
1008.9409165553
 30
0.0
 11
168.01564942
 21
1008.9409165553
 31
0.0
  0
LINE
  5
221
330
1F
100
AcDbEntity
  8
0
  6
Continuous
 62
     8
370
    18
100
AcDbLine
 10
58.4722789925
 20
1009.9422862813
 30
0.0
 11
58.62691315
 21
1008.9409165553
 31
0.0
  0
ARC
  5
222
330
1F
100
AcDbEntity
  8
0
  6
Continuous
 62
     8
370
    18
100
AcDbCircle
 10
57.6386272337
 20
1012.2683529139
 30
0.0
 40
3.471100945267896
100
AcDbArc
 50
253.4579899946
 51
286.5420100054
  0
LINE
  5
223
330
1F
100
AcDbEntity
  8
0
  6
Continuous
 62
     8
370
    18
100
AcDbLine
 10
65.6979809618
 20
1008.9409165553
 30
0.0
 11
65.5433468044
 21
1009.9422862813
 31
0.0
  0
LINE
  5
224
330
1F
100
AcDbEntity
  8
0
  6
Continuous
 62
     8
370
    18
100
AcDbLine
 10
58.62691315
 20
1008.9409165553
 30
0.0
 11
65.6979809618
 21
1008.9409165553
 31
0.0
  0
SPLINE
  5
225
330
1F
100
AcDbEntity
  8
0
  6
Continuous
 62
     8
370
    18
100
AcDbSpline
210
0.0
220
0.0
230
1.0
 70
     8
 71
     3
 72
     9
 73
     5
 74
     0
 42
0.000000001
 43
0.00000001
 40
0.0
 40
0.0
 40
0.0
 40
0.0
 40
0.499741426896762
 40
1.0
 40
1.0
 40
1.0
 40
1.0
 10
166.4758633121524
 20
1008.432969550042
 30
0.0
 10
166.7069812851669
 20
1008.496135315159
 30
0.0
 10
167.1694563984464
 20
1008.622532211068
 30
0.0
 10
167.7334878505879
 20
1008.834751857727
 30
0.0
 10
168.0156494200215
 20
1008.940916555349
 30
0.0
  0
LINE
  5
226
330
1F
100
AcDbEntity
  8
0
  6
Continuous
 62
     8
370
    18
100
AcDbLine
 10
166.6971524806
 20
1009.8659794209
 30
0.0
 11
166.4758633122
 21
1008.43296955
 31
0.0
  0
SPLINE
  5
227
330
1F
100
AcDbEntity
  8
0
  6
Continuous
 62
     8
370
    18
100
AcDbSpline
210
0.0
220
0.0
230
1.0
 70
     8
 71
     3
 72
     9
 73
     5
 74
     0
 42
0.000000001
 43
0.00000001
 40
0.0
 40
0.0
 40
0.0
 40
0.0
 40
0.4997414268967534
 40
1.0
 40
1.0
 40
1.0
 40
1.0
 10
67.23776706968945
 20
1008.432969550042
 30
0.0
 10
67.00664909667495
 20
1008.496135315159
 30
0.0
 10
66.54417398339551
 20
1008.622532211068
 30
0.0
 10
65.98014253125399
 20
1008.834751857727
 30
0.0
 10
65.69798096182033
 20
1008.940916555349
 30
0.0
  0
LINE
  5
228
330
1F
100
AcDbEntity
  8
0
  6
Continuous
 62
     8
370
    18
100
AcDbLine
 10
67.0164779013
 20
1009.8659794209
 30
0.0
 11
67.2377670697
 21
1008.43296955
 31
0.0
  0
SPLINE
  5
229
330
1F
100
AcDbEntity
  8
0
  6
Continuous
 62
     8
370
    18
100
AcDbSpline
210
0.0
220
0.0
230
1.0
 70
     8
 71
     3
 72
     9
 73
     5
 74
     0
 42
0.000000001
 43
0.00000001
 40
0.0
 40
0.0
 40
0.0
 40
0.0
 40
0.4992978744020267
 40
1.0
 40
1.0
 40
1.0
 40
1.0
 10
167.1833909813433
 20
1007.618936853796
 30
0.0
 10
167.1069935963435
 20
1007.52488400457
 30
0.0
 10
166.9539839623825
 20
1007.336513787015
 30
0.0
 10
166.7814824887085
 20
1007.281831861739
 30
0.0
 10
166.6951106341711
 20
1007.254452505522
 30
0.0
  0
SPLINE
  5
22A
330
1F
100
AcDbEntity
  8
0
  6
Continuous
 62
     8
370
    18
100
AcDbSpline
210
0.0
220
0.0
230
1.0
 70
     8
 71
     3
 72
     9
 73
     5
 74
     0
 42
0.000000001
 43
0.00000001
 40
0.0
 40
0.0
 40
0.0
 40
0.0
 40
0.5002661505008299
 40
1.0
 40
1.0
 40
1.0
 40
1.0
 10
168.0156494200215
 20
1008.940916555349
 30
0.0
 10
167.8630317581365
 20
1008.685692086482
 30
0.0
 10
167.5579588249944
 20
1008.175514716673
 30
0.0
 10
167.3082026140666
 20
1007.804396959304
 30
0.0
 10
167.1833909813433
 20
1007.618936853796
 30
0.0
  0
LINE
  5
22B
330
1F
100
AcDbEntity
  8
0
  6
Continuous
 62
     8
370
    18
100
AcDbLine
 10
175.0867172319
 20
1007.2544525014
 30
0.0
 11
175.0867172319
 21
1008.9409165553
 31
0.0
  0
LINE
  5
22C
330
1F
100
AcDbEntity
  8
0
  6
Continuous
 62
     8
370
    18
100
AcDbLine
 10
166.6951106041
 20
1007.2544525014
 30
0.0
 11
175.0867172319
 21
1007.2544525014
 31
0.0
  0
SPLINE
  5
22D
330
1F
100
AcDbEntity
  8
0
  6
Continuous
 62
     8
370
    18
100
AcDbSpline
210
0.0
220
0.0
230
1.0
 70
     8
 71
     3
 72
     9
 73
     5
 74
     0
 42
0.000000001
 43
0.00000001
 40
0.0
 40
0.0
 40
0.0
 40
0.0
 40
0.5002661505008251
 40
1.0
 40
1.0
 40
1.0
 40
1.0
 10
65.69798096182033
 20
1008.940916555349
 30
0.0
 10
65.85059862370534
 20
1008.685692086482
 30
0.0
 10
66.15567155684742
 20
1008.175514716672
 30
0.0
 10
66.40542776777525
 20
1007.804396959304
 30
0.0
 10
66.53023940049853
 20
1007.618936853796
 30
0.0
  0
SPLINE
  5
22E
330
1F
100
AcDbEntity
  8
0
  6
Continuous
 62
     8
370
    18
100
AcDbSpline
210
0.0
220
0.0
230
1.0
 70
     8
 71
     3
 72
     9
 73
     5
 74
     0
 42
0.000000001
 43
0.00000001
 40
0.0
 40
0.0
 40
0.0
 40
0.0
 40
0.4992978744020241
 40
1.0
 40
1.0
 40
1.0
 40
1.0
 10
66.53023940049853
 20
1007.618936853796
 30
0.0
 10
66.60663678549831
 20
1007.52488400457
 30
0.0
 10
66.75964641945939
 20
1007.336513787015
 30
0.0
 10
66.93214789313343
 20
1007.281831861739
 30
0.0
 10
67.01851974767078
 20
1007.254452505522
 30
0.0
  0
LINE
  5
22F
330
1F
100
AcDbEntity
  8
0
  6
Continuous
 62
     8
370
    18
100
AcDbLine
 10
67.0185197777
 20
1007.2544525014
 30
0.0
 11
58.62691315
 21
1007.2544525014
 31
0.0
  0
LINE
  5
230
330
1F
100
AcDbEntity
  8
0
  6
Continuous
 62
     8
370
    18
100
AcDbLine
 10
58.62691315
 20
1008.9409165553
 30
0.0
 11
58.62691315
 21
1007.2544525014
 31
0.0
  0
SPLINE
  5
231
330
1F
100
AcDbEntity
  8
0
  6
Continuous
 62
     8
370
    18
100
AcDbSpline
210
0.0
220
0.0
230
1.0
 70
     8
 71
     3
 72
    11
 73
     7
 74
     0
 42
0.000000001
 43
0.00000001
 40
0.0
 40
0.0
 40
0.0
 40
0.0
 40
0.2520988598438132
 40
0.4999834205378414
 40
0.7478774860521553
 40
1.0
 40
1.0
 40
1.0
 40
1.0
 10
166.4758633121524
 20
1008.432969550042
 30
0.0
 10
166.5123975152131
 20
1008.346837629517
 30
0.0
 10
166.5848551844951
 20
1008.176013642972
 30
0.0
 10
166.7575171751136
 20
1007.94299368672
 30
0.0
 10
166.9600531480529
 20
1007.744344820677
 30
0.0
 10
167.1085265094894
 20
1007.660974519643
 30
0.0
 10
167.1833909813433
 20
1007.618936853796
 30
0.0
  0
SPLINE
  5
232
330
1F
100
AcDbEntity
  8
0
  6
Continuous
 62
     8
370
    18
100
AcDbSpline
210
0.0
220
0.0
230
1.0
 70
     8
 71
     3
 72
    11
 73
     7
 74
     0
 42
0.000000001
 43
0.00000001
 40
0.0
 40
0.0
 40
0.0
 40
0.0
 40
0.2520988598438179
 40
0.4999834205378446
 40
0.7478774860521561
 40
1.0
 40
1.0
 40
1.0
 40
1.0
 10
67.23776706968943
 20
1008.432969550042
 30
0.0
 10
67.20123286662871
 20
1008.346837629517
 30
0.0
 10
67.12877519734678
 20
1008.176013642972
 30
0.0
 10
66.95611320672823
 20
1007.94299368672
 30
0.0
 10
66.75357723378903
 20
1007.744344820677
 30
0.0
 10
66.6051038723525
 20
1007.660974519643
 30
0.0
 10
66.53023940049853
 20
1007.618936853796
 30
0.0
  0
ARC
  5
233
330
1F
100
AcDbEntity
  8
0
  6
Continuous
 62
     8
370
    18
100
AcDbCircle
 10
175.1777735131
 20
1008.253598444
 30
0.0
 40
1.003286529847429
100
AcDbArc
 50
264.7927841041
 51
275.2072158959
  0
ARC
  5
234
330
1F
100
AcDbEntity
  8
0
  6
Continuous
 62
     8
370
    18
100
AcDbCircle
 10
58.5358568688
 20
1008.253598444
 30
0.0
 40
1.003286529846976
100
AcDbArc
 50
264.7927841041
 51
275.2072158959
  0
LINE
  5
235
330
1F
100
AcDbEntity
  8
0
  6
Continuous
 62
     8
370
    18
100
AcDbLine
 10
161.8108736449
 20
1009.8659794209
 30
0.0
 11
166.6971524806
 21
1009.8659794209
 31
0.0
  0
ELLIPSE
  5
236
330
1F
100
AcDbEntity
  8
0
  6
Continuous
 62
     8
370
    18
100
AcDbEllipse
 10
160.7502134731
 20
1009.8659794209
 30
0.0
 11
1.06066017177983
 21
0.0
 31
0.0
210
0.0
220
0.0
230
1.0
 40
0.4714045208
 41
0.0
 42
1.570796326794897
  0
ELLIPSE
  5
237
330
1F
100
AcDbEntity
  8
0
  6
Continuous
 62
     8
370
    18
100
AcDbEllipse
 10
72.9634169087
 20
1009.8659794209
 30
0.0
 11
1.06066017177983
 21
0.0
 31
0.0
210
0.0
220
0.0
230
1.0
 40
0.4714045208
 41
1.570796326794897
 42
3.141592653589793
  0
LINE
  5
238
330
1F
100
AcDbEntity
  8
0
  6
Continuous
 62
     8
370
    18
100
AcDbLine
 10
71.9027567369
 20
1009.8659794209
 30
0.0
 11
67.0164779013
 21
1009.8659794209
 31
0.0
  0
LINE
  5
239
330
1F
100
AcDbEntity
  8
0
  6
Continuous
 62
     8
370
    18
100
AcDbLine
 10
128.2502134731
 20
971.1486792679
 30
0.0
 11
128.2502134731
 21
975.8659794209
 31
0.0
  0
ARC
  5
23A
330
1F
100
AcDbEntity
  8
0
  6
Continuous
 62
     8
370
    18
100
AcDbCircle
 10
169.5476549489
 20
967.3578601058
 30
0.0
 40
43.81919985444845
100
AcDbArc
 50
100.9879370036
 51
168.8040981331
  0
SPLINE
  5
23B
330
1F
100
AcDbEntity
  8
0
  6
Continuous
 62
     8
370
    18
100
AcDbSpline
210
0.0
220
0.0
230
1.0
 70
     8
 71
     3
 72
     9
 73
     5
 74
     0
 42
0.000000001
 43
0.00000001
 40
0.0
 40
0.0
 40
0.0
 40
0.0
 40
0.4886847805655536
 40
1.0
 40
1.0
 40
1.0
 40
1.0
 10
166.4758633121525
 20
1008.432969550042
 30
0.0
 10
166.399377504367
 20
1008.386302653896
 30
0.0
 10
166.2428639176394
 20
1008.290807770481
 30
0.0
 10
166.0733034088165
 20
1008.265307349855
 30
0.0
 10
165.9866045400403
 20
1008.252268596686
 30
0.0
  0
SPLINE
  5
23C
330
1F
100
AcDbEntity
  8
0
  6
Continuous
 62
     8
370
    18
100
AcDbSpline
210
0.0
220
0.0
230
1.0
 70
     8
 71
     3
 72
    20
 73
    16
 74
     0
 42
0.000000001
 43
0.00000001
 40
0.0
 40
0.0
 40
0.0
 40
0.0
 40
0.0967239930774506
 40
0.192602265974384
 40
0.2862733218957889
 40
0.3850645761272276
 40
0.4806594349776876
 40
0.5727334157659362
 40
0.6396374646357367
 40
0.7044009196021161
 40
0.7673125945188572
 40
0.8284099247642951
 40
0.88800746584642
 40
0.9463834130538189
 40
1.0
 40
1.0
 40
1.0
 40
1.0
 10
165.986605646317
 20
1008.252268694038
 30
0.0
 10
164.3919227816589
 20
1008.062341722287
 30
0.0
 10
161.2165003919139
 20
1007.684148432649
 30
0.0
 10
156.5535368080336
 20
1006.466355896774
 30
0.0
 10
151.9425121370795
 20
1004.722203569939
 30
0.0
 10
147.4688706088852
 20
1002.372437506013
 30
0.0
 10
143.2156014273418
 20
999.3935373228408
 30
0.0
 10
139.6705033270541
 20
996.1550465020136
 30
0.0
 10
136.794495854183
 20
992.8505762186958
 30
0.0
 10
134.5084201585337
 20
989.636402735136
 30
0.0
 10
132.5365283393812
 20
986.2026902970862
 30
0.0
 10
130.8986176497708
 20
982.5741373073307
 30
0.0
 10
129.6193710909864
 20
978.7881379139818
 30
0.0
 10
128.7039275386322
 20
974.9715238822253
 30
0.0
 10
128.3970030050658
 20
972.3852284725859
 30
0.0
 10
128.2500624427841
 20
971.1470358220894
 30
0.0
  0
SPLINE
  5
23D
330
1F
100
AcDbEntity
  8
0
  6
Continuous
 62
     8
370
    18
100
AcDbSpline
210
0.0
220
0.0
230
1.0
 70
     8
 71
     3
 72
     9
 73
     5
 74
     0
 42
0.000000001
 43
0.00000001
 40
0.0
 40
0.0
 40
0.0
 40
0.0
 40
0.4886847805655601
 40
1.0
 40
1.0
 40
1.0
 40
1.0
 10
67.23776706968943
 20
1008.432969550042
 30
0.0
 10
67.31425287747491
 20
1008.386302653896
 30
0.0
 10
67.47076646420247
 20
1008.290807770481
 30
0.0
 10
67.64032697302537
 20
1008.265307349855
 30
0.0
 10
67.72702584180156
 20
1008.252268596686
 30
0.0
  0
ARC
  5
23E
330
1F
100
AcDbEntity
  8
0
  6
Continuous
 62
     8
370
    18
100
AcDbCircle
 10
64.1659754329
 20
967.3578601058
 30
0.0
 40
43.81919985444873
100
AcDbArc
 50
11.1959018669
 51
79.0120629964
  0
LINE
  5
23F
330
1F
100
AcDbEntity
  8
0
  6
Continuous
 62
     8
370
    18
100
AcDbLine
 10
105.4634169087
 20
971.1486792679
 30
0.0
 11
105.4634169087
 21
975.8659794209
 31
0.0
  0
SPLINE
  5
240
330
1F
100
AcDbEntity
  8
0
  6
Continuous
 62
     8
370
    18
100
AcDbSpline
210
0.0
220
0.0
230
1.0
 70
     8
 71
     3
 72
    20
 73
    16
 74
     0
 42
0.000000001
 43
0.00000001
 40
0.0
 40
0.0
 40
0.0
 40
0.0
 40
0.0967239930774506
 40
0.192602265974384
 40
0.2862733218957889
 40
0.3850645761272275
 40
0.4806594349776876
 40
0.5727334157659363
 40
0.6396374646357367
 40
0.7044009196021163
 40
0.7673125945188574
 40
0.8284099247642952
 40
0.8880074658464201
 40
0.9463834130538189
 40
1.0
 40
1.0
 40
1.0
 40
1.0
 10
67.72702473552485
 20
1008.252268694038
 30
0.0
 10
69.32170760018298
 20
1008.062341722287
 30
0.0
 10
72.49712998992798
 20
1007.684148432649
 30
0.0
 10
77.16009357380835
 20
1006.466355896774
 30
0.0
 10
81.77111824476248
 20
1004.722203569939
 30
0.0
 10
86.24475977295684
 20
1002.372437506012
 30
0.0
 10
90.49802895450021
 20
999.3935373228408
 30
0.0
 10
94.043127054788
 20
996.1550465020136
 30
0.0
 10
96.91913452765907
 20
992.8505762186958
 30
0.0
 10
99.20521022330836
 20
989.636402735136
 30
0.0
 10
101.1771020424609
 20
986.2026902970862
 30
0.0
 10
102.8150127320713
 20
982.5741373073307
 30
0.0
 10
104.0942592908557
 20
978.7881379139818
 30
0.0
 10
105.00970284321
 20
974.9715238822253
 30
0.0
 10
105.3166273767764
 20
972.3852284725859
 30
0.0
 10
105.4635679390581
 20
971.1470358220894
 30
0.0
  0
SPLINE
  5
241
330
1F
100
AcDbEntity
  8
0
  6
Continuous
 62
     8
370
    18
100
AcDbSpline
210
0.0
220
0.0
230
1.0
 70
     8
 71
     3
 72
    11
 73
     7
 74
     0
 42
0.000000001
 43
0.00000001
 40
0.0
 40
0.0
 40
0.0
 40
0.0
 40
0.2500014378842482
 40
0.4999991475406352
 40
0.7500001238074948
 40
0.9999999999999999
 40
0.9999999999999999
 40
0.9999999999999999
 40
0.9999999999999999
 10
165.9866045400403
 20
1008.252268596686
 30
0.0
 10
166.002080846893
 20
1008.126592696986
 30
0.0
 10
166.0330332298029
 20
1007.875242771769
 30
0.0
 10
166.1989717387854
 20
1007.553532573643
 30
0.0
 10
166.4274030715709
 20
1007.319835654315
 30
0.0
 10
166.605874910859
 20
1007.276245777572
 30
0.0
 10
166.6951106341711
 20
1007.254450887153
 30
0.0
  0
SPLINE
  5
242
330
1F
100
AcDbEntity
  8
0
  6
Continuous
 62
     8
370
    18
100
AcDbSpline
210
0.0
220
0.0
230
1.0
 70
     8
 71
     3
 72
    11
 73
     7
 74
     0
 42
0.000000001
 43
0.00000001
 40
0.0
 40
0.0
 40
0.0
 40
0.0
 40
0.2409060651132818
 40
0.499999763282217
 40
0.7590935775172868
 40
1.0
 40
1.0
 40
1.0
 40
1.0
 10
67.72702584180158
 20
1008.252268596686
 30
0.0
 10
67.71244263795961
 20
1008.131242841153
 30
0.0
 10
67.68217524529162
 20
1007.880054274817
 30
0.0
 10
67.51552071415688
 20
1007.552325945217
 30
0.0
 10
67.28281527752993
 20
1007.317617236219
 30
0.0
 10
67.10445566115702
 20
1007.274988386446
 30
0.0
 10
67.01851974765056
 20
1007.254449268784
 30
0.0
  0
SPLINE
  5
243
330
1F
100
AcDbEntity
  8
0
  6
Continuous
 62
     8
370
    18
100
AcDbSpline
210
0.0
220
0.0
230
1.0
 70
     8
 71
     3
 72
    21
 73
    17
 74
     0
 42
0.000000001
 43
0.00000001
 40
0.0
 40
0.0
 40
0.0
 40
0.0
 40
0.0461583601933928
 40
0.0928309454610109
 40
0.1472260275021644
 40
0.2034482610572522
 40
0.2608900128131347
 40
0.3211890834864497
 40
0.3826962441178275
 40
0.4478237402252991
 40
0.536433047251756
 40
0.6295554098215866
 40
0.7274729031763358
 40
0.8159073297506696
 40
0.9091158340874359
 40
1.0
 40
1.0
 40
1.0
 40
1.0
 10
130.1995623878645
 20
967.8536077645497
 30
0.0
 10
130.2390190611246
 20
968.9436801829219
 30
0.0
 10
130.3183719728859
 20
971.1359689209639
 30
0.0
 10
130.8082913790146
 20
974.5566962721853
 30
0.0
 10
131.6246636576821
 20
978.1001856068239
 30
0.0
 10
132.8332102950218
 20
981.7016488549555
 30
0.0
 10
134.3866186609353
 20
985.194613492046
 30
0.0
 10
136.258622559079
 20
988.5205523134142
 30
0.0
 10
138.4525136107451
 20
991.6829548312207
 30
0.0
 10
141.2117185498008
 20
994.9584878252056
 30
0.0
 10
144.6392363597626
 20
998.2160715690319
 30
0.0
 10
148.7802510706442
 20
1001.26187190381
 30
0.0
 10
153.1200692661263
 20
1003.664050370002
 30
0.0
 10
157.6064494719566
 20
1005.455796270347
 30
0.0
 10
162.0807001962176
 20
1006.690226172653
 30
0.0
 10
165.16997549133
 20
1007.067966836582
 30
0.0
 10
166.6951106750953
 20
1007.254452507771
 30
0.0
  0
SPLINE
  5
244
330
1F
100
AcDbEntity
  8
0
  6
Continuous
 62
     8
370
    18
100
AcDbSpline
210
0.0
220
0.0
230
1.0
 70
     8
 71
     3
 72
    11
 73
     7
 74
     0
 42
0.000000001
 43
0.00000001
 40
0.0
 40
0.0
 40
0.0
 40
0.0
 40
0.3476163775449708
 40
0.813632429795112
 40
0.9999722318984863
 40
1.0
 40
1.0
 40
1.0
 40
1.0
 10
128.2157034852712
 20
967.8648601394896
 30
0.0
 10
128.4160271128712
 20
967.8633770202274
 30
0.0
 10
128.8849054810904
 20
967.8599056247266
 30
0.0
 10
129.5963578471499
 20
967.8561129946864
 30
0.0
 10
130.0653331165676
 20
967.8541289487468
 30
0.0
 10
130.1995635264631
 20
967.8536075903786
 30
0.0
 10
130.1995835263142
 20
967.8536075126981
 30
0.0
  0
SPLINE
  5
245
330
1F
100
AcDbEntity
  8
0
  6
Continuous
 62
     8
370
    18
100
AcDbSpline
210
0.0
220
0.0
230
1.0
 70
     8
 71
     3
 72
    12
 73
     8
 74
     0
 42
0.000000001
 43
0.00000001
 40
0.0
 40
0.0
 40
0.0
 40
0.0
 40
0.2499671486885953
 40
0.4999437795559519
 40
0.7499548018246878
 40
0.9999817131226788
 40
1.0
 40
1.0
 40
1.0
 40
1.0
 10
128.2157034852712
 20
967.8648601394896
 30
0.0
 10
128.2164622531097
 20
968.1382411729298
 30
0.0
 10
128.2179798175697
 20
968.685013610164
 30
0.0
 10
128.2239639161518
 20
969.5051624514311
 30
0.0
 10
128.2338025362711
 20
970.3252875538309
 30
0.0
 10
128.2439747499321
 20
970.8719896877702
 30
0.0
 10
128.2502130168915
 20
971.1453168874585
 30
0.0
 10
128.2502134731228
 20
971.1453368770484
 30
0.0
  0
SPLINE
  5
246
330
1F
100
AcDbEntity
  8
0
  6
Continuous
 62
     8
370
    18
100
AcDbSpline
210
0.0
220
0.0
230
1.0
 70
     8
 71
     3
 72
    12
 73
     8
 74
     0
 42
0.000000001
 43
0.00000001
 40
0.0
 40
0.0
 40
0.0
 40
0.0
 40
0.2499671486885932
 40
0.4999437795559518
 40
0.7499548018246878
 40
0.9999817131226788
 40
1.0
 40
1.0
 40
1.0
 40
1.0
 10
105.4979268965709
 20
967.8648601394896
 30
0.0
 10
105.4971681287321
 20
968.1382411729298
 30
0.0
 10
105.4956505642717
 20
968.685013610164
 30
0.0
 10
105.4896664656934
 20
969.5051624514311
 30
0.0
 10
105.47982784556
 20
970.3252875538309
 30
0.0
 10
105.4696556319338
 20
970.8719896877702
 30
0.0
 10
105.4634173649506
 20
971.1453168874585
 30
0.0
 10
105.4634169087194
 20
971.1453368770484
 30
0.0
  0
SPLINE
  5
247
330
1F
100
AcDbEntity
  8
0
  6
Continuous
 62
     8
370
    18
100
AcDbSpline
210
0.0
220
0.0
230
1.0
 70
     8
 71
     3
 72
    11
 73
     7
 74
     0
 42
0.000000001
 43
0.00000001
 40
0.0
 40
0.0
 40
0.0
 40
0.0
 40
0.0000277681014566
 40
0.1863675702048866
 40
0.6523836224550317
 40
1.0
 40
1.0
 40
1.0
 40
1.0
 10
103.514046855528
 20
967.8536075126981
 30
0.0
 10
103.514066855379
 20
967.8536075903786
 30
0.0
 10
103.6482972652779
 20
967.8541289487324
 30
0.0
 10
104.1172725346881
 20
967.8561129947037
 30
0.0
 10
104.8287249007527
 20
967.8599056247225
 30
0.0
 10
105.2976032689712
 20
967.8633770202262
 30
0.0
 10
105.4979268965709
 20
967.8648601394896
 30
0.0
  0
SPLINE
  5
248
330
1F
100
AcDbEntity
  8
0
  6
Continuous
 62
     8
370
    18
100
AcDbSpline
210
0.0
220
0.0
230
1.0
 70
     8
 71
     3
 72
    21
 73
    17
 74
     0
 42
0.000000001
 43
0.00000001
 40
0.0
 40
0.0
 40
0.0
 40
0.0
 40
0.0461583758996985
 40
0.0928309771265033
 40
0.1472260572689502
 40
0.2034482888615551
 40
0.2608900386123845
 40
0.3211891071809109
 40
0.3826962656653293
 40
0.447823759499472
 40
0.5364330634329472
 40
0.6295554227522641
 40
0.727472912689121
 40
0.8159073361765777
 40
0.9091158372598237
 40
1.0
 40
1.0
 40
1.0
 40
1.0
 10
103.5140680233446
 20
967.8536052873075
 30
0.0
 10
103.4746113943173
 20
968.9436781197913
 30
0.0
 10
103.3952585714478
 20
971.1359676925099
 30
0.0
 10
102.905339093232
 20
974.5566958769382
 30
0.0
 10
102.0889667244209
 20
978.1001856065313
 30
0.0
 10
100.8804200867479
 20
981.7016488550368
 30
0.0
 10
99.3270117209274
 20
985.1946134920228
 30
0.0
 10
97.45500782275734
 20
988.5205523134206
 30
0.0
 10
95.26111677109859
 20
991.6829548312188
 30
0.0
 10
92.50191183204062
 20
994.9584878252062
 30
0.0
 10
89.07439402207959
 20
998.2160715690316
 30
0.0
 10
84.93337931119774
 20
1001.26187190381
 30
0.0
 10
80.59356111571567
 20
1003.664050370002
 30
0.0
 10
76.10718090988539
 20
1005.455796270347
 30
0.0
 10
71.63293018562426
 20
1006.690226172653
 30
0.0
 10
68.54365489051193
 20
1007.067966836582
 30
0.0
 10
67.01851970674655
 20
1007.254452507771
 30
0.0
  0
ELLIPSE
  5
249
330
1F
100
AcDbEntity
  8
0
  6
Continuous
 62
     8
370
    18
100
AcDbEllipse
 10
178.9168197996
 20
967.3578601058
 30
0.0
 11
42.0630242974575
 21
0.0
 31
0.0
210
0.0
220
0.0
230
1.0
 40
0.9524523014
 41
1.661978908122256
 42
3.129218205001258
  0
LINE
  5
24A
330
1F
100
AcDbEntity
  8
0
  6
Continuous
 62
     8
370
    18
100
AcDbLine
 10
130.1995623585
 20
967.8536052881
 30
0.0
 11
136.857015953
 21
967.8536052881
 31
0.0
  0
LINE
  5
24B
330
1F
100
AcDbEntity
  8
0
  6
Continuous
 62
     8
370
    18
100
AcDbLine
 10
96.8566144289
 20
967.8536052881
 30
0.0
 11
103.5140680233
 21
967.8536052881
 31
0.0
  0
ELLIPSE
  5
24C
330
1F
100
AcDbEntity
  8
0
  6
Continuous
 62
     8
370
    18
100
AcDbEllipse
 10
54.7968105822
 20
967.3578601058
 30
0.0
 11
42.06302429745779
 21
0.0
 31
0.0
210
0.0
220
0.0
230
1.0
 40
0.9524523014
 41
0.0123744485885355
 42
1.479613745467538
  0
SPLINE
  5
24D
330
1F
100
AcDbEntity
  8
0
  6
Continuous
 62
     8
370
    18
100
AcDbSpline
210
0.0
220
0.0
230
1.0
 70
     8
 71
     3
 72
    12
 73
     8
 74
     0
 42
0.000000001
 43
0.00000001
 40
0.0
 40
0.0
 40
0.0
 40
0.0
 40
0.1412308542844414
 40
0.3559077277117414
 40
0.5705963487916427
 40
0.7853018471862394
 40
1.0
 40
1.0
 40
1.0
 40
1.0
 10
136.8570159529808
 20
967.8536052880813
 30
0.0
 10
137.0044434294054
 20
967.8527295026116
 30
0.0
 10
137.3759669070646
 20
967.8505224861766
 30
0.0
 10
137.9382307792304
 20
967.8484380532784
 30
0.0
 10
138.4456768053678
 20
967.8480796966603
 30
0.0
 10
138.7904939500625
 20
967.8497311333857
 30
0.0
 10
138.8347401209574
 20
967.8523139179102
 30
0.0
 10
138.8568628279569
 20
967.8536052880813
 30
0.0
  0
SPLINE
  5
24E
330
1F
100
AcDbEntity
  8
0
  6
Continuous
 62
     8
370
    18
100
AcDbSpline
210
0.0
220
0.0
230
1.0
 70
     8
 71
     3
 72
    12
 73
     8
 74
     0
 42
0.000000001
 43
0.00000001
 40
0.0
 40
0.0
 40
0.0
 40
0.0
 40
0.1412308542844386
 40
0.3559077277117407
 40
0.5705963487916429
 40
0.7853018471862392
 40
0.9999999999999999
 40
0.9999999999999999
 40
0.9999999999999999
 40
0.9999999999999999
 10
94.85676755388519
 20
967.8536052880813
 30
0.0
 10
94.8664764441617
 20
967.8527295026116
 30
0.0
 10
94.89094325840298
 20
967.8505224861766
 30
0.0
 10
95.13058860225095
 20
967.8484380532784
 30
0.0
 10
95.582838511843
 20
967.8480796966603
 30
0.0
 10
96.18212698614992
 20
967.8497311333857
 30
0.0
 10
96.63178784532754
 20
967.8523139179102
 30
0.0
 10
96.85661442886128
 20
967.8536052880813
 30
0.0
  0
SPLINE
  5
24F
330
1F
100
AcDbEntity
  8
0
  6
Continuous
 62
     8
370
    18
100
AcDbSpline
210
0.0
220
0.0
230
1.0
 70
    24
 71
     3
 72
    11
 73
     7
 74
     0
 42
0.000000001
 43
0.00000001
 40
0.0
 40
0.0
 40
0.0
 40
0.0
 40
0.2499999999999997
 40
0.4999999999999984
 40
0.7499999999999991
 40
1.0
 40
1.0
 40
1.0
 40
1.0
 10
130.1995623585067
 20
967.8536052880813
 30
0.0
 10
130.1995623585067
 20
967.7237942116643
 30
0.0
 10
130.1995623585067
 20
967.4641720588302
 30
0.0
 10
130.1995623585067
 20
967.1381357824922
 30
0.0
 10
130.1995623585067
 20
966.9103518547901
 30
0.0
 10
130.1995623585067
 20
966.8807702321714
 30
0.0
 10
130.1995623585067
 20
966.8659794208619
 30
0.0
  0
LWPOLYLINE
  5
250
330
1F
100
AcDbEntity
  8
0
  6
Continuous
 62
     8
370
    18
100
AcDbPolyline
 90
        9
 70
   128
 43
0.0
 10
128.2157034853
 20
967.8648601395
 10
128.2285412001
 20
967.6699286395
 10
128.2662729908
 20
967.4825205624
 10
128.3274509047
 20
967.3098276684
 10
128.4097272474
 20
967.1584770246
 10
128.5099446753
 20
967.034276692
 10
128.6242573576
 20
966.9419928419
 10
128.7482785604
 20
966.8851668549
 10
128.8772489862
 20
966.8659794209
  0
LWPOLYLINE
  5
251
330
1F
100
AcDbEntity
  8
0
  6
Continuous
 62
     8
370
    18
100
AcDbPolyline
 90
        9
 70
   128
 43
0.0
 10
105.4979268966
 20
967.8648601395
 10
105.4850891817
 20
967.6699286395
 10
105.4473573911
 20
967.4825205624
 10
105.3861794772
 20
967.3098276684
 10
105.3039031344
 20
967.1584770246
 10
105.2036857066
 20
967.034276692
 10
105.0893730242
 20
966.9419928419
 10
104.9653518215
 20
966.8851668549
 10
104.8363813957
 20
966.8659794209
  0
SPLINE
  5
252
330
1F
100
AcDbEntity
  8
0
  6
Continuous
 62
     8
370
    18
100
AcDbSpline
210
0.0
220
0.0
230
1.0
 70
     8
 71
     3
 72
    11
 73
     7
 74
     0
 42
0.000000001
 43
0.00000001
 40
0.0
 40
0.0
 40
0.0
 40
0.0
 40
0.2499999999999995
 40
0.4999999999999987
 40
0.7500000000000009
 40
1.0
 40
1.0
 40
1.0
 40
1.0
 10
103.514046855528
 20
967.8536075147712
 30
0.0
 10
103.5140468808269
 20
967.7237962304375
 30
0.0
 10
103.5140469314249
 20
967.46417366177
 30
0.0
 10
103.5140470073218
 20
967.1381365974546
 30
0.0
 10
103.5140470832186
 20
966.9103520398327
 30
0.0
 10
103.5140471338166
 20
966.8807702938523
 30
0.0
 10
103.5140471591155
 20
966.8659794208619
 30
0.0
  0
LINE
  5
253
330
1F
100
AcDbEntity
  8
0
  6
Continuous
 62
     8
370
    18
100
AcDbLine
 10
136.857015953
 20
967.8536052881
 30
0.0
 11
136.857015953
 21
966.8659794209
 31
0.0
  0
LINE
  5
254
330
1F
100
AcDbEntity
  8
0
  6
Continuous
 62
     8
370
    18
100
AcDbLine
 10
96.8566144289
 20
967.8536052881
 30
0.0
 11
96.8566144289
 21
966.8659794209
 31
0.0
  0
SPLINE
  5
255
330
1F
100
AcDbEntity
  8
0
  6
Continuous
 62
     8
370
    18
100
AcDbSpline
210
0.0
220
0.0
230
1.0
 70
    24
 71
     3
 72
    11
 73
     7
 74
     0
 42
0.000000001
 43
0.00000001
 40
0.0
 40
0.0
 40
0.0
 40
0.0
 40
0.25
 40
0.5000000000000009
 40
0.7499999999999993
 40
1.0
 40
1.0
 40
1.0
 40
1.0
 10
127.5431066919364
 20
971.1486792679493
 30
0.0
 10
127.6085831277794
 20
971.1486792679493
 30
0.0
 10
127.7395359994653
 20
971.1486792679493
 30
0.0
 10
127.9279313939173
 20
971.1486792679493
 30
0.0
 10
128.1034791706737
 20
971.1486792679493
 30
0.0
 10
128.2013020389731
 20
971.1486792679493
 30
0.0
 10
128.2502134731228
 20
971.1486792679493
 30
0.0
  0
SPLINE
  5
256
330
1F
100
AcDbEntity
  8
0
  6
Continuous
 62
     8
370
    18
100
AcDbSpline
210
0.0
220
0.0
230
1.0
 70
     8
 71
     3
 72
    10
 73
     6
 74
     0
 42
0.000000001
 43
0.00000001
 40
0.0
 40
0.0
 40
0.0
 40
0.0
 40
0.0668852310747349
 40
0.5334428443671758
 40
0.9999999999999999
 40
0.9999999999999999
 40
0.9999999999999999
 40
0.9999999999999999
 10
127.5541541891983
 20
967.8659794208619
 30
0.0
 10
127.5701853648447
 20
967.8659521922766
 30
0.0
 10
127.6980419304564
 20
967.8657350308226
 30
0.0
 10
127.9411337181476
 20
967.8653231951846
 30
0.0
 10
128.1241802594893
 20
967.8650144913374
 30
0.0
 10
128.2157034852712
 20
967.8648601394896
 30
0.0
  0
SPLINE
  5
257
330
1F
100
AcDbEntity
  8
0
  6
Continuous
 62
     8
370
    18
100
AcDbSpline
210
0.0
220
0.0
230
1.0
 70
     8
 71
     3
 72
     9
 73
     5
 74
     0
 42
0.000000001
 43
0.00000001
 40
0.0
 40
0.0
 40
0.0
 40
0.0
 40
0.4999995863232864
 40
1.0
 40
1.0
 40
1.0
 40
1.0
 10
127.5431066919364
 20
971.1486792679493
 30
0.0
 10
127.5447461826309
 20
970.6015624004391
 30
0.0
 10
127.5480251667327
 20
969.5073277600998
 30
0.0
 10
127.5521111805829
 20
968.4130958357133
 30
0.0
 10
127.5541541891983
 20
967.8659794208619
 30
0.0
  0
SPLINE
  5
258
330
1F
100
AcDbEntity
  8
0
  6
Continuous
 62
     8
370
    18
100
AcDbSpline
210
0.0
220
0.0
230
1.0
 70
    24
 71
     3
 72
    11
 73
     7
 74
     0
 42
0.000000001
 43
0.00000001
 40
0.0
 40
0.0
 40
0.0
 40
0.0
 40
0.2500000000000003
 40
0.4999999999999975
 40
0.7499999999999964
 40
1.0
 40
1.0
 40
1.0
 40
1.0
 10
106.1705236899057
 20
971.1486792679493
 30
0.0
 10
106.1050472540628
 20
971.1486792679493
 30
0.0
 10
105.9740943823769
 20
971.1486792679493
 30
0.0
 10
105.7856989879248
 20
971.1486792679493
 30
0.0
 10
105.6101512111684
 20
971.1486792679493
 30
0.0
 10
105.5123283428691
 20
971.1486792679493
 30
0.0
 10
105.4634169087194
 20
971.1486792679493
 30
0.0
  0
SPLINE
  5
259
330
1F
100
AcDbEntity
  8
0
  6
Continuous
 62
     8
370
    18
100
AcDbSpline
210
0.0
220
0.0
230
1.0
 70
     8
 71
     3
 72
     9
 73
     5
 74
     0
 42
0.000000001
 43
0.00000001
 40
0.0
 40
0.0
 40
0.0
 40
0.0
 40
0.4999995863232863
 40
0.9999999999999999
 40
0.9999999999999999
 40
0.9999999999999999
 40
0.9999999999999999
 10
106.1705236899057
 20
971.1486792679493
 30
0.0
 10
106.1688841992112
 20
970.6015624004391
 30
0.0
 10
106.1656052151094
 20
969.5073277600998
 30
0.0
 10
106.1615192012592
 20
968.4130958357134
 30
0.0
 10
106.1594761926438
 20
967.8659794208619
 30
0.0
  0
SPLINE
  5
25A
330
1F
100
AcDbEntity
  8
0
  6
Continuous
 62
     8
370
    18
100
AcDbSpline
210
0.0
220
0.0
230
1.0
 70
     8
 71
     3
 72
     9
 73
     5
 74
     0
 42
0.000000001
 43
0.00000001
 40
0.0
 40
0.0
 40
0.0
 40
0.0
 40
0.4999991056474969
 40
1.0
 40
1.0
 40
1.0
 40
1.0
 10
105.4979268965709
 20
967.8648601394896
 30
0.0
 10
105.596761031915
 20
967.8650267921777
 30
0.0
 10
105.794429656174
 20
967.86536009815
 30
0.0
 10
106.0377938687183
 20
967.8657729797118
 30
0.0
 10
106.1594761926438
 20
967.8659794208619
 30
0.0
  0
LINE
  5
25B
330
1F
100
AcDbEntity
  8
0
  6
Continuous
 62
     8
370
    18
100
AcDbLine
 10
127.5431066919
 20
975.8659794209
 30
0.0
 11
127.5431066919
 21
971.1486792679
 31
0.0
  0
LINE
  5
25C
330
1F
100
AcDbEntity
  8
0
  6
Continuous
 62
     8
370
    18
100
AcDbLine
 10
106.1705236899
 20
975.8659794209
 30
0.0
 11
106.1705236899
 21
971.1486792679
 31
0.0
  0
LINE
  5
25D
330
1F
100
AcDbEntity
  8
0
  6
Continuous
 62
     8
370
    18
100
AcDbLine
 10
106.1594761926
 20
967.8659794209
 30
0.0
 11
106.1594761926
 21
966.8659794209
 31
0.0
  0
LINE
  5
25E
330
1F
100
AcDbEntity
  8
0
  6
Continuous
 62
     8
370
    18
100
AcDbLine
 10
127.5541541892
 20
967.8659794209
 30
0.0
 11
127.5541541892
 21
966.8659794209
 31
0.0
  0
LINE
  5
25F
330
1F
100
AcDbEntity
  8
0
  6
Continuous
 62
     8
370
    18
100
AcDbLine
 10
106.1594761926
 20
967.8659794209
 30
0.0
 11
127.5541541892
 21
967.8659794209
 31
0.0
  0
LINE
  5
260
330
1F
100
AcDbEntity
  8
0
  6
Continuous
 62
     8
370
    18
100
AcDbLine
 10
98.085107313
 20
965.3659794209
 30
0.0
 11
135.6285230688
 21
965.3659794209
 31
0.0
  0
SPLINE
  5
261
330
1F
100
AcDbEntity
  8
0
  6
Continuous
 62
     8
370
    18
100
AcDbSpline
210
0.0
220
0.0
230
1.0
 70
     8
 71
     3
 72
    13
 73
     9
 74
     0
 42
0.000000001
 43
0.00000001
 40
0.0
 40
0.0
 40
0.0
 40
0.0
 40
0.0538280651984957
 40
0.2516073130481024
 40
0.4392413545625254
 40
0.6387690319104584
 40
0.8743217307530451
 40
1.0
 40
1.0
 40
1.0
 40
1.0
 10
221.1221251964681
 20
1201.820045178904
 30
0.0
 10
221.13760821559
 20
1201.821799709317
 30
0.0
 10
221.2099801432223
 20
1201.830000871316
 30
0.0
 10
220.8078728142886
 20
1201.787200575301
 30
0.0
 10
219.9500516273485
 20
1201.637145627672
 30
0.0
 10
218.6106323656833
 20
1201.248780894669
 30
0.0
 10
217.2435658914343
 20
1200.612573481337
 30
0.0
 10
216.4385737859806
 20
1200.058686073674
 30
0.0
 10
216.1585036272509
 20
1199.865979420862
 30
0.0
  0
SPLINE
  5
262
330
1F
100
AcDbEntity
  8
0
  6
Continuous
 62
     8
370
    18
100
AcDbSpline
210
0.0
220
0.0
230
1.0
 70
     8
 71
     3
 72
    13
 73
     9
 74
     0
 42
0.000000001
 43
0.00000001
 40
0.0
 40
0.0
 40
0.0
 40
0.0
 40
0.1708991340359425
 40
0.3606181473589625
 40
0.5535291148287615
 40
0.7495324910575306
 40
0.9452327225559404
 40
1.0
 40
1.0
 40
1.0
 40
1.0
 10
17.55512675459134
 20
1199.865979420862
 30
0.0
 10
17.16988598970804
 20
1200.125661792981
 30
0.0
 10
16.35698069499694
 20
1200.673623469111
 30
0.0
 10
15.02318984641118
 20
1201.267817625263
 30
0.0
 10
13.77946588488629
 20
1201.635230015436
 30
0.0
 10
12.89142189132184
 20
1201.788756522238
 30
0.0
 10
12.54975424146285
 20
1201.824744117323
 30
0.0
 10
12.54974141359563
 20
1201.824797274376
 30
0.0
 10
12.54973860865152
 20
1201.824808897708
 30
0.0
  0
LINE
  5
263
330
1F
100
AcDbEntity
  8
0
  6
Continuous
 62
     8
370
    18
100
AcDbLine
 10
6.8568151909
 20
1206.9584446458
 30
0.0
 11
7.8568151909
 21
1206.9584446458
 31
0.0
  0
ARC
  5
264
330
1F
100
AcDbEntity
  8
0
  6
Continuous
 62
     8
370
    18
100
AcDbCircle
 10
7.6264075556
 20
1207.353034098
 30
0.0
 40
0.5440998245392908
100
AcDbArc
 50
64.9464116076
 51
115.0535883924
  0
LINE
  5
265
330
1F
100
AcDbEntity
  8
0
  6
Continuous
 62
     8
370
    18
100
AcDbLine
 10
7.8568151909
 20
1207.8459407226
 30
0.0
 11
7.8568151909
 21
1206.9584446458
 31
0.0
  0
LINE
  5
266
330
1F
100
AcDbEntity
  8
0
  6
Continuous
 62
     8
370
    18
100
AcDbLine
 10
7.8568151909
 20
1206.9584446458
 30
0.0
 11
7.8568151909
 21
1203.5659794209
 31
0.0
  0
LINE
  5
267
330
1F
100
AcDbEntity
  8
0
  6
Continuous
 62
     8
370
    18
100
AcDbLine
 10
6.8568151909
 20
1203.5659794209
 30
0.0
 11
7.8568151909
 21
1203.5659794209
 31
0.0
  0
LINE
  5
268
330
1F
100
AcDbEntity
  8
0
  6
Continuous
 62
     8
370
    18
100
AcDbLine
 10
7.8568151909
 20
1207.8459407226
 30
0.0
 11
225.8568151909
 21
1207.8459407226
 31
0.0
  0
LINE
  5
269
330
1F
100
AcDbEntity
  8
0
  6
Continuous
 62
     8
370
    18
100
AcDbLine
 10
225.8568151909
 20
1207.8459407226
 30
0.0
 11
225.8568151909
 21
1206.9584446458
 31
0.0
  0
LINE
  5
26A
330
1F
100
AcDbEntity
  8
0
  6
Continuous
 62
     8
370
    18
100
AcDbLine
 10
225.8568151909
 20
1206.9584446458
 30
0.0
 11
7.8568151909
 21
1206.9584446458
 31
0.0
  0
LINE
  5
26B
330
1F
100
AcDbEntity
  8
0
  6
Continuous
 62
     8
370
    18
100
AcDbLine
 10
225.8568151909
 20
1203.5659794209
 30
0.0
 11
225.8568151909
 21
1202.5659794209
 31
0.0
  0
LINE
  5
26C
330
1F
100
AcDbEntity
  8
0
  6
Continuous
 62
     8
370
    18
100
AcDbLine
 10
225.8568151909
 20
1203.5659794209
 30
0.0
 11
226.8568151909
 21
1203.5659794209
 31
0.0
  0
LINE
  5
26D
330
1F
100
AcDbEntity
  8
0
  6
Continuous
 62
     8
370
    18
100
AcDbLine
 10
225.8568151909
 20
1206.9584446458
 30
0.0
 11
226.8568151909
 21
1206.9584446458
 31
0.0
  0
ARC
  5
26E
330
1F
100
AcDbEntity
  8
0
  6
Continuous
 62
     8
370
    18
100
AcDbCircle
 10
226.0872228262
 20
1207.353034098
 30
0.0
 40
0.5440998245382482
100
AcDbArc
 50
64.9464116076
 51
115.0535883924
  0
LINE
  5
26F
330
1F
100
AcDbEntity
  8
0
  6
Continuous
 62
     8
370
    18
100
AcDbLine
 10
225.8568151909
 20
1203.5659794209
 30
0.0
 11
225.8568151909
 21
1206.9584446458
 31
0.0
  0
LINE
  5
270
330
1F
100
AcDbEntity
  8
0
  6
Continuous
 62
     8
370
    18
100
AcDbLine
 10
7.8568151909
 20
1203.5659794209
 30
0.0
 11
225.8568151909
 21
1203.5659794209
 31
0.0
  0
LINE
  5
271
330
1F
100
AcDbEntity
  8
0
  6
Continuous
 62
     8
370
    18
100
AcDbLine
 10
7.8568151909
 20
1203.5659794209
 30
0.0
 11
7.8568151909
 21
1202.5659794209
 31
0.0
  0
LINE
  5
272
330
1F
100
AcDbEntity
  8
0
  6
Continuous
 62
     8
370
    18
100
AcDbLine
 10
225.8568151909
 20
1207.8459407226
 30
0.0
 11
200.600545359
 21
1220.9597731354
 31
0.0
  0
ELLIPSE
  5
273
330
1F
100
AcDbEntity
  8
0
  6
Continuous
 62
     8
370
    18
100
AcDbEllipse
 10
199.9805981559
 20
1220.3941727217
 30
0.0
 11
1.135570212646371
 21
0.5119056900575742
 31
0.0
210
0.0
220
0.0
230
1.0
 40
0.2726452804
 41
0.2120458693055878
 42
0.8758578848253917
  0
LINE
  5
274
330
1F
100
AcDbEntity
  8
0
  6
Continuous
 62
     8
370
    18
100
AcDbLine
 10
33.1130850229
 20
1220.9597731354
 30
0.0
 11
7.8568151909
 21
1207.8459407226
 31
0.0
  0
ELLIPSE
  5
275
330
1F
100
AcDbEntity
  8
0
  6
Continuous
 62
     8
370
    18
100
AcDbEllipse
 10
34.2921143662
 20
1222.0505003832
 30
0.0
 11
2.069697351775588
 21
0.3031117437087688
 31
0.0
210
0.0
220
0.0
230
1.0
 40
0.5610987009
 41
4.026630208823913
 42
4.457075383775416
  0
LINE
  5
276
330
1F
100
AcDbEntity
  8
0
  6
Continuous
 62
     8
370
    18
100
AcDbLine
 10
199.7796532467
 20
1220.8502900432
 30
0.0
 11
33.9339771352
 21
1220.8502900432
 31
0.0
  0
ELLIPSE
  5
277
330
1F
100
AcDbEntity
  8
0
  6
Continuous
 62
     8
370
    18
100
AcDbEllipse
 10
199.4215160156
 20
1222.0505003832
 30
0.0
 11
2.069697351775631
 21
-0.3031117437089961
 31
0.0
210
0.0
220
0.0
230
1.0
 40
0.5610987009
 41
4.967702576994046
 42
5.398147751945617
  0
ELLIPSE
  5
278
330
1F
100
AcDbEntity
  8
0
  6
Continuous
 62
     8
370
    18
100
AcDbEllipse
 10
33.733032226
 20
1220.3941727217
 30
0.0
 11
1.135570212646371
 21
-0.5119056900573469
 31
0.0
210
0.0
220
0.0
230
1.0
 40
0.2726452804
 41
2.265734768764163
 42
2.929546784283652
  0
ELLIPSE
  5
279
330
1F
100
AcDbEntity
  8
0
  6
Continuous
 62
     8
370
    18
100
AcDbEllipse
 10
199.4215160156
 20
1222.93799646
 30
0.0
 11
-0.8095499682032994
 21
1.350369840950179
 31
0.0
210
0.0
220
0.0
230
1.0
 40
0.5798717325
 41
2.663149315835599
 42
3.093594490787267
  0
ARC
  5
27A
330
1F
100
AcDbEntity
  8
0
  6
Continuous
 62
     8
370
    18
100
AcDbCircle
 10
201.4680654654
 20
1221.9835447059
 30
0.0
 40
1.341901398628812
100
AcDbArc
 50
198.0995111239
 51
229.7228379229
  0
LINE
  5
27B
330
1F
100
AcDbEntity
  8
0
  6
Continuous
 62
     8
370
    18
100
AcDbLine
 10
199.7796532467
 20
1221.5231290893
 30
0.0
 11
199.7796532467
 21
1220.8502900432
 31
0.0
  0
LINE
  5
27C
330
1F
100
AcDbEntity
  8
0
  6
Continuous
 62
     8
370
    18
100
AcDbLine
 10
33.9339771352
 20
1221.5231290893
 30
0.0
 11
199.7796532467
 21
1221.5231290893
 31
0.0
  0
LINE
  5
27D
330
1F
100
AcDbEntity
  8
0
  6
Continuous
 62
     8
370
    18
100
AcDbLine
 10
33.9339771352
 20
1221.5231290893
 30
0.0
 11
33.9339771352
 21
1220.8502900432
 31
0.0
  0
ELLIPSE
  5
27E
330
1F
100
AcDbEntity
  8
0
  6
Continuous
 62
     8
370
    18
100
AcDbEllipse
 10
34.2921143662
 20
1222.93799646
 30
0.0
 11
0.8095499682033421
 21
1.350369840950179
 31
0.0
210
0.0
220
0.0
230
1.0
 40
0.5798717325
 41
3.189590816392391
 42
3.620035991344065
  0
ARC
  5
27F
330
1F
100
AcDbEntity
  8
0
  6
Continuous
 62
     8
370
    18
100
AcDbCircle
 10
32.2455649164
 20
1221.9835447059
 30
0.0
 40
1.341901398628245
100
AcDbArc
 50
310.2771620771
 51
341.9004888761
  0
ARC
  5
280
330
1F
100
AcDbEntity
  8
0
  6
Continuous
 62
     8
370
    18
100
AcDbCircle
 10
32.2676188632
 20
1221.6589333402
 30
0.0
 40
0.7979857758261503
100
AcDbArc
 50
298.8178888154
 51
353.3597621378
  0
ELLIPSE
  5
281
330
1F
100
AcDbEntity
  8
0
  6
Continuous
 62
     8
370
    18
100
AcDbEllipse
 10
33.733032226
 20
1220.3941727217
 30
0.0
 11
-0.6238968365072921
 21
1.203946341489427
 31
0.0
210
0.0
220
0.0
230
1.0
 40
0.4769221429
 41
5.708988792244347
 42
6.372800807764102
  0
ARC
  5
282
330
1F
100
AcDbEntity
  8
0
  6
Continuous
 62
     8
370
    18
100
AcDbCircle
 10
201.4460115186
 20
1221.6589333402
 30
0.0
 40
0.7979857758259652
100
AcDbArc
 50
186.6402378622
 51
241.1821111846
  0
ELLIPSE
  5
283
330
1F
100
AcDbEntity
  8
0
  6
Continuous
 62
     8
370
    18
100
AcDbEllipse
 10
199.9805981559
 20
1220.3941727217
 30
0.0
 11
0.6238968365072708
 21
1.203946341489427
 31
0.0
210
0.0
220
0.0
230
1.0
 40
0.4769221429
 41
6.193569806595154
 42
6.857381822114917
  0
LINE
  5
284
330
1F
100
AcDbEntity
  8
0
  6
Continuous
 62
     8
370
    18
100
AcDbLine
 10
199.7796532467
 20
1221.5231290893
 30
0.0
 11
190.0527285517
 21
1265.7806364516
 31
0.0
  0
ARC
  5
285
330
1F
100
AcDbEntity
  8
0
  6
Continuous
 62
     8
370
    18
100
AcDbCircle
 10
190.5410732965
 20
1264.5793113793
 30
0.0
 40
1.296789311721245
100
AcDbArc
 50
67.8780081129
 51
112.1219918871
  0
ELLIPSE
  5
286
330
1F
100
AcDbEntity
  8
0
  6
Continuous
 62
     8
370
    18
100
AcDbEllipse
 10
199.4215160156
 20
1222.93799646
 30
0.0
 11
-1.333276479399018
 21
1.427757426110702
 31
0.0
210
0.0
220
0.0
230
1.0
 40
0.0549973073
 41
2.803712088189546
 42
3.234157263140508
  0
ARC
  5
287
330
1F
100
AcDbEntity
  8
0
  6
Continuous
 62
     8
370
    18
100
AcDbCircle
 10
43.1725570853
 20
1264.5793113793
 30
0.0
 40
1.296789311721475
100
AcDbArc
 50
67.8780081129
 51
112.1219918871
  0
LINE
  5
288
330
1F
100
AcDbEntity
  8
0
  6
Continuous
 62
     8
370
    18
100
AcDbLine
 10
43.6609018302
 20
1265.7806364516
 30
0.0
 11
33.9339771352
 21
1221.5231290893
 31
0.0
  0
ELLIPSE
  5
289
330
1F
100
AcDbEntity
  8
0
  6
Continuous
 62
     8
370
    18
100
AcDbEllipse
 10
34.2921143662
 20
1222.93799646
 30
0.0
 11
1.333276479399039
 21
1.427757426110702
 31
0.0
210
0.0
220
0.0
230
1.0
 40
0.0549973073
 41
3.049028044039503
 42
3.479473218990532
  0
LINE
  5
28A
330
1F
100
AcDbEntity
  8
0
  6
Continuous
 62
     8
370
    18
100
AcDbLine
 10
190.0527285517
 20
1265.7806364516
 30
0.0
 11
43.6609018302
 21
1265.7806364516
 31
0.0
  0
LINE
  5
28B
330
1F
100
AcDbEntity
  8
0
  6
Continuous
 62
     8
370
    18
100
AcDbLine
 10
43.6609018302
 20
1266.5659794209
 30
0.0
 11
43.6609018302
 21
1265.7806364516
 31
0.0
  0
LINE
  5
28C
330
1F
100
AcDbEntity
  8
0
  6
Continuous
 62
     8
370
    18
100
AcDbLine
 10
190.0527285517
 20
1265.7806364516
 30
0.0
 11
190.0527285517
 21
1266.5659794209
 31
0.0
  0
LINE
  5
28D
330
1F
100
AcDbEntity
  8
0
  6
Continuous
 62
     8
370
    18
100
AcDbLine
 10
54.7989576499
 20
1269.1980151949
 30
0.0
 11
178.9146727319
 21
1269.1980151949
 31
0.0
  0
LINE
  5
28E
330
1F
100
AcDbEntity
  8
0
  6
Continuous
 62
     8
370
    18
100
AcDbLine
 10
150.2351051036
 20
1291.5327791991
 30
0.0
 11
83.4785252783
 21
1291.5327791991
 31
0.0
  0
LINE
  5
28F
330
1F
100
AcDbEntity
  8
0
  6
Continuous
 62
     8
370
    18
100
AcDbLine
 10
83.8568151909
 20
1292.0177396662
 30
0.0
 11
149.8568151909
 21
1292.0177396662
 31
0.0
  0
LINE
  5
290
330
1F
100
AcDbEntity
  8
0
  6
Continuous
 62
     8
370
    18
100
AcDbLine
 10
84.6096113282
 20
1295.3026079755
 30
0.0
 11
149.1040190537
 21
1295.3026079755
 31
0.0
  0
LINE
  5
291
330
1F
100
AcDbEntity
  8
0
  6
Continuous
 62
     8
370
    18
100
AcDbLine
 10
149.8568151909
 20
1294.3336444828
 30
0.0
 11
83.8568151909
 21
1294.3336444828
 31
0.0
  0
LINE
  5
292
330
1F
100
AcDbEntity
  8
0
  6
Continuous
 62
     8
370
    18
100
AcDbLine
 10
135.6020680811
 20
1306.9524507737
 30
0.0
 11
98.1115623008
 21
1306.9524507737
 31
0.0
  0
LINE
  5
293
330
1F
100
AcDbEntity
  8
0
  6
Continuous
 62
     8
370
    18
100
AcDbLine
 10
141.8568151909
 20
960.3659794209
 30
0.0
 11
91.8568151909
 21
960.3659794209
 31
0.0
  0
LINE
  5
294
330
1F
100
AcDbEntity
  8
0
  6
Continuous
 62
     8
370
    18
100
AcDbLine
 10
141.8568151909
 20
944.3659794209
 30
0.0
 11
91.8568151909
 21
944.3659794209
 31
0.0
  0
CIRCLE
  5
295
330
1F
100
AcDbEntity
  8
0
  6
Continuous
 62
     7
100
AcDbCircle
 10
116.8568151909
 20
-207.1644839215
 30
0.0
 40
10.00000000000002
  0
CIRCLE
  5
296
330
1F
100
AcDbEntity
  8
0
  6
Continuous
 62
     7
100
AcDbCircle
 10
116.8568151909
 20
-207.1644839215
 30
0.0
 40
34.74999999999996
  0
ARC
  5
297
330
1F
100
AcDbEntity
  8
0
  6
Continuous
 62
     7
100
AcDbCircle
 10
7.8568151909
 20
-98.1644839215
 30
0.0
 40
1.0
100
AcDbArc
 50
90.0
 51
180.0
  0
ARC
  5
298
330
1F
100
AcDbEntity
  8
0
  6
Continuous
 62
     7
100
AcDbCircle
 10
225.8568151909
 20
-98.1644839215
 30
0.0
 40
1.0
100
AcDbArc
 50
0.0
 51
90.0
  0
ARC
  5
299
330
1F
100
AcDbEntity
  8
0
  6
Continuous
 62
     7
100
AcDbCircle
 10
7.8568151909
 20
-316.1644839215
 30
0.0
 40
1.000000000000002
100
AcDbArc
 50
180.0
 51
270.0
  0
ARC
  5
29A
330
1F
100
AcDbEntity
  8
0
  6
Continuous
 62
     7
100
AcDbCircle
 10
225.8568151909
 20
-316.1644839215
 30
0.0
 40
1.0
100
AcDbArc
 50
270.0
 51
0.0
  0
LINE
  5
29B
330
1F
100
AcDbEntity
  8
0
  6
Continuous
 62
     7
100
AcDbLine
 10
226.8568151909
 20
-98.1644839215
 30
0.0
 11
226.8568151909
 21
-316.1644839215
 31
0.0
  0
LINE
  5
29C
330
1F
100
AcDbEntity
  8
0
  6
Continuous
 62
     7
100
AcDbLine
 10
6.8568151909
 20
-316.1644839215
 30
0.0
 11
6.8568151909
 21
-98.1644839215
 31
0.0
  0
LINE
  5
29D
330
1F
100
AcDbEntity
  8
0
  6
Continuous
 62
     7
100
AcDbLine
 10
7.8568151909
 20
-97.1644839215
 30
0.0
 11
225.8568151909
 21
-97.1644839215
 31
0.0
  0
LINE
  5
29E
330
1F
100
AcDbEntity
  8
0
  6
Continuous
 62
     7
100
AcDbLine
 10
225.8568151909
 20
-317.1644839215
 30
0.0
 11
7.8568151909
 21
-317.1644839215
 31
0.0
  0
CIRCLE
  5
29F
330
1F
100
AcDbEntity
  8
0
  6
Continuous
 62
     8
370
    18
100
AcDbCircle
 10
116.8568151909
 20
-207.1644839215
 30
0.0
 40
4.522774424948364
  0
CIRCLE
  5
2A0
330
1F
100
AcDbEntity
  8
0
  6
Continuous
 62
     8
370
    18
100
AcDbCircle
 10
116.8568151909
 20
-207.1644839215
 30
0.0
 40
7.510352011340145
  0
CIRCLE
  5
2A1
330
1F
100
AcDbEntity
  8
0
  6
Continuous
 62
     8
370
    18
100
AcDbCircle
 10
116.8568151909
 20
-207.1644839215
 30
0.0
 40
27.00329557573
  0
CIRCLE
  5
2A2
330
1F
100
AcDbEntity
  8
0
  6
Continuous
 62
     8
370
    18
100
AcDbCircle
 10
116.8568151909
 20
-207.1644839215
 30
0.0
 40
28.1365160869381
  0
CIRCLE
  5
2A3
330
1F
100
AcDbEntity
  8
0
  6
Continuous
 62
     8
370
    18
100
AcDbCircle
 10
116.8568151909
 20
-207.1644839215
 30
0.0
 40
32.85578333686674
  0
CIRCLE
  5
2A4
330
1F
100
AcDbEntity
  8
0
  6
Continuous
 62
     8
370
    18
100
AcDbCircle
 10
116.8568151909
 20
-207.1644839215
 30
0.0
 40
34.30730895156614
  0
CIRCLE
  5
2A5
330
1F
100
AcDbEntity
  8
0
  6
Continuous
 62
     8
370
    18
100
AcDbCircle
 10
116.8568151909
 20
-207.1644839215
 30
0.0
 40
62.05785754100865
  0
CIRCLE
  5
2A6
330
1F
100
AcDbEntity
  8
0
  6
Continuous
 62
     8
370
    18
100
AcDbCircle
 10
116.8568151909
 20
-207.1644839215
 30
0.0
 40
66.46157703985688
  0
ARC
  5
2A7
330
1F
100
AcDbEntity
  8
0
  6
Continuous
 62
     8
370
    18
100
AcDbCircle
 10
189.9980840449
 20
-134.0232150675
 30
0.0
 40
1.032780632217335
100
AcDbArc
 50
3.0329405595
 51
86.9670594405
  0
LINE
  5
2A8
330
1F
100
AcDbEntity
  8
0
  6
Continuous
 62
     8
370
    18
100
AcDbLine
 10
191.0294180413
 20
-133.9685705607
 30
0.0
 11
190.0527285517
 21
-133.9685705607
 31
0.0
  0
LINE
  5
2A9
330
1F
100
AcDbEntity
  8
0
  6
Continuous
 62
     8
370
    18
100
AcDbLine
 10
190.0527285517
 20
-133.9685705607
 30
0.0
 11
190.0527285517
 21
-132.9918810711
 31
0.0
  0
LINE
  5
2AA
330
1F
100
AcDbEntity
  8
0
  6
Continuous
 62
     8
370
    18
100
AcDbLine
 10
190.0527285517
 20
-280.3603972822
 30
0.0
 11
190.0527285517
 21
-133.9685705607
 31
0.0
  0
LINE
  5
2AB
330
1F
100
AcDbEntity
  8
0
  6
Continuous
 62
     8
370
    18
100
AcDbLine
 10
43.6609018302
 20
-280.3603972822
 30
0.0
 11
190.0527285517
 21
-280.3603972822
 31
0.0
  0
LINE
  5
2AC
330
1F
100
AcDbEntity
  8
0
  6
Continuous
 62
     8
370
    18
100
AcDbLine
 10
43.6609018302
 20
-133.9685705607
 30
0.0
 11
43.6609018302
 21
-280.3603972822
 31
0.0
  0
LINE
  5
2AD
330
1F
100
AcDbEntity
  8
0
  6
Continuous
 62
     8
370
    18
100
AcDbLine
 10
190.0527285517
 20
-133.9685705607
 30
0.0
 11
43.6609018302
 21
-133.9685705607
 31
0.0
  0
LINE
  5
2AE
330
1F
100
AcDbEntity
  8
0
  6
Continuous
 62
     8
370
    18
100
AcDbLine
 10
43.6609018302
 20
-132.9918810711
 30
0.0
 11
43.6609018302
 21
-133.9685705607
 31
0.0
  0
LINE
  5
2AF
330
1F
100
AcDbEntity
  8
0
  6
Continuous
 62
     8
370
    18
100
AcDbLine
 10
43.6609018302
 20
-132.9918810711
 30
0.0
 11
190.0527285517
 21
-132.9918810711
 31
0.0
  0
LINE
  5
2B0
330
1F
100
AcDbEntity
  8
0
  6
Continuous
 62
     8
370
    18
100
AcDbLine
 10
190.0527285517
 20
-280.3603972822
 30
0.0
 11
191.0294180413
 21
-280.3603972822
 31
0.0
  0
LINE
  5
2B1
330
1F
100
AcDbEntity
  8
0
  6
Continuous
 62
     8
370
    18
100
AcDbLine
 10
191.0294180413
 20
-133.9685705607
 30
0.0
 11
191.0294180413
 21
-280.3603972822
 31
0.0
  0
ARC
  5
2B2
330
1F
100
AcDbEntity
  8
0
  6
Continuous
 62
     8
370
    18
100
AcDbCircle
 10
43.7155463369
 20
-134.0232150675
 30
0.0
 40
1.032780632217386
100
AcDbArc
 50
93.0329405595
 51
176.9670594405
  0
LINE
  5
2B3
330
1F
100
AcDbEntity
  8
0
  6
Continuous
 62
     8
370
    18
100
AcDbLine
 10
43.6609018302
 20
-133.9685705607
 30
0.0
 11
42.6842123405
 21
-133.9685705607
 31
0.0
  0
LINE
  5
2B4
330
1F
100
AcDbEntity
  8
0
  6
Continuous
 62
     8
370
    18
100
AcDbLine
 10
42.6842123405
 20
-280.3603972822
 30
0.0
 11
43.6609018302
 21
-280.3603972822
 31
0.0
  0
LINE
  5
2B5
330
1F
100
AcDbEntity
  8
0
  6
Continuous
 62
     8
370
    18
100
AcDbLine
 10
42.6842123405
 20
-280.3603972822
 30
0.0
 11
42.6842123405
 21
-133.9685705607
 31
0.0
  0
ARC
  5
2B6
330
1F
100
AcDbEntity
  8
0
  6
Continuous
 62
     8
370
    18
100
AcDbCircle
 10
43.7155463369
 20
-280.3057527755
 30
0.0
 40
1.032780632217372
100
AcDbArc
 50
183.0329405595
 51
266.9670594405
  0
LINE
  5
2B7
330
1F
100
AcDbEntity
  8
0
  6
Continuous
 62
     8
370
    18
100
AcDbLine
 10
43.6609018302
 20
-280.3603972822
 30
0.0
 11
43.6609018302
 21
-281.3370867719
 31
0.0
  0
ARC
  5
2B8
330
1F
100
AcDbEntity
  8
0
  6
Continuous
 62
     8
370
    18
100
AcDbCircle
 10
189.9980840449
 20
-280.3057527755
 30
0.0
 40
1.032780632217366
100
AcDbArc
 50
273.0329405595
 51
356.9670594405
  0
LINE
  5
2B9
330
1F
100
AcDbEntity
  8
0
  6
Continuous
 62
     8
370
    18
100
AcDbLine
 10
190.0527285517
 20
-281.3370867719
 30
0.0
 11
190.0527285517
 21
-280.3603972822
 31
0.0
  0
LINE
  5
2BA
330
1F
100
AcDbEntity
  8
0
  6
Continuous
 62
     8
370
    18
100
AcDbLine
 10
190.0527285517
 20
-281.3370867719
 30
0.0
 11
43.6609018302
 21
-281.3370867719
 31
0.0
  0
ELLIPSE
  5
2BB
330
1F
100
AcDbEntity
  8
0
  6
Continuous
 62
     8
370
    18
100
AcDbEllipse
 10
199.9805981559
 20
-124.0407009565
 30
0.0
 11
0.7071067811865248
 21
-0.707106781186539
 31
0.0
210
0.0
220
0.0
230
1.0
 40
0.6617248527
 41
1.238890319034981
 42
1.902702334554828
  0
ELLIPSE
  5
2BC
330
1F
100
AcDbEntity
  8
0
  6
Continuous
 62
     8
370
    18
100
AcDbEllipse
 10
199.4215160156
 20
-124.5997830968
 30
0.0
 11
1.233042220503478
 21
0.7691639497218575
 31
0.0
210
0.0
220
0.0
230
1.0
 40
0.6672491749
 41
5.855031937907236
 42
6.285477112858781
  0
LINE
  5
2BD
330
1F
100
AcDbEntity
  8
0
  6
Continuous
 62
     8
370
    18
100
AcDbLine
 10
200.7563427363
 20
-124.2416458657
 30
0.0
 11
191.0294180413
 21
-133.9685705607
 31
0.0
  0
LINE
  5
2BE
330
1F
100
AcDbEntity
  8
0
  6
Continuous
 62
     8
370
    18
100
AcDbLine
 10
190.0527285517
 20
-132.9918810711
 30
0.0
 11
199.7796532467
 21
-123.2649563761
 31
0.0
  0
ELLIPSE
  5
2BF
330
1F
100
AcDbEntity
  8
0
  6
Continuous
 62
     8
370
    18
100
AcDbEllipse
 10
199.4215160156
 20
-124.5997830968
 30
0.0
 11
0.7691639497218432
 21
1.233042220503506
 31
0.0
210
0.0
220
0.0
230
1.0
 40
0.6672491749
 41
6.280893501500433
 42
6.711338676451959
  0
ELLIPSE
  5
2C0
330
1F
100
AcDbEntity
  8
0
  6
Continuous
 62
     8
370
    18
100
AcDbEllipse
 10
34.2921143662
 20
-124.5997830968
 30
0.0
 11
-0.7691639497218432
 21
1.233042220503521
 31
0.0
210
0.0
220
0.0
230
1.0
 40
0.6672491749
 41
5.855031937907243
 42
6.285477112858836
  0
LINE
  5
2C1
330
1F
100
AcDbEntity
  8
0
  6
Continuous
 62
     8
370
    18
100
AcDbLine
 10
33.9339771352
 20
-123.2649563761
 30
0.0
 11
43.6609018302
 21
-132.9918810711
 31
0.0
  0
LINE
  5
2C2
330
1F
100
AcDbEntity
  8
0
  6
Continuous
 62
     8
370
    18
100
AcDbLine
 10
42.6842123405
 20
-133.9685705607
 30
0.0
 11
32.9572876455
 21
-124.2416458657
 31
0.0
  0
ELLIPSE
  5
2C3
330
1F
100
AcDbEntity
  8
0
  6
Continuous
 62
     8
370
    18
100
AcDbEllipse
 10
34.2921143662
 20
-124.5997830968
 30
0.0
 11
1.233042220503521
 21
-0.7691639497218574
 31
0.0
210
0.0
220
0.0
230
1.0
 40
0.6672491749
 41
3.139300847910573
 42
3.569746022862176
  0
ELLIPSE
  5
2C4
330
1F
100
AcDbEntity
  8
0
  6
Continuous
 62
     8
370
    18
100
AcDbEllipse
 10
33.733032226
 20
-124.0407009565
 30
0.0
 11
0.707106781186546
 21
0.7071067811865531
 31
0.0
210
0.0
220
0.0
230
1.0
 40
0.6617248527
 41
1.238890319034982
 42
1.902702334554794
  0
LINE
  5
2C5
330
1F
100
AcDbEntity
  8
0
  6
Continuous
 62
     8
370
    18
100
AcDbLine
 10
199.7796532467
 20
-291.0640114669
 30
0.0
 11
190.0527285517
 21
-281.3370867719
 31
0.0
  0
LINE
  5
2C6
330
1F
100
AcDbEntity
  8
0
  6
Continuous
 62
     8
370
    18
100
AcDbLine
 10
191.0294180413
 20
-280.3603972822
 30
0.0
 11
200.7563427363
 21
-290.0873219772
 31
0.0
  0
ELLIPSE
  5
2C7
330
1F
100
AcDbEntity
  8
0
  6
Continuous
 62
     8
370
    18
100
AcDbEllipse
 10
199.4215160156
 20
-289.7291847462
 30
0.0
 11
1.233042220503535
 21
-0.7691639497218716
 31
0.0
210
0.0
220
0.0
230
1.0
 40
0.6672491749
 41
6.280893501500407
 42
6.71133867645197
  0
ELLIPSE
  5
2C8
330
1F
100
AcDbEntity
  8
0
  6
Continuous
 62
     8
370
    18
100
AcDbEllipse
 10
199.9805981559
 20
-290.2882668864
 30
0.0
 11
0.7071067811864964
 21
0.7071067811864964
 31
0.0
210
0.0
220
0.0
230
1.0
 40
0.6617248527
 41
4.380482972624775
 42
5.044294988144587
  0
ELLIPSE
  5
2C9
330
1F
100
AcDbEntity
  8
0
  6
Continuous
 62
     8
370
    18
100
AcDbEllipse
 10
199.4215160156
 20
-289.7291847462
 30
0.0
 11
-0.7691639497218716
 21
1.233042220503478
 31
0.0
210
0.0
220
0.0
230
1.0
 40
0.6672491749
 41
2.713439284317406
 42
3.143884459269022
  0
LINE
  5
2CA
330
1F
100
AcDbEntity
  8
0
  6
Continuous
 62
     8
370
    18
100
AcDbLine
 10
32.9572876455
 20
-290.0873219772
 30
0.0
 11
42.6842123405
 21
-280.3603972822
 31
0.0
  0
LINE
  5
2CB
330
1F
100
AcDbEntity
  8
0
  6
Continuous
 62
     8
370
    18
100
AcDbLine
 10
43.6609018302
 20
-281.3370867719
 30
0.0
 11
33.9339771352
 21
-291.0640114669
 31
0.0
  0
ELLIPSE
  5
2CC
330
1F
100
AcDbEntity
  8
0
  6
Continuous
 62
     8
370
    18
100
AcDbEllipse
 10
34.2921143662
 20
-289.7291847462
 30
0.0
 11
0.7691639497218716
 21
1.233042220503478
 31
0.0
210
0.0
220
0.0
230
1.0
 40
0.6672491749
 41
3.139300847910591
 42
3.569746022862224
  0
ELLIPSE
  5
2CD
330
1F
100
AcDbEntity
  8
0
  6
Continuous
 62
     8
370
    18
100
AcDbEllipse
 10
33.733032226
 20
-290.2882668864
 30
0.0
 11
0.707106781186546
 21
-0.7071067811865531
 31
0.0
210
0.0
220
0.0
230
1.0
 40
0.6617248527
 41
4.380482972624804
 42
5.044294988144557
  0
ELLIPSE
  5
2CE
330
1F
100
AcDbEntity
  8
0
  6
Continuous
 62
     8
370
    18
100
AcDbEllipse
 10
34.2921143662
 20
-289.7291847462
 30
0.0
 11
1.23304222050352
 21
0.7691639497218147
 31
0.0
210
0.0
220
0.0
230
1.0
 40
0.6672491749
 41
2.713439284317461
 42
3.143884459269059
  0
LINE
  5
2CF
330
1F
100
AcDbEntity
  8
0
  6
Continuous
 62
     8
370
    18
100
AcDbLine
 10
200.7563427363
 20
-290.0873219772
 30
0.0
 11
200.7563427363
 21
-124.2416458657
 31
0.0
  0
LINE
  5
2D0
330
1F
100
AcDbEntity
  8
0
  6
Continuous
 62
     8
370
    18
100
AcDbLine
 10
199.7796532467
 20
-123.2649563761
 30
0.0
 11
33.9339771352
 21
-123.2649563761
 31
0.0
  0
LINE
  5
2D1
330
1F
100
AcDbEntity
  8
0
  6
Continuous
 62
     8
370
    18
100
AcDbLine
 10
32.9572876455
 20
-124.2416458657
 30
0.0
 11
32.9572876455
 21
-290.0873219772
 31
0.0
  0
LINE
  5
2D2
330
1F
100
AcDbEntity
  8
0
  6
Continuous
 62
     8
370
    18
100
AcDbLine
 10
33.9339771352
 20
-291.0640114669
 30
0.0
 11
199.7796532467
 21
-291.0640114669
 31
0.0
  0
ARC
  5
2D3
330
1F
100
AcDbEntity
  8
0
  6
Continuous
 62
     8
370
    18
100
AcDbCircle
 10
199.555319434
 20
-122.3226943982
 30
0.0
 40
1.224163901364779
100
AcDbArc
 50
301.3694567356
 51
328.6305432644
  0
ELLIPSE
  5
2D4
330
1F
100
AcDbEntity
  8
0
  6
Continuous
 62
     8
370
    18
100
AcDbEllipse
 10
199.9805981559
 20
-124.0407009565
 30
0.0
 11
0.8994437845732079
 21
0.8994437845732363
 31
0.0
210
0.0
220
0.0
230
1.0
 40
0.7861600617
 41
5.951279299419678
 42
6.615091314939411
  0
ARC
  5
2D5
330
1F
100
AcDbEntity
  8
0
  6
Continuous
 62
     8
370
    18
100
AcDbCircle
 10
201.6986047142
 20
-124.4659796784
 30
0.0
 40
1.224163901363924
100
AcDbArc
 50
121.3694567356
 51
148.6305432644
  0
ELLIPSE
  5
2D6
330
1F
100
AcDbEntity
  8
0
  6
Continuous
 62
     8
370
    18
100
AcDbEllipse
 10
33.733032226
 20
-124.0407009565
 30
0.0
 11
-0.8994437845732079
 21
0.8994437845732363
 31
0.0
210
0.0
220
0.0
230
1.0
 40
0.7861600617
 41
5.951279299419732
 42
6.615091314939528
  0
ARC
  5
2D7
330
1F
100
AcDbEntity
  8
0
  6
Continuous
 62
     8
370
    18
100
AcDbCircle
 10
34.1583109478
 20
-122.3226943982
 30
0.0
 40
1.224163901364841
100
AcDbArc
 50
211.3694567356
 51
238.6305432644
  0
ARC
  5
2D8
330
1F
100
AcDbEntity
  8
0
  6
Continuous
 62
     8
370
    18
100
AcDbCircle
 10
32.0150256677
 20
-124.4659796784
 30
0.0
 40
1.224163901364804
100
AcDbArc
 50
31.3694567356
 51
58.6305432644
  0
ARC
  5
2D9
330
1F
100
AcDbEntity
  8
0
  6
Continuous
 62
     8
370
    18
100
AcDbCircle
 10
201.6986047142
 20
-289.8629881646
 30
0.0
 40
1.224163901365447
100
AcDbArc
 50
211.3694567356
 51
238.6305432644
  0
ELLIPSE
  5
2DA
330
1F
100
AcDbEntity
  8
0
  6
Continuous
 62
     8
370
    18
100
AcDbEllipse
 10
199.9805981559
 20
-290.2882668864
 30
0.0
 11
0.8994437845732364
 21
-0.8994437845732364
 31
0.0
210
0.0
220
0.0
230
1.0
 40
0.7861600617
 41
5.951279299419647
 42
6.615091314939515
  0
ARC
  5
2DB
330
1F
100
AcDbEntity
  8
0
  6
Continuous
 62
     8
370
    18
100
AcDbCircle
 10
199.555319434
 20
-292.0062734447
 30
0.0
 40
1.224163901364446
100
AcDbArc
 50
31.3694567356
 51
58.6305432644
  0
ARC
  5
2DC
330
1F
100
AcDbEntity
  8
0
  6
Continuous
 62
     8
370
    18
100
AcDbCircle
 10
34.1583109478
 20
-292.0062734447
 30
0.0
 40
1.224163901365394
100
AcDbArc
 50
121.3694567356
 51
148.6305432644
  0
ELLIPSE
  5
2DD
330
1F
100
AcDbEntity
  8
0
  6
Continuous
 62
     8
370
    18
100
AcDbEllipse
 10
33.733032226
 20
-290.2882668864
 30
0.0
 11
0.8994437845732364
 21
0.8994437845732364
 31
0.0
210
0.0
220
0.0
230
1.0
 40
0.7861600617
 41
2.809686645829917
 42
3.473498661349749
  0
ARC
  5
2DE
330
1F
100
AcDbEntity
  8
0
  6
Continuous
 62
     8
370
    18
100
AcDbCircle
 10
32.0150256677
 20
-289.8629881646
 30
0.0
 40
1.224163901365852
100
AcDbArc
 50
301.3694567356
 51
328.6305432644
  0
ELLIPSE
  5
2DF
330
1F
100
AcDbEntity
  8
0
  6
Continuous
 62
     8
370
    18
100
AcDbEllipse
 10
34.2921143662
 20
-125.0605983674
 30
0.0
 11
-1.169726563923888
 21
2.105867860019998
 31
0.0
210
0.0
220
0.0
230
1.0
 40
0.8148184285
 41
5.858171731000729
 42
6.288616905952323
  0
LINE
  5
2E0
330
1F
100
AcDbEntity
  8
0
  6
Continuous
 62
     8
370
    18
100
AcDbLine
 10
33.9339771352
 20
-122.7490821571
 30
0.0
 11
33.9339771352
 21
-123.2649563761
 31
0.0
  0
LINE
  5
2E1
330
1F
100
AcDbEntity
  8
0
  6
Continuous
 62
     8
370
    18
100
AcDbLine
 10
200.7563427363
 20
-124.2416458657
 30
0.0
 11
201.2722169553
 21
-124.2416458657
 31
0.0
  0
ELLIPSE
  5
2E2
330
1F
100
AcDbEntity
  8
0
  6
Continuous
 62
     8
370
    18
100
AcDbEllipse
 10
198.960700745
 20
-124.5997830968
 30
0.0
 11
2.105867860019998
 21
1.169726563923916
 31
0.0
210
0.0
220
0.0
230
1.0
 40
0.8148184285
 41
5.85817173100072
 42
6.288616905952288
  0
LINE
  5
2E3
330
1F
100
AcDbEntity
  8
0
  6
Continuous
 62
     8
370
    18
100
AcDbLine
 10
199.7796532467
 20
-122.7490821571
 30
0.0
 11
199.7796532467
 21
-123.2649563761
 31
0.0
  0
ELLIPSE
  5
2E4
330
1F
100
AcDbEntity
  8
0
  6
Continuous
 62
     8
370
    18
100
AcDbEllipse
 10
199.4215160156
 20
-125.0605983674
 30
0.0
 11
1.169726563923888
 21
2.105867860019984
 31
0.0
210
0.0
220
0.0
230
1.0
 40
0.8148184285
 41
6.277753708406882
 42
6.708198883358474
  0
LINE
  5
2E5
330
1F
100
AcDbEntity
  8
0
  6
Continuous
 62
     8
370
    18
100
AcDbLine
 10
32.4414134265
 20
-124.2416458657
 30
0.0
 11
32.9572876455
 21
-124.2416458657
 31
0.0
  0
ELLIPSE
  5
2E6
330
1F
100
AcDbEntity
  8
0
  6
Continuous
 62
     8
370
    18
100
AcDbEllipse
 10
34.7529296369
 20
-124.5997830968
 30
0.0
 11
2.105867860019977
 21
-1.16972656392393
 31
0.0
210
0.0
220
0.0
230
1.0
 40
0.8148184285
 41
3.136161054817112
 42
3.566606229768704
  0
ELLIPSE
  5
2E7
330
1F
100
AcDbEntity
  8
0
  6
Continuous
 62
     8
370
    18
100
AcDbEllipse
 10
199.4215160156
 20
-289.2683694755
 30
0.0
 11
-1.169726563923945
 21
2.105867860019998
 31
0.0
210
0.0
220
0.0
230
1.0
 40
0.8148184285
 41
2.7165790774109
 42
3.147024252362526
  0
LINE
  5
2E8
330
1F
100
AcDbEntity
  8
0
  6
Continuous
 62
     8
370
    18
100
AcDbLine
 10
199.7796532467
 20
-291.0640114669
 30
0.0
 11
199.7796532467
 21
-291.5798856859
 31
0.0
  0
LINE
  5
2E9
330
1F
100
AcDbEntity
  8
0
  6
Continuous
 62
     8
370
    18
100
AcDbLine
 10
200.7563427363
 20
-290.0873219772
 30
0.0
 11
201.2722169553
 21
-290.0873219772
 31
0.0
  0
ELLIPSE
  5
2EA
330
1F
100
AcDbEntity
  8
0
  6
Continuous
 62
     8
370
    18
100
AcDbEllipse
 10
198.960700745
 20
-289.7291847462
 30
0.0
 11
2.10586786001997
 21
-1.169726563923916
 31
0.0
210
0.0
220
0.0
230
1.0
 40
0.8148184285
 41
6.277753708406923
 42
6.708198883358471
  0
ELLIPSE
  5
2EB
330
1F
100
AcDbEntity
  8
0
  6
Continuous
 62
     8
370
    18
100
AcDbEllipse
 10
34.7529296369
 20
-289.7291847462
 30
0.0
 11
2.105867860019977
 21
1.169726563923916
 31
0.0
210
0.0
220
0.0
230
1.0
 40
0.8148184285
 41
2.716579077410911
 42
3.147024252362531
  0
LINE
  5
2EC
330
1F
100
AcDbEntity
  8
0
  6
Continuous
 62
     8
370
    18
100
AcDbLine
 10
32.4414134265
 20
-290.0873219772
 30
0.0
 11
32.9572876455
 21
-290.0873219772
 31
0.0
  0
LINE
  5
2ED
330
1F
100
AcDbEntity
  8
0
  6
Continuous
 62
     8
370
    18
100
AcDbLine
 10
33.9339771352
 20
-291.0640114669
 30
0.0
 11
33.9339771352
 21
-291.5798856859
 31
0.0
  0
ELLIPSE
  5
2EE
330
1F
100
AcDbEntity
  8
0
  6
Continuous
 62
     8
370
    18
100
AcDbEllipse
 10
34.2921143662
 20
-289.2683694755
 30
0.0
 11
1.169726563923916
 21
2.105867860019998
 31
0.0
210
0.0
220
0.0
230
1.0
 40
0.8148184285
 41
3.136161054817094
 42
3.5666062297687
  0
LINE
  5
2EF
330
1F
100
AcDbEntity
  8
0
  6
Continuous
 62
     8
370
    18
100
AcDbLine
 10
32.4414134265
 20
-290.0873219772
 30
0.0
 11
32.4414134265
 21
-124.2416458657
 31
0.0
  0
LINE
  5
2F0
330
1F
100
AcDbEntity
  8
0
  6
Continuous
 62
     8
370
    18
100
AcDbLine
 10
201.2722169553
 20
-124.2416458657
 30
0.0
 11
201.2722169553
 21
-290.0873219772
 31
0.0
  0
LINE
  5
2F1
330
1F
100
AcDbEntity
  8
0
  6
Continuous
 62
     8
370
    18
100
AcDbLine
 10
33.9339771352
 20
-122.7490821571
 30
0.0
 11
199.7796532467
 21
-122.7490821571
 31
0.0
  0
LINE
  5
2F2
330
1F
100
AcDbEntity
  8
0
  6
Continuous
 62
     8
370
    18
100
AcDbLine
 10
199.7796532467
 20
-291.5798856859
 30
0.0
 11
33.9339771352
 21
-291.5798856859
 31
0.0
  0
LINE
  5
2F3
330
1F
100
AcDbEntity
  8
0
  6
Continuous
 62
     8
370
    18
100
AcDbLine
 10
7.8568151909
 20
-97.7036686508
 30
0.0
 11
33.1130850229
 21
-122.9599384828
 31
0.0
  0
LINE
  5
2F4
330
1F
100
AcDbEntity
  8
0
  6
Continuous
 62
     8
370
    18
100
AcDbLine
 10
32.6522697522
 20
-123.4207537534
 30
0.0
 11
7.3959999203
 21
-98.1644839215
 31
0.0
  0
ARC
  5
2F5
330
1F
100
AcDbEntity
  8
0
  6
Continuous
 62
     8
370
    18
100
AcDbCircle
 10
9.6071229381
 20
-99.9147916687
 30
0.0
 40
2.820042944738863
100
AcDbArc
 50
128.3648626838
 51
141.6351373162
  0
LINE
  5
2F6
330
1F
100
AcDbEntity
  8
0
  6
Continuous
 62
     8
370
    18
100
AcDbLine
 10
226.3176304616
 20
-98.1644839215
 30
0.0
 11
201.0613606296
 21
-123.4207537534
 31
0.0
  0
LINE
  5
2F7
330
1F
100
AcDbEntity
  8
0
  6
Continuous
 62
     8
370
    18
100
AcDbLine
 10
200.600545359
 20
-122.9599384828
 30
0.0
 11
225.8568151909
 21
-97.7036686508
 31
0.0
  0
ARC
  5
2F8
330
1F
100
AcDbEntity
  8
0
  6
Continuous
 62
     8
370
    18
100
AcDbCircle
 10
224.1065074437
 20
-99.9147916687
 30
0.0
 40
2.820042944737615
100
AcDbArc
 50
38.3648626838
 51
51.6351373162
  0
LINE
  5
2F9
330
1F
100
AcDbEntity
  8
0
  6
Continuous
 62
     8
370
    18
100
AcDbLine
 10
225.8568151909
 20
-316.6252991921
 30
0.0
 11
200.600545359
 21
-291.3690293602
 31
0.0
  0
LINE
  5
2FA
330
1F
100
AcDbEntity
  8
0
  6
Continuous
 62
     8
370
    18
100
AcDbLine
 10
201.0613606296
 20
-290.9082140895
 30
0.0
 11
226.3176304616
 21
-316.1644839215
 31
0.0
  0
ARC
  5
2FB
330
1F
100
AcDbEntity
  8
0
  6
Continuous
 62
     8
370
    18
100
AcDbCircle
 10
224.1065074437
 20
-314.4141761743
 30
0.0
 40
2.820042944741229
100
AcDbArc
 50
308.3648626838
 51
321.6351373162
  0
LINE
  5
2FC
330
1F
100
AcDbEntity
  8
0
  6
Continuous
 62
     8
370
    18
100
AcDbLine
 10
33.1130850229
 20
-291.3690293602
 30
0.0
 11
7.8568151909
 21
-316.6252991921
 31
0.0
  0
ARC
  5
2FD
330
1F
100
AcDbEntity
  8
0
  6
Continuous
 62
     8
370
    18
100
AcDbCircle
 10
9.6071229381
 20
-314.4141761743
 30
0.0
 40
2.820042944740571
100
AcDbArc
 50
218.3648626838
 51
231.6351373162
  0
LINE
  5
2FE
330
1F
100
AcDbEntity
  8
0
  6
Continuous
 62
     8
370
    18
100
AcDbLine
 10
7.3959999203
 20
-316.1644839215
 30
0.0
 11
32.6522697522
 21
-290.9082140895
 31
0.0
  0
LINE
  5
2FF
330
1F
100
AcDbEntity
  8
0
  6
Continuous
 62
     8
370
    18
100
AcDbLine
 10
226.3176304616
 20
-316.1644839215
 30
0.0
 11
226.3176304616
 21
-98.1644839215
 31
0.0
  0
LINE
  5
300
330
1F
100
AcDbEntity
  8
0
  6
Continuous
 62
     8
370
    18
100
AcDbLine
 10
225.8568151909
 20
-97.7036686508
 30
0.0
 11
7.8568151909
 21
-97.7036686508
 31
0.0
  0
LINE
  5
301
330
1F
100
AcDbEntity
  8
0
  6
Continuous
 62
     8
370
    18
100
AcDbLine
 10
7.3959999203
 20
-98.1644839215
 30
0.0
 11
7.3959999203
 21
-316.1644839215
 31
0.0
  0
LINE
  5
302
330
1F
100
AcDbEntity
  8
0
  6
Continuous
 62
     8
370
    18
100
AcDbLine
 10
7.8568151909
 20
-316.6252991921
 30
0.0
 11
225.8568151909
 21
-316.6252991921
 31
0.0
  0
LINE
  5
303
330
1F
100
AcDbEntity
  8
0
  6
Continuous
 62
     8
370
    18
100
AcDbLine
 10
7.8568151909
 20
-97.1644839215
 30
0.0
 11
7.8568151909
 21
-97.7036686508
 31
0.0
  0
LINE
  5
304
330
1F
100
AcDbEntity
  8
0
  6
Continuous
 62
     8
370
    18
100
AcDbLine
 10
6.8568151909
 20
-98.1644839215
 30
0.0
 11
7.3959999203
 21
-98.1644839215
 31
0.0
  0
LINE
  5
305
330
1F
100
AcDbEntity
  8
0
  6
Continuous
 62
     8
370
    18
100
AcDbLine
 10
226.3176304616
 20
-98.1644839215
 30
0.0
 11
226.8568151909
 21
-98.1644839215
 31
0.0
  0
LINE
  5
306
330
1F
100
AcDbEntity
  8
0
  6
Continuous
 62
     8
370
    18
100
AcDbLine
 10
225.8568151909
 20
-97.1644839215
 30
0.0
 11
225.8568151909
 21
-97.7036686508
 31
0.0
  0
LINE
  5
307
330
1F
100
AcDbEntity
  8
0
  6
Continuous
 62
     8
370
    18
100
AcDbLine
 10
6.8568151909
 20
-316.1644839215
 30
0.0
 11
7.3959999203
 21
-316.1644839215
 31
0.0
  0
LINE
  5
308
330
1F
100
AcDbEntity
  8
0
  6
Continuous
 62
     8
370
    18
100
AcDbLine
 10
7.8568151909
 20
-316.6252991921
 30
0.0
 11
7.8568151909
 21
-317.1644839215
 31
0.0
  0
LINE
  5
309
330
1F
100
AcDbEntity
  8
0
  6
Continuous
 62
     8
370
    18
100
AcDbLine
 10
225.8568151909
 20
-316.6252991921
 30
0.0
 11
225.8568151909
 21
-317.1644839215
 31
0.0
  0
LINE
  5
30A
330
1F
100
AcDbEntity
  8
0
  6
Continuous
 62
     8
370
    18
100
AcDbLine
 10
226.3176304616
 20
-316.1644839215
 30
0.0
 11
226.8568151909
 21
-316.1644839215
 31
0.0
  0
ENDSEC
  0
SECTION
  2
OBJECTS
  0
DICTIONARY
  5
C
330
0
100
AcDbDictionary
281
     1
  3
ACAD_DETAILVIEWSTYLE
350
312
  3
ACAD_GROUP
350
D
  3
ACAD_LAYOUT
350
1A
  3
ACAD_MATERIAL
350
43
  3
ACAD_MLEADERSTYLE
350
6B
  3
ACAD_MLINESTYLE
350
17
  3
ACAD_PLOTSETTINGS
350
19
  3
ACAD_PLOTSTYLENAME
350
E
  3
ACAD_SCALELIST
350
47
  3
ACAD_SECTIONVIEWSTYLE
350
313
  3
ACAD_TABLESTYLE
350
69
  3
ACAD_VISUALSTYLE
350
2A
  3
ACDB_RECOMPOSE_DATA
350
30F
  3
AcDbVariableDictionary
350
30B
  0
SUN
  5
6D
330
29
100
AcDbSun
 90
        1
290
     0
 63
     7
421
 16777215
 40
1.0
291
     1
 91
  2455826
 92
 54000000
292
     0
 70
     2
 71
   256
280
     1
  0
DICTIONARY
  5
312
102
{ACAD_REACTORS
330
C
102
}
330
C
100
AcDbDictionary
281
     1
  0
DICTIONARY
  5
D
102
{ACAD_REACTORS
330
C
102
}
330
C
100
AcDbDictionary
281
     1
  0
DICTIONARY
  5
1A
102
{ACAD_REACTORS
330
C
102
}
330
C
100
AcDbDictionary
281
     1
  3
Layout1
350
1E
  3
Layout2
350
26
  3
Model
350
22
  0
DICTIONARY
  5
43
102
{ACAD_REACTORS
330
C
102
}
330
C
100
AcDbDictionary
281
     1
  3
ByBlock
350
45
  3
ByLayer
350
44
  3
Global
350
46
  0
DICTIONARY
  5
6B
102
{ACAD_REACTORS
330
C
102
}
330
C
100
AcDbDictionary
281
     1
  3
Standard
350
6C
  0
DICTIONARY
  5
17
102
{ACAD_REACTORS
330
C
102
}
330
C
100
AcDbDictionary
281
     1
  3
Standard
350
18
  0
DICTIONARY
  5
19
102
{ACAD_REACTORS
330
C
102
}
330
C
100
AcDbDictionary
281
     1
  0
ACDBDICTIONARYWDFLT
  5
E
102
{ACAD_REACTORS
330
C
102
}
330
C
100
AcDbDictionary
281
     1
  3
Normal
350
F
100
AcDbDictionaryWithDefault
340
F
  0
DICTIONARY
  5
47
102
{ACAD_REACTORS
330
C
102
}
330
C
100
AcDbDictionary
281
     1
  3
A0
350
48
  3
A1
350
49
  3
A2
350
4A
  3
A3
350
4B
  3
A4
350
4C
  3
A5
350
4D
  3
A6
350
4E
  3
A7
350
4F
  3
A8
350
50
  3
A9
350
51
  3
B0
350
52
  3
B1
350
53
  3
B2
350
54
  3
B3
350
55
  3
B4
350
56
  3
B5
350
57
  3
B6
350
58
  3
B7
350
59
  3
B8
350
5A
  3
B9
350
5B
  3
C0
350
5C
  3
C1
350
5D
  3
C2
350
5E
  3
C3
350
5F
  3
C4
350
60
  3
C5
350
61
  3
C6
350
62
  3
C7
350
63
  3
C8
350
64
  3
C9
350
65
  3
D0
350
66
  3
D1
350
67
  3
D2
350
68
  0
DICTIONARY
  5
313
102
{ACAD_REACTORS
330
C
102
}
330
C
100
AcDbDictionary
281
     1
  0
DICTIONARY
  5
69
102
{ACAD_REACTORS
330
C
102
}
330
C
100
AcDbDictionary
281
     1
  3
Standard
350
6A
  0
DICTIONARY
  5
2A
102
{ACAD_REACTORS
330
C
102
}
330
C
100
AcDbDictionary
281
     1
  3
2dWireframe
350
2F
  3
Basic
350
32
  3
Brighten
350
36
  3
ColorChange
350
3A
  3
Conceptual
350
34
  3
Dim
350
35
  3
EdgeColorOff
350
3D
  3
Facepattern
350
39
  3
Flat
350
2B
  3
FlatWithEdges
350
2C
  3
Gouraud
350
2D
  3
GouraudWithEdges
350
2E
  3
Hidden
350
31
  3
JitterOff
350
3B
  3
Linepattern
350
38
  3
OverhangOff
350
3C
  3
Realistic
350
33
  3
Shaded
350
42
  3
Shaded with edges
350
41
  3
Shades of Gray
350
3E
  3
Sketchy
350
3F
  3
Thicken
350
37
  3
Wireframe
350
30
  3
X-Ray
350
40
  0
XRECORD
  5
30F
102
{ACAD_REACTORS
330
C
102
}
330
C
100
AcDbXrecord
280
     1
 90
        1
330
6A
  0
DICTIONARY
  5
30B
102
{ACAD_REACTORS
330
C
102
}
330
C
100
AcDbDictionary
281
     1
  3
CANNOSCALE
350
30C
  3
CENTEREXE
350
314
  3
CENTERLTYPEFILE
350
315
  3
CMLEADERSTYLE
350
311
  3
CTABLESTYLE
350
310
  0
LAYOUT
  5
1E
102
{ACAD_REACTORS
330
1A
102
}
330
1A
100
AcDbPlotSettings
  1

  2
none_device
  4

  6

 40
0.0
 41
0.0
 42
0.0
 43
0.0
 44
0.0
 45
0.0
 46
0.0
 47
0.0
 48
0.0
 49
0.0
140
0.0
141
0.0
142
1.0
143
1.0
 70
   688
 72
     1
 73
     0
 74
     5
  7

 75
    16
 76
     0
 77
     2
 78
   300
147
1.0
148
0.0
149
0.0
100
AcDbLayout
  1
Layout1
 70
     1
 71
     1
 10
0.0
 20
0.0
 11
420.0
 21
297.0
 12
0.0
 22
0.0
 32
0.0
 14
1.0000000000E+20
 24
1.0000000000E+20
 34
1.0000000000E+20
 15
-1.0000000000E+20
 25
-1.0000000000E+20
 35
-1.0000000000E+20
146
0.0
 13
0.0
 23
0.0
 33
0.0
 16
1.0
 26
0.0
 36
0.0
 17
0.0
 27
1.0
 37
0.0
 76
     0
330
1B
  0
LAYOUT
  5
26
102
{ACAD_REACTORS
330
1A
102
}
330
1A
100
AcDbPlotSettings
  1

  2
none_device
  4

  6

 40
0.0
 41
0.0
 42
0.0
 43
0.0
 44
0.0
 45
0.0
 46
0.0
 47
0.0
 48
0.0
 49
0.0
140
0.0
141
0.0
142
1.0
143
1.0
 70
   688
 72
     1
 73
     0
 74
     5
  7

 75
    16
 76
     0
 77
     2
 78
   300
147
1.0
148
0.0
149
0.0
100
AcDbLayout
  1
Layout2
 70
     1
 71
     2
 10
0.0
 20
0.0
 11
0.0
 21
0.0
 12
0.0
 22
0.0
 32
0.0
 14
0.0
 24
0.0
 34
0.0
 15
0.0
 25
0.0
 35
0.0
146
0.0
 13
0.0
 23
0.0
 33
0.0
 16
1.0
 26
0.0
 36
0.0
 17
0.0
 27
1.0
 37
0.0
 76
     0
330
23
  0
LAYOUT
  5
22
102
{ACAD_REACTORS
330
1A
102
}
330
1A
100
AcDbPlotSettings
  1

  2
none_device
  4
Letter_(8.50_x_11.00_Inches)
  6

 40
6.35
 41
6.35
 42
6.35000508
 43
6.35000508
 44
215.9
 45
279.4
 46
0.0
 47
0.0
 48
0.0
 49
0.0
140
0.0
141
0.0
142
1.0
143
1.0
 70
  1712
 72
     1
 73
     0
 74
     0
  7

 75
     0
 76
     0
 77
     2
 78
   300
147
1.0
148
0.0
149
0.0
100
AcDbLayout
  1
Model
 70
     1
 71
     0
 10
0.0
 20
0.0
 11
210.0
 21
297.0
 12
0.0
 22
0.0
 32
0.0
 14
0.0
 24
0.0
 34
0.0
 15
210.0
 25
297.0
 35
0.0
146
0.0
 13
0.0
 23
0.0
 33
0.0
 16
1.0
 26
0.0
 36
0.0
 17
0.0
 27
1.0
 37
0.0
 76
     0
330
1F
331
29
  0
MATERIAL
  5
45
102
{ACAD_REACTORS
330
43
102
}
330
43
100
AcDbMaterial
  1
ByBlock
 72
     1
 94
      127
  0
MATERIAL
  5
44
102
{ACAD_REACTORS
330
43
102
}
330
43
100
AcDbMaterial
  1
ByLayer
 72
     1
 94
      127
  0
MATERIAL
  5
46
102
{ACAD_REACTORS
330
43
102
}
330
43
100
AcDbMaterial
  1
Global
 72
     1
 94
      127
  0
MLEADERSTYLE
  5
6C
102
{ACAD_REACTORS
330
6B
102
}
330
6B
100
AcDbMLeaderStyle
179
     2
170
     2
171
     1
172
     0
 90
        2
 40
0.0
 41
0.0
173
     1
 91
-1056964608
340
14
 92
       -2
290
     1
 42
2.0
291
     1
 43
8.0
  3
Standard
341
0
 44
4.0
300

342
11
174
     1
178
     6
175
     1
176
     0
 93
-1056964608
 45
4.0
292
     0
297
     0
 46
4.0
343
0
 94
-1056964608
 47
1.0
 49
1.0
140
1.0
293
     1
141
0.0
294
     1
177
     0
142
1.0
295
     0
296
     0
143
3.75
271
     0
272
     9
273
     9
  0
MLINESTYLE
  5
18
102
{ACAD_REACTORS
330
17
102
}
330
17
100
AcDbMlineStyle
  2
Standard
 70
     0
  3

 62
   256
 51
90.0
 52
90.0
 71
     2
 49
0.5
 62
   256
  6
BYLAYER
 49
-0.5
 62
   256
  6
BYLAYER
  0
ACDBPLACEHOLDER
  5
F
102
{ACAD_REACTORS
330
E
102
}
330
E
  0
SCALE
  5
48
102
{ACAD_REACTORS
330
47
102
}
330
47
100
AcDbScale
 70
     0
300
1:1
140
1.0
141
1.0
290
     1
  0
SCALE
  5
49
102
{ACAD_REACTORS
330
47
102
}
330
47
100
AcDbScale
 70
     0
300
1:2
140
1.0
141
2.0
290
     0
  0
SCALE
  5
4A
102
{ACAD_REACTORS
330
47
102
}
330
47
100
AcDbScale
 70
     0
300
1:4
140
1.0
141
4.0
290
     0
  0
SCALE
  5
4B
102
{ACAD_REACTORS
330
47
102
}
330
47
100
AcDbScale
 70
     0
300
1:5
140
1.0
141
5.0
290
     0
  0
SCALE
  5
4C
102
{ACAD_REACTORS
330
47
102
}
330
47
100
AcDbScale
 70
     0
300
1:8
140
1.0
141
8.0
290
     0
  0
SCALE
  5
4D
102
{ACAD_REACTORS
330
47
102
}
330
47
100
AcDbScale
 70
     0
300
1:10
140
1.0
141
10.0
290
     0
  0
SCALE
  5
4E
102
{ACAD_REACTORS
330
47
102
}
330
47
100
AcDbScale
 70
     0
300
1:16
140
1.0
141
16.0
290
     0
  0
SCALE
  5
4F
102
{ACAD_REACTORS
330
47
102
}
330
47
100
AcDbScale
 70
     0
300
1:20
140
1.0
141
20.0
290
     0
  0
SCALE
  5
50
102
{ACAD_REACTORS
330
47
102
}
330
47
100
AcDbScale
 70
     0
300
1:30
140
1.0
141
30.0
290
     0
  0
SCALE
  5
51
102
{ACAD_REACTORS
330
47
102
}
330
47
100
AcDbScale
 70
     0
300
1:40
140
1.0
141
40.0
290
     0
  0
SCALE
  5
52
102
{ACAD_REACTORS
330
47
102
}
330
47
100
AcDbScale
 70
     0
300
1:50
140
1.0
141
50.0
290
     0
  0
SCALE
  5
53
102
{ACAD_REACTORS
330
47
102
}
330
47
100
AcDbScale
 70
     0
300
1:100
140
1.0
141
100.0
290
     0
  0
SCALE
  5
54
102
{ACAD_REACTORS
330
47
102
}
330
47
100
AcDbScale
 70
     0
300
2:1
140
2.0
141
1.0
290
     0
  0
SCALE
  5
55
102
{ACAD_REACTORS
330
47
102
}
330
47
100
AcDbScale
 70
     0
300
4:1
140
4.0
141
1.0
290
     0
  0
SCALE
  5
56
102
{ACAD_REACTORS
330
47
102
}
330
47
100
AcDbScale
 70
     0
300
8:1
140
8.0
141
1.0
290
     0
  0
SCALE
  5
57
102
{ACAD_REACTORS
330
47
102
}
330
47
100
AcDbScale
 70
     0
300
10:1
140
10.0
141
1.0
290
     0
  0
SCALE
  5
58
102
{ACAD_REACTORS
330
47
102
}
330
47
100
AcDbScale
 70
     0
300
100:1
140
100.0
141
1.0
290
     0
  0
SCALE
  5
59
102
{ACAD_REACTORS
330
47
102
}
330
47
100
AcDbScale
 70
     0
300
1/128" = 1'-0"
140
0.0078125
141
12.0
290
     0
  0
SCALE
  5
5A
102
{ACAD_REACTORS
330
47
102
}
330
47
100
AcDbScale
 70
     0
300
1/64" = 1'-0"
140
0.015625
141
12.0
290
     0
  0
SCALE
  5
5B
102
{ACAD_REACTORS
330
47
102
}
330
47
100
AcDbScale
 70
     0
300
1/32" = 1'-0"
140
0.03125
141
12.0
290
     0
  0
SCALE
  5
5C
102
{ACAD_REACTORS
330
47
102
}
330
47
100
AcDbScale
 70
     0
300
1/16" = 1'-0"
140
0.0625
141
12.0
290
     0
  0
SCALE
  5
5D
102
{ACAD_REACTORS
330
47
102
}
330
47
100
AcDbScale
 70
     0
300
3/32" = 1'-0"
140
0.09375
141
12.0
290
     0
  0
SCALE
  5
5E
102
{ACAD_REACTORS
330
47
102
}
330
47
100
AcDbScale
 70
     0
300
1/8" = 1'-0"
140
0.125
141
12.0
290
     0
  0
SCALE
  5
5F
102
{ACAD_REACTORS
330
47
102
}
330
47
100
AcDbScale
 70
     0
300
3/16" = 1'-0"
140
0.1875
141
12.0
290
     0
  0
SCALE
  5
60
102
{ACAD_REACTORS
330
47
102
}
330
47
100
AcDbScale
 70
     0
300
1/4" = 1'-0"
140
0.25
141
12.0
290
     0
  0
SCALE
  5
61
102
{ACAD_REACTORS
330
47
102
}
330
47
100
AcDbScale
 70
     0
300
3/8" = 1'-0"
140
0.375
141
12.0
290
     0
  0
SCALE
  5
62
102
{ACAD_REACTORS
330
47
102
}
330
47
100
AcDbScale
 70
     0
300
1/2" = 1'-0"
140
0.5
141
12.0
290
     0
  0
SCALE
  5
63
102
{ACAD_REACTORS
330
47
102
}
330
47
100
AcDbScale
 70
     0
300
3/4" = 1'-0"
140
0.75
141
12.0
290
     0
  0
SCALE
  5
64
102
{ACAD_REACTORS
330
47
102
}
330
47
100
AcDbScale
 70
     0
300
1" = 1'-0"
140
1.0
141
12.0
290
     0
  0
SCALE
  5
65
102
{ACAD_REACTORS
330
47
102
}
330
47
100
AcDbScale
 70
     0
300
1-1/2" = 1'-0"
140
1.5
141
12.0
290
     0
  0
SCALE
  5
66
102
{ACAD_REACTORS
330
47
102
}
330
47
100
AcDbScale
 70
     0
300
3" = 1'-0"
140
3.0
141
12.0
290
     0
  0
SCALE
  5
67
102
{ACAD_REACTORS
330
47
102
}
330
47
100
AcDbScale
 70
     0
300
6" = 1'-0"
140
6.0
141
12.0
290
     0
  0
SCALE
  5
68
102
{ACAD_REACTORS
330
47
102
}
330
47
100
AcDbScale
 70
     0
300
1'-0" = 1'-0"
140
12.0
141
12.0
290
     0
  0
TABLESTYLE
  5
6A
102
{ACAD_REACTORS
330
69
102
}
102
{ACAD_XDICTIONARY
360
30D
102
}
330
69
100
AcDbTableStyle
  3
Standard
 70
     0
 71
     0
 40
0.06
 41
0.06
280
     0
281
     0
  7
Standard
140
4.5
170
     2
 62
     0
 63
   257
283
     0
 90
        4
 91
        0
  1

274
    -2
284
     1
 64
     0
275
    -2
285
     1
 65
     0
276
    -2
286
     1
 66
     0
277
    -2
287
     1
 67
     0
278
    -2
288
     1
 68
     0
279
    -2
289
     1
 69
     0
  7
Standard
140
6.0
170
     5
 62
     0
 63
   257
283
     0
 90
        4
 91
        0
  1

274
    -2
284
     1
 64
     0
275
    -2
285
     1
 65
     0
276
    -2
286
     1
 66
     0
277
    -2
287
     1
 67
     0
278
    -2
288
     1
 68
     0
279
    -2
289
     1
 69
     0
  7
Standard
140
4.5
170
     5
 62
     0
 63
   257
283
     0
 90
        4
 91
        0
  1

274
    -2
284
     1
 64
     0
275
    -2
285
     1
 65
     0
276
    -2
286
     1
 66
     0
277
    -2
287
     1
 67
     0
278
    -2
288
     1
 68
     0
279
    -2
289
     1
 69
     0
  0
VISUALSTYLE
  5
2F
102
{ACAD_REACTORS
330
2A
102
}
330
2A
100
AcDbVisualStyle
  2
2dWireframe
 70
     4
177
     2
291
     0
 71
     0
176
     1
 72
     2
176
     1
 73
     0
176
     1
 90
        0
176
     1
 40
0.6
176
     1
 41
30.0
176
     1
 62
     5
 63
     7
421
 16777215
176
     1
 74
     1
176
     1
 91
        4
176
     1
 64
     7
176
     1
 65
   257
176
     1
 75
     1
176
     1
175
     1
176
     1
 42
1.0
176
     1
 92
        0
176
     1
 66
   257
176
     1
 43
1.0
176
     1
 76
     1
176
     1
 77
     6
176
     1
 78
     2
176
     1
 67
     7
176
     1
 79
     5
176
     1
170
     0
176
     1
171
     0
176
     1
290
     0
176
     1
 93
        1
176
     1
 44
0.0
176
     1
173
     0
176
     1
  0
VISUALSTYLE
  5
32
102
{ACAD_REACTORS
330
2A
102
}
330
2A
100
AcDbVisualStyle
  2
Basic
 70
     7
177
     2
291
     1
 71
     1
176
     1
 72
     0
176
     1
 73
     1
176
     1
 90
        0
176
     1
 40
0.6
176
     1
 41
30.0
176
     1
 62
     5
 63
     7
421
 16777215
176
     1
 74
     0
176
     1
 91
        4
176
     1
 64
     7
176
     1
 65
   257
176
     1
 75
     1
176
     1
175
     1
176
     1
 42
1.0
176
     1
 92
        8
176
     1
 66
     7
176
     1
 43
1.0
176
     1
 76
     1
176
     1
 77
     6
176
     1
 78
     2
176
     1
 67
     7
176
     1
 79
     5
176
     1
170
     0
176
     1
171
     0
176
     1
290
     0
176
     1
 93
        1
176
     1
 44
0.0
176
     1
173
     0
176
     1
  0
VISUALSTYLE
  5
36
102
{ACAD_REACTORS
330
2A
102
}
330
2A
100
AcDbVisualStyle
  2
Brighten
 70
    12
177
     2
291
     1
 71
     2
176
     1
 72
     2
176
     1
 73
     0
176
     1
 90
        0
176
     1
 40
0.6
176
     1
 41
30.0
176
     1
 62
     5
 63
     7
421
 16777215
176
     1
 74
     1
176
     1
 91
        4
176
     1
 64
     7
176
     1
 65
   257
176
     1
 75
     1
176
     1
175
     1
176
     1
 42
1.0
176
     1
 92
        8
176
     1
 66
     7
176
     1
 43
1.0
176
     1
 76
     1
176
     1
 77
     6
176
     1
 78
     2
176
     1
 67
     7
176
     1
 79
     5
176
     1
170
     0
176
     1
171
     0
176
     1
290
     0
176
     1
 93
        1
176
     1
 44
50.0
176
     1
173
     0
176
     1
  0
VISUALSTYLE
  5
3A
102
{ACAD_REACTORS
330
2A
102
}
330
2A
100
AcDbVisualStyle
  2
ColorChange
 70
    16
177
     2
291
     1
 71
     2
176
     1
 72
     2
176
     1
 73
     3
176
     1
 90
        0
176
     1
 40
0.6
176
     1
 41
30.0
176
     1
 62
     5
 63
     8
421
  8421504
176
     1
 74
     1
176
     1
 91
        4
176
     1
 64
     7
176
     1
 65
   257
176
     1
 75
     1
176
     1
175
     1
176
     1
 42
1.0
176
     1
 92
        8
176
     1
 66
     8
424
  8421504
176
     1
 43
1.0
176
     1
 76
     1
176
     1
 77
     6
176
     1
 78
     2
176
     1
 67
     7
176
     1
 79
     5
176
     1
170
     0
176
     1
171
     0
176
     1
290
     0
176
     1
 93
        1
176
     1
 44
0.0
176
     1
173
     0
176
     1
  0
VISUALSTYLE
  5
34
102
{ACAD_REACTORS
330
2A
102
}
330
2A
100
AcDbVisualStyle
  2
Conceptual
 70
     9
177
     2
291
     0
 71
     3
176
     1
 72
     2
176
     1
 73
     0
176
     1
 90
        0
176
     1
 40
0.6
176
     1
 41
30.0
176
     1
 62
     5
 63
     7
421
 16777215
176
     1
 74
     2
176
     1
 91
        2
176
     1
 64
     7
176
     1
 65
   257
176
     1
 75
     1
176
     1
175
     1
176
     1
 42
179.0
176
     1
 92
        8
176
     1
 66
     7
176
     1
 43
1.0
176
     1
 76
     1
176
     1
 77
     6
176
     1
 78
     2
176
     1
 67
     7
176
     1
 79
     3
176
     1
170
     0
176
     1
171
     0
176
     1
290
     0
176
     1
 93
        1
176
     1
 44
0.0
176
     1
173
     0
176
     1
  0
VISUALSTYLE
  5
35
102
{ACAD_REACTORS
330
2A
102
}
330
2A
100
AcDbVisualStyle
  2
Dim
 70
    11
177
     2
291
     1
 71
     2
176
     1
 72
     2
176
     1
 73
     0
176
     1
 90
        0
176
     1
 40
0.6
176
     1
 41
30.0
176
     1
 62
     5
 63
     7
421
 16777215
176
     1
 74
     1
176
     1
 91
        4
176
     1
 64
     7
176
     1
 65
   257
176
     1
 75
     1
176
     1
175
     1
176
     1
 42
1.0
176
     1
 92
        8
176
     1
 66
     7
176
     1
 43
1.0
176
     1
 76
     1
176
     1
 77
     6
176
     1
 78
     2
176
     1
 67
     7
176
     1
 79
     5
176
     1
170
     0
176
     1
171
     0
176
     1
290
     0
176
     1
 93
        1
176
     1
 44
-50.0
176
     1
173
     0
176
     1
  0
VISUALSTYLE
  5
3D
102
{ACAD_REACTORS
330
2A
102
}
330
2A
100
AcDbVisualStyle
  2
EdgeColorOff
 70
    22
177
     2
291
     1
 71
     2
176
     0
 72
     2
176
     0
 73
     0
176
     0
 90
        0
176
     0
 40
0.6
176
     0
 41
30.0
176
     0
 62
     5
 63
     7
421
 16777215
176
     0
 74
     1
176
     0
 91
        4
176
     0
 64
     7
176
     0
 65
   257
176
     0
 75
     1
176
     0
175
     1
176
     0
 42
1.0
176
     0
 92
        8
176
     2
 66
     7
176
     0
 43
1.0
176
     0
 76
     1
176
     0
 77
     6
176
     0
 78
     2
176
     0
 67
     7
176
     0
 79
     5
176
     0
170
     0
176
     0
171
     0
176
     0
290
     0
176
     0
 93
        1
176
     0
 44
0.0
176
     0
173
     0
176
     0
  0
VISUALSTYLE
  5
39
102
{ACAD_REACTORS
330
2A
102
}
330
2A
100
AcDbVisualStyle
  2
Facepattern
 70
    15
177
     2
291
     1
 71
     2
176
     1
 72
     2
176
     1
 73
     0
176
     1
 90
        0
176
     1
 40
0.6
176
     1
 41
30.0
176
     1
 62
     5
 63
     7
421
 16777215
176
     1
 74
     1
176
     1
 91
        4
176
     1
 64
     7
176
     1
 65
   257
176
     1
 75
     1
176
     1
175
     1
176
     1
 42
1.0
176
     1
 92
        8
176
     1
 66
     7
176
     1
 43
1.0
176
     1
 76
     1
176
     1
 77
     6
176
     1
 78
     2
176
     1
 67
     7
176
     1
 79
     5
176
     1
170
     0
176
     1
171
     0
176
     1
290
     0
176
     1
 93
        1
176
     1
 44
0.0
176
     1
173
     0
176
     1
  0
VISUALSTYLE
  5
2B
102
{ACAD_REACTORS
330
2A
102
}
330
2A
100
AcDbVisualStyle
  2
Flat
 70
     0
177
     2
291
     1
 71
     2
176
     1
 72
     1
176
     1
 73
     1
176
     1
 90
        2
176
     1
 40
0.6
176
     1
 41
30.0
176
     1
 62
     5
 63
     7
421
 16777215
176
     1
 74
     0
176
     1
 91
        0
176
     1
 64
     7
176
     1
 65
   257
176
     1
 75
     1
176
     1
175
     1
176
     1
 42
1.0
176
     1
 92
        8
176
     1
 66
     7
176
     1
 43
1.0
176
     1
 76
     1
176
     1
 77
     6
176
     1
 78
     2
176
     1
 67
     7
176
     1
 79
     5
176
     1
170
     0
176
     1
171
     0
176
     1
290
     0
176
     1
 93
       13
176
     1
 44
0.0
176
     1
173
     0
176
     1
  0
VISUALSTYLE
  5
2C
102
{ACAD_REACTORS
330
2A
102
}
330
2A
100
AcDbVisualStyle
  2
FlatWithEdges
 70
     1
177
     2
291
     1
 71
     2
176
     1
 72
     1
176
     1
 73
     1
176
     1
 90
        2
176
     1
 40
0.6
176
     1
 41
30.0
176
     1
 62
     5
 63
     7
421
 16777215
176
     1
 74
     1
176
     1
 91
        0
176
     1
 64
     7
176
     1
 65
   257
176
     1
 75
     1
176
     1
175
     1
176
     1
 42
1.0
176
     1
 92
        0
176
     1
 66
   257
176
     1
 43
1.0
176
     1
 76
     1
176
     1
 77
     6
176
     1
 78
     2
176
     1
 67
     7
176
     1
 79
     5
176
     1
170
     0
176
     1
171
     0
176
     1
290
     0
176
     1
 93
       13
176
     1
 44
0.0
176
     1
173
     0
176
     1
  0
VISUALSTYLE
  5
2D
102
{ACAD_REACTORS
330
2A
102
}
330
2A
100
AcDbVisualStyle
  2
Gouraud
 70
     2
177
     2
291
     1
 71
     2
176
     1
 72
     2
176
     1
 73
     1
176
     1
 90
        2
176
     1
 40
0.6
176
     1
 41
30.0
176
     1
 62
     5
 63
     7
421
 16777215
176
     1
 74
     0
176
     1
 91
        0
176
     1
 64
     7
176
     1
 65
   257
176
     1
 75
     1
176
     1
175
     1
176
     1
 42
1.0
176
     1
 92
        0
176
     1
 66
     7
176
     1
 43
1.0
176
     1
 76
     1
176
     1
 77
     6
176
     1
 78
     2
176
     1
 67
     7
176
     1
 79
     5
176
     1
170
     0
176
     1
171
     0
176
     1
290
     0
176
     1
 93
       13
176
     1
 44
0.0
176
     1
173
     0
176
     1
  0
VISUALSTYLE
  5
2E
102
{ACAD_REACTORS
330
2A
102
}
330
2A
100
AcDbVisualStyle
  2
GouraudWithEdges
 70
     3
177
     2
291
     1
 71
     2
176
     1
 72
     2
176
     1
 73
     1
176
     1
 90
        2
176
     1
 40
0.6
176
     1
 41
30.0
176
     1
 62
     5
 63
     7
421
 16777215
176
     1
 74
     1
176
     1
 91
        0
176
     1
 64
     7
176
     1
 65
   257
176
     1
 75
     1
176
     1
175
     1
176
     1
 42
1.0
176
     1
 92
        0
176
     1
 66
   257
176
     1
 43
1.0
176
     1
 76
     1
176
     1
 77
     6
176
     1
 78
     2
176
     1
 67
     7
176
     1
 79
     5
176
     1
170
     0
176
     1
171
     0
176
     1
290
     0
176
     1
 93
       13
176
     1
 44
0.0
176
     1
173
     0
176
     1
  0
VISUALSTYLE
  5
31
102
{ACAD_REACTORS
330
2A
102
}
330
2A
100
AcDbVisualStyle
  2
Hidden
 70
     6
177
     2
291
     0
 71
     1
176
     1
 72
     2
176
     1
 73
     2
176
     1
 90
        0
176
     1
 40
0.6
176
     1
 41
30.0
176
     1
 62
     5
 63
     7
421
 16777215
176
     1
 74
     2
176
     1
 91
        2
176
     1
 64
     7
176
     1
 65
   257
176
     1
 75
     2
176
     1
175
     1
176
     1
 42
40.0
176
     1
 92
        0
176
     1
 66
   257
176
     1
 43
1.0
176
     1
 76
     1
176
     1
 77
     6
176
     1
 78
     2
176
     1
 67
     7
176
     1
 79
     3
176
     1
170
     0
176
     1
171
     0
176
     1
290
     0
176
     1
 93
        1
176
     1
 44
0.0
176
     1
173
     0
176
     1
  0
VISUALSTYLE
  5
3B
102
{ACAD_REACTORS
330
2A
102
}
330
2A
100
AcDbVisualStyle
  2
JitterOff
 70
    20
177
     2
291
     1
 71
     2
176
     0
 72
     2
176
     0
 73
     0
176
     0
 90
        0
176
     0
 40
0.6
176
     0
 41
30.0
176
     0
 62
     5
 63
     7
421
 16777215
176
     0
 74
     1
176
     0
 91
        4
176
     0
 64
     7
176
     0
 65
   257
176
     0
 75
     1
176
     0
175
     1
176
     0
 42
1.0
176
     0
 92
       10
176
     2
 66
     7
176
     0
 43
1.0
176
     0
 76
     1
176
     0
 77
     6
176
     0
 78
     2
176
     0
 67
     7
176
     0
 79
     5
176
     0
170
     0
176
     0
171
     0
176
     0
290
     0
176
     0
 93
        1
176
     0
 44
0.0
176
     0
173
     0
176
     0
  0
VISUALSTYLE
  5
38
102
{ACAD_REACTORS
330
2A
102
}
330
2A
100
AcDbVisualStyle
  2
Linepattern
 70
    14
177
     2
291
     1
 71
     2
176
     1
 72
     2
176
     1
 73
     0
176
     1
 90
        0
176
     1
 40
0.6
176
     1
 41
30.0
176
     1
 62
     5
 63
     7
421
 16777215
176
     1
 74
     1
176
     1
 91
        4
176
     1
 64
     7
176
     1
 65
   257
176
     1
 75
     7
176
     1
175
     7
176
     1
 42
1.0
176
     1
 92
        8
176
     1
 66
     7
176
     1
 43
1.0
176
     1
 76
     1
176
     1
 77
     6
176
     1
 78
     2
176
     1
 67
     7
176
     1
 79
     5
176
     1
170
     0
176
     1
171
     0
176
     1
290
     0
176
     1
 93
        1
176
     1
 44
0.0
176
     1
173
     0
176
     1
  0
VISUALSTYLE
  5
3C
102
{ACAD_REACTORS
330
2A
102
}
330
2A
100
AcDbVisualStyle
  2
OverhangOff
 70
    21
177
     2
291
     1
 71
     2
176
     0
 72
     2
176
     0
 73
     0
176
     0
 90
        0
176
     0
 40
0.6
176
     0
 41
30.0
176
     0
 62
     5
 63
     7
421
 16777215
176
     0
 74
     1
176
     0
 91
        4
176
     0
 64
     7
176
     0
 65
   257
176
     0
 75
     1
176
     0
175
     1
176
     0
 42
1.0
176
     0
 92
        9
176
     2
 66
     7
176
     0
 43
1.0
176
     0
 76
     1
176
     0
 77
     6
176
     0
 78
     2
176
     0
 67
     7
176
     0
 79
     5
176
     0
170
     0
176
     0
171
     0
176
     0
290
     0
176
     0
 93
        1
176
     0
 44
0.0
176
     0
173
     0
176
     0
  0
VISUALSTYLE
  5
33
102
{ACAD_REACTORS
330
2A
102
}
330
2A
100
AcDbVisualStyle
  2
Realistic
 70
     8
177
     2
291
     0
 71
     2
176
     1
 72
     3
176
     1
 73
     0
176
     1
 90
        2
176
     1
 40
0.6
176
     1
 41
30.0
176
     1
 62
     5
 63
     7
421
 16777215
176
     1
 74
     0
176
     1
 91
        0
176
     1
 64
     7
176
     1
 65
   257
176
     1
 75
     1
176
     1
175
     1
176
     1
 42
1.0
176
     1
 92
        8
176
     1
 66
   257
176
     1
 43
1.0
176
     1
 76
     1
176
     1
 77
     6
176
     1
 78
     2
176
     1
 67
     7
176
     1
 79
     3
176
     1
170
     0
176
     1
171
     0
176
     1
290
     0
176
     1
 93
       13
176
     1
 44
0.0
176
     1
173
     0
176
     1
  0
VISUALSTYLE
  5
42
102
{ACAD_REACTORS
330
2A
102
}
330
2A
100
AcDbVisualStyle
  2
Shaded
 70
    27
177
     2
291
     0
 71
     2
176
     1
 72
     2
176
     1
 73
     1
176
     1
 90
        2
176
     1
 40
0.6
176
     1
 41
30.0
176
     1
 62
     5
 63
     7
421
 16777215
176
     1
 74
     0
176
     1
 91
        4
176
     1
 64
     7
176
     1
 65
   257
176
     1
 75
     1
176
     1
175
     1
176
     1
 42
1.0
176
     1
 92
        8
176
     1
 66
   257
176
     1
 43
1.0
176
     1
 76
     1
176
     1
 77
     6
176
     1
 78
     2
176
     1
 67
     8
425
  7895160
176
     1
 79
     3
176
     1
170
     0
176
     1
171
     0
176
     1
290
     0
176
     1
 93
        5
176
     1
 44
0.0
176
     1
173
     0
176
     1
  0
VISUALSTYLE
  5
41
102
{ACAD_REACTORS
330
2A
102
}
330
2A
100
AcDbVisualStyle
  2
Shaded with edges
 70
    26
177
     2
291
     0
 71
     2
176
     1
 72
     2
176
     1
 73
     1
176
     1
 90
        2
176
     1
 40
0.6
176
     1
 41
30.0
176
     1
 62
     5
 63
     7
421
 16777215
176
     1
 74
     1
176
     1
 91
       10
176
     1
 64
     7
176
     1
 65
   257
176
     1
 75
     2
176
     1
175
     1
176
     1
 42
1.0
176
     1
 92
        8
176
     1
 66
   257
176
     1
 43
1.0
176
     1
 76
     1
176
     1
 77
     6
176
     1
 78
     2
176
     1
 67
     7
176
     1
 79
     3
176
     1
170
     0
176
     1
171
     0
176
     1
290
     0
176
     1
 93
        5
176
     1
 44
0.0
176
     1
173
     0
176
     1
  0
VISUALSTYLE
  5
3E
102
{ACAD_REACTORS
330
2A
102
}
330
2A
100
AcDbVisualStyle
  2
Shades of Gray
 70
    23
177
     2
291
     0
 71
     2
176
     1
 72
     2
176
     1
 73
     3
176
     1
 90
        0
176
     1
 40
0.6
176
     1
 41
30.0
176
     1
 62
     5
 63
     7
421
 16777215
176
     1
 74
     2
176
     1
 91
        2
176
     1
 64
     7
176
     1
 65
     7
176
     1
 75
     1
176
     1
175
     1
176
     1
 42
40.0
176
     1
 92
        8
176
     1
 66
     7
176
     1
 43
1.0
176
     1
 76
     1
176
     1
 77
     6
176
     1
 78
     2
176
     1
 67
     7
176
     1
 79
     3
176
     1
170
     0
176
     1
171
     0
176
     1
290
     0
176
     1
 93
        1
176
     1
 44
0.0
176
     1
173
     0
176
     1
  0
VISUALSTYLE
  5
3F
102
{ACAD_REACTORS
330
2A
102
}
330
2A
100
AcDbVisualStyle
  2
Sketchy
 70
    24
177
     2
291
     0
 71
     1
176
     1
 72
     2
176
     1
 73
     2
176
     1
 90
        0
176
     1
 40
0.6
176
     1
 41
30.0
176
     1
 62
     5
 63
     7
421
 16777215
176
     1
 74
     2
176
     1
 91
        2
176
     1
 64
     7
176
     1
 65
     7
176
     1
 75
     1
176
     1
175
     1
176
     1
 42
40.0
176
     1
 92
       11
176
     1
 66
     7
176
     1
 43
1.0
176
     1
 76
     1
176
     1
 77
     6
176
     1
 78
     2
176
     1
 67
     7
176
     1
 79
     6
176
     1
170
     0
176
     1
171
     0
176
     1
290
     0
176
     1
 93
        1
176
     1
 44
0.0
176
     1
173
     0
176
     1
  0
VISUALSTYLE
  5
37
102
{ACAD_REACTORS
330
2A
102
}
330
2A
100
AcDbVisualStyle
  2
Thicken
 70
    13
177
     2
291
     1
 71
     2
176
     1
 72
     2
176
     1
 73
     0
176
     1
 90
        0
176
     1
 40
0.6
176
     1
 41
30.0
176
     1
 62
     5
 63
     7
421
 16777215
176
     1
 74
     1
176
     1
 91
        4
176
     1
 64
     7
176
     1
 65
   257
176
     1
 75
     1
176
     1
175
     1
176
     1
 42
1.0
176
     1
 92
       12
176
     1
 66
     7
176
     1
 43
1.0
176
     1
 76
     1
176
     1
 77
     6
176
     1
 78
     2
176
     1
 67
     7
176
     1
 79
     5
176
     1
170
     0
176
     1
171
     0
176
     1
290
     0
176
     1
 93
        1
176
     1
 44
0.0
176
     1
173
     0
176
     1
  0
VISUALSTYLE
  5
30
102
{ACAD_REACTORS
330
2A
102
}
330
2A
100
AcDbVisualStyle
  2
Wireframe
 70
     5
177
     2
291
     0
 71
     0
176
     1
 72
     2
176
     1
 73
     0
176
     1
 90
        0
176
     1
 40
0.6
176
     1
 41
30.0
176
     1
 62
     5
 63
     7
421
 16777215
176
     1
 74
     1
176
     1
 91
        4
176
     1
 64
     7
176
     1
 65
   257
176
     1
 75
     1
176
     1
175
     1
176
     1
 42
1.0
176
     1
 92
        0
176
     1
 66
   257
176
     1
 43
1.0
176
     1
 76
     1
176
     1
 77
     6
176
     1
 78
     2
176
     1
 67
     7
176
     1
 79
     3
176
     1
170
     0
176
     1
171
     0
176
     1
290
     0
176
     1
 93
        1
176
     1
 44
0.0
176
     1
173
     0
176
     1
  0
VISUALSTYLE
  5
40
102
{ACAD_REACTORS
330
2A
102
}
330
2A
100
AcDbVisualStyle
  2
X-Ray
 70
    25
177
     2
291
     0
 71
     2
176
     1
 72
     2
176
     1
 73
     1
176
     1
 90
        1
176
     1
 40
0.5
176
     1
 41
30.0
176
     1
 62
     5
 63
     7
421
 16777215
176
     1
 74
     1
176
     1
 91
        0
176
     1
 64
     7
176
     1
 65
   257
176
     1
 75
     1
176
     1
175
     1
176
     1
 42
1.0
176
     1
 92
        8
176
     1
 66
     7
176
     1
 43
1.0
176
     1
 76
     1
176
     1
 77
     6
176
     1
 78
     2
176
     1
 67
     7
176
     1
 79
     3
176
     1
170
     0
176
     1
171
     0
176
     1
290
     0
176
     1
 93
       13
176
     1
 44
0.0
176
     1
173
     0
176
     1
  0
DICTIONARYVAR
  5
30C
102
{ACAD_REACTORS
330
30B
102
}
330
30B
100
DictionaryVariables
280
     0
  1
1:1
  0
DICTIONARYVAR
  5
314
102
{ACAD_REACTORS
330
30B
102
}
330
30B
100
DictionaryVariables
280
     0
  1
3.500000
  0
DICTIONARYVAR
  5
315
102
{ACAD_REACTORS
330
30B
102
}
330
30B
100
DictionaryVariables
280
     0
  1
acadiso.lin
  0
DICTIONARYVAR
  5
311
102
{ACAD_REACTORS
330
30B
102
}
330
30B
100
DictionaryVariables
280
     0
  1
Standard
  0
DICTIONARYVAR
  5
310
102
{ACAD_REACTORS
330
30B
102
}
330
30B
100
DictionaryVariables
280
     0
  1
Standard
  0
DICTIONARY
  5
30D
330
6A
100
AcDbDictionary
280
     1
281
     1
  3
ACAD_ROUNDTRIP_2008_TABLESTYLE_CELLSTYLEMAP
360
30E
  0
CELLSTYLEMAP
  5
30E
102
{ACAD_REACTORS
330
30D
102
}
330
30D
100
AcDbCellStyleMap
 90
        3
300
CELLSTYLE
  1
TABLEFORMAT_BEGIN
 90
        5
170
     1
 91
        0
 92
    32768
 62
   257
 93
        1
300
CONTENTFORMAT
  1
CONTENTFORMAT_BEGIN
 90
        0
 91
        0
 92
        4
 93
        0
300

 40
0.0
140
1.0
 94
        5
 62
     0
340
11
144
6.0
309
CONTENTFORMAT_END
171
     1
301
MARGIN
  1
CELLMARGIN_BEGIN
 40
1.5
 40
1.5
 40
1.5
 40
1.5
 40
1.5
 40
1.5
309
CELLMARGIN_END
 94
        6
 95
        1
302
GRIDFORMAT
  1
GRIDFORMAT_BEGIN
 90
        0
 91
        1
 62
     0
 92
       -2
340
14
 93
        0
 40
0.045
309
GRIDFORMAT_END
 95
        2
302
GRIDFORMAT
  1
GRIDFORMAT_BEGIN
 90
        0
 91
        1
 62
     0
 92
       -2
340
14
 93
        0
 40
0.045
309
GRIDFORMAT_END
 95
        4
302
GRIDFORMAT
  1
GRIDFORMAT_BEGIN
 90
        0
 91
        1
 62
     0
 92
       -2
340
14
 93
        0
 40
0.045
309
GRIDFORMAT_END
 95
        8
302
GRIDFORMAT
  1
GRIDFORMAT_BEGIN
 90
        0
 91
        1
 62
     0
 92
       -2
340
14
 93
        0
 40
0.045
309
GRIDFORMAT_END
 95
       16
302
GRIDFORMAT
  1
GRIDFORMAT_BEGIN
 90
        0
 91
        1
 62
     0
 92
       -2
340
14
 93
        0
 40
0.045
309
GRIDFORMAT_END
 95
       32
302
GRIDFORMAT
  1
GRIDFORMAT_BEGIN
 90
        0
 91
        1
 62
     0
 92
       -2
340
14
 93
        0
 40
0.045
309
GRIDFORMAT_END
309
TABLEFORMAT_END
  1
CELLSTYLE_BEGIN
 90
        1
 91
        1
300
_TITLE
309
CELLSTYLE_END
300
CELLSTYLE
  1
TABLEFORMAT_BEGIN
 90
        5
170
     1
 91
        0
 92
        0
 62
   257
 93
        1
300
CONTENTFORMAT
  1
CONTENTFORMAT_BEGIN
 90
        0
 91
        0
 92
        4
 93
        0
300

 40
0.0
140
1.0
 94
        5
 62
     0
340
11
144
4.5
309
CONTENTFORMAT_END
171
     1
301
MARGIN
  1
CELLMARGIN_BEGIN
 40
1.5
 40
1.5
 40
1.5
 40
1.5
 40
1.5
 40
1.5
309
CELLMARGIN_END
 94
        6
 95
        1
302
GRIDFORMAT
  1
GRIDFORMAT_BEGIN
 90
        0
 91
        1
 62
     0
 92
       -2
340
14
 93
        0
 40
0.045
309
GRIDFORMAT_END
 95
        2
302
GRIDFORMAT
  1
GRIDFORMAT_BEGIN
 90
        0
 91
        1
 62
     0
 92
       -2
340
14
 93
        0
 40
0.045
309
GRIDFORMAT_END
 95
        4
302
GRIDFORMAT
  1
GRIDFORMAT_BEGIN
 90
        0
 91
        1
 62
     0
 92
       -2
340
14
 93
        0
 40
0.045
309
GRIDFORMAT_END
 95
        8
302
GRIDFORMAT
  1
GRIDFORMAT_BEGIN
 90
        0
 91
        1
 62
     0
 92
       -2
340
14
 93
        0
 40
0.045
309
GRIDFORMAT_END
 95
       16
302
GRIDFORMAT
  1
GRIDFORMAT_BEGIN
 90
        0
 91
        1
 62
     0
 92
       -2
340
14
 93
        0
 40
0.045
309
GRIDFORMAT_END
 95
       32
302
GRIDFORMAT
  1
GRIDFORMAT_BEGIN
 90
        0
 91
        1
 62
     0
 92
       -2
340
14
 93
        0
 40
0.045
309
GRIDFORMAT_END
309
TABLEFORMAT_END
  1
CELLSTYLE_BEGIN
 90
        2
 91
        1
300
_HEADER
309
CELLSTYLE_END
300
CELLSTYLE
  1
TABLEFORMAT_BEGIN
 90
        5
170
     1
 91
        0
 92
        0
 62
   257
 93
        1
300
CONTENTFORMAT
  1
CONTENTFORMAT_BEGIN
 90
        0
 91
        0
 92
        4
 93
        0
300

 40
0.0
140
1.0
 94
        2
 62
     0
340
11
144
4.5
309
CONTENTFORMAT_END
171
     1
301
MARGIN
  1
CELLMARGIN_BEGIN
 40
1.5
 40
1.5
 40
1.5
 40
1.5
 40
1.5
 40
1.5
309
CELLMARGIN_END
 94
        6
 95
        1
302
GRIDFORMAT
  1
GRIDFORMAT_BEGIN
 90
        0
 91
        1
 62
     0
 92
       -2
340
14
 93
        0
 40
0.045
309
GRIDFORMAT_END
 95
        2
302
GRIDFORMAT
  1
GRIDFORMAT_BEGIN
 90
        0
 91
        1
 62
     0
 92
       -2
340
14
 93
        0
 40
0.045
309
GRIDFORMAT_END
 95
        4
302
GRIDFORMAT
  1
GRIDFORMAT_BEGIN
 90
        0
 91
        1
 62
     0
 92
       -2
340
14
 93
        0
 40
0.045
309
GRIDFORMAT_END
 95
        8
302
GRIDFORMAT
  1
GRIDFORMAT_BEGIN
 90
        0
 91
        1
 62
     0
 92
       -2
340
14
 93
        0
 40
0.045
309
GRIDFORMAT_END
 95
       16
302
GRIDFORMAT
  1
GRIDFORMAT_BEGIN
 90
        0
 91
        1
 62
     0
 92
       -2
340
14
 93
        0
 40
0.045
309
GRIDFORMAT_END
 95
       32
302
GRIDFORMAT
  1
GRIDFORMAT_BEGIN
 90
        0
 91
        1
 62
     0
 92
       -2
340
14
 93
        0
 40
0.045
309
GRIDFORMAT_END
309
TABLEFORMAT_END
  1
CELLSTYLE_BEGIN
 90
        3
 91
        2
300
_DATA
309
CELLSTYLE_END
  0
ENDSEC
  0
EOF
