  0
SECTION
  2
HEADER
  9
$ACADVER
  1
AC1015
  9
$ACADMAINTVER
 70
     6
  9
$DWGCODEPAGE
  3
ANSI_1252
  9
$INSBASE
 10
0.0
 20
0.0
 30
0.0
  9
$EXTMIN
 10
-0.5
 20
-0.5
 30
-0.5
  9
$EXTMAX
 10
5.0
 20
5.0
 30
5.0
  9
$LIMMIN
 10
-0.5
 20
-0.5
  9
$LIMMAX
 10
5.0
 20
5.0
  9
$ORTHOMODE
 70
     0
  9
$REGENMODE
 70
     1
  9
$FILLMODE
 70
     1
  9
$QTEXTMODE
 70
     0
  9
$MIRRTEXT
 70
     1
  9
$LTSCALE
 40
1.0
  9
$ATTMODE
 70
     1
  9
$TEXTSIZE
 40
0.2
  9
$TRACEWID
 40
0.05
  9
$TEXTSTYLE
  7
Standard
  9
$CLAYER
  8
0
  9
$CELTYPE
  6
ByLayer
  9
$CECOLOR
 62
   256
  9
$CELTSCALE
 40
1.0
  9
$DISPSILH
 70
     0
  9
$DIMSCALE
 40
1.0
  9
$DIMASZ
 40
0.18
  9
$DIMEXO
 40
0.0625
  9
$DIMDLI
 40
0.38
  9
$DIMRND
 40
0.0
  9
$DIMDLE
 40
0.0
  9
$DIMEXE
 40
0.18
  9
$DIMTP
 40
0.0
  9
$DIMTM
 40
0.0
  9
$DIMTXT
 40
0.18
  9
$DIMCEN
 40
0.09
  9
$DIMTSZ
 40
0.0
  9
$DIMTOL
 70
     0
  9
$DIMLIM
 70
     0
  9
$DIMTIH
 70
     1
  9
$DIMTOH
 70
     1
  9
$DIMSE1
 70
     0
  9
$DIMSE2
 70
     0
  9
$DIMTAD
 70
     0
  9
$DIMZIN
 70
     0
  9
$DIMBLK
  1

  9
$DIMASO
 70
     1
  9
$DIMSHO
 70
     1
  9
$DIMPOST
  1

  9
$DIMAPOST
  1

  9
$DIMALT
 70
     0
  9
$DIMALTD
 70
     2
  9
$DIMALTF
 40
25.4
  9
$DIMLFAC
 40
1.0
  9
$DIMTOFL
 70
     0
  9
$DIMTVP
 40
0.0
  9
$DIMTIX
 70
     0
  9
$DIMSOXD
 70
     0
  9
$DIMSAH
 70
     0
  9
$DIMBLK1
  1

  9
$DIMBLK2
  1

  9
$DIMSTYLE
  2
Standard
  9
$DIMCLRD
 70
     0
  9
$DIMCLRE
 70
     0
  9
$DIMCLRT
 70
     0
  9
$DIMTFAC
 40
1.0
  9
$DIMGAP
 40
0.09
  9
$DIMJUST
 70
     0
  9
$DIMSD1
 70
     0
  9
$DIMSD2
 70
     0
  9
$DIMTOLJ
 70
     1
  9
$DIMTZIN
 70
     0
  9
$DIMALTZ
 70
     0
  9
$DIMALTTZ
 70
     0
  9
$DIMUPT
 70
     0
  9
$DIMDEC
 70
     4
  9
$DIMTDEC
 70
     4
  9
$DIMALTU
 70
     2
  9
$DIMALTTD
 70
     2
  9
$DIMTXSTY
  7
Standard
  9
$DIMAUNIT
 70
     0
  9
$DIMADEC
 70
     0
  9
$DIMALTRND
 40
0.0
  9
$DIMAZIN
 70
     0
  9
$DIMDSEP
 70
    46
  9
$DIMATFIT
 70
     3
  9
$DIMFRAC
 70
     0
  9
$DIMLDRBLK
  1

  9
$DIMLUNIT
 70
     2
  9
$DIMLWD
 70
    -2
  9
$DIMLWE
 70
    -2
  9
$DIMTMOVE
 70
     0
  9
$LUNITS
 70
     2
  9
$LUPREC
 70
     4
  9
$SKETCHINC
 40
0.1
  9
$FILLETRAD
 40
0.5
  9
$AUNITS
 70
     0
  9
$AUPREC
 70
     0
  9
$MENU
  1
.
  9
$ELEVATION
 40
0.0
  9
$PELEVATION
 40
0.0
  9
$THICKNESS
 40
0.0
  9
$LIMCHECK
 70
     0
  9
$CHAMFERA
 40
0.5
  9
$CHAMFERB
 40
0.5
  9
$CHAMFERC
 40
1.0
  9
$CHAMFERD
 40
0.0
  9
$SKPOLY
 70
     0
  9
$TDCREATE
 40
2456870.44416684
  9
$TDUCREATE
 40
2456870.652500174
  9
$TDUPDATE
 40
2456870.444166852
  9
$TDUUPDATE
 40
2456870.652500185
  9
$TDINDWG
 40
0.0000000116
  9
$TDUSRTIMER
 40
0.0000000116
  9
$USRTIMER
 70
     1
  9
$ANGBASE
 50
0.0
  9
$ANGDIR
 70
     0
  9
$PDMODE
 70
     0
  9
$PDSIZE
 40
0.0
  9
$PLINEWID
 40
0.0
  9
$SPLFRAME
 70
     0
  9
$SPLINETYPE
 70
     6
  9
$SPLINESEGS
 70
     8
  9
$HANDSEED
  5
279
  9
$SURFTAB1
 70
     6
  9
$SURFTAB2
 70
     6
  9
$SURFTYPE
 70
     6
  9
$SURFU
 70
     6
  9
$SURFV
 70
     6
  9
$UCSBASE
  2

  9
$UCSNAME
  2

  9
$UCSORG
 10
0.0
 20
0.0
 30
0.0
  9
$UCSXDIR
 10
1.0
 20
0.0
 30
0.0
  9
$UCSYDIR
 10
0.0
 20
1.0
 30
0.0
  9
$UCSORTHOREF
  2

  9
$UCSORTHOVIEW
 70
     0
  9
$UCSORGTOP
 10
0.0
 20
0.0
 30
0.0
  9
$UCSORGBOTTOM
 10
0.0
 20
0.0
 30
0.0
  9
$UCSORGLEFT
 10
0.0
 20
0.0
 30
0.0
  9
$UCSORGRIGHT
 10
0.0
 20
0.0
 30
0.0
  9
$UCSORGFRONT
 10
0.0
 20
0.0
 30
0.0
  9
$UCSORGBACK
 10
0.0
 20
0.0
 30
0.0
  9
$PUCSBASE
  2

  9
$PUCSNAME
  2

  9
$PUCSORG
 10
0.0
 20
0.0
 30
0.0
  9
$PUCSXDIR
 10
1.0
 20
0.0
 30
0.0
  9
$PUCSYDIR
 10
0.0
 20
1.0
 30
0.0
  9
$PUCSORTHOREF
  2

  9
$PUCSORTHOVIEW
 70
     0
  9
$PUCSORGTOP
 10
0.0
 20
0.0
 30
0.0
  9
$PUCSORGBOTTOM
 10
0.0
 20
0.0
 30
0.0
  9
$PUCSORGLEFT
 10
0.0
 20
0.0
 30
0.0
  9
$PUCSORGRIGHT
 10
0.0
 20
0.0
 30
0.0
  9
$PUCSORGFRONT
 10
0.0
 20
0.0
 30
0.0
  9
$PUCSORGBACK
 10
0.0
 20
0.0
 30
0.0
  9
$USERI1
 70
     0
  9
$USERI2
 70
     0
  9
$USERI3
 70
     0
  9
$USERI4
 70
     0
  9
$USERI5
 70
     0
  9
$USERR1
 40
0.0
  9
$USERR2
 40
0.0
  9
$USERR3
 40
0.0
  9
$USERR4
 40
0.0
  9
$USERR5
 40
0.0
  9
$WORLDVIEW
 70
     1
  9
$SHADEDGE
 70
     3
  9
$SHADEDIF
 70
    70
  9
$TILEMODE
 70
     0
  9
$MAXACTVP
 70
    64
  9
$PINSBASE
 10
0.0
 20
0.0
 30
0.0
  9
$PLIMCHECK
 70
     0
  9
$PEXTMIN
 10
0.0
 20
0.0
 30
0.0
  9
$PEXTMAX
 10
11.0
 20
8.5
 30
0.0
  9
$PLIMMIN
 10
0.0
 20
0.0
  9
$PLIMMAX
 10
11.0
 20
8.5
  9
$UNITMODE
 70
     0
  9
$VISRETAIN
 70
     1
  9
$PLINEGEN
 70
     0
  9
$PSLTSCALE
 70
     1
  9
$TREEDEPTH
 70
  3020
  9
$CMLSTYLE
  2
Standard
  9
$CMLJUST
 70
     0
  9
$CMLSCALE
 40
1.0
  9
$PROXYGRAPHICS
 70
     1
  9
$MEASUREMENT
 70
     0
  9
$CELWEIGHT
370
    -1
  9
$ENDCAPS
280
     0
  9
$JOINSTYLE
280
     0
  9
$LWDISPLAY
290
     0
  9
$INSUNITS
 70
     1
  9
$HYPERLINKBASE
  1

  9
$STYLESHEET
  1

  9
$XEDIT
290
     1
  9
$CEPSNTYPE
380
     0
  9
$PSTYLEMODE
290
     1
  9
$FINGERPRINTGUID
  2
{196B08BD-2906-44F4-83FD-ABC8CECA88FF}
  9
$VERSIONGUID
  2
{FAEB1C32-E019-11D5-929B-00C0DF256EC4}
  9
$EXTNAMES
290
     1
  9
$PSVPSCALE
 40
0.0
  9
$OLESTARTUP
290
     0
  0
ENDSEC
  0
SECTION
  2
CLASSES
  0
CLASS
  1
ACDBDICTIONARYWDFLT
  2
AcDbDictionaryWithDefault
  3
ObjectDBX Classes
 90
        0
280
     0
281
     0
  0
CLASS
  1
VISUALSTYLE
  2
AcDbVisualStyle
  3
ObjectDBX Classes
 90
     4095
280
     0
281
     0
  0
CLASS
  1
MATERIAL
  2
AcDbMaterial
  3
ObjectDBX Classes
 90
     1153
280
     0
281
     0
  0
CLASS
  1
DICTIONARYVAR
  2
AcDbDictionaryVar
  3
ObjectDBX Classes
 90
        0
280
     0
281
     0
  0
CLASS
  1
ACDBPLACEHOLDER
  2
AcDbPlaceHolder
  3
ObjectDBX Classes
 90
        0
280
     0
281
     0
  0
CLASS
  1
LAYOUT
  2
AcDbLayout
  3
ObjectDBX Classes
 90
        0
280
     0
281
     0
  0
ENDSEC
  0
SECTION
  2
TABLES
  0
TABLE
  2
VPORT
  5
8
330
0
100
AcDbSymbolTable
 70
    17
  0
VPORT
  5
29
330
8
100
AcDbSymbolTableRecord
100
AcDbViewportTableRecord
  2
DUMMY
 70
     0
 10
0.0
 20
0.0
 11
1.0
 21
1.0
 12
10.429907
 22
4.5
 13
0.0
 23
0.0
 14
0.5
 24
0.5
 15
0.5
 25
0.5
 16
0.0
 26
0.0
 36
1.0
 17
0.0
 27
0.0
 37
0.0
 40
9.0
 41
1.972973
 42
50.0
 43
0.0
 44
0.0
 50
0.0
 51
0.0
 71
     0
 72
   100
 73
     1
 74
     3
 75
     0
 76
     0
 77
     0
 78
     0
281
     0
 65
     1
110
0.0
120
0.0
130
0.0
111
1.0
121
0.0
131
0.0
112
0.0
122
1.0
132
0.0
 79
     0
146
0.0
  0
VPORT
  5
23E
330
8
100
AcDbSymbolTableRecord
100
AcDbViewportTableRecord
  2
*ACTIVE
 70
     0
 10
0.0
 20
0.0
 11
1.0
 21
1.0
 12
-6.834472
 22
-6.834472
 13
0.0
 23
0.0
 14
0.5
 24
0.5
 15
0.5
 25
0.5
 16
0.7188730927569434
 26
-0.5850486126764431
 36
0.3754192287502549
 17
0.0
 27
0.0
 37
0.0
 40
61.350868
 41
0.28943
 42
50.0
 43
482.07238
 44
-482.07238
 50
0.0
 51
0.0
 71
     0
 72
   100
 73
     1
 74
     3
 75
     0
 76
     0
 77
     0
 78
     0
281
     0
 65
     1
110
0.0
120
0.0
130
0.0
111
1.0
121
0.0
131
0.0
112
0.0
122
1.0
132
0.0
 79
     0
146
0.0
  0
VPORT
  5
23F
330
8
100
AcDbSymbolTableRecord
100
AcDbViewportTableRecord
  2
L1
 70
     0
 10
0.0
 20
0.0
 11
1.0
 21
1.0
 12
-6.834472
 22
-6.834472
 13
0.0
 23
0.0
 14
0.5
 24
0.5
 15
0.5
 25
0.5
 16
0.7188730927569434
 26
-0.5850486126764431
 36
0.3754192287502549
 17
0.0
 27
0.0
 37
0.0
 40
61.350868
 41
0.28943
 42
50.0
 43
482.07238
 44
-482.07238
 50
0.0
 51
0.0
 71
     0
 72
   100
 73
     1
 74
     3
 75
     0
 76
     0
 77
     0
 78
     0
281
     0
 65
     1
110
0.0
120
0.0
130
0.0
111
1.0
121
0.0
131
0.0
112
0.0
122
1.0
132
0.0
 79
     0
146
0.0
  0
VPORT
  5
240
330
8
100
AcDbSymbolTableRecord
100
AcDbViewportTableRecord
  2
L2
 70
     0
 10
0.0
 20
0.0
 11
0.5
 21
1.0
 12
0.0
 22
0.0
 13
0.0
 23
0.0
 14
0.5
 24
0.5
 15
0.5
 25
0.5
 16
0.0
 26
-1.0
 36
0.0
 17
0.0
 27
0.0
 37
0.0
 40
59.28775
 41
0.299501
 42
50.0
 43
30.446227
 44
-30.446227
 50
0.0
 51
0.0
 71
     0
 72
   100
 73
     1
 74
     3
 75
     0
 76
     0
 77
     0
 78
     0
281
     0
 65
     1
110
0.0
120
0.0
130
0.0
111
1.0
121
0.0
131
0.0
112
0.0
122
1.0
132
0.0
 79
     0
146
0.0
  0
VPORT
  5
241
330
8
100
AcDbSymbolTableRecord
100
AcDbViewportTableRecord
  2
L2
 70
     0
 10
0.5
 20
0.0
 11
1.0
 21
1.0
 12
0.0
 22
0.0
 13
0.0
 23
0.0
 14
0.5
 24
0.5
 15
0.5
 25
0.5
 16
1.0
 26
0.0
 36
0.0
 17
0.0
 27
0.0
 37
0.0
 40
59.28775
 41
0.299501
 42
50.0
 43
30.05782
 44
-30.05782
 50
0.0
 51
0.0
 71
     0
 72
   100
 73
     1
 74
     3
 75
     0
 76
     0
 77
     0
 78
     0
281
     0
 65
     1
110
0.0
120
0.0
130
0.0
111
1.0
121
0.0
131
0.0
112
0.0
122
1.0
132
0.0
 79
     0
146
0.0
  0
VPORT
  5
242
330
8
100
AcDbSymbolTableRecord
100
AcDbViewportTableRecord
  2
L3
 70
     0
 10
0.0
 20
0.5
 11
1.0
 21
1.0
 12
0.0
 22
0.0
 13
0.0
 23
0.0
 14
0.5
 24
0.5
 15
0.5
 25
0.5
 16
0.0
 26
0.0
 36
1.0
 17
0.0
 27
0.0
 37
0.0
 40
9.942483
 41
1.785948
 42
50.0
 43
29.643875
 44
-29.643875
 50
0.0
 51
0.0
 71
     0
 72
   100
 73
     1
 74
     3
 75
     0
 76
     0
 77
     0
 78
     0
281
     0
 65
     1
110
0.0
120
0.0
130
0.0
111
1.0
121
0.0
131
0.0
112
0.0
122
1.0
132
0.0
 79
     0
146
0.0
  0
VPORT
  5
243
330
8
100
AcDbSymbolTableRecord
100
AcDbViewportTableRecord
  2
L3
 70
     0
 10
0.0
 20
0.0
 11
1.0
 21
0.5
 12
0.0
 22
0.0
 13
0.0
 23
0.0
 14
0.5
 24
0.5
 15
0.5
 25
0.5
 16
0.0
 26
-1.0
 36
0.0
 17
0.0
 27
0.0
 37
0.0
 40
59.28775
 41
0.299501
 42
50.0
 43
30.446227
 44
-30.446227
 50
0.0
 51
0.0
 71
     0
 72
   100
 73
     1
 74
     3
 75
     0
 76
     0
 77
     0
 78
     0
281
     0
 65
     1
110
0.0
120
0.0
130
0.0
111
1.0
121
0.0
131
0.0
112
0.0
122
1.0
132
0.0
 79
     0
146
0.0
  0
VPORT
  5
244
330
8
100
AcDbSymbolTableRecord
100
AcDbViewportTableRecord
  2
L4
 70
     0
 10
0.0
 20
0.5
 11
0.5
 21
1.0
 12
0.0
 22
0.0
 13
0.0
 23
0.0
 14
0.5
 24
0.5
 15
0.5
 25
0.5
 16
0.0
 26
0.0
 36
1.0
 17
0.0
 27
0.0
 37
0.0
 40
9.942483
 41
1.785948
 42
50.0
 43
29.643875
 44
-29.643875
 50
0.0
 51
0.0
 71
     0
 72
   100
 73
     1
 74
     3
 75
     0
 76
     0
 77
     0
 78
     0
281
     0
 65
     1
110
0.0
120
0.0
130
0.0
111
1.0
121
0.0
131
0.0
112
0.0
122
1.0
132
0.0
 79
     0
146
0.0
  0
VPORT
  5
245
330
8
100
AcDbSymbolTableRecord
100
AcDbViewportTableRecord
  2
L4
 70
     0
 10
0.0
 20
0.0
 11
0.5
 21
0.5
 12
0.0
 22
0.0
 13
0.0
 23
0.0
 14
0.5
 24
0.5
 15
0.5
 25
0.5
 16
0.0
 26
-1.0
 36
0.0
 17
0.0
 27
0.0
 37
0.0
 40
59.28775
 41
0.299501
 42
50.0
 43
30.446227
 44
-30.446227
 50
0.0
 51
0.0
 71
     0
 72
   100
 73
     1
 74
     3
 75
     0
 76
     0
 77
     0
 78
     0
281
     0
 65
     1
110
0.0
120
0.0
130
0.0
111
1.0
121
0.0
131
0.0
112
0.0
122
1.0
132
0.0
 79
     0
146
0.0
  0
VPORT
  5
246
330
8
100
AcDbSymbolTableRecord
100
AcDbViewportTableRecord
  2
L4
 70
     0
 10
0.5
 20
0.0
 11
1.0
 21
0.5
 12
0.0
 22
0.0
 13
0.0
 23
0.0
 14
0.5
 24
0.5
 15
0.5
 25
0.5
 16
1.0
 26
0.0
 36
0.0
 17
0.0
 27
0.0
 37
0.0
 40
59.28775
 41
0.299501
 42
50.0
 43
30.05782
 44
-30.05782
 50
0.0
 51
0.0
 71
     0
 72
   100
 73
     1
 74
     3
 75
     0
 76
     0
 77
     0
 78
     0
281
     0
 65
     1
110
0.0
120
0.0
130
0.0
111
1.0
121
0.0
131
0.0
112
0.0
122
1.0
132
0.0
 79
     0
146
0.0
  0
VPORT
  5
247
330
8
100
AcDbSymbolTableRecord
100
AcDbViewportTableRecord
  2
L4
 70
     0
 10
0.5
 20
0.5
 11
1.0
 21
1.0
 12
0.0
 22
0.0
 13
0.0
 23
0.0
 14
0.5
 24
0.5
 15
0.5
 25
0.5
 16
0.5773502691896258
 26
-0.5773502691896258
 36
0.5773502691896258
 17
0.0
 27
0.0
 37
0.0
 40
58.136664
 41
0.305431
 42
50.0
 43
30.264658
 44
-30.264658
 50
0.0
 51
0.0
 71
     0
 72
   100
 73
     1
 74
     3
 75
     0
 76
     0
 77
     0
 78
     0
281
     0
 65
     1
110
0.0
120
0.0
130
0.0
111
1.0
121
0.0
131
0.0
112
0.0
122
1.0
132
0.0
 79
     0
146
0.0
  0
VPORT
  5
248
330
8
100
AcDbSymbolTableRecord
100
AcDbViewportTableRecord
  2
L6
 70
     0
 10
0.0
 20
0.5
 11
0.333333
 21
1.0
 12
-6.834472
 22
-6.834472
 13
0.0
 23
0.0
 14
0.5
 24
0.5
 15
0.5
 25
0.5
 16
0.7188730927569434
 26
-0.5850486126764431
 36
0.3754192287502549
 17
0.0
 27
0.0
 37
0.0
 40
61.350868
 41
0.28943
 42
50.0
 43
482.07238
 44
-482.07238
 50
0.0
 51
0.0
 71
     0
 72
   100
 73
     1
 74
     3
 75
     0
 76
     0
 77
     0
 78
     0
281
     0
 65
     1
110
0.0
120
0.0
130
0.0
111
1.0
121
0.0
131
0.0
112
0.0
122
1.0
132
0.0
 79
     0
146
0.0
  0
VPORT
  5
249
330
8
100
AcDbSymbolTableRecord
100
AcDbViewportTableRecord
  2
L6
 70
     0
 10
0.0
 20
0.0
 11
0.333333
 21
0.5
 12
0.0
 22
0.0
 13
0.0
 23
0.0
 14
0.5
 24
0.5
 15
0.5
 25
0.5
 16
-1.0
 26
0.0
 36
0.0
 17
0.0
 27
0.0
 37
0.0
 40
59.28775
 41
0.299501
 42
50.0
 43
30.05782
 44
-30.05782
 50
0.0
 51
0.0
 71
     0
 72
   100
 73
     1
 74
     3
 75
     0
 76
     0
 77
     0
 78
     0
281
     0
 65
     1
110
0.0
120
0.0
130
0.0
111
1.0
121
0.0
131
0.0
112
0.0
122
1.0
132
0.0
 79
     0
146
0.0
  0
VPORT
  5
24A
330
8
100
AcDbSymbolTableRecord
100
AcDbViewportTableRecord
  2
L6
 70
     0
 10
0.333333
 20
0.5
 11
0.666667
 21
1.0
 12
0.0
 22
0.0
 13
0.0
 23
0.0
 14
0.5
 24
0.5
 15
0.5
 25
0.5
 16
0.0
 26
0.0
 36
1.0
 17
0.0
 27
0.0
 37
0.0
 40
9.942483
 41
1.785948
 42
50.0
 43
29.643875
 44
-29.643875
 50
0.0
 51
0.0
 71
     0
 72
   100
 73
     1
 74
     3
 75
     0
 76
     0
 77
     0
 78
     0
281
     0
 65
     1
110
0.0
120
0.0
130
0.0
111
1.0
121
0.0
131
0.0
112
0.0
122
1.0
132
0.0
 79
     0
146
0.0
  0
VPORT
  5
24B
330
8
100
AcDbSymbolTableRecord
100
AcDbViewportTableRecord
  2
L6
 70
     0
 10
0.333333
 20
0.0
 11
0.666667
 21
0.5
 12
0.0
 22
0.0
 13
0.0
 23
0.0
 14
0.5
 24
0.5
 15
0.5
 25
0.5
 16
0.0
 26
-1.0
 36
0.0
 17
0.0
 27
0.0
 37
0.0
 40
59.28775
 41
0.299501
 42
50.0
 43
30.446227
 44
-30.446227
 50
0.0
 51
0.0
 71
     0
 72
   100
 73
     1
 74
     3
 75
     0
 76
     0
 77
     0
 78
     0
281
     0
 65
     1
110
0.0
120
0.0
130
0.0
111
1.0
121
0.0
131
0.0
112
0.0
122
1.0
132
0.0
 79
     0
146
0.0
  0
VPORT
  5
24C
330
8
100
AcDbSymbolTableRecord
100
AcDbViewportTableRecord
  2
L6
 70
     0
 10
0.666667
 20
0.5
 11
1.0
 21
1.0
 12
0.0
 22
0.0
 13
0.0
 23
0.0
 14
0.5
 24
0.5
 15
0.5
 25
0.5
 16
0.5773502691896258
 26
-0.5773502691896258
 36
0.5773502691896258
 17
0.0
 27
0.0
 37
0.0
 40
58.136664
 41
0.305431
 42
50.0
 43
30.264658
 44
-30.264658
 50
0.0
 51
0.0
 71
     0
 72
   100
 73
     1
 74
     3
 75
     0
 76
     0
 77
     0
 78
     0
281
     0
 65
     1
110
0.0
120
0.0
130
0.0
111
1.0
121
0.0
131
0.0
112
0.0
122
1.0
132
0.0
 79
     0
146
0.0
  0
VPORT
  5
24D
330
8
100
AcDbSymbolTableRecord
100
AcDbViewportTableRecord
  2
L6
 70
     0
 10
0.666667
 20
0.0
 11
1.0
 21
0.5
 12
0.0
 22
0.0
 13
0.0
 23
0.0
 14
0.5
 24
0.5
 15
0.5
 25
0.5
 16
1.0
 26
0.0
 36
0.0
 17
0.0
 27
0.0
 37
0.0
 40
59.28775
 41
0.299501
 42
50.0
 43
30.05782
 44
-30.05782
 50
0.0
 51
0.0
 71
     0
 72
   100
 73
     1
 74
     3
 75
     0
 76
     0
 77
     0
 78
     0
281
     0
 65
     1
110
0.0
120
0.0
130
0.0
111
1.0
121
0.0
131
0.0
112
0.0
122
1.0
132
0.0
 79
     0
146
0.0
  0
ENDTAB
  0
TABLE
  2
LTYPE
  5
5
330
0
100
AcDbSymbolTable
 70
     7
  0
LTYPE
  5
14
330
5
100
AcDbSymbolTableRecord
100
AcDbLinetypeTableRecord
  2
BYBLOCK
 70
     0
  3

 72
    65
 73
     0
 40
0.0
  0
LTYPE
  5
15
330
5
100
AcDbSymbolTableRecord
100
AcDbLinetypeTableRecord
  2
BYLAYER
 70
     0
  3

 72
    65
 73
     0
 40
0.0
  0
LTYPE
  5
16
330
5
100
AcDbSymbolTableRecord
100
AcDbLinetypeTableRecord
  2
CONTINUOUS
 70
     0
  3
Solid line
 72
    65
 73
     0
 40
0.0
  0
LTYPE
  5
40
330
5
100
AcDbSymbolTableRecord
100
AcDbLinetypeTableRecord
  2
DASHED
 70
     0
  3
__ __ __ __ __ __ __ __ __
 72
    65
 73
     2
 40
25.72
 49
12.86
 74
     4
 75
     0
340
0
 46
0.0
 50
0.0
 44
0.0
 45
0.0
 49
-12.86
 74
     4
 75
     0
340
0
 46
0.0
 50
0.0
 44
0.0
 45
0.0
  0
LTYPE
  5
41
330
5
100
AcDbSymbolTableRecord
100
AcDbLinetypeTableRecord
  2
HIDDEN
 70
     0
  3
_ _ _ _ _ _ _ _ _ _ _ _ _ _ _
 72
    65
 73
     2
 40
0.5
 49
0.25
 74
     4
 75
     0
340
0
 46
0.0
 50
0.0
 44
0.0
 45
0.0
 49
-0.25
 74
     4
 75
     0
340
0
 46
0.0
 50
0.0
 44
0.0
 45
0.0
  0
LTYPE
  5
42
330
5
100
AcDbSymbolTableRecord
100
AcDbLinetypeTableRecord
  2
PHANTOM
 70
     0
  3
____ _ _ ____ _ _ _____ _ _ ____
 72
    65
 73
     6
 40
50.5
 49
18.0
 74
     4
 75
     0
340
0
 46
0.0
 50
0.0
 44
0.0
 45
0.0
 49
-6.5
 74
     4
 75
     0
340
0
 46
0.0
 50
0.0
 44
0.0
 45
0.0
 49
6.5
 74
     4
 75
     0
340
0
 46
0.0
 50
0.0
 44
0.0
 45
0.0
 49
-6.5
 74
     4
 75
     0
340
0
 46
0.0
 50
0.0
 44
0.0
 45
0.0
 49
6.5
 74
     4
 75
     0
340
0
 46
0.0
 50
0.0
 44
0.0
 45
0.0
 49
-6.5
 74
     4
 75
     0
340
0
 46
0.0
 50
0.0
 44
0.0
 45
0.0
  0
LTYPE
  5
43
330
5
100
AcDbSymbolTableRecord
100
AcDbLinetypeTableRecord
  2
CENTER
 70
     0
  3
____ _ ____ _ ____ _ ____
 72
    65
 73
     4
 40
47.4
 49
22.0
 74
     4
 75
     0
340
0
 46
0.0
 50
0.0
 44
0.0
 45
0.0
 49
-8.5
 74
     4
 75
     0
340
0
 46
0.0
 50
0.0
 44
0.0
 45
0.0
 49
8.5
 74
     4
 75
     0
340
0
 46
0.0
 50
0.0
 44
0.0
 45
0.0
 49
-8.5
 74
     4
 75
     0
340
0
 46
0.0
 50
0.0
 44
0.0
 45
0.0
  0
LTYPE
  5
44
330
5
100
AcDbSymbolTableRecord
100
AcDbLinetypeTableRecord
  2
DOT
 70
     0
  3
.........................
 72
    65
 73
     2
 40
10.0
 49
0.0
 74
     4
 75
     0
340
0
 46
0.0
 50
0.0
 44
0.0
 45
0.0
 49
-10.0
 74
     4
 75
     0
340
0
 46
0.0
 50
0.0
 44
0.0
 45
0.0
  0
LTYPE
  5
45
330
5
100
AcDbSymbolTableRecord
100
AcDbLinetypeTableRecord
  2
DASHDOT
 70
     0
  3
_._._._._._._._._._._._._._._._.
 72
    65
 73
     4
 40
70.0
 49
31.0
 74
     4
 75
     0
340
0
 46
0.0
 50
0.0
 44
0.0
 45
0.0
 49
-13.0
 74
     4
 75
     0
340
0
 46
0.0
 50
0.0
 44
0.0
 45
0.0
 49
13.0
 74
     4
 75
     0
340
0
 46
0.0
 50
0.0
 44
0.0
 45
0.0
 49
-13.0
 74
     4
 75
     0
340
0
 46
0.0
 50
0.0
 44
0.0
 45
0.0
  0
ENDTAB
  0
TABLE
  2
LAYER
  5
2
330
0
100
AcDbSymbolTable
 70
     2
  0
LAYER
  5
10
330
2
100
AcDbSymbolTableRecord
100
AcDbLayerTableRecord
  2
0
 70
     0
 62
     7
  6
CONTINUOUS
370
    -3
390
F
  0
LAYER
  5
53
330
2
100
AcDbSymbolTableRecord
100
AcDbLayerTableRecord
  2
1
 70
     0
 62
     7
  6
CONTINUOUS
370
    -3
390
F
  0
ENDTAB
  0
TABLE
  2
STYLE
  5
3
330
0
100
AcDbSymbolTable
 70
     1
  0
STYLE
  5
11
330
3
100
AcDbSymbolTableRecord
100
AcDbTextStyleTableRecord
  2
Standard
 70
     0
 40
0.0
 41
1.0
 50
0.0
 71
     0
 42
0.2
  3
txt
  4

  0
ENDTAB
  0
TABLE
  2
VIEW
  5
6
330
0
100
AcDbSymbolTable
 70
     8
  0
VIEW
  5
46
330
6
100
AcDbSymbolTableRecord
100
AcDbViewTableRecord
  2
TOP
 70
     0
 40
9.942483
 10
0.0
 20
0.0
 41
13.88718
 11
0.0
 21
0.0
 31
1.0
 12
0.0
 22
0.0
 32
0.0
 42
50.0
 43
29.643875
 44
-29.643875
 50
0.0
 71
     0
281
     0
 72
     0
  0
VIEW
  5
47
330
6
100
AcDbSymbolTableRecord
100
AcDbViewTableRecord
  2
FRONT
 70
     0
 40
59.28775
 10
0.0
 20
0.0
 41
13.88718
 11
0.0
 21
-1.0
 31
0.0
 12
0.0
 22
0.0
 32
0.0
 42
50.0
 43
30.446227
 44
-30.446227
 50
0.0
 71
     0
281
     0
 72
     0
  0
VIEW
  5
48
330
6
100
AcDbSymbolTableRecord
100
AcDbViewTableRecord
  2
RIGHT
 70
     0
 40
59.28775
 10
0.0
 20
0.0
 41
9.942483
 11
1.0
 21
0.0
 31
0.0
 12
0.0
 22
0.0
 32
0.0
 42
50.0
 43
30.05782
 44
-30.05782
 50
0.0
 71
     0
281
     0
 72
     0
  0
VIEW
  5
49
330
6
100
AcDbSymbolTableRecord
100
AcDbViewTableRecord
  2
BACK
 70
     0
 40
59.28775
 10
0.0
 20
0.0
 41
13.88718
 11
0.0
 21
1.0
 31
0.0
 12
0.0
 22
0.0
 32
0.0
 42
50.0
 43
30.446227
 44
-30.446227
 50
0.0
 71
     0
281
     0
 72
     0
  0
VIEW
  5
4A
330
6
100
AcDbSymbolTableRecord
100
AcDbViewTableRecord
  2
BOTTOM
 70
     0
 40
9.942483
 10
0.0
 20
0.0
 41
13.88718
 11
0.0
 21
0.0
 31
-1.0
 12
0.0
 22
0.0
 32
0.0
 42
50.0
 43
29.643875
 44
-29.643875
 50
180.0
 71
     0
281
     0
 72
     0
  0
VIEW
  5
4B
330
6
100
AcDbSymbolTableRecord
100
AcDbViewTableRecord
  2
LEFT
 70
     0
 40
59.28775
 10
0.0
 20
0.0
 41
9.942483
 11
-1.0
 21
0.0
 31
0.0
 12
0.0
 22
0.0
 32
0.0
 42
50.0
 43
30.05782
 44
-30.05782
 50
0.0
 71
     0
281
     0
 72
     0
  0
VIEW
  5
4C
330
6
100
AcDbSymbolTableRecord
100
AcDbViewTableRecord
  2
TFR-ISO
 70
     0
 40
58.136664
 10
0.0
 20
0.0
 41
16.850116
 11
0.5773502691896258
 21
-0.5773502691896258
 31
0.5773502691896258
 12
0.0
 22
0.0
 32
0.0
 42
50.0
 43
30.264658
 44
-30.264658
 50
0.0
 71
     0
281
     0
 72
     0
  0
VIEW
  5
4D
330
6
100
AcDbSymbolTableRecord
100
AcDbViewTableRecord
  2
TFR-TRI
 70
     0
 40
61.350868
 10
0.0
 20
0.0
 41
16.477288
 11
0.7188730927569434
 21
-0.5850486126764431
 31
0.3754192287502549
 12
0.0
 22
0.0
 32
0.0
 42
50.0
 43
31.762517
 44
-31.762517
 50
0.0
 71
     0
281
     0
 72
     0
  0
ENDTAB
  0
TABLE
  2
UCS
  5
7
330
0
100
AcDbSymbolTable
 70
     0
  0
ENDTAB
  0
TABLE
  2
APPID
  5
9
330
0
100
AcDbSymbolTable
 70
     1
  0
APPID
  5
12
330
9
100
AcDbSymbolTableRecord
100
AcDbRegAppTableRecord
  2
ACAD
 70
     0
  0
ENDTAB
  0
TABLE
  2
DIMSTYLE
  5
A
330
0
100
AcDbSymbolTable
 70
     1
100
AcDbDimStyleTable
  0
DIMSTYLE
105
27
330
A
100
AcDbSymbolTableRecord
100
AcDbDimStyleTableRecord
  2
Standard
 70
     0
178
     0
340
11
  0
ENDTAB
  0
TABLE
  2
BLOCK_RECORD
  5
1
330
0
100
AcDbSymbolTable
 70
     2
  0
BLOCK_RECORD
  5
1F
330
1
100
AcDbSymbolTableRecord
100
AcDbBlockTableRecord
  2
*Model_Space
340
22
  0
BLOCK_RECORD
  5
4E
330
1
100
AcDbSymbolTableRecord
100
AcDbBlockTableRecord
  2
*PAPER_SPACE
340
23D
  0
ENDTAB
  0
ENDSEC
  0
SECTION
  2
BLOCKS
  0
BLOCK
  5
20
330
1F
100
AcDbEntity
  8
0
100
AcDbBlockBegin
  2
*Model_Space
 70
     0
 10
0.0
 20
0.0
 30
0.0
  3
*Model_Space
  1

  0
ENDBLK
  5
21
330
1F
100
AcDbEntity
  8
0
100
AcDbBlockEnd
  0
BLOCK
  5
4F
330
4E
100
AcDbEntity
 67
     1
  8
0
100
AcDbBlockBegin
  2
*PAPER_SPACE
 70
     0
 10
0.0
 20
0.0
 30
0.0
  3
*PAPER_SPACE
  1

  0
ENDBLK
  5
50
330
4E
100
AcDbEntity
 67
     1
  8
0
100
AcDbBlockEnd
  0
ENDSEC
  0
SECTION
  2
ENTITIES
  0
VIEWPORT
  5
51
330
4E
100
AcDbEntity
 67
     1
  8
0
100
AcDbViewport
 10
8.07754
 20
5.095088
 30
0.0
 40
11.0
 41
8.5
 68
     1
 69
     1
 12
8.07754
 22
5.095088
 13
0.0
 23
0.0
 14
1.0
 24
1.0
 15
1.0
 25
1.0
 16
0.0
 26
0.0
 36
1.0
 17
0.0
 27
0.0
 37
0.0
 42
29.82274
 43
0.0
 44
0.0
 45
8.5
 50
0.0
 51
0.0
 72
   100
 90
   557152
  1

281
     0
 71
     1
 74
     0
110
0.0
120
0.0
130
0.0
111
1.0
121
0.0
131
0.0
112
0.0
122
1.0
132
0.0
 79
     0
146
0.0
  0
LINE
  5
52
330
4E
100
AcDbEntity
 67
     1
  8
1
  6
CONTINUOUS
 62
    18
100
AcDbLine
 10
1.931568
 20
4.289641
 30
0.0
 11
1.931568
 21
4.352141
 31
0.0
  0
LINE
  5
54
330
4E
100
AcDbEntity
 67
     1
  8
1
  6
CONTINUOUS
 62
    18
100
AcDbLine
 10
1.931568
 20
4.258391
 30
0.0
 11
1.931568
 21
4.133391
 31
0.0
  0
LINE
  5
55
330
4E
100
AcDbEntity
 67
     1
  8
1
  6
CONTINUOUS
 62
    18
100
AcDbLine
 10
1.931568
 20
4.383391
 30
0.0
 11
1.931568
 21
4.508391
 31
0.0
  0
LINE
  5
56
330
4E
100
AcDbEntity
 67
     1
  8
1
  6
CONTINUOUS
 62
    18
100
AcDbLine
 10
2.915568
 20
4.289641
 30
0.0
 11
2.915568
 21
4.352141
 31
0.0
  0
LINE
  5
57
330
4E
100
AcDbEntity
 67
     1
  8
1
  6
CONTINUOUS
 62
    18
100
AcDbLine
 10
2.915568
 20
4.258391
 30
0.0
 11
2.915568
 21
4.133391
 31
0.0
  0
LINE
  5
58
330
4E
100
AcDbEntity
 67
     1
  8
1
  6
CONTINUOUS
 62
    18
100
AcDbLine
 10
2.915568
 20
4.383391
 30
0.0
 11
2.915568
 21
4.508391
 31
0.0
  0
LINE
  5
59
330
4E
100
AcDbEntity
 67
     1
  8
1
  6
CONTINUOUS
 62
    18
100
AcDbLine
 10
1.869068
 20
4.320891
 30
0.0
 11
1.744068
 21
4.320891
 31
0.0
  0
LINE
  5
5A
330
4E
100
AcDbEntity
 67
     1
  8
1
  6
CONTINUOUS
 62
    18
100
AcDbLine
 10
1.900318
 20
4.320891
 30
0.0
 11
1.962818
 21
4.320891
 31
0.0
  0
LINE
  5
5B
330
4E
100
AcDbEntity
 67
     1
  8
1
  6
CONTINUOUS
 62
    18
100
AcDbLine
 10
1.994068
 20
4.320891
 30
0.0
 11
2.361068
 21
4.320891
 31
0.0
  0
LINE
  5
5C
330
4E
100
AcDbEntity
 67
     1
  8
1
  6
CONTINUOUS
 62
    18
100
AcDbLine
 10
2.392318
 20
4.320891
 30
0.0
 11
2.454818
 21
4.320891
 31
0.0
  0
LINE
  5
5D
330
4E
100
AcDbEntity
 67
     1
  8
1
  6
CONTINUOUS
 62
    18
100
AcDbLine
 10
2.486068
 20
4.320891
 30
0.0
 11
2.853068
 21
4.320891
 31
0.0
  0
LINE
  5
5E
330
4E
100
AcDbEntity
 67
     1
  8
1
  6
CONTINUOUS
 62
    18
100
AcDbLine
 10
2.884318
 20
4.320891
 30
0.0
 11
2.946818
 21
4.320891
 31
0.0
  0
LINE
  5
5F
330
4E
100
AcDbEntity
 67
     1
  8
1
  6
CONTINUOUS
 62
    18
100
AcDbLine
 10
2.884318
 20
4.320891
 30
0.0
 11
2.946818
 21
4.320891
 31
0.0
  0
LINE
  5
60
330
4E
100
AcDbEntity
 67
     1
  8
1
  6
CONTINUOUS
 62
    18
100
AcDbLine
 10
2.978068
 20
4.320891
 30
0.0
 11
3.103068
 21
4.320891
 31
0.0
  0
LINE
  5
61
330
4E
100
AcDbEntity
 67
     1
  8
1
  6
CONTINUOUS
 62
    18
100
AcDbLine
 10
2.096274
 20
6.498661
 30
0.0
 11
2.096274
 21
6.272161
 31
0.0
  0
LINE
  5
62
330
4E
100
AcDbEntity
 67
     1
  8
1
  6
CONTINUOUS
 62
    18
100
AcDbLine
 10
2.750863
 20
6.272161
 30
0.0
 11
2.750863
 21
6.498661
 31
0.0
  0
LINE
  5
63
330
4E
100
AcDbEntity
 67
     1
  8
1
  6
CONTINUOUS
 62
    18
100
AcDbLine
 10
2.096274
 20
5.95616
 30
0.0
 11
2.096274
 21
5.793661
 31
0.0
  0
LINE
  5
64
330
4E
100
AcDbEntity
 67
     1
  8
1
  6
CONTINUOUS
 62
    18
100
AcDbLine
 10
2.750863
 20
5.793661
 30
0.0
 11
2.750863
 21
5.95616
 31
0.0
  0
LINE
  5
65
330
4E
100
AcDbEntity
 67
     1
  8
1
  6
CONTINUOUS
 62
    18
100
AcDbLine
 10
2.164274
 20
5.793661
 30
0.0
 11
2.682863
 21
5.793661
 31
0.0
  0
LINE
  5
66
330
4E
100
AcDbEntity
 67
     1
  8
1
  6
CONTINUOUS
 62
    18
100
AcDbLine
 10
2.164274
 20
5.793661
 30
0.0
 11
2.138251
 21
5.793661
 31
0.0
  0
LINE
  5
67
330
4E
100
AcDbEntity
 67
     1
  8
1
  6
CONTINUOUS
 62
    18
100
AcDbLine
 10
2.138251
 20
5.793661
 30
0.0
 11
2.11619
 21
5.793661
 31
0.0
  0
LINE
  5
68
330
4E
100
AcDbEntity
 67
     1
  8
1
  6
CONTINUOUS
 62
    18
100
AcDbLine
 10
2.11619
 20
5.793661
 30
0.0
 11
2.10145
 21
5.793661
 31
0.0
  0
LINE
  5
69
330
4E
100
AcDbEntity
 67
     1
  8
1
  6
CONTINUOUS
 62
    18
100
AcDbLine
 10
2.10145
 20
5.793661
 30
0.0
 11
2.096274
 21
5.793661
 31
0.0
  0
LINE
  5
6A
330
4E
100
AcDbEntity
 67
     1
  8
1
  6
CONTINUOUS
 62
    18
100
AcDbLine
 10
2.750863
 20
5.793661
 30
0.0
 11
2.745686
 21
5.793661
 31
0.0
  0
LINE
  5
6B
330
4E
100
AcDbEntity
 67
     1
  8
1
  6
CONTINUOUS
 62
    18
100
AcDbLine
 10
2.745686
 20
5.793661
 30
0.0
 11
2.730946
 21
5.793661
 31
0.0
  0
LINE
  5
6C
330
4E
100
AcDbEntity
 67
     1
  8
1
  6
CONTINUOUS
 62
    18
100
AcDbLine
 10
2.730946
 20
5.793661
 30
0.0
 11
2.708885
 21
5.793661
 31
0.0
  0
LINE
  5
6D
330
4E
100
AcDbEntity
 67
     1
  8
1
  6
CONTINUOUS
 62
    18
100
AcDbLine
 10
2.708885
 20
5.793661
 30
0.0
 11
2.682863
 21
5.793661
 31
0.0
  0
LINE
  5
6E
330
4E
100
AcDbEntity
 67
     1
  8
1
  6
CONTINUOUS
 62
    18
100
AcDbLine
 10
2.164274
 20
5.95616
 30
0.0
 11
2.164274
 21
5.793661
 31
0.0
  0
LINE
  5
6F
330
4E
100
AcDbEntity
 67
     1
  8
1
  6
CONTINUOUS
 62
    18
100
AcDbLine
 10
2.682863
 20
5.793661
 30
0.0
 11
2.682863
 21
5.95616
 31
0.0
  0
LINE
  5
70
330
4E
100
AcDbEntity
 67
     1
  8
1
  6
CONTINUOUS
 62
    18
100
AcDbLine
 10
1.864568
 20
6.239161
 30
0.0
 11
2.982568
 21
6.239161
 31
0.0
  0
LINE
  5
71
330
4E
100
AcDbEntity
 67
     1
  8
1
  6
CONTINUOUS
 62
    18
100
AcDbLine
 10
1.864568
 20
6.239161
 30
0.0
 11
1.864568
 21
6.143821
 31
0.0
  0
LINE
  5
72
330
4E
100
AcDbEntity
 67
     1
  8
1
  6
CONTINUOUS
 62
    18
100
AcDbLine
 10
2.982568
 20
6.143821
 30
0.0
 11
2.982568
 21
6.239161
 31
0.0
  0
LINE
  5
73
330
4E
100
AcDbEntity
 67
     1
  8
1
  6
CONTINUOUS
 62
    18
100
AcDbLine
 10
1.814568
 20
6.143821
 30
0.0
 11
1.814568
 21
6.239161
 31
0.0
  0
LINE
  5
74
330
4E
100
AcDbEntity
 67
     1
  8
1
  6
CONTINUOUS
 62
    18
100
AcDbLine
 10
1.814568
 20
6.239161
 30
0.0
 11
1.821267
 21
6.239161
 31
0.0
  0
LINE
  5
75
330
4E
100
AcDbEntity
 67
     1
  8
1
  6
CONTINUOUS
 62
    18
100
AcDbLine
 10
1.821267
 20
6.239161
 30
0.0
 11
1.839568
 21
6.239161
 31
0.0
  0
LINE
  5
76
330
4E
100
AcDbEntity
 67
     1
  8
1
  6
CONTINUOUS
 62
    18
100
AcDbLine
 10
1.839568
 20
6.239161
 30
0.0
 11
1.864568
 21
6.239161
 31
0.0
  0
LINE
  5
77
330
4E
100
AcDbEntity
 67
     1
  8
1
  6
CONTINUOUS
 62
    18
100
AcDbLine
 10
2.982568
 20
6.239161
 30
0.0
 11
3.007568
 21
6.239161
 31
0.0
  0
LINE
  5
78
330
4E
100
AcDbEntity
 67
     1
  8
1
  6
CONTINUOUS
 62
    18
100
AcDbLine
 10
3.007568
 20
6.239161
 30
0.0
 11
3.02587
 21
6.239161
 31
0.0
  0
LINE
  5
79
330
4E
100
AcDbEntity
 67
     1
  8
1
  6
CONTINUOUS
 62
    18
100
AcDbLine
 10
3.02587
 20
6.239161
 30
0.0
 11
3.032568
 21
6.239161
 31
0.0
  0
LINE
  5
7A
330
4E
100
AcDbEntity
 67
     1
  8
1
  6
CONTINUOUS
 62
    18
100
AcDbLine
 10
3.032568
 20
6.239161
 30
0.0
 11
3.032568
 21
6.143821
 31
0.0
  0
LINE
  5
7B
330
4E
100
AcDbEntity
 67
     1
  8
1
  6
CONTINUOUS
 62
    18
100
AcDbLine
 10
1.864568
 20
6.26116
 30
0.0
 11
2.982568
 21
6.26116
 31
0.0
  0
LINE
  5
7C
330
4E
100
AcDbEntity
 67
     1
  8
1
  6
CONTINUOUS
 62
    18
100
AcDbLine
 10
1.864568
 20
6.26116
 30
0.0
 11
1.864568
 21
6.239161
 31
0.0
  0
LINE
  5
7D
330
4E
100
AcDbEntity
 67
     1
  8
1
  6
CONTINUOUS
 62
    18
100
AcDbLine
 10
2.982568
 20
6.239161
 30
0.0
 11
1.864568
 21
6.239161
 31
0.0
  0
LINE
  5
7E
330
4E
100
AcDbEntity
 67
     1
  8
1
  6
CONTINUOUS
 62
    18
100
AcDbLine
 10
2.982568
 20
6.239161
 30
0.0
 11
2.982568
 21
6.26116
 31
0.0
  0
LINE
  5
7F
330
4E
100
AcDbEntity
 67
     1
  8
1
  6
CONTINUOUS
 62
    18
100
AcDbLine
 10
3.032568
 20
6.26116
 30
0.0
 11
3.032568
 21
6.239161
 31
0.0
  0
LINE
  5
80
330
4E
100
AcDbEntity
 67
     1
  8
1
  6
CONTINUOUS
 62
    18
100
AcDbLine
 10
3.032568
 20
6.239161
 30
0.0
 11
3.02587
 21
6.239161
 31
0.0
  0
LINE
  5
81
330
4E
100
AcDbEntity
 67
     1
  8
1
  6
CONTINUOUS
 62
    18
100
AcDbLine
 10
3.02587
 20
6.239161
 30
0.0
 11
3.007568
 21
6.239161
 31
0.0
  0
LINE
  5
82
330
4E
100
AcDbEntity
 67
     1
  8
1
  6
CONTINUOUS
 62
    18
100
AcDbLine
 10
3.007568
 20
6.239161
 30
0.0
 11
2.982568
 21
6.239161
 31
0.0
  0
LINE
  5
83
330
4E
100
AcDbEntity
 67
     1
  8
1
  6
CONTINUOUS
 62
    18
100
AcDbLine
 10
1.864568
 20
6.239161
 30
0.0
 11
1.839568
 21
6.239161
 31
0.0
  0
LINE
  5
84
330
4E
100
AcDbEntity
 67
     1
  8
1
  6
CONTINUOUS
 62
    18
100
AcDbLine
 10
1.839568
 20
6.239161
 30
0.0
 11
1.821267
 21
6.239161
 31
0.0
  0
LINE
  5
85
330
4E
100
AcDbEntity
 67
     1
  8
1
  6
CONTINUOUS
 62
    18
100
AcDbLine
 10
1.821267
 20
6.239161
 30
0.0
 11
1.814568
 21
6.239161
 31
0.0
  0
LINE
  5
86
330
4E
100
AcDbEntity
 67
     1
  8
1
  6
CONTINUOUS
 62
    18
100
AcDbLine
 10
1.814568
 20
6.239161
 30
0.0
 11
1.814568
 21
6.26116
 31
0.0
  0
LINE
  5
87
330
4E
100
AcDbEntity
 67
     1
  8
1
  6
CONTINUOUS
 62
    18
100
AcDbLine
 10
1.814568
 20
6.26116
 30
0.0
 11
1.821267
 21
6.26116
 31
0.0
  0
LINE
  5
88
330
4E
100
AcDbEntity
 67
     1
  8
1
  6
CONTINUOUS
 62
    18
100
AcDbLine
 10
1.821267
 20
6.26116
 30
0.0
 11
1.839568
 21
6.26116
 31
0.0
  0
LINE
  5
89
330
4E
100
AcDbEntity
 67
     1
  8
1
  6
CONTINUOUS
 62
    18
100
AcDbLine
 10
1.839568
 20
6.26116
 30
0.0
 11
1.864568
 21
6.26116
 31
0.0
  0
LINE
  5
8A
330
4E
100
AcDbEntity
 67
     1
  8
1
  6
CONTINUOUS
 62
    18
100
AcDbLine
 10
2.982568
 20
6.26116
 30
0.0
 11
3.007568
 21
6.26116
 31
0.0
  0
LINE
  5
8B
330
4E
100
AcDbEntity
 67
     1
  8
1
  6
CONTINUOUS
 62
    18
100
AcDbLine
 10
3.007568
 20
6.26116
 30
0.0
 11
3.02587
 21
6.26116
 31
0.0
  0
LINE
  5
8C
330
4E
100
AcDbEntity
 67
     1
  8
1
  6
CONTINUOUS
 62
    18
100
AcDbLine
 10
3.02587
 20
6.26116
 30
0.0
 11
3.032568
 21
6.26116
 31
0.0
  0
LINE
  5
8D
330
4E
100
AcDbEntity
 67
     1
  8
1
  6
CONTINUOUS
 62
    18
100
AcDbLine
 10
2.195483
 20
6.272161
 30
0.0
 11
2.195483
 21
6.498661
 31
0.0
  0
LINE
  5
8E
330
4E
100
AcDbEntity
 67
     1
  8
1
  6
CONTINUOUS
 62
    18
100
AcDbLine
 10
2.195483
 20
6.272161
 30
0.0
 11
2.651653
 21
6.272161
 31
0.0
  0
LINE
  5
8F
330
4E
100
AcDbEntity
 67
     1
  8
1
  6
CONTINUOUS
 62
    18
100
AcDbLine
 10
2.651653
 20
6.498661
 30
0.0
 11
2.651653
 21
6.272161
 31
0.0
  0
LINE
  5
90
330
4E
100
AcDbEntity
 67
     1
  8
1
  6
CONTINUOUS
 62
    18
100
AcDbLine
 10
2.651653
 20
6.498661
 30
0.0
 11
2.195483
 21
6.498661
 31
0.0
  0
LINE
  5
91
330
4E
100
AcDbEntity
 67
     1
  8
1
  6
CONTINUOUS
 62
    18
100
AcDbLine
 10
2.097307
 20
6.498661
 30
0.0
 11
2.096532
 21
6.498661
 31
0.0
  0
LINE
  5
92
330
4E
100
AcDbEntity
 67
     1
  8
1
  6
CONTINUOUS
 62
    18
100
AcDbLine
 10
2.096532
 20
6.498661
 30
0.0
 11
2.096274
 21
6.498661
 31
0.0
  0
LINE
  5
93
330
4E
100
AcDbEntity
 67
     1
  8
1
  6
CONTINUOUS
 62
    18
100
AcDbLine
 10
2.128517
 20
6.498661
 30
0.0
 11
2.097307
 21
6.498661
 31
0.0
  0
LINE
  5
94
330
4E
100
AcDbEntity
 67
     1
  8
1
  6
CONTINUOUS
 62
    18
100
AcDbLine
 10
2.195483
 20
6.498661
 30
0.0
 11
2.172226
 21
6.498661
 31
0.0
  0
LINE
  5
95
330
4E
100
AcDbEntity
 67
     1
  8
1
  6
CONTINUOUS
 62
    18
100
AcDbLine
 10
2.172226
 20
6.498661
 30
0.0
 11
2.151774
 21
6.498661
 31
0.0
  0
LINE
  5
96
330
4E
100
AcDbEntity
 67
     1
  8
1
  6
CONTINUOUS
 62
    18
100
AcDbLine
 10
2.151774
 20
6.498661
 30
0.0
 11
2.136594
 21
6.498661
 31
0.0
  0
LINE
  5
97
330
4E
100
AcDbEntity
 67
     1
  8
1
  6
CONTINUOUS
 62
    18
100
AcDbLine
 10
2.136594
 20
6.498661
 30
0.0
 11
2.128517
 21
6.498661
 31
0.0
  0
LINE
  5
98
330
4E
100
AcDbEntity
 67
     1
  8
1
  6
CONTINUOUS
 62
    18
100
AcDbLine
 10
2.71862
 20
6.498661
 30
0.0
 11
2.710543
 21
6.498661
 31
0.0
  0
LINE
  5
99
330
4E
100
AcDbEntity
 67
     1
  8
1
  6
CONTINUOUS
 62
    18
100
AcDbLine
 10
2.710543
 20
6.498661
 30
0.0
 11
2.695363
 21
6.498661
 31
0.0
  0
LINE
  5
9A
330
4E
100
AcDbEntity
 67
     1
  8
1
  6
CONTINUOUS
 62
    18
100
AcDbLine
 10
2.695363
 20
6.498661
 30
0.0
 11
2.674911
 21
6.498661
 31
0.0
  0
LINE
  5
9B
330
4E
100
AcDbEntity
 67
     1
  8
1
  6
CONTINUOUS
 62
    18
100
AcDbLine
 10
2.674911
 20
6.498661
 30
0.0
 11
2.651653
 21
6.498661
 31
0.0
  0
LINE
  5
9C
330
4E
100
AcDbEntity
 67
     1
  8
1
  6
CONTINUOUS
 62
    18
100
AcDbLine
 10
2.71862
 20
6.498661
 30
0.0
 11
2.74983
 21
6.498661
 31
0.0
  0
LINE
  5
9D
330
4E
100
AcDbEntity
 67
     1
  8
1
  6
CONTINUOUS
 62
    18
100
AcDbLine
 10
2.750863
 20
6.498661
 30
0.0
 11
2.750604
 21
6.498661
 31
0.0
  0
LINE
  5
9E
330
4E
100
AcDbEntity
 67
     1
  8
1
  6
CONTINUOUS
 62
    18
100
AcDbLine
 10
2.750604
 20
6.498661
 30
0.0
 11
2.74983
 21
6.498661
 31
0.0
  0
LINE
  5
9F
330
4E
100
AcDbEntity
 67
     1
  8
1
  6
CONTINUOUS
 62
    18
100
AcDbLine
 10
2.097307
 20
6.272161
 30
0.0
 11
2.097307
 21
6.498661
 31
0.0
  0
LINE
  5
A0
330
4E
100
AcDbEntity
 67
     1
  8
1
  6
CONTINUOUS
 62
    18
100
AcDbLine
 10
2.097307
 20
6.272161
 30
0.0
 11
2.128517
 21
6.272161
 31
0.0
  0
LINE
  5
A1
330
4E
100
AcDbEntity
 67
     1
  8
1
  6
CONTINUOUS
 62
    18
100
AcDbLine
 10
2.128517
 20
6.498661
 30
0.0
 11
2.128517
 21
6.272161
 31
0.0
  0
LINE
  5
A2
330
4E
100
AcDbEntity
 67
     1
  8
1
  6
CONTINUOUS
 62
    18
100
AcDbLine
 10
2.71862
 20
6.272161
 30
0.0
 11
2.71862
 21
6.498661
 31
0.0
  0
LINE
  5
A3
330
4E
100
AcDbEntity
 67
     1
  8
1
  6
CONTINUOUS
 62
    18
100
AcDbLine
 10
2.71862
 20
6.272161
 30
0.0
 11
2.74983
 21
6.272161
 31
0.0
  0
LINE
  5
A4
330
4E
100
AcDbEntity
 67
     1
  8
1
  6
CONTINUOUS
 62
    18
100
AcDbLine
 10
2.74983
 20
6.498661
 30
0.0
 11
2.74983
 21
6.272161
 31
0.0
  0
LINE
  5
A5
330
4E
100
AcDbEntity
 67
     1
  8
1
  6
CONTINUOUS
 62
    18
100
AcDbLine
 10
2.74983
 20
6.272161
 30
0.0
 11
2.750604
 21
6.272161
 31
0.0
  0
LINE
  5
A6
330
4E
100
AcDbEntity
 67
     1
  8
1
  6
CONTINUOUS
 62
    18
100
AcDbLine
 10
2.750604
 20
6.272161
 30
0.0
 11
2.750863
 21
6.272161
 31
0.0
  0
LINE
  5
A7
330
4E
100
AcDbEntity
 67
     1
  8
1
  6
CONTINUOUS
 62
    18
100
AcDbLine
 10
2.096274
 20
6.272161
 30
0.0
 11
2.096532
 21
6.272161
 31
0.0
  0
LINE
  5
A8
330
4E
100
AcDbEntity
 67
     1
  8
1
  6
CONTINUOUS
 62
    18
100
AcDbLine
 10
2.096532
 20
6.272161
 30
0.0
 11
2.097307
 21
6.272161
 31
0.0
  0
LINE
  5
A9
330
4E
100
AcDbEntity
 67
     1
  8
1
  6
CONTINUOUS
 62
    18
100
AcDbLine
 10
2.128517
 20
6.272161
 30
0.0
 11
2.136594
 21
6.272161
 31
0.0
  0
LINE
  5
AA
330
4E
100
AcDbEntity
 67
     1
  8
1
  6
CONTINUOUS
 62
    18
100
AcDbLine
 10
2.136594
 20
6.272161
 30
0.0
 11
2.151774
 21
6.272161
 31
0.0
  0
LINE
  5
AB
330
4E
100
AcDbEntity
 67
     1
  8
1
  6
CONTINUOUS
 62
    18
100
AcDbLine
 10
2.151774
 20
6.272161
 30
0.0
 11
2.172226
 21
6.272161
 31
0.0
  0
LINE
  5
AC
330
4E
100
AcDbEntity
 67
     1
  8
1
  6
CONTINUOUS
 62
    18
100
AcDbLine
 10
2.172226
 20
6.272161
 30
0.0
 11
2.195483
 21
6.272161
 31
0.0
  0
LINE
  5
AD
330
4E
100
AcDbEntity
 67
     1
  8
1
  6
CONTINUOUS
 62
    18
100
AcDbLine
 10
2.651653
 20
6.272161
 30
0.0
 11
2.674911
 21
6.272161
 31
0.0
  0
LINE
  5
AE
330
4E
100
AcDbEntity
 67
     1
  8
1
  6
CONTINUOUS
 62
    18
100
AcDbLine
 10
2.674911
 20
6.272161
 30
0.0
 11
2.695363
 21
6.272161
 31
0.0
  0
LINE
  5
AF
330
4E
100
AcDbEntity
 67
     1
  8
1
  6
CONTINUOUS
 62
    18
100
AcDbLine
 10
2.695363
 20
6.272161
 30
0.0
 11
2.710543
 21
6.272161
 31
0.0
  0
LINE
  5
B0
330
4E
100
AcDbEntity
 67
     1
  8
1
  6
CONTINUOUS
 62
    18
100
AcDbLine
 10
2.710543
 20
6.272161
 30
0.0
 11
2.71862
 21
6.272161
 31
0.0
  0
LINE
  5
B1
330
4E
100
AcDbEntity
 67
     1
  8
1
  6
CONTINUOUS
 62
    18
100
AcDbLine
 10
2.097307
 20
6.272161
 30
0.0
 11
2.094134
 21
6.264382
 31
0.0
  0
LINE
  5
B2
330
4E
100
AcDbEntity
 67
     1
  8
1
  6
CONTINUOUS
 62
    18
100
AcDbLine
 10
2.094134
 20
6.264382
 30
0.0
 11
2.086474
 21
6.26116
 31
0.0
  0
LINE
  5
B3
330
4E
100
AcDbEntity
 67
     1
  8
1
  6
CONTINUOUS
 62
    18
100
AcDbLine
 10
2.128517
 20
6.272161
 30
0.0
 11
2.125344
 21
6.264382
 31
0.0
  0
LINE
  5
B4
330
4E
100
AcDbEntity
 67
     1
  8
1
  6
CONTINUOUS
 62
    18
100
AcDbLine
 10
2.125344
 20
6.264382
 30
0.0
 11
2.117684
 21
6.26116
 31
0.0
  0
LINE
  5
B5
330
4E
100
AcDbEntity
 67
     1
  8
1
  6
CONTINUOUS
 62
    18
100
AcDbLine
 10
2.195483
 20
6.272161
 30
0.0
 11
2.195483
 21
6.264382
 31
0.0
  0
LINE
  5
B6
330
4E
100
AcDbEntity
 67
     1
  8
1
  6
CONTINUOUS
 62
    18
100
AcDbLine
 10
2.195483
 20
6.264382
 30
0.0
 11
2.195483
 21
6.26116
 31
0.0
  0
LINE
  5
B7
330
4E
100
AcDbEntity
 67
     1
  8
1
  6
CONTINUOUS
 62
    18
100
AcDbLine
 10
2.760663
 20
6.26116
 30
0.0
 11
2.753003
 21
6.264382
 31
0.0
  0
LINE
  5
B8
330
4E
100
AcDbEntity
 67
     1
  8
1
  6
CONTINUOUS
 62
    18
100
AcDbLine
 10
2.753003
 20
6.264382
 30
0.0
 11
2.74983
 21
6.272161
 31
0.0
  0
LINE
  5
B9
330
4E
100
AcDbEntity
 67
     1
  8
1
  6
CONTINUOUS
 62
    18
100
AcDbLine
 10
2.651653
 20
6.272161
 30
0.0
 11
2.651653
 21
6.264382
 31
0.0
  0
LINE
  5
BA
330
4E
100
AcDbEntity
 67
     1
  8
1
  6
CONTINUOUS
 62
    18
100
AcDbLine
 10
2.651653
 20
6.264382
 30
0.0
 11
2.651653
 21
6.26116
 31
0.0
  0
LINE
  5
BB
330
4E
100
AcDbEntity
 67
     1
  8
1
  6
CONTINUOUS
 62
    18
100
AcDbLine
 10
2.729453
 20
6.26116
 30
0.0
 11
2.721793
 21
6.264382
 31
0.0
  0
LINE
  5
BC
330
4E
100
AcDbEntity
 67
     1
  8
1
  6
CONTINUOUS
 62
    18
100
AcDbLine
 10
2.721793
 20
6.264382
 30
0.0
 11
2.71862
 21
6.272161
 31
0.0
  0
LINE
  5
BD
330
4E
100
AcDbEntity
 67
     1
  8
1
  6
CONTINUOUS
 62
    18
100
AcDbLine
 10
2.024068
 20
6.26116
 30
0.0
 11
2.024068
 21
6.456161
 31
0.0
  0
LINE
  5
BE
330
4E
100
AcDbEntity
 67
     1
  8
1
  6
CONTINUOUS
 62
    18
100
AcDbLine
 10
1.931568
 20
6.26116
 30
0.0
 11
1.931568
 21
6.456161
 31
0.0
  0
LINE
  5
BF
330
4E
100
AcDbEntity
 67
     1
  8
1
  6
CONTINUOUS
 62
    18
100
AcDbLine
 10
2.024068
 20
6.456161
 30
0.0
 11
1.931568
 21
6.456161
 31
0.0
  0
LINE
  5
C0
330
4E
100
AcDbEntity
 67
     1
  8
1
  6
CONTINUOUS
 62
    18
100
AcDbLine
 10
1.839068
 20
6.26116
 30
0.0
 11
1.839068
 21
6.456161
 31
0.0
  0
LINE
  5
C1
330
4E
100
AcDbEntity
 67
     1
  8
1
  6
CONTINUOUS
 62
    18
100
AcDbLine
 10
1.931568
 20
6.456161
 30
0.0
 11
1.839068
 21
6.456161
 31
0.0
  0
LINE
  5
C2
330
4E
100
AcDbEntity
 67
     1
  8
1
  6
CONTINUOUS
 62
    18
100
AcDbLine
 10
3.008068
 20
6.26116
 30
0.0
 11
3.008068
 21
6.456161
 31
0.0
  0
LINE
  5
C3
330
4E
100
AcDbEntity
 67
     1
  8
1
  6
CONTINUOUS
 62
    18
100
AcDbLine
 10
2.915568
 20
6.26116
 30
0.0
 11
2.915568
 21
6.456161
 31
0.0
  0
LINE
  5
C4
330
4E
100
AcDbEntity
 67
     1
  8
1
  6
CONTINUOUS
 62
    18
100
AcDbLine
 10
3.008068
 20
6.456161
 30
0.0
 11
2.915568
 21
6.456161
 31
0.0
  0
LINE
  5
C5
330
4E
100
AcDbEntity
 67
     1
  8
1
  6
CONTINUOUS
 62
    18
100
AcDbLine
 10
2.823068
 20
6.26116
 30
0.0
 11
2.823068
 21
6.456161
 31
0.0
  0
LINE
  5
C6
330
4E
100
AcDbEntity
 67
     1
  8
1
  6
CONTINUOUS
 62
    18
100
AcDbLine
 10
2.915568
 20
6.456161
 30
0.0
 11
2.823068
 21
6.456161
 31
0.0
  0
LINE
  5
C7
330
4E
100
AcDbEntity
 67
     1
  8
1
  6
CONTINUOUS
 62
    18
100
AcDbLine
 10
1.984973
 20
5.80116
 30
0.0
 11
1.984973
 21
5.956158
 31
0.0
  0
LINE
  5
C8
330
4E
100
AcDbEntity
 67
     1
  8
1
  6
CONTINUOUS
 62
    18
100
AcDbLine
 10
2.038378
 20
5.80116
 30
0.0
 11
1.984973
 21
5.80116
 31
0.0
  0
LINE
  5
C9
330
4E
100
AcDbEntity
 67
     1
  8
1
  6
CONTINUOUS
 62
    18
100
AcDbLine
 10
2.038378
 20
5.80116
 30
0.0
 11
2.038378
 21
5.956158
 31
0.0
  0
LINE
  5
CA
330
4E
100
AcDbEntity
 67
     1
  8
1
  6
CONTINUOUS
 62
    18
100
AcDbLine
 10
1.878163
 20
5.80116
 30
0.0
 11
1.878163
 21
5.956158
 31
0.0
  0
LINE
  5
CB
330
4E
100
AcDbEntity
 67
     1
  8
1
  6
CONTINUOUS
 62
    18
100
AcDbLine
 10
1.984973
 20
5.80116
 30
0.0
 11
1.878163
 21
5.80116
 31
0.0
  0
LINE
  5
CC
330
4E
100
AcDbEntity
 67
     1
  8
1
  6
CONTINUOUS
 62
    18
100
AcDbLine
 10
1.824759
 20
5.80116
 30
0.0
 11
1.824759
 21
5.956158
 31
0.0
  0
LINE
  5
CD
330
4E
100
AcDbEntity
 67
     1
  8
1
  6
CONTINUOUS
 62
    18
100
AcDbLine
 10
1.878163
 20
5.80116
 30
0.0
 11
1.824759
 21
5.80116
 31
0.0
  0
LINE
  5
CE
330
4E
100
AcDbEntity
 67
     1
  8
1
  6
CONTINUOUS
 62
    18
100
AcDbLine
 10
2.968973
 20
5.80116
 30
0.0
 11
2.968973
 21
5.956158
 31
0.0
  0
LINE
  5
CF
330
4E
100
AcDbEntity
 67
     1
  8
1
  6
CONTINUOUS
 62
    18
100
AcDbLine
 10
3.022378
 20
5.80116
 30
0.0
 11
2.968973
 21
5.80116
 31
0.0
  0
LINE
  5
D0
330
4E
100
AcDbEntity
 67
     1
  8
1
  6
CONTINUOUS
 62
    18
100
AcDbLine
 10
3.022378
 20
5.80116
 30
0.0
 11
3.022378
 21
5.956158
 31
0.0
  0
LINE
  5
D1
330
4E
100
AcDbEntity
 67
     1
  8
1
  6
CONTINUOUS
 62
    18
100
AcDbLine
 10
2.862164
 20
5.80116
 30
0.0
 11
2.862164
 21
5.956158
 31
0.0
  0
LINE
  5
D2
330
4E
100
AcDbEntity
 67
     1
  8
1
  6
CONTINUOUS
 62
    18
100
AcDbLine
 10
2.968973
 20
5.80116
 30
0.0
 11
2.862164
 21
5.80116
 31
0.0
  0
LINE
  5
D3
330
4E
100
AcDbEntity
 67
     1
  8
1
  6
CONTINUOUS
 62
    18
100
AcDbLine
 10
2.808758
 20
5.80116
 30
0.0
 11
2.808758
 21
5.956158
 31
0.0
  0
LINE
  5
D4
330
4E
100
AcDbEntity
 67
     1
  8
1
  6
CONTINUOUS
 62
    18
100
AcDbLine
 10
2.862164
 20
5.80116
 30
0.0
 11
2.808758
 21
5.80116
 31
0.0
  0
LINE
  5
D5
330
4E
100
AcDbEntity
 67
     1
  8
1
  6
CONTINUOUS
 62
    18
100
AcDbLine
 10
1.641507
 20
5.956161
 30
0.0
 11
3.20563
 21
5.956161
 31
0.0
  0
LINE
  5
D6
330
4E
100
AcDbEntity
 67
     1
  8
1
  6
CONTINUOUS
 62
    18
100
AcDbLine
 10
1.717673
 20
6.143819
 30
0.0
 11
1.711901
 21
6.474506
 31
0.0
  0
LINE
  5
D7
330
4E
100
AcDbEntity
 67
     1
  8
1
  6
CONTINUOUS
 62
    18
100
AcDbLine
 10
3.129463
 20
6.143819
 30
0.0
 11
3.135236
 21
6.474506
 31
0.0
  0
LINE
  5
D8
330
4E
100
AcDbEntity
 67
     1
  8
1
  6
CONTINUOUS
 62
    18
100
AcDbLine
 10
1.680774
 20
6.474506
 30
0.0
 11
1.711901
 21
6.474506
 31
0.0
  0
LINE
  5
D9
330
4E
100
AcDbEntity
 67
     1
  8
1
  6
CONTINUOUS
 62
    18
100
AcDbLine
 10
1.605718
 20
6.344506
 30
0.0
 11
1.680774
 21
6.474506
 31
0.0
  0
LINE
  5
DA
330
4E
100
AcDbEntity
 67
     1
  8
1
  6
CONTINUOUS
 62
    18
100
AcDbLine
 10
1.605718
 20
6.344506
 30
0.0
 11
1.605718
 21
6.325506
 31
0.0
  0
LINE
  5
DB
330
4E
100
AcDbEntity
 67
     1
  8
1
  6
CONTINUOUS
 62
    18
100
AcDbLine
 10
1.605718
 20
6.325506
 30
0.0
 11
1.640718
 21
6.325506
 31
0.0
  0
LINE
  5
DC
330
4E
100
AcDbEntity
 67
     1
  8
1
  6
CONTINUOUS
 62
    18
100
AcDbLine
 10
1.64389
 20
6.14382
 30
0.0
 11
1.640718
 21
6.325506
 31
0.0
  0
LINE
  5
DD
330
4E
100
AcDbEntity
 67
     1
  8
1
  6
CONTINUOUS
 62
    18
100
AcDbLine
 10
3.206418
 20
6.325506
 30
0.0
 11
3.203247
 21
6.14382
 31
0.0
  0
LINE
  5
DE
330
4E
100
AcDbEntity
 67
     1
  8
1
  6
CONTINUOUS
 62
    18
100
AcDbLine
 10
3.241419
 20
6.325506
 30
0.0
 11
3.206418
 21
6.325506
 31
0.0
  0
LINE
  5
DF
330
4E
100
AcDbEntity
 67
     1
  8
1
  6
CONTINUOUS
 62
    18
100
AcDbLine
 10
3.241419
 20
6.344506
 30
0.0
 11
3.241419
 21
6.325506
 31
0.0
  0
LINE
  5
E0
330
4E
100
AcDbEntity
 67
     1
  8
1
  6
CONTINUOUS
 62
    18
100
AcDbLine
 10
3.241419
 20
6.344506
 30
0.0
 11
3.166363
 21
6.474506
 31
0.0
  0
LINE
  5
E1
330
4E
100
AcDbEntity
 67
     1
  8
1
  6
CONTINUOUS
 62
    18
100
AcDbLine
 10
3.166363
 20
6.474506
 30
0.0
 11
3.135236
 21
6.474506
 31
0.0
  0
LINE
  5
E2
330
4E
100
AcDbEntity
 67
     1
  8
1
  6
CONTINUOUS
 62
    18
100
AcDbLine
 10
1.643144
 20
6.143819
 30
0.0
 11
3.203992
 21
6.143819
 31
0.0
  0
LINE
  5
E3
330
4E
100
AcDbEntity
 67
     1
  8
1
  6
CONTINUOUS
 62
    18
100
AcDbLine
 10
3.20563
 20
5.956161
 30
0.0
 11
3.203992
 21
6.143819
 31
0.0
  0
LINE
  5
E4
330
4E
100
AcDbEntity
 67
     1
  8
1
  6
CONTINUOUS
 62
    18
100
AcDbLine
 10
1.643144
 20
6.143819
 30
0.0
 11
1.641507
 21
5.956161
 31
0.0
  0
LINE
  5
E5
330
4E
100
AcDbEntity
 67
     1
  8
1
  6
CONTINUOUS
 62
    18
100
AcDbLine
 10
2.086474
 20
4.395673
 30
0.0
 11
2.117684
 21
4.218673
 31
0.0
  0
LINE
  5
E6
330
4E
100
AcDbEntity
 67
     1
  8
1
  6
CONTINUOUS
 62
    18
100
AcDbLine
 10
2.682863
 20
4.488391
 30
0.0
 11
2.164274
 21
4.488391
 31
0.0
  0
LINE
  5
E7
330
4E
100
AcDbEntity
 67
     1
  8
1
  6
CONTINUOUS
 62
    18
100
AcDbLine
 10
2.729453
 20
4.218673
 30
0.0
 11
2.760663
 21
4.395673
 31
0.0
  0
LINE
  5
E8
330
4E
100
AcDbEntity
 67
     1
  8
1
  6
CONTINUOUS
 62
    18
100
AcDbLine
 10
2.195483
 20
4.153392
 30
0.0
 11
2.651653
 21
4.153392
 31
0.0
  0
LINE
  5
E9
330
4E
100
AcDbEntity
 67
     1
  8
1
  6
CONTINUOUS
 62
    18
100
AcDbLine
 10
2.195483
 20
4.164392
 30
0.0
 11
2.651653
 21
4.164392
 31
0.0
  0
LINE
  5
EA
330
4E
100
AcDbEntity
 67
     1
  8
1
  6
CONTINUOUS
 62
    18
100
AcDbLine
 10
2.697294
 20
4.224404
 30
0.0
 11
2.728503
 21
4.401404
 31
0.0
  0
LINE
  5
EB
330
4E
100
AcDbEntity
 67
     1
  8
1
  6
CONTINUOUS
 62
    18
100
AcDbLine
 10
2.195144
 20
4.186392
 30
0.0
 11
2.651993
 21
4.186392
 31
0.0
  0
LINE
  5
EC
330
4E
100
AcDbEntity
 67
     1
  8
1
  6
CONTINUOUS
 62
    18
100
AcDbLine
 10
2.149843
 20
4.224404
 30
0.0
 11
2.118633
 21
4.401404
 31
0.0
  0
LINE
  5
ED
330
4E
100
AcDbEntity
 67
     1
  8
1
  6
CONTINUOUS
 62
    18
100
AcDbLine
 10
2.683203
 20
4.455391
 30
0.0
 11
2.163934
 21
4.455391
 31
0.0
  0
LINE
  5
EE
330
4E
100
AcDbEntity
 67
     1
  8
1
  6
CONTINUOUS
 62
    18
100
AcDbLine
 10
2.164274
 20
4.477392
 30
0.0
 11
2.682863
 21
4.477392
 31
0.0
  0
LINE
  5
EF
330
4E
100
AcDbEntity
 67
     1
  8
1
  6
CONTINUOUS
 62
    18
100
AcDbLine
 10
2.128517
 20
4.220583
 30
0.0
 11
2.097307
 21
4.397583
 31
0.0
  0
LINE
  5
F0
330
4E
100
AcDbEntity
 67
     1
  8
1
  6
CONTINUOUS
 62
    18
100
AcDbLine
 10
2.71862
 20
4.220583
 30
0.0
 11
2.74983
 21
4.397583
 31
0.0
  0
LINE
  5
F1
330
4E
100
AcDbEntity
 67
     1
  8
1
  6
CONTINUOUS
 62
    18
100
AcDbLine
 10
2.682863
 20
4.488391
 30
0.0
 11
2.682863
 21
4.480613
 31
0.0
  0
LINE
  5
F2
330
4E
100
AcDbEntity
 67
     1
  8
1
  6
CONTINUOUS
 62
    18
100
AcDbLine
 10
2.682863
 20
4.480613
 30
0.0
 11
2.682863
 21
4.477392
 31
0.0
  0
LINE
  5
F3
330
4E
100
AcDbEntity
 67
     1
  8
1
  6
CONTINUOUS
 62
    18
100
AcDbLine
 10
2.74983
 20
4.397583
 30
0.0
 11
2.753003
 21
4.397024
 31
0.0
  0
LINE
  5
F4
330
4E
100
AcDbEntity
 67
     1
  8
1
  6
CONTINUOUS
 62
    18
100
AcDbLine
 10
2.753003
 20
4.397024
 30
0.0
 11
2.760663
 21
4.395673
 31
0.0
  0
LINE
  5
F5
330
4E
100
AcDbEntity
 67
     1
  8
1
  6
CONTINUOUS
 62
    18
100
AcDbLine
 10
2.71862
 20
4.220583
 30
0.0
 11
2.721793
 21
4.220024
 31
0.0
  0
LINE
  5
F6
330
4E
100
AcDbEntity
 67
     1
  8
1
  6
CONTINUOUS
 62
    18
100
AcDbLine
 10
2.721793
 20
4.220024
 30
0.0
 11
2.729453
 21
4.218673
 31
0.0
  0
LINE
  5
F7
330
4E
100
AcDbEntity
 67
     1
  8
1
  6
CONTINUOUS
 62
    18
100
AcDbLine
 10
2.164274
 20
4.488391
 30
0.0
 11
2.164274
 21
4.480613
 31
0.0
  0
LINE
  5
F8
330
4E
100
AcDbEntity
 67
     1
  8
1
  6
CONTINUOUS
 62
    18
100
AcDbLine
 10
2.164274
 20
4.480613
 30
0.0
 11
2.164274
 21
4.477392
 31
0.0
  0
LINE
  5
F9
330
4E
100
AcDbEntity
 67
     1
  8
1
  6
CONTINUOUS
 62
    18
100
AcDbLine
 10
2.651653
 20
4.164392
 30
0.0
 11
2.651653
 21
4.16117
 31
0.0
  0
LINE
  5
FA
330
4E
100
AcDbEntity
 67
     1
  8
1
  6
CONTINUOUS
 62
    18
100
AcDbLine
 10
2.651653
 20
4.16117
 30
0.0
 11
2.651653
 21
4.153392
 31
0.0
  0
LINE
  5
FB
330
4E
100
AcDbEntity
 67
     1
  8
1
  6
CONTINUOUS
 62
    18
100
AcDbLine
 10
2.086474
 20
4.395673
 30
0.0
 11
2.094134
 21
4.397024
 31
0.0
  0
LINE
  5
FC
330
4E
100
AcDbEntity
 67
     1
  8
1
  6
CONTINUOUS
 62
    18
100
AcDbLine
 10
2.094134
 20
4.397024
 30
0.0
 11
2.097307
 21
4.397583
 31
0.0
  0
LINE
  5
FD
330
4E
100
AcDbEntity
 67
     1
  8
1
  6
CONTINUOUS
 62
    18
100
AcDbLine
 10
2.195483
 20
4.164392
 30
0.0
 11
2.195483
 21
4.16117
 31
0.0
  0
LINE
  5
FE
330
4E
100
AcDbEntity
 67
     1
  8
1
  6
CONTINUOUS
 62
    18
100
AcDbLine
 10
2.195483
 20
4.16117
 30
0.0
 11
2.195483
 21
4.153392
 31
0.0
  0
LINE
  5
FF
330
4E
100
AcDbEntity
 67
     1
  8
1
  6
CONTINUOUS
 62
    18
100
AcDbLine
 10
2.117684
 20
4.218673
 30
0.0
 11
2.125344
 21
4.220024
 31
0.0
  0
LINE
  5
100
330
4E
100
AcDbEntity
 67
     1
  8
1
  6
CONTINUOUS
 62
    18
100
AcDbLine
 10
2.125344
 20
4.220024
 30
0.0
 11
2.128517
 21
4.220583
 31
0.0
  0
LINE
  5
101
330
4E
100
AcDbEntity
 67
     1
  8
1
  6
CONTINUOUS
 62
    18
100
AcDbLine
 10
2.651993
 20
4.186392
 30
0.0
 11
2.195144
 21
4.186392
 31
0.0
  0
LINE
  5
102
330
4E
100
AcDbEntity
 67
     1
  8
1
  6
CONTINUOUS
 62
    18
100
AcDbLine
 10
2.149843
 20
4.224404
 30
0.0
 11
2.118633
 21
4.401404
 31
0.0
  0
LINE
  5
103
330
4E
100
AcDbEntity
 67
     1
  8
1
  6
CONTINUOUS
 62
    18
100
AcDbLine
 10
2.697294
 20
4.224404
 30
0.0
 11
2.728503
 21
4.401404
 31
0.0
  0
LINE
  5
104
330
4E
100
AcDbEntity
 67
     1
  8
1
  6
CONTINUOUS
 62
    18
100
AcDbLine
 10
2.163934
 20
4.455391
 30
0.0
 11
2.683203
 21
4.455391
 31
0.0
  0
LINE
  5
105
330
4E
100
AcDbEntity
 67
     1
  8
1
  6
CONTINUOUS
 62
    18
100
AcDbLine
 10
2.038378
 20
4.320891
 30
0.0
 11
1.984973
 21
4.413392
 31
0.0
  0
LINE
  5
106
330
4E
100
AcDbEntity
 67
     1
  8
1
  6
CONTINUOUS
 62
    18
100
AcDbLine
 10
1.984973
 20
4.413392
 30
0.0
 11
1.878163
 21
4.413392
 31
0.0
  0
LINE
  5
107
330
4E
100
AcDbEntity
 67
     1
  8
1
  6
CONTINUOUS
 62
    18
100
AcDbLine
 10
1.878163
 20
4.413392
 30
0.0
 11
1.824759
 21
4.320891
 31
0.0
  0
LINE
  5
108
330
4E
100
AcDbEntity
 67
     1
  8
1
  6
CONTINUOUS
 62
    18
100
AcDbLine
 10
1.824759
 20
4.320891
 30
0.0
 11
1.878163
 21
4.228392
 31
0.0
  0
LINE
  5
109
330
4E
100
AcDbEntity
 67
     1
  8
1
  6
CONTINUOUS
 62
    18
100
AcDbLine
 10
1.878163
 20
4.228392
 30
0.0
 11
1.984973
 21
4.228392
 31
0.0
  0
LINE
  5
10A
330
4E
100
AcDbEntity
 67
     1
  8
1
  6
CONTINUOUS
 62
    18
100
AcDbLine
 10
1.984973
 20
4.228392
 30
0.0
 11
2.038378
 21
4.320891
 31
0.0
  0
LINE
  5
10B
330
4E
100
AcDbEntity
 67
     1
  8
1
  6
CONTINUOUS
 62
    18
100
AcDbLine
 10
3.022378
 20
4.320891
 30
0.0
 11
2.968973
 21
4.413392
 31
0.0
  0
LINE
  5
10C
330
4E
100
AcDbEntity
 67
     1
  8
1
  6
CONTINUOUS
 62
    18
100
AcDbLine
 10
2.968973
 20
4.413392
 30
0.0
 11
2.862164
 21
4.413392
 31
0.0
  0
LINE
  5
10D
330
4E
100
AcDbEntity
 67
     1
  8
1
  6
CONTINUOUS
 62
    18
100
AcDbLine
 10
2.862164
 20
4.413392
 30
0.0
 11
2.808758
 21
4.320891
 31
0.0
  0
LINE
  5
10E
330
4E
100
AcDbEntity
 67
     1
  8
1
  6
CONTINUOUS
 62
    18
100
AcDbLine
 10
2.808758
 20
4.320891
 30
0.0
 11
2.862164
 21
4.228392
 31
0.0
  0
LINE
  5
10F
330
4E
100
AcDbEntity
 67
     1
  8
1
  6
CONTINUOUS
 62
    18
100
AcDbLine
 10
2.862164
 20
4.228392
 30
0.0
 11
2.968973
 21
4.228392
 31
0.0
  0
LINE
  5
110
330
4E
100
AcDbEntity
 67
     1
  8
1
  6
CONTINUOUS
 62
    18
100
AcDbLine
 10
2.968973
 20
4.228392
 30
0.0
 11
3.022378
 21
4.320891
 31
0.0
  0
LINE
  5
111
330
4E
100
AcDbEntity
 67
     1
  8
1
  6
CONTINUOUS
 62
    18
100
AcDbLine
 10
2.857431
 20
4.230193
 30
0.0
 11
2.84202
 21
4.256885
 31
0.0
  0
LINE
  5
112
330
4E
100
AcDbEntity
 67
     1
  8
1
  6
CONTINUOUS
 62
    18
100
AcDbLine
 10
2.84202
 20
4.256885
 30
0.0
 11
2.83941
 21
4.258391
 31
0.0
  0
LINE
  5
113
330
4E
100
AcDbEntity
 67
     1
  8
1
  6
CONTINUOUS
 62
    18
100
AcDbLine
 10
2.828568
 20
4.258391
 30
0.0
 11
2.83941
 21
4.258391
 31
0.0
  0
LINE
  5
114
330
4E
100
AcDbEntity
 67
     1
  8
1
  6
CONTINUOUS
 62
    18
100
AcDbLine
 10
2.828568
 20
4.258391
 30
0.0
 11
2.828568
 21
4.124892
 31
0.0
  0
LINE
  5
115
330
4E
100
AcDbEntity
 67
     1
  8
1
  6
CONTINUOUS
 62
    18
100
AcDbLine
 10
2.048568
 20
4.094892
 30
0.0
 11
2.798568
 21
4.094892
 31
0.0
  0
LINE
  5
116
330
4E
100
AcDbEntity
 67
     1
  8
1
  6
CONTINUOUS
 62
    18
100
AcDbLine
 10
2.018568
 20
4.258391
 30
0.0
 11
2.018568
 21
4.124892
 31
0.0
  0
LINE
  5
117
330
4E
100
AcDbEntity
 67
     1
  8
1
  6
CONTINUOUS
 62
    18
100
AcDbLine
 10
2.007727
 20
4.258391
 30
0.0
 11
2.018568
 21
4.258391
 31
0.0
  0
LINE
  5
118
330
4E
100
AcDbEntity
 67
     1
  8
1
  6
CONTINUOUS
 62
    18
100
AcDbLine
 10
2.007727
 20
4.258391
 30
0.0
 11
2.005116
 21
4.256885
 31
0.0
  0
LINE
  5
119
330
4E
100
AcDbEntity
 67
     1
  8
1
  6
CONTINUOUS
 62
    18
100
AcDbLine
 10
2.005116
 20
4.256885
 30
0.0
 11
1.989706
 21
4.230193
 31
0.0
  0
LINE
  5
11A
330
4E
100
AcDbEntity
 67
     1
  8
1
  6
CONTINUOUS
 62
    18
100
AcDbLine
 10
1.981047
 20
4.225194
 30
0.0
 11
1.989706
 21
4.230193
 31
0.0
  0
LINE
  5
11B
330
4E
100
AcDbEntity
 67
     1
  8
1
  6
CONTINUOUS
 62
    18
100
AcDbLine
 10
1.981047
 20
4.225194
 30
0.0
 11
1.87409
 21
4.225194
 31
0.0
  0
LINE
  5
11C
330
4E
100
AcDbEntity
 67
     1
  8
1
  6
CONTINUOUS
 62
    18
100
AcDbLine
 10
1.865431
 20
4.230193
 30
0.0
 11
1.87409
 21
4.225194
 31
0.0
  0
LINE
  5
11D
330
4E
100
AcDbEntity
 67
     1
  8
1
  6
CONTINUOUS
 62
    18
100
AcDbLine
 10
1.865431
 20
4.230193
 30
0.0
 11
1.815952
 21
4.315892
 31
0.0
  0
LINE
  5
11E
330
4E
100
AcDbEntity
 67
     1
  8
1
  6
CONTINUOUS
 62
    18
100
AcDbLine
 10
1.815952
 20
4.325891
 30
0.0
 11
1.815952
 21
4.315892
 31
0.0
  0
LINE
  5
11F
330
4E
100
AcDbEntity
 67
     1
  8
1
  6
CONTINUOUS
 62
    18
100
AcDbLine
 10
1.815952
 20
4.325891
 30
0.0
 11
1.865431
 21
4.411591
 31
0.0
  0
LINE
  5
120
330
4E
100
AcDbEntity
 67
     1
  8
1
  6
CONTINUOUS
 62
    18
100
AcDbLine
 10
1.87409
 20
4.41659
 30
0.0
 11
1.865431
 21
4.411591
 31
0.0
  0
LINE
  5
121
330
4E
100
AcDbEntity
 67
     1
  8
1
  6
CONTINUOUS
 62
    18
100
AcDbLine
 10
1.87409
 20
4.41659
 30
0.0
 11
1.981047
 21
4.41659
 31
0.0
  0
LINE
  5
122
330
4E
100
AcDbEntity
 67
     1
  8
1
  6
CONTINUOUS
 62
    18
100
AcDbLine
 10
1.989706
 20
4.411591
 30
0.0
 11
1.981047
 21
4.41659
 31
0.0
  0
LINE
  5
123
330
4E
100
AcDbEntity
 67
     1
  8
1
  6
CONTINUOUS
 62
    18
100
AcDbLine
 10
1.989706
 20
4.411591
 30
0.0
 11
2.005116
 21
4.384899
 31
0.0
  0
LINE
  5
124
330
4E
100
AcDbEntity
 67
     1
  8
1
  6
CONTINUOUS
 62
    18
100
AcDbLine
 10
2.005116
 20
4.384899
 30
0.0
 11
2.007727
 21
4.383391
 31
0.0
  0
LINE
  5
125
330
4E
100
AcDbEntity
 67
     1
  8
1
  6
CONTINUOUS
 62
    18
100
AcDbLine
 10
2.007727
 20
4.383391
 30
0.0
 11
2.018568
 21
4.383391
 31
0.0
  0
LINE
  5
126
330
4E
100
AcDbEntity
 67
     1
  8
1
  6
CONTINUOUS
 62
    18
100
AcDbLine
 10
2.018568
 20
4.516891
 30
0.0
 11
2.018568
 21
4.383391
 31
0.0
  0
LINE
  5
127
330
4E
100
AcDbEntity
 67
     1
  8
1
  6
CONTINUOUS
 62
    18
100
AcDbLine
 10
2.048568
 20
4.546892
 30
0.0
 11
2.798568
 21
4.546892
 31
0.0
  0
LINE
  5
128
330
4E
100
AcDbEntity
 67
     1
  8
1
  6
CONTINUOUS
 62
    18
100
AcDbLine
 10
2.828568
 20
4.516891
 30
0.0
 11
2.828568
 21
4.383391
 31
0.0
  0
LINE
  5
129
330
4E
100
AcDbEntity
 67
     1
  8
1
  6
CONTINUOUS
 62
    18
100
AcDbLine
 10
2.828568
 20
4.383391
 30
0.0
 11
2.83941
 21
4.383391
 31
0.0
  0
LINE
  5
12A
330
4E
100
AcDbEntity
 67
     1
  8
1
  6
CONTINUOUS
 62
    18
100
AcDbLine
 10
2.83941
 20
4.383391
 30
0.0
 11
2.84202
 21
4.384899
 31
0.0
  0
LINE
  5
12B
330
4E
100
AcDbEntity
 67
     1
  8
1
  6
CONTINUOUS
 62
    18
100
AcDbLine
 10
2.84202
 20
4.384899
 30
0.0
 11
2.857431
 21
4.411591
 31
0.0
  0
LINE
  5
12C
330
4E
100
AcDbEntity
 67
     1
  8
1
  6
CONTINUOUS
 62
    18
100
AcDbLine
 10
2.86609
 20
4.41659
 30
0.0
 11
2.857431
 21
4.411591
 31
0.0
  0
LINE
  5
12D
330
4E
100
AcDbEntity
 67
     1
  8
1
  6
CONTINUOUS
 62
    18
100
AcDbLine
 10
2.86609
 20
4.41659
 30
0.0
 11
2.973047
 21
4.41659
 31
0.0
  0
LINE
  5
12E
330
4E
100
AcDbEntity
 67
     1
  8
1
  6
CONTINUOUS
 62
    18
100
AcDbLine
 10
2.981706
 20
4.411591
 30
0.0
 11
2.973047
 21
4.41659
 31
0.0
  0
LINE
  5
12F
330
4E
100
AcDbEntity
 67
     1
  8
1
  6
CONTINUOUS
 62
    18
100
AcDbLine
 10
2.981706
 20
4.411591
 30
0.0
 11
3.031185
 21
4.325891
 31
0.0
  0
LINE
  5
130
330
4E
100
AcDbEntity
 67
     1
  8
1
  6
CONTINUOUS
 62
    18
100
AcDbLine
 10
3.031185
 20
4.315892
 30
0.0
 11
3.031185
 21
4.325891
 31
0.0
  0
LINE
  5
131
330
4E
100
AcDbEntity
 67
     1
  8
1
  6
CONTINUOUS
 62
    18
100
AcDbLine
 10
3.031185
 20
4.315892
 30
0.0
 11
2.981706
 21
4.230193
 31
0.0
  0
LINE
  5
132
330
4E
100
AcDbEntity
 67
     1
  8
1
  6
CONTINUOUS
 62
    18
100
AcDbLine
 10
2.973047
 20
4.225194
 30
0.0
 11
2.981706
 21
4.230193
 31
0.0
  0
LINE
  5
133
330
4E
100
AcDbEntity
 67
     1
  8
1
  6
CONTINUOUS
 62
    18
100
AcDbLine
 10
2.973047
 20
4.225194
 30
0.0
 11
2.86609
 21
4.225194
 31
0.0
  0
LINE
  5
134
330
4E
100
AcDbEntity
 67
     1
  8
1
  6
CONTINUOUS
 62
    18
100
AcDbLine
 10
2.857431
 20
4.230193
 30
0.0
 11
2.86609
 21
4.225194
 31
0.0
  0
LINE
  5
135
330
4E
100
AcDbEntity
 67
     1
  8
1
  6
CONTINUOUS
 62
    18
100
AcDbLine
 10
1.641507
 20
3.874892
 30
0.0
 11
1.641507
 21
4.120892
 31
0.0
  0
LINE
  5
136
330
4E
100
AcDbEntity
 67
     1
  8
1
  6
CONTINUOUS
 62
    18
100
AcDbLine
 10
1.641507
 20
3.874892
 30
0.0
 11
3.20563
 21
3.874892
 31
0.0
  0
LINE
  5
137
330
4E
100
AcDbEntity
 67
     1
  8
1
  6
CONTINUOUS
 62
    18
100
AcDbLine
 10
3.20563
 20
4.120892
 30
0.0
 11
3.20563
 21
3.874892
 31
0.0
  0
LINE
  5
138
330
4E
100
AcDbEntity
 67
     1
  8
1
  6
CONTINUOUS
 62
    18
100
AcDbLine
 10
3.20563
 20
4.120892
 30
0.0
 11
3.199971
 21
4.120892
 31
0.0
  0
LINE
  5
139
330
4E
100
AcDbEntity
 67
     1
  8
1
  6
CONTINUOUS
 62
    18
100
AcDbLine
 10
3.199971
 20
4.120892
 30
0.0
 11
3.199971
 21
4.520892
 31
0.0
  0
LINE
  5
13A
330
4E
100
AcDbEntity
 67
     1
  8
1
  6
CONTINUOUS
 62
    18
100
AcDbLine
 10
3.199971
 20
4.520892
 30
0.0
 11
3.20563
 21
4.520892
 31
0.0
  0
LINE
  5
13B
330
4E
100
AcDbEntity
 67
     1
  8
1
  6
CONTINUOUS
 62
    18
100
AcDbLine
 10
3.20563
 20
4.766891
 30
0.0
 11
3.20563
 21
4.520892
 31
0.0
  0
LINE
  5
13C
330
4E
100
AcDbEntity
 67
     1
  8
1
  6
CONTINUOUS
 62
    18
100
AcDbLine
 10
1.641507
 20
4.766891
 30
0.0
 11
3.20563
 21
4.766891
 31
0.0
  0
LINE
  5
13D
330
4E
100
AcDbEntity
 67
     1
  8
1
  6
CONTINUOUS
 62
    18
100
AcDbLine
 10
1.641507
 20
4.520892
 30
0.0
 11
1.641507
 21
4.766891
 31
0.0
  0
LINE
  5
13E
330
4E
100
AcDbEntity
 67
     1
  8
1
  6
CONTINUOUS
 62
    18
100
AcDbLine
 10
1.647165
 20
4.520892
 30
0.0
 11
1.641507
 21
4.520892
 31
0.0
  0
LINE
  5
13F
330
4E
100
AcDbEntity
 67
     1
  8
1
  6
CONTINUOUS
 62
    18
100
AcDbLine
 10
1.647165
 20
4.120892
 30
0.0
 11
1.647165
 21
4.520892
 31
0.0
  0
LINE
  5
140
330
4E
100
AcDbEntity
 67
     1
  8
1
  6
CONTINUOUS
 62
    18
100
AcDbLine
 10
1.641507
 20
4.120892
 30
0.0
 11
1.647165
 21
4.120892
 31
0.0
  0
LINE
  5
141
330
4E
100
AcDbEntity
 67
     1
  8
1
  6
CONTINUOUS
 62
    18
100
AcDbLine
 10
2.828568
 20
4.258391
 30
0.0
 11
2.82787
 21
4.25909
 31
0.0
  0
LINE
  5
142
330
4E
100
AcDbEntity
 67
     1
  8
1
  6
CONTINUOUS
 62
    18
100
AcDbLine
 10
2.82787
 20
4.25909
 30
0.0
 11
2.82787
 21
4.287791
 31
0.0
  0
LINE
  5
143
330
4E
100
AcDbEntity
 67
     1
  8
1
  6
CONTINUOUS
 62
    18
100
AcDbLine
 10
2.82787
 20
4.353992
 30
0.0
 11
2.82787
 21
4.382693
 31
0.0
  0
LINE
  5
144
330
4E
100
AcDbEntity
 67
     1
  8
1
  6
CONTINUOUS
 62
    18
100
AcDbLine
 10
2.82787
 20
4.382693
 30
0.0
 11
2.828568
 21
4.383391
 31
0.0
  0
LINE
  5
145
330
4E
100
AcDbEntity
 67
     1
  8
1
  6
CONTINUOUS
 62
    18
100
AcDbLine
 10
2.828568
 20
4.516891
 30
0.0
 11
2.827259
 21
4.516891
 31
0.0
  0
LINE
  5
146
330
4E
100
AcDbEntity
 67
     1
  8
1
  6
CONTINUOUS
 62
    18
100
AcDbLine
 10
2.827259
 20
4.124892
 30
0.0
 11
2.827259
 21
4.288852
 31
0.0
  0
LINE
  5
147
330
4E
100
AcDbEntity
 67
     1
  8
1
  6
CONTINUOUS
 62
    18
100
AcDbLine
 10
2.827259
 20
4.352931
 30
0.0
 11
2.827259
 21
4.516891
 31
0.0
  0
LINE
  5
148
330
4E
100
AcDbEntity
 67
     1
  8
1
  6
CONTINUOUS
 62
    18
100
AcDbLine
 10
2.828568
 20
4.124892
 30
0.0
 11
2.827259
 21
4.124892
 31
0.0
  0
LINE
  5
149
330
4E
100
AcDbEntity
 67
     1
  8
1
  6
CONTINUOUS
 62
    18
100
AcDbLine
 10
2.019267
 20
4.382693
 30
0.0
 11
2.019267
 21
4.353992
 31
0.0
  0
LINE
  5
14A
330
4E
100
AcDbEntity
 67
     1
  8
1
  6
CONTINUOUS
 62
    18
100
AcDbLine
 10
2.019267
 20
4.287791
 30
0.0
 11
2.019267
 21
4.25909
 31
0.0
  0
LINE
  5
14B
330
4E
100
AcDbEntity
 67
     1
  8
1
  6
CONTINUOUS
 62
    18
100
AcDbLine
 10
2.019267
 20
4.25909
 30
0.0
 11
2.018568
 21
4.258391
 31
0.0
  0
LINE
  5
14C
330
4E
100
AcDbEntity
 67
     1
  8
1
  6
CONTINUOUS
 62
    18
100
AcDbLine
 10
2.018568
 20
4.124892
 30
0.0
 11
2.019877
 21
4.124892
 31
0.0
  0
LINE
  5
14D
330
4E
100
AcDbEntity
 67
     1
  8
1
  6
CONTINUOUS
 62
    18
100
AcDbLine
 10
2.019877
 20
4.516891
 30
0.0
 11
2.019877
 21
4.352931
 31
0.0
  0
LINE
  5
14E
330
4E
100
AcDbEntity
 67
     1
  8
1
  6
CONTINUOUS
 62
    18
100
AcDbLine
 10
2.019877
 20
4.288852
 30
0.0
 11
2.019877
 21
4.124892
 31
0.0
  0
LINE
  5
14F
330
4E
100
AcDbEntity
 67
     1
  8
1
  6
CONTINUOUS
 62
    18
100
AcDbLine
 10
2.018568
 20
4.516891
 30
0.0
 11
2.019877
 21
4.516891
 31
0.0
  0
LINE
  5
150
330
4E
100
AcDbEntity
 67
     1
  8
1
  6
CONTINUOUS
 62
    18
100
AcDbLine
 10
2.018568
 20
4.383391
 30
0.0
 11
2.019267
 21
4.382693
 31
0.0
  0
LINE
  5
151
330
4E
100
AcDbEntity
 67
     1
  8
1
  6
CONTINUOUS
 62
    18
100
AcDbLine
 10
2.798568
 20
4.545582
 30
0.0
 11
2.048568
 21
4.545582
 31
0.0
  0
LINE
  5
152
330
4E
100
AcDbEntity
 67
     1
  8
1
  6
CONTINUOUS
 62
    18
100
AcDbLine
 10
2.048568
 20
4.096201
 30
0.0
 11
2.798568
 21
4.096201
 31
0.0
  0
LINE
  5
153
330
4E
100
AcDbEntity
 67
     1
  8
1
  6
CONTINUOUS
 62
    18
100
AcDbLine
 10
1.642644
 20
4.125443
 30
0.0
 11
1.641507
 21
4.120892
 31
0.0
  0
LINE
  5
154
330
4E
100
AcDbEntity
 67
     1
  8
1
  6
CONTINUOUS
 62
    18
100
AcDbLine
 10
3.20563
 20
4.120892
 30
0.0
 11
3.204493
 21
4.125443
 31
0.0
  0
LINE
  5
155
330
4E
100
AcDbEntity
 67
     1
  8
1
  6
CONTINUOUS
 62
    18
100
AcDbLine
 10
1.64489
 20
4.125443
 30
0.0
 11
1.642644
 21
4.125443
 31
0.0
  0
LINE
  5
156
330
4E
100
AcDbEntity
 67
     1
  8
1
  6
CONTINUOUS
 62
    18
100
AcDbLine
 10
1.64489
 20
4.158927
 30
0.0
 11
1.64489
 21
4.125443
 31
0.0
  0
LINE
  5
157
330
4E
100
AcDbEntity
 67
     1
  8
1
  6
CONTINUOUS
 62
    18
100
AcDbLine
 10
3.202246
 20
4.158927
 30
0.0
 11
3.202246
 21
4.125443
 31
0.0
  0
LINE
  5
158
330
4E
100
AcDbEntity
 67
     1
  8
1
  6
CONTINUOUS
 62
    18
100
AcDbLine
 10
3.202246
 20
4.125443
 30
0.0
 11
3.204493
 21
4.125443
 31
0.0
  0
LINE
  5
159
330
4E
100
AcDbEntity
 67
     1
  8
1
  6
CONTINUOUS
 62
    18
100
AcDbLine
 10
3.202246
 20
4.51634
 30
0.0
 11
3.204493
 21
4.51634
 31
0.0
  0
LINE
  5
15A
330
4E
100
AcDbEntity
 67
     1
  8
1
  6
CONTINUOUS
 62
    18
100
AcDbLine
 10
3.202246
 20
4.51634
 30
0.0
 11
3.202246
 21
4.482856
 31
0.0
  0
LINE
  5
15B
330
4E
100
AcDbEntity
 67
     1
  8
1
  6
CONTINUOUS
 62
    18
100
AcDbLine
 10
1.64489
 20
4.51634
 30
0.0
 11
1.64489
 21
4.482856
 31
0.0
  0
LINE
  5
15C
330
4E
100
AcDbEntity
 67
     1
  8
1
  6
CONTINUOUS
 62
    18
100
AcDbLine
 10
1.64489
 20
4.51634
 30
0.0
 11
1.642644
 21
4.51634
 31
0.0
  0
LINE
  5
15D
330
4E
100
AcDbEntity
 67
     1
  8
1
  6
CONTINUOUS
 62
    18
100
AcDbLine
 10
1.640718
 20
4.167274
 30
0.0
 11
1.64489
 21
4.158927
 31
0.0
  0
LINE
  5
15E
330
4E
100
AcDbEntity
 67
     1
  8
1
  6
CONTINUOUS
 62
    18
100
AcDbLine
 10
1.640718
 20
4.167274
 30
0.0
 11
1.605718
 21
4.167274
 31
0.0
  0
LINE
  5
15F
330
4E
100
AcDbEntity
 67
     1
  8
1
  6
CONTINUOUS
 62
    18
100
AcDbLine
 10
1.605718
 20
4.47451
 30
0.0
 11
1.640718
 21
4.47451
 31
0.0
  0
LINE
  5
160
330
4E
100
AcDbEntity
 67
     1
  8
1
  6
CONTINUOUS
 62
    18
100
AcDbLine
 10
1.64489
 20
4.482856
 30
0.0
 11
1.640718
 21
4.47451
 31
0.0
  0
LINE
  5
161
330
4E
100
AcDbEntity
 67
     1
  8
1
  6
CONTINUOUS
 62
    18
100
AcDbLine
 10
3.206418
 20
4.47451
 30
0.0
 11
3.202246
 21
4.482856
 31
0.0
  0
LINE
  5
162
330
4E
100
AcDbEntity
 67
     1
  8
1
  6
CONTINUOUS
 62
    18
100
AcDbLine
 10
3.241419
 20
4.47451
 30
0.0
 11
3.206418
 21
4.47451
 31
0.0
  0
LINE
  5
163
330
4E
100
AcDbEntity
 67
     1
  8
1
  6
CONTINUOUS
 62
    18
100
AcDbLine
 10
3.206418
 20
4.167274
 30
0.0
 11
3.241419
 21
4.167274
 31
0.0
  0
LINE
  5
164
330
4E
100
AcDbEntity
 67
     1
  8
1
  6
CONTINUOUS
 62
    18
100
AcDbLine
 10
3.202246
 20
4.158927
 30
0.0
 11
3.206418
 21
4.167274
 31
0.0
  0
LINE
  5
165
330
4E
100
AcDbEntity
 67
     1
  8
1
  6
CONTINUOUS
 62
    18
100
AcDbLine
 10
1.640718
 20
4.167274
 30
0.0
 11
1.640718
 21
4.47451
 31
0.0
  0
LINE
  5
166
330
4E
100
AcDbEntity
 67
     1
  8
1
  6
CONTINUOUS
 62
    18
100
AcDbLine
 10
1.605718
 20
4.167274
 30
0.0
 11
1.605718
 21
4.47451
 31
0.0
  0
LINE
  5
167
330
4E
100
AcDbEntity
 67
     1
  8
1
  6
CONTINUOUS
 62
    18
100
AcDbLine
 10
3.241419
 20
4.167274
 30
0.0
 11
3.241419
 21
4.47451
 31
0.0
  0
LINE
  5
168
330
4E
100
AcDbEntity
 67
     1
  8
1
  6
CONTINUOUS
 62
    18
100
AcDbLine
 10
3.206418
 20
4.167274
 30
0.0
 11
3.206418
 21
4.47451
 31
0.0
  0
LINE
  5
169
330
4E
100
AcDbEntity
 67
     1
  8
1
  6
CONTINUOUS
 62
    18
100
AcDbLine
 10
3.202246
 20
4.51634
 30
0.0
 11
3.199971
 21
4.520892
 31
0.0
  0
LINE
  5
16A
330
4E
100
AcDbEntity
 67
     1
  8
1
  6
CONTINUOUS
 62
    18
100
AcDbLine
 10
3.202246
 20
4.125443
 30
0.0
 11
3.199971
 21
4.120892
 31
0.0
  0
LINE
  5
16B
330
4E
100
AcDbEntity
 67
     1
  8
1
  6
CONTINUOUS
 62
    18
100
AcDbLine
 10
1.64489
 20
4.125443
 30
0.0
 11
1.647165
 21
4.120892
 31
0.0
  0
LINE
  5
16C
330
4E
100
AcDbEntity
 67
     1
  8
1
  6
CONTINUOUS
 62
    18
100
AcDbLine
 10
1.64489
 20
4.51634
 30
0.0
 11
1.647165
 21
4.520892
 31
0.0
  0
LINE
  5
16D
330
4E
100
AcDbEntity
 67
     1
  8
1
  6
CONTINUOUS
 62
    18
100
AcDbLine
 10
3.204493
 20
4.51634
 30
0.0
 11
3.20563
 21
4.520892
 31
0.0
  0
LINE
  5
16E
330
4E
100
AcDbEntity
 67
     1
  8
1
  6
CONTINUOUS
 62
    18
100
AcDbLine
 10
1.641507
 20
4.520892
 30
0.0
 11
1.642644
 21
4.51634
 31
0.0
  0
LINE
  5
16F
330
4E
100
AcDbEntity
 67
     1
  8
1
  6
CONTINUOUS
 62
    18
100
AcDbLine
 10
2.048568
 20
4.094892
 30
0.0
 11
2.048568
 21
4.096201
 31
0.0
  0
LINE
  5
170
330
4E
100
AcDbEntity
 67
     1
  8
1
  6
CONTINUOUS
 62
    18
100
AcDbLine
 10
2.798568
 20
4.094892
 30
0.0
 11
2.798568
 21
4.096201
 31
0.0
  0
LINE
  5
171
330
4E
100
AcDbEntity
 67
     1
  8
1
  6
CONTINUOUS
 62
    18
100
AcDbLine
 10
2.798568
 20
4.546892
 30
0.0
 11
2.798568
 21
4.545582
 31
0.0
  0
LINE
  5
172
330
4E
100
AcDbEntity
 67
     1
  8
1
  6
CONTINUOUS
 62
    18
100
AcDbLine
 10
2.048568
 20
4.546892
 30
0.0
 11
2.048568
 21
4.545582
 31
0.0
  0
LINE
  5
173
330
4E
100
AcDbEntity
 67
     1
  8
1
  6
CONTINUOUS
 62
    18
100
AcDbLine
 10
2.004713
 20
4.257583
 30
0.0
 11
1.989303
 21
4.230891
 31
0.0
  0
LINE
  5
174
330
4E
100
AcDbEntity
 67
     1
  8
1
  6
CONTINUOUS
 62
    18
100
AcDbLine
 10
2.004713
 20
4.257583
 30
0.0
 11
2.007324
 21
4.25909
 31
0.0
  0
LINE
  5
175
330
4E
100
AcDbEntity
 67
     1
  8
1
  6
CONTINUOUS
 62
    18
100
AcDbLine
 10
2.007324
 20
4.25909
 30
0.0
 11
2.019267
 21
4.25909
 31
0.0
  0
LINE
  5
176
330
4E
100
AcDbEntity
 67
     1
  8
1
  6
CONTINUOUS
 62
    18
100
AcDbLine
 10
2.007324
 20
4.382693
 30
0.0
 11
2.019267
 21
4.382693
 31
0.0
  0
LINE
  5
177
330
4E
100
AcDbEntity
 67
     1
  8
1
  6
CONTINUOUS
 62
    18
100
AcDbLine
 10
2.007324
 20
4.382693
 30
0.0
 11
2.004713
 21
4.384201
 31
0.0
  0
LINE
  5
178
330
4E
100
AcDbEntity
 67
     1
  8
1
  6
CONTINUOUS
 62
    18
100
AcDbLine
 10
1.989303
 20
4.410892
 30
0.0
 11
2.004713
 21
4.384201
 31
0.0
  0
LINE
  5
179
330
4E
100
AcDbEntity
 67
     1
  8
1
  6
CONTINUOUS
 62
    18
100
AcDbLine
 10
1.989303
 20
4.410892
 30
0.0
 11
1.980644
 21
4.415892
 31
0.0
  0
LINE
  5
17A
330
4E
100
AcDbEntity
 67
     1
  8
1
  6
CONTINUOUS
 62
    18
100
AcDbLine
 10
1.874493
 20
4.415892
 30
0.0
 11
1.980644
 21
4.415892
 31
0.0
  0
LINE
  5
17B
330
4E
100
AcDbEntity
 67
     1
  8
1
  6
CONTINUOUS
 62
    18
100
AcDbLine
 10
1.874493
 20
4.415892
 30
0.0
 11
1.865834
 21
4.410892
 31
0.0
  0
LINE
  5
17C
330
4E
100
AcDbEntity
 67
     1
  8
1
  6
CONTINUOUS
 62
    18
100
AcDbLine
 10
1.816758
 20
4.325891
 30
0.0
 11
1.865834
 21
4.410892
 31
0.0
  0
LINE
  5
17D
330
4E
100
AcDbEntity
 67
     1
  8
1
  6
CONTINUOUS
 62
    18
100
AcDbLine
 10
1.816758
 20
4.325891
 30
0.0
 11
1.816758
 21
4.315892
 31
0.0
  0
LINE
  5
17E
330
4E
100
AcDbEntity
 67
     1
  8
1
  6
CONTINUOUS
 62
    18
100
AcDbLine
 10
1.865834
 20
4.230891
 30
0.0
 11
1.816758
 21
4.315892
 31
0.0
  0
LINE
  5
17F
330
4E
100
AcDbEntity
 67
     1
  8
1
  6
CONTINUOUS
 62
    18
100
AcDbLine
 10
1.865834
 20
4.230891
 30
0.0
 11
1.874493
 21
4.225892
 31
0.0
  0
LINE
  5
180
330
4E
100
AcDbEntity
 67
     1
  8
1
  6
CONTINUOUS
 62
    18
100
AcDbLine
 10
1.980644
 20
4.225892
 30
0.0
 11
1.874493
 21
4.225892
 31
0.0
  0
LINE
  5
181
330
4E
100
AcDbEntity
 67
     1
  8
1
  6
CONTINUOUS
 62
    18
100
AcDbLine
 10
1.980644
 20
4.225892
 30
0.0
 11
1.989303
 21
4.230891
 31
0.0
  0
LINE
  5
182
330
4E
100
AcDbEntity
 67
     1
  8
1
  6
CONTINUOUS
 62
    18
100
AcDbLine
 10
1.815952
 20
4.325891
 30
0.0
 11
1.816758
 21
4.325891
 31
0.0
  0
LINE
  5
183
330
4E
100
AcDbEntity
 67
     1
  8
1
  6
CONTINUOUS
 62
    18
100
AcDbLine
 10
1.865834
 20
4.410892
 30
0.0
 11
1.865431
 21
4.411591
 31
0.0
  0
LINE
  5
184
330
4E
100
AcDbEntity
 67
     1
  8
1
  6
CONTINUOUS
 62
    18
100
AcDbLine
 10
1.87409
 20
4.41659
 30
0.0
 11
1.874493
 21
4.415892
 31
0.0
  0
LINE
  5
185
330
4E
100
AcDbEntity
 67
     1
  8
1
  6
CONTINUOUS
 62
    18
100
AcDbLine
 10
1.980644
 20
4.415892
 30
0.0
 11
1.981047
 21
4.41659
 31
0.0
  0
LINE
  5
186
330
4E
100
AcDbEntity
 67
     1
  8
1
  6
CONTINUOUS
 62
    18
100
AcDbLine
 10
2.004713
 20
4.384201
 30
0.0
 11
2.005116
 21
4.384899
 31
0.0
  0
LINE
  5
187
330
4E
100
AcDbEntity
 67
     1
  8
1
  6
CONTINUOUS
 62
    18
100
AcDbLine
 10
1.989706
 20
4.411591
 30
0.0
 11
1.989303
 21
4.410892
 31
0.0
  0
LINE
  5
188
330
4E
100
AcDbEntity
 67
     1
  8
1
  6
CONTINUOUS
 62
    18
100
AcDbLine
 10
2.005116
 20
4.256885
 30
0.0
 11
2.004713
 21
4.257583
 31
0.0
  0
LINE
  5
189
330
4E
100
AcDbEntity
 67
     1
  8
1
  6
CONTINUOUS
 62
    18
100
AcDbLine
 10
1.989303
 20
4.230891
 30
0.0
 11
1.989706
 21
4.230193
 31
0.0
  0
LINE
  5
18A
330
4E
100
AcDbEntity
 67
     1
  8
1
  6
CONTINUOUS
 62
    18
100
AcDbLine
 10
1.981047
 20
4.225194
 30
0.0
 11
1.980644
 21
4.225892
 31
0.0
  0
LINE
  5
18B
330
4E
100
AcDbEntity
 67
     1
  8
1
  6
CONTINUOUS
 62
    18
100
AcDbLine
 10
1.874493
 20
4.225892
 30
0.0
 11
1.87409
 21
4.225194
 31
0.0
  0
LINE
  5
18C
330
4E
100
AcDbEntity
 67
     1
  8
1
  6
CONTINUOUS
 62
    18
100
AcDbLine
 10
1.865431
 20
4.230193
 30
0.0
 11
1.865834
 21
4.230891
 31
0.0
  0
LINE
  5
18D
330
4E
100
AcDbEntity
 67
     1
  8
1
  6
CONTINUOUS
 62
    18
100
AcDbLine
 10
1.816758
 20
4.315892
 30
0.0
 11
1.815952
 21
4.315892
 31
0.0
  0
LINE
  5
18E
330
4E
100
AcDbEntity
 67
     1
  8
1
  6
CONTINUOUS
 62
    18
100
AcDbLine
 10
2.82787
 20
4.25909
 30
0.0
 11
2.839813
 21
4.25909
 31
0.0
  0
LINE
  5
18F
330
4E
100
AcDbEntity
 67
     1
  8
1
  6
CONTINUOUS
 62
    18
100
AcDbLine
 10
2.839813
 20
4.25909
 30
0.0
 11
2.842423
 21
4.257583
 31
0.0
  0
LINE
  5
190
330
4E
100
AcDbEntity
 67
     1
  8
1
  6
CONTINUOUS
 62
    18
100
AcDbLine
 10
2.842423
 20
4.257583
 30
0.0
 11
2.857834
 21
4.230891
 31
0.0
  0
LINE
  5
191
330
4E
100
AcDbEntity
 67
     1
  8
1
  6
CONTINUOUS
 62
    18
100
AcDbLine
 10
2.866493
 20
4.225892
 30
0.0
 11
2.857834
 21
4.230891
 31
0.0
  0
LINE
  5
192
330
4E
100
AcDbEntity
 67
     1
  8
1
  6
CONTINUOUS
 62
    18
100
AcDbLine
 10
2.866493
 20
4.225892
 30
0.0
 11
2.972644
 21
4.225892
 31
0.0
  0
LINE
  5
193
330
4E
100
AcDbEntity
 67
     1
  8
1
  6
CONTINUOUS
 62
    18
100
AcDbLine
 10
2.981303
 20
4.230891
 30
0.0
 11
2.972644
 21
4.225892
 31
0.0
  0
LINE
  5
194
330
4E
100
AcDbEntity
 67
     1
  8
1
  6
CONTINUOUS
 62
    18
100
AcDbLine
 10
2.981303
 20
4.230891
 30
0.0
 11
3.030379
 21
4.315892
 31
0.0
  0
LINE
  5
195
330
4E
100
AcDbEntity
 67
     1
  8
1
  6
CONTINUOUS
 62
    18
100
AcDbLine
 10
3.030379
 20
4.325891
 30
0.0
 11
3.030379
 21
4.315892
 31
0.0
  0
LINE
  5
196
330
4E
100
AcDbEntity
 67
     1
  8
1
  6
CONTINUOUS
 62
    18
100
AcDbLine
 10
3.030379
 20
4.325891
 30
0.0
 11
2.981303
 21
4.410892
 31
0.0
  0
LINE
  5
197
330
4E
100
AcDbEntity
 67
     1
  8
1
  6
CONTINUOUS
 62
    18
100
AcDbLine
 10
2.972644
 20
4.415892
 30
0.0
 11
2.981303
 21
4.410892
 31
0.0
  0
LINE
  5
198
330
4E
100
AcDbEntity
 67
     1
  8
1
  6
CONTINUOUS
 62
    18
100
AcDbLine
 10
2.972644
 20
4.415892
 30
0.0
 11
2.866493
 21
4.415892
 31
0.0
  0
LINE
  5
199
330
4E
100
AcDbEntity
 67
     1
  8
1
  6
CONTINUOUS
 62
    18
100
AcDbLine
 10
2.857834
 20
4.410892
 30
0.0
 11
2.866493
 21
4.415892
 31
0.0
  0
LINE
  5
19A
330
4E
100
AcDbEntity
 67
     1
  8
1
  6
CONTINUOUS
 62
    18
100
AcDbLine
 10
2.857834
 20
4.410892
 30
0.0
 11
2.842423
 21
4.384201
 31
0.0
  0
LINE
  5
19B
330
4E
100
AcDbEntity
 67
     1
  8
1
  6
CONTINUOUS
 62
    18
100
AcDbLine
 10
2.842423
 20
4.384201
 30
0.0
 11
2.839813
 21
4.382693
 31
0.0
  0
LINE
  5
19C
330
4E
100
AcDbEntity
 67
     1
  8
1
  6
CONTINUOUS
 62
    18
100
AcDbLine
 10
2.82787
 20
4.382693
 30
0.0
 11
2.839813
 21
4.382693
 31
0.0
  0
LINE
  5
19D
330
4E
100
AcDbEntity
 67
     1
  8
1
  6
CONTINUOUS
 62
    18
100
AcDbLine
 10
2.981303
 20
4.410892
 30
0.0
 11
2.981706
 21
4.411591
 31
0.0
  0
LINE
  5
19E
330
4E
100
AcDbEntity
 67
     1
  8
1
  6
CONTINUOUS
 62
    18
100
AcDbLine
 10
3.031185
 20
4.325891
 30
0.0
 11
3.030379
 21
4.325891
 31
0.0
  0
LINE
  5
19F
330
4E
100
AcDbEntity
 67
     1
  8
1
  6
CONTINUOUS
 62
    18
100
AcDbLine
 10
2.866493
 20
4.415892
 30
0.0
 11
2.86609
 21
4.41659
 31
0.0
  0
LINE
  5
1A0
330
4E
100
AcDbEntity
 67
     1
  8
1
  6
CONTINUOUS
 62
    18
100
AcDbLine
 10
2.973047
 20
4.41659
 30
0.0
 11
2.972644
 21
4.415892
 31
0.0
  0
LINE
  5
1A1
330
4E
100
AcDbEntity
 67
     1
  8
1
  6
CONTINUOUS
 62
    18
100
AcDbLine
 10
2.84202
 20
4.384899
 30
0.0
 11
2.842423
 21
4.384201
 31
0.0
  0
LINE
  5
1A2
330
4E
100
AcDbEntity
 67
     1
  8
1
  6
CONTINUOUS
 62
    18
100
AcDbLine
 10
2.857431
 20
4.411591
 30
0.0
 11
2.857834
 21
4.410892
 31
0.0
  0
LINE
  5
1A3
330
4E
100
AcDbEntity
 67
     1
  8
1
  6
CONTINUOUS
 62
    18
100
AcDbLine
 10
2.842423
 20
4.257583
 30
0.0
 11
2.84202
 21
4.256885
 31
0.0
  0
LINE
  5
1A4
330
4E
100
AcDbEntity
 67
     1
  8
1
  6
CONTINUOUS
 62
    18
100
AcDbLine
 10
2.857834
 20
4.230891
 30
0.0
 11
2.857431
 21
4.230193
 31
0.0
  0
LINE
  5
1A5
330
4E
100
AcDbEntity
 67
     1
  8
1
  6
CONTINUOUS
 62
    18
100
AcDbLine
 10
2.972644
 20
4.225892
 30
0.0
 11
2.973047
 21
4.225194
 31
0.0
  0
LINE
  5
1A6
330
4E
100
AcDbEntity
 67
     1
  8
1
  6
CONTINUOUS
 62
    18
100
AcDbLine
 10
2.86609
 20
4.225194
 30
0.0
 11
2.866493
 21
4.225892
 31
0.0
  0
LINE
  5
1A7
330
4E
100
AcDbEntity
 67
     1
  8
1
  6
CONTINUOUS
 62
    18
100
AcDbLine
 10
3.030379
 20
4.315892
 30
0.0
 11
3.031185
 21
4.315892
 31
0.0
  0
LINE
  5
1A8
330
4E
100
AcDbEntity
 67
     1
  8
1
  6
CONTINUOUS
 62
    18
100
AcDbLine
 10
2.981706
 20
4.230193
 30
0.0
 11
2.981303
 21
4.230891
 31
0.0
  0
LINE
  5
1A9
330
4E
100
AcDbEntity
 67
     1
  8
1
  6
CONTINUOUS
 62
    18
100
AcDbLine
 10
2.83941
 20
4.258391
 30
0.0
 11
2.839813
 21
4.25909
 31
0.0
  0
LINE
  5
1AA
330
4E
100
AcDbEntity
 67
     1
  8
1
  6
CONTINUOUS
 62
    18
100
AcDbLine
 10
2.839813
 20
4.382693
 30
0.0
 11
2.83941
 21
4.383391
 31
0.0
  0
LINE
  5
1AB
330
4E
100
AcDbEntity
 67
     1
  8
1
  6
CONTINUOUS
 62
    18
100
AcDbLine
 10
2.007324
 20
4.25909
 30
0.0
 11
2.007727
 21
4.258391
 31
0.0
  0
LINE
  5
1AC
330
4E
100
AcDbEntity
 67
     1
  8
1
  6
CONTINUOUS
 62
    18
100
AcDbLine
 10
2.007727
 20
4.383391
 30
0.0
 11
2.007324
 21
4.382693
 31
0.0
  0
LINE
  5
1AD
330
4E
100
AcDbEntity
 67
     1
  8
1
  6
CONTINUOUS
 62
    18
100
AcDbLine
 10
4.615241
 20
4.164392
 30
0.0
 11
4.452741
 21
4.164392
 31
0.0
  0
LINE
  5
1AE
330
4E
100
AcDbEntity
 67
     1
  8
1
  6
CONTINUOUS
 62
    18
100
AcDbLine
 10
4.452741
 20
4.164392
 30
0.0
 11
4.452741
 21
4.168492
 31
0.0
  0
LINE
  5
1AF
330
4E
100
AcDbEntity
 67
     1
  8
1
  6
CONTINUOUS
 62
    18
100
AcDbLine
 10
4.452741
 20
4.168492
 30
0.0
 11
4.452741
 21
4.180301
 31
0.0
  0
LINE
  5
1B0
330
4E
100
AcDbEntity
 67
     1
  8
1
  6
CONTINUOUS
 62
    18
100
AcDbLine
 10
4.452741
 20
4.180301
 30
0.0
 11
4.452741
 21
4.198391
 31
0.0
  0
LINE
  5
1B1
330
4E
100
AcDbEntity
 67
     1
  8
1
  6
CONTINUOUS
 62
    18
100
AcDbLine
 10
4.452741
 20
4.198391
 30
0.0
 11
4.452741
 21
4.220583
 31
0.0
  0
LINE
  5
1B2
330
4E
100
AcDbEntity
 67
     1
  8
1
  6
CONTINUOUS
 62
    18
100
AcDbLine
 10
4.452741
 20
4.220583
 30
0.0
 11
4.452741
 21
4.397583
 31
0.0
  0
LINE
  5
1B3
330
4E
100
AcDbEntity
 67
     1
  8
1
  6
CONTINUOUS
 62
    18
100
AcDbLine
 10
4.452741
 20
4.397583
 30
0.0
 11
4.452741
 21
4.4212
 31
0.0
  0
LINE
  5
1B4
330
4E
100
AcDbEntity
 67
     1
  8
1
  6
CONTINUOUS
 62
    18
100
AcDbLine
 10
4.452741
 20
4.4212
 30
0.0
 11
4.452741
 21
4.443392
 31
0.0
  0
LINE
  5
1B5
330
4E
100
AcDbEntity
 67
     1
  8
1
  6
CONTINUOUS
 62
    18
100
AcDbLine
 10
4.452741
 20
4.443392
 30
0.0
 11
4.452741
 21
4.461483
 31
0.0
  0
LINE
  5
1B6
330
4E
100
AcDbEntity
 67
     1
  8
1
  6
CONTINUOUS
 62
    18
100
AcDbLine
 10
4.452741
 20
4.461483
 30
0.0
 11
4.452741
 21
4.473291
 31
0.0
  0
LINE
  5
1B7
330
4E
100
AcDbEntity
 67
     1
  8
1
  6
CONTINUOUS
 62
    18
100
AcDbLine
 10
4.452741
 20
4.473291
 30
0.0
 11
4.452741
 21
4.477392
 31
0.0
  0
LINE
  5
1B8
330
4E
100
AcDbEntity
 67
     1
  8
1
  6
CONTINUOUS
 62
    18
100
AcDbLine
 10
4.460244
 20
4.397583
 30
0.0
 11
4.452741
 21
4.397583
 31
0.0
  0
LINE
  5
1B9
330
4E
100
AcDbEntity
 67
     1
  8
1
  6
CONTINUOUS
 62
    18
100
AcDbLine
 10
4.452741
 20
4.220583
 30
0.0
 11
4.615241
 21
4.220583
 31
0.0
  0
LINE
  5
1BA
330
4E
100
AcDbEntity
 67
     1
  8
1
  6
CONTINUOUS
 62
    18
100
AcDbLine
 10
4.452741
 20
4.477392
 30
0.0
 11
4.615241
 21
4.477392
 31
0.0
  0
LINE
  5
1BB
330
4E
100
AcDbEntity
 67
     1
  8
1
  6
CONTINUOUS
 62
    18
100
AcDbLine
 10
4.802901
 20
4.568141
 30
0.0
 11
4.898241
 21
4.568141
 31
0.0
  0
LINE
  5
1BC
330
4E
100
AcDbEntity
 67
     1
  8
1
  6
CONTINUOUS
 62
    18
100
AcDbLine
 10
4.898241
 20
4.123641
 30
0.0
 11
4.898241
 21
4.164263
 31
0.0
  0
LINE
  5
1BD
330
4E
100
AcDbEntity
 67
     1
  8
1
  6
CONTINUOUS
 62
    18
100
AcDbLine
 10
4.898241
 20
4.47752
 30
0.0
 11
4.898241
 21
4.518142
 31
0.0
  0
LINE
  5
1BE
330
4E
100
AcDbEntity
 67
     1
  8
1
  6
CONTINUOUS
 62
    18
100
AcDbLine
 10
4.898241
 20
4.123641
 30
0.0
 11
4.898241
 21
4.098641
 31
0.0
  0
LINE
  5
1BF
330
4E
100
AcDbEntity
 67
     1
  8
1
  6
CONTINUOUS
 62
    18
100
AcDbLine
 10
4.898241
 20
4.098641
 30
0.0
 11
4.898241
 21
4.08034
 31
0.0
  0
LINE
  5
1C0
330
4E
100
AcDbEntity
 67
     1
  8
1
  6
CONTINUOUS
 62
    18
100
AcDbLine
 10
4.898241
 20
4.08034
 30
0.0
 11
4.898241
 21
4.073642
 31
0.0
  0
LINE
  5
1C1
330
4E
100
AcDbEntity
 67
     1
  8
1
  6
CONTINUOUS
 62
    18
100
AcDbLine
 10
4.898241
 20
4.568141
 30
0.0
 11
4.898241
 21
4.561443
 31
0.0
  0
LINE
  5
1C2
330
4E
100
AcDbEntity
 67
     1
  8
1
  6
CONTINUOUS
 62
    18
100
AcDbLine
 10
4.898241
 20
4.561443
 30
0.0
 11
4.898241
 21
4.543142
 31
0.0
  0
LINE
  5
1C3
330
4E
100
AcDbEntity
 67
     1
  8
1
  6
CONTINUOUS
 62
    18
100
AcDbLine
 10
4.898241
 20
4.543142
 30
0.0
 11
4.898241
 21
4.518142
 31
0.0
  0
LINE
  5
1C4
330
4E
100
AcDbEntity
 67
     1
  8
1
  6
CONTINUOUS
 62
    18
100
AcDbLine
 10
4.745573
 20
4.123641
 30
0.0
 11
4.898241
 21
4.123641
 31
0.0
  0
LINE
  5
1C5
330
4E
100
AcDbEntity
 67
     1
  8
1
  6
CONTINUOUS
 62
    18
100
AcDbLine
 10
4.898241
 20
4.518142
 30
0.0
 11
4.745573
 21
4.518142
 31
0.0
  0
LINE
  5
1C6
330
4E
100
AcDbEntity
 67
     1
  8
1
  6
CONTINUOUS
 62
    18
100
AcDbLine
 10
4.898241
 20
4.073642
 30
0.0
 11
4.802901
 21
4.073642
 31
0.0
  0
LINE
  5
1C7
330
4E
100
AcDbEntity
 67
     1
  8
1
  6
CONTINUOUS
 62
    18
100
AcDbLine
 10
4.898241
 20
4.568141
 30
0.0
 11
4.920241
 21
4.568141
 31
0.0
  0
LINE
  5
1C8
330
4E
100
AcDbEntity
 67
     1
  8
1
  6
CONTINUOUS
 62
    18
100
AcDbLine
 10
4.920241
 20
4.123641
 30
0.0
 11
4.920241
 21
4.165027
 31
0.0
  0
LINE
  5
1C9
330
4E
100
AcDbEntity
 67
     1
  8
1
  6
CONTINUOUS
 62
    18
100
AcDbLine
 10
4.920241
 20
4.476756
 30
0.0
 11
4.920241
 21
4.518142
 31
0.0
  0
LINE
  5
1CA
330
4E
100
AcDbEntity
 67
     1
  8
1
  6
CONTINUOUS
 62
    18
100
AcDbLine
 10
4.920241
 20
4.518142
 30
0.0
 11
4.898241
 21
4.518142
 31
0.0
  0
LINE
  5
1CB
330
4E
100
AcDbEntity
 67
     1
  8
1
  6
CONTINUOUS
 62
    18
100
AcDbLine
 10
4.898241
 20
4.123641
 30
0.0
 11
4.898241
 21
4.164263
 31
0.0
  0
LINE
  5
1CC
330
4E
100
AcDbEntity
 67
     1
  8
1
  6
CONTINUOUS
 62
    18
100
AcDbLine
 10
4.898241
 20
4.47752
 30
0.0
 11
4.898241
 21
4.518142
 31
0.0
  0
LINE
  5
1CD
330
4E
100
AcDbEntity
 67
     1
  8
1
  6
CONTINUOUS
 62
    18
100
AcDbLine
 10
4.898241
 20
4.123641
 30
0.0
 11
4.920241
 21
4.123641
 31
0.0
  0
LINE
  5
1CE
330
4E
100
AcDbEntity
 67
     1
  8
1
  6
CONTINUOUS
 62
    18
100
AcDbLine
 10
4.898241
 20
4.073642
 30
0.0
 11
4.898241
 21
4.08034
 31
0.0
  0
LINE
  5
1CF
330
4E
100
AcDbEntity
 67
     1
  8
1
  6
CONTINUOUS
 62
    18
100
AcDbLine
 10
4.898241
 20
4.08034
 30
0.0
 11
4.898241
 21
4.098641
 31
0.0
  0
LINE
  5
1D0
330
4E
100
AcDbEntity
 67
     1
  8
1
  6
CONTINUOUS
 62
    18
100
AcDbLine
 10
4.898241
 20
4.098641
 30
0.0
 11
4.898241
 21
4.123641
 31
0.0
  0
LINE
  5
1D1
330
4E
100
AcDbEntity
 67
     1
  8
1
  6
CONTINUOUS
 62
    18
100
AcDbLine
 10
4.898241
 20
4.518142
 30
0.0
 11
4.898241
 21
4.543142
 31
0.0
  0
LINE
  5
1D2
330
4E
100
AcDbEntity
 67
     1
  8
1
  6
CONTINUOUS
 62
    18
100
AcDbLine
 10
4.898241
 20
4.543142
 30
0.0
 11
4.898241
 21
4.561443
 31
0.0
  0
LINE
  5
1D3
330
4E
100
AcDbEntity
 67
     1
  8
1
  6
CONTINUOUS
 62
    18
100
AcDbLine
 10
4.898241
 20
4.561443
 30
0.0
 11
4.898241
 21
4.568141
 31
0.0
  0
LINE
  5
1D4
330
4E
100
AcDbEntity
 67
     1
  8
1
  6
CONTINUOUS
 62
    18
100
AcDbLine
 10
4.920241
 20
4.073642
 30
0.0
 11
4.898241
 21
4.073642
 31
0.0
  0
LINE
  5
1D5
330
4E
100
AcDbEntity
 67
     1
  8
1
  6
CONTINUOUS
 62
    18
100
AcDbLine
 10
4.920241
 20
4.568141
 30
0.0
 11
4.920241
 21
4.561443
 31
0.0
  0
LINE
  5
1D6
330
4E
100
AcDbEntity
 67
     1
  8
1
  6
CONTINUOUS
 62
    18
100
AcDbLine
 10
4.920241
 20
4.561443
 30
0.0
 11
4.920241
 21
4.543142
 31
0.0
  0
LINE
  5
1D7
330
4E
100
AcDbEntity
 67
     1
  8
1
  6
CONTINUOUS
 62
    18
100
AcDbLine
 10
4.920241
 20
4.543142
 30
0.0
 11
4.920241
 21
4.518142
 31
0.0
  0
LINE
  5
1D8
330
4E
100
AcDbEntity
 67
     1
  8
1
  6
CONTINUOUS
 62
    18
100
AcDbLine
 10
4.920241
 20
4.123641
 30
0.0
 11
4.920241
 21
4.098641
 31
0.0
  0
LINE
  5
1D9
330
4E
100
AcDbEntity
 67
     1
  8
1
  6
CONTINUOUS
 62
    18
100
AcDbLine
 10
4.920241
 20
4.098641
 30
0.0
 11
4.920241
 21
4.08034
 31
0.0
  0
LINE
  5
1DA
330
4E
100
AcDbEntity
 67
     1
  8
1
  6
CONTINUOUS
 62
    18
100
AcDbLine
 10
4.920241
 20
4.08034
 30
0.0
 11
4.920241
 21
4.073642
 31
0.0
  0
LINE
  5
1DB
330
4E
100
AcDbEntity
 67
     1
  8
1
  6
CONTINUOUS
 62
    18
100
AcDbLine
 10
5.157741
 20
4.477392
 30
0.0
 11
4.931241
 21
4.477392
 31
0.0
  0
LINE
  5
1DC
330
4E
100
AcDbEntity
 67
     1
  8
1
  6
CONTINUOUS
 62
    18
100
AcDbLine
 10
5.157741
 20
4.4212
 30
0.0
 11
5.157741
 21
4.443392
 31
0.0
  0
LINE
  5
1DD
330
4E
100
AcDbEntity
 67
     1
  8
1
  6
CONTINUOUS
 62
    18
100
AcDbLine
 10
5.157741
 20
4.443392
 30
0.0
 11
5.157741
 21
4.461483
 31
0.0
  0
LINE
  5
1DE
330
4E
100
AcDbEntity
 67
     1
  8
1
  6
CONTINUOUS
 62
    18
100
AcDbLine
 10
5.157741
 20
4.461483
 30
0.0
 11
5.157741
 21
4.473291
 31
0.0
  0
LINE
  5
1DF
330
4E
100
AcDbEntity
 67
     1
  8
1
  6
CONTINUOUS
 62
    18
100
AcDbLine
 10
5.157741
 20
4.473291
 30
0.0
 11
5.157741
 21
4.477392
 31
0.0
  0
LINE
  5
1E0
330
4E
100
AcDbEntity
 67
     1
  8
1
  6
CONTINUOUS
 62
    18
100
AcDbLine
 10
5.157741
 20
4.4212
 30
0.0
 11
5.157741
 21
4.2442
 31
0.0
  0
LINE
  5
1E1
330
4E
100
AcDbEntity
 67
     1
  8
1
  6
CONTINUOUS
 62
    18
100
AcDbLine
 10
5.157741
 20
4.164392
 30
0.0
 11
5.157741
 21
4.168492
 31
0.0
  0
LINE
  5
1E2
330
4E
100
AcDbEntity
 67
     1
  8
1
  6
CONTINUOUS
 62
    18
100
AcDbLine
 10
5.157741
 20
4.168492
 30
0.0
 11
5.157741
 21
4.180301
 31
0.0
  0
LINE
  5
1E3
330
4E
100
AcDbEntity
 67
     1
  8
1
  6
CONTINUOUS
 62
    18
100
AcDbLine
 10
5.157741
 20
4.180301
 30
0.0
 11
5.157741
 21
4.198391
 31
0.0
  0
LINE
  5
1E4
330
4E
100
AcDbEntity
 67
     1
  8
1
  6
CONTINUOUS
 62
    18
100
AcDbLine
 10
5.157741
 20
4.198391
 30
0.0
 11
5.157741
 21
4.220583
 31
0.0
  0
LINE
  5
1E5
330
4E
100
AcDbEntity
 67
     1
  8
1
  6
CONTINUOUS
 62
    18
100
AcDbLine
 10
5.157741
 20
4.220583
 30
0.0
 11
5.157741
 21
4.2442
 31
0.0
  0
LINE
  5
1E6
330
4E
100
AcDbEntity
 67
     1
  8
1
  6
CONTINUOUS
 62
    18
100
AcDbLine
 10
5.133583
 20
4.4212
 30
0.0
 11
5.157741
 21
4.4212
 31
0.0
  0
LINE
  5
1E7
330
4E
100
AcDbEntity
 67
     1
  8
1
  6
CONTINUOUS
 62
    18
100
AcDbLine
 10
5.157741
 20
4.2442
 30
0.0
 11
5.133583
 21
4.2442
 31
0.0
  0
LINE
  5
1E8
330
4E
100
AcDbEntity
 67
     1
  8
1
  6
CONTINUOUS
 62
    18
100
AcDbLine
 10
4.931241
 20
4.164392
 30
0.0
 11
5.157741
 21
4.164392
 31
0.0
  0
LINE
  5
1E9
330
4E
100
AcDbEntity
 67
     1
  8
1
  6
CONTINUOUS
 62
    18
100
AcDbLine
 10
4.931241
 20
4.165411
 30
0.0
 11
4.931241
 21
4.164647
 31
0.0
  0
LINE
  5
1EA
330
4E
100
AcDbEntity
 67
     1
  8
1
  6
CONTINUOUS
 62
    18
100
AcDbLine
 10
4.931241
 20
4.164647
 30
0.0
 11
4.931241
 21
4.164392
 31
0.0
  0
LINE
  5
1EB
330
4E
100
AcDbEntity
 67
     1
  8
1
  6
CONTINUOUS
 62
    18
100
AcDbLine
 10
4.931241
 20
4.477392
 30
0.0
 11
4.931241
 21
4.477136
 31
0.0
  0
LINE
  5
1EC
330
4E
100
AcDbEntity
 67
     1
  8
1
  6
CONTINUOUS
 62
    18
100
AcDbLine
 10
4.931241
 20
4.477136
 30
0.0
 11
4.931241
 21
4.476372
 31
0.0
  0
LINE
  5
1ED
330
4E
100
AcDbEntity
 67
     1
  8
1
  6
CONTINUOUS
 62
    18
100
AcDbLine
 10
4.460241
 20
4.413392
 30
0.0
 11
4.615238
 21
4.413392
 31
0.0
  0
LINE
  5
1EE
330
4E
100
AcDbEntity
 67
     1
  8
1
  6
CONTINUOUS
 62
    18
100
AcDbLine
 10
4.460241
 20
4.320891
 30
0.0
 11
4.460241
 21
4.413392
 31
0.0
  0
LINE
  5
1EF
330
4E
100
AcDbEntity
 67
     1
  8
1
  6
CONTINUOUS
 62
    18
100
AcDbLine
 10
4.460241
 20
4.320891
 30
0.0
 11
4.615238
 21
4.320891
 31
0.0
  0
LINE
  5
1F0
330
4E
100
AcDbEntity
 67
     1
  8
1
  6
CONTINUOUS
 62
    18
100
AcDbLine
 10
4.460241
 20
4.228392
 30
0.0
 11
4.615238
 21
4.228392
 31
0.0
  0
LINE
  5
1F1
330
4E
100
AcDbEntity
 67
     1
  8
1
  6
CONTINUOUS
 62
    18
100
AcDbLine
 10
4.460241
 20
4.228392
 30
0.0
 11
4.460241
 21
4.320891
 31
0.0
  0
LINE
  5
1F2
330
4E
100
AcDbEntity
 67
     1
  8
1
  6
CONTINUOUS
 62
    18
100
AcDbLine
 10
4.615241
 20
4.120892
 30
0.0
 11
4.615241
 21
3.874892
 31
0.0
  0
LINE
  5
1F3
330
4E
100
AcDbEntity
 67
     1
  8
1
  6
CONTINUOUS
 62
    18
100
AcDbLine
 10
4.615241
 20
4.120892
 30
0.0
 11
4.615241
 21
4.520892
 31
0.0
  0
LINE
  5
1F4
330
4E
100
AcDbEntity
 67
     1
  8
1
  6
CONTINUOUS
 62
    18
100
AcDbLine
 10
4.615241
 20
4.766891
 30
0.0
 11
4.615241
 21
4.520892
 31
0.0
  0
LINE
  5
1F5
330
4E
100
AcDbEntity
 67
     1
  8
1
  6
CONTINUOUS
 62
    18
100
AcDbLine
 10
4.802899
 20
4.001241
 30
0.0
 11
4.802899
 21
4.096169
 31
0.0
  0
LINE
  5
1F6
330
4E
100
AcDbEntity
 67
     1
  8
1
  6
CONTINUOUS
 62
    18
100
AcDbLine
 10
4.802899
 20
3.876529
 30
0.0
 11
4.802899
 21
4.001241
 31
0.0
  0
LINE
  5
1F7
330
4E
100
AcDbEntity
 67
     1
  8
1
  6
CONTINUOUS
 62
    18
100
AcDbLine
 10
4.615241
 20
3.874892
 30
0.0
 11
4.701682
 21
3.875646
 31
0.0
  0
LINE
  5
1F8
330
4E
100
AcDbEntity
 67
     1
  8
1
  6
CONTINUOUS
 62
    18
100
AcDbLine
 10
4.701682
 20
3.875646
 30
0.0
 11
4.701682
 21
4.000358
 31
0.0
  0
LINE
  5
1F9
330
4E
100
AcDbEntity
 67
     1
  8
1
  6
CONTINUOUS
 62
    18
100
AcDbLine
 10
4.802899
 20
4.001241
 30
0.0
 11
4.701682
 21
4.000358
 31
0.0
  0
LINE
  5
1FA
330
4E
100
AcDbEntity
 67
     1
  8
1
  6
CONTINUOUS
 62
    18
100
AcDbLine
 10
4.74557
 20
4.09717
 30
0.0
 11
4.802899
 21
4.096169
 31
0.0
  0
LINE
  5
1FB
330
4E
100
AcDbEntity
 67
     1
  8
1
  6
CONTINUOUS
 62
    18
100
AcDbLine
 10
4.74557
 20
4.09717
 30
0.0
 11
4.74557
 21
4.125443
 31
0.0
  0
LINE
  5
1FC
330
4E
100
AcDbEntity
 67
     1
  8
1
  6
CONTINUOUS
 62
    18
100
AcDbLine
 10
4.615241
 20
4.120892
 30
0.0
 11
4.74557
 21
4.125443
 31
0.0
  0
LINE
  5
1FD
330
4E
100
AcDbEntity
 67
     1
  8
1
  6
CONTINUOUS
 62
    18
100
AcDbLine
 10
4.802899
 20
3.876529
 30
0.0
 11
4.71172
 21
3.875734
 31
0.0
  0
LINE
  5
1FE
330
4E
100
AcDbEntity
 67
     1
  8
1
  6
CONTINUOUS
 62
    18
100
AcDbLine
 10
4.71172
 20
3.875734
 30
0.0
 11
4.71172
 21
4.000445
 31
0.0
  0
LINE
  5
1FF
330
4E
100
AcDbEntity
 67
     1
  8
1
  6
CONTINUOUS
 62
    18
100
AcDbLine
 10
4.71172
 20
3.875734
 30
0.0
 11
4.701682
 21
3.875646
 31
0.0
  0
LINE
  5
200
330
4E
100
AcDbEntity
 67
     1
  8
1
  6
CONTINUOUS
 62
    18
100
AcDbLine
 10
4.74557
 20
4.158927
 30
0.0
 11
4.74557
 21
4.125443
 31
0.0
  0
LINE
  5
201
330
4E
100
AcDbEntity
 67
     1
  8
1
  6
CONTINUOUS
 62
    18
100
AcDbLine
 10
4.74557
 20
4.51634
 30
0.0
 11
4.74557
 21
4.544613
 31
0.0
  0
LINE
  5
202
330
4E
100
AcDbEntity
 67
     1
  8
1
  6
CONTINUOUS
 62
    18
100
AcDbLine
 10
4.74557
 20
4.51634
 30
0.0
 11
4.74557
 21
4.482856
 31
0.0
  0
LINE
  5
203
330
4E
100
AcDbEntity
 67
     1
  8
1
  6
CONTINUOUS
 62
    18
100
AcDbLine
 10
4.74557
 20
4.544613
 30
0.0
 11
4.802899
 21
4.545614
 31
0.0
  0
LINE
  5
204
330
4E
100
AcDbEntity
 67
     1
  8
1
  6
CONTINUOUS
 62
    18
100
AcDbLine
 10
4.984587
 20
4.47451
 30
0.0
 11
4.74557
 21
4.482856
 31
0.0
  0
LINE
  5
205
330
4E
100
AcDbEntity
 67
     1
  8
1
  6
CONTINUOUS
 62
    18
100
AcDbLine
 10
5.003587
 20
4.473846
 30
0.0
 11
4.984587
 21
4.47451
 31
0.0
  0
LINE
  5
206
330
4E
100
AcDbEntity
 67
     1
  8
1
  6
CONTINUOUS
 62
    18
100
AcDbLine
 10
5.003587
 20
4.473846
 30
0.0
 11
5.133587
 21
4.469306
 31
0.0
  0
LINE
  5
207
330
4E
100
AcDbEntity
 67
     1
  8
1
  6
CONTINUOUS
 62
    18
100
AcDbLine
 10
5.133587
 20
4.172477
 30
0.0
 11
5.003587
 21
4.167937
 31
0.0
  0
LINE
  5
208
330
4E
100
AcDbEntity
 67
     1
  8
1
  6
CONTINUOUS
 62
    18
100
AcDbLine
 10
4.984587
 20
4.167274
 30
0.0
 11
5.003587
 21
4.167937
 31
0.0
  0
LINE
  5
209
330
4E
100
AcDbEntity
 67
     1
  8
1
  6
CONTINUOUS
 62
    18
100
AcDbLine
 10
4.74557
 20
4.158927
 30
0.0
 11
4.984587
 21
4.167274
 31
0.0
  0
LINE
  5
20A
330
4E
100
AcDbEntity
 67
     1
  8
1
  6
CONTINUOUS
 62
    18
100
AcDbLine
 10
5.133587
 20
4.172477
 30
0.0
 11
5.133587
 21
4.469306
 31
0.0
  0
LINE
  5
20B
330
4E
100
AcDbEntity
 67
     1
  8
1
  6
CONTINUOUS
 62
    18
100
AcDbLine
 10
5.003587
 20
4.167937
 30
0.0
 11
5.003587
 21
4.473846
 31
0.0
  0
LINE
  5
20C
330
4E
100
AcDbEntity
 67
     1
  8
1
  6
CONTINUOUS
 62
    18
100
AcDbLine
 10
4.984587
 20
4.167274
 30
0.0
 11
4.984587
 21
4.47451
 31
0.0
  0
LINE
  5
20D
330
4E
100
AcDbEntity
 67
     1
  8
1
  6
CONTINUOUS
 62
    18
100
AcDbLine
 10
4.802899
 20
4.545614
 30
0.0
 11
4.802899
 21
4.765254
 31
0.0
  0
LINE
  5
20E
330
4E
100
AcDbEntity
 67
     1
  8
1
  6
CONTINUOUS
 62
    18
100
AcDbLine
 10
4.74557
 20
4.51634
 30
0.0
 11
4.615241
 21
4.520892
 31
0.0
  0
LINE
  5
20F
330
4E
100
AcDbEntity
 67
     1
  8
1
  6
CONTINUOUS
 62
    18
100
AcDbLine
 10
4.615241
 20
4.766891
 30
0.0
 11
4.802899
 21
4.765254
 31
0.0
  0
ARC
  5
210
330
4E
100
AcDbEntity
 67
     1
  8
1
  6
CONTINUOUS
 62
    18
100
AcDbCircle
 10
2.085274
 20
6.272161
 30
0.0
 40
0.0109999999403954
100
AcDbArc
 50
270.0
 51
0.0
  0
ARC
  5
211
330
4E
100
AcDbEntity
 67
     1
  8
1
  6
CONTINUOUS
 62
    18
100
AcDbCircle
 10
2.761863
 20
6.272161
 30
0.0
 40
0.0109999999403954
100
AcDbArc
 50
180.0
 51
270.0
  0
ARC
  5
212
330
4E
100
AcDbEntity
 67
     1
  8
1
  6
CONTINUOUS
 62
    18
100
AcDbCircle
 10
2.164274
 20
4.409391
 30
0.0
 40
0.0790000036358833
100
AcDbArc
 50
90.0
 51
190.0
  0
ARC
  5
213
330
4E
100
AcDbEntity
 67
     1
  8
1
  6
CONTINUOUS
 62
    18
100
AcDbCircle
 10
2.682863
 20
4.409391
 30
0.0
 40
0.0790000036358833
100
AcDbArc
 50
350.0
 51
90.0
  0
ARC
  5
214
330
4E
100
AcDbEntity
 67
     1
  8
1
  6
CONTINUOUS
 62
    18
100
AcDbCircle
 10
2.651653
 20
4.232392
 30
0.0
 40
0.0790000036358833
100
AcDbArc
 50
270.0
 51
350.0
  0
ARC
  5
215
330
4E
100
AcDbEntity
 67
     1
  8
1
  6
CONTINUOUS
 62
    18
100
AcDbCircle
 10
2.195483
 20
4.232392
 30
0.0
 40
0.0790000036358833
100
AcDbArc
 50
190.0
 51
270.0
  0
ARC
  5
216
330
4E
100
AcDbEntity
 67
     1
  8
1
  6
CONTINUOUS
 62
    18
100
AcDbCircle
 10
2.683203
 20
4.409391
 30
0.0
 40
0.046000000089407
100
AcDbArc
 50
350.000001
 51
90.0
  0
ARC
  5
217
330
4E
100
AcDbEntity
 67
     1
  8
1
  6
CONTINUOUS
 62
    18
100
AcDbCircle
 10
2.651993
 20
4.232392
 30
0.0
 40
0.046000000089407
100
AcDbArc
 50
270.0
 51
350.000001
  0
ARC
  5
218
330
4E
100
AcDbEntity
 67
     1
  8
1
  6
CONTINUOUS
 62
    18
100
AcDbCircle
 10
2.195144
 20
4.232392
 30
0.0
 40
0.046000000089407
100
AcDbArc
 50
189.999999
 51
270.0
  0
ARC
  5
219
330
4E
100
AcDbEntity
 67
     1
  8
1
  6
CONTINUOUS
 62
    18
100
AcDbCircle
 10
2.163934
 20
4.409391
 30
0.0
 40
0.046000000089407
100
AcDbArc
 50
90.0
 51
189.999999
  0
ARC
  5
21A
330
4E
100
AcDbEntity
 67
     1
  8
1
  6
CONTINUOUS
 62
    18
100
AcDbCircle
 10
2.164274
 20
4.409391
 30
0.0
 40
0.068000003695488
100
AcDbArc
 50
90.0
 51
190.0
  0
ARC
  5
21B
330
4E
100
AcDbEntity
 67
     1
  8
1
  6
CONTINUOUS
 62
    18
100
AcDbCircle
 10
2.195483
 20
4.232392
 30
0.0
 40
0.068000003695488
100
AcDbArc
 50
190.0
 51
270.0
  0
ARC
  5
21C
330
4E
100
AcDbEntity
 67
     1
  8
1
  6
CONTINUOUS
 62
    18
100
AcDbCircle
 10
2.651653
 20
4.232392
 30
0.0
 40
0.068000003695488
100
AcDbArc
 50
270.0
 51
350.0
  0
ARC
  5
21D
330
4E
100
AcDbEntity
 67
     1
  8
1
  6
CONTINUOUS
 62
    18
100
AcDbCircle
 10
2.682863
 20
4.409391
 30
0.0
 40
0.068000003695488
100
AcDbArc
 50
350.0
 51
90.0
  0
CIRCLE
  5
21E
330
4E
100
AcDbEntity
 67
     1
  8
1
  6
CONTINUOUS
 62
    18
100
AcDbCircle
 10
2.211068
 20
4.392891
 30
0.0
 40
0.0149999996647239
  0
CIRCLE
  5
21F
330
4E
100
AcDbEntity
 67
     1
  8
1
  6
CONTINUOUS
 62
    18
100
AcDbCircle
 10
2.296068
 20
4.392891
 30
0.0
 40
0.0149999996647239
  0
CIRCLE
  5
220
330
4E
100
AcDbEntity
 67
     1
  8
1
  6
CONTINUOUS
 62
    18
100
AcDbCircle
 10
2.381068
 20
4.392891
 30
0.0
 40
0.0149999996647239
  0
CIRCLE
  5
221
330
4E
100
AcDbEntity
 67
     1
  8
1
  6
CONTINUOUS
 62
    18
100
AcDbCircle
 10
2.466068
 20
4.392891
 30
0.0
 40
0.0149999996647239
  0
CIRCLE
  5
222
330
4E
100
AcDbEntity
 67
     1
  8
1
  6
CONTINUOUS
 62
    18
100
AcDbCircle
 10
2.551068
 20
4.392891
 30
0.0
 40
0.0149999996647239
  0
CIRCLE
  5
223
330
4E
100
AcDbEntity
 67
     1
  8
1
  6
CONTINUOUS
 62
    18
100
AcDbCircle
 10
2.593568
 20
4.320891
 30
0.0
 40
0.0149999996647239
  0
CIRCLE
  5
224
330
4E
100
AcDbEntity
 67
     1
  8
1
  6
CONTINUOUS
 62
    18
100
AcDbCircle
 10
2.508568
 20
4.320891
 30
0.0
 40
0.0149999996647239
  0
CIRCLE
  5
225
330
4E
100
AcDbEntity
 67
     1
  8
1
  6
CONTINUOUS
 62
    18
100
AcDbCircle
 10
2.423568
 20
4.320891
 30
0.0
 40
0.0149999996647239
  0
CIRCLE
  5
226
330
4E
100
AcDbEntity
 67
     1
  8
1
  6
CONTINUOUS
 62
    18
100
AcDbCircle
 10
2.338568
 20
4.320891
 30
0.0
 40
0.0149999996647239
  0
CIRCLE
  5
227
330
4E
100
AcDbEntity
 67
     1
  8
1
  6
CONTINUOUS
 62
    18
100
AcDbCircle
 10
2.253568
 20
4.320891
 30
0.0
 40
0.0149999996647239
  0
CIRCLE
  5
228
330
4E
100
AcDbEntity
 67
     1
  8
1
  6
CONTINUOUS
 62
    18
100
AcDbCircle
 10
2.551068
 20
4.248892
 30
0.0
 40
0.0149999996647239
  0
CIRCLE
  5
229
330
4E
100
AcDbEntity
 67
     1
  8
1
  6
CONTINUOUS
 62
    18
100
AcDbCircle
 10
2.466068
 20
4.248892
 30
0.0
 40
0.0149999996647239
  0
CIRCLE
  5
22A
330
4E
100
AcDbEntity
 67
     1
  8
1
  6
CONTINUOUS
 62
    18
100
AcDbCircle
 10
2.381068
 20
4.248892
 30
0.0
 40
0.0149999996647239
  0
CIRCLE
  5
22B
330
4E
100
AcDbEntity
 67
     1
  8
1
  6
CONTINUOUS
 62
    18
100
AcDbCircle
 10
2.296068
 20
4.248892
 30
0.0
 40
0.0149999996647239
  0
CIRCLE
  5
22C
330
4E
100
AcDbEntity
 67
     1
  8
1
  6
CONTINUOUS
 62
    18
100
AcDbCircle
 10
2.211068
 20
4.248892
 30
0.0
 40
0.0149999996647239
  0
ARC
  5
22D
330
4E
100
AcDbEntity
 67
     1
  8
1
  6
CONTINUOUS
 62
    18
100
AcDbCircle
 10
2.683203
 20
4.409391
 30
0.0
 40
0.046000000089407
100
AcDbArc
 50
350.000001
 51
90.0
  0
ARC
  5
22E
330
4E
100
AcDbEntity
 67
     1
  8
1
  6
CONTINUOUS
 62
    18
100
AcDbCircle
 10
2.163934
 20
4.409391
 30
0.0
 40
0.046000000089407
100
AcDbArc
 50
90.0
 51
189.999999
  0
ARC
  5
22F
330
4E
100
AcDbEntity
 67
     1
  8
1
  6
CONTINUOUS
 62
    18
100
AcDbCircle
 10
2.195144
 20
4.232392
 30
0.0
 40
0.046000000089407
100
AcDbArc
 50
189.999999
 51
270.0
  0
ARC
  5
230
330
4E
100
AcDbEntity
 67
     1
  8
1
  6
CONTINUOUS
 62
    18
100
AcDbCircle
 10
2.651993
 20
4.232392
 30
0.0
 40
0.046000000089407
100
AcDbArc
 50
270.0
 51
350.000001
  0
CIRCLE
  5
231
330
4E
100
AcDbEntity
 67
     1
  8
1
  6
CONTINUOUS
 62
    18
100
AcDbCircle
 10
1.931568
 20
4.320891
 30
0.0
 40
0.0399999991059303
  0
CIRCLE
  5
232
330
4E
100
AcDbEntity
 67
     1
  8
1
  6
CONTINUOUS
 62
    18
100
AcDbCircle
 10
2.915568
 20
4.320891
 30
0.0
 40
0.0399999991059303
  0
ARC
  5
233
330
4E
100
AcDbEntity
 67
     1
  8
1
  6
CONTINUOUS
 62
    18
100
AcDbCircle
 10
2.798568
 20
4.124892
 30
0.0
 40
0.0299999993294477
100
AcDbArc
 50
270.0
 51
0.0
  0
ARC
  5
234
330
4E
100
AcDbEntity
 67
     1
  8
1
  6
CONTINUOUS
 62
    18
100
AcDbCircle
 10
2.048568
 20
4.124892
 30
0.0
 40
0.0299999993294477
100
AcDbArc
 50
180.0
 51
270.0
  0
ARC
  5
235
330
4E
100
AcDbEntity
 67
     1
  8
1
  6
CONTINUOUS
 62
    18
100
AcDbCircle
 10
2.048568
 20
4.516891
 30
0.0
 40
0.0299999993294477
100
AcDbArc
 50
90.0
 51
180.0
  0
ARC
  5
236
330
4E
100
AcDbEntity
 67
     1
  8
1
  6
CONTINUOUS
 62
    18
100
AcDbCircle
 10
2.798568
 20
4.516891
 30
0.0
 40
0.0299999993294477
100
AcDbArc
 50
0.0
 51
90.0
  0
ARC
  5
237
330
4E
100
AcDbEntity
 67
     1
  8
1
  6
CONTINUOUS
 62
    18
100
AcDbCircle
 10
2.798568
 20
4.516891
 30
0.0
 40
0.0286908708512783
100
AcDbArc
 50
0.0
 51
90.0
  0
ARC
  5
238
330
4E
100
AcDbEntity
 67
     1
  8
1
  6
CONTINUOUS
 62
    18
100
AcDbCircle
 10
2.048568
 20
4.516891
 30
0.0
 40
0.0286908708512783
100
AcDbArc
 50
90.0
 51
180.0
  0
ARC
  5
239
330
4E
100
AcDbEntity
 67
     1
  8
1
  6
CONTINUOUS
 62
    18
100
AcDbCircle
 10
2.048568
 20
4.124892
 30
0.0
 40
0.0286908708512783
100
AcDbArc
 50
180.0
 51
270.0
  0
ARC
  5
23A
330
4E
100
AcDbEntity
 67
     1
  8
1
  6
CONTINUOUS
 62
    18
100
AcDbCircle
 10
2.798568
 20
4.124892
 30
0.0
 40
0.0286908708512783
100
AcDbArc
 50
270.0
 51
0.0
  0
ARC
  5
23B
330
4E
100
AcDbEntity
 67
     1
  8
1
  6
CONTINUOUS
 62
    18
100
AcDbCircle
 10
4.931241
 20
4.153392
 30
0.0
 40
0.0109999999403954
100
AcDbArc
 50
90.0
 51
180.0
  0
ARC
  5
23C
330
4E
100
AcDbEntity
 67
     1
  8
1
  6
CONTINUOUS
 62
    18
100
AcDbCircle
 10
4.931241
 20
4.488391
 30
0.0
 40
0.0109999999403954
100
AcDbArc
 50
180.0
 51
270.0
  0
ENDSEC
  0
SECTION
  2
OBJECTS
  0
DICTIONARY
  5
C
330
0
100
AcDbDictionary
281
     1
  3
ACAD_GROUP
350
D
  3
ACAD_LAYOUT
350
1A
  3
ACAD_MATERIAL
350
3B
  3
ACAD_MLEADERSTYLE
350
250
  3
ACAD_MLINESTYLE
350
17
  3
ACAD_PLOTSETTINGS
350
19
  3
ACAD_PLOTSTYLENAME
350
E
  3
ACAD_VISUALSTYLE
350
2A
  3
AcDbVariableDictionary
350
24E
  0
DICTIONARY
  5
D
102
{ACAD_REACTORS
330
C
102
}
330
C
100
AcDbDictionary
281
     1
  0
DICTIONARY
  5
1A
102
{ACAD_REACTORS
330
C
102
}
330
C
100
AcDbDictionary
281
     1
  3
Model
350
22
  3
Sheet 1
350
23D
  0
DICTIONARY
  5
3B
102
{ACAD_REACTORS
330
C
102
}
330
C
100
AcDbDictionary
281
     1
  3
BYBLOCK
350
3D
  3
BYLAYER
350
3C
  3
Global
350
3E
  0
DICTIONARY
  5
250
102
{ACAD_REACTORS
330
C
102
}
330
C
100
AcDbDictionary
281
     1
  0
DICTIONARY
  5
17
102
{ACAD_REACTORS
330
C
102
}
330
C
100
AcDbDictionary
281
     1
  3
Standard
350
18
  0
DICTIONARY
  5
19
102
{ACAD_REACTORS
330
C
102
}
330
C
100
AcDbDictionary
281
     1
  0
ACDBDICTIONARYWDFLT
  5
E
102
{ACAD_REACTORS
330
C
102
}
330
C
100
AcDbDictionary
281
     1
  3
Normal
350
F
100
AcDbDictionaryWithDefault
340
F
  0
DICTIONARY
  5
2A
102
{ACAD_REACTORS
330
C
102
}
330
C
100
AcDbDictionary
281
     1
  3
2dWireframe
350
2F
  3
3D Hidden
350
31
  3
3dWireframe
350
30
  3
Basic
350
32
  3
Brighten
350
36
  3
ColorChange
350
3A
  3
Conceptual
350
34
  3
Dim
350
35
  3
Facepattern
350
39
  3
Flat
350
2B
  3
FlatWithEdges
350
2C
  3
Gouraud
350
2D
  3
GouraudWithEdges
350
2E
  3
Linepattern
350
38
  3
Realistic
350
33
  3
Thicken
350
37
  0
DICTIONARY
  5
24E
102
{ACAD_REACTORS
330
C
102
}
330
C
100
AcDbDictionary
281
     1
  3
DIMASSOC
350
251
  3
HIDETEXT
350
252
  0
LAYOUT
  5
22
102
{ACAD_REACTORS
330
1A
102
}
330
1A
100
AcDbPlotSettings
  1

  2
none_device
  4

  6

 40
0.0
 41
0.0
 42
0.0
 43
0.0
 44
0.0
 45
0.0
 46
0.0
 47
0.0
 48
0.0
 49
0.0
140
0.0
141
0.0
142
1.0
143
1.0
 70
  1712
 72
     0
 73
     0
 74
     0
  7

 75
     0
147
1.0
148
0.0
149
0.0
100
AcDbLayout
  1
Model
 70
     1
 71
     0
 10
-0.5
 20
-0.5
 11
5.0
 21
5.0
 12
0.0
 22
0.0
 32
0.0
 14
-0.5
 24
-0.5
 34
-0.5
 15
5.0
 25
5.0
 35
5.0
146
0.0
 13
0.0
 23
0.0
 33
0.0
 16
1.0
 26
0.0
 36
0.0
 17
0.0
 27
1.0
 37
0.0
 76
     0
330
1F
331
29
  0
LAYOUT
  5
23D
102
{ACAD_REACTORS
330
1A
102
}
330
1A
100
AcDbPlotSettings
  1

  2
none_device
  4
ISO_B4_(354.00_x_250.00_MM)
  6

 40
7.5
 41
20.0
 42
7.5
 43
20.0
 44
354.0
 45
250.0
 46
35.333333
 47
0.0
 48
0.0
 49
0.0
140
13.0
141
10.5
142
1.0
143
1.088571
 70
   692
 72
     0
 73
     0
 74
     1
  7

 75
     0
147
0.918635
148
12.7
149
12.7
100
AcDbLayout
  1
Sheet 1
 70
     1
 71
     1
 10
0.0
 20
0.0
 11
11.0
 21
8.5
 12
0.0
 22
0.0
 32
0.0
 14
0.0
 24
0.0
 34
0.0
 15
11.0
 25
8.5
 35
0.0
146
0.0
 13
0.0
 23
0.0
 33
0.0
 16
1.0
 26
0.0
 36
0.0
 17
0.0
 27
1.0
 37
0.0
 76
     0
330
4E
331
51
  0
MATERIAL
  5
3D
102
{ACAD_REACTORS
330
3B
102
}
102
{ACAD_XDICTIONARY
360
275
102
}
330
3B
100
AcDbMaterial
  1
BYBLOCK
  0
MATERIAL
  5
3C
102
{ACAD_REACTORS
330
3B
102
}
102
{ACAD_XDICTIONARY
360
273
102
}
330
3B
100
AcDbMaterial
  1
BYLAYER
  0
MATERIAL
  5
3E
102
{ACAD_REACTORS
330
3B
102
}
102
{ACAD_XDICTIONARY
360
277
102
}
330
3B
100
AcDbMaterial
  1
Global
  0
MLINESTYLE
  5
18
102
{ACAD_REACTORS
330
17
102
}
330
17
100
AcDbMlineStyle
  2
Standard
 70
     0
  3

 62
   256
 51
90.0
 52
90.0
 71
     2
 49
0.5
 62
   256
  6
BYLAYER
 49
-0.5
 62
   256
  6
BYLAYER
  0
ACDBPLACEHOLDER
  5
F
102
{ACAD_REACTORS
330
E
102
}
330
E
  0
VISUALSTYLE
  5
2F
102
{ACAD_REACTORS
330
2A
102
}
102
{ACAD_XDICTIONARY
360
25B
102
}
330
2A
100
AcDbVisualStyle
  2
2dWireframe
 70
     4
 71
     0
 72
     2
 73
     0
 90
        0
 40
-0.6
 41
-30.0
 62
     5
 63
     7
 74
     1
 91
        4
 64
     7
 65
   257
 75
     1
175
     1
 42
1.0
 92
        0
 66
   257
 43
1.0
 76
     1
 77
     6
 78
     2
 67
     7
 79
     5
170
     0
171
     0
290
     0
174
     0
 93
        1
 44
0.0
173
     0
291
     0
 45
0.0
1001
ACAD
1000
AcDbSavedByObjectVersion
1070
     0
  0
VISUALSTYLE
  5
31
102
{ACAD_REACTORS
330
2A
102
}
102
{ACAD_XDICTIONARY
360
25F
102
}
330
2A
100
AcDbVisualStyle
  2
3D Hidden
 70
     6
 71
     1
 72
     2
 73
     2
 90
        0
 40
-0.6
 41
-30.0
 62
     5
 63
     7
 74
     2
 91
        2
 64
     7
 65
   257
 75
     2
175
     1
 42
40.0
 92
        0
 66
   257
 43
1.0
 76
     1
 77
     6
 78
     2
 67
     7
 79
     3
170
     0
171
     0
290
     0
174
     0
 93
        1
 44
0.0
173
     0
291
     0
 45
0.0
1001
ACAD
1000
AcDbSavedByObjectVersion
1070
     0
  0
VISUALSTYLE
  5
30
102
{ACAD_REACTORS
330
2A
102
}
102
{ACAD_XDICTIONARY
360
25D
102
}
330
2A
100
AcDbVisualStyle
  2
3dWireframe
 70
     5
 71
     0
 72
     2
 73
     0
 90
        0
 40
-0.6
 41
-30.0
 62
     5
 63
     7
 74
     1
 91
        4
 64
     7
 65
   257
 75
     1
175
     1
 42
1.0
 92
        0
 66
   257
 43
1.0
 76
     1
 77
     6
 78
     2
 67
     7
 79
     5
170
     0
171
     0
290
     0
174
     0
 93
        1
 44
0.0
173
     0
291
     0
 45
0.0
1001
ACAD
1000
AcDbSavedByObjectVersion
1070
     0
  0
VISUALSTYLE
  5
32
102
{ACAD_REACTORS
330
2A
102
}
102
{ACAD_XDICTIONARY
360
261
102
}
330
2A
100
AcDbVisualStyle
  2
Basic
 70
     7
 71
     1
 72
     0
 73
     1
 90
        0
 40
-0.6
 41
-30.0
 62
     5
 63
     7
 74
     0
 91
        4
 64
     7
 65
   257
 75
     1
175
     1
 42
1.0
 92
        8
 66
     7
 43
1.0
 76
     1
 77
     6
 78
     2
 67
     7
 79
     5
170
     0
171
     0
290
     0
174
     0
 93
        1
 44
0.0
173
     0
291
     1
 45
0.0
1001
ACAD
1000
AcDbSavedByObjectVersion
1070
     0
  0
VISUALSTYLE
  5
36
102
{ACAD_REACTORS
330
2A
102
}
102
{ACAD_XDICTIONARY
360
269
102
}
330
2A
100
AcDbVisualStyle
  2
Brighten
 70
    12
 71
     2
 72
     2
 73
     0
 90
        0
 40
-0.6
 41
-30.0
 62
     5
 63
     7
 74
     1
 91
        4
 64
     7
 65
   257
 75
     1
175
     1
 42
1.0
 92
        8
 66
     7
 43
1.0
 76
     1
 77
     6
 78
     2
 67
     7
 79
     5
170
     0
171
     0
290
     0
174
     0
 93
        1
 44
50.0
173
     0
291
     1
 45
0.0
1001
ACAD
1000
AcDbSavedByObjectVersion
1070
     0
  0
VISUALSTYLE
  5
3A
102
{ACAD_REACTORS
330
2A
102
}
102
{ACAD_XDICTIONARY
360
271
102
}
330
2A
100
AcDbVisualStyle
  2
ColorChange
 70
    16
 71
     2
 72
     2
 73
     3
 90
        0
 40
-0.6
 41
-30.0
 62
     5
 63
     8
 74
     1
 91
        4
 64
     7
 65
   257
 75
     1
175
     1
 42
1.0
 92
        8
 66
     8
 43
1.0
 76
     1
 77
     6
 78
     2
 67
     7
 79
     5
170
     0
171
     0
290
     0
174
     0
 93
        1
 44
0.0
173
     0
291
     1
 45
0.0
1001
ACAD
1000
AcDbSavedByObjectVersion
1070
     0
  0
VISUALSTYLE
  5
34
102
{ACAD_REACTORS
330
2A
102
}
102
{ACAD_XDICTIONARY
360
265
102
}
330
2A
100
AcDbVisualStyle
  2
Conceptual
 70
     9
 71
     3
 72
     2
 73
     0
 90
        0
 40
-0.6
 41
-30.0
 62
     5
 63
     7
 74
     2
 91
        2
 64
     7
 65
   257
 75
     1
175
     1
 42
40.0
 92
        8
 66
     7
 43
1.0
 76
     1
 77
     6
 78
     2
 67
     7
 79
     3
170
     0
171
     0
290
     0
174
     0
 93
        1
 44
0.0
173
     0
291
     0
 45
0.0
1001
ACAD
1000
AcDbSavedByObjectVersion
1070
     0
  0
VISUALSTYLE
  5
35
102
{ACAD_REACTORS
330
2A
102
}
102
{ACAD_XDICTIONARY
360
267
102
}
330
2A
100
AcDbVisualStyle
  2
Dim
 70
    11
 71
     2
 72
     2
 73
     0
 90
        0
 40
-0.6
 41
-30.0
 62
     5
 63
     7
 74
     1
 91
        4
 64
     7
 65
   257
 75
     1
175
     1
 42
1.0
 92
        8
 66
     7
 43
1.0
 76
     1
 77
     6
 78
     2
 67
     7
 79
     5
170
     0
171
     0
290
     0
174
     0
 93
        1
 44
-50.0
173
     0
291
     1
 45
0.0
1001
ACAD
1000
AcDbSavedByObjectVersion
1070
     0
  0
VISUALSTYLE
  5
39
102
{ACAD_REACTORS
330
2A
102
}
102
{ACAD_XDICTIONARY
360
26F
102
}
330
2A
100
AcDbVisualStyle
  2
Facepattern
 70
    15
 71
     2
 72
     2
 73
     0
 90
        0
 40
-0.6
 41
-30.0
 62
     5
 63
     7
 74
     1
 91
        4
 64
     7
 65
   257
 75
     1
175
     1
 42
1.0
 92
        8
 66
     7
 43
1.0
 76
     1
 77
     6
 78
     2
 67
     7
 79
     5
170
     0
171
     0
290
     0
174
     0
 93
        1
 44
0.0
173
     0
291
     1
 45
0.0
1001
ACAD
1000
AcDbSavedByObjectVersion
1070
     0
  0
VISUALSTYLE
  5
2B
102
{ACAD_REACTORS
330
2A
102
}
102
{ACAD_XDICTIONARY
360
253
102
}
330
2A
100
AcDbVisualStyle
  2
Flat
 70
     0
 71
     2
 72
     1
 73
     1
 90
        2
 40
-0.6
 41
30.0
 62
     5
 63
     7
 74
     0
 91
        4
 64
     7
 65
   257
 75
     1
175
     1
 42
1.0
 92
        8
 66
     7
 43
1.0
 76
     1
 77
     6
 78
     2
 67
     7
 79
     5
170
     0
171
     0
290
     0
174
     0
 93
       13
 44
0.0
173
     0
291
     1
 45
0.0
1001
ACAD
1000
AcDbSavedByObjectVersion
1070
     0
  0
VISUALSTYLE
  5
2C
102
{ACAD_REACTORS
330
2A
102
}
102
{ACAD_XDICTIONARY
360
255
102
}
330
2A
100
AcDbVisualStyle
  2
FlatWithEdges
 70
     1
 71
     2
 72
     1
 73
     1
 90
        2
 40
-0.6
 41
30.0
 62
     5
 63
     7
 74
     1
 91
        4
 64
     7
 65
   257
 75
     1
175
     1
 42
1.0
 92
        0
 66
   257
 43
1.0
 76
     1
 77
     6
 78
     2
 67
     7
 79
     5
170
     0
171
     0
290
     0
174
     0
 93
       13
 44
0.0
173
     0
291
     1
 45
0.0
1001
ACAD
1000
AcDbSavedByObjectVersion
1070
     0
  0
VISUALSTYLE
  5
2D
102
{ACAD_REACTORS
330
2A
102
}
102
{ACAD_XDICTIONARY
360
257
102
}
330
2A
100
AcDbVisualStyle
  2
Gouraud
 70
     2
 71
     2
 72
     2
 73
     1
 90
        2
 40
-0.6
 41
30.0
 62
     5
 63
     7
 74
     0
 91
        4
 64
     7
 65
   257
 75
     1
175
     1
 42
1.0
 92
        0
 66
     7
 43
1.0
 76
     1
 77
     6
 78
     2
 67
     7
 79
     5
170
     0
171
     0
290
     0
174
     0
 93
       13
 44
0.0
173
     0
291
     1
 45
0.0
1001
ACAD
1000
AcDbSavedByObjectVersion
1070
     0
  0
VISUALSTYLE
  5
2E
102
{ACAD_REACTORS
330
2A
102
}
102
{ACAD_XDICTIONARY
360
259
102
}
330
2A
100
AcDbVisualStyle
  2
GouraudWithEdges
 70
     3
 71
     2
 72
     2
 73
     1
 90
        2
 40
-0.6
 41
30.0
 62
     5
 63
     7
 74
     1
 91
        4
 64
     7
 65
   257
 75
     1
175
     1
 42
1.0
 92
        0
 66
   257
 43
1.0
 76
     1
 77
     6
 78
     2
 67
     7
 79
     5
170
     0
171
     0
290
     0
174
     0
 93
       13
 44
0.0
173
     0
291
     1
 45
0.0
1001
ACAD
1000
AcDbSavedByObjectVersion
1070
     0
  0
VISUALSTYLE
  5
38
102
{ACAD_REACTORS
330
2A
102
}
102
{ACAD_XDICTIONARY
360
26D
102
}
330
2A
100
AcDbVisualStyle
  2
Linepattern
 70
    14
 71
     2
 72
     2
 73
     0
 90
        0
 40
-0.6
 41
-30.0
 62
     5
 63
     7
 74
     1
 91
        4
 64
     7
 65
   257
 75
     7
175
     7
 42
1.0
 92
        8
 66
     7
 43
1.0
 76
     1
 77
     6
 78
     2
 67
     7
 79
     5
170
     0
171
     0
290
     0
174
     0
 93
        1
 44
0.0
173
     0
291
     1
 45
0.0
1001
ACAD
1000
AcDbSavedByObjectVersion
1070
     0
  0
VISUALSTYLE
  5
33
102
{ACAD_REACTORS
330
2A
102
}
102
{ACAD_XDICTIONARY
360
263
102
}
330
2A
100
AcDbVisualStyle
  2
Realistic
 70
     8
 71
     2
 72
     2
 73
     0
 90
        0
 40
-0.6
 41
-30.0
 62
     5
 63
     7
 74
     1
 91
        0
 64
     7
 65
   257
 75
     1
175
     1
 42
1.0
 92
        8
 66
     8
 43
1.0
 76
     1
 77
     6
 78
     2
 67
     7
 79
     5
170
     0
171
     0
290
     0
174
     0
 93
       13
 44
0.0
173
     0
291
     0
 45
0.0
1001
ACAD
1000
AcDbSavedByObjectVersion
1070
     0
  0
VISUALSTYLE
  5
37
102
{ACAD_REACTORS
330
2A
102
}
102
{ACAD_XDICTIONARY
360
26B
102
}
330
2A
100
AcDbVisualStyle
  2
Thicken
 70
    13
 71
     2
 72
     2
 73
     0
 90
        0
 40
-0.6
 41
-30.0
 62
     5
 63
     7
 74
     1
 91
        4
 64
     7
 65
   257
 75
     1
175
     1
 42
1.0
 92
       12
 66
     7
 43
1.0
 76
     1
 77
     6
 78
     2
 67
     7
 79
     5
170
     0
171
     0
290
     0
174
     0
 93
        1
 44
0.0
173
     0
291
     1
 45
0.0
1001
ACAD
1000
AcDbSavedByObjectVersion
1070
     0
  0
DICTIONARYVAR
  5
251
102
{ACAD_REACTORS
330
24E
102
}
330
24E
100
DictionaryVariables
280
     0
  1
2
  0
DICTIONARYVAR
  5
252
102
{ACAD_REACTORS
330
24E
102
}
330
24E
100
DictionaryVariables
280
     0
  1
1
  0
DICTIONARY
  5
275
330
3D
100
AcDbDictionary
280
     1
281
     1
  3
ACAD_XREC_ROUNDTRIP
360
276
  0
DICTIONARY
  5
273
330
3C
100
AcDbDictionary
280
     1
281
     1
  3
ACAD_XREC_ROUNDTRIP
360
274
  0
DICTIONARY
  5
277
330
3E
100
AcDbDictionary
280
     1
281
     1
  3
ACAD_XREC_ROUNDTRIP
360
278
  0
DICTIONARY
  5
25B
330
2F
100
AcDbDictionary
280
     1
281
     1
  3
ACAD_XREC_ROUNDTRIP
360
25C
  0
DICTIONARY
  5
25F
330
31
100
AcDbDictionary
280
     1
281
     1
  3
ACAD_XREC_ROUNDTRIP
360
260
  0
DICTIONARY
  5
25D
330
30
100
AcDbDictionary
280
     1
281
     1
  3
ACAD_XREC_ROUNDTRIP
360
25E
  0
DICTIONARY
  5
261
330
32
100
AcDbDictionary
280
     1
281
     1
  3
ACAD_XREC_ROUNDTRIP
360
262
  0
DICTIONARY
  5
269
330
36
100
AcDbDictionary
280
     1
281
     1
  3
ACAD_XREC_ROUNDTRIP
360
26A
  0
DICTIONARY
  5
271
330
3A
100
AcDbDictionary
280
     1
281
     1
  3
ACAD_XREC_ROUNDTRIP
360
272
  0
DICTIONARY
  5
265
330
34
100
AcDbDictionary
280
     1
281
     1
  3
ACAD_XREC_ROUNDTRIP
360
266
  0
DICTIONARY
  5
267
330
35
100
AcDbDictionary
280
     1
281
     1
  3
ACAD_XREC_ROUNDTRIP
360
268
  0
DICTIONARY
  5
26F
330
39
100
AcDbDictionary
280
     1
281
     1
  3
ACAD_XREC_ROUNDTRIP
360
270
  0
DICTIONARY
  5
253
330
2B
100
AcDbDictionary
280
     1
281
     1
  3
ACAD_XREC_ROUNDTRIP
360
254
  0
DICTIONARY
  5
255
330
2C
100
AcDbDictionary
280
     1
281
     1
  3
ACAD_XREC_ROUNDTRIP
360
256
  0
DICTIONARY
  5
257
330
2D
100
AcDbDictionary
280
     1
281
     1
  3
ACAD_XREC_ROUNDTRIP
360
258
  0
DICTIONARY
  5
259
330
2E
100
AcDbDictionary
280
     1
281
     1
  3
ACAD_XREC_ROUNDTRIP
360
25A
  0
DICTIONARY
  5
26D
330
38
100
AcDbDictionary
280
     1
281
     1
  3
ACAD_XREC_ROUNDTRIP
360
26E
  0
DICTIONARY
  5
263
330
33
100
AcDbDictionary
280
     1
281
     1
  3
ACAD_XREC_ROUNDTRIP
360
264
  0
DICTIONARY
  5
26B
330
37
100
AcDbDictionary
280
     1
281
     1
  3
ACAD_XREC_ROUNDTRIP
360
26C
  0
XRECORD
  5
276
102
{ACAD_REACTORS
330
275
102
}
330
275
100
AcDbXrecord
280
     1
102
MATERIAL
148
0.0
149
0.0
149
0.0
 93
        0
 94
      127
282
     0
 72
     1
 77
     1
171
     1
175
     1
179
     1
273
     0
  0
XRECORD
  5
274
102
{ACAD_REACTORS
330
273
102
}
330
273
100
AcDbXrecord
280
     1
102
MATERIAL
148
0.0
149
0.0
149
0.0
 93
        0
 94
      127
282
     0
 72
     1
 77
     1
171
     1
175
     1
179
     1
273
     0
  0
XRECORD
  5
278
102
{ACAD_REACTORS
330
277
102
}
330
277
100
AcDbXrecord
280
     1
102
MATERIAL
148
0.0
149
0.0
149
0.0
 93
        0
 94
      127
282
     0
 72
     1
 77
     1
171
     1
175
     1
179
     1
273
     0
  0
XRECORD
  5
25C
102
{ACAD_REACTORS
330
25B
102
}
330
25B
100
AcDbXrecord
280
     1
102
RTVSPropertyOp0
 70
     1
102
RTVSPropertyOp1
 70
     1
102
RTVSPropertyOp2
 70
     1
102
RTVSPropertyOp3
 70
     1
102
RTVSPropertyOp4
 70
     1
102
RTVSPropertyOp5
 70
     1
102
RTVSPropertyOp6
 70
     1
102
RTVSPropertyOp7
 70
     1
102
RTVSPropertyOp8
 70
     1
102
RTVSPropertyOp9
 70
     1
102
RTVSPropertyOp10
 70
     1
102
RTVSPropertyOp11
 70
     1
102
RTVSPropertyOp12
 70
     1
102
RTVSPropertyOp13
 70
     1
102
RTVSPropertyOp14
 70
     1
102
RTVSPropertyOp15
 70
     1
102
RTVSPropertyOp16
 70
     1
102
RTVSPropertyOp17
 70
     1
102
RTVSPropertyOp18
 70
     1
102
RTVSPropertyOp19
 70
     1
102
RTVSPropertyOp20
 70
     1
102
RTVSPropertyOp21
 70
     1
102
RTVSPropertyOp22
 70
     1
102
RTVSPropertyOp23
 70
     1
102
RTVSPropertyOp24
 70
     1
102
RTVSPropertyOp25
 70
     1
102
RTVSPropertyOp26
 70
     1
102
RTVSPropertyOp27
 70
     1
  0
XRECORD
  5
260
102
{ACAD_REACTORS
330
25F
102
}
330
25F
100
AcDbXrecord
280
     1
102
RTVSPropertyOp0
 70
     1
102
RTVSPropertyOp1
 70
     1
102
RTVSPropertyOp2
 70
     1
102
RTVSPropertyOp3
 70
     1
102
RTVSPropertyOp4
 70
     1
102
RTVSPropertyOp5
 70
     1
102
RTVSPropertyOp6
 70
     1
102
RTVSPropertyOp7
 70
     1
102
RTVSPropertyOp8
 70
     1
102
RTVSPropertyOp9
 70
     1
102
RTVSPropertyOp10
 70
     1
102
RTVSPropertyOp11
 70
     1
102
RTVSPropertyOp12
 70
     1
102
RTVSPropertyOp13
 70
     1
102
RTVSPropertyOp14
 70
     1
102
RTVSPropertyOp15
 70
     1
102
RTVSPropertyOp16
 70
     1
102
RTVSPropertyOp17
 70
     1
102
RTVSPropertyOp18
 70
     1
102
RTVSPropertyOp19
 70
     1
102
RTVSPropertyOp20
 70
     1
102
RTVSPropertyOp21
 70
     1
102
RTVSPropertyOp22
 70
     1
102
RTVSPropertyOp23
 70
     1
102
RTVSPropertyOp24
 70
     1
102
RTVSPropertyOp25
 70
     1
102
RTVSPropertyOp26
 70
     1
102
RTVSPropertyOp27
 70
     1
  0
XRECORD
  5
25E
102
{ACAD_REACTORS
330
25D
102
}
330
25D
100
AcDbXrecord
280
     1
102
RTVSPropertyOp0
 70
     1
102
RTVSPropertyOp1
 70
     1
102
RTVSPropertyOp2
 70
     1
102
RTVSPropertyOp3
 70
     1
102
RTVSPropertyOp4
 70
     1
102
RTVSPropertyOp5
 70
     1
102
RTVSPropertyOp6
 70
     1
102
RTVSPropertyOp7
 70
     1
102
RTVSPropertyOp8
 70
     1
102
RTVSPropertyOp9
 70
     1
102
RTVSPropertyOp10
 70
     1
102
RTVSPropertyOp11
 70
     1
102
RTVSPropertyOp12
 70
     1
102
RTVSPropertyOp13
 70
     1
102
RTVSPropertyOp14
 70
     1
102
RTVSPropertyOp15
 70
     1
102
RTVSPropertyOp16
 70
     1
102
RTVSPropertyOp17
 70
     1
102
RTVSPropertyOp18
 70
     1
102
RTVSPropertyOp19
 70
     1
102
RTVSPropertyOp20
 70
     1
102
RTVSPropertyOp21
 70
     1
102
RTVSPropertyOp22
 70
     1
102
RTVSPropertyOp23
 70
     1
102
RTVSPropertyOp24
 70
     1
102
RTVSPropertyOp25
 70
     1
102
RTVSPropertyOp26
 70
     1
102
RTVSPropertyOp27
 70
     1
  0
XRECORD
  5
262
102
{ACAD_REACTORS
330
261
102
}
330
261
100
AcDbXrecord
280
     1
102
RTVSPropertyOp0
 70
     1
102
RTVSPropertyOp1
 70
     1
102
RTVSPropertyOp2
 70
     1
102
RTVSPropertyOp3
 70
     1
102
RTVSPropertyOp4
 70
     1
102
RTVSPropertyOp5
 70
     1
102
RTVSPropertyOp6
 70
     1
102
RTVSPropertyOp7
 70
     1
102
RTVSPropertyOp8
 70
     1
102
RTVSPropertyOp9
 70
     1
102
RTVSPropertyOp10
 70
     1
102
RTVSPropertyOp11
 70
     1
102
RTVSPropertyOp12
 70
     1
102
RTVSPropertyOp13
 70
     1
102
RTVSPropertyOp14
 70
     1
102
RTVSPropertyOp15
 70
     1
102
RTVSPropertyOp16
 70
     1
102
RTVSPropertyOp17
 70
     1
102
RTVSPropertyOp18
 70
     1
102
RTVSPropertyOp19
 70
     1
102
RTVSPropertyOp20
 70
     1
102
RTVSPropertyOp21
 70
     1
102
RTVSPropertyOp22
 70
     1
102
RTVSPropertyOp23
 70
     1
102
RTVSPropertyOp24
 70
     1
102
RTVSPropertyOp25
 70
     1
102
RTVSPropertyOp26
 70
     1
102
RTVSPropertyOp27
 70
     1
  0
XRECORD
  5
26A
102
{ACAD_REACTORS
330
269
102
}
330
269
100
AcDbXrecord
280
     1
102
RTVSPropertyOp0
 70
     1
102
RTVSPropertyOp1
 70
     1
102
RTVSPropertyOp2
 70
     1
102
RTVSPropertyOp3
 70
     1
102
RTVSPropertyOp4
 70
     1
102
RTVSPropertyOp5
 70
     1
102
RTVSPropertyOp6
 70
     1
102
RTVSPropertyOp7
 70
     1
102
RTVSPropertyOp8
 70
     1
102
RTVSPropertyOp9
 70
     1
102
RTVSPropertyOp10
 70
     1
102
RTVSPropertyOp11
 70
     1
102
RTVSPropertyOp12
 70
     1
102
RTVSPropertyOp13
 70
     1
102
RTVSPropertyOp14
 70
     1
102
RTVSPropertyOp15
 70
     1
102
RTVSPropertyOp16
 70
     1
102
RTVSPropertyOp17
 70
     1
102
RTVSPropertyOp18
 70
     1
102
RTVSPropertyOp19
 70
     1
102
RTVSPropertyOp20
 70
     1
102
RTVSPropertyOp21
 70
     1
102
RTVSPropertyOp22
 70
     1
102
RTVSPropertyOp23
 70
     1
102
RTVSPropertyOp24
 70
     1
102
RTVSPropertyOp25
 70
     1
102
RTVSPropertyOp26
 70
     1
102
RTVSPropertyOp27
 70
     1
  0
XRECORD
  5
272
102
{ACAD_REACTORS
330
271
102
}
330
271
100
AcDbXrecord
280
     1
102
RTVSPropertyOp0
 70
     1
102
RTVSPropertyOp1
 70
     1
102
RTVSPropertyOp2
 70
     1
102
RTVSPropertyOp3
 70
     1
102
RTVSPropertyOp4
 70
     1
102
RTVSPropertyOp5
 70
     1
102
RTVSPropertyOp6
 70
     1
102
RTVSPropertyOp7
 70
     1
102
RTVSPropertyOp8
 70
     1
102
RTVSPropertyOp9
 70
     1
102
RTVSPropertyOp10
 70
     1
102
RTVSPropertyOp11
 70
     1
102
RTVSPropertyOp12
 70
     1
102
RTVSPropertyOp13
 70
     1
102
RTVSPropertyOp14
 70
     1
102
RTVSPropertyOp15
 70
     1
102
RTVSPropertyOp16
 70
     1
102
RTVSPropertyOp17
 70
     1
102
RTVSPropertyOp18
 70
     1
102
RTVSPropertyOp19
 70
     1
102
RTVSPropertyOp20
 70
     1
102
RTVSPropertyOp21
 70
     1
102
RTVSPropertyOp22
 70
     1
102
RTVSPropertyOp23
 70
     1
102
RTVSPropertyOp24
 70
     1
102
RTVSPropertyOp25
 70
     1
102
RTVSPropertyOp26
 70
     1
102
RTVSPropertyOp27
 70
     1
  0
XRECORD
  5
266
102
{ACAD_REACTORS
330
265
102
}
330
265
100
AcDbXrecord
280
     1
102
RTVSPropertyOp0
 70
     1
102
RTVSPropertyOp1
 70
     1
102
RTVSPropertyOp2
 70
     1
102
RTVSPropertyOp3
 70
     1
102
RTVSPropertyOp4
 70
     1
102
RTVSPropertyOp5
 70
     1
102
RTVSPropertyOp6
 70
     1
102
RTVSPropertyOp7
 70
     1
102
RTVSPropertyOp8
 70
     1
102
RTVSPropertyOp9
 70
     1
102
RTVSPropertyOp10
 70
     1
102
RTVSPropertyOp11
 70
     1
102
RTVSPropertyOp12
 70
     1
102
RTVSPropertyOp13
 70
     1
102
RTVSPropertyOp14
 70
     1
102
RTVSPropertyOp15
 70
     1
102
RTVSPropertyOp16
 70
     1
102
RTVSPropertyOp17
 70
     1
102
RTVSPropertyOp18
 70
     1
102
RTVSPropertyOp19
 70
     1
102
RTVSPropertyOp20
 70
     1
102
RTVSPropertyOp21
 70
     1
102
RTVSPropertyOp22
 70
     1
102
RTVSPropertyOp23
 70
     1
102
RTVSPropertyOp24
 70
     1
102
RTVSPropertyOp25
 70
     1
102
RTVSPropertyOp26
 70
     1
102
RTVSPropertyOp27
 70
     1
  0
XRECORD
  5
268
102
{ACAD_REACTORS
330
267
102
}
330
267
100
AcDbXrecord
280
     1
102
RTVSPropertyOp0
 70
     1
102
RTVSPropertyOp1
 70
     1
102
RTVSPropertyOp2
 70
     1
102
RTVSPropertyOp3
 70
     1
102
RTVSPropertyOp4
 70
     1
102
RTVSPropertyOp5
 70
     1
102
RTVSPropertyOp6
 70
     1
102
RTVSPropertyOp7
 70
     1
102
RTVSPropertyOp8
 70
     1
102
RTVSPropertyOp9
 70
     1
102
RTVSPropertyOp10
 70
     1
102
RTVSPropertyOp11
 70
     1
102
RTVSPropertyOp12
 70
     1
102
RTVSPropertyOp13
 70
     1
102
RTVSPropertyOp14
 70
     1
102
RTVSPropertyOp15
 70
     1
102
RTVSPropertyOp16
 70
     1
102
RTVSPropertyOp17
 70
     1
102
RTVSPropertyOp18
 70
     1
102
RTVSPropertyOp19
 70
     1
102
RTVSPropertyOp20
 70
     1
102
RTVSPropertyOp21
 70
     1
102
RTVSPropertyOp22
 70
     1
102
RTVSPropertyOp23
 70
     1
102
RTVSPropertyOp24
 70
     1
102
RTVSPropertyOp25
 70
     1
102
RTVSPropertyOp26
 70
     1
102
RTVSPropertyOp27
 70
     1
  0
XRECORD
  5
270
102
{ACAD_REACTORS
330
26F
102
}
330
26F
100
AcDbXrecord
280
     1
102
RTVSPropertyOp0
 70
     1
102
RTVSPropertyOp1
 70
     1
102
RTVSPropertyOp2
 70
     1
102
RTVSPropertyOp3
 70
     1
102
RTVSPropertyOp4
 70
     1
102
RTVSPropertyOp5
 70
     1
102
RTVSPropertyOp6
 70
     1
102
RTVSPropertyOp7
 70
     1
102
RTVSPropertyOp8
 70
     1
102
RTVSPropertyOp9
 70
     1
102
RTVSPropertyOp10
 70
     1
102
RTVSPropertyOp11
 70
     1
102
RTVSPropertyOp12
 70
     1
102
RTVSPropertyOp13
 70
     1
102
RTVSPropertyOp14
 70
     1
102
RTVSPropertyOp15
 70
     1
102
RTVSPropertyOp16
 70
     1
102
RTVSPropertyOp17
 70
     1
102
RTVSPropertyOp18
 70
     1
102
RTVSPropertyOp19
 70
     1
102
RTVSPropertyOp20
 70
     1
102
RTVSPropertyOp21
 70
     1
102
RTVSPropertyOp22
 70
     1
102
RTVSPropertyOp23
 70
     1
102
RTVSPropertyOp24
 70
     1
102
RTVSPropertyOp25
 70
     1
102
RTVSPropertyOp26
 70
     1
102
RTVSPropertyOp27
 70
     1
  0
XRECORD
  5
254
102
{ACAD_REACTORS
330
253
102
}
330
253
100
AcDbXrecord
280
     1
102
RTVSPropertyOp0
 70
     1
102
RTVSPropertyOp1
 70
     1
102
RTVSPropertyOp2
 70
     1
102
RTVSPropertyOp3
 70
     1
102
RTVSPropertyOp4
 70
     1
102
RTVSPropertyOp5
 70
     1
102
RTVSPropertyOp6
 70
     1
102
RTVSPropertyOp7
 70
     1
102
RTVSPropertyOp8
 70
     1
102
RTVSPropertyOp9
 70
     1
102
RTVSPropertyOp10
 70
     1
102
RTVSPropertyOp11
 70
     1
102
RTVSPropertyOp12
 70
     1
102
RTVSPropertyOp13
 70
     1
102
RTVSPropertyOp14
 70
     1
102
RTVSPropertyOp15
 70
     1
102
RTVSPropertyOp16
 70
     1
102
RTVSPropertyOp17
 70
     1
102
RTVSPropertyOp18
 70
     1
102
RTVSPropertyOp19
 70
     1
102
RTVSPropertyOp20
 70
     1
102
RTVSPropertyOp21
 70
     1
102
RTVSPropertyOp22
 70
     1
102
RTVSPropertyOp23
 70
     1
102
RTVSPropertyOp24
 70
     1
102
RTVSPropertyOp25
 70
     1
102
RTVSPropertyOp26
 70
     1
102
RTVSPropertyOp27
 70
     1
  0
XRECORD
  5
256
102
{ACAD_REACTORS
330
255
102
}
330
255
100
AcDbXrecord
280
     1
102
RTVSPropertyOp0
 70
     1
102
RTVSPropertyOp1
 70
     1
102
RTVSPropertyOp2
 70
     1
102
RTVSPropertyOp3
 70
     1
102
RTVSPropertyOp4
 70
     1
102
RTVSPropertyOp5
 70
     1
102
RTVSPropertyOp6
 70
     1
102
RTVSPropertyOp7
 70
     1
102
RTVSPropertyOp8
 70
     1
102
RTVSPropertyOp9
 70
     1
102
RTVSPropertyOp10
 70
     1
102
RTVSPropertyOp11
 70
     1
102
RTVSPropertyOp12
 70
     1
102
RTVSPropertyOp13
 70
     1
102
RTVSPropertyOp14
 70
     1
102
RTVSPropertyOp15
 70
     1
102
RTVSPropertyOp16
 70
     1
102
RTVSPropertyOp17
 70
     1
102
RTVSPropertyOp18
 70
     1
102
RTVSPropertyOp19
 70
     1
102
RTVSPropertyOp20
 70
     1
102
RTVSPropertyOp21
 70
     1
102
RTVSPropertyOp22
 70
     1
102
RTVSPropertyOp23
 70
     1
102
RTVSPropertyOp24
 70
     1
102
RTVSPropertyOp25
 70
     1
102
RTVSPropertyOp26
 70
     1
102
RTVSPropertyOp27
 70
     1
  0
XRECORD
  5
258
102
{ACAD_REACTORS
330
257
102
}
330
257
100
AcDbXrecord
280
     1
102
RTVSPropertyOp0
 70
     1
102
RTVSPropertyOp1
 70
     1
102
RTVSPropertyOp2
 70
     1
102
RTVSPropertyOp3
 70
     1
102
RTVSPropertyOp4
 70
     1
102
RTVSPropertyOp5
 70
     1
102
RTVSPropertyOp6
 70
     1
102
RTVSPropertyOp7
 70
     1
102
RTVSPropertyOp8
 70
     1
102
RTVSPropertyOp9
 70
     1
102
RTVSPropertyOp10
 70
     1
102
RTVSPropertyOp11
 70
     1
102
RTVSPropertyOp12
 70
     1
102
RTVSPropertyOp13
 70
     1
102
RTVSPropertyOp14
 70
     1
102
RTVSPropertyOp15
 70
     1
102
RTVSPropertyOp16
 70
     1
102
RTVSPropertyOp17
 70
     1
102
RTVSPropertyOp18
 70
     1
102
RTVSPropertyOp19
 70
     1
102
RTVSPropertyOp20
 70
     1
102
RTVSPropertyOp21
 70
     1
102
RTVSPropertyOp22
 70
     1
102
RTVSPropertyOp23
 70
     1
102
RTVSPropertyOp24
 70
     1
102
RTVSPropertyOp25
 70
     1
102
RTVSPropertyOp26
 70
     1
102
RTVSPropertyOp27
 70
     1
  0
XRECORD
  5
25A
102
{ACAD_REACTORS
330
259
102
}
330
259
100
AcDbXrecord
280
     1
102
RTVSPropertyOp0
 70
     1
102
RTVSPropertyOp1
 70
     1
102
RTVSPropertyOp2
 70
     1
102
RTVSPropertyOp3
 70
     1
102
RTVSPropertyOp4
 70
     1
102
RTVSPropertyOp5
 70
     1
102
RTVSPropertyOp6
 70
     1
102
RTVSPropertyOp7
 70
     1
102
RTVSPropertyOp8
 70
     1
102
RTVSPropertyOp9
 70
     1
102
RTVSPropertyOp10
 70
     1
102
RTVSPropertyOp11
 70
     1
102
RTVSPropertyOp12
 70
     1
102
RTVSPropertyOp13
 70
     1
102
RTVSPropertyOp14
 70
     1
102
RTVSPropertyOp15
 70
     1
102
RTVSPropertyOp16
 70
     1
102
RTVSPropertyOp17
 70
     1
102
RTVSPropertyOp18
 70
     1
102
RTVSPropertyOp19
 70
     1
102
RTVSPropertyOp20
 70
     1
102
RTVSPropertyOp21
 70
     1
102
RTVSPropertyOp22
 70
     1
102
RTVSPropertyOp23
 70
     1
102
RTVSPropertyOp24
 70
     1
102
RTVSPropertyOp25
 70
     1
102
RTVSPropertyOp26
 70
     1
102
RTVSPropertyOp27
 70
     1
  0
XRECORD
  5
26E
102
{ACAD_REACTORS
330
26D
102
}
330
26D
100
AcDbXrecord
280
     1
102
RTVSPropertyOp0
 70
     1
102
RTVSPropertyOp1
 70
     1
102
RTVSPropertyOp2
 70
     1
102
RTVSPropertyOp3
 70
     1
102
RTVSPropertyOp4
 70
     1
102
RTVSPropertyOp5
 70
     1
102
RTVSPropertyOp6
 70
     1
102
RTVSPropertyOp7
 70
     1
102
RTVSPropertyOp8
 70
     1
102
RTVSPropertyOp9
 70
     1
102
RTVSPropertyOp10
 70
     1
102
RTVSPropertyOp11
 70
     1
102
RTVSPropertyOp12
 70
     1
102
RTVSPropertyOp13
 70
     1
102
RTVSPropertyOp14
 70
     1
102
RTVSPropertyOp15
 70
     1
102
RTVSPropertyOp16
 70
     1
102
RTVSPropertyOp17
 70
     1
102
RTVSPropertyOp18
 70
     1
102
RTVSPropertyOp19
 70
     1
102
RTVSPropertyOp20
 70
     1
102
RTVSPropertyOp21
 70
     1
102
RTVSPropertyOp22
 70
     1
102
RTVSPropertyOp23
 70
     1
102
RTVSPropertyOp24
 70
     1
102
RTVSPropertyOp25
 70
     1
102
RTVSPropertyOp26
 70
     1
102
RTVSPropertyOp27
 70
     1
  0
XRECORD
  5
264
102
{ACAD_REACTORS
330
263
102
}
330
263
100
AcDbXrecord
280
     1
102
RTVSPropertyOp0
 70
     1
102
RTVSPropertyOp1
 70
     1
102
RTVSPropertyOp2
 70
     1
102
RTVSPropertyOp3
 70
     1
102
RTVSPropertyOp4
 70
     1
102
RTVSPropertyOp5
 70
     1
102
RTVSPropertyOp6
 70
     1
102
RTVSPropertyOp7
 70
     1
102
RTVSPropertyOp8
 70
     1
102
RTVSPropertyOp9
 70
     1
102
RTVSPropertyOp10
 70
     1
102
RTVSPropertyOp11
 70
     1
102
RTVSPropertyOp12
 70
     1
102
RTVSPropertyOp13
 70
     1
102
RTVSPropertyOp14
 70
     1
102
RTVSPropertyOp15
 70
     1
102
RTVSPropertyOp16
 70
     1
102
RTVSPropertyOp17
 70
     1
102
RTVSPropertyOp18
 70
     1
102
RTVSPropertyOp19
 70
     1
102
RTVSPropertyOp20
 70
     1
102
RTVSPropertyOp21
 70
     1
102
RTVSPropertyOp22
 70
     1
102
RTVSPropertyOp23
 70
     1
102
RTVSPropertyOp24
 70
     1
102
RTVSPropertyOp25
 70
     1
102
RTVSPropertyOp26
 70
     1
102
RTVSPropertyOp27
 70
     1
  0
XRECORD
  5
26C
102
{ACAD_REACTORS
330
26B
102
}
330
26B
100
AcDbXrecord
280
     1
102
RTVSPropertyOp0
 70
     1
102
RTVSPropertyOp1
 70
     1
102
RTVSPropertyOp2
 70
     1
102
RTVSPropertyOp3
 70
     1
102
RTVSPropertyOp4
 70
     1
102
RTVSPropertyOp5
 70
     1
102
RTVSPropertyOp6
 70
     1
102
RTVSPropertyOp7
 70
     1
102
RTVSPropertyOp8
 70
     1
102
RTVSPropertyOp9
 70
     1
102
RTVSPropertyOp10
 70
     1
102
RTVSPropertyOp11
 70
     1
102
RTVSPropertyOp12
 70
     1
102
RTVSPropertyOp13
 70
     1
102
RTVSPropertyOp14
 70
     1
102
RTVSPropertyOp15
 70
     1
102
RTVSPropertyOp16
 70
     1
102
RTVSPropertyOp17
 70
     1
102
RTVSPropertyOp18
 70
     1
102
RTVSPropertyOp19
 70
     1
102
RTVSPropertyOp20
 70
     1
102
RTVSPropertyOp21
 70
     1
102
RTVSPropertyOp22
 70
     1
102
RTVSPropertyOp23
 70
     1
102
RTVSPropertyOp24
 70
     1
102
RTVSPropertyOp25
 70
     1
102
RTVSPropertyOp26
 70
     1
102
RTVSPropertyOp27
 70
     1
  0
ENDSEC
  0
EOF
