  0
SECTION
  2
HEADER
  9
$ACADVER
  1
AC1015
  9
$ACADMAINTVER
 70
     6
  9
$DWGCODEPAGE
  3
ANSI_1252
  9
$INSBASE
 10
0.0
 20
0.0
 30
0.0
  9
$EXTMIN
 10
-0.5
 20
-0.5
 30
-0.5
  9
$EXTMAX
 10
5.0
 20
5.0
 30
5.0
  9
$LIMMIN
 10
-0.5
 20
-0.5
  9
$LIMMAX
 10
5.0
 20
5.0
  9
$ORTHOMODE
 70
     0
  9
$REGENMODE
 70
     1
  9
$FILLMODE
 70
     1
  9
$QTEXTMODE
 70
     0
  9
$MIRRTEXT
 70
     1
  9
$LTSCALE
 40
1.0
  9
$ATTMODE
 70
     1
  9
$TEXTSIZE
 40
0.2
  9
$TRACEWID
 40
0.05
  9
$TEXTSTYLE
  7
Standard
  9
$CLAYER
  8
0
  9
$CELTYPE
  6
ByLayer
  9
$CECOLOR
 62
   256
  9
$CELTSCALE
 40
1.0
  9
$DISPSILH
 70
     0
  9
$DIMSCALE
 40
1.0
  9
$DIMASZ
 40
0.18
  9
$DIMEXO
 40
0.0625
  9
$DIMDLI
 40
0.38
  9
$DIMRND
 40
0.0
  9
$DIMDLE
 40
0.0
  9
$DIMEXE
 40
0.18
  9
$DIMTP
 40
0.0
  9
$DIMTM
 40
0.0
  9
$DIMTXT
 40
0.18
  9
$DIMCEN
 40
0.09
  9
$DIMTSZ
 40
0.0
  9
$DIMTOL
 70
     0
  9
$DIMLIM
 70
     0
  9
$DIMTIH
 70
     1
  9
$DIMTOH
 70
     1
  9
$DIMSE1
 70
     0
  9
$DIMSE2
 70
     0
  9
$DIMTAD
 70
     0
  9
$DIMZIN
 70
     0
  9
$DIMBLK
  1

  9
$DIMASO
 70
     1
  9
$DIMSHO
 70
     1
  9
$DIMPOST
  1

  9
$DIMAPOST
  1

  9
$DIMALT
 70
     0
  9
$DIMALTD
 70
     2
  9
$DIMALTF
 40
25.4
  9
$DIMLFAC
 40
1.0
  9
$DIMTOFL
 70
     0
  9
$DIMTVP
 40
0.0
  9
$DIMTIX
 70
     0
  9
$DIMSOXD
 70
     0
  9
$DIMSAH
 70
     0
  9
$DIMBLK1
  1

  9
$DIMBLK2
  1

  9
$DIMSTYLE
  2
Standard
  9
$DIMCLRD
 70
     0
  9
$DIMCLRE
 70
     0
  9
$DIMCLRT
 70
     0
  9
$DIMTFAC
 40
1.0
  9
$DIMGAP
 40
0.09
  9
$DIMJUST
 70
     0
  9
$DIMSD1
 70
     0
  9
$DIMSD2
 70
     0
  9
$DIMTOLJ
 70
     1
  9
$DIMTZIN
 70
     0
  9
$DIMALTZ
 70
     0
  9
$DIMALTTZ
 70
     0
  9
$DIMUPT
 70
     0
  9
$DIMDEC
 70
     4
  9
$DIMTDEC
 70
     4
  9
$DIMALTU
 70
     2
  9
$DIMALTTD
 70
     2
  9
$DIMTXSTY
  7
Standard
  9
$DIMAUNIT
 70
     0
  9
$DIMADEC
 70
     0
  9
$DIMALTRND
 40
0.0
  9
$DIMAZIN
 70
     0
  9
$DIMDSEP
 70
    46
  9
$DIMATFIT
 70
     3
  9
$DIMFRAC
 70
     0
  9
$DIMLDRBLK
  1

  9
$DIMLUNIT
 70
     2
  9
$DIMLWD
 70
    -2
  9
$DIMLWE
 70
    -2
  9
$DIMTMOVE
 70
     0
  9
$LUNITS
 70
     2
  9
$LUPREC
 70
     4
  9
$SKETCHINC
 40
0.1
  9
$FILLETRAD
 40
0.5
  9
$AUNITS
 70
     0
  9
$AUPREC
 70
     0
  9
$MENU
  1
.
  9
$ELEVATION
 40
0.0
  9
$PELEVATION
 40
0.0
  9
$THICKNESS
 40
0.0
  9
$LIMCHECK
 70
     0
  9
$CHAMFERA
 40
0.5
  9
$CHAMFERB
 40
0.5
  9
$CHAMFERC
 40
1.0
  9
$CHAMFERD
 40
0.0
  9
$SKPOLY
 70
     0
  9
$TDCREATE
 40
2456773.679328623
  9
$TDUCREATE
 40
2456773.887661956
  9
$TDUPDATE
 40
2456773.679328634
  9
$TDUUPDATE
 40
2456773.887661967
  9
$TDINDWG
 40
0.0000000116
  9
$TDUSRTIMER
 40
0.0000000116
  9
$USRTIMER
 70
     1
  9
$ANGBASE
 50
0.0
  9
$ANGDIR
 70
     0
  9
$PDMODE
 70
     0
  9
$PDSIZE
 40
0.0
  9
$PLINEWID
 40
0.0
  9
$SPLFRAME
 70
     0
  9
$SPLINETYPE
 70
     6
  9
$SPLINESEGS
 70
     8
  9
$HANDSEED
  5
4FA
  9
$SURFTAB1
 70
     6
  9
$SURFTAB2
 70
     6
  9
$SURFTYPE
 70
     6
  9
$SURFU
 70
     6
  9
$SURFV
 70
     6
  9
$UCSBASE
  2

  9
$UCSNAME
  2

  9
$UCSORG
 10
0.0
 20
0.0
 30
0.0
  9
$UCSXDIR
 10
1.0
 20
0.0
 30
0.0
  9
$UCSYDIR
 10
0.0
 20
1.0
 30
0.0
  9
$UCSORTHOREF
  2

  9
$UCSORTHOVIEW
 70
     0
  9
$UCSORGTOP
 10
0.0
 20
0.0
 30
0.0
  9
$UCSORGBOTTOM
 10
0.0
 20
0.0
 30
0.0
  9
$UCSORGLEFT
 10
0.0
 20
0.0
 30
0.0
  9
$UCSORGRIGHT
 10
0.0
 20
0.0
 30
0.0
  9
$UCSORGFRONT
 10
0.0
 20
0.0
 30
0.0
  9
$UCSORGBACK
 10
0.0
 20
0.0
 30
0.0
  9
$PUCSBASE
  2

  9
$PUCSNAME
  2

  9
$PUCSORG
 10
0.0
 20
0.0
 30
0.0
  9
$PUCSXDIR
 10
1.0
 20
0.0
 30
0.0
  9
$PUCSYDIR
 10
0.0
 20
1.0
 30
0.0
  9
$PUCSORTHOREF
  2

  9
$PUCSORTHOVIEW
 70
     0
  9
$PUCSORGTOP
 10
0.0
 20
0.0
 30
0.0
  9
$PUCSORGBOTTOM
 10
0.0
 20
0.0
 30
0.0
  9
$PUCSORGLEFT
 10
0.0
 20
0.0
 30
0.0
  9
$PUCSORGRIGHT
 10
0.0
 20
0.0
 30
0.0
  9
$PUCSORGFRONT
 10
0.0
 20
0.0
 30
0.0
  9
$PUCSORGBACK
 10
0.0
 20
0.0
 30
0.0
  9
$USERI1
 70
     0
  9
$USERI2
 70
     0
  9
$USERI3
 70
     0
  9
$USERI4
 70
     0
  9
$USERI5
 70
     0
  9
$USERR1
 40
0.0
  9
$USERR2
 40
0.0
  9
$USERR3
 40
0.0
  9
$USERR4
 40
0.0
  9
$USERR5
 40
0.0
  9
$WORLDVIEW
 70
     1
  9
$SHADEDGE
 70
     3
  9
$SHADEDIF
 70
    70
  9
$TILEMODE
 70
     0
  9
$MAXACTVP
 70
    64
  9
$PINSBASE
 10
0.0
 20
0.0
 30
0.0
  9
$PLIMCHECK
 70
     0
  9
$PEXTMIN
 10
0.0
 20
0.0
 30
0.0
  9
$PEXTMAX
 10
22.0
 20
17.0
 30
0.0
  9
$PLIMMIN
 10
0.0
 20
0.0
  9
$PLIMMAX
 10
22.0
 20
17.0
  9
$UNITMODE
 70
     0
  9
$VISRETAIN
 70
     1
  9
$PLINEGEN
 70
     0
  9
$PSLTSCALE
 70
     1
  9
$TREEDEPTH
 70
  3020
  9
$CMLSTYLE
  2
Standard
  9
$CMLJUST
 70
     0
  9
$CMLSCALE
 40
1.0
  9
$PROXYGRAPHICS
 70
     1
  9
$MEASUREMENT
 70
     0
  9
$CELWEIGHT
370
    -1
  9
$ENDCAPS
280
     0
  9
$JOINSTYLE
280
     0
  9
$LWDISPLAY
290
     0
  9
$INSUNITS
 70
     1
  9
$HYPERLINKBASE
  1

  9
$STYLESHEET
  1

  9
$XEDIT
290
     1
  9
$CEPSNTYPE
380
     0
  9
$PSTYLEMODE
290
     1
  9
$FINGERPRINTGUID
  2
{F63FA36D-EDAC-48C3-AB42-F74E9E15C96D}
  9
$VERSIONGUID
  2
{FAEB1C32-E019-11D5-929B-00C0DF256EC4}
  9
$EXTNAMES
290
     1
  9
$PSVPSCALE
 40
0.0
  9
$OLESTARTUP
290
     0
  0
ENDSEC
  0
SECTION
  2
CLASSES
  0
CLASS
  1
ACDBDICTIONARYWDFLT
  2
AcDbDictionaryWithDefault
  3
ObjectDBX Classes
 90
        0
280
     0
281
     0
  0
CLASS
  1
VISUALSTYLE
  2
AcDbVisualStyle
  3
ObjectDBX Classes
 90
     4095
280
     0
281
     0
  0
CLASS
  1
MATERIAL
  2
AcDbMaterial
  3
ObjectDBX Classes
 90
     1153
280
     0
281
     0
  0
CLASS
  1
DICTIONARYVAR
  2
AcDbDictionaryVar
  3
ObjectDBX Classes
 90
        0
280
     0
281
     0
  0
CLASS
  1
ACDBPLACEHOLDER
  2
AcDbPlaceHolder
  3
ObjectDBX Classes
 90
        0
280
     0
281
     0
  0
CLASS
  1
LAYOUT
  2
AcDbLayout
  3
ObjectDBX Classes
 90
        0
280
     0
281
     0
  0
ENDSEC
  0
SECTION
  2
TABLES
  0
TABLE
  2
VPORT
  5
8
330
0
100
AcDbSymbolTable
 70
    17
  0
VPORT
  5
29
330
8
100
AcDbSymbolTableRecord
100
AcDbViewportTableRecord
  2
DUMMY
 70
     0
 10
0.0
 20
0.0
 11
1.0
 21
1.0
 12
10.429907
 22
4.5
 13
0.0
 23
0.0
 14
0.5
 24
0.5
 15
0.5
 25
0.5
 16
0.0
 26
0.0
 36
1.0
 17
0.0
 27
0.0
 37
0.0
 40
9.0
 41
1.972973
 42
50.0
 43
0.0
 44
0.0
 50
0.0
 51
0.0
 71
     0
 72
   100
 73
     1
 74
     3
 75
     0
 76
     0
 77
     0
 78
     0
281
     0
 65
     1
110
0.0
120
0.0
130
0.0
111
1.0
121
0.0
131
0.0
112
0.0
122
1.0
132
0.0
 79
     0
146
0.0
  0
VPORT
  5
4BF
330
8
100
AcDbSymbolTableRecord
100
AcDbViewportTableRecord
  2
*ACTIVE
 70
     0
 10
0.0
 20
0.0
 11
1.0
 21
1.0
 12
-6.834472
 22
-6.834472
 13
0.0
 23
0.0
 14
0.5
 24
0.5
 15
0.5
 25
0.5
 16
0.7188730927569434
 26
-0.5850486126764431
 36
0.3754192287502549
 17
0.0
 27
0.0
 37
0.0
 40
61.350868
 41
0.28943
 42
50.0
 43
482.07238
 44
-482.07238
 50
0.0
 51
0.0
 71
     0
 72
   100
 73
     1
 74
     3
 75
     0
 76
     0
 77
     0
 78
     0
281
     0
 65
     1
110
0.0
120
0.0
130
0.0
111
1.0
121
0.0
131
0.0
112
0.0
122
1.0
132
0.0
 79
     0
146
0.0
  0
VPORT
  5
4C0
330
8
100
AcDbSymbolTableRecord
100
AcDbViewportTableRecord
  2
L1
 70
     0
 10
0.0
 20
0.0
 11
1.0
 21
1.0
 12
-6.834472
 22
-6.834472
 13
0.0
 23
0.0
 14
0.5
 24
0.5
 15
0.5
 25
0.5
 16
0.7188730927569434
 26
-0.5850486126764431
 36
0.3754192287502549
 17
0.0
 27
0.0
 37
0.0
 40
61.350868
 41
0.28943
 42
50.0
 43
482.07238
 44
-482.07238
 50
0.0
 51
0.0
 71
     0
 72
   100
 73
     1
 74
     3
 75
     0
 76
     0
 77
     0
 78
     0
281
     0
 65
     1
110
0.0
120
0.0
130
0.0
111
1.0
121
0.0
131
0.0
112
0.0
122
1.0
132
0.0
 79
     0
146
0.0
  0
VPORT
  5
4C1
330
8
100
AcDbSymbolTableRecord
100
AcDbViewportTableRecord
  2
L2
 70
     0
 10
0.0
 20
0.0
 11
0.5
 21
1.0
 12
0.0
 22
0.0
 13
0.0
 23
0.0
 14
0.5
 24
0.5
 15
0.5
 25
0.5
 16
0.0
 26
-1.0
 36
0.0
 17
0.0
 27
0.0
 37
0.0
 40
59.28775
 41
0.299501
 42
50.0
 43
30.446227
 44
-30.446227
 50
0.0
 51
0.0
 71
     0
 72
   100
 73
     1
 74
     3
 75
     0
 76
     0
 77
     0
 78
     0
281
     0
 65
     1
110
0.0
120
0.0
130
0.0
111
1.0
121
0.0
131
0.0
112
0.0
122
1.0
132
0.0
 79
     0
146
0.0
  0
VPORT
  5
4C2
330
8
100
AcDbSymbolTableRecord
100
AcDbViewportTableRecord
  2
L2
 70
     0
 10
0.5
 20
0.0
 11
1.0
 21
1.0
 12
0.0
 22
0.0
 13
0.0
 23
0.0
 14
0.5
 24
0.5
 15
0.5
 25
0.5
 16
1.0
 26
0.0
 36
0.0
 17
0.0
 27
0.0
 37
0.0
 40
59.28775
 41
0.299501
 42
50.0
 43
30.05782
 44
-30.05782
 50
0.0
 51
0.0
 71
     0
 72
   100
 73
     1
 74
     3
 75
     0
 76
     0
 77
     0
 78
     0
281
     0
 65
     1
110
0.0
120
0.0
130
0.0
111
1.0
121
0.0
131
0.0
112
0.0
122
1.0
132
0.0
 79
     0
146
0.0
  0
VPORT
  5
4C3
330
8
100
AcDbSymbolTableRecord
100
AcDbViewportTableRecord
  2
L3
 70
     0
 10
0.0
 20
0.5
 11
1.0
 21
1.0
 12
0.0
 22
0.0
 13
0.0
 23
0.0
 14
0.5
 24
0.5
 15
0.5
 25
0.5
 16
0.0
 26
0.0
 36
1.0
 17
0.0
 27
0.0
 37
0.0
 40
9.942483
 41
1.785948
 42
50.0
 43
29.643875
 44
-29.643875
 50
0.0
 51
0.0
 71
     0
 72
   100
 73
     1
 74
     3
 75
     0
 76
     0
 77
     0
 78
     0
281
     0
 65
     1
110
0.0
120
0.0
130
0.0
111
1.0
121
0.0
131
0.0
112
0.0
122
1.0
132
0.0
 79
     0
146
0.0
  0
VPORT
  5
4C4
330
8
100
AcDbSymbolTableRecord
100
AcDbViewportTableRecord
  2
L3
 70
     0
 10
0.0
 20
0.0
 11
1.0
 21
0.5
 12
0.0
 22
0.0
 13
0.0
 23
0.0
 14
0.5
 24
0.5
 15
0.5
 25
0.5
 16
0.0
 26
-1.0
 36
0.0
 17
0.0
 27
0.0
 37
0.0
 40
59.28775
 41
0.299501
 42
50.0
 43
30.446227
 44
-30.446227
 50
0.0
 51
0.0
 71
     0
 72
   100
 73
     1
 74
     3
 75
     0
 76
     0
 77
     0
 78
     0
281
     0
 65
     1
110
0.0
120
0.0
130
0.0
111
1.0
121
0.0
131
0.0
112
0.0
122
1.0
132
0.0
 79
     0
146
0.0
  0
VPORT
  5
4C5
330
8
100
AcDbSymbolTableRecord
100
AcDbViewportTableRecord
  2
L4
 70
     0
 10
0.0
 20
0.5
 11
0.5
 21
1.0
 12
0.0
 22
0.0
 13
0.0
 23
0.0
 14
0.5
 24
0.5
 15
0.5
 25
0.5
 16
0.0
 26
0.0
 36
1.0
 17
0.0
 27
0.0
 37
0.0
 40
9.942483
 41
1.785948
 42
50.0
 43
29.643875
 44
-29.643875
 50
0.0
 51
0.0
 71
     0
 72
   100
 73
     1
 74
     3
 75
     0
 76
     0
 77
     0
 78
     0
281
     0
 65
     1
110
0.0
120
0.0
130
0.0
111
1.0
121
0.0
131
0.0
112
0.0
122
1.0
132
0.0
 79
     0
146
0.0
  0
VPORT
  5
4C6
330
8
100
AcDbSymbolTableRecord
100
AcDbViewportTableRecord
  2
L4
 70
     0
 10
0.0
 20
0.0
 11
0.5
 21
0.5
 12
0.0
 22
0.0
 13
0.0
 23
0.0
 14
0.5
 24
0.5
 15
0.5
 25
0.5
 16
0.0
 26
-1.0
 36
0.0
 17
0.0
 27
0.0
 37
0.0
 40
59.28775
 41
0.299501
 42
50.0
 43
30.446227
 44
-30.446227
 50
0.0
 51
0.0
 71
     0
 72
   100
 73
     1
 74
     3
 75
     0
 76
     0
 77
     0
 78
     0
281
     0
 65
     1
110
0.0
120
0.0
130
0.0
111
1.0
121
0.0
131
0.0
112
0.0
122
1.0
132
0.0
 79
     0
146
0.0
  0
VPORT
  5
4C7
330
8
100
AcDbSymbolTableRecord
100
AcDbViewportTableRecord
  2
L4
 70
     0
 10
0.5
 20
0.0
 11
1.0
 21
0.5
 12
0.0
 22
0.0
 13
0.0
 23
0.0
 14
0.5
 24
0.5
 15
0.5
 25
0.5
 16
1.0
 26
0.0
 36
0.0
 17
0.0
 27
0.0
 37
0.0
 40
59.28775
 41
0.299501
 42
50.0
 43
30.05782
 44
-30.05782
 50
0.0
 51
0.0
 71
     0
 72
   100
 73
     1
 74
     3
 75
     0
 76
     0
 77
     0
 78
     0
281
     0
 65
     1
110
0.0
120
0.0
130
0.0
111
1.0
121
0.0
131
0.0
112
0.0
122
1.0
132
0.0
 79
     0
146
0.0
  0
VPORT
  5
4C8
330
8
100
AcDbSymbolTableRecord
100
AcDbViewportTableRecord
  2
L4
 70
     0
 10
0.5
 20
0.5
 11
1.0
 21
1.0
 12
0.0
 22
0.0
 13
0.0
 23
0.0
 14
0.5
 24
0.5
 15
0.5
 25
0.5
 16
0.5773502691896258
 26
-0.5773502691896258
 36
0.5773502691896258
 17
0.0
 27
0.0
 37
0.0
 40
58.136664
 41
0.305431
 42
50.0
 43
30.264658
 44
-30.264658
 50
0.0
 51
0.0
 71
     0
 72
   100
 73
     1
 74
     3
 75
     0
 76
     0
 77
     0
 78
     0
281
     0
 65
     1
110
0.0
120
0.0
130
0.0
111
1.0
121
0.0
131
0.0
112
0.0
122
1.0
132
0.0
 79
     0
146
0.0
  0
VPORT
  5
4C9
330
8
100
AcDbSymbolTableRecord
100
AcDbViewportTableRecord
  2
L6
 70
     0
 10
0.0
 20
0.5
 11
0.333333
 21
1.0
 12
-6.834472
 22
-6.834472
 13
0.0
 23
0.0
 14
0.5
 24
0.5
 15
0.5
 25
0.5
 16
0.7188730927569434
 26
-0.5850486126764431
 36
0.3754192287502549
 17
0.0
 27
0.0
 37
0.0
 40
61.350868
 41
0.28943
 42
50.0
 43
482.07238
 44
-482.07238
 50
0.0
 51
0.0
 71
     0
 72
   100
 73
     1
 74
     3
 75
     0
 76
     0
 77
     0
 78
     0
281
     0
 65
     1
110
0.0
120
0.0
130
0.0
111
1.0
121
0.0
131
0.0
112
0.0
122
1.0
132
0.0
 79
     0
146
0.0
  0
VPORT
  5
4CA
330
8
100
AcDbSymbolTableRecord
100
AcDbViewportTableRecord
  2
L6
 70
     0
 10
0.0
 20
0.0
 11
0.333333
 21
0.5
 12
0.0
 22
0.0
 13
0.0
 23
0.0
 14
0.5
 24
0.5
 15
0.5
 25
0.5
 16
-1.0
 26
0.0
 36
0.0
 17
0.0
 27
0.0
 37
0.0
 40
59.28775
 41
0.299501
 42
50.0
 43
30.05782
 44
-30.05782
 50
0.0
 51
0.0
 71
     0
 72
   100
 73
     1
 74
     3
 75
     0
 76
     0
 77
     0
 78
     0
281
     0
 65
     1
110
0.0
120
0.0
130
0.0
111
1.0
121
0.0
131
0.0
112
0.0
122
1.0
132
0.0
 79
     0
146
0.0
  0
VPORT
  5
4CB
330
8
100
AcDbSymbolTableRecord
100
AcDbViewportTableRecord
  2
L6
 70
     0
 10
0.333333
 20
0.5
 11
0.666667
 21
1.0
 12
0.0
 22
0.0
 13
0.0
 23
0.0
 14
0.5
 24
0.5
 15
0.5
 25
0.5
 16
0.0
 26
0.0
 36
1.0
 17
0.0
 27
0.0
 37
0.0
 40
9.942483
 41
1.785948
 42
50.0
 43
29.643875
 44
-29.643875
 50
0.0
 51
0.0
 71
     0
 72
   100
 73
     1
 74
     3
 75
     0
 76
     0
 77
     0
 78
     0
281
     0
 65
     1
110
0.0
120
0.0
130
0.0
111
1.0
121
0.0
131
0.0
112
0.0
122
1.0
132
0.0
 79
     0
146
0.0
  0
VPORT
  5
4CC
330
8
100
AcDbSymbolTableRecord
100
AcDbViewportTableRecord
  2
L6
 70
     0
 10
0.333333
 20
0.0
 11
0.666667
 21
0.5
 12
0.0
 22
0.0
 13
0.0
 23
0.0
 14
0.5
 24
0.5
 15
0.5
 25
0.5
 16
0.0
 26
-1.0
 36
0.0
 17
0.0
 27
0.0
 37
0.0
 40
59.28775
 41
0.299501
 42
50.0
 43
30.446227
 44
-30.446227
 50
0.0
 51
0.0
 71
     0
 72
   100
 73
     1
 74
     3
 75
     0
 76
     0
 77
     0
 78
     0
281
     0
 65
     1
110
0.0
120
0.0
130
0.0
111
1.0
121
0.0
131
0.0
112
0.0
122
1.0
132
0.0
 79
     0
146
0.0
  0
VPORT
  5
4CD
330
8
100
AcDbSymbolTableRecord
100
AcDbViewportTableRecord
  2
L6
 70
     0
 10
0.666667
 20
0.5
 11
1.0
 21
1.0
 12
0.0
 22
0.0
 13
0.0
 23
0.0
 14
0.5
 24
0.5
 15
0.5
 25
0.5
 16
0.5773502691896258
 26
-0.5773502691896258
 36
0.5773502691896258
 17
0.0
 27
0.0
 37
0.0
 40
58.136664
 41
0.305431
 42
50.0
 43
30.264658
 44
-30.264658
 50
0.0
 51
0.0
 71
     0
 72
   100
 73
     1
 74
     3
 75
     0
 76
     0
 77
     0
 78
     0
281
     0
 65
     1
110
0.0
120
0.0
130
0.0
111
1.0
121
0.0
131
0.0
112
0.0
122
1.0
132
0.0
 79
     0
146
0.0
  0
VPORT
  5
4CE
330
8
100
AcDbSymbolTableRecord
100
AcDbViewportTableRecord
  2
L6
 70
     0
 10
0.666667
 20
0.0
 11
1.0
 21
0.5
 12
0.0
 22
0.0
 13
0.0
 23
0.0
 14
0.5
 24
0.5
 15
0.5
 25
0.5
 16
1.0
 26
0.0
 36
0.0
 17
0.0
 27
0.0
 37
0.0
 40
59.28775
 41
0.299501
 42
50.0
 43
30.05782
 44
-30.05782
 50
0.0
 51
0.0
 71
     0
 72
   100
 73
     1
 74
     3
 75
     0
 76
     0
 77
     0
 78
     0
281
     0
 65
     1
110
0.0
120
0.0
130
0.0
111
1.0
121
0.0
131
0.0
112
0.0
122
1.0
132
0.0
 79
     0
146
0.0
  0
ENDTAB
  0
TABLE
  2
LTYPE
  5
5
330
0
100
AcDbSymbolTable
 70
     7
  0
LTYPE
  5
14
330
5
100
AcDbSymbolTableRecord
100
AcDbLinetypeTableRecord
  2
BYBLOCK
 70
     0
  3

 72
    65
 73
     0
 40
0.0
  0
LTYPE
  5
15
330
5
100
AcDbSymbolTableRecord
100
AcDbLinetypeTableRecord
  2
BYLAYER
 70
     0
  3

 72
    65
 73
     0
 40
0.0
  0
LTYPE
  5
16
330
5
100
AcDbSymbolTableRecord
100
AcDbLinetypeTableRecord
  2
CONTINUOUS
 70
     0
  3
Solid line
 72
    65
 73
     0
 40
0.0
  0
LTYPE
  5
40
330
5
100
AcDbSymbolTableRecord
100
AcDbLinetypeTableRecord
  2
DASHED
 70
     0
  3
__ __ __ __ __ __ __ __ __
 72
    65
 73
     2
 40
25.72
 49
12.86
 74
     4
 75
     0
340
0
 46
0.0
 50
0.0
 44
0.0
 45
0.0
 49
-12.86
 74
     4
 75
     0
340
0
 46
0.0
 50
0.0
 44
0.0
 45
0.0
  0
LTYPE
  5
41
330
5
100
AcDbSymbolTableRecord
100
AcDbLinetypeTableRecord
  2
HIDDEN
 70
     0
  3
_ _ _ _ _ _ _ _ _ _ _ _ _ _ _
 72
    65
 73
     2
 40
0.5
 49
0.25
 74
     4
 75
     0
340
0
 46
0.0
 50
0.0
 44
0.0
 45
0.0
 49
-0.25
 74
     4
 75
     0
340
0
 46
0.0
 50
0.0
 44
0.0
 45
0.0
  0
LTYPE
  5
42
330
5
100
AcDbSymbolTableRecord
100
AcDbLinetypeTableRecord
  2
PHANTOM
 70
     0
  3
____ _ _ ____ _ _ _____ _ _ ____
 72
    65
 73
     6
 40
50.5
 49
18.0
 74
     4
 75
     0
340
0
 46
0.0
 50
0.0
 44
0.0
 45
0.0
 49
-6.5
 74
     4
 75
     0
340
0
 46
0.0
 50
0.0
 44
0.0
 45
0.0
 49
6.5
 74
     4
 75
     0
340
0
 46
0.0
 50
0.0
 44
0.0
 45
0.0
 49
-6.5
 74
     4
 75
     0
340
0
 46
0.0
 50
0.0
 44
0.0
 45
0.0
 49
6.5
 74
     4
 75
     0
340
0
 46
0.0
 50
0.0
 44
0.0
 45
0.0
 49
-6.5
 74
     4
 75
     0
340
0
 46
0.0
 50
0.0
 44
0.0
 45
0.0
  0
LTYPE
  5
43
330
5
100
AcDbSymbolTableRecord
100
AcDbLinetypeTableRecord
  2
CENTER
 70
     0
  3
____ _ ____ _ ____ _ ____
 72
    65
 73
     4
 40
47.4
 49
22.0
 74
     4
 75
     0
340
0
 46
0.0
 50
0.0
 44
0.0
 45
0.0
 49
-8.5
 74
     4
 75
     0
340
0
 46
0.0
 50
0.0
 44
0.0
 45
0.0
 49
8.5
 74
     4
 75
     0
340
0
 46
0.0
 50
0.0
 44
0.0
 45
0.0
 49
-8.5
 74
     4
 75
     0
340
0
 46
0.0
 50
0.0
 44
0.0
 45
0.0
  0
LTYPE
  5
44
330
5
100
AcDbSymbolTableRecord
100
AcDbLinetypeTableRecord
  2
DOT
 70
     0
  3
.........................
 72
    65
 73
     2
 40
10.0
 49
0.0
 74
     4
 75
     0
340
0
 46
0.0
 50
0.0
 44
0.0
 45
0.0
 49
-10.0
 74
     4
 75
     0
340
0
 46
0.0
 50
0.0
 44
0.0
 45
0.0
  0
LTYPE
  5
45
330
5
100
AcDbSymbolTableRecord
100
AcDbLinetypeTableRecord
  2
DASHDOT
 70
     0
  3
_._._._._._._._._._._._._._._._.
 72
    65
 73
     4
 40
70.0
 49
31.0
 74
     4
 75
     0
340
0
 46
0.0
 50
0.0
 44
0.0
 45
0.0
 49
-13.0
 74
     4
 75
     0
340
0
 46
0.0
 50
0.0
 44
0.0
 45
0.0
 49
13.0
 74
     4
 75
     0
340
0
 46
0.0
 50
0.0
 44
0.0
 45
0.0
 49
-13.0
 74
     4
 75
     0
340
0
 46
0.0
 50
0.0
 44
0.0
 45
0.0
  0
ENDTAB
  0
TABLE
  2
LAYER
  5
2
330
0
100
AcDbSymbolTable
 70
     2
  0
LAYER
  5
10
330
2
100
AcDbSymbolTableRecord
100
AcDbLayerTableRecord
  2
0
 70
     0
 62
     7
  6
CONTINUOUS
370
    -3
390
F
  0
LAYER
  5
53
330
2
100
AcDbSymbolTableRecord
100
AcDbLayerTableRecord
  2
1
 70
     0
 62
     7
  6
CONTINUOUS
370
    -3
390
F
  0
ENDTAB
  0
TABLE
  2
STYLE
  5
3
330
0
100
AcDbSymbolTable
 70
     1
  0
STYLE
  5
11
330
3
100
AcDbSymbolTableRecord
100
AcDbTextStyleTableRecord
  2
Standard
 70
     0
 40
0.0
 41
1.0
 50
0.0
 71
     0
 42
0.2
  3
txt
  4

  0
ENDTAB
  0
TABLE
  2
VIEW
  5
6
330
0
100
AcDbSymbolTable
 70
     8
  0
VIEW
  5
46
330
6
100
AcDbSymbolTableRecord
100
AcDbViewTableRecord
  2
TOP
 70
     0
 40
9.942483
 10
0.0
 20
0.0
 41
13.88718
 11
0.0
 21
0.0
 31
1.0
 12
0.0
 22
0.0
 32
0.0
 42
50.0
 43
29.643875
 44
-29.643875
 50
0.0
 71
     0
281
     0
 72
     0
  0
VIEW
  5
47
330
6
100
AcDbSymbolTableRecord
100
AcDbViewTableRecord
  2
FRONT
 70
     0
 40
59.28775
 10
0.0
 20
0.0
 41
13.88718
 11
0.0
 21
-1.0
 31
0.0
 12
0.0
 22
0.0
 32
0.0
 42
50.0
 43
30.446227
 44
-30.446227
 50
0.0
 71
     0
281
     0
 72
     0
  0
VIEW
  5
48
330
6
100
AcDbSymbolTableRecord
100
AcDbViewTableRecord
  2
RIGHT
 70
     0
 40
59.28775
 10
0.0
 20
0.0
 41
9.942483
 11
1.0
 21
0.0
 31
0.0
 12
0.0
 22
0.0
 32
0.0
 42
50.0
 43
30.05782
 44
-30.05782
 50
0.0
 71
     0
281
     0
 72
     0
  0
VIEW
  5
49
330
6
100
AcDbSymbolTableRecord
100
AcDbViewTableRecord
  2
BACK
 70
     0
 40
59.28775
 10
0.0
 20
0.0
 41
13.88718
 11
0.0
 21
1.0
 31
0.0
 12
0.0
 22
0.0
 32
0.0
 42
50.0
 43
30.446227
 44
-30.446227
 50
0.0
 71
     0
281
     0
 72
     0
  0
VIEW
  5
4A
330
6
100
AcDbSymbolTableRecord
100
AcDbViewTableRecord
  2
BOTTOM
 70
     0
 40
9.942483
 10
0.0
 20
0.0
 41
13.88718
 11
0.0
 21
0.0
 31
-1.0
 12
0.0
 22
0.0
 32
0.0
 42
50.0
 43
29.643875
 44
-29.643875
 50
180.0
 71
     0
281
     0
 72
     0
  0
VIEW
  5
4B
330
6
100
AcDbSymbolTableRecord
100
AcDbViewTableRecord
  2
LEFT
 70
     0
 40
59.28775
 10
0.0
 20
0.0
 41
9.942483
 11
-1.0
 21
0.0
 31
0.0
 12
0.0
 22
0.0
 32
0.0
 42
50.0
 43
30.05782
 44
-30.05782
 50
0.0
 71
     0
281
     0
 72
     0
  0
VIEW
  5
4C
330
6
100
AcDbSymbolTableRecord
100
AcDbViewTableRecord
  2
TFR-ISO
 70
     0
 40
58.136664
 10
0.0
 20
0.0
 41
16.850116
 11
0.5773502691896258
 21
-0.5773502691896258
 31
0.5773502691896258
 12
0.0
 22
0.0
 32
0.0
 42
50.0
 43
30.264658
 44
-30.264658
 50
0.0
 71
     0
281
     0
 72
     0
  0
VIEW
  5
4D
330
6
100
AcDbSymbolTableRecord
100
AcDbViewTableRecord
  2
TFR-TRI
 70
     0
 40
61.350868
 10
0.0
 20
0.0
 41
16.477288
 11
0.7188730927569434
 21
-0.5850486126764431
 31
0.3754192287502549
 12
0.0
 22
0.0
 32
0.0
 42
50.0
 43
31.762517
 44
-31.762517
 50
0.0
 71
     0
281
     0
 72
     0
  0
ENDTAB
  0
TABLE
  2
UCS
  5
7
330
0
100
AcDbSymbolTable
 70
     0
  0
ENDTAB
  0
TABLE
  2
APPID
  5
9
330
0
100
AcDbSymbolTable
 70
     1
  0
APPID
  5
12
330
9
100
AcDbSymbolTableRecord
100
AcDbRegAppTableRecord
  2
ACAD
 70
     0
  0
ENDTAB
  0
TABLE
  2
DIMSTYLE
  5
A
330
0
100
AcDbSymbolTable
 70
     1
100
AcDbDimStyleTable
  0
DIMSTYLE
105
27
330
A
100
AcDbSymbolTableRecord
100
AcDbDimStyleTableRecord
  2
Standard
 70
     0
178
     0
340
11
  0
ENDTAB
  0
TABLE
  2
BLOCK_RECORD
  5
1
330
0
100
AcDbSymbolTable
 70
     2
  0
BLOCK_RECORD
  5
1F
330
1
100
AcDbSymbolTableRecord
100
AcDbBlockTableRecord
  2
*Model_Space
340
22
  0
BLOCK_RECORD
  5
4E
330
1
100
AcDbSymbolTableRecord
100
AcDbBlockTableRecord
  2
*PAPER_SPACE
340
4BE
  0
ENDTAB
  0
ENDSEC
  0
SECTION
  2
BLOCKS
  0
BLOCK
  5
20
330
1F
100
AcDbEntity
  8
0
100
AcDbBlockBegin
  2
*Model_Space
 70
     0
 10
0.0
 20
0.0
 30
0.0
  3
*Model_Space
  1

  0
ENDBLK
  5
21
330
1F
100
AcDbEntity
  8
0
100
AcDbBlockEnd
  0
BLOCK
  5
4F
330
4E
100
AcDbEntity
 67
     1
  8
0
100
AcDbBlockBegin
  2
*PAPER_SPACE
 70
     0
 10
0.0
 20
0.0
 30
0.0
  3
*PAPER_SPACE
  1

  0
ENDBLK
  5
50
330
4E
100
AcDbEntity
 67
     1
  8
0
100
AcDbBlockEnd
  0
ENDSEC
  0
SECTION
  2
ENTITIES
  0
VIEWPORT
  5
51
330
4E
100
AcDbEntity
 67
     1
  8
0
100
AcDbViewport
 10
11.0
 20
8.5
 30
0.0
 40
22.0
 41
17.0
 68
     1
 69
     1
 12
11.0
 22
8.5
 13
0.0
 23
0.0
 14
1.0
 24
1.0
 15
1.0
 25
1.0
 16
0.0
 26
0.0
 36
1.0
 17
0.0
 27
0.0
 37
0.0
 42
21.640363
 43
0.0
 44
0.0
 45
17.0
 50
0.0
 51
0.0
 72
   100
 90
   557152
  1

281
     0
 71
     1
 74
     0
110
0.0
120
0.0
130
0.0
111
1.0
121
0.0
131
0.0
112
0.0
122
1.0
132
0.0
 79
     0
146
0.0
  0
LINE
  5
52
330
4E
100
AcDbEntity
 67
     1
  8
1
  6
CONTINUOUS
 62
    18
100
AcDbLine
 10
20.403728
 20
12.009604
 30
0.0
 11
20.403728
 21
11.949605
 31
0.0
  0
LINE
  5
54
330
4E
100
AcDbEntity
 67
     1
  8
1
  6
CONTINUOUS
 62
    18
100
AcDbLine
 10
1.403729
 20
12.009604
 30
0.0
 11
1.408296
 21
12.009604
 31
0.0
  0
LINE
  5
55
330
4E
100
AcDbEntity
 67
     1
  8
1
  6
CONTINUOUS
 62
    18
100
AcDbLine
 10
1.408296
 20
12.009604
 30
0.0
 11
1.421303
 21
12.009604
 31
0.0
  0
LINE
  5
56
330
4E
100
AcDbEntity
 67
     1
  8
1
  6
CONTINUOUS
 62
    18
100
AcDbLine
 10
1.421303
 20
12.009604
 30
0.0
 11
1.440768
 21
12.009604
 31
0.0
  0
LINE
  5
57
330
4E
100
AcDbEntity
 67
     1
  8
1
  6
CONTINUOUS
 62
    18
100
AcDbLine
 10
1.440768
 20
12.009604
 30
0.0
 11
1.463729
 21
12.009604
 31
0.0
  0
LINE
  5
58
330
4E
100
AcDbEntity
 67
     1
  8
1
  6
CONTINUOUS
 62
    18
100
AcDbLine
 10
1.463729
 20
12.009604
 30
0.0
 11
2.093729
 21
12.009604
 31
0.0
  0
LINE
  5
59
330
4E
100
AcDbEntity
 67
     1
  8
1
  6
CONTINUOUS
 62
    18
100
AcDbLine
 10
2.093729
 20
12.009604
 30
0.0
 11
2.11669
 21
12.009604
 31
0.0
  0
LINE
  5
5A
330
4E
100
AcDbEntity
 67
     1
  8
1
  6
CONTINUOUS
 62
    18
100
AcDbLine
 10
2.11669
 20
12.009604
 30
0.0
 11
2.136156
 21
12.009604
 31
0.0
  0
LINE
  5
5B
330
4E
100
AcDbEntity
 67
     1
  8
1
  6
CONTINUOUS
 62
    18
100
AcDbLine
 10
2.136156
 20
12.009604
 30
0.0
 11
2.149162
 21
12.009604
 31
0.0
  0
LINE
  5
5C
330
4E
100
AcDbEntity
 67
     1
  8
1
  6
CONTINUOUS
 62
    18
100
AcDbLine
 10
2.149162
 20
12.009604
 30
0.0
 11
2.153729
 21
12.009604
 31
0.0
  0
LINE
  5
5D
330
4E
100
AcDbEntity
 67
     1
  8
1
  6
CONTINUOUS
 62
    18
100
AcDbLine
 10
2.153729
 20
12.009604
 30
0.0
 11
2.158297
 21
12.009604
 31
0.0
  0
LINE
  5
5E
330
4E
100
AcDbEntity
 67
     1
  8
1
  6
CONTINUOUS
 62
    18
100
AcDbLine
 10
2.158297
 20
12.009604
 30
0.0
 11
2.171303
 21
12.009604
 31
0.0
  0
LINE
  5
5F
330
4E
100
AcDbEntity
 67
     1
  8
1
  6
CONTINUOUS
 62
    18
100
AcDbLine
 10
2.171303
 20
12.009604
 30
0.0
 11
2.190768
 21
12.009604
 31
0.0
  0
LINE
  5
60
330
4E
100
AcDbEntity
 67
     1
  8
1
  6
CONTINUOUS
 62
    18
100
AcDbLine
 10
2.190768
 20
12.009604
 30
0.0
 11
2.213729
 21
12.009604
 31
0.0
  0
LINE
  5
61
330
4E
100
AcDbEntity
 67
     1
  8
1
  6
CONTINUOUS
 62
    18
100
AcDbLine
 10
2.243729
 20
12.009604
 30
0.0
 11
2.213729
 21
12.009604
 31
0.0
  0
LINE
  5
62
330
4E
100
AcDbEntity
 67
     1
  8
1
  6
CONTINUOUS
 62
    18
100
AcDbLine
 10
2.243729
 20
12.009604
 30
0.0
 11
2.270784
 21
12.009604
 31
0.0
  0
LINE
  5
63
330
4E
100
AcDbEntity
 67
     1
  8
1
  6
CONTINUOUS
 62
    18
100
AcDbLine
 10
2.270784
 20
12.009604
 30
0.0
 11
2.292025
 21
12.009604
 31
0.0
  0
LINE
  5
64
330
4E
100
AcDbEntity
 67
     1
  8
1
  6
CONTINUOUS
 62
    18
100
AcDbLine
 10
2.292025
 20
12.009604
 30
0.0
 11
2.30289
 21
12.009604
 31
0.0
  0
LINE
  5
65
330
4E
100
AcDbEntity
 67
     1
  8
1
  6
CONTINUOUS
 62
    18
100
AcDbLine
 10
2.30289
 20
12.009604
 30
0.0
 11
19.504568
 21
12.009604
 31
0.0
  0
LINE
  5
66
330
4E
100
AcDbEntity
 67
     1
  8
1
  6
CONTINUOUS
 62
    18
100
AcDbLine
 10
19.504568
 20
12.009604
 30
0.0
 11
19.515432
 21
12.009604
 31
0.0
  0
LINE
  5
67
330
4E
100
AcDbEntity
 67
     1
  8
1
  6
CONTINUOUS
 62
    18
100
AcDbLine
 10
19.515432
 20
12.009604
 30
0.0
 11
19.536674
 21
12.009604
 31
0.0
  0
LINE
  5
68
330
4E
100
AcDbEntity
 67
     1
  8
1
  6
CONTINUOUS
 62
    18
100
AcDbLine
 10
19.536674
 20
12.009604
 30
0.0
 11
19.563728
 21
12.009604
 31
0.0
  0
LINE
  5
69
330
4E
100
AcDbEntity
 67
     1
  8
1
  6
CONTINUOUS
 62
    18
100
AcDbLine
 10
19.593729
 20
12.009604
 30
0.0
 11
19.563728
 21
12.009604
 31
0.0
  0
LINE
  5
6A
330
4E
100
AcDbEntity
 67
     1
  8
1
  6
CONTINUOUS
 62
    18
100
AcDbLine
 10
19.593729
 20
12.009604
 30
0.0
 11
19.61669
 21
12.009604
 31
0.0
  0
LINE
  5
6B
330
4E
100
AcDbEntity
 67
     1
  8
1
  6
CONTINUOUS
 62
    18
100
AcDbLine
 10
19.61669
 20
12.009604
 30
0.0
 11
19.636156
 21
12.009604
 31
0.0
  0
LINE
  5
6C
330
4E
100
AcDbEntity
 67
     1
  8
1
  6
CONTINUOUS
 62
    18
100
AcDbLine
 10
19.636156
 20
12.009604
 30
0.0
 11
19.649162
 21
12.009604
 31
0.0
  0
LINE
  5
6D
330
4E
100
AcDbEntity
 67
     1
  8
1
  6
CONTINUOUS
 62
    18
100
AcDbLine
 10
19.649162
 20
12.009604
 30
0.0
 11
19.653728
 21
12.009604
 31
0.0
  0
LINE
  5
6E
330
4E
100
AcDbEntity
 67
     1
  8
1
  6
CONTINUOUS
 62
    18
100
AcDbLine
 10
19.653728
 20
12.009604
 30
0.0
 11
19.658297
 21
12.009604
 31
0.0
  0
LINE
  5
6F
330
4E
100
AcDbEntity
 67
     1
  8
1
  6
CONTINUOUS
 62
    18
100
AcDbLine
 10
19.658297
 20
12.009604
 30
0.0
 11
19.671303
 21
12.009604
 31
0.0
  0
LINE
  5
70
330
4E
100
AcDbEntity
 67
     1
  8
1
  6
CONTINUOUS
 62
    18
100
AcDbLine
 10
19.671303
 20
12.009604
 30
0.0
 11
19.690769
 21
12.009604
 31
0.0
  0
LINE
  5
71
330
4E
100
AcDbEntity
 67
     1
  8
1
  6
CONTINUOUS
 62
    18
100
AcDbLine
 10
19.690769
 20
12.009604
 30
0.0
 11
19.71373
 21
12.009604
 31
0.0
  0
LINE
  5
72
330
4E
100
AcDbEntity
 67
     1
  8
1
  6
CONTINUOUS
 62
    18
100
AcDbLine
 10
19.71373
 20
12.009604
 30
0.0
 11
20.343729
 21
12.009604
 31
0.0
  0
LINE
  5
73
330
4E
100
AcDbEntity
 67
     1
  8
1
  6
CONTINUOUS
 62
    18
100
AcDbLine
 10
20.343729
 20
12.009604
 30
0.0
 11
20.36669
 21
12.009604
 31
0.0
  0
LINE
  5
74
330
4E
100
AcDbEntity
 67
     1
  8
1
  6
CONTINUOUS
 62
    18
100
AcDbLine
 10
20.36669
 20
12.009604
 30
0.0
 11
20.386156
 21
12.009604
 31
0.0
  0
LINE
  5
75
330
4E
100
AcDbEntity
 67
     1
  8
1
  6
CONTINUOUS
 62
    18
100
AcDbLine
 10
20.386156
 20
12.009604
 30
0.0
 11
20.399162
 21
12.009604
 31
0.0
  0
LINE
  5
76
330
4E
100
AcDbEntity
 67
     1
  8
1
  6
CONTINUOUS
 62
    18
100
AcDbLine
 10
20.399162
 20
12.009604
 30
0.0
 11
20.403728
 21
12.009604
 31
0.0
  0
LINE
  5
77
330
4E
100
AcDbEntity
 67
     1
  8
1
  6
CONTINUOUS
 62
    18
100
AcDbLine
 10
20.403728
 20
11.949605
 30
0.0
 11
20.399162
 21
11.949605
 31
0.0
  0
LINE
  5
78
330
4E
100
AcDbEntity
 67
     1
  8
1
  6
CONTINUOUS
 62
    18
100
AcDbLine
 10
20.399162
 20
11.949605
 30
0.0
 11
20.386156
 21
11.949605
 31
0.0
  0
LINE
  5
79
330
4E
100
AcDbEntity
 67
     1
  8
1
  6
CONTINUOUS
 62
    18
100
AcDbLine
 10
20.386156
 20
11.949605
 30
0.0
 11
20.36669
 21
11.949605
 31
0.0
  0
LINE
  5
7A
330
4E
100
AcDbEntity
 67
     1
  8
1
  6
CONTINUOUS
 62
    18
100
AcDbLine
 10
20.36669
 20
11.949605
 30
0.0
 11
20.343729
 21
11.949605
 31
0.0
  0
LINE
  5
7B
330
4E
100
AcDbEntity
 67
     1
  8
1
  6
CONTINUOUS
 62
    18
100
AcDbLine
 10
20.343729
 20
11.949605
 30
0.0
 11
19.71373
 21
11.949605
 31
0.0
  0
LINE
  5
7C
330
4E
100
AcDbEntity
 67
     1
  8
1
  6
CONTINUOUS
 62
    18
100
AcDbLine
 10
19.71373
 20
11.949605
 30
0.0
 11
19.690769
 21
11.949605
 31
0.0
  0
LINE
  5
7D
330
4E
100
AcDbEntity
 67
     1
  8
1
  6
CONTINUOUS
 62
    18
100
AcDbLine
 10
19.690769
 20
11.949605
 30
0.0
 11
19.671303
 21
11.949605
 31
0.0
  0
LINE
  5
7E
330
4E
100
AcDbEntity
 67
     1
  8
1
  6
CONTINUOUS
 62
    18
100
AcDbLine
 10
19.671303
 20
11.949605
 30
0.0
 11
19.658297
 21
11.949605
 31
0.0
  0
LINE
  5
7F
330
4E
100
AcDbEntity
 67
     1
  8
1
  6
CONTINUOUS
 62
    18
100
AcDbLine
 10
19.658297
 20
11.949605
 30
0.0
 11
19.653728
 21
11.949605
 31
0.0
  0
LINE
  5
80
330
4E
100
AcDbEntity
 67
     1
  8
1
  6
CONTINUOUS
 62
    18
100
AcDbLine
 10
19.653728
 20
11.949605
 30
0.0
 11
19.649162
 21
11.949605
 31
0.0
  0
LINE
  5
81
330
4E
100
AcDbEntity
 67
     1
  8
1
  6
CONTINUOUS
 62
    18
100
AcDbLine
 10
19.649162
 20
11.949605
 30
0.0
 11
19.636156
 21
11.949605
 31
0.0
  0
LINE
  5
82
330
4E
100
AcDbEntity
 67
     1
  8
1
  6
CONTINUOUS
 62
    18
100
AcDbLine
 10
19.636156
 20
11.949605
 30
0.0
 11
19.61669
 21
11.949605
 31
0.0
  0
LINE
  5
83
330
4E
100
AcDbEntity
 67
     1
  8
1
  6
CONTINUOUS
 62
    18
100
AcDbLine
 10
19.61669
 20
11.949605
 30
0.0
 11
19.593729
 21
11.949605
 31
0.0
  0
LINE
  5
84
330
4E
100
AcDbEntity
 67
     1
  8
1
  6
CONTINUOUS
 62
    18
100
AcDbLine
 10
19.563728
 20
11.949605
 30
0.0
 11
19.593729
 21
11.949605
 31
0.0
  0
LINE
  5
85
330
4E
100
AcDbEntity
 67
     1
  8
1
  6
CONTINUOUS
 62
    18
100
AcDbLine
 10
19.563728
 20
11.949605
 30
0.0
 11
19.536674
 21
11.949605
 31
0.0
  0
LINE
  5
86
330
4E
100
AcDbEntity
 67
     1
  8
1
  6
CONTINUOUS
 62
    18
100
AcDbLine
 10
19.536674
 20
11.949605
 30
0.0
 11
19.515432
 21
11.949605
 31
0.0
  0
LINE
  5
87
330
4E
100
AcDbEntity
 67
     1
  8
1
  6
CONTINUOUS
 62
    18
100
AcDbLine
 10
19.515432
 20
11.949605
 30
0.0
 11
19.504568
 21
11.949605
 31
0.0
  0
LINE
  5
88
330
4E
100
AcDbEntity
 67
     1
  8
1
  6
CONTINUOUS
 62
    18
100
AcDbLine
 10
2.30289
 20
11.949605
 30
0.0
 11
2.292025
 21
11.949605
 31
0.0
  0
LINE
  5
89
330
4E
100
AcDbEntity
 67
     1
  8
1
  6
CONTINUOUS
 62
    18
100
AcDbLine
 10
2.292025
 20
11.949605
 30
0.0
 11
2.270784
 21
11.949605
 31
0.0
  0
LINE
  5
8A
330
4E
100
AcDbEntity
 67
     1
  8
1
  6
CONTINUOUS
 62
    18
100
AcDbLine
 10
2.270784
 20
11.949605
 30
0.0
 11
2.243729
 21
11.949605
 31
0.0
  0
LINE
  5
8B
330
4E
100
AcDbEntity
 67
     1
  8
1
  6
CONTINUOUS
 62
    18
100
AcDbLine
 10
2.213729
 20
11.949605
 30
0.0
 11
2.243729
 21
11.949605
 31
0.0
  0
LINE
  5
8C
330
4E
100
AcDbEntity
 67
     1
  8
1
  6
CONTINUOUS
 62
    18
100
AcDbLine
 10
2.213729
 20
11.949605
 30
0.0
 11
2.190768
 21
11.949605
 31
0.0
  0
LINE
  5
8D
330
4E
100
AcDbEntity
 67
     1
  8
1
  6
CONTINUOUS
 62
    18
100
AcDbLine
 10
2.190768
 20
11.949605
 30
0.0
 11
2.171303
 21
11.949605
 31
0.0
  0
LINE
  5
8E
330
4E
100
AcDbEntity
 67
     1
  8
1
  6
CONTINUOUS
 62
    18
100
AcDbLine
 10
2.171303
 20
11.949605
 30
0.0
 11
2.158297
 21
11.949605
 31
0.0
  0
LINE
  5
8F
330
4E
100
AcDbEntity
 67
     1
  8
1
  6
CONTINUOUS
 62
    18
100
AcDbLine
 10
2.158297
 20
11.949605
 30
0.0
 11
2.153729
 21
11.949605
 31
0.0
  0
LINE
  5
90
330
4E
100
AcDbEntity
 67
     1
  8
1
  6
CONTINUOUS
 62
    18
100
AcDbLine
 10
2.153729
 20
11.949605
 30
0.0
 11
2.149162
 21
11.949605
 31
0.0
  0
LINE
  5
91
330
4E
100
AcDbEntity
 67
     1
  8
1
  6
CONTINUOUS
 62
    18
100
AcDbLine
 10
2.149162
 20
11.949605
 30
0.0
 11
2.136156
 21
11.949605
 31
0.0
  0
LINE
  5
92
330
4E
100
AcDbEntity
 67
     1
  8
1
  6
CONTINUOUS
 62
    18
100
AcDbLine
 10
2.136156
 20
11.949605
 30
0.0
 11
2.11669
 21
11.949605
 31
0.0
  0
LINE
  5
93
330
4E
100
AcDbEntity
 67
     1
  8
1
  6
CONTINUOUS
 62
    18
100
AcDbLine
 10
2.11669
 20
11.949605
 30
0.0
 11
2.093729
 21
11.949605
 31
0.0
  0
LINE
  5
94
330
4E
100
AcDbEntity
 67
     1
  8
1
  6
CONTINUOUS
 62
    18
100
AcDbLine
 10
2.093729
 20
11.949605
 30
0.0
 11
1.463729
 21
11.949605
 31
0.0
  0
LINE
  5
95
330
4E
100
AcDbEntity
 67
     1
  8
1
  6
CONTINUOUS
 62
    18
100
AcDbLine
 10
1.463729
 20
11.949605
 30
0.0
 11
1.440768
 21
11.949605
 31
0.0
  0
LINE
  5
96
330
4E
100
AcDbEntity
 67
     1
  8
1
  6
CONTINUOUS
 62
    18
100
AcDbLine
 10
1.440768
 20
11.949605
 30
0.0
 11
1.421303
 21
11.949605
 31
0.0
  0
LINE
  5
97
330
4E
100
AcDbEntity
 67
     1
  8
1
  6
CONTINUOUS
 62
    18
100
AcDbLine
 10
1.421303
 20
11.949605
 30
0.0
 11
1.408296
 21
11.949605
 31
0.0
  0
LINE
  5
98
330
4E
100
AcDbEntity
 67
     1
  8
1
  6
CONTINUOUS
 62
    18
100
AcDbLine
 10
1.408296
 20
11.949605
 30
0.0
 11
1.403729
 21
11.949605
 31
0.0
  0
LINE
  5
99
330
4E
100
AcDbEntity
 67
     1
  8
1
  6
CONTINUOUS
 62
    18
100
AcDbLine
 10
19.156229
 20
11.759604
 30
0.0
 11
18.788345
 21
11.759604
 31
0.0
  0
LINE
  5
9A
330
4E
100
AcDbEntity
 67
     1
  8
1
  6
CONTINUOUS
 62
    18
100
AcDbLine
 10
19.156229
 20
10.704608
 30
0.0
 11
18.788345
 21
10.704608
 31
0.0
  0
LINE
  5
9B
330
4E
100
AcDbEntity
 67
     1
  8
1
  6
CONTINUOUS
 62
    18
100
AcDbLine
 10
16.656229
 20
11.759604
 30
0.0
 11
16.288345
 21
11.759604
 31
0.0
  0
LINE
  5
9C
330
4E
100
AcDbEntity
 67
     1
  8
1
  6
CONTINUOUS
 62
    18
100
AcDbLine
 10
16.656229
 20
10.704608
 30
0.0
 11
16.288345
 21
10.704608
 31
0.0
  0
LINE
  5
9D
330
4E
100
AcDbEntity
 67
     1
  8
1
  6
CONTINUOUS
 62
    18
100
AcDbLine
 10
14.156229
 20
11.759604
 30
0.0
 11
13.788345
 21
11.759604
 31
0.0
  0
LINE
  5
9E
330
4E
100
AcDbEntity
 67
     1
  8
1
  6
CONTINUOUS
 62
    18
100
AcDbLine
 10
14.156229
 20
10.704608
 30
0.0
 11
13.788345
 21
10.704608
 31
0.0
  0
LINE
  5
9F
330
4E
100
AcDbEntity
 67
     1
  8
1
  6
CONTINUOUS
 62
    18
100
AcDbLine
 10
8.288345
 20
11.759604
 30
0.0
 11
8.656229
 21
11.759604
 31
0.0
  0
LINE
  5
A0
330
4E
100
AcDbEntity
 67
     1
  8
1
  6
CONTINUOUS
 62
    18
100
AcDbLine
 10
8.288345
 20
10.704608
 30
0.0
 11
8.656229
 21
10.704608
 31
0.0
  0
LINE
  5
A1
330
4E
100
AcDbEntity
 67
     1
  8
1
  6
CONTINUOUS
 62
    18
100
AcDbLine
 10
5.788346
 20
11.759604
 30
0.0
 11
6.156229
 21
11.759604
 31
0.0
  0
LINE
  5
A2
330
4E
100
AcDbEntity
 67
     1
  8
1
  6
CONTINUOUS
 62
    18
100
AcDbLine
 10
5.788346
 20
10.704608
 30
0.0
 11
6.156229
 21
10.704608
 31
0.0
  0
LINE
  5
A3
330
4E
100
AcDbEntity
 67
     1
  8
1
  6
CONTINUOUS
 62
    18
100
AcDbLine
 10
3.288346
 20
11.759604
 30
0.0
 11
3.656229
 21
11.759604
 31
0.0
  0
LINE
  5
A4
330
4E
100
AcDbEntity
 67
     1
  8
1
  6
CONTINUOUS
 62
    18
100
AcDbLine
 10
3.288346
 20
10.704608
 30
0.0
 11
3.656229
 21
10.704608
 31
0.0
  0
LINE
  5
A5
330
4E
100
AcDbEntity
 67
     1
  8
1
  6
CONTINUOUS
 62
    18
100
AcDbLine
 10
2.303729
 20
11.919604
 30
0.0
 11
2.303729
 21
10.604608
 31
0.0
  0
LINE
  5
A6
330
4E
100
AcDbEntity
 67
     1
  8
1
  6
CONTINUOUS
 62
    18
100
AcDbLine
 10
15.591229
 20
11.699605
 30
0.0
 11
15.591229
 21
10.764608
 31
0.0
  0
LINE
  5
A7
330
4E
100
AcDbEntity
 67
     1
  8
1
  6
CONTINUOUS
 62
    18
100
AcDbLine
 10
16.019114
 20
11.759604
 30
0.0
 11
15.651229
 21
11.759604
 31
0.0
  0
LINE
  5
A8
330
4E
100
AcDbEntity
 67
     1
  8
1
  6
CONTINUOUS
 62
    18
100
AcDbLine
 10
16.019114
 20
11.759604
 30
0.0
 11
16.288345
 21
11.759604
 31
0.0
  0
LINE
  5
A9
330
4E
100
AcDbEntity
 67
     1
  8
1
  6
CONTINUOUS
 62
    18
100
AcDbLine
 10
16.716228
 20
11.699605
 30
0.0
 11
16.716228
 21
10.764608
 31
0.0
  0
LINE
  5
AA
330
4E
100
AcDbEntity
 67
     1
  8
1
  6
CONTINUOUS
 62
    18
100
AcDbLine
 10
16.019114
 20
10.704608
 30
0.0
 11
16.288345
 21
10.704608
 31
0.0
  0
LINE
  5
AB
330
4E
100
AcDbEntity
 67
     1
  8
1
  6
CONTINUOUS
 62
    18
100
AcDbLine
 10
16.019114
 20
10.704608
 30
0.0
 11
15.651229
 21
10.704608
 31
0.0
  0
LINE
  5
AC
330
4E
100
AcDbEntity
 67
     1
  8
1
  6
CONTINUOUS
 62
    18
100
AcDbLine
 10
13.091229
 20
11.699605
 30
0.0
 11
13.091229
 21
10.764608
 31
0.0
  0
LINE
  5
AD
330
4E
100
AcDbEntity
 67
     1
  8
1
  6
CONTINUOUS
 62
    18
100
AcDbLine
 10
13.519113
 20
11.759604
 30
0.0
 11
13.151229
 21
11.759604
 31
0.0
  0
LINE
  5
AE
330
4E
100
AcDbEntity
 67
     1
  8
1
  6
CONTINUOUS
 62
    18
100
AcDbLine
 10
13.519113
 20
11.759604
 30
0.0
 11
13.788345
 21
11.759604
 31
0.0
  0
LINE
  5
AF
330
4E
100
AcDbEntity
 67
     1
  8
1
  6
CONTINUOUS
 62
    18
100
AcDbLine
 10
14.216229
 20
11.699605
 30
0.0
 11
14.216229
 21
10.764608
 31
0.0
  0
LINE
  5
B0
330
4E
100
AcDbEntity
 67
     1
  8
1
  6
CONTINUOUS
 62
    18
100
AcDbLine
 10
13.519113
 20
10.704608
 30
0.0
 11
13.788345
 21
10.704608
 31
0.0
  0
LINE
  5
B1
330
4E
100
AcDbEntity
 67
     1
  8
1
  6
CONTINUOUS
 62
    18
100
AcDbLine
 10
13.519113
 20
10.704608
 30
0.0
 11
13.151229
 21
10.704608
 31
0.0
  0
LINE
  5
B2
330
4E
100
AcDbEntity
 67
     1
  8
1
  6
CONTINUOUS
 62
    18
100
AcDbLine
 10
18.091228
 20
11.699605
 30
0.0
 11
18.091228
 21
10.764608
 31
0.0
  0
LINE
  5
B3
330
4E
100
AcDbEntity
 67
     1
  8
1
  6
CONTINUOUS
 62
    18
100
AcDbLine
 10
18.519114
 20
11.759604
 30
0.0
 11
18.15123
 21
11.759604
 31
0.0
  0
LINE
  5
B4
330
4E
100
AcDbEntity
 67
     1
  8
1
  6
CONTINUOUS
 62
    18
100
AcDbLine
 10
18.519114
 20
11.759604
 30
0.0
 11
18.788345
 21
11.759604
 31
0.0
  0
LINE
  5
B5
330
4E
100
AcDbEntity
 67
     1
  8
1
  6
CONTINUOUS
 62
    18
100
AcDbLine
 10
19.216228
 20
11.699605
 30
0.0
 11
19.216228
 21
10.764608
 31
0.0
  0
LINE
  5
B6
330
4E
100
AcDbEntity
 67
     1
  8
1
  6
CONTINUOUS
 62
    18
100
AcDbLine
 10
18.519114
 20
10.704608
 30
0.0
 11
18.788345
 21
10.704608
 31
0.0
  0
LINE
  5
B7
330
4E
100
AcDbEntity
 67
     1
  8
1
  6
CONTINUOUS
 62
    18
100
AcDbLine
 10
18.519114
 20
10.704608
 30
0.0
 11
18.15123
 21
10.704608
 31
0.0
  0
LINE
  5
B8
330
4E
100
AcDbEntity
 67
     1
  8
1
  6
CONTINUOUS
 62
    18
100
AcDbLine
 10
2.303729
 20
10.604608
 30
0.0
 11
19.503729
 21
10.604608
 31
0.0
  0
LINE
  5
B9
330
4E
100
AcDbEntity
 67
     1
  8
1
  6
CONTINUOUS
 62
    18
100
AcDbLine
 10
19.503729
 20
11.919604
 30
0.0
 11
19.503729
 21
10.604608
 31
0.0
  0
LINE
  5
BA
330
4E
100
AcDbEntity
 67
     1
  8
1
  6
CONTINUOUS
 62
    18
100
AcDbLine
 10
2.303729
 20
11.919604
 30
0.0
 11
19.503729
 21
11.919604
 31
0.0
  0
LINE
  5
BB
330
4E
100
AcDbEntity
 67
     1
  8
1
  6
CONTINUOUS
 62
    18
100
AcDbLine
 10
7.591229
 20
11.699605
 30
0.0
 11
7.591229
 21
10.764608
 31
0.0
  0
LINE
  5
BC
330
4E
100
AcDbEntity
 67
     1
  8
1
  6
CONTINUOUS
 62
    18
100
AcDbLine
 10
7.651229
 20
11.759604
 30
0.0
 11
8.019113
 21
11.759604
 31
0.0
  0
LINE
  5
BD
330
4E
100
AcDbEntity
 67
     1
  8
1
  6
CONTINUOUS
 62
    18
100
AcDbLine
 10
8.019113
 20
11.759604
 30
0.0
 11
8.288345
 21
11.759604
 31
0.0
  0
LINE
  5
BE
330
4E
100
AcDbEntity
 67
     1
  8
1
  6
CONTINUOUS
 62
    18
100
AcDbLine
 10
8.716229
 20
11.699605
 30
0.0
 11
8.716229
 21
10.764608
 31
0.0
  0
LINE
  5
BF
330
4E
100
AcDbEntity
 67
     1
  8
1
  6
CONTINUOUS
 62
    18
100
AcDbLine
 10
8.019113
 20
10.704608
 30
0.0
 11
8.288345
 21
10.704608
 31
0.0
  0
LINE
  5
C0
330
4E
100
AcDbEntity
 67
     1
  8
1
  6
CONTINUOUS
 62
    18
100
AcDbLine
 10
7.651229
 20
10.704608
 30
0.0
 11
8.019113
 21
10.704608
 31
0.0
  0
LINE
  5
C1
330
4E
100
AcDbEntity
 67
     1
  8
1
  6
CONTINUOUS
 62
    18
100
AcDbLine
 10
5.091229
 20
11.699605
 30
0.0
 11
5.091229
 21
10.764608
 31
0.0
  0
LINE
  5
C2
330
4E
100
AcDbEntity
 67
     1
  8
1
  6
CONTINUOUS
 62
    18
100
AcDbLine
 10
5.151229
 20
11.759604
 30
0.0
 11
5.519113
 21
11.759604
 31
0.0
  0
LINE
  5
C3
330
4E
100
AcDbEntity
 67
     1
  8
1
  6
CONTINUOUS
 62
    18
100
AcDbLine
 10
5.519113
 20
11.759604
 30
0.0
 11
5.788346
 21
11.759604
 31
0.0
  0
LINE
  5
C4
330
4E
100
AcDbEntity
 67
     1
  8
1
  6
CONTINUOUS
 62
    18
100
AcDbLine
 10
6.216229
 20
11.699605
 30
0.0
 11
6.216229
 21
10.764608
 31
0.0
  0
LINE
  5
C5
330
4E
100
AcDbEntity
 67
     1
  8
1
  6
CONTINUOUS
 62
    18
100
AcDbLine
 10
5.519113
 20
10.704608
 30
0.0
 11
5.788346
 21
10.704608
 31
0.0
  0
LINE
  5
C6
330
4E
100
AcDbEntity
 67
     1
  8
1
  6
CONTINUOUS
 62
    18
100
AcDbLine
 10
5.151229
 20
10.704608
 30
0.0
 11
5.519113
 21
10.704608
 31
0.0
  0
LINE
  5
C7
330
4E
100
AcDbEntity
 67
     1
  8
1
  6
CONTINUOUS
 62
    18
100
AcDbLine
 10
3.716229
 20
11.699605
 30
0.0
 11
3.716229
 21
10.764608
 31
0.0
  0
LINE
  5
C8
330
4E
100
AcDbEntity
 67
     1
  8
1
  6
CONTINUOUS
 62
    18
100
AcDbLine
 10
3.019113
 20
10.704608
 30
0.0
 11
3.288346
 21
10.704608
 31
0.0
  0
LINE
  5
C9
330
4E
100
AcDbEntity
 67
     1
  8
1
  6
CONTINUOUS
 62
    18
100
AcDbLine
 10
2.651229
 20
10.704608
 30
0.0
 11
3.019113
 21
10.704608
 31
0.0
  0
LINE
  5
CA
330
4E
100
AcDbEntity
 67
     1
  8
1
  6
CONTINUOUS
 62
    18
100
AcDbLine
 10
2.591229
 20
11.699605
 30
0.0
 11
2.591229
 21
10.764608
 31
0.0
  0
LINE
  5
CB
330
4E
100
AcDbEntity
 67
     1
  8
1
  6
CONTINUOUS
 62
    18
100
AcDbLine
 10
2.651229
 20
11.759604
 30
0.0
 11
3.019113
 21
11.759604
 31
0.0
  0
LINE
  5
CC
330
4E
100
AcDbEntity
 67
     1
  8
1
  6
CONTINUOUS
 62
    18
100
AcDbLine
 10
3.019113
 20
11.759604
 30
0.0
 11
3.288346
 21
11.759604
 31
0.0
  0
LINE
  5
CD
330
4E
100
AcDbEntity
 67
     1
  8
1
  6
CONTINUOUS
 62
    18
100
AcDbLine
 10
2.213729
 20
12.009604
 30
0.0
 11
2.213729
 21
11.949605
 31
0.0
  0
LINE
  5
CE
330
4E
100
AcDbEntity
 67
     1
  8
1
  6
CONTINUOUS
 62
    18
100
AcDbLine
 10
2.243729
 20
11.949605
 30
0.0
 11
2.243729
 21
12.009604
 31
0.0
  0
LINE
  5
CF
330
4E
100
AcDbEntity
 67
     1
  8
1
  6
CONTINUOUS
 62
    18
100
AcDbLine
 10
2.153729
 20
12.009604
 30
0.0
 11
2.153729
 21
11.949605
 31
0.0
  0
LINE
  5
D0
330
4E
100
AcDbEntity
 67
     1
  8
1
  6
CONTINUOUS
 62
    18
100
AcDbLine
 10
2.093729
 20
11.949605
 30
0.0
 11
2.093729
 21
12.009604
 31
0.0
  0
LINE
  5
D1
330
4E
100
AcDbEntity
 67
     1
  8
1
  6
CONTINUOUS
 62
    18
100
AcDbLine
 10
1.463729
 20
12.009604
 30
0.0
 11
1.463729
 21
11.949605
 31
0.0
  0
LINE
  5
D2
330
4E
100
AcDbEntity
 67
     1
  8
1
  6
CONTINUOUS
 62
    18
100
AcDbLine
 10
1.403729
 20
11.949605
 30
0.0
 11
1.403729
 21
12.009604
 31
0.0
  0
LINE
  5
D3
330
4E
100
AcDbEntity
 67
     1
  8
1
  6
CONTINUOUS
 62
    18
100
AcDbLine
 10
2.30289
 20
12.009604
 30
0.0
 11
2.303729
 21
12.009048
 31
0.0
  0
LINE
  5
D4
330
4E
100
AcDbEntity
 67
     1
  8
1
  6
CONTINUOUS
 62
    18
100
AcDbLine
 10
2.303729
 20
12.009048
 30
0.0
 11
2.303729
 21
11.999592
 31
0.0
  0
LINE
  5
D5
330
4E
100
AcDbEntity
 67
     1
  8
1
  6
CONTINUOUS
 62
    18
100
AcDbLine
 10
2.303729
 20
11.999592
 30
0.0
 11
2.303729
 21
11.979605
 31
0.0
  0
LINE
  5
D6
330
4E
100
AcDbEntity
 67
     1
  8
1
  6
CONTINUOUS
 62
    18
100
AcDbLine
 10
2.303729
 20
11.979605
 30
0.0
 11
2.303729
 21
11.951718
 31
0.0
  0
LINE
  5
D7
330
4E
100
AcDbEntity
 67
     1
  8
1
  6
CONTINUOUS
 62
    18
100
AcDbLine
 10
2.303729
 20
11.951718
 30
0.0
 11
2.303729
 21
11.919604
 31
0.0
  0
LINE
  5
D8
330
4E
100
AcDbEntity
 67
     1
  8
1
  6
CONTINUOUS
 62
    18
100
AcDbLine
 10
19.503729
 20
12.009048
 30
0.0
 11
19.503729
 21
11.999592
 31
0.0
  0
LINE
  5
D9
330
4E
100
AcDbEntity
 67
     1
  8
1
  6
CONTINUOUS
 62
    18
100
AcDbLine
 10
19.503729
 20
11.999592
 30
0.0
 11
19.503729
 21
11.979605
 31
0.0
  0
LINE
  5
DA
330
4E
100
AcDbEntity
 67
     1
  8
1
  6
CONTINUOUS
 62
    18
100
AcDbLine
 10
19.503729
 20
11.979605
 30
0.0
 11
19.503729
 21
11.951718
 31
0.0
  0
LINE
  5
DB
330
4E
100
AcDbEntity
 67
     1
  8
1
  6
CONTINUOUS
 62
    18
100
AcDbLine
 10
19.503729
 20
11.951718
 30
0.0
 11
19.503729
 21
11.919604
 31
0.0
  0
LINE
  5
DC
330
4E
100
AcDbEntity
 67
     1
  8
1
  6
CONTINUOUS
 62
    18
100
AcDbLine
 10
19.503729
 20
12.009048
 30
0.0
 11
19.504568
 21
12.009604
 31
0.0
  0
LINE
  5
DD
330
4E
100
AcDbEntity
 67
     1
  8
1
  6
CONTINUOUS
 62
    18
100
AcDbLine
 10
20.343729
 20
11.949605
 30
0.0
 11
20.343729
 21
12.009604
 31
0.0
  0
LINE
  5
DE
330
4E
100
AcDbEntity
 67
     1
  8
1
  6
CONTINUOUS
 62
    18
100
AcDbLine
 10
19.71373
 20
12.009604
 30
0.0
 11
19.71373
 21
11.949605
 31
0.0
  0
LINE
  5
DF
330
4E
100
AcDbEntity
 67
     1
  8
1
  6
CONTINUOUS
 62
    18
100
AcDbLine
 10
19.653728
 20
11.949605
 30
0.0
 11
19.653728
 21
12.009604
 31
0.0
  0
LINE
  5
E0
330
4E
100
AcDbEntity
 67
     1
  8
1
  6
CONTINUOUS
 62
    18
100
AcDbLine
 10
19.593729
 20
11.949605
 30
0.0
 11
19.593729
 21
12.009604
 31
0.0
  0
LINE
  5
E1
330
4E
100
AcDbEntity
 67
     1
  8
1
  6
CONTINUOUS
 62
    18
100
AcDbLine
 10
19.563728
 20
12.009604
 30
0.0
 11
19.563728
 21
11.949605
 31
0.0
  0
LINE
  5
E2
330
4E
100
AcDbEntity
 67
     1
  8
1
  6
CONTINUOUS
 62
    18
100
AcDbLine
 10
3.268287
 20
11.618183
 30
0.0
 11
3.039171
 21
11.618183
 31
0.0
  0
LINE
  5
E3
330
4E
100
AcDbEntity
 67
     1
  8
1
  6
CONTINUOUS
 62
    18
100
AcDbLine
 10
3.039171
 20
10.846029
 30
0.0
 11
3.268287
 21
10.846029
 31
0.0
  0
LINE
  5
E4
330
4E
100
AcDbEntity
 67
     1
  8
1
  6
CONTINUOUS
 62
    18
100
AcDbLine
 10
3.049113
 20
10.823721
 30
0.0
 11
3.049113
 21
10.801472
 31
0.0
  0
LINE
  5
E5
330
4E
100
AcDbEntity
 67
     1
  8
1
  6
CONTINUOUS
 62
    18
100
AcDbLine
 10
3.049113
 20
10.801472
 30
0.0
 11
3.049113
 21
10.78239
 31
0.0
  0
LINE
  5
E6
330
4E
100
AcDbEntity
 67
     1
  8
1
  6
CONTINUOUS
 62
    18
100
AcDbLine
 10
3.258346
 20
10.823721
 30
0.0
 11
3.258346
 21
10.801472
 31
0.0
  0
LINE
  5
E7
330
4E
100
AcDbEntity
 67
     1
  8
1
  6
CONTINUOUS
 62
    18
100
AcDbLine
 10
3.258346
 20
10.801472
 30
0.0
 11
3.258346
 21
10.78239
 31
0.0
  0
LINE
  5
E8
330
4E
100
AcDbEntity
 67
     1
  8
1
  6
CONTINUOUS
 62
    18
100
AcDbLine
 10
3.039171
 20
10.846029
 30
0.0
 11
3.045283
 21
10.838389
 31
0.0
  0
LINE
  5
E9
330
4E
100
AcDbEntity
 67
     1
  8
1
  6
CONTINUOUS
 62
    18
100
AcDbLine
 10
3.045283
 20
10.838389
 30
0.0
 11
3.048598
 21
10.829258
 31
0.0
  0
LINE
  5
EA
330
4E
100
AcDbEntity
 67
     1
  8
1
  6
CONTINUOUS
 62
    18
100
AcDbLine
 10
3.048598
 20
10.829258
 30
0.0
 11
3.049113
 21
10.823721
 31
0.0
  0
LINE
  5
EB
330
4E
100
AcDbEntity
 67
     1
  8
1
  6
CONTINUOUS
 62
    18
100
AcDbLine
 10
3.049113
 20
10.78239
 30
0.0
 11
3.258346
 21
10.78239
 31
0.0
  0
LINE
  5
EC
330
4E
100
AcDbEntity
 67
     1
  8
1
  6
CONTINUOUS
 62
    18
100
AcDbLine
 10
3.258346
 20
10.823721
 30
0.0
 11
3.259882
 21
10.8332
 31
0.0
  0
LINE
  5
ED
330
4E
100
AcDbEntity
 67
     1
  8
1
  6
CONTINUOUS
 62
    18
100
AcDbLine
 10
3.259882
 20
10.8332
 30
0.0
 11
3.26443
 21
10.841833
 31
0.0
  0
LINE
  5
EE
330
4E
100
AcDbEntity
 67
     1
  8
1
  6
CONTINUOUS
 62
    18
100
AcDbLine
 10
3.26443
 20
10.841833
 30
0.0
 11
3.268287
 21
10.846029
 31
0.0
  0
LINE
  5
EF
330
4E
100
AcDbEntity
 67
     1
  8
1
  6
CONTINUOUS
 62
    18
100
AcDbLine
 10
3.049113
 20
10.78239
 30
0.0
 11
3.049113
 21
10.734608
 31
0.0
  0
LINE
  5
F0
330
4E
100
AcDbEntity
 67
     1
  8
1
  6
CONTINUOUS
 62
    18
100
AcDbLine
 10
3.258346
 20
10.78239
 30
0.0
 11
3.258346
 21
10.734608
 31
0.0
  0
LINE
  5
F1
330
4E
100
AcDbEntity
 67
     1
  8
1
  6
CONTINUOUS
 62
    18
100
AcDbLine
 10
3.049113
 20
10.734608
 30
0.0
 11
3.047797
 21
10.725821
 31
0.0
  0
LINE
  5
F2
330
4E
100
AcDbEntity
 67
     1
  8
1
  6
CONTINUOUS
 62
    18
100
AcDbLine
 10
3.047797
 20
10.725821
 30
0.0
 11
3.259661
 21
10.725821
 31
0.0
  0
LINE
  5
F3
330
4E
100
AcDbEntity
 67
     1
  8
1
  6
CONTINUOUS
 62
    18
100
AcDbLine
 10
3.259661
 20
10.725821
 30
0.0
 11
3.258346
 21
10.734608
 31
0.0
  0
LINE
  5
F4
330
4E
100
AcDbEntity
 67
     1
  8
1
  6
CONTINUOUS
 62
    18
100
AcDbLine
 10
3.047797
 20
10.725821
 30
0.0
 11
3.045217
 21
10.719824
 31
0.0
  0
LINE
  5
F5
330
4E
100
AcDbEntity
 67
     1
  8
1
  6
CONTINUOUS
 62
    18
100
AcDbLine
 10
3.045217
 20
10.719824
 30
0.0
 11
3.040701
 21
10.713777
 31
0.0
  0
LINE
  5
F6
330
4E
100
AcDbEntity
 67
     1
  8
1
  6
CONTINUOUS
 62
    18
100
AcDbLine
 10
3.040701
 20
10.713777
 30
0.0
 11
3.034587
 21
10.708907
 31
0.0
  0
LINE
  5
F7
330
4E
100
AcDbEntity
 67
     1
  8
1
  6
CONTINUOUS
 62
    18
100
AcDbLine
 10
3.034587
 20
10.708907
 30
0.0
 11
3.02643
 21
10.705514
 31
0.0
  0
LINE
  5
F8
330
4E
100
AcDbEntity
 67
     1
  8
1
  6
CONTINUOUS
 62
    18
100
AcDbLine
 10
3.02643
 20
10.705514
 30
0.0
 11
3.019113
 21
10.704608
 31
0.0
  0
LINE
  5
F9
330
4E
100
AcDbEntity
 67
     1
  8
1
  6
CONTINUOUS
 62
    18
100
AcDbLine
 10
3.288346
 20
10.704608
 30
0.0
 11
3.278502
 21
10.706269
 31
0.0
  0
LINE
  5
FA
330
4E
100
AcDbEntity
 67
     1
  8
1
  6
CONTINUOUS
 62
    18
100
AcDbLine
 10
3.278502
 20
10.706269
 30
0.0
 11
3.269756
 21
10.711061
 31
0.0
  0
LINE
  5
FB
330
4E
100
AcDbEntity
 67
     1
  8
1
  6
CONTINUOUS
 62
    18
100
AcDbLine
 10
3.269756
 20
10.711061
 30
0.0
 11
3.263449
 21
10.71787
 31
0.0
  0
LINE
  5
FC
330
4E
100
AcDbEntity
 67
     1
  8
1
  6
CONTINUOUS
 62
    18
100
AcDbLine
 10
3.263449
 20
10.71787
 30
0.0
 11
3.260202
 21
10.724219
 31
0.0
  0
LINE
  5
FD
330
4E
100
AcDbEntity
 67
     1
  8
1
  6
CONTINUOUS
 62
    18
100
AcDbLine
 10
3.260202
 20
10.724219
 30
0.0
 11
3.259661
 21
10.725821
 31
0.0
  0
LINE
  5
FE
330
4E
100
AcDbEntity
 67
     1
  8
1
  6
CONTINUOUS
 62
    18
100
AcDbLine
 10
3.049113
 20
11.640491
 30
0.0
 11
3.049113
 21
11.662742
 31
0.0
  0
LINE
  5
FF
330
4E
100
AcDbEntity
 67
     1
  8
1
  6
CONTINUOUS
 62
    18
100
AcDbLine
 10
3.049113
 20
11.662742
 30
0.0
 11
3.049113
 21
11.681823
 31
0.0
  0
LINE
  5
100
330
4E
100
AcDbEntity
 67
     1
  8
1
  6
CONTINUOUS
 62
    18
100
AcDbLine
 10
3.258346
 20
11.640491
 30
0.0
 11
3.258346
 21
11.662742
 31
0.0
  0
LINE
  5
101
330
4E
100
AcDbEntity
 67
     1
  8
1
  6
CONTINUOUS
 62
    18
100
AcDbLine
 10
3.258346
 20
11.662742
 30
0.0
 11
3.258346
 21
11.681823
 31
0.0
  0
LINE
  5
102
330
4E
100
AcDbEntity
 67
     1
  8
1
  6
CONTINUOUS
 62
    18
100
AcDbLine
 10
3.268287
 20
11.618183
 30
0.0
 11
3.262176
 21
11.625824
 31
0.0
  0
LINE
  5
103
330
4E
100
AcDbEntity
 67
     1
  8
1
  6
CONTINUOUS
 62
    18
100
AcDbLine
 10
3.262176
 20
11.625824
 30
0.0
 11
3.258861
 21
11.634955
 31
0.0
  0
LINE
  5
104
330
4E
100
AcDbEntity
 67
     1
  8
1
  6
CONTINUOUS
 62
    18
100
AcDbLine
 10
3.258861
 20
11.634955
 30
0.0
 11
3.258346
 21
11.640491
 31
0.0
  0
LINE
  5
105
330
4E
100
AcDbEntity
 67
     1
  8
1
  6
CONTINUOUS
 62
    18
100
AcDbLine
 10
3.049113
 20
11.681823
 30
0.0
 11
3.258346
 21
11.681823
 31
0.0
  0
LINE
  5
106
330
4E
100
AcDbEntity
 67
     1
  8
1
  6
CONTINUOUS
 62
    18
100
AcDbLine
 10
3.049113
 20
11.640491
 30
0.0
 11
3.047576
 21
11.631014
 31
0.0
  0
LINE
  5
107
330
4E
100
AcDbEntity
 67
     1
  8
1
  6
CONTINUOUS
 62
    18
100
AcDbLine
 10
3.047576
 20
11.631014
 30
0.0
 11
3.043029
 21
11.62238
 31
0.0
  0
LINE
  5
108
330
4E
100
AcDbEntity
 67
     1
  8
1
  6
CONTINUOUS
 62
    18
100
AcDbLine
 10
3.043029
 20
11.62238
 30
0.0
 11
3.039171
 21
11.618183
 31
0.0
  0
LINE
  5
109
330
4E
100
AcDbEntity
 67
     1
  8
1
  6
CONTINUOUS
 62
    18
100
AcDbLine
 10
3.049113
 20
11.681823
 30
0.0
 11
3.049113
 21
11.729605
 31
0.0
  0
LINE
  5
10A
330
4E
100
AcDbEntity
 67
     1
  8
1
  6
CONTINUOUS
 62
    18
100
AcDbLine
 10
3.258346
 20
11.681823
 30
0.0
 11
3.258346
 21
11.729605
 31
0.0
  0
LINE
  5
10B
330
4E
100
AcDbEntity
 67
     1
  8
1
  6
CONTINUOUS
 62
    18
100
AcDbLine
 10
3.258346
 20
11.729605
 30
0.0
 11
3.259661
 21
11.738392
 31
0.0
  0
LINE
  5
10C
330
4E
100
AcDbEntity
 67
     1
  8
1
  6
CONTINUOUS
 62
    18
100
AcDbLine
 10
3.047797
 20
11.738392
 30
0.0
 11
3.259661
 21
11.738392
 31
0.0
  0
LINE
  5
10D
330
4E
100
AcDbEntity
 67
     1
  8
1
  6
CONTINUOUS
 62
    18
100
AcDbLine
 10
3.047797
 20
11.738392
 30
0.0
 11
3.049113
 21
11.729605
 31
0.0
  0
LINE
  5
10E
330
4E
100
AcDbEntity
 67
     1
  8
1
  6
CONTINUOUS
 62
    18
100
AcDbLine
 10
3.259661
 20
11.738392
 30
0.0
 11
3.262242
 21
11.74439
 31
0.0
  0
LINE
  5
10F
330
4E
100
AcDbEntity
 67
     1
  8
1
  6
CONTINUOUS
 62
    18
100
AcDbLine
 10
3.262242
 20
11.74439
 30
0.0
 11
3.266757
 21
11.750436
 31
0.0
  0
LINE
  5
110
330
4E
100
AcDbEntity
 67
     1
  8
1
  6
CONTINUOUS
 62
    18
100
AcDbLine
 10
3.266757
 20
11.750436
 30
0.0
 11
3.272872
 21
11.755306
 31
0.0
  0
LINE
  5
111
330
4E
100
AcDbEntity
 67
     1
  8
1
  6
CONTINUOUS
 62
    18
100
AcDbLine
 10
3.272872
 20
11.755306
 30
0.0
 11
3.281029
 21
11.758698
 31
0.0
  0
LINE
  5
112
330
4E
100
AcDbEntity
 67
     1
  8
1
  6
CONTINUOUS
 62
    18
100
AcDbLine
 10
3.281029
 20
11.758698
 30
0.0
 11
3.288346
 21
11.759604
 31
0.0
  0
LINE
  5
113
330
4E
100
AcDbEntity
 67
     1
  8
1
  6
CONTINUOUS
 62
    18
100
AcDbLine
 10
3.019113
 20
11.759604
 30
0.0
 11
3.028957
 21
11.757943
 31
0.0
  0
LINE
  5
114
330
4E
100
AcDbEntity
 67
     1
  8
1
  6
CONTINUOUS
 62
    18
100
AcDbLine
 10
3.028957
 20
11.757943
 30
0.0
 11
3.037703
 21
11.753151
 31
0.0
  0
LINE
  5
115
330
4E
100
AcDbEntity
 67
     1
  8
1
  6
CONTINUOUS
 62
    18
100
AcDbLine
 10
3.037703
 20
11.753151
 30
0.0
 11
3.044009
 21
11.746343
 31
0.0
  0
LINE
  5
116
330
4E
100
AcDbEntity
 67
     1
  8
1
  6
CONTINUOUS
 62
    18
100
AcDbLine
 10
3.044009
 20
11.746343
 30
0.0
 11
3.047256
 21
11.739994
 31
0.0
  0
LINE
  5
117
330
4E
100
AcDbEntity
 67
     1
  8
1
  6
CONTINUOUS
 62
    18
100
AcDbLine
 10
3.047256
 20
11.739994
 30
0.0
 11
3.047797
 21
11.738392
 31
0.0
  0
LINE
  5
118
330
4E
100
AcDbEntity
 67
     1
  8
1
  6
CONTINUOUS
 62
    18
100
AcDbLine
 10
5.768287
 20
11.618183
 30
0.0
 11
5.539171
 21
11.618183
 31
0.0
  0
LINE
  5
119
330
4E
100
AcDbEntity
 67
     1
  8
1
  6
CONTINUOUS
 62
    18
100
AcDbLine
 10
5.539171
 20
10.846029
 30
0.0
 11
5.768287
 21
10.846029
 31
0.0
  0
LINE
  5
11A
330
4E
100
AcDbEntity
 67
     1
  8
1
  6
CONTINUOUS
 62
    18
100
AcDbLine
 10
5.549113
 20
10.823721
 30
0.0
 11
5.549113
 21
10.801472
 31
0.0
  0
LINE
  5
11B
330
4E
100
AcDbEntity
 67
     1
  8
1
  6
CONTINUOUS
 62
    18
100
AcDbLine
 10
5.549113
 20
10.801472
 30
0.0
 11
5.549113
 21
10.78239
 31
0.0
  0
LINE
  5
11C
330
4E
100
AcDbEntity
 67
     1
  8
1
  6
CONTINUOUS
 62
    18
100
AcDbLine
 10
5.758346
 20
10.823721
 30
0.0
 11
5.758346
 21
10.801472
 31
0.0
  0
LINE
  5
11D
330
4E
100
AcDbEntity
 67
     1
  8
1
  6
CONTINUOUS
 62
    18
100
AcDbLine
 10
5.758346
 20
10.801472
 30
0.0
 11
5.758346
 21
10.78239
 31
0.0
  0
LINE
  5
11E
330
4E
100
AcDbEntity
 67
     1
  8
1
  6
CONTINUOUS
 62
    18
100
AcDbLine
 10
5.539171
 20
10.846029
 30
0.0
 11
5.545283
 21
10.838389
 31
0.0
  0
LINE
  5
11F
330
4E
100
AcDbEntity
 67
     1
  8
1
  6
CONTINUOUS
 62
    18
100
AcDbLine
 10
5.545283
 20
10.838389
 30
0.0
 11
5.548598
 21
10.829258
 31
0.0
  0
LINE
  5
120
330
4E
100
AcDbEntity
 67
     1
  8
1
  6
CONTINUOUS
 62
    18
100
AcDbLine
 10
5.548598
 20
10.829258
 30
0.0
 11
5.549113
 21
10.823721
 31
0.0
  0
LINE
  5
121
330
4E
100
AcDbEntity
 67
     1
  8
1
  6
CONTINUOUS
 62
    18
100
AcDbLine
 10
5.549113
 20
10.78239
 30
0.0
 11
5.758346
 21
10.78239
 31
0.0
  0
LINE
  5
122
330
4E
100
AcDbEntity
 67
     1
  8
1
  6
CONTINUOUS
 62
    18
100
AcDbLine
 10
5.758346
 20
10.823721
 30
0.0
 11
5.759882
 21
10.8332
 31
0.0
  0
LINE
  5
123
330
4E
100
AcDbEntity
 67
     1
  8
1
  6
CONTINUOUS
 62
    18
100
AcDbLine
 10
5.759882
 20
10.8332
 30
0.0
 11
5.76443
 21
10.841833
 31
0.0
  0
LINE
  5
124
330
4E
100
AcDbEntity
 67
     1
  8
1
  6
CONTINUOUS
 62
    18
100
AcDbLine
 10
5.76443
 20
10.841833
 30
0.0
 11
5.768287
 21
10.846029
 31
0.0
  0
LINE
  5
125
330
4E
100
AcDbEntity
 67
     1
  8
1
  6
CONTINUOUS
 62
    18
100
AcDbLine
 10
5.549113
 20
10.78239
 30
0.0
 11
5.549113
 21
10.734608
 31
0.0
  0
LINE
  5
126
330
4E
100
AcDbEntity
 67
     1
  8
1
  6
CONTINUOUS
 62
    18
100
AcDbLine
 10
5.758346
 20
10.78239
 30
0.0
 11
5.758346
 21
10.734608
 31
0.0
  0
LINE
  5
127
330
4E
100
AcDbEntity
 67
     1
  8
1
  6
CONTINUOUS
 62
    18
100
AcDbLine
 10
5.549113
 20
10.734608
 30
0.0
 11
5.547797
 21
10.725821
 31
0.0
  0
LINE
  5
128
330
4E
100
AcDbEntity
 67
     1
  8
1
  6
CONTINUOUS
 62
    18
100
AcDbLine
 10
5.547797
 20
10.725821
 30
0.0
 11
5.759661
 21
10.725821
 31
0.0
  0
LINE
  5
129
330
4E
100
AcDbEntity
 67
     1
  8
1
  6
CONTINUOUS
 62
    18
100
AcDbLine
 10
5.759661
 20
10.725821
 30
0.0
 11
5.758346
 21
10.734608
 31
0.0
  0
LINE
  5
12A
330
4E
100
AcDbEntity
 67
     1
  8
1
  6
CONTINUOUS
 62
    18
100
AcDbLine
 10
5.547797
 20
10.725821
 30
0.0
 11
5.545217
 21
10.719824
 31
0.0
  0
LINE
  5
12B
330
4E
100
AcDbEntity
 67
     1
  8
1
  6
CONTINUOUS
 62
    18
100
AcDbLine
 10
5.545217
 20
10.719824
 30
0.0
 11
5.540701
 21
10.713777
 31
0.0
  0
LINE
  5
12C
330
4E
100
AcDbEntity
 67
     1
  8
1
  6
CONTINUOUS
 62
    18
100
AcDbLine
 10
5.540701
 20
10.713777
 30
0.0
 11
5.534587
 21
10.708907
 31
0.0
  0
LINE
  5
12D
330
4E
100
AcDbEntity
 67
     1
  8
1
  6
CONTINUOUS
 62
    18
100
AcDbLine
 10
5.534587
 20
10.708907
 30
0.0
 11
5.52643
 21
10.705514
 31
0.0
  0
LINE
  5
12E
330
4E
100
AcDbEntity
 67
     1
  8
1
  6
CONTINUOUS
 62
    18
100
AcDbLine
 10
5.52643
 20
10.705514
 30
0.0
 11
5.519113
 21
10.704608
 31
0.0
  0
LINE
  5
12F
330
4E
100
AcDbEntity
 67
     1
  8
1
  6
CONTINUOUS
 62
    18
100
AcDbLine
 10
5.788346
 20
10.704608
 30
0.0
 11
5.778502
 21
10.706269
 31
0.0
  0
LINE
  5
130
330
4E
100
AcDbEntity
 67
     1
  8
1
  6
CONTINUOUS
 62
    18
100
AcDbLine
 10
5.778502
 20
10.706269
 30
0.0
 11
5.769756
 21
10.711061
 31
0.0
  0
LINE
  5
131
330
4E
100
AcDbEntity
 67
     1
  8
1
  6
CONTINUOUS
 62
    18
100
AcDbLine
 10
5.769756
 20
10.711061
 30
0.0
 11
5.763449
 21
10.71787
 31
0.0
  0
LINE
  5
132
330
4E
100
AcDbEntity
 67
     1
  8
1
  6
CONTINUOUS
 62
    18
100
AcDbLine
 10
5.763449
 20
10.71787
 30
0.0
 11
5.760202
 21
10.724219
 31
0.0
  0
LINE
  5
133
330
4E
100
AcDbEntity
 67
     1
  8
1
  6
CONTINUOUS
 62
    18
100
AcDbLine
 10
5.760202
 20
10.724219
 30
0.0
 11
5.759661
 21
10.725821
 31
0.0
  0
LINE
  5
134
330
4E
100
AcDbEntity
 67
     1
  8
1
  6
CONTINUOUS
 62
    18
100
AcDbLine
 10
5.549113
 20
11.640491
 30
0.0
 11
5.549113
 21
11.662742
 31
0.0
  0
LINE
  5
135
330
4E
100
AcDbEntity
 67
     1
  8
1
  6
CONTINUOUS
 62
    18
100
AcDbLine
 10
5.549113
 20
11.662742
 30
0.0
 11
5.549113
 21
11.681823
 31
0.0
  0
LINE
  5
136
330
4E
100
AcDbEntity
 67
     1
  8
1
  6
CONTINUOUS
 62
    18
100
AcDbLine
 10
5.758346
 20
11.640491
 30
0.0
 11
5.758346
 21
11.662742
 31
0.0
  0
LINE
  5
137
330
4E
100
AcDbEntity
 67
     1
  8
1
  6
CONTINUOUS
 62
    18
100
AcDbLine
 10
5.758346
 20
11.662742
 30
0.0
 11
5.758346
 21
11.681823
 31
0.0
  0
LINE
  5
138
330
4E
100
AcDbEntity
 67
     1
  8
1
  6
CONTINUOUS
 62
    18
100
AcDbLine
 10
5.768287
 20
11.618183
 30
0.0
 11
5.762176
 21
11.625824
 31
0.0
  0
LINE
  5
139
330
4E
100
AcDbEntity
 67
     1
  8
1
  6
CONTINUOUS
 62
    18
100
AcDbLine
 10
5.762176
 20
11.625824
 30
0.0
 11
5.758861
 21
11.634955
 31
0.0
  0
LINE
  5
13A
330
4E
100
AcDbEntity
 67
     1
  8
1
  6
CONTINUOUS
 62
    18
100
AcDbLine
 10
5.758861
 20
11.634955
 30
0.0
 11
5.758346
 21
11.640491
 31
0.0
  0
LINE
  5
13B
330
4E
100
AcDbEntity
 67
     1
  8
1
  6
CONTINUOUS
 62
    18
100
AcDbLine
 10
5.549113
 20
11.681823
 30
0.0
 11
5.758346
 21
11.681823
 31
0.0
  0
LINE
  5
13C
330
4E
100
AcDbEntity
 67
     1
  8
1
  6
CONTINUOUS
 62
    18
100
AcDbLine
 10
5.549113
 20
11.640491
 30
0.0
 11
5.547576
 21
11.631014
 31
0.0
  0
LINE
  5
13D
330
4E
100
AcDbEntity
 67
     1
  8
1
  6
CONTINUOUS
 62
    18
100
AcDbLine
 10
5.547576
 20
11.631014
 30
0.0
 11
5.543029
 21
11.62238
 31
0.0
  0
LINE
  5
13E
330
4E
100
AcDbEntity
 67
     1
  8
1
  6
CONTINUOUS
 62
    18
100
AcDbLine
 10
5.543029
 20
11.62238
 30
0.0
 11
5.539171
 21
11.618183
 31
0.0
  0
LINE
  5
13F
330
4E
100
AcDbEntity
 67
     1
  8
1
  6
CONTINUOUS
 62
    18
100
AcDbLine
 10
5.549113
 20
11.681823
 30
0.0
 11
5.549113
 21
11.729605
 31
0.0
  0
LINE
  5
140
330
4E
100
AcDbEntity
 67
     1
  8
1
  6
CONTINUOUS
 62
    18
100
AcDbLine
 10
5.758346
 20
11.681823
 30
0.0
 11
5.758346
 21
11.729605
 31
0.0
  0
LINE
  5
141
330
4E
100
AcDbEntity
 67
     1
  8
1
  6
CONTINUOUS
 62
    18
100
AcDbLine
 10
5.758346
 20
11.729605
 30
0.0
 11
5.759661
 21
11.738392
 31
0.0
  0
LINE
  5
142
330
4E
100
AcDbEntity
 67
     1
  8
1
  6
CONTINUOUS
 62
    18
100
AcDbLine
 10
5.547797
 20
11.738392
 30
0.0
 11
5.759661
 21
11.738392
 31
0.0
  0
LINE
  5
143
330
4E
100
AcDbEntity
 67
     1
  8
1
  6
CONTINUOUS
 62
    18
100
AcDbLine
 10
5.547797
 20
11.738392
 30
0.0
 11
5.549113
 21
11.729605
 31
0.0
  0
LINE
  5
144
330
4E
100
AcDbEntity
 67
     1
  8
1
  6
CONTINUOUS
 62
    18
100
AcDbLine
 10
5.759661
 20
11.738392
 30
0.0
 11
5.762242
 21
11.74439
 31
0.0
  0
LINE
  5
145
330
4E
100
AcDbEntity
 67
     1
  8
1
  6
CONTINUOUS
 62
    18
100
AcDbLine
 10
5.762242
 20
11.74439
 30
0.0
 11
5.766757
 21
11.750436
 31
0.0
  0
LINE
  5
146
330
4E
100
AcDbEntity
 67
     1
  8
1
  6
CONTINUOUS
 62
    18
100
AcDbLine
 10
5.766757
 20
11.750436
 30
0.0
 11
5.772872
 21
11.755306
 31
0.0
  0
LINE
  5
147
330
4E
100
AcDbEntity
 67
     1
  8
1
  6
CONTINUOUS
 62
    18
100
AcDbLine
 10
5.772872
 20
11.755306
 30
0.0
 11
5.781029
 21
11.758698
 31
0.0
  0
LINE
  5
148
330
4E
100
AcDbEntity
 67
     1
  8
1
  6
CONTINUOUS
 62
    18
100
AcDbLine
 10
5.781029
 20
11.758698
 30
0.0
 11
5.788346
 21
11.759604
 31
0.0
  0
LINE
  5
149
330
4E
100
AcDbEntity
 67
     1
  8
1
  6
CONTINUOUS
 62
    18
100
AcDbLine
 10
5.519113
 20
11.759604
 30
0.0
 11
5.528957
 21
11.757943
 31
0.0
  0
LINE
  5
14A
330
4E
100
AcDbEntity
 67
     1
  8
1
  6
CONTINUOUS
 62
    18
100
AcDbLine
 10
5.528957
 20
11.757943
 30
0.0
 11
5.537703
 21
11.753151
 31
0.0
  0
LINE
  5
14B
330
4E
100
AcDbEntity
 67
     1
  8
1
  6
CONTINUOUS
 62
    18
100
AcDbLine
 10
5.537703
 20
11.753151
 30
0.0
 11
5.54401
 21
11.746343
 31
0.0
  0
LINE
  5
14C
330
4E
100
AcDbEntity
 67
     1
  8
1
  6
CONTINUOUS
 62
    18
100
AcDbLine
 10
5.54401
 20
11.746343
 30
0.0
 11
5.547256
 21
11.739994
 31
0.0
  0
LINE
  5
14D
330
4E
100
AcDbEntity
 67
     1
  8
1
  6
CONTINUOUS
 62
    18
100
AcDbLine
 10
5.547256
 20
11.739994
 30
0.0
 11
5.547797
 21
11.738392
 31
0.0
  0
LINE
  5
14E
330
4E
100
AcDbEntity
 67
     1
  8
1
  6
CONTINUOUS
 62
    18
100
AcDbLine
 10
8.268287
 20
11.618183
 30
0.0
 11
8.039171
 21
11.618183
 31
0.0
  0
LINE
  5
14F
330
4E
100
AcDbEntity
 67
     1
  8
1
  6
CONTINUOUS
 62
    18
100
AcDbLine
 10
8.039171
 20
10.846029
 30
0.0
 11
8.268287
 21
10.846029
 31
0.0
  0
LINE
  5
150
330
4E
100
AcDbEntity
 67
     1
  8
1
  6
CONTINUOUS
 62
    18
100
AcDbLine
 10
8.049113
 20
10.823721
 30
0.0
 11
8.049113
 21
10.801472
 31
0.0
  0
LINE
  5
151
330
4E
100
AcDbEntity
 67
     1
  8
1
  6
CONTINUOUS
 62
    18
100
AcDbLine
 10
8.049113
 20
10.801472
 30
0.0
 11
8.049113
 21
10.78239
 31
0.0
  0
LINE
  5
152
330
4E
100
AcDbEntity
 67
     1
  8
1
  6
CONTINUOUS
 62
    18
100
AcDbLine
 10
8.258346
 20
10.823721
 30
0.0
 11
8.258346
 21
10.801472
 31
0.0
  0
LINE
  5
153
330
4E
100
AcDbEntity
 67
     1
  8
1
  6
CONTINUOUS
 62
    18
100
AcDbLine
 10
8.258346
 20
10.801472
 30
0.0
 11
8.258346
 21
10.78239
 31
0.0
  0
LINE
  5
154
330
4E
100
AcDbEntity
 67
     1
  8
1
  6
CONTINUOUS
 62
    18
100
AcDbLine
 10
8.039171
 20
10.846029
 30
0.0
 11
8.045282
 21
10.838389
 31
0.0
  0
LINE
  5
155
330
4E
100
AcDbEntity
 67
     1
  8
1
  6
CONTINUOUS
 62
    18
100
AcDbLine
 10
8.045282
 20
10.838389
 30
0.0
 11
8.048597
 21
10.829258
 31
0.0
  0
LINE
  5
156
330
4E
100
AcDbEntity
 67
     1
  8
1
  6
CONTINUOUS
 62
    18
100
AcDbLine
 10
8.048597
 20
10.829258
 30
0.0
 11
8.049113
 21
10.823721
 31
0.0
  0
LINE
  5
157
330
4E
100
AcDbEntity
 67
     1
  8
1
  6
CONTINUOUS
 62
    18
100
AcDbLine
 10
8.049113
 20
10.78239
 30
0.0
 11
8.258346
 21
10.78239
 31
0.0
  0
LINE
  5
158
330
4E
100
AcDbEntity
 67
     1
  8
1
  6
CONTINUOUS
 62
    18
100
AcDbLine
 10
8.258346
 20
10.823721
 30
0.0
 11
8.259882
 21
10.8332
 31
0.0
  0
LINE
  5
159
330
4E
100
AcDbEntity
 67
     1
  8
1
  6
CONTINUOUS
 62
    18
100
AcDbLine
 10
8.259882
 20
10.8332
 30
0.0
 11
8.26443
 21
10.841833
 31
0.0
  0
LINE
  5
15A
330
4E
100
AcDbEntity
 67
     1
  8
1
  6
CONTINUOUS
 62
    18
100
AcDbLine
 10
8.26443
 20
10.841833
 30
0.0
 11
8.268287
 21
10.846029
 31
0.0
  0
LINE
  5
15B
330
4E
100
AcDbEntity
 67
     1
  8
1
  6
CONTINUOUS
 62
    18
100
AcDbLine
 10
8.049113
 20
10.78239
 30
0.0
 11
8.049113
 21
10.734608
 31
0.0
  0
LINE
  5
15C
330
4E
100
AcDbEntity
 67
     1
  8
1
  6
CONTINUOUS
 62
    18
100
AcDbLine
 10
8.258346
 20
10.78239
 30
0.0
 11
8.258346
 21
10.734608
 31
0.0
  0
LINE
  5
15D
330
4E
100
AcDbEntity
 67
     1
  8
1
  6
CONTINUOUS
 62
    18
100
AcDbLine
 10
8.049113
 20
10.734608
 30
0.0
 11
8.047797
 21
10.725821
 31
0.0
  0
LINE
  5
15E
330
4E
100
AcDbEntity
 67
     1
  8
1
  6
CONTINUOUS
 62
    18
100
AcDbLine
 10
8.047797
 20
10.725821
 30
0.0
 11
8.259662
 21
10.725821
 31
0.0
  0
LINE
  5
15F
330
4E
100
AcDbEntity
 67
     1
  8
1
  6
CONTINUOUS
 62
    18
100
AcDbLine
 10
8.259662
 20
10.725821
 30
0.0
 11
8.258346
 21
10.734608
 31
0.0
  0
LINE
  5
160
330
4E
100
AcDbEntity
 67
     1
  8
1
  6
CONTINUOUS
 62
    18
100
AcDbLine
 10
8.047797
 20
10.725821
 30
0.0
 11
8.045217
 21
10.719824
 31
0.0
  0
LINE
  5
161
330
4E
100
AcDbEntity
 67
     1
  8
1
  6
CONTINUOUS
 62
    18
100
AcDbLine
 10
8.045217
 20
10.719824
 30
0.0
 11
8.040701
 21
10.713777
 31
0.0
  0
LINE
  5
162
330
4E
100
AcDbEntity
 67
     1
  8
1
  6
CONTINUOUS
 62
    18
100
AcDbLine
 10
8.040701
 20
10.713777
 30
0.0
 11
8.034587
 21
10.708907
 31
0.0
  0
LINE
  5
163
330
4E
100
AcDbEntity
 67
     1
  8
1
  6
CONTINUOUS
 62
    18
100
AcDbLine
 10
8.034587
 20
10.708907
 30
0.0
 11
8.026429
 21
10.705514
 31
0.0
  0
LINE
  5
164
330
4E
100
AcDbEntity
 67
     1
  8
1
  6
CONTINUOUS
 62
    18
100
AcDbLine
 10
8.026429
 20
10.705514
 30
0.0
 11
8.019113
 21
10.704608
 31
0.0
  0
LINE
  5
165
330
4E
100
AcDbEntity
 67
     1
  8
1
  6
CONTINUOUS
 62
    18
100
AcDbLine
 10
8.288345
 20
10.704608
 30
0.0
 11
8.278502
 21
10.706269
 31
0.0
  0
LINE
  5
166
330
4E
100
AcDbEntity
 67
     1
  8
1
  6
CONTINUOUS
 62
    18
100
AcDbLine
 10
8.278502
 20
10.706269
 30
0.0
 11
8.269756
 21
10.711061
 31
0.0
  0
LINE
  5
167
330
4E
100
AcDbEntity
 67
     1
  8
1
  6
CONTINUOUS
 62
    18
100
AcDbLine
 10
8.269756
 20
10.711061
 30
0.0
 11
8.263449
 21
10.71787
 31
0.0
  0
LINE
  5
168
330
4E
100
AcDbEntity
 67
     1
  8
1
  6
CONTINUOUS
 62
    18
100
AcDbLine
 10
8.263449
 20
10.71787
 30
0.0
 11
8.260202
 21
10.724219
 31
0.0
  0
LINE
  5
169
330
4E
100
AcDbEntity
 67
     1
  8
1
  6
CONTINUOUS
 62
    18
100
AcDbLine
 10
8.260202
 20
10.724219
 30
0.0
 11
8.259662
 21
10.725821
 31
0.0
  0
LINE
  5
16A
330
4E
100
AcDbEntity
 67
     1
  8
1
  6
CONTINUOUS
 62
    18
100
AcDbLine
 10
8.049113
 20
11.640491
 30
0.0
 11
8.049113
 21
11.662742
 31
0.0
  0
LINE
  5
16B
330
4E
100
AcDbEntity
 67
     1
  8
1
  6
CONTINUOUS
 62
    18
100
AcDbLine
 10
8.049113
 20
11.662742
 30
0.0
 11
8.049113
 21
11.681823
 31
0.0
  0
LINE
  5
16C
330
4E
100
AcDbEntity
 67
     1
  8
1
  6
CONTINUOUS
 62
    18
100
AcDbLine
 10
8.258346
 20
11.640491
 30
0.0
 11
8.258346
 21
11.662742
 31
0.0
  0
LINE
  5
16D
330
4E
100
AcDbEntity
 67
     1
  8
1
  6
CONTINUOUS
 62
    18
100
AcDbLine
 10
8.258346
 20
11.662742
 30
0.0
 11
8.258346
 21
11.681823
 31
0.0
  0
LINE
  5
16E
330
4E
100
AcDbEntity
 67
     1
  8
1
  6
CONTINUOUS
 62
    18
100
AcDbLine
 10
8.268287
 20
11.618183
 30
0.0
 11
8.262176
 21
11.625824
 31
0.0
  0
LINE
  5
16F
330
4E
100
AcDbEntity
 67
     1
  8
1
  6
CONTINUOUS
 62
    18
100
AcDbLine
 10
8.262176
 20
11.625824
 30
0.0
 11
8.258861
 21
11.634955
 31
0.0
  0
LINE
  5
170
330
4E
100
AcDbEntity
 67
     1
  8
1
  6
CONTINUOUS
 62
    18
100
AcDbLine
 10
8.258861
 20
11.634955
 30
0.0
 11
8.258346
 21
11.640491
 31
0.0
  0
LINE
  5
171
330
4E
100
AcDbEntity
 67
     1
  8
1
  6
CONTINUOUS
 62
    18
100
AcDbLine
 10
8.049113
 20
11.681823
 30
0.0
 11
8.258346
 21
11.681823
 31
0.0
  0
LINE
  5
172
330
4E
100
AcDbEntity
 67
     1
  8
1
  6
CONTINUOUS
 62
    18
100
AcDbLine
 10
8.049113
 20
11.640491
 30
0.0
 11
8.047576
 21
11.631014
 31
0.0
  0
LINE
  5
173
330
4E
100
AcDbEntity
 67
     1
  8
1
  6
CONTINUOUS
 62
    18
100
AcDbLine
 10
8.047576
 20
11.631014
 30
0.0
 11
8.043029
 21
11.62238
 31
0.0
  0
LINE
  5
174
330
4E
100
AcDbEntity
 67
     1
  8
1
  6
CONTINUOUS
 62
    18
100
AcDbLine
 10
8.043029
 20
11.62238
 30
0.0
 11
8.039171
 21
11.618183
 31
0.0
  0
LINE
  5
175
330
4E
100
AcDbEntity
 67
     1
  8
1
  6
CONTINUOUS
 62
    18
100
AcDbLine
 10
8.049113
 20
11.681823
 30
0.0
 11
8.049113
 21
11.729605
 31
0.0
  0
LINE
  5
176
330
4E
100
AcDbEntity
 67
     1
  8
1
  6
CONTINUOUS
 62
    18
100
AcDbLine
 10
8.258346
 20
11.681823
 30
0.0
 11
8.258346
 21
11.729605
 31
0.0
  0
LINE
  5
177
330
4E
100
AcDbEntity
 67
     1
  8
1
  6
CONTINUOUS
 62
    18
100
AcDbLine
 10
8.258346
 20
11.729605
 30
0.0
 11
8.259662
 21
11.738392
 31
0.0
  0
LINE
  5
178
330
4E
100
AcDbEntity
 67
     1
  8
1
  6
CONTINUOUS
 62
    18
100
AcDbLine
 10
8.047797
 20
11.738392
 30
0.0
 11
8.259662
 21
11.738392
 31
0.0
  0
LINE
  5
179
330
4E
100
AcDbEntity
 67
     1
  8
1
  6
CONTINUOUS
 62
    18
100
AcDbLine
 10
8.047797
 20
11.738392
 30
0.0
 11
8.049113
 21
11.729605
 31
0.0
  0
LINE
  5
17A
330
4E
100
AcDbEntity
 67
     1
  8
1
  6
CONTINUOUS
 62
    18
100
AcDbLine
 10
8.259662
 20
11.738392
 30
0.0
 11
8.262241
 21
11.74439
 31
0.0
  0
LINE
  5
17B
330
4E
100
AcDbEntity
 67
     1
  8
1
  6
CONTINUOUS
 62
    18
100
AcDbLine
 10
8.262241
 20
11.74439
 30
0.0
 11
8.266757
 21
11.750436
 31
0.0
  0
LINE
  5
17C
330
4E
100
AcDbEntity
 67
     1
  8
1
  6
CONTINUOUS
 62
    18
100
AcDbLine
 10
8.266757
 20
11.750436
 30
0.0
 11
8.272872
 21
11.755306
 31
0.0
  0
LINE
  5
17D
330
4E
100
AcDbEntity
 67
     1
  8
1
  6
CONTINUOUS
 62
    18
100
AcDbLine
 10
8.272872
 20
11.755306
 30
0.0
 11
8.281029
 21
11.758698
 31
0.0
  0
LINE
  5
17E
330
4E
100
AcDbEntity
 67
     1
  8
1
  6
CONTINUOUS
 62
    18
100
AcDbLine
 10
8.281029
 20
11.758698
 30
0.0
 11
8.288345
 21
11.759604
 31
0.0
  0
LINE
  5
17F
330
4E
100
AcDbEntity
 67
     1
  8
1
  6
CONTINUOUS
 62
    18
100
AcDbLine
 10
8.019113
 20
11.759604
 30
0.0
 11
8.028957
 21
11.757943
 31
0.0
  0
LINE
  5
180
330
4E
100
AcDbEntity
 67
     1
  8
1
  6
CONTINUOUS
 62
    18
100
AcDbLine
 10
8.028957
 20
11.757943
 30
0.0
 11
8.037703
 21
11.753151
 31
0.0
  0
LINE
  5
181
330
4E
100
AcDbEntity
 67
     1
  8
1
  6
CONTINUOUS
 62
    18
100
AcDbLine
 10
8.037703
 20
11.753151
 30
0.0
 11
8.044009
 21
11.746343
 31
0.0
  0
LINE
  5
182
330
4E
100
AcDbEntity
 67
     1
  8
1
  6
CONTINUOUS
 62
    18
100
AcDbLine
 10
8.044009
 20
11.746343
 30
0.0
 11
8.047256
 21
11.739994
 31
0.0
  0
LINE
  5
183
330
4E
100
AcDbEntity
 67
     1
  8
1
  6
CONTINUOUS
 62
    18
100
AcDbLine
 10
8.047256
 20
11.739994
 30
0.0
 11
8.047797
 21
11.738392
 31
0.0
  0
LINE
  5
184
330
4E
100
AcDbEntity
 67
     1
  8
1
  6
CONTINUOUS
 62
    18
100
AcDbLine
 10
13.768287
 20
11.618183
 30
0.0
 11
13.539171
 21
11.618183
 31
0.0
  0
LINE
  5
185
330
4E
100
AcDbEntity
 67
     1
  8
1
  6
CONTINUOUS
 62
    18
100
AcDbLine
 10
13.539171
 20
10.846029
 30
0.0
 11
13.768287
 21
10.846029
 31
0.0
  0
LINE
  5
186
330
4E
100
AcDbEntity
 67
     1
  8
1
  6
CONTINUOUS
 62
    18
100
AcDbLine
 10
13.549113
 20
10.823721
 30
0.0
 11
13.549113
 21
10.801472
 31
0.0
  0
LINE
  5
187
330
4E
100
AcDbEntity
 67
     1
  8
1
  6
CONTINUOUS
 62
    18
100
AcDbLine
 10
13.549113
 20
10.801472
 30
0.0
 11
13.549113
 21
10.78239
 31
0.0
  0
LINE
  5
188
330
4E
100
AcDbEntity
 67
     1
  8
1
  6
CONTINUOUS
 62
    18
100
AcDbLine
 10
13.758346
 20
10.823721
 30
0.0
 11
13.758346
 21
10.801472
 31
0.0
  0
LINE
  5
189
330
4E
100
AcDbEntity
 67
     1
  8
1
  6
CONTINUOUS
 62
    18
100
AcDbLine
 10
13.758346
 20
10.801472
 30
0.0
 11
13.758346
 21
10.78239
 31
0.0
  0
LINE
  5
18A
330
4E
100
AcDbEntity
 67
     1
  8
1
  6
CONTINUOUS
 62
    18
100
AcDbLine
 10
13.539171
 20
10.846029
 30
0.0
 11
13.545282
 21
10.838389
 31
0.0
  0
LINE
  5
18B
330
4E
100
AcDbEntity
 67
     1
  8
1
  6
CONTINUOUS
 62
    18
100
AcDbLine
 10
13.545282
 20
10.838389
 30
0.0
 11
13.548597
 21
10.829258
 31
0.0
  0
LINE
  5
18C
330
4E
100
AcDbEntity
 67
     1
  8
1
  6
CONTINUOUS
 62
    18
100
AcDbLine
 10
13.548597
 20
10.829258
 30
0.0
 11
13.549113
 21
10.823721
 31
0.0
  0
LINE
  5
18D
330
4E
100
AcDbEntity
 67
     1
  8
1
  6
CONTINUOUS
 62
    18
100
AcDbLine
 10
13.549113
 20
10.78239
 30
0.0
 11
13.758346
 21
10.78239
 31
0.0
  0
LINE
  5
18E
330
4E
100
AcDbEntity
 67
     1
  8
1
  6
CONTINUOUS
 62
    18
100
AcDbLine
 10
13.758346
 20
10.823721
 30
0.0
 11
13.759882
 21
10.8332
 31
0.0
  0
LINE
  5
18F
330
4E
100
AcDbEntity
 67
     1
  8
1
  6
CONTINUOUS
 62
    18
100
AcDbLine
 10
13.759882
 20
10.8332
 30
0.0
 11
13.76443
 21
10.841833
 31
0.0
  0
LINE
  5
190
330
4E
100
AcDbEntity
 67
     1
  8
1
  6
CONTINUOUS
 62
    18
100
AcDbLine
 10
13.76443
 20
10.841833
 30
0.0
 11
13.768287
 21
10.846029
 31
0.0
  0
LINE
  5
191
330
4E
100
AcDbEntity
 67
     1
  8
1
  6
CONTINUOUS
 62
    18
100
AcDbLine
 10
13.549113
 20
10.78239
 30
0.0
 11
13.549113
 21
10.734608
 31
0.0
  0
LINE
  5
192
330
4E
100
AcDbEntity
 67
     1
  8
1
  6
CONTINUOUS
 62
    18
100
AcDbLine
 10
13.758346
 20
10.78239
 30
0.0
 11
13.758346
 21
10.734608
 31
0.0
  0
LINE
  5
193
330
4E
100
AcDbEntity
 67
     1
  8
1
  6
CONTINUOUS
 62
    18
100
AcDbLine
 10
13.549113
 20
10.734608
 30
0.0
 11
13.547797
 21
10.725821
 31
0.0
  0
LINE
  5
194
330
4E
100
AcDbEntity
 67
     1
  8
1
  6
CONTINUOUS
 62
    18
100
AcDbLine
 10
13.547797
 20
10.725821
 30
0.0
 11
13.759662
 21
10.725821
 31
0.0
  0
LINE
  5
195
330
4E
100
AcDbEntity
 67
     1
  8
1
  6
CONTINUOUS
 62
    18
100
AcDbLine
 10
13.759662
 20
10.725821
 30
0.0
 11
13.758346
 21
10.734608
 31
0.0
  0
LINE
  5
196
330
4E
100
AcDbEntity
 67
     1
  8
1
  6
CONTINUOUS
 62
    18
100
AcDbLine
 10
13.547797
 20
10.725821
 30
0.0
 11
13.545217
 21
10.719824
 31
0.0
  0
LINE
  5
197
330
4E
100
AcDbEntity
 67
     1
  8
1
  6
CONTINUOUS
 62
    18
100
AcDbLine
 10
13.545217
 20
10.719824
 30
0.0
 11
13.540701
 21
10.713777
 31
0.0
  0
LINE
  5
198
330
4E
100
AcDbEntity
 67
     1
  8
1
  6
CONTINUOUS
 62
    18
100
AcDbLine
 10
13.540701
 20
10.713777
 30
0.0
 11
13.534587
 21
10.708907
 31
0.0
  0
LINE
  5
199
330
4E
100
AcDbEntity
 67
     1
  8
1
  6
CONTINUOUS
 62
    18
100
AcDbLine
 10
13.534587
 20
10.708907
 30
0.0
 11
13.526429
 21
10.705514
 31
0.0
  0
LINE
  5
19A
330
4E
100
AcDbEntity
 67
     1
  8
1
  6
CONTINUOUS
 62
    18
100
AcDbLine
 10
13.526429
 20
10.705514
 30
0.0
 11
13.519113
 21
10.704608
 31
0.0
  0
LINE
  5
19B
330
4E
100
AcDbEntity
 67
     1
  8
1
  6
CONTINUOUS
 62
    18
100
AcDbLine
 10
13.788345
 20
10.704608
 30
0.0
 11
13.778502
 21
10.706269
 31
0.0
  0
LINE
  5
19C
330
4E
100
AcDbEntity
 67
     1
  8
1
  6
CONTINUOUS
 62
    18
100
AcDbLine
 10
13.778502
 20
10.706269
 30
0.0
 11
13.769756
 21
10.711061
 31
0.0
  0
LINE
  5
19D
330
4E
100
AcDbEntity
 67
     1
  8
1
  6
CONTINUOUS
 62
    18
100
AcDbLine
 10
13.769756
 20
10.711061
 30
0.0
 11
13.763449
 21
10.71787
 31
0.0
  0
LINE
  5
19E
330
4E
100
AcDbEntity
 67
     1
  8
1
  6
CONTINUOUS
 62
    18
100
AcDbLine
 10
13.763449
 20
10.71787
 30
0.0
 11
13.760202
 21
10.724219
 31
0.0
  0
LINE
  5
19F
330
4E
100
AcDbEntity
 67
     1
  8
1
  6
CONTINUOUS
 62
    18
100
AcDbLine
 10
13.760202
 20
10.724219
 30
0.0
 11
13.759662
 21
10.725821
 31
0.0
  0
LINE
  5
1A0
330
4E
100
AcDbEntity
 67
     1
  8
1
  6
CONTINUOUS
 62
    18
100
AcDbLine
 10
13.549113
 20
11.640491
 30
0.0
 11
13.549113
 21
11.662742
 31
0.0
  0
LINE
  5
1A1
330
4E
100
AcDbEntity
 67
     1
  8
1
  6
CONTINUOUS
 62
    18
100
AcDbLine
 10
13.549113
 20
11.662742
 30
0.0
 11
13.549113
 21
11.681823
 31
0.0
  0
LINE
  5
1A2
330
4E
100
AcDbEntity
 67
     1
  8
1
  6
CONTINUOUS
 62
    18
100
AcDbLine
 10
13.758346
 20
11.640491
 30
0.0
 11
13.758346
 21
11.662742
 31
0.0
  0
LINE
  5
1A3
330
4E
100
AcDbEntity
 67
     1
  8
1
  6
CONTINUOUS
 62
    18
100
AcDbLine
 10
13.758346
 20
11.662742
 30
0.0
 11
13.758346
 21
11.681823
 31
0.0
  0
LINE
  5
1A4
330
4E
100
AcDbEntity
 67
     1
  8
1
  6
CONTINUOUS
 62
    18
100
AcDbLine
 10
13.768287
 20
11.618183
 30
0.0
 11
13.762176
 21
11.625824
 31
0.0
  0
LINE
  5
1A5
330
4E
100
AcDbEntity
 67
     1
  8
1
  6
CONTINUOUS
 62
    18
100
AcDbLine
 10
13.762176
 20
11.625824
 30
0.0
 11
13.758861
 21
11.634955
 31
0.0
  0
LINE
  5
1A6
330
4E
100
AcDbEntity
 67
     1
  8
1
  6
CONTINUOUS
 62
    18
100
AcDbLine
 10
13.758861
 20
11.634955
 30
0.0
 11
13.758346
 21
11.640491
 31
0.0
  0
LINE
  5
1A7
330
4E
100
AcDbEntity
 67
     1
  8
1
  6
CONTINUOUS
 62
    18
100
AcDbLine
 10
13.549113
 20
11.681823
 30
0.0
 11
13.758346
 21
11.681823
 31
0.0
  0
LINE
  5
1A8
330
4E
100
AcDbEntity
 67
     1
  8
1
  6
CONTINUOUS
 62
    18
100
AcDbLine
 10
13.549113
 20
11.640491
 30
0.0
 11
13.547576
 21
11.631014
 31
0.0
  0
LINE
  5
1A9
330
4E
100
AcDbEntity
 67
     1
  8
1
  6
CONTINUOUS
 62
    18
100
AcDbLine
 10
13.547576
 20
11.631014
 30
0.0
 11
13.543029
 21
11.62238
 31
0.0
  0
LINE
  5
1AA
330
4E
100
AcDbEntity
 67
     1
  8
1
  6
CONTINUOUS
 62
    18
100
AcDbLine
 10
13.543029
 20
11.62238
 30
0.0
 11
13.539171
 21
11.618183
 31
0.0
  0
LINE
  5
1AB
330
4E
100
AcDbEntity
 67
     1
  8
1
  6
CONTINUOUS
 62
    18
100
AcDbLine
 10
13.549113
 20
11.681823
 30
0.0
 11
13.549113
 21
11.729605
 31
0.0
  0
LINE
  5
1AC
330
4E
100
AcDbEntity
 67
     1
  8
1
  6
CONTINUOUS
 62
    18
100
AcDbLine
 10
13.758346
 20
11.681823
 30
0.0
 11
13.758346
 21
11.729605
 31
0.0
  0
LINE
  5
1AD
330
4E
100
AcDbEntity
 67
     1
  8
1
  6
CONTINUOUS
 62
    18
100
AcDbLine
 10
13.758346
 20
11.729605
 30
0.0
 11
13.759662
 21
11.738392
 31
0.0
  0
LINE
  5
1AE
330
4E
100
AcDbEntity
 67
     1
  8
1
  6
CONTINUOUS
 62
    18
100
AcDbLine
 10
13.547797
 20
11.738392
 30
0.0
 11
13.759662
 21
11.738392
 31
0.0
  0
LINE
  5
1AF
330
4E
100
AcDbEntity
 67
     1
  8
1
  6
CONTINUOUS
 62
    18
100
AcDbLine
 10
13.547797
 20
11.738392
 30
0.0
 11
13.549113
 21
11.729605
 31
0.0
  0
LINE
  5
1B0
330
4E
100
AcDbEntity
 67
     1
  8
1
  6
CONTINUOUS
 62
    18
100
AcDbLine
 10
13.759662
 20
11.738392
 30
0.0
 11
13.762241
 21
11.74439
 31
0.0
  0
LINE
  5
1B1
330
4E
100
AcDbEntity
 67
     1
  8
1
  6
CONTINUOUS
 62
    18
100
AcDbLine
 10
13.762241
 20
11.74439
 30
0.0
 11
13.766757
 21
11.750436
 31
0.0
  0
LINE
  5
1B2
330
4E
100
AcDbEntity
 67
     1
  8
1
  6
CONTINUOUS
 62
    18
100
AcDbLine
 10
13.766757
 20
11.750436
 30
0.0
 11
13.772872
 21
11.755306
 31
0.0
  0
LINE
  5
1B3
330
4E
100
AcDbEntity
 67
     1
  8
1
  6
CONTINUOUS
 62
    18
100
AcDbLine
 10
13.772872
 20
11.755306
 30
0.0
 11
13.781029
 21
11.758698
 31
0.0
  0
LINE
  5
1B4
330
4E
100
AcDbEntity
 67
     1
  8
1
  6
CONTINUOUS
 62
    18
100
AcDbLine
 10
13.781029
 20
11.758698
 30
0.0
 11
13.788345
 21
11.759604
 31
0.0
  0
LINE
  5
1B5
330
4E
100
AcDbEntity
 67
     1
  8
1
  6
CONTINUOUS
 62
    18
100
AcDbLine
 10
13.519113
 20
11.759604
 30
0.0
 11
13.528957
 21
11.757943
 31
0.0
  0
LINE
  5
1B6
330
4E
100
AcDbEntity
 67
     1
  8
1
  6
CONTINUOUS
 62
    18
100
AcDbLine
 10
13.528957
 20
11.757943
 30
0.0
 11
13.537703
 21
11.753151
 31
0.0
  0
LINE
  5
1B7
330
4E
100
AcDbEntity
 67
     1
  8
1
  6
CONTINUOUS
 62
    18
100
AcDbLine
 10
13.537703
 20
11.753151
 30
0.0
 11
13.544009
 21
11.746343
 31
0.0
  0
LINE
  5
1B8
330
4E
100
AcDbEntity
 67
     1
  8
1
  6
CONTINUOUS
 62
    18
100
AcDbLine
 10
13.544009
 20
11.746343
 30
0.0
 11
13.547256
 21
11.739994
 31
0.0
  0
LINE
  5
1B9
330
4E
100
AcDbEntity
 67
     1
  8
1
  6
CONTINUOUS
 62
    18
100
AcDbLine
 10
13.547256
 20
11.739994
 30
0.0
 11
13.547797
 21
11.738392
 31
0.0
  0
LINE
  5
1BA
330
4E
100
AcDbEntity
 67
     1
  8
1
  6
CONTINUOUS
 62
    18
100
AcDbLine
 10
16.268288
 20
11.618183
 30
0.0
 11
16.039171
 21
11.618183
 31
0.0
  0
LINE
  5
1BB
330
4E
100
AcDbEntity
 67
     1
  8
1
  6
CONTINUOUS
 62
    18
100
AcDbLine
 10
16.039171
 20
10.846029
 30
0.0
 11
16.268288
 21
10.846029
 31
0.0
  0
LINE
  5
1BC
330
4E
100
AcDbEntity
 67
     1
  8
1
  6
CONTINUOUS
 62
    18
100
AcDbLine
 10
16.049112
 20
10.823721
 30
0.0
 11
16.049112
 21
10.801472
 31
0.0
  0
LINE
  5
1BD
330
4E
100
AcDbEntity
 67
     1
  8
1
  6
CONTINUOUS
 62
    18
100
AcDbLine
 10
16.049112
 20
10.801472
 30
0.0
 11
16.049112
 21
10.78239
 31
0.0
  0
LINE
  5
1BE
330
4E
100
AcDbEntity
 67
     1
  8
1
  6
CONTINUOUS
 62
    18
100
AcDbLine
 10
16.258347
 20
10.823721
 30
0.0
 11
16.258347
 21
10.801472
 31
0.0
  0
LINE
  5
1BF
330
4E
100
AcDbEntity
 67
     1
  8
1
  6
CONTINUOUS
 62
    18
100
AcDbLine
 10
16.258347
 20
10.801472
 30
0.0
 11
16.258347
 21
10.78239
 31
0.0
  0
LINE
  5
1C0
330
4E
100
AcDbEntity
 67
     1
  8
1
  6
CONTINUOUS
 62
    18
100
AcDbLine
 10
16.039171
 20
10.846029
 30
0.0
 11
16.045282
 21
10.838389
 31
0.0
  0
LINE
  5
1C1
330
4E
100
AcDbEntity
 67
     1
  8
1
  6
CONTINUOUS
 62
    18
100
AcDbLine
 10
16.045282
 20
10.838389
 30
0.0
 11
16.048597
 21
10.829258
 31
0.0
  0
LINE
  5
1C2
330
4E
100
AcDbEntity
 67
     1
  8
1
  6
CONTINUOUS
 62
    18
100
AcDbLine
 10
16.048597
 20
10.829258
 30
0.0
 11
16.049112
 21
10.823721
 31
0.0
  0
LINE
  5
1C3
330
4E
100
AcDbEntity
 67
     1
  8
1
  6
CONTINUOUS
 62
    18
100
AcDbLine
 10
16.049112
 20
10.78239
 30
0.0
 11
16.258347
 21
10.78239
 31
0.0
  0
LINE
  5
1C4
330
4E
100
AcDbEntity
 67
     1
  8
1
  6
CONTINUOUS
 62
    18
100
AcDbLine
 10
16.258347
 20
10.823721
 30
0.0
 11
16.259882
 21
10.8332
 31
0.0
  0
LINE
  5
1C5
330
4E
100
AcDbEntity
 67
     1
  8
1
  6
CONTINUOUS
 62
    18
100
AcDbLine
 10
16.259882
 20
10.8332
 30
0.0
 11
16.264429
 21
10.841833
 31
0.0
  0
LINE
  5
1C6
330
4E
100
AcDbEntity
 67
     1
  8
1
  6
CONTINUOUS
 62
    18
100
AcDbLine
 10
16.264429
 20
10.841833
 30
0.0
 11
16.268288
 21
10.846029
 31
0.0
  0
LINE
  5
1C7
330
4E
100
AcDbEntity
 67
     1
  8
1
  6
CONTINUOUS
 62
    18
100
AcDbLine
 10
16.049112
 20
10.78239
 30
0.0
 11
16.049112
 21
10.734608
 31
0.0
  0
LINE
  5
1C8
330
4E
100
AcDbEntity
 67
     1
  8
1
  6
CONTINUOUS
 62
    18
100
AcDbLine
 10
16.258347
 20
10.78239
 30
0.0
 11
16.258347
 21
10.734608
 31
0.0
  0
LINE
  5
1C9
330
4E
100
AcDbEntity
 67
     1
  8
1
  6
CONTINUOUS
 62
    18
100
AcDbLine
 10
16.049112
 20
10.734608
 30
0.0
 11
16.047798
 21
10.725821
 31
0.0
  0
LINE
  5
1CA
330
4E
100
AcDbEntity
 67
     1
  8
1
  6
CONTINUOUS
 62
    18
100
AcDbLine
 10
16.047798
 20
10.725821
 30
0.0
 11
16.259661
 21
10.725821
 31
0.0
  0
LINE
  5
1CB
330
4E
100
AcDbEntity
 67
     1
  8
1
  6
CONTINUOUS
 62
    18
100
AcDbLine
 10
16.259661
 20
10.725821
 30
0.0
 11
16.258347
 21
10.734608
 31
0.0
  0
LINE
  5
1CC
330
4E
100
AcDbEntity
 67
     1
  8
1
  6
CONTINUOUS
 62
    18
100
AcDbLine
 10
16.047798
 20
10.725821
 30
0.0
 11
16.045218
 21
10.719824
 31
0.0
  0
LINE
  5
1CD
330
4E
100
AcDbEntity
 67
     1
  8
1
  6
CONTINUOUS
 62
    18
100
AcDbLine
 10
16.045218
 20
10.719824
 30
0.0
 11
16.040701
 21
10.713777
 31
0.0
  0
LINE
  5
1CE
330
4E
100
AcDbEntity
 67
     1
  8
1
  6
CONTINUOUS
 62
    18
100
AcDbLine
 10
16.040701
 20
10.713777
 30
0.0
 11
16.034586
 21
10.708907
 31
0.0
  0
LINE
  5
1CF
330
4E
100
AcDbEntity
 67
     1
  8
1
  6
CONTINUOUS
 62
    18
100
AcDbLine
 10
16.034586
 20
10.708907
 30
0.0
 11
16.02643
 21
10.705514
 31
0.0
  0
LINE
  5
1D0
330
4E
100
AcDbEntity
 67
     1
  8
1
  6
CONTINUOUS
 62
    18
100
AcDbLine
 10
16.02643
 20
10.705514
 30
0.0
 11
16.019114
 21
10.704608
 31
0.0
  0
LINE
  5
1D1
330
4E
100
AcDbEntity
 67
     1
  8
1
  6
CONTINUOUS
 62
    18
100
AcDbLine
 10
16.288345
 20
10.704608
 30
0.0
 11
16.278502
 21
10.706269
 31
0.0
  0
LINE
  5
1D2
330
4E
100
AcDbEntity
 67
     1
  8
1
  6
CONTINUOUS
 62
    18
100
AcDbLine
 10
16.278502
 20
10.706269
 30
0.0
 11
16.269756
 21
10.711061
 31
0.0
  0
LINE
  5
1D3
330
4E
100
AcDbEntity
 67
     1
  8
1
  6
CONTINUOUS
 62
    18
100
AcDbLine
 10
16.269756
 20
10.711061
 30
0.0
 11
16.263449
 21
10.71787
 31
0.0
  0
LINE
  5
1D4
330
4E
100
AcDbEntity
 67
     1
  8
1
  6
CONTINUOUS
 62
    18
100
AcDbLine
 10
16.263449
 20
10.71787
 30
0.0
 11
16.260202
 21
10.724219
 31
0.0
  0
LINE
  5
1D5
330
4E
100
AcDbEntity
 67
     1
  8
1
  6
CONTINUOUS
 62
    18
100
AcDbLine
 10
16.260202
 20
10.724219
 30
0.0
 11
16.259661
 21
10.725821
 31
0.0
  0
LINE
  5
1D6
330
4E
100
AcDbEntity
 67
     1
  8
1
  6
CONTINUOUS
 62
    18
100
AcDbLine
 10
16.049112
 20
11.640491
 30
0.0
 11
16.049112
 21
11.662742
 31
0.0
  0
LINE
  5
1D7
330
4E
100
AcDbEntity
 67
     1
  8
1
  6
CONTINUOUS
 62
    18
100
AcDbLine
 10
16.049112
 20
11.662742
 30
0.0
 11
16.049112
 21
11.681823
 31
0.0
  0
LINE
  5
1D8
330
4E
100
AcDbEntity
 67
     1
  8
1
  6
CONTINUOUS
 62
    18
100
AcDbLine
 10
16.258347
 20
11.640491
 30
0.0
 11
16.258347
 21
11.662742
 31
0.0
  0
LINE
  5
1D9
330
4E
100
AcDbEntity
 67
     1
  8
1
  6
CONTINUOUS
 62
    18
100
AcDbLine
 10
16.258347
 20
11.662742
 30
0.0
 11
16.258347
 21
11.681823
 31
0.0
  0
LINE
  5
1DA
330
4E
100
AcDbEntity
 67
     1
  8
1
  6
CONTINUOUS
 62
    18
100
AcDbLine
 10
16.268288
 20
11.618183
 30
0.0
 11
16.262177
 21
11.625824
 31
0.0
  0
LINE
  5
1DB
330
4E
100
AcDbEntity
 67
     1
  8
1
  6
CONTINUOUS
 62
    18
100
AcDbLine
 10
16.262177
 20
11.625824
 30
0.0
 11
16.258862
 21
11.634955
 31
0.0
  0
LINE
  5
1DC
330
4E
100
AcDbEntity
 67
     1
  8
1
  6
CONTINUOUS
 62
    18
100
AcDbLine
 10
16.258862
 20
11.634955
 30
0.0
 11
16.258347
 21
11.640491
 31
0.0
  0
LINE
  5
1DD
330
4E
100
AcDbEntity
 67
     1
  8
1
  6
CONTINUOUS
 62
    18
100
AcDbLine
 10
16.049112
 20
11.681823
 30
0.0
 11
16.258347
 21
11.681823
 31
0.0
  0
LINE
  5
1DE
330
4E
100
AcDbEntity
 67
     1
  8
1
  6
CONTINUOUS
 62
    18
100
AcDbLine
 10
16.049112
 20
11.640491
 30
0.0
 11
16.047577
 21
11.631014
 31
0.0
  0
LINE
  5
1DF
330
4E
100
AcDbEntity
 67
     1
  8
1
  6
CONTINUOUS
 62
    18
100
AcDbLine
 10
16.047577
 20
11.631014
 30
0.0
 11
16.043028
 21
11.62238
 31
0.0
  0
LINE
  5
1E0
330
4E
100
AcDbEntity
 67
     1
  8
1
  6
CONTINUOUS
 62
    18
100
AcDbLine
 10
16.043028
 20
11.62238
 30
0.0
 11
16.039171
 21
11.618183
 31
0.0
  0
LINE
  5
1E1
330
4E
100
AcDbEntity
 67
     1
  8
1
  6
CONTINUOUS
 62
    18
100
AcDbLine
 10
16.049112
 20
11.681823
 30
0.0
 11
16.049112
 21
11.729605
 31
0.0
  0
LINE
  5
1E2
330
4E
100
AcDbEntity
 67
     1
  8
1
  6
CONTINUOUS
 62
    18
100
AcDbLine
 10
16.258347
 20
11.681823
 30
0.0
 11
16.258347
 21
11.729605
 31
0.0
  0
LINE
  5
1E3
330
4E
100
AcDbEntity
 67
     1
  8
1
  6
CONTINUOUS
 62
    18
100
AcDbLine
 10
16.258347
 20
11.729605
 30
0.0
 11
16.259661
 21
11.738392
 31
0.0
  0
LINE
  5
1E4
330
4E
100
AcDbEntity
 67
     1
  8
1
  6
CONTINUOUS
 62
    18
100
AcDbLine
 10
16.047798
 20
11.738392
 30
0.0
 11
16.259661
 21
11.738392
 31
0.0
  0
LINE
  5
1E5
330
4E
100
AcDbEntity
 67
     1
  8
1
  6
CONTINUOUS
 62
    18
100
AcDbLine
 10
16.047798
 20
11.738392
 30
0.0
 11
16.049112
 21
11.729605
 31
0.0
  0
LINE
  5
1E6
330
4E
100
AcDbEntity
 67
     1
  8
1
  6
CONTINUOUS
 62
    18
100
AcDbLine
 10
16.259661
 20
11.738392
 30
0.0
 11
16.262241
 21
11.74439
 31
0.0
  0
LINE
  5
1E7
330
4E
100
AcDbEntity
 67
     1
  8
1
  6
CONTINUOUS
 62
    18
100
AcDbLine
 10
16.262241
 20
11.74439
 30
0.0
 11
16.266758
 21
11.750436
 31
0.0
  0
LINE
  5
1E8
330
4E
100
AcDbEntity
 67
     1
  8
1
  6
CONTINUOUS
 62
    18
100
AcDbLine
 10
16.266758
 20
11.750436
 30
0.0
 11
16.272871
 21
11.755306
 31
0.0
  0
LINE
  5
1E9
330
4E
100
AcDbEntity
 67
     1
  8
1
  6
CONTINUOUS
 62
    18
100
AcDbLine
 10
16.272871
 20
11.755306
 30
0.0
 11
16.281029
 21
11.758698
 31
0.0
  0
LINE
  5
1EA
330
4E
100
AcDbEntity
 67
     1
  8
1
  6
CONTINUOUS
 62
    18
100
AcDbLine
 10
16.281029
 20
11.758698
 30
0.0
 11
16.288345
 21
11.759604
 31
0.0
  0
LINE
  5
1EB
330
4E
100
AcDbEntity
 67
     1
  8
1
  6
CONTINUOUS
 62
    18
100
AcDbLine
 10
16.019114
 20
11.759604
 30
0.0
 11
16.028957
 21
11.757943
 31
0.0
  0
LINE
  5
1EC
330
4E
100
AcDbEntity
 67
     1
  8
1
  6
CONTINUOUS
 62
    18
100
AcDbLine
 10
16.028957
 20
11.757943
 30
0.0
 11
16.037703
 21
11.753151
 31
0.0
  0
LINE
  5
1ED
330
4E
100
AcDbEntity
 67
     1
  8
1
  6
CONTINUOUS
 62
    18
100
AcDbLine
 10
16.037703
 20
11.753151
 30
0.0
 11
16.04401
 21
11.746343
 31
0.0
  0
LINE
  5
1EE
330
4E
100
AcDbEntity
 67
     1
  8
1
  6
CONTINUOUS
 62
    18
100
AcDbLine
 10
16.04401
 20
11.746343
 30
0.0
 11
16.047256
 21
11.739994
 31
0.0
  0
LINE
  5
1EF
330
4E
100
AcDbEntity
 67
     1
  8
1
  6
CONTINUOUS
 62
    18
100
AcDbLine
 10
16.047256
 20
11.739994
 30
0.0
 11
16.047798
 21
11.738392
 31
0.0
  0
LINE
  5
1F0
330
4E
100
AcDbEntity
 67
     1
  8
1
  6
CONTINUOUS
 62
    18
100
AcDbLine
 10
18.768288
 20
11.618183
 30
0.0
 11
18.539171
 21
11.618183
 31
0.0
  0
LINE
  5
1F1
330
4E
100
AcDbEntity
 67
     1
  8
1
  6
CONTINUOUS
 62
    18
100
AcDbLine
 10
18.539171
 20
10.846029
 30
0.0
 11
18.768288
 21
10.846029
 31
0.0
  0
LINE
  5
1F2
330
4E
100
AcDbEntity
 67
     1
  8
1
  6
CONTINUOUS
 62
    18
100
AcDbLine
 10
18.549112
 20
10.823721
 30
0.0
 11
18.549112
 21
10.801472
 31
0.0
  0
LINE
  5
1F3
330
4E
100
AcDbEntity
 67
     1
  8
1
  6
CONTINUOUS
 62
    18
100
AcDbLine
 10
18.549112
 20
10.801472
 30
0.0
 11
18.549112
 21
10.78239
 31
0.0
  0
LINE
  5
1F4
330
4E
100
AcDbEntity
 67
     1
  8
1
  6
CONTINUOUS
 62
    18
100
AcDbLine
 10
18.758347
 20
10.823721
 30
0.0
 11
18.758347
 21
10.801472
 31
0.0
  0
LINE
  5
1F5
330
4E
100
AcDbEntity
 67
     1
  8
1
  6
CONTINUOUS
 62
    18
100
AcDbLine
 10
18.758347
 20
10.801472
 30
0.0
 11
18.758347
 21
10.78239
 31
0.0
  0
LINE
  5
1F6
330
4E
100
AcDbEntity
 67
     1
  8
1
  6
CONTINUOUS
 62
    18
100
AcDbLine
 10
18.539171
 20
10.846029
 30
0.0
 11
18.545282
 21
10.838389
 31
0.0
  0
LINE
  5
1F7
330
4E
100
AcDbEntity
 67
     1
  8
1
  6
CONTINUOUS
 62
    18
100
AcDbLine
 10
18.545282
 20
10.838389
 30
0.0
 11
18.548597
 21
10.829258
 31
0.0
  0
LINE
  5
1F8
330
4E
100
AcDbEntity
 67
     1
  8
1
  6
CONTINUOUS
 62
    18
100
AcDbLine
 10
18.548597
 20
10.829258
 30
0.0
 11
18.549112
 21
10.823721
 31
0.0
  0
LINE
  5
1F9
330
4E
100
AcDbEntity
 67
     1
  8
1
  6
CONTINUOUS
 62
    18
100
AcDbLine
 10
18.549112
 20
10.78239
 30
0.0
 11
18.758347
 21
10.78239
 31
0.0
  0
LINE
  5
1FA
330
4E
100
AcDbEntity
 67
     1
  8
1
  6
CONTINUOUS
 62
    18
100
AcDbLine
 10
18.758347
 20
10.823721
 30
0.0
 11
18.759882
 21
10.8332
 31
0.0
  0
LINE
  5
1FB
330
4E
100
AcDbEntity
 67
     1
  8
1
  6
CONTINUOUS
 62
    18
100
AcDbLine
 10
18.759882
 20
10.8332
 30
0.0
 11
18.764429
 21
10.841833
 31
0.0
  0
LINE
  5
1FC
330
4E
100
AcDbEntity
 67
     1
  8
1
  6
CONTINUOUS
 62
    18
100
AcDbLine
 10
18.764429
 20
10.841833
 30
0.0
 11
18.768288
 21
10.846029
 31
0.0
  0
LINE
  5
1FD
330
4E
100
AcDbEntity
 67
     1
  8
1
  6
CONTINUOUS
 62
    18
100
AcDbLine
 10
18.549112
 20
10.78239
 30
0.0
 11
18.549112
 21
10.734608
 31
0.0
  0
LINE
  5
1FE
330
4E
100
AcDbEntity
 67
     1
  8
1
  6
CONTINUOUS
 62
    18
100
AcDbLine
 10
18.758347
 20
10.78239
 30
0.0
 11
18.758347
 21
10.734608
 31
0.0
  0
LINE
  5
1FF
330
4E
100
AcDbEntity
 67
     1
  8
1
  6
CONTINUOUS
 62
    18
100
AcDbLine
 10
18.549112
 20
10.734608
 30
0.0
 11
18.547798
 21
10.725821
 31
0.0
  0
LINE
  5
200
330
4E
100
AcDbEntity
 67
     1
  8
1
  6
CONTINUOUS
 62
    18
100
AcDbLine
 10
18.547798
 20
10.725821
 30
0.0
 11
18.759661
 21
10.725821
 31
0.0
  0
LINE
  5
201
330
4E
100
AcDbEntity
 67
     1
  8
1
  6
CONTINUOUS
 62
    18
100
AcDbLine
 10
18.759661
 20
10.725821
 30
0.0
 11
18.758347
 21
10.734608
 31
0.0
  0
LINE
  5
202
330
4E
100
AcDbEntity
 67
     1
  8
1
  6
CONTINUOUS
 62
    18
100
AcDbLine
 10
18.547798
 20
10.725821
 30
0.0
 11
18.545218
 21
10.719824
 31
0.0
  0
LINE
  5
203
330
4E
100
AcDbEntity
 67
     1
  8
1
  6
CONTINUOUS
 62
    18
100
AcDbLine
 10
18.545218
 20
10.719824
 30
0.0
 11
18.540701
 21
10.713777
 31
0.0
  0
LINE
  5
204
330
4E
100
AcDbEntity
 67
     1
  8
1
  6
CONTINUOUS
 62
    18
100
AcDbLine
 10
18.540701
 20
10.713777
 30
0.0
 11
18.534586
 21
10.708907
 31
0.0
  0
LINE
  5
205
330
4E
100
AcDbEntity
 67
     1
  8
1
  6
CONTINUOUS
 62
    18
100
AcDbLine
 10
18.534586
 20
10.708907
 30
0.0
 11
18.52643
 21
10.705514
 31
0.0
  0
LINE
  5
206
330
4E
100
AcDbEntity
 67
     1
  8
1
  6
CONTINUOUS
 62
    18
100
AcDbLine
 10
18.52643
 20
10.705514
 30
0.0
 11
18.519114
 21
10.704608
 31
0.0
  0
LINE
  5
207
330
4E
100
AcDbEntity
 67
     1
  8
1
  6
CONTINUOUS
 62
    18
100
AcDbLine
 10
18.788345
 20
10.704608
 30
0.0
 11
18.778502
 21
10.706269
 31
0.0
  0
LINE
  5
208
330
4E
100
AcDbEntity
 67
     1
  8
1
  6
CONTINUOUS
 62
    18
100
AcDbLine
 10
18.778502
 20
10.706269
 30
0.0
 11
18.769756
 21
10.711061
 31
0.0
  0
LINE
  5
209
330
4E
100
AcDbEntity
 67
     1
  8
1
  6
CONTINUOUS
 62
    18
100
AcDbLine
 10
18.769756
 20
10.711061
 30
0.0
 11
18.763449
 21
10.71787
 31
0.0
  0
LINE
  5
20A
330
4E
100
AcDbEntity
 67
     1
  8
1
  6
CONTINUOUS
 62
    18
100
AcDbLine
 10
18.763449
 20
10.71787
 30
0.0
 11
18.760202
 21
10.724219
 31
0.0
  0
LINE
  5
20B
330
4E
100
AcDbEntity
 67
     1
  8
1
  6
CONTINUOUS
 62
    18
100
AcDbLine
 10
18.760202
 20
10.724219
 30
0.0
 11
18.759661
 21
10.725821
 31
0.0
  0
LINE
  5
20C
330
4E
100
AcDbEntity
 67
     1
  8
1
  6
CONTINUOUS
 62
    18
100
AcDbLine
 10
18.549112
 20
11.640491
 30
0.0
 11
18.549112
 21
11.662742
 31
0.0
  0
LINE
  5
20D
330
4E
100
AcDbEntity
 67
     1
  8
1
  6
CONTINUOUS
 62
    18
100
AcDbLine
 10
18.549112
 20
11.662742
 30
0.0
 11
18.549112
 21
11.681823
 31
0.0
  0
LINE
  5
20E
330
4E
100
AcDbEntity
 67
     1
  8
1
  6
CONTINUOUS
 62
    18
100
AcDbLine
 10
18.758347
 20
11.640491
 30
0.0
 11
18.758347
 21
11.662742
 31
0.0
  0
LINE
  5
20F
330
4E
100
AcDbEntity
 67
     1
  8
1
  6
CONTINUOUS
 62
    18
100
AcDbLine
 10
18.758347
 20
11.662742
 30
0.0
 11
18.758347
 21
11.681823
 31
0.0
  0
LINE
  5
210
330
4E
100
AcDbEntity
 67
     1
  8
1
  6
CONTINUOUS
 62
    18
100
AcDbLine
 10
18.768288
 20
11.618183
 30
0.0
 11
18.762177
 21
11.625824
 31
0.0
  0
LINE
  5
211
330
4E
100
AcDbEntity
 67
     1
  8
1
  6
CONTINUOUS
 62
    18
100
AcDbLine
 10
18.762177
 20
11.625824
 30
0.0
 11
18.758862
 21
11.634955
 31
0.0
  0
LINE
  5
212
330
4E
100
AcDbEntity
 67
     1
  8
1
  6
CONTINUOUS
 62
    18
100
AcDbLine
 10
18.758862
 20
11.634955
 30
0.0
 11
18.758347
 21
11.640491
 31
0.0
  0
LINE
  5
213
330
4E
100
AcDbEntity
 67
     1
  8
1
  6
CONTINUOUS
 62
    18
100
AcDbLine
 10
18.549112
 20
11.681823
 30
0.0
 11
18.758347
 21
11.681823
 31
0.0
  0
LINE
  5
214
330
4E
100
AcDbEntity
 67
     1
  8
1
  6
CONTINUOUS
 62
    18
100
AcDbLine
 10
18.549112
 20
11.640491
 30
0.0
 11
18.547577
 21
11.631014
 31
0.0
  0
LINE
  5
215
330
4E
100
AcDbEntity
 67
     1
  8
1
  6
CONTINUOUS
 62
    18
100
AcDbLine
 10
18.547577
 20
11.631014
 30
0.0
 11
18.543028
 21
11.62238
 31
0.0
  0
LINE
  5
216
330
4E
100
AcDbEntity
 67
     1
  8
1
  6
CONTINUOUS
 62
    18
100
AcDbLine
 10
18.543028
 20
11.62238
 30
0.0
 11
18.539171
 21
11.618183
 31
0.0
  0
LINE
  5
217
330
4E
100
AcDbEntity
 67
     1
  8
1
  6
CONTINUOUS
 62
    18
100
AcDbLine
 10
18.549112
 20
11.681823
 30
0.0
 11
18.549112
 21
11.729605
 31
0.0
  0
LINE
  5
218
330
4E
100
AcDbEntity
 67
     1
  8
1
  6
CONTINUOUS
 62
    18
100
AcDbLine
 10
18.758347
 20
11.681823
 30
0.0
 11
18.758347
 21
11.729605
 31
0.0
  0
LINE
  5
219
330
4E
100
AcDbEntity
 67
     1
  8
1
  6
CONTINUOUS
 62
    18
100
AcDbLine
 10
18.758347
 20
11.729605
 30
0.0
 11
18.759661
 21
11.738392
 31
0.0
  0
LINE
  5
21A
330
4E
100
AcDbEntity
 67
     1
  8
1
  6
CONTINUOUS
 62
    18
100
AcDbLine
 10
18.547798
 20
11.738392
 30
0.0
 11
18.759661
 21
11.738392
 31
0.0
  0
LINE
  5
21B
330
4E
100
AcDbEntity
 67
     1
  8
1
  6
CONTINUOUS
 62
    18
100
AcDbLine
 10
18.547798
 20
11.738392
 30
0.0
 11
18.549112
 21
11.729605
 31
0.0
  0
LINE
  5
21C
330
4E
100
AcDbEntity
 67
     1
  8
1
  6
CONTINUOUS
 62
    18
100
AcDbLine
 10
18.759661
 20
11.738392
 30
0.0
 11
18.762241
 21
11.74439
 31
0.0
  0
LINE
  5
21D
330
4E
100
AcDbEntity
 67
     1
  8
1
  6
CONTINUOUS
 62
    18
100
AcDbLine
 10
18.762241
 20
11.74439
 30
0.0
 11
18.766758
 21
11.750436
 31
0.0
  0
LINE
  5
21E
330
4E
100
AcDbEntity
 67
     1
  8
1
  6
CONTINUOUS
 62
    18
100
AcDbLine
 10
18.766758
 20
11.750436
 30
0.0
 11
18.772871
 21
11.755306
 31
0.0
  0
LINE
  5
21F
330
4E
100
AcDbEntity
 67
     1
  8
1
  6
CONTINUOUS
 62
    18
100
AcDbLine
 10
18.772871
 20
11.755306
 30
0.0
 11
18.781029
 21
11.758698
 31
0.0
  0
LINE
  5
220
330
4E
100
AcDbEntity
 67
     1
  8
1
  6
CONTINUOUS
 62
    18
100
AcDbLine
 10
18.781029
 20
11.758698
 30
0.0
 11
18.788345
 21
11.759604
 31
0.0
  0
LINE
  5
221
330
4E
100
AcDbEntity
 67
     1
  8
1
  6
CONTINUOUS
 62
    18
100
AcDbLine
 10
18.519114
 20
11.759604
 30
0.0
 11
18.528957
 21
11.757943
 31
0.0
  0
LINE
  5
222
330
4E
100
AcDbEntity
 67
     1
  8
1
  6
CONTINUOUS
 62
    18
100
AcDbLine
 10
18.528957
 20
11.757943
 30
0.0
 11
18.537703
 21
11.753151
 31
0.0
  0
LINE
  5
223
330
4E
100
AcDbEntity
 67
     1
  8
1
  6
CONTINUOUS
 62
    18
100
AcDbLine
 10
18.537703
 20
11.753151
 30
0.0
 11
18.54401
 21
11.746343
 31
0.0
  0
LINE
  5
224
330
4E
100
AcDbEntity
 67
     1
  8
1
  6
CONTINUOUS
 62
    18
100
AcDbLine
 10
18.54401
 20
11.746343
 30
0.0
 11
18.547256
 21
11.739994
 31
0.0
  0
LINE
  5
225
330
4E
100
AcDbEntity
 67
     1
  8
1
  6
CONTINUOUS
 62
    18
100
AcDbLine
 10
18.547256
 20
11.739994
 30
0.0
 11
18.547798
 21
11.738392
 31
0.0
  0
LINE
  5
226
330
4E
100
AcDbEntity
 67
     1
  8
1
  6
CONTINUOUS
 62
    18
100
AcDbLine
 10
2.303729
 20
10.604608
 30
0.0
 11
2.303729
 21
10.535838
 31
0.0
  0
LINE
  5
227
330
4E
100
AcDbEntity
 67
     1
  8
1
  6
CONTINUOUS
 62
    18
100
AcDbLine
 10
2.303729
 20
10.535838
 30
0.0
 11
2.303729
 21
10.468109
 31
0.0
  0
LINE
  5
228
330
4E
100
AcDbEntity
 67
     1
  8
1
  6
CONTINUOUS
 62
    18
100
AcDbLine
 10
2.303729
 20
10.468109
 30
0.0
 11
2.303729
 21
10.402447
 31
0.0
  0
LINE
  5
229
330
4E
100
AcDbEntity
 67
     1
  8
1
  6
CONTINUOUS
 62
    18
100
AcDbLine
 10
2.303729
 20
10.402447
 30
0.0
 11
2.303729
 21
10.339845
 31
0.0
  0
LINE
  5
22A
330
4E
100
AcDbEntity
 67
     1
  8
1
  6
CONTINUOUS
 62
    18
100
AcDbLine
 10
2.303729
 20
10.339845
 30
0.0
 11
2.303729
 21
10.281251
 31
0.0
  0
LINE
  5
22B
330
4E
100
AcDbEntity
 67
     1
  8
1
  6
CONTINUOUS
 62
    18
100
AcDbLine
 10
2.303729
 20
10.281251
 30
0.0
 11
2.303729
 21
10.227551
 31
0.0
  0
LINE
  5
22C
330
4E
100
AcDbEntity
 67
     1
  8
1
  6
CONTINUOUS
 62
    18
100
AcDbLine
 10
2.303729
 20
10.227551
 30
0.0
 11
2.303729
 21
10.17956
 31
0.0
  0
LINE
  5
22D
330
4E
100
AcDbEntity
 67
     1
  8
1
  6
CONTINUOUS
 62
    18
100
AcDbLine
 10
2.303729
 20
10.17956
 30
0.0
 11
2.303729
 21
10.138002
 31
0.0
  0
LINE
  5
22E
330
4E
100
AcDbEntity
 67
     1
  8
1
  6
CONTINUOUS
 62
    18
100
AcDbLine
 10
2.303729
 20
10.138002
 30
0.0
 11
2.303729
 21
10.103509
 31
0.0
  0
LINE
  5
22F
330
4E
100
AcDbEntity
 67
     1
  8
1
  6
CONTINUOUS
 62
    18
100
AcDbLine
 10
19.503729
 20
10.604608
 30
0.0
 11
19.503729
 21
10.535838
 31
0.0
  0
LINE
  5
230
330
4E
100
AcDbEntity
 67
     1
  8
1
  6
CONTINUOUS
 62
    18
100
AcDbLine
 10
19.503729
 20
10.535838
 30
0.0
 11
19.503729
 21
10.468109
 31
0.0
  0
LINE
  5
231
330
4E
100
AcDbEntity
 67
     1
  8
1
  6
CONTINUOUS
 62
    18
100
AcDbLine
 10
19.503729
 20
10.468109
 30
0.0
 11
19.503729
 21
10.402447
 31
0.0
  0
LINE
  5
232
330
4E
100
AcDbEntity
 67
     1
  8
1
  6
CONTINUOUS
 62
    18
100
AcDbLine
 10
19.503729
 20
10.402447
 30
0.0
 11
19.503729
 21
10.339845
 31
0.0
  0
LINE
  5
233
330
4E
100
AcDbEntity
 67
     1
  8
1
  6
CONTINUOUS
 62
    18
100
AcDbLine
 10
19.503729
 20
10.339845
 30
0.0
 11
19.503729
 21
10.281251
 31
0.0
  0
LINE
  5
234
330
4E
100
AcDbEntity
 67
     1
  8
1
  6
CONTINUOUS
 62
    18
100
AcDbLine
 10
19.503729
 20
10.281251
 30
0.0
 11
19.503729
 21
10.227551
 31
0.0
  0
LINE
  5
235
330
4E
100
AcDbEntity
 67
     1
  8
1
  6
CONTINUOUS
 62
    18
100
AcDbLine
 10
19.503729
 20
10.227551
 30
0.0
 11
19.503729
 21
10.17956
 31
0.0
  0
LINE
  5
236
330
4E
100
AcDbEntity
 67
     1
  8
1
  6
CONTINUOUS
 62
    18
100
AcDbLine
 10
19.503729
 20
10.17956
 30
0.0
 11
19.503729
 21
10.138002
 31
0.0
  0
LINE
  5
237
330
4E
100
AcDbEntity
 67
     1
  8
1
  6
CONTINUOUS
 62
    18
100
AcDbLine
 10
19.503729
 20
10.138002
 30
0.0
 11
19.503729
 21
10.103509
 31
0.0
  0
LINE
  5
238
330
4E
100
AcDbEntity
 67
     1
  8
1
  6
CONTINUOUS
 62
    18
100
AcDbLine
 10
2.553729
 20
10.044608
 30
0.0
 11
19.253729
 21
10.044608
 31
0.0
  0
LINE
  5
239
330
4E
100
AcDbEntity
 67
     1
  8
1
  6
CONTINUOUS
 62
    18
100
AcDbLine
 10
19.253729
 20
10.044608
 30
0.0
 11
19.295034
 21
10.044619
 31
0.0
  0
LINE
  5
23A
330
4E
100
AcDbEntity
 67
     1
  8
1
  6
CONTINUOUS
 62
    18
100
AcDbLine
 10
19.295034
 20
10.044619
 30
0.0
 11
19.336338
 21
10.044785
 31
0.0
  0
LINE
  5
23B
330
4E
100
AcDbEntity
 67
     1
  8
1
  6
CONTINUOUS
 62
    18
100
AcDbLine
 10
19.336338
 20
10.044785
 30
0.0
 11
19.374184
 21
10.045463
 31
0.0
  0
LINE
  5
23C
330
4E
100
AcDbEntity
 67
     1
  8
1
  6
CONTINUOUS
 62
    18
100
AcDbLine
 10
19.374184
 20
10.045463
 30
0.0
 11
19.409651
 21
10.047275
 31
0.0
  0
LINE
  5
23D
330
4E
100
AcDbEntity
 67
     1
  8
1
  6
CONTINUOUS
 62
    18
100
AcDbLine
 10
19.409651
 20
10.047275
 30
0.0
 11
19.439438
 21
10.050738
 31
0.0
  0
LINE
  5
23E
330
4E
100
AcDbEntity
 67
     1
  8
1
  6
CONTINUOUS
 62
    18
100
AcDbLine
 10
19.439438
 20
10.050738
 30
0.0
 11
19.464783
 21
10.056754
 31
0.0
  0
LINE
  5
23F
330
4E
100
AcDbEntity
 67
     1
  8
1
  6
CONTINUOUS
 62
    18
100
AcDbLine
 10
19.464783
 20
10.056754
 30
0.0
 11
19.482988
 21
10.065155
 31
0.0
  0
LINE
  5
240
330
4E
100
AcDbEntity
 67
     1
  8
1
  6
CONTINUOUS
 62
    18
100
AcDbLine
 10
19.482988
 20
10.065155
 30
0.0
 11
19.495752
 21
10.076879
 31
0.0
  0
LINE
  5
241
330
4E
100
AcDbEntity
 67
     1
  8
1
  6
CONTINUOUS
 62
    18
100
AcDbLine
 10
19.495752
 20
10.076879
 30
0.0
 11
19.501745
 21
10.089025
 31
0.0
  0
LINE
  5
242
330
4E
100
AcDbEntity
 67
     1
  8
1
  6
CONTINUOUS
 62
    18
100
AcDbLine
 10
19.501745
 20
10.089025
 30
0.0
 11
19.503729
 21
10.103509
 31
0.0
  0
LINE
  5
243
330
4E
100
AcDbEntity
 67
     1
  8
1
  6
CONTINUOUS
 62
    18
100
AcDbLine
 10
2.303729
 20
10.103509
 30
0.0
 11
2.306553
 21
10.086506
 31
0.0
  0
LINE
  5
244
330
4E
100
AcDbEntity
 67
     1
  8
1
  6
CONTINUOUS
 62
    18
100
AcDbLine
 10
2.306553
 20
10.086506
 30
0.0
 11
2.315655
 21
10.07223
 31
0.0
  0
LINE
  5
245
330
4E
100
AcDbEntity
 67
     1
  8
1
  6
CONTINUOUS
 62
    18
100
AcDbLine
 10
2.315655
 20
10.07223
 30
0.0
 11
2.330813
 21
10.061581
 31
0.0
  0
LINE
  5
246
330
4E
100
AcDbEntity
 67
     1
  8
1
  6
CONTINUOUS
 62
    18
100
AcDbLine
 10
2.330813
 20
10.061581
 30
0.0
 11
2.352835
 21
10.053828
 31
0.0
  0
LINE
  5
247
330
4E
100
AcDbEntity
 67
     1
  8
1
  6
CONTINUOUS
 62
    18
100
AcDbLine
 10
2.352835
 20
10.053828
 30
0.0
 11
2.378474
 21
10.049219
 31
0.0
  0
LINE
  5
248
330
4E
100
AcDbEntity
 67
     1
  8
1
  6
CONTINUOUS
 62
    18
100
AcDbLine
 10
2.378474
 20
10.049219
 30
0.0
 11
2.409447
 21
10.046487
 31
0.0
  0
LINE
  5
249
330
4E
100
AcDbEntity
 67
     1
  8
1
  6
CONTINUOUS
 62
    18
100
AcDbLine
 10
2.409447
 20
10.046487
 30
0.0
 11
2.443811
 21
10.045187
 31
0.0
  0
LINE
  5
24A
330
4E
100
AcDbEntity
 67
     1
  8
1
  6
CONTINUOUS
 62
    18
100
AcDbLine
 10
2.443811
 20
10.045187
 30
0.0
 11
2.482047
 21
10.044706
 31
0.0
  0
LINE
  5
24B
330
4E
100
AcDbEntity
 67
     1
  8
1
  6
CONTINUOUS
 62
    18
100
AcDbLine
 10
2.482047
 20
10.044706
 30
0.0
 11
2.517123
 21
10.044615
 31
0.0
  0
LINE
  5
24C
330
4E
100
AcDbEntity
 67
     1
  8
1
  6
CONTINUOUS
 62
    18
100
AcDbLine
 10
2.517123
 20
10.044615
 30
0.0
 11
2.553729
 21
10.044608
 31
0.0
  0
LINE
  5
24D
330
4E
100
AcDbEntity
 67
     1
  8
1
  6
CONTINUOUS
 62
    18
100
AcDbLine
 10
19.05373
 20
6.191813
 30
0.0
 11
19.05373
 21
6.251812
 31
0.0
  0
LINE
  5
24E
330
4E
100
AcDbEntity
 67
     1
  8
1
  6
CONTINUOUS
 62
    18
100
AcDbLine
 10
13.253729
 20
6.251812
 30
0.0
 11
13.253729
 21
6.191813
 31
0.0
  0
LINE
  5
24F
330
4E
100
AcDbEntity
 67
     1
  8
1
  6
CONTINUOUS
 62
    18
100
AcDbLine
 10
16.55373
 20
6.191813
 30
0.0
 11
16.55373
 21
6.251812
 31
0.0
  0
LINE
  5
250
330
4E
100
AcDbEntity
 67
     1
  8
1
  6
CONTINUOUS
 62
    18
100
AcDbLine
 10
15.753729
 20
6.251812
 30
0.0
 11
15.753729
 21
6.191813
 31
0.0
  0
LINE
  5
251
330
4E
100
AcDbEntity
 67
     1
  8
1
  6
CONTINUOUS
 62
    18
100
AcDbLine
 10
18.253729
 20
6.251812
 30
0.0
 11
18.253729
 21
6.191813
 31
0.0
  0
LINE
  5
252
330
4E
100
AcDbEntity
 67
     1
  8
1
  6
CONTINUOUS
 62
    18
100
AcDbLine
 10
14.053729
 20
6.191813
 30
0.0
 11
14.053729
 21
6.251812
 31
0.0
  0
LINE
  5
253
330
4E
100
AcDbEntity
 67
     1
  8
1
  6
CONTINUOUS
 62
    18
100
AcDbLine
 10
6.053729
 20
6.191813
 30
0.0
 11
6.053729
 21
6.251812
 31
0.0
  0
LINE
  5
254
330
4E
100
AcDbEntity
 67
     1
  8
1
  6
CONTINUOUS
 62
    18
100
AcDbLine
 10
2.753729
 20
6.251812
 30
0.0
 11
2.753729
 21
6.191813
 31
0.0
  0
LINE
  5
255
330
4E
100
AcDbEntity
 67
     1
  8
1
  6
CONTINUOUS
 62
    18
100
AcDbLine
 10
5.253729
 20
6.251812
 30
0.0
 11
5.253729
 21
6.191813
 31
0.0
  0
LINE
  5
256
330
4E
100
AcDbEntity
 67
     1
  8
1
  6
CONTINUOUS
 62
    18
100
AcDbLine
 10
3.553729
 20
6.191813
 30
0.0
 11
3.553729
 21
6.251812
 31
0.0
  0
LINE
  5
257
330
4E
100
AcDbEntity
 67
     1
  8
1
  6
CONTINUOUS
 62
    18
100
AcDbLine
 10
7.753729
 20
6.251812
 30
0.0
 11
7.753729
 21
6.191813
 31
0.0
  0
LINE
  5
258
330
4E
100
AcDbEntity
 67
     1
  8
1
  6
CONTINUOUS
 62
    18
100
AcDbLine
 10
8.553729
 20
6.191813
 30
0.0
 11
8.553729
 21
6.251812
 31
0.0
  0
LINE
  5
259
330
4E
100
AcDbEntity
 67
     1
  8
1
  6
CONTINUOUS
 62
    18
100
AcDbLine
 10
20.403728
 20
6.420097
 30
0.0
 11
20.403728
 21
6.610096
 31
0.0
  0
LINE
  5
25A
330
4E
100
AcDbEntity
 67
     1
  8
1
  6
CONTINUOUS
 62
    18
100
AcDbLine
 10
19.96373
 20
6.420097
 30
0.0
 11
20.403728
 21
6.420097
 31
0.0
  0
LINE
  5
25B
330
4E
100
AcDbEntity
 67
     1
  8
1
  6
CONTINUOUS
 62
    18
100
AcDbLine
 10
20.343729
 20
6.670097
 30
0.0
 11
19.71373
 21
6.670097
 31
0.0
  0
LINE
  5
25C
330
4E
100
AcDbEntity
 67
     1
  8
1
  6
CONTINUOUS
 62
    18
100
AcDbLine
 10
19.653728
 20
6.080097
 30
0.0
 11
19.653728
 21
6.610096
 31
0.0
  0
LINE
  5
25D
330
4E
100
AcDbEntity
 67
     1
  8
1
  6
CONTINUOUS
 62
    18
100
AcDbLine
 10
19.563728
 20
6.020097
 30
0.0
 11
19.593729
 21
6.020097
 31
0.0
  0
LINE
  5
25E
330
4E
100
AcDbEntity
 67
     1
  8
1
  6
CONTINUOUS
 62
    18
100
AcDbLine
 10
2.30289
 20
6.070096
 30
0.0
 11
2.303965
 21
6.070096
 31
0.0
  0
LINE
  5
25F
330
4E
100
AcDbEntity
 67
     1
  8
1
  6
CONTINUOUS
 62
    18
100
AcDbLine
 10
19.503494
 20
6.070096
 30
0.0
 11
19.504568
 21
6.070096
 31
0.0
  0
LINE
  5
260
330
4E
100
AcDbEntity
 67
     1
  8
1
  6
CONTINUOUS
 62
    18
100
AcDbLine
 10
2.213729
 20
6.020097
 30
0.0
 11
2.243729
 21
6.020097
 31
0.0
  0
LINE
  5
261
330
4E
100
AcDbEntity
 67
     1
  8
1
  6
CONTINUOUS
 62
    18
100
AcDbLine
 10
2.153729
 20
6.610096
 30
0.0
 11
2.153729
 21
6.080097
 31
0.0
  0
LINE
  5
262
330
4E
100
AcDbEntity
 67
     1
  8
1
  6
CONTINUOUS
 62
    18
100
AcDbLine
 10
2.093729
 20
6.670097
 30
0.0
 11
1.463729
 21
6.670097
 31
0.0
  0
LINE
  5
263
330
4E
100
AcDbEntity
 67
     1
  8
1
  6
CONTINUOUS
 62
    18
100
AcDbLine
 10
1.403729
 20
5.480097
 30
0.0
 11
1.403729
 21
6.610096
 31
0.0
  0
LINE
  5
264
330
4E
100
AcDbEntity
 67
     1
  8
1
  6
CONTINUOUS
 62
    18
100
AcDbLine
 10
1.463729
 20
5.420097
 30
0.0
 11
20.343729
 21
5.420097
 31
0.0
  0
LINE
  5
265
330
4E
100
AcDbEntity
 67
     1
  8
1
  6
CONTINUOUS
 62
    18
100
AcDbLine
 10
20.403728
 20
5.480097
 30
0.0
 11
20.403728
 21
6.140097
 31
0.0
  0
LINE
  5
266
330
4E
100
AcDbEntity
 67
     1
  8
1
  6
CONTINUOUS
 62
    18
100
AcDbLine
 10
19.96373
 20
6.140097
 30
0.0
 11
20.403728
 21
6.140097
 31
0.0
  0
LINE
  5
267
330
4E
100
AcDbEntity
 67
     1
  8
1
  6
CONTINUOUS
 62
    18
100
AcDbLine
 10
20.003729
 20
5.795097
 30
0.0
 11
20.12373
 21
5.795097
 31
0.0
  0
LINE
  5
268
330
4E
100
AcDbEntity
 67
     1
  8
1
  6
CONTINUOUS
 62
    18
100
AcDbLine
 10
20.003729
 20
5.515097
 30
0.0
 11
20.12373
 21
5.515097
 31
0.0
  0
LINE
  5
269
330
4E
100
AcDbEntity
 67
     1
  8
1
  6
CONTINUOUS
 62
    18
100
AcDbLine
 10
1.610229
 20
5.977853
 30
0.0
 11
1.610229
 21
6.280097
 31
0.0
  0
LINE
  5
26A
330
4E
100
AcDbEntity
 67
     1
  8
1
  6
CONTINUOUS
 62
    18
100
AcDbLine
 10
1.890229
 20
5.977853
 30
0.0
 11
1.890229
 21
6.280097
 31
0.0
  0
LINE
  5
26B
330
4E
100
AcDbEntity
 67
     1
  8
1
  6
CONTINUOUS
 62
    18
100
AcDbLine
 10
2.303729
 20
6.160097
 30
0.0
 11
19.503729
 21
6.160097
 31
0.0
  0
LINE
  5
26C
330
4E
100
AcDbEntity
 67
     1
  8
1
  6
CONTINUOUS
 62
    18
100
AcDbLine
 10
2.753729
 20
6.191813
 30
0.0
 11
2.758621
 21
6.191813
 31
0.0
  0
LINE
  5
26D
330
4E
100
AcDbEntity
 67
     1
  8
1
  6
CONTINUOUS
 62
    18
100
AcDbLine
 10
2.758621
 20
6.191813
 30
0.0
 11
2.773175
 21
6.191813
 31
0.0
  0
LINE
  5
26E
330
4E
100
AcDbEntity
 67
     1
  8
1
  6
CONTINUOUS
 62
    18
100
AcDbLine
 10
2.773175
 20
6.191813
 30
0.0
 11
2.797037
 21
6.191813
 31
0.0
  0
LINE
  5
26F
330
4E
100
AcDbEntity
 67
     1
  8
1
  6
CONTINUOUS
 62
    18
100
AcDbLine
 10
2.797037
 20
6.191813
 30
0.0
 11
2.829623
 21
6.191813
 31
0.0
  0
LINE
  5
270
330
4E
100
AcDbEntity
 67
     1
  8
1
  6
CONTINUOUS
 62
    18
100
AcDbLine
 10
2.829623
 20
6.191813
 30
0.0
 11
2.870135
 21
6.191813
 31
0.0
  0
LINE
  5
271
330
4E
100
AcDbEntity
 67
     1
  8
1
  6
CONTINUOUS
 62
    18
100
AcDbLine
 10
2.870135
 20
6.191813
 30
0.0
 11
2.917583
 21
6.191813
 31
0.0
  0
LINE
  5
272
330
4E
100
AcDbEntity
 67
     1
  8
1
  6
CONTINUOUS
 62
    18
100
AcDbLine
 10
2.917583
 20
6.191813
 30
0.0
 11
2.970807
 21
6.191813
 31
0.0
  0
LINE
  5
273
330
4E
100
AcDbEntity
 67
     1
  8
1
  6
CONTINUOUS
 62
    18
100
AcDbLine
 10
2.970807
 20
6.191813
 30
0.0
 11
3.028505
 21
6.191813
 31
0.0
  0
LINE
  5
274
330
4E
100
AcDbEntity
 67
     1
  8
1
  6
CONTINUOUS
 62
    18
100
AcDbLine
 10
3.278954
 20
6.191813
 30
0.0
 11
3.336651
 21
6.191813
 31
0.0
  0
LINE
  5
275
330
4E
100
AcDbEntity
 67
     1
  8
1
  6
CONTINUOUS
 62
    18
100
AcDbLine
 10
3.336651
 20
6.191813
 30
0.0
 11
3.389875
 21
6.191813
 31
0.0
  0
LINE
  5
276
330
4E
100
AcDbEntity
 67
     1
  8
1
  6
CONTINUOUS
 62
    18
100
AcDbLine
 10
3.389875
 20
6.191813
 30
0.0
 11
3.437323
 21
6.191813
 31
0.0
  0
LINE
  5
277
330
4E
100
AcDbEntity
 67
     1
  8
1
  6
CONTINUOUS
 62
    18
100
AcDbLine
 10
3.437323
 20
6.191813
 30
0.0
 11
3.477836
 21
6.191813
 31
0.0
  0
LINE
  5
278
330
4E
100
AcDbEntity
 67
     1
  8
1
  6
CONTINUOUS
 62
    18
100
AcDbLine
 10
3.477836
 20
6.191813
 30
0.0
 11
3.510421
 21
6.191813
 31
0.0
  0
LINE
  5
279
330
4E
100
AcDbEntity
 67
     1
  8
1
  6
CONTINUOUS
 62
    18
100
AcDbLine
 10
3.510421
 20
6.191813
 30
0.0
 11
3.534283
 21
6.191813
 31
0.0
  0
LINE
  5
27A
330
4E
100
AcDbEntity
 67
     1
  8
1
  6
CONTINUOUS
 62
    18
100
AcDbLine
 10
3.534283
 20
6.191813
 30
0.0
 11
3.548838
 21
6.191813
 31
0.0
  0
LINE
  5
27B
330
4E
100
AcDbEntity
 67
     1
  8
1
  6
CONTINUOUS
 62
    18
100
AcDbLine
 10
3.548838
 20
6.191813
 30
0.0
 11
3.553729
 21
6.191813
 31
0.0
  0
LINE
  5
27C
330
4E
100
AcDbEntity
 67
     1
  8
1
  6
CONTINUOUS
 62
    18
100
AcDbLine
 10
3.278954
 20
6.191813
 30
0.0
 11
3.273299
 21
6.191813
 31
0.0
  0
LINE
  5
27D
330
4E
100
AcDbEntity
 67
     1
  8
1
  6
CONTINUOUS
 62
    18
100
AcDbLine
 10
3.273299
 20
6.191813
 30
0.0
 11
3.268287
 21
6.191813
 31
0.0
  0
LINE
  5
27E
330
4E
100
AcDbEntity
 67
     1
  8
1
  6
CONTINUOUS
 62
    18
100
AcDbLine
 10
3.039171
 20
6.191813
 30
0.0
 11
3.034159
 21
6.191813
 31
0.0
  0
LINE
  5
27F
330
4E
100
AcDbEntity
 67
     1
  8
1
  6
CONTINUOUS
 62
    18
100
AcDbLine
 10
3.034159
 20
6.191813
 30
0.0
 11
3.028505
 21
6.191813
 31
0.0
  0
LINE
  5
280
330
4E
100
AcDbEntity
 67
     1
  8
1
  6
CONTINUOUS
 62
    18
100
AcDbLine
 10
3.553729
 20
6.251812
 30
0.0
 11
3.548838
 21
6.251812
 31
0.0
  0
LINE
  5
281
330
4E
100
AcDbEntity
 67
     1
  8
1
  6
CONTINUOUS
 62
    18
100
AcDbLine
 10
3.548838
 20
6.251812
 30
0.0
 11
3.534283
 21
6.251812
 31
0.0
  0
LINE
  5
282
330
4E
100
AcDbEntity
 67
     1
  8
1
  6
CONTINUOUS
 62
    18
100
AcDbLine
 10
3.534283
 20
6.251812
 30
0.0
 11
3.510421
 21
6.251812
 31
0.0
  0
LINE
  5
283
330
4E
100
AcDbEntity
 67
     1
  8
1
  6
CONTINUOUS
 62
    18
100
AcDbLine
 10
3.510421
 20
6.251812
 30
0.0
 11
3.477836
 21
6.251812
 31
0.0
  0
LINE
  5
284
330
4E
100
AcDbEntity
 67
     1
  8
1
  6
CONTINUOUS
 62
    18
100
AcDbLine
 10
3.477836
 20
6.251812
 30
0.0
 11
3.437323
 21
6.251812
 31
0.0
  0
LINE
  5
285
330
4E
100
AcDbEntity
 67
     1
  8
1
  6
CONTINUOUS
 62
    18
100
AcDbLine
 10
3.437323
 20
6.251812
 30
0.0
 11
3.389875
 21
6.251812
 31
0.0
  0
LINE
  5
286
330
4E
100
AcDbEntity
 67
     1
  8
1
  6
CONTINUOUS
 62
    18
100
AcDbLine
 10
3.389875
 20
6.251812
 30
0.0
 11
3.336651
 21
6.251812
 31
0.0
  0
LINE
  5
287
330
4E
100
AcDbEntity
 67
     1
  8
1
  6
CONTINUOUS
 62
    18
100
AcDbLine
 10
3.336651
 20
6.251812
 30
0.0
 11
3.278954
 21
6.251812
 31
0.0
  0
LINE
  5
288
330
4E
100
AcDbEntity
 67
     1
  8
1
  6
CONTINUOUS
 62
    18
100
AcDbLine
 10
3.028505
 20
6.251812
 30
0.0
 11
2.970807
 21
6.251812
 31
0.0
  0
LINE
  5
289
330
4E
100
AcDbEntity
 67
     1
  8
1
  6
CONTINUOUS
 62
    18
100
AcDbLine
 10
2.970807
 20
6.251812
 30
0.0
 11
2.917583
 21
6.251812
 31
0.0
  0
LINE
  5
28A
330
4E
100
AcDbEntity
 67
     1
  8
1
  6
CONTINUOUS
 62
    18
100
AcDbLine
 10
2.917583
 20
6.251812
 30
0.0
 11
2.870135
 21
6.251812
 31
0.0
  0
LINE
  5
28B
330
4E
100
AcDbEntity
 67
     1
  8
1
  6
CONTINUOUS
 62
    18
100
AcDbLine
 10
2.870135
 20
6.251812
 30
0.0
 11
2.829623
 21
6.251812
 31
0.0
  0
LINE
  5
28C
330
4E
100
AcDbEntity
 67
     1
  8
1
  6
CONTINUOUS
 62
    18
100
AcDbLine
 10
2.829623
 20
6.251812
 30
0.0
 11
2.797037
 21
6.251812
 31
0.0
  0
LINE
  5
28D
330
4E
100
AcDbEntity
 67
     1
  8
1
  6
CONTINUOUS
 62
    18
100
AcDbLine
 10
2.797037
 20
6.251812
 30
0.0
 11
2.773175
 21
6.251812
 31
0.0
  0
LINE
  5
28E
330
4E
100
AcDbEntity
 67
     1
  8
1
  6
CONTINUOUS
 62
    18
100
AcDbLine
 10
2.773175
 20
6.251812
 30
0.0
 11
2.758621
 21
6.251812
 31
0.0
  0
LINE
  5
28F
330
4E
100
AcDbEntity
 67
     1
  8
1
  6
CONTINUOUS
 62
    18
100
AcDbLine
 10
2.758621
 20
6.251812
 30
0.0
 11
2.753729
 21
6.251812
 31
0.0
  0
LINE
  5
290
330
4E
100
AcDbEntity
 67
     1
  8
1
  6
CONTINUOUS
 62
    18
100
AcDbLine
 10
3.028505
 20
6.251812
 30
0.0
 11
3.034159
 21
6.251812
 31
0.0
  0
LINE
  5
291
330
4E
100
AcDbEntity
 67
     1
  8
1
  6
CONTINUOUS
 62
    18
100
AcDbLine
 10
3.034159
 20
6.251812
 30
0.0
 11
3.039171
 21
6.251812
 31
0.0
  0
LINE
  5
292
330
4E
100
AcDbEntity
 67
     1
  8
1
  6
CONTINUOUS
 62
    18
100
AcDbLine
 10
3.039171
 20
6.251812
 30
0.0
 11
3.268287
 21
6.251812
 31
0.0
  0
LINE
  5
293
330
4E
100
AcDbEntity
 67
     1
  8
1
  6
CONTINUOUS
 62
    18
100
AcDbLine
 10
3.268287
 20
6.251812
 30
0.0
 11
3.273299
 21
6.251812
 31
0.0
  0
LINE
  5
294
330
4E
100
AcDbEntity
 67
     1
  8
1
  6
CONTINUOUS
 62
    18
100
AcDbLine
 10
3.273299
 20
6.251812
 30
0.0
 11
3.278954
 21
6.251812
 31
0.0
  0
LINE
  5
295
330
4E
100
AcDbEntity
 67
     1
  8
1
  6
CONTINUOUS
 62
    18
100
AcDbLine
 10
3.028505
 20
6.191813
 30
0.0
 11
3.028505
 21
6.251812
 31
0.0
  0
LINE
  5
296
330
4E
100
AcDbEntity
 67
     1
  8
1
  6
CONTINUOUS
 62
    18
100
AcDbLine
 10
3.278954
 20
6.251812
 30
0.0
 11
3.278954
 21
6.191813
 31
0.0
  0
LINE
  5
297
330
4E
100
AcDbEntity
 67
     1
  8
1
  6
CONTINUOUS
 62
    18
100
AcDbLine
 10
3.049113
 20
6.249004
 30
0.0
 11
3.049113
 21
6.240008
 31
0.0
  0
LINE
  5
298
330
4E
100
AcDbEntity
 67
     1
  8
1
  6
CONTINUOUS
 62
    18
100
AcDbLine
 10
3.049113
 20
6.240008
 30
0.0
 11
3.049113
 21
6.225452
 31
0.0
  0
LINE
  5
299
330
4E
100
AcDbEntity
 67
     1
  8
1
  6
CONTINUOUS
 62
    18
100
AcDbLine
 10
3.258346
 20
6.249004
 30
0.0
 11
3.258346
 21
6.240008
 31
0.0
  0
LINE
  5
29A
330
4E
100
AcDbEntity
 67
     1
  8
1
  6
CONTINUOUS
 62
    18
100
AcDbLine
 10
3.258346
 20
6.240008
 30
0.0
 11
3.258346
 21
6.225452
 31
0.0
  0
LINE
  5
29B
330
4E
100
AcDbEntity
 67
     1
  8
1
  6
CONTINUOUS
 62
    18
100
AcDbLine
 10
3.039171
 20
6.251812
 30
0.0
 11
3.045283
 21
6.251488
 31
0.0
  0
LINE
  5
29C
330
4E
100
AcDbEntity
 67
     1
  8
1
  6
CONTINUOUS
 62
    18
100
AcDbLine
 10
3.045283
 20
6.251488
 30
0.0
 11
3.048598
 21
6.250236
 31
0.0
  0
LINE
  5
29D
330
4E
100
AcDbEntity
 67
     1
  8
1
  6
CONTINUOUS
 62
    18
100
AcDbLine
 10
3.048598
 20
6.250236
 30
0.0
 11
3.049113
 21
6.249004
 31
0.0
  0
LINE
  5
29E
330
4E
100
AcDbEntity
 67
     1
  8
1
  6
CONTINUOUS
 62
    18
100
AcDbLine
 10
3.049113
 20
6.225452
 30
0.0
 11
3.258346
 21
6.225452
 31
0.0
  0
LINE
  5
29F
330
4E
100
AcDbEntity
 67
     1
  8
1
  6
CONTINUOUS
 62
    18
100
AcDbLine
 10
3.258346
 20
6.249004
 30
0.0
 11
3.259882
 21
6.250893
 31
0.0
  0
LINE
  5
2A0
330
4E
100
AcDbEntity
 67
     1
  8
1
  6
CONTINUOUS
 62
    18
100
AcDbLine
 10
3.259882
 20
6.250893
 30
0.0
 11
3.26443
 21
6.251715
 31
0.0
  0
LINE
  5
2A1
330
4E
100
AcDbEntity
 67
     1
  8
1
  6
CONTINUOUS
 62
    18
100
AcDbLine
 10
3.26443
 20
6.251715
 30
0.0
 11
3.268287
 21
6.251812
 31
0.0
  0
LINE
  5
2A2
330
4E
100
AcDbEntity
 67
     1
  8
1
  6
CONTINUOUS
 62
    18
100
AcDbLine
 10
3.268287
 20
6.191813
 30
0.0
 11
3.263052
 21
6.19117
 31
0.0
  0
LINE
  5
2A3
330
4E
100
AcDbEntity
 67
     1
  8
1
  6
CONTINUOUS
 62
    18
100
AcDbLine
 10
3.263052
 20
6.19117
 30
0.0
 11
3.259754
 21
6.188741
 31
0.0
  0
LINE
  5
2A4
330
4E
100
AcDbEntity
 67
     1
  8
1
  6
CONTINUOUS
 62
    18
100
AcDbLine
 10
3.259754
 20
6.188741
 30
0.0
 11
3.258477
 21
6.184606
 31
0.0
  0
LINE
  5
2A5
330
4E
100
AcDbEntity
 67
     1
  8
1
  6
CONTINUOUS
 62
    18
100
AcDbLine
 10
3.258477
 20
6.184606
 30
0.0
 11
3.258366
 21
6.183026
 31
0.0
  0
LINE
  5
2A6
330
4E
100
AcDbEntity
 67
     1
  8
1
  6
CONTINUOUS
 62
    18
100
AcDbLine
 10
3.049093
 20
6.183026
 30
0.0
 11
3.048187
 21
6.187842
 31
0.0
  0
LINE
  5
2A7
330
4E
100
AcDbEntity
 67
     1
  8
1
  6
CONTINUOUS
 62
    18
100
AcDbLine
 10
3.048187
 20
6.187842
 30
0.0
 11
3.045461
 21
6.190736
 31
0.0
  0
LINE
  5
2A8
330
4E
100
AcDbEntity
 67
     1
  8
1
  6
CONTINUOUS
 62
    18
100
AcDbLine
 10
3.045461
 20
6.190736
 30
0.0
 11
3.041065
 21
6.191755
 31
0.0
  0
LINE
  5
2A9
330
4E
100
AcDbEntity
 67
     1
  8
1
  6
CONTINUOUS
 62
    18
100
AcDbLine
 10
3.041065
 20
6.191755
 30
0.0
 11
3.039171
 21
6.191813
 31
0.0
  0
LINE
  5
2AA
330
4E
100
AcDbEntity
 67
     1
  8
1
  6
CONTINUOUS
 62
    18
100
AcDbLine
 10
3.049113
 20
6.225452
 30
0.0
 11
3.049113
 21
6.17767
 31
0.0
  0
LINE
  5
2AB
330
4E
100
AcDbEntity
 67
     1
  8
1
  6
CONTINUOUS
 62
    18
100
AcDbLine
 10
3.258346
 20
6.225452
 30
0.0
 11
3.258346
 21
6.17767
 31
0.0
  0
LINE
  5
2AC
330
4E
100
AcDbEntity
 67
     1
  8
1
  6
CONTINUOUS
 62
    18
100
AcDbLine
 10
3.049113
 20
6.17767
 30
0.0
 11
3.047797
 21
6.168883
 31
0.0
  0
LINE
  5
2AD
330
4E
100
AcDbEntity
 67
     1
  8
1
  6
CONTINUOUS
 62
    18
100
AcDbLine
 10
3.047797
 20
6.168883
 30
0.0
 11
3.259661
 21
6.168883
 31
0.0
  0
LINE
  5
2AE
330
4E
100
AcDbEntity
 67
     1
  8
1
  6
CONTINUOUS
 62
    18
100
AcDbLine
 10
3.259661
 20
6.168883
 30
0.0
 11
3.258346
 21
6.17767
 31
0.0
  0
LINE
  5
2AF
330
4E
100
AcDbEntity
 67
     1
  8
1
  6
CONTINUOUS
 62
    18
100
AcDbLine
 10
3.258366
 20
6.183026
 30
0.0
 11
3.258346
 21
6.181931
 31
0.0
  0
LINE
  5
2B0
330
4E
100
AcDbEntity
 67
     1
  8
1
  6
CONTINUOUS
 62
    18
100
AcDbLine
 10
3.049113
 20
6.181931
 30
0.0
 11
3.049093
 21
6.183026
 31
0.0
  0
LINE
  5
2B1
330
4E
100
AcDbEntity
 67
     1
  8
1
  6
CONTINUOUS
 62
    18
100
AcDbLine
 10
3.047797
 20
6.168883
 30
0.0
 11
3.045217
 21
6.164242
 31
0.0
  0
LINE
  5
2B2
330
4E
100
AcDbEntity
 67
     1
  8
1
  6
CONTINUOUS
 62
    18
100
AcDbLine
 10
3.045217
 20
6.164242
 30
0.0
 11
3.040701
 21
6.161532
 31
0.0
  0
LINE
  5
2B3
330
4E
100
AcDbEntity
 67
     1
  8
1
  6
CONTINUOUS
 62
    18
100
AcDbLine
 10
3.040701
 20
6.161532
 30
0.0
 11
3.034587
 21
6.160406
 31
0.0
  0
LINE
  5
2B4
330
4E
100
AcDbEntity
 67
     1
  8
1
  6
CONTINUOUS
 62
    18
100
AcDbLine
 10
3.034587
 20
6.160406
 30
0.0
 11
3.02643
 21
6.16011
 31
0.0
  0
LINE
  5
2B5
330
4E
100
AcDbEntity
 67
     1
  8
1
  6
CONTINUOUS
 62
    18
100
AcDbLine
 10
3.02643
 20
6.16011
 30
0.0
 11
3.019113
 21
6.160097
 31
0.0
  0
LINE
  5
2B6
330
4E
100
AcDbEntity
 67
     1
  8
1
  6
CONTINUOUS
 62
    18
100
AcDbLine
 10
3.288346
 20
6.160097
 30
0.0
 11
3.278502
 21
6.160143
 31
0.0
  0
LINE
  5
2B7
330
4E
100
AcDbEntity
 67
     1
  8
1
  6
CONTINUOUS
 62
    18
100
AcDbLine
 10
3.278502
 20
6.160143
 30
0.0
 11
3.269756
 21
6.160799
 31
0.0
  0
LINE
  5
2B8
330
4E
100
AcDbEntity
 67
     1
  8
1
  6
CONTINUOUS
 62
    18
100
AcDbLine
 10
3.269756
 20
6.160799
 30
0.0
 11
3.263449
 21
6.163188
 31
0.0
  0
LINE
  5
2B9
330
4E
100
AcDbEntity
 67
     1
  8
1
  6
CONTINUOUS
 62
    18
100
AcDbLine
 10
3.263449
 20
6.163188
 30
0.0
 11
3.260202
 21
6.167394
 31
0.0
  0
LINE
  5
2BA
330
4E
100
AcDbEntity
 67
     1
  8
1
  6
CONTINUOUS
 62
    18
100
AcDbLine
 10
3.260202
 20
6.167394
 30
0.0
 11
3.259661
 21
6.168883
 31
0.0
  0
LINE
  5
2BB
330
4E
100
AcDbEntity
 67
     1
  8
1
  6
CONTINUOUS
 62
    18
100
AcDbLine
 10
5.253729
 20
6.191813
 30
0.0
 11
5.258621
 21
6.191813
 31
0.0
  0
LINE
  5
2BC
330
4E
100
AcDbEntity
 67
     1
  8
1
  6
CONTINUOUS
 62
    18
100
AcDbLine
 10
5.258621
 20
6.191813
 30
0.0
 11
5.273175
 21
6.191813
 31
0.0
  0
LINE
  5
2BD
330
4E
100
AcDbEntity
 67
     1
  8
1
  6
CONTINUOUS
 62
    18
100
AcDbLine
 10
5.273175
 20
6.191813
 30
0.0
 11
5.297037
 21
6.191813
 31
0.0
  0
LINE
  5
2BE
330
4E
100
AcDbEntity
 67
     1
  8
1
  6
CONTINUOUS
 62
    18
100
AcDbLine
 10
5.297037
 20
6.191813
 30
0.0
 11
5.329623
 21
6.191813
 31
0.0
  0
LINE
  5
2BF
330
4E
100
AcDbEntity
 67
     1
  8
1
  6
CONTINUOUS
 62
    18
100
AcDbLine
 10
5.329623
 20
6.191813
 30
0.0
 11
5.370135
 21
6.191813
 31
0.0
  0
LINE
  5
2C0
330
4E
100
AcDbEntity
 67
     1
  8
1
  6
CONTINUOUS
 62
    18
100
AcDbLine
 10
5.370135
 20
6.191813
 30
0.0
 11
5.417583
 21
6.191813
 31
0.0
  0
LINE
  5
2C1
330
4E
100
AcDbEntity
 67
     1
  8
1
  6
CONTINUOUS
 62
    18
100
AcDbLine
 10
5.417583
 20
6.191813
 30
0.0
 11
5.470807
 21
6.191813
 31
0.0
  0
LINE
  5
2C2
330
4E
100
AcDbEntity
 67
     1
  8
1
  6
CONTINUOUS
 62
    18
100
AcDbLine
 10
5.470807
 20
6.191813
 30
0.0
 11
5.528505
 21
6.191813
 31
0.0
  0
LINE
  5
2C3
330
4E
100
AcDbEntity
 67
     1
  8
1
  6
CONTINUOUS
 62
    18
100
AcDbLine
 10
5.778954
 20
6.191813
 30
0.0
 11
5.836651
 21
6.191813
 31
0.0
  0
LINE
  5
2C4
330
4E
100
AcDbEntity
 67
     1
  8
1
  6
CONTINUOUS
 62
    18
100
AcDbLine
 10
5.836651
 20
6.191813
 30
0.0
 11
5.889875
 21
6.191813
 31
0.0
  0
LINE
  5
2C5
330
4E
100
AcDbEntity
 67
     1
  8
1
  6
CONTINUOUS
 62
    18
100
AcDbLine
 10
5.889875
 20
6.191813
 30
0.0
 11
5.937323
 21
6.191813
 31
0.0
  0
LINE
  5
2C6
330
4E
100
AcDbEntity
 67
     1
  8
1
  6
CONTINUOUS
 62
    18
100
AcDbLine
 10
5.937323
 20
6.191813
 30
0.0
 11
5.977836
 21
6.191813
 31
0.0
  0
LINE
  5
2C7
330
4E
100
AcDbEntity
 67
     1
  8
1
  6
CONTINUOUS
 62
    18
100
AcDbLine
 10
5.977836
 20
6.191813
 30
0.0
 11
6.010421
 21
6.191813
 31
0.0
  0
LINE
  5
2C8
330
4E
100
AcDbEntity
 67
     1
  8
1
  6
CONTINUOUS
 62
    18
100
AcDbLine
 10
6.010421
 20
6.191813
 30
0.0
 11
6.034283
 21
6.191813
 31
0.0
  0
LINE
  5
2C9
330
4E
100
AcDbEntity
 67
     1
  8
1
  6
CONTINUOUS
 62
    18
100
AcDbLine
 10
6.034283
 20
6.191813
 30
0.0
 11
6.048838
 21
6.191813
 31
0.0
  0
LINE
  5
2CA
330
4E
100
AcDbEntity
 67
     1
  8
1
  6
CONTINUOUS
 62
    18
100
AcDbLine
 10
6.048838
 20
6.191813
 30
0.0
 11
6.053729
 21
6.191813
 31
0.0
  0
LINE
  5
2CB
330
4E
100
AcDbEntity
 67
     1
  8
1
  6
CONTINUOUS
 62
    18
100
AcDbLine
 10
5.778954
 20
6.191813
 30
0.0
 11
5.773299
 21
6.191813
 31
0.0
  0
LINE
  5
2CC
330
4E
100
AcDbEntity
 67
     1
  8
1
  6
CONTINUOUS
 62
    18
100
AcDbLine
 10
5.773299
 20
6.191813
 30
0.0
 11
5.768287
 21
6.191813
 31
0.0
  0
LINE
  5
2CD
330
4E
100
AcDbEntity
 67
     1
  8
1
  6
CONTINUOUS
 62
    18
100
AcDbLine
 10
5.539171
 20
6.191813
 30
0.0
 11
5.534159
 21
6.191813
 31
0.0
  0
LINE
  5
2CE
330
4E
100
AcDbEntity
 67
     1
  8
1
  6
CONTINUOUS
 62
    18
100
AcDbLine
 10
5.534159
 20
6.191813
 30
0.0
 11
5.528505
 21
6.191813
 31
0.0
  0
LINE
  5
2CF
330
4E
100
AcDbEntity
 67
     1
  8
1
  6
CONTINUOUS
 62
    18
100
AcDbLine
 10
6.053729
 20
6.251812
 30
0.0
 11
6.048838
 21
6.251812
 31
0.0
  0
LINE
  5
2D0
330
4E
100
AcDbEntity
 67
     1
  8
1
  6
CONTINUOUS
 62
    18
100
AcDbLine
 10
6.048838
 20
6.251812
 30
0.0
 11
6.034283
 21
6.251812
 31
0.0
  0
LINE
  5
2D1
330
4E
100
AcDbEntity
 67
     1
  8
1
  6
CONTINUOUS
 62
    18
100
AcDbLine
 10
6.034283
 20
6.251812
 30
0.0
 11
6.010421
 21
6.251812
 31
0.0
  0
LINE
  5
2D2
330
4E
100
AcDbEntity
 67
     1
  8
1
  6
CONTINUOUS
 62
    18
100
AcDbLine
 10
6.010421
 20
6.251812
 30
0.0
 11
5.977836
 21
6.251812
 31
0.0
  0
LINE
  5
2D3
330
4E
100
AcDbEntity
 67
     1
  8
1
  6
CONTINUOUS
 62
    18
100
AcDbLine
 10
5.977836
 20
6.251812
 30
0.0
 11
5.937323
 21
6.251812
 31
0.0
  0
LINE
  5
2D4
330
4E
100
AcDbEntity
 67
     1
  8
1
  6
CONTINUOUS
 62
    18
100
AcDbLine
 10
5.937323
 20
6.251812
 30
0.0
 11
5.889875
 21
6.251812
 31
0.0
  0
LINE
  5
2D5
330
4E
100
AcDbEntity
 67
     1
  8
1
  6
CONTINUOUS
 62
    18
100
AcDbLine
 10
5.889875
 20
6.251812
 30
0.0
 11
5.836651
 21
6.251812
 31
0.0
  0
LINE
  5
2D6
330
4E
100
AcDbEntity
 67
     1
  8
1
  6
CONTINUOUS
 62
    18
100
AcDbLine
 10
5.836651
 20
6.251812
 30
0.0
 11
5.778954
 21
6.251812
 31
0.0
  0
LINE
  5
2D7
330
4E
100
AcDbEntity
 67
     1
  8
1
  6
CONTINUOUS
 62
    18
100
AcDbLine
 10
5.528505
 20
6.251812
 30
0.0
 11
5.470807
 21
6.251812
 31
0.0
  0
LINE
  5
2D8
330
4E
100
AcDbEntity
 67
     1
  8
1
  6
CONTINUOUS
 62
    18
100
AcDbLine
 10
5.470807
 20
6.251812
 30
0.0
 11
5.417583
 21
6.251812
 31
0.0
  0
LINE
  5
2D9
330
4E
100
AcDbEntity
 67
     1
  8
1
  6
CONTINUOUS
 62
    18
100
AcDbLine
 10
5.417583
 20
6.251812
 30
0.0
 11
5.370135
 21
6.251812
 31
0.0
  0
LINE
  5
2DA
330
4E
100
AcDbEntity
 67
     1
  8
1
  6
CONTINUOUS
 62
    18
100
AcDbLine
 10
5.370135
 20
6.251812
 30
0.0
 11
5.329623
 21
6.251812
 31
0.0
  0
LINE
  5
2DB
330
4E
100
AcDbEntity
 67
     1
  8
1
  6
CONTINUOUS
 62
    18
100
AcDbLine
 10
5.329623
 20
6.251812
 30
0.0
 11
5.297037
 21
6.251812
 31
0.0
  0
LINE
  5
2DC
330
4E
100
AcDbEntity
 67
     1
  8
1
  6
CONTINUOUS
 62
    18
100
AcDbLine
 10
5.297037
 20
6.251812
 30
0.0
 11
5.273175
 21
6.251812
 31
0.0
  0
LINE
  5
2DD
330
4E
100
AcDbEntity
 67
     1
  8
1
  6
CONTINUOUS
 62
    18
100
AcDbLine
 10
5.273175
 20
6.251812
 30
0.0
 11
5.258621
 21
6.251812
 31
0.0
  0
LINE
  5
2DE
330
4E
100
AcDbEntity
 67
     1
  8
1
  6
CONTINUOUS
 62
    18
100
AcDbLine
 10
5.258621
 20
6.251812
 30
0.0
 11
5.253729
 21
6.251812
 31
0.0
  0
LINE
  5
2DF
330
4E
100
AcDbEntity
 67
     1
  8
1
  6
CONTINUOUS
 62
    18
100
AcDbLine
 10
5.528505
 20
6.251812
 30
0.0
 11
5.534159
 21
6.251812
 31
0.0
  0
LINE
  5
2E0
330
4E
100
AcDbEntity
 67
     1
  8
1
  6
CONTINUOUS
 62
    18
100
AcDbLine
 10
5.534159
 20
6.251812
 30
0.0
 11
5.539171
 21
6.251812
 31
0.0
  0
LINE
  5
2E1
330
4E
100
AcDbEntity
 67
     1
  8
1
  6
CONTINUOUS
 62
    18
100
AcDbLine
 10
5.539171
 20
6.251812
 30
0.0
 11
5.768287
 21
6.251812
 31
0.0
  0
LINE
  5
2E2
330
4E
100
AcDbEntity
 67
     1
  8
1
  6
CONTINUOUS
 62
    18
100
AcDbLine
 10
5.768287
 20
6.251812
 30
0.0
 11
5.773299
 21
6.251812
 31
0.0
  0
LINE
  5
2E3
330
4E
100
AcDbEntity
 67
     1
  8
1
  6
CONTINUOUS
 62
    18
100
AcDbLine
 10
5.773299
 20
6.251812
 30
0.0
 11
5.778954
 21
6.251812
 31
0.0
  0
LINE
  5
2E4
330
4E
100
AcDbEntity
 67
     1
  8
1
  6
CONTINUOUS
 62
    18
100
AcDbLine
 10
5.528505
 20
6.191813
 30
0.0
 11
5.528505
 21
6.251812
 31
0.0
  0
LINE
  5
2E5
330
4E
100
AcDbEntity
 67
     1
  8
1
  6
CONTINUOUS
 62
    18
100
AcDbLine
 10
5.778954
 20
6.251812
 30
0.0
 11
5.778954
 21
6.191813
 31
0.0
  0
LINE
  5
2E6
330
4E
100
AcDbEntity
 67
     1
  8
1
  6
CONTINUOUS
 62
    18
100
AcDbLine
 10
5.549113
 20
6.249004
 30
0.0
 11
5.549113
 21
6.240008
 31
0.0
  0
LINE
  5
2E7
330
4E
100
AcDbEntity
 67
     1
  8
1
  6
CONTINUOUS
 62
    18
100
AcDbLine
 10
5.549113
 20
6.240008
 30
0.0
 11
5.549113
 21
6.225452
 31
0.0
  0
LINE
  5
2E8
330
4E
100
AcDbEntity
 67
     1
  8
1
  6
CONTINUOUS
 62
    18
100
AcDbLine
 10
5.758346
 20
6.249004
 30
0.0
 11
5.758346
 21
6.240008
 31
0.0
  0
LINE
  5
2E9
330
4E
100
AcDbEntity
 67
     1
  8
1
  6
CONTINUOUS
 62
    18
100
AcDbLine
 10
5.758346
 20
6.240008
 30
0.0
 11
5.758346
 21
6.225452
 31
0.0
  0
LINE
  5
2EA
330
4E
100
AcDbEntity
 67
     1
  8
1
  6
CONTINUOUS
 62
    18
100
AcDbLine
 10
5.539171
 20
6.251812
 30
0.0
 11
5.545283
 21
6.251488
 31
0.0
  0
LINE
  5
2EB
330
4E
100
AcDbEntity
 67
     1
  8
1
  6
CONTINUOUS
 62
    18
100
AcDbLine
 10
5.545283
 20
6.251488
 30
0.0
 11
5.548598
 21
6.250236
 31
0.0
  0
LINE
  5
2EC
330
4E
100
AcDbEntity
 67
     1
  8
1
  6
CONTINUOUS
 62
    18
100
AcDbLine
 10
5.548598
 20
6.250236
 30
0.0
 11
5.549113
 21
6.249004
 31
0.0
  0
LINE
  5
2ED
330
4E
100
AcDbEntity
 67
     1
  8
1
  6
CONTINUOUS
 62
    18
100
AcDbLine
 10
5.549113
 20
6.225452
 30
0.0
 11
5.758346
 21
6.225452
 31
0.0
  0
LINE
  5
2EE
330
4E
100
AcDbEntity
 67
     1
  8
1
  6
CONTINUOUS
 62
    18
100
AcDbLine
 10
5.758346
 20
6.249004
 30
0.0
 11
5.759882
 21
6.250893
 31
0.0
  0
LINE
  5
2EF
330
4E
100
AcDbEntity
 67
     1
  8
1
  6
CONTINUOUS
 62
    18
100
AcDbLine
 10
5.759882
 20
6.250893
 30
0.0
 11
5.76443
 21
6.251715
 31
0.0
  0
LINE
  5
2F0
330
4E
100
AcDbEntity
 67
     1
  8
1
  6
CONTINUOUS
 62
    18
100
AcDbLine
 10
5.76443
 20
6.251715
 30
0.0
 11
5.768287
 21
6.251812
 31
0.0
  0
LINE
  5
2F1
330
4E
100
AcDbEntity
 67
     1
  8
1
  6
CONTINUOUS
 62
    18
100
AcDbLine
 10
5.768287
 20
6.191813
 30
0.0
 11
5.763052
 21
6.19117
 31
0.0
  0
LINE
  5
2F2
330
4E
100
AcDbEntity
 67
     1
  8
1
  6
CONTINUOUS
 62
    18
100
AcDbLine
 10
5.763052
 20
6.19117
 30
0.0
 11
5.759754
 21
6.188741
 31
0.0
  0
LINE
  5
2F3
330
4E
100
AcDbEntity
 67
     1
  8
1
  6
CONTINUOUS
 62
    18
100
AcDbLine
 10
5.759754
 20
6.188741
 30
0.0
 11
5.758477
 21
6.184606
 31
0.0
  0
LINE
  5
2F4
330
4E
100
AcDbEntity
 67
     1
  8
1
  6
CONTINUOUS
 62
    18
100
AcDbLine
 10
5.758477
 20
6.184606
 30
0.0
 11
5.758366
 21
6.183026
 31
0.0
  0
LINE
  5
2F5
330
4E
100
AcDbEntity
 67
     1
  8
1
  6
CONTINUOUS
 62
    18
100
AcDbLine
 10
5.549093
 20
6.183026
 30
0.0
 11
5.548187
 21
6.187842
 31
0.0
  0
LINE
  5
2F6
330
4E
100
AcDbEntity
 67
     1
  8
1
  6
CONTINUOUS
 62
    18
100
AcDbLine
 10
5.548187
 20
6.187842
 30
0.0
 11
5.545462
 21
6.190736
 31
0.0
  0
LINE
  5
2F7
330
4E
100
AcDbEntity
 67
     1
  8
1
  6
CONTINUOUS
 62
    18
100
AcDbLine
 10
5.545462
 20
6.190736
 30
0.0
 11
5.541065
 21
6.191755
 31
0.0
  0
LINE
  5
2F8
330
4E
100
AcDbEntity
 67
     1
  8
1
  6
CONTINUOUS
 62
    18
100
AcDbLine
 10
5.541065
 20
6.191755
 30
0.0
 11
5.539171
 21
6.191813
 31
0.0
  0
LINE
  5
2F9
330
4E
100
AcDbEntity
 67
     1
  8
1
  6
CONTINUOUS
 62
    18
100
AcDbLine
 10
5.549113
 20
6.225452
 30
0.0
 11
5.549113
 21
6.17767
 31
0.0
  0
LINE
  5
2FA
330
4E
100
AcDbEntity
 67
     1
  8
1
  6
CONTINUOUS
 62
    18
100
AcDbLine
 10
5.758346
 20
6.225452
 30
0.0
 11
5.758346
 21
6.17767
 31
0.0
  0
LINE
  5
2FB
330
4E
100
AcDbEntity
 67
     1
  8
1
  6
CONTINUOUS
 62
    18
100
AcDbLine
 10
5.549113
 20
6.17767
 30
0.0
 11
5.547797
 21
6.168883
 31
0.0
  0
LINE
  5
2FC
330
4E
100
AcDbEntity
 67
     1
  8
1
  6
CONTINUOUS
 62
    18
100
AcDbLine
 10
5.547797
 20
6.168883
 30
0.0
 11
5.759661
 21
6.168883
 31
0.0
  0
LINE
  5
2FD
330
4E
100
AcDbEntity
 67
     1
  8
1
  6
CONTINUOUS
 62
    18
100
AcDbLine
 10
5.759661
 20
6.168883
 30
0.0
 11
5.758346
 21
6.17767
 31
0.0
  0
LINE
  5
2FE
330
4E
100
AcDbEntity
 67
     1
  8
1
  6
CONTINUOUS
 62
    18
100
AcDbLine
 10
5.758366
 20
6.183026
 30
0.0
 11
5.758346
 21
6.181931
 31
0.0
  0
LINE
  5
2FF
330
4E
100
AcDbEntity
 67
     1
  8
1
  6
CONTINUOUS
 62
    18
100
AcDbLine
 10
5.549113
 20
6.181931
 30
0.0
 11
5.549093
 21
6.183026
 31
0.0
  0
LINE
  5
300
330
4E
100
AcDbEntity
 67
     1
  8
1
  6
CONTINUOUS
 62
    18
100
AcDbLine
 10
5.547797
 20
6.168883
 30
0.0
 11
5.545217
 21
6.164242
 31
0.0
  0
LINE
  5
301
330
4E
100
AcDbEntity
 67
     1
  8
1
  6
CONTINUOUS
 62
    18
100
AcDbLine
 10
5.545217
 20
6.164242
 30
0.0
 11
5.540701
 21
6.161532
 31
0.0
  0
LINE
  5
302
330
4E
100
AcDbEntity
 67
     1
  8
1
  6
CONTINUOUS
 62
    18
100
AcDbLine
 10
5.540701
 20
6.161532
 30
0.0
 11
5.534587
 21
6.160406
 31
0.0
  0
LINE
  5
303
330
4E
100
AcDbEntity
 67
     1
  8
1
  6
CONTINUOUS
 62
    18
100
AcDbLine
 10
5.534587
 20
6.160406
 30
0.0
 11
5.52643
 21
6.16011
 31
0.0
  0
LINE
  5
304
330
4E
100
AcDbEntity
 67
     1
  8
1
  6
CONTINUOUS
 62
    18
100
AcDbLine
 10
5.52643
 20
6.16011
 30
0.0
 11
5.519113
 21
6.160097
 31
0.0
  0
LINE
  5
305
330
4E
100
AcDbEntity
 67
     1
  8
1
  6
CONTINUOUS
 62
    18
100
AcDbLine
 10
5.788346
 20
6.160097
 30
0.0
 11
5.778502
 21
6.160143
 31
0.0
  0
LINE
  5
306
330
4E
100
AcDbEntity
 67
     1
  8
1
  6
CONTINUOUS
 62
    18
100
AcDbLine
 10
5.778502
 20
6.160143
 30
0.0
 11
5.769756
 21
6.160799
 31
0.0
  0
LINE
  5
307
330
4E
100
AcDbEntity
 67
     1
  8
1
  6
CONTINUOUS
 62
    18
100
AcDbLine
 10
5.769756
 20
6.160799
 30
0.0
 11
5.763449
 21
6.163188
 31
0.0
  0
LINE
  5
308
330
4E
100
AcDbEntity
 67
     1
  8
1
  6
CONTINUOUS
 62
    18
100
AcDbLine
 10
5.763449
 20
6.163188
 30
0.0
 11
5.760202
 21
6.167394
 31
0.0
  0
LINE
  5
309
330
4E
100
AcDbEntity
 67
     1
  8
1
  6
CONTINUOUS
 62
    18
100
AcDbLine
 10
5.760202
 20
6.167394
 30
0.0
 11
5.759661
 21
6.168883
 31
0.0
  0
LINE
  5
30A
330
4E
100
AcDbEntity
 67
     1
  8
1
  6
CONTINUOUS
 62
    18
100
AcDbLine
 10
7.753729
 20
6.191813
 30
0.0
 11
7.758621
 21
6.191813
 31
0.0
  0
LINE
  5
30B
330
4E
100
AcDbEntity
 67
     1
  8
1
  6
CONTINUOUS
 62
    18
100
AcDbLine
 10
7.758621
 20
6.191813
 30
0.0
 11
7.773175
 21
6.191813
 31
0.0
  0
LINE
  5
30C
330
4E
100
AcDbEntity
 67
     1
  8
1
  6
CONTINUOUS
 62
    18
100
AcDbLine
 10
7.773175
 20
6.191813
 30
0.0
 11
7.797037
 21
6.191813
 31
0.0
  0
LINE
  5
30D
330
4E
100
AcDbEntity
 67
     1
  8
1
  6
CONTINUOUS
 62
    18
100
AcDbLine
 10
7.797037
 20
6.191813
 30
0.0
 11
7.829623
 21
6.191813
 31
0.0
  0
LINE
  5
30E
330
4E
100
AcDbEntity
 67
     1
  8
1
  6
CONTINUOUS
 62
    18
100
AcDbLine
 10
7.829623
 20
6.191813
 30
0.0
 11
7.870135
 21
6.191813
 31
0.0
  0
LINE
  5
30F
330
4E
100
AcDbEntity
 67
     1
  8
1
  6
CONTINUOUS
 62
    18
100
AcDbLine
 10
7.870135
 20
6.191813
 30
0.0
 11
7.917583
 21
6.191813
 31
0.0
  0
LINE
  5
310
330
4E
100
AcDbEntity
 67
     1
  8
1
  6
CONTINUOUS
 62
    18
100
AcDbLine
 10
7.917583
 20
6.191813
 30
0.0
 11
7.970807
 21
6.191813
 31
0.0
  0
LINE
  5
311
330
4E
100
AcDbEntity
 67
     1
  8
1
  6
CONTINUOUS
 62
    18
100
AcDbLine
 10
7.970807
 20
6.191813
 30
0.0
 11
8.028504
 21
6.191813
 31
0.0
  0
LINE
  5
312
330
4E
100
AcDbEntity
 67
     1
  8
1
  6
CONTINUOUS
 62
    18
100
AcDbLine
 10
8.278954
 20
6.191813
 30
0.0
 11
8.336651
 21
6.191813
 31
0.0
  0
LINE
  5
313
330
4E
100
AcDbEntity
 67
     1
  8
1
  6
CONTINUOUS
 62
    18
100
AcDbLine
 10
8.336651
 20
6.191813
 30
0.0
 11
8.389875
 21
6.191813
 31
0.0
  0
LINE
  5
314
330
4E
100
AcDbEntity
 67
     1
  8
1
  6
CONTINUOUS
 62
    18
100
AcDbLine
 10
8.389875
 20
6.191813
 30
0.0
 11
8.437324
 21
6.191813
 31
0.0
  0
LINE
  5
315
330
4E
100
AcDbEntity
 67
     1
  8
1
  6
CONTINUOUS
 62
    18
100
AcDbLine
 10
8.437324
 20
6.191813
 30
0.0
 11
8.477836
 21
6.191813
 31
0.0
  0
LINE
  5
316
330
4E
100
AcDbEntity
 67
     1
  8
1
  6
CONTINUOUS
 62
    18
100
AcDbLine
 10
8.477836
 20
6.191813
 30
0.0
 11
8.510421
 21
6.191813
 31
0.0
  0
LINE
  5
317
330
4E
100
AcDbEntity
 67
     1
  8
1
  6
CONTINUOUS
 62
    18
100
AcDbLine
 10
8.510421
 20
6.191813
 30
0.0
 11
8.534284
 21
6.191813
 31
0.0
  0
LINE
  5
318
330
4E
100
AcDbEntity
 67
     1
  8
1
  6
CONTINUOUS
 62
    18
100
AcDbLine
 10
8.534284
 20
6.191813
 30
0.0
 11
8.548838
 21
6.191813
 31
0.0
  0
LINE
  5
319
330
4E
100
AcDbEntity
 67
     1
  8
1
  6
CONTINUOUS
 62
    18
100
AcDbLine
 10
8.548838
 20
6.191813
 30
0.0
 11
8.553729
 21
6.191813
 31
0.0
  0
LINE
  5
31A
330
4E
100
AcDbEntity
 67
     1
  8
1
  6
CONTINUOUS
 62
    18
100
AcDbLine
 10
8.278954
 20
6.191813
 30
0.0
 11
8.273299
 21
6.191813
 31
0.0
  0
LINE
  5
31B
330
4E
100
AcDbEntity
 67
     1
  8
1
  6
CONTINUOUS
 62
    18
100
AcDbLine
 10
8.273299
 20
6.191813
 30
0.0
 11
8.268287
 21
6.191813
 31
0.0
  0
LINE
  5
31C
330
4E
100
AcDbEntity
 67
     1
  8
1
  6
CONTINUOUS
 62
    18
100
AcDbLine
 10
8.039171
 20
6.191813
 30
0.0
 11
8.03416
 21
6.191813
 31
0.0
  0
LINE
  5
31D
330
4E
100
AcDbEntity
 67
     1
  8
1
  6
CONTINUOUS
 62
    18
100
AcDbLine
 10
8.03416
 20
6.191813
 30
0.0
 11
8.028504
 21
6.191813
 31
0.0
  0
LINE
  5
31E
330
4E
100
AcDbEntity
 67
     1
  8
1
  6
CONTINUOUS
 62
    18
100
AcDbLine
 10
8.553729
 20
6.251812
 30
0.0
 11
8.548838
 21
6.251812
 31
0.0
  0
LINE
  5
31F
330
4E
100
AcDbEntity
 67
     1
  8
1
  6
CONTINUOUS
 62
    18
100
AcDbLine
 10
8.548838
 20
6.251812
 30
0.0
 11
8.534284
 21
6.251812
 31
0.0
  0
LINE
  5
320
330
4E
100
AcDbEntity
 67
     1
  8
1
  6
CONTINUOUS
 62
    18
100
AcDbLine
 10
8.534284
 20
6.251812
 30
0.0
 11
8.510421
 21
6.251812
 31
0.0
  0
LINE
  5
321
330
4E
100
AcDbEntity
 67
     1
  8
1
  6
CONTINUOUS
 62
    18
100
AcDbLine
 10
8.510421
 20
6.251812
 30
0.0
 11
8.477836
 21
6.251812
 31
0.0
  0
LINE
  5
322
330
4E
100
AcDbEntity
 67
     1
  8
1
  6
CONTINUOUS
 62
    18
100
AcDbLine
 10
8.477836
 20
6.251812
 30
0.0
 11
8.437324
 21
6.251812
 31
0.0
  0
LINE
  5
323
330
4E
100
AcDbEntity
 67
     1
  8
1
  6
CONTINUOUS
 62
    18
100
AcDbLine
 10
8.437324
 20
6.251812
 30
0.0
 11
8.389875
 21
6.251812
 31
0.0
  0
LINE
  5
324
330
4E
100
AcDbEntity
 67
     1
  8
1
  6
CONTINUOUS
 62
    18
100
AcDbLine
 10
8.389875
 20
6.251812
 30
0.0
 11
8.336651
 21
6.251812
 31
0.0
  0
LINE
  5
325
330
4E
100
AcDbEntity
 67
     1
  8
1
  6
CONTINUOUS
 62
    18
100
AcDbLine
 10
8.336651
 20
6.251812
 30
0.0
 11
8.278954
 21
6.251812
 31
0.0
  0
LINE
  5
326
330
4E
100
AcDbEntity
 67
     1
  8
1
  6
CONTINUOUS
 62
    18
100
AcDbLine
 10
8.028504
 20
6.251812
 30
0.0
 11
7.970807
 21
6.251812
 31
0.0
  0
LINE
  5
327
330
4E
100
AcDbEntity
 67
     1
  8
1
  6
CONTINUOUS
 62
    18
100
AcDbLine
 10
7.970807
 20
6.251812
 30
0.0
 11
7.917583
 21
6.251812
 31
0.0
  0
LINE
  5
328
330
4E
100
AcDbEntity
 67
     1
  8
1
  6
CONTINUOUS
 62
    18
100
AcDbLine
 10
7.917583
 20
6.251812
 30
0.0
 11
7.870135
 21
6.251812
 31
0.0
  0
LINE
  5
329
330
4E
100
AcDbEntity
 67
     1
  8
1
  6
CONTINUOUS
 62
    18
100
AcDbLine
 10
7.870135
 20
6.251812
 30
0.0
 11
7.829623
 21
6.251812
 31
0.0
  0
LINE
  5
32A
330
4E
100
AcDbEntity
 67
     1
  8
1
  6
CONTINUOUS
 62
    18
100
AcDbLine
 10
7.829623
 20
6.251812
 30
0.0
 11
7.797037
 21
6.251812
 31
0.0
  0
LINE
  5
32B
330
4E
100
AcDbEntity
 67
     1
  8
1
  6
CONTINUOUS
 62
    18
100
AcDbLine
 10
7.797037
 20
6.251812
 30
0.0
 11
7.773175
 21
6.251812
 31
0.0
  0
LINE
  5
32C
330
4E
100
AcDbEntity
 67
     1
  8
1
  6
CONTINUOUS
 62
    18
100
AcDbLine
 10
7.773175
 20
6.251812
 30
0.0
 11
7.758621
 21
6.251812
 31
0.0
  0
LINE
  5
32D
330
4E
100
AcDbEntity
 67
     1
  8
1
  6
CONTINUOUS
 62
    18
100
AcDbLine
 10
7.758621
 20
6.251812
 30
0.0
 11
7.753729
 21
6.251812
 31
0.0
  0
LINE
  5
32E
330
4E
100
AcDbEntity
 67
     1
  8
1
  6
CONTINUOUS
 62
    18
100
AcDbLine
 10
8.028504
 20
6.251812
 30
0.0
 11
8.03416
 21
6.251812
 31
0.0
  0
LINE
  5
32F
330
4E
100
AcDbEntity
 67
     1
  8
1
  6
CONTINUOUS
 62
    18
100
AcDbLine
 10
8.03416
 20
6.251812
 30
0.0
 11
8.039171
 21
6.251812
 31
0.0
  0
LINE
  5
330
330
4E
100
AcDbEntity
 67
     1
  8
1
  6
CONTINUOUS
 62
    18
100
AcDbLine
 10
8.039171
 20
6.251812
 30
0.0
 11
8.268287
 21
6.251812
 31
0.0
  0
LINE
  5
331
330
4E
100
AcDbEntity
 67
     1
  8
1
  6
CONTINUOUS
 62
    18
100
AcDbLine
 10
8.268287
 20
6.251812
 30
0.0
 11
8.273299
 21
6.251812
 31
0.0
  0
LINE
  5
332
330
4E
100
AcDbEntity
 67
     1
  8
1
  6
CONTINUOUS
 62
    18
100
AcDbLine
 10
8.273299
 20
6.251812
 30
0.0
 11
8.278954
 21
6.251812
 31
0.0
  0
LINE
  5
333
330
4E
100
AcDbEntity
 67
     1
  8
1
  6
CONTINUOUS
 62
    18
100
AcDbLine
 10
8.028504
 20
6.191813
 30
0.0
 11
8.028504
 21
6.251812
 31
0.0
  0
LINE
  5
334
330
4E
100
AcDbEntity
 67
     1
  8
1
  6
CONTINUOUS
 62
    18
100
AcDbLine
 10
8.278954
 20
6.251812
 30
0.0
 11
8.278954
 21
6.191813
 31
0.0
  0
LINE
  5
335
330
4E
100
AcDbEntity
 67
     1
  8
1
  6
CONTINUOUS
 62
    18
100
AcDbLine
 10
8.049113
 20
6.249004
 30
0.0
 11
8.049113
 21
6.240008
 31
0.0
  0
LINE
  5
336
330
4E
100
AcDbEntity
 67
     1
  8
1
  6
CONTINUOUS
 62
    18
100
AcDbLine
 10
8.049113
 20
6.240008
 30
0.0
 11
8.049113
 21
6.225452
 31
0.0
  0
LINE
  5
337
330
4E
100
AcDbEntity
 67
     1
  8
1
  6
CONTINUOUS
 62
    18
100
AcDbLine
 10
8.258346
 20
6.249004
 30
0.0
 11
8.258346
 21
6.240008
 31
0.0
  0
LINE
  5
338
330
4E
100
AcDbEntity
 67
     1
  8
1
  6
CONTINUOUS
 62
    18
100
AcDbLine
 10
8.258346
 20
6.240008
 30
0.0
 11
8.258346
 21
6.225452
 31
0.0
  0
LINE
  5
339
330
4E
100
AcDbEntity
 67
     1
  8
1
  6
CONTINUOUS
 62
    18
100
AcDbLine
 10
8.039171
 20
6.251812
 30
0.0
 11
8.045282
 21
6.251488
 31
0.0
  0
LINE
  5
33A
330
4E
100
AcDbEntity
 67
     1
  8
1
  6
CONTINUOUS
 62
    18
100
AcDbLine
 10
8.045282
 20
6.251488
 30
0.0
 11
8.048597
 21
6.250236
 31
0.0
  0
LINE
  5
33B
330
4E
100
AcDbEntity
 67
     1
  8
1
  6
CONTINUOUS
 62
    18
100
AcDbLine
 10
8.048597
 20
6.250236
 30
0.0
 11
8.049113
 21
6.249004
 31
0.0
  0
LINE
  5
33C
330
4E
100
AcDbEntity
 67
     1
  8
1
  6
CONTINUOUS
 62
    18
100
AcDbLine
 10
8.049113
 20
6.225452
 30
0.0
 11
8.258346
 21
6.225452
 31
0.0
  0
LINE
  5
33D
330
4E
100
AcDbEntity
 67
     1
  8
1
  6
CONTINUOUS
 62
    18
100
AcDbLine
 10
8.258346
 20
6.249004
 30
0.0
 11
8.259882
 21
6.250893
 31
0.0
  0
LINE
  5
33E
330
4E
100
AcDbEntity
 67
     1
  8
1
  6
CONTINUOUS
 62
    18
100
AcDbLine
 10
8.259882
 20
6.250893
 30
0.0
 11
8.26443
 21
6.251715
 31
0.0
  0
LINE
  5
33F
330
4E
100
AcDbEntity
 67
     1
  8
1
  6
CONTINUOUS
 62
    18
100
AcDbLine
 10
8.26443
 20
6.251715
 30
0.0
 11
8.268287
 21
6.251812
 31
0.0
  0
LINE
  5
340
330
4E
100
AcDbEntity
 67
     1
  8
1
  6
CONTINUOUS
 62
    18
100
AcDbLine
 10
8.268287
 20
6.191813
 30
0.0
 11
8.263053
 21
6.19117
 31
0.0
  0
LINE
  5
341
330
4E
100
AcDbEntity
 67
     1
  8
1
  6
CONTINUOUS
 62
    18
100
AcDbLine
 10
8.263053
 20
6.19117
 30
0.0
 11
8.259754
 21
6.188741
 31
0.0
  0
LINE
  5
342
330
4E
100
AcDbEntity
 67
     1
  8
1
  6
CONTINUOUS
 62
    18
100
AcDbLine
 10
8.259754
 20
6.188741
 30
0.0
 11
8.258477
 21
6.184606
 31
0.0
  0
LINE
  5
343
330
4E
100
AcDbEntity
 67
     1
  8
1
  6
CONTINUOUS
 62
    18
100
AcDbLine
 10
8.258477
 20
6.184606
 30
0.0
 11
8.258366
 21
6.183026
 31
0.0
  0
LINE
  5
344
330
4E
100
AcDbEntity
 67
     1
  8
1
  6
CONTINUOUS
 62
    18
100
AcDbLine
 10
8.049093
 20
6.183026
 30
0.0
 11
8.048187
 21
6.187842
 31
0.0
  0
LINE
  5
345
330
4E
100
AcDbEntity
 67
     1
  8
1
  6
CONTINUOUS
 62
    18
100
AcDbLine
 10
8.048187
 20
6.187842
 30
0.0
 11
8.045462
 21
6.190736
 31
0.0
  0
LINE
  5
346
330
4E
100
AcDbEntity
 67
     1
  8
1
  6
CONTINUOUS
 62
    18
100
AcDbLine
 10
8.045462
 20
6.190736
 30
0.0
 11
8.041065
 21
6.191755
 31
0.0
  0
LINE
  5
347
330
4E
100
AcDbEntity
 67
     1
  8
1
  6
CONTINUOUS
 62
    18
100
AcDbLine
 10
8.041065
 20
6.191755
 30
0.0
 11
8.039171
 21
6.191813
 31
0.0
  0
LINE
  5
348
330
4E
100
AcDbEntity
 67
     1
  8
1
  6
CONTINUOUS
 62
    18
100
AcDbLine
 10
8.049113
 20
6.225452
 30
0.0
 11
8.049113
 21
6.17767
 31
0.0
  0
LINE
  5
349
330
4E
100
AcDbEntity
 67
     1
  8
1
  6
CONTINUOUS
 62
    18
100
AcDbLine
 10
8.258346
 20
6.225452
 30
0.0
 11
8.258346
 21
6.17767
 31
0.0
  0
LINE
  5
34A
330
4E
100
AcDbEntity
 67
     1
  8
1
  6
CONTINUOUS
 62
    18
100
AcDbLine
 10
8.049113
 20
6.17767
 30
0.0
 11
8.047797
 21
6.168883
 31
0.0
  0
LINE
  5
34B
330
4E
100
AcDbEntity
 67
     1
  8
1
  6
CONTINUOUS
 62
    18
100
AcDbLine
 10
8.047797
 20
6.168883
 30
0.0
 11
8.259662
 21
6.168883
 31
0.0
  0
LINE
  5
34C
330
4E
100
AcDbEntity
 67
     1
  8
1
  6
CONTINUOUS
 62
    18
100
AcDbLine
 10
8.259662
 20
6.168883
 30
0.0
 11
8.258346
 21
6.17767
 31
0.0
  0
LINE
  5
34D
330
4E
100
AcDbEntity
 67
     1
  8
1
  6
CONTINUOUS
 62
    18
100
AcDbLine
 10
8.258366
 20
6.183026
 30
0.0
 11
8.258346
 21
6.181931
 31
0.0
  0
LINE
  5
34E
330
4E
100
AcDbEntity
 67
     1
  8
1
  6
CONTINUOUS
 62
    18
100
AcDbLine
 10
8.049113
 20
6.181931
 30
0.0
 11
8.049093
 21
6.183026
 31
0.0
  0
LINE
  5
34F
330
4E
100
AcDbEntity
 67
     1
  8
1
  6
CONTINUOUS
 62
    18
100
AcDbLine
 10
8.047797
 20
6.168883
 30
0.0
 11
8.045217
 21
6.164242
 31
0.0
  0
LINE
  5
350
330
4E
100
AcDbEntity
 67
     1
  8
1
  6
CONTINUOUS
 62
    18
100
AcDbLine
 10
8.045217
 20
6.164242
 30
0.0
 11
8.040701
 21
6.161532
 31
0.0
  0
LINE
  5
351
330
4E
100
AcDbEntity
 67
     1
  8
1
  6
CONTINUOUS
 62
    18
100
AcDbLine
 10
8.040701
 20
6.161532
 30
0.0
 11
8.034587
 21
6.160406
 31
0.0
  0
LINE
  5
352
330
4E
100
AcDbEntity
 67
     1
  8
1
  6
CONTINUOUS
 62
    18
100
AcDbLine
 10
8.034587
 20
6.160406
 30
0.0
 11
8.026429
 21
6.16011
 31
0.0
  0
LINE
  5
353
330
4E
100
AcDbEntity
 67
     1
  8
1
  6
CONTINUOUS
 62
    18
100
AcDbLine
 10
8.026429
 20
6.16011
 30
0.0
 11
8.019113
 21
6.160097
 31
0.0
  0
LINE
  5
354
330
4E
100
AcDbEntity
 67
     1
  8
1
  6
CONTINUOUS
 62
    18
100
AcDbLine
 10
8.288345
 20
6.160097
 30
0.0
 11
8.278502
 21
6.160143
 31
0.0
  0
LINE
  5
355
330
4E
100
AcDbEntity
 67
     1
  8
1
  6
CONTINUOUS
 62
    18
100
AcDbLine
 10
8.278502
 20
6.160143
 30
0.0
 11
8.269756
 21
6.160799
 31
0.0
  0
LINE
  5
356
330
4E
100
AcDbEntity
 67
     1
  8
1
  6
CONTINUOUS
 62
    18
100
AcDbLine
 10
8.269756
 20
6.160799
 30
0.0
 11
8.263449
 21
6.163188
 31
0.0
  0
LINE
  5
357
330
4E
100
AcDbEntity
 67
     1
  8
1
  6
CONTINUOUS
 62
    18
100
AcDbLine
 10
8.263449
 20
6.163188
 30
0.0
 11
8.260202
 21
6.167394
 31
0.0
  0
LINE
  5
358
330
4E
100
AcDbEntity
 67
     1
  8
1
  6
CONTINUOUS
 62
    18
100
AcDbLine
 10
8.260202
 20
6.167394
 30
0.0
 11
8.259662
 21
6.168883
 31
0.0
  0
LINE
  5
359
330
4E
100
AcDbEntity
 67
     1
  8
1
  6
CONTINUOUS
 62
    18
100
AcDbLine
 10
13.253729
 20
6.191813
 30
0.0
 11
13.25862
 21
6.191813
 31
0.0
  0
LINE
  5
35A
330
4E
100
AcDbEntity
 67
     1
  8
1
  6
CONTINUOUS
 62
    18
100
AcDbLine
 10
13.25862
 20
6.191813
 30
0.0
 11
13.273175
 21
6.191813
 31
0.0
  0
LINE
  5
35B
330
4E
100
AcDbEntity
 67
     1
  8
1
  6
CONTINUOUS
 62
    18
100
AcDbLine
 10
13.273175
 20
6.191813
 30
0.0
 11
13.297037
 21
6.191813
 31
0.0
  0
LINE
  5
35C
330
4E
100
AcDbEntity
 67
     1
  8
1
  6
CONTINUOUS
 62
    18
100
AcDbLine
 10
13.297037
 20
6.191813
 30
0.0
 11
13.329623
 21
6.191813
 31
0.0
  0
LINE
  5
35D
330
4E
100
AcDbEntity
 67
     1
  8
1
  6
CONTINUOUS
 62
    18
100
AcDbLine
 10
13.329623
 20
6.191813
 30
0.0
 11
13.370135
 21
6.191813
 31
0.0
  0
LINE
  5
35E
330
4E
100
AcDbEntity
 67
     1
  8
1
  6
CONTINUOUS
 62
    18
100
AcDbLine
 10
13.370135
 20
6.191813
 30
0.0
 11
13.417583
 21
6.191813
 31
0.0
  0
LINE
  5
35F
330
4E
100
AcDbEntity
 67
     1
  8
1
  6
CONTINUOUS
 62
    18
100
AcDbLine
 10
13.417583
 20
6.191813
 30
0.0
 11
13.470807
 21
6.191813
 31
0.0
  0
LINE
  5
360
330
4E
100
AcDbEntity
 67
     1
  8
1
  6
CONTINUOUS
 62
    18
100
AcDbLine
 10
13.470807
 20
6.191813
 30
0.0
 11
13.528504
 21
6.191813
 31
0.0
  0
LINE
  5
361
330
4E
100
AcDbEntity
 67
     1
  8
1
  6
CONTINUOUS
 62
    18
100
AcDbLine
 10
13.778954
 20
6.191813
 30
0.0
 11
13.836651
 21
6.191813
 31
0.0
  0
LINE
  5
362
330
4E
100
AcDbEntity
 67
     1
  8
1
  6
CONTINUOUS
 62
    18
100
AcDbLine
 10
13.836651
 20
6.191813
 30
0.0
 11
13.889875
 21
6.191813
 31
0.0
  0
LINE
  5
363
330
4E
100
AcDbEntity
 67
     1
  8
1
  6
CONTINUOUS
 62
    18
100
AcDbLine
 10
13.889875
 20
6.191813
 30
0.0
 11
13.937324
 21
6.191813
 31
0.0
  0
LINE
  5
364
330
4E
100
AcDbEntity
 67
     1
  8
1
  6
CONTINUOUS
 62
    18
100
AcDbLine
 10
13.937324
 20
6.191813
 30
0.0
 11
13.977836
 21
6.191813
 31
0.0
  0
LINE
  5
365
330
4E
100
AcDbEntity
 67
     1
  8
1
  6
CONTINUOUS
 62
    18
100
AcDbLine
 10
13.977836
 20
6.191813
 30
0.0
 11
14.010421
 21
6.191813
 31
0.0
  0
LINE
  5
366
330
4E
100
AcDbEntity
 67
     1
  8
1
  6
CONTINUOUS
 62
    18
100
AcDbLine
 10
14.010421
 20
6.191813
 30
0.0
 11
14.034284
 21
6.191813
 31
0.0
  0
LINE
  5
367
330
4E
100
AcDbEntity
 67
     1
  8
1
  6
CONTINUOUS
 62
    18
100
AcDbLine
 10
14.034284
 20
6.191813
 30
0.0
 11
14.048838
 21
6.191813
 31
0.0
  0
LINE
  5
368
330
4E
100
AcDbEntity
 67
     1
  8
1
  6
CONTINUOUS
 62
    18
100
AcDbLine
 10
14.048838
 20
6.191813
 30
0.0
 11
14.053729
 21
6.191813
 31
0.0
  0
LINE
  5
369
330
4E
100
AcDbEntity
 67
     1
  8
1
  6
CONTINUOUS
 62
    18
100
AcDbLine
 10
13.778954
 20
6.191813
 30
0.0
 11
13.773299
 21
6.191813
 31
0.0
  0
LINE
  5
36A
330
4E
100
AcDbEntity
 67
     1
  8
1
  6
CONTINUOUS
 62
    18
100
AcDbLine
 10
13.773299
 20
6.191813
 30
0.0
 11
13.768287
 21
6.191813
 31
0.0
  0
LINE
  5
36B
330
4E
100
AcDbEntity
 67
     1
  8
1
  6
CONTINUOUS
 62
    18
100
AcDbLine
 10
13.539171
 20
6.191813
 30
0.0
 11
13.53416
 21
6.191813
 31
0.0
  0
LINE
  5
36C
330
4E
100
AcDbEntity
 67
     1
  8
1
  6
CONTINUOUS
 62
    18
100
AcDbLine
 10
13.53416
 20
6.191813
 30
0.0
 11
13.528504
 21
6.191813
 31
0.0
  0
LINE
  5
36D
330
4E
100
AcDbEntity
 67
     1
  8
1
  6
CONTINUOUS
 62
    18
100
AcDbLine
 10
14.053729
 20
6.251812
 30
0.0
 11
14.048838
 21
6.251812
 31
0.0
  0
LINE
  5
36E
330
4E
100
AcDbEntity
 67
     1
  8
1
  6
CONTINUOUS
 62
    18
100
AcDbLine
 10
14.048838
 20
6.251812
 30
0.0
 11
14.034284
 21
6.251812
 31
0.0
  0
LINE
  5
36F
330
4E
100
AcDbEntity
 67
     1
  8
1
  6
CONTINUOUS
 62
    18
100
AcDbLine
 10
14.034284
 20
6.251812
 30
0.0
 11
14.010421
 21
6.251812
 31
0.0
  0
LINE
  5
370
330
4E
100
AcDbEntity
 67
     1
  8
1
  6
CONTINUOUS
 62
    18
100
AcDbLine
 10
14.010421
 20
6.251812
 30
0.0
 11
13.977836
 21
6.251812
 31
0.0
  0
LINE
  5
371
330
4E
100
AcDbEntity
 67
     1
  8
1
  6
CONTINUOUS
 62
    18
100
AcDbLine
 10
13.977836
 20
6.251812
 30
0.0
 11
13.937324
 21
6.251812
 31
0.0
  0
LINE
  5
372
330
4E
100
AcDbEntity
 67
     1
  8
1
  6
CONTINUOUS
 62
    18
100
AcDbLine
 10
13.937324
 20
6.251812
 30
0.0
 11
13.889875
 21
6.251812
 31
0.0
  0
LINE
  5
373
330
4E
100
AcDbEntity
 67
     1
  8
1
  6
CONTINUOUS
 62
    18
100
AcDbLine
 10
13.889875
 20
6.251812
 30
0.0
 11
13.836651
 21
6.251812
 31
0.0
  0
LINE
  5
374
330
4E
100
AcDbEntity
 67
     1
  8
1
  6
CONTINUOUS
 62
    18
100
AcDbLine
 10
13.836651
 20
6.251812
 30
0.0
 11
13.778954
 21
6.251812
 31
0.0
  0
LINE
  5
375
330
4E
100
AcDbEntity
 67
     1
  8
1
  6
CONTINUOUS
 62
    18
100
AcDbLine
 10
13.528504
 20
6.251812
 30
0.0
 11
13.470807
 21
6.251812
 31
0.0
  0
LINE
  5
376
330
4E
100
AcDbEntity
 67
     1
  8
1
  6
CONTINUOUS
 62
    18
100
AcDbLine
 10
13.470807
 20
6.251812
 30
0.0
 11
13.417583
 21
6.251812
 31
0.0
  0
LINE
  5
377
330
4E
100
AcDbEntity
 67
     1
  8
1
  6
CONTINUOUS
 62
    18
100
AcDbLine
 10
13.417583
 20
6.251812
 30
0.0
 11
13.370135
 21
6.251812
 31
0.0
  0
LINE
  5
378
330
4E
100
AcDbEntity
 67
     1
  8
1
  6
CONTINUOUS
 62
    18
100
AcDbLine
 10
13.370135
 20
6.251812
 30
0.0
 11
13.329623
 21
6.251812
 31
0.0
  0
LINE
  5
379
330
4E
100
AcDbEntity
 67
     1
  8
1
  6
CONTINUOUS
 62
    18
100
AcDbLine
 10
13.329623
 20
6.251812
 30
0.0
 11
13.297037
 21
6.251812
 31
0.0
  0
LINE
  5
37A
330
4E
100
AcDbEntity
 67
     1
  8
1
  6
CONTINUOUS
 62
    18
100
AcDbLine
 10
13.297037
 20
6.251812
 30
0.0
 11
13.273175
 21
6.251812
 31
0.0
  0
LINE
  5
37B
330
4E
100
AcDbEntity
 67
     1
  8
1
  6
CONTINUOUS
 62
    18
100
AcDbLine
 10
13.273175
 20
6.251812
 30
0.0
 11
13.25862
 21
6.251812
 31
0.0
  0
LINE
  5
37C
330
4E
100
AcDbEntity
 67
     1
  8
1
  6
CONTINUOUS
 62
    18
100
AcDbLine
 10
13.25862
 20
6.251812
 30
0.0
 11
13.253729
 21
6.251812
 31
0.0
  0
LINE
  5
37D
330
4E
100
AcDbEntity
 67
     1
  8
1
  6
CONTINUOUS
 62
    18
100
AcDbLine
 10
13.528504
 20
6.251812
 30
0.0
 11
13.53416
 21
6.251812
 31
0.0
  0
LINE
  5
37E
330
4E
100
AcDbEntity
 67
     1
  8
1
  6
CONTINUOUS
 62
    18
100
AcDbLine
 10
13.53416
 20
6.251812
 30
0.0
 11
13.539171
 21
6.251812
 31
0.0
  0
LINE
  5
37F
330
4E
100
AcDbEntity
 67
     1
  8
1
  6
CONTINUOUS
 62
    18
100
AcDbLine
 10
13.539171
 20
6.251812
 30
0.0
 11
13.768287
 21
6.251812
 31
0.0
  0
LINE
  5
380
330
4E
100
AcDbEntity
 67
     1
  8
1
  6
CONTINUOUS
 62
    18
100
AcDbLine
 10
13.768287
 20
6.251812
 30
0.0
 11
13.773299
 21
6.251812
 31
0.0
  0
LINE
  5
381
330
4E
100
AcDbEntity
 67
     1
  8
1
  6
CONTINUOUS
 62
    18
100
AcDbLine
 10
13.773299
 20
6.251812
 30
0.0
 11
13.778954
 21
6.251812
 31
0.0
  0
LINE
  5
382
330
4E
100
AcDbEntity
 67
     1
  8
1
  6
CONTINUOUS
 62
    18
100
AcDbLine
 10
13.528504
 20
6.191813
 30
0.0
 11
13.528504
 21
6.251812
 31
0.0
  0
LINE
  5
383
330
4E
100
AcDbEntity
 67
     1
  8
1
  6
CONTINUOUS
 62
    18
100
AcDbLine
 10
13.778954
 20
6.251812
 30
0.0
 11
13.778954
 21
6.191813
 31
0.0
  0
LINE
  5
384
330
4E
100
AcDbEntity
 67
     1
  8
1
  6
CONTINUOUS
 62
    18
100
AcDbLine
 10
13.549113
 20
6.249004
 30
0.0
 11
13.549113
 21
6.240008
 31
0.0
  0
LINE
  5
385
330
4E
100
AcDbEntity
 67
     1
  8
1
  6
CONTINUOUS
 62
    18
100
AcDbLine
 10
13.549113
 20
6.240008
 30
0.0
 11
13.549113
 21
6.225452
 31
0.0
  0
LINE
  5
386
330
4E
100
AcDbEntity
 67
     1
  8
1
  6
CONTINUOUS
 62
    18
100
AcDbLine
 10
13.758346
 20
6.249004
 30
0.0
 11
13.758346
 21
6.240008
 31
0.0
  0
LINE
  5
387
330
4E
100
AcDbEntity
 67
     1
  8
1
  6
CONTINUOUS
 62
    18
100
AcDbLine
 10
13.758346
 20
6.240008
 30
0.0
 11
13.758346
 21
6.225452
 31
0.0
  0
LINE
  5
388
330
4E
100
AcDbEntity
 67
     1
  8
1
  6
CONTINUOUS
 62
    18
100
AcDbLine
 10
13.539171
 20
6.251812
 30
0.0
 11
13.545282
 21
6.251488
 31
0.0
  0
LINE
  5
389
330
4E
100
AcDbEntity
 67
     1
  8
1
  6
CONTINUOUS
 62
    18
100
AcDbLine
 10
13.545282
 20
6.251488
 30
0.0
 11
13.548597
 21
6.250236
 31
0.0
  0
LINE
  5
38A
330
4E
100
AcDbEntity
 67
     1
  8
1
  6
CONTINUOUS
 62
    18
100
AcDbLine
 10
13.548597
 20
6.250236
 30
0.0
 11
13.549113
 21
6.249004
 31
0.0
  0
LINE
  5
38B
330
4E
100
AcDbEntity
 67
     1
  8
1
  6
CONTINUOUS
 62
    18
100
AcDbLine
 10
13.549113
 20
6.225452
 30
0.0
 11
13.758346
 21
6.225452
 31
0.0
  0
LINE
  5
38C
330
4E
100
AcDbEntity
 67
     1
  8
1
  6
CONTINUOUS
 62
    18
100
AcDbLine
 10
13.758346
 20
6.249004
 30
0.0
 11
13.759882
 21
6.250893
 31
0.0
  0
LINE
  5
38D
330
4E
100
AcDbEntity
 67
     1
  8
1
  6
CONTINUOUS
 62
    18
100
AcDbLine
 10
13.759882
 20
6.250893
 30
0.0
 11
13.76443
 21
6.251715
 31
0.0
  0
LINE
  5
38E
330
4E
100
AcDbEntity
 67
     1
  8
1
  6
CONTINUOUS
 62
    18
100
AcDbLine
 10
13.76443
 20
6.251715
 30
0.0
 11
13.768287
 21
6.251812
 31
0.0
  0
LINE
  5
38F
330
4E
100
AcDbEntity
 67
     1
  8
1
  6
CONTINUOUS
 62
    18
100
AcDbLine
 10
13.768287
 20
6.191813
 30
0.0
 11
13.763053
 21
6.19117
 31
0.0
  0
LINE
  5
390
330
4E
100
AcDbEntity
 67
     1
  8
1
  6
CONTINUOUS
 62
    18
100
AcDbLine
 10
13.763053
 20
6.19117
 30
0.0
 11
13.759754
 21
6.188741
 31
0.0
  0
LINE
  5
391
330
4E
100
AcDbEntity
 67
     1
  8
1
  6
CONTINUOUS
 62
    18
100
AcDbLine
 10
13.759754
 20
6.188741
 30
0.0
 11
13.758477
 21
6.184606
 31
0.0
  0
LINE
  5
392
330
4E
100
AcDbEntity
 67
     1
  8
1
  6
CONTINUOUS
 62
    18
100
AcDbLine
 10
13.758477
 20
6.184606
 30
0.0
 11
13.758366
 21
6.183026
 31
0.0
  0
LINE
  5
393
330
4E
100
AcDbEntity
 67
     1
  8
1
  6
CONTINUOUS
 62
    18
100
AcDbLine
 10
13.549093
 20
6.183026
 30
0.0
 11
13.548187
 21
6.187842
 31
0.0
  0
LINE
  5
394
330
4E
100
AcDbEntity
 67
     1
  8
1
  6
CONTINUOUS
 62
    18
100
AcDbLine
 10
13.548187
 20
6.187842
 30
0.0
 11
13.545462
 21
6.190736
 31
0.0
  0
LINE
  5
395
330
4E
100
AcDbEntity
 67
     1
  8
1
  6
CONTINUOUS
 62
    18
100
AcDbLine
 10
13.545462
 20
6.190736
 30
0.0
 11
13.541065
 21
6.191755
 31
0.0
  0
LINE
  5
396
330
4E
100
AcDbEntity
 67
     1
  8
1
  6
CONTINUOUS
 62
    18
100
AcDbLine
 10
13.541065
 20
6.191755
 30
0.0
 11
13.539171
 21
6.191813
 31
0.0
  0
LINE
  5
397
330
4E
100
AcDbEntity
 67
     1
  8
1
  6
CONTINUOUS
 62
    18
100
AcDbLine
 10
13.549113
 20
6.225452
 30
0.0
 11
13.549113
 21
6.17767
 31
0.0
  0
LINE
  5
398
330
4E
100
AcDbEntity
 67
     1
  8
1
  6
CONTINUOUS
 62
    18
100
AcDbLine
 10
13.758346
 20
6.225452
 30
0.0
 11
13.758346
 21
6.17767
 31
0.0
  0
LINE
  5
399
330
4E
100
AcDbEntity
 67
     1
  8
1
  6
CONTINUOUS
 62
    18
100
AcDbLine
 10
13.549113
 20
6.17767
 30
0.0
 11
13.547797
 21
6.168883
 31
0.0
  0
LINE
  5
39A
330
4E
100
AcDbEntity
 67
     1
  8
1
  6
CONTINUOUS
 62
    18
100
AcDbLine
 10
13.547797
 20
6.168883
 30
0.0
 11
13.759662
 21
6.168883
 31
0.0
  0
LINE
  5
39B
330
4E
100
AcDbEntity
 67
     1
  8
1
  6
CONTINUOUS
 62
    18
100
AcDbLine
 10
13.759662
 20
6.168883
 30
0.0
 11
13.758346
 21
6.17767
 31
0.0
  0
LINE
  5
39C
330
4E
100
AcDbEntity
 67
     1
  8
1
  6
CONTINUOUS
 62
    18
100
AcDbLine
 10
13.758366
 20
6.183026
 30
0.0
 11
13.758346
 21
6.181931
 31
0.0
  0
LINE
  5
39D
330
4E
100
AcDbEntity
 67
     1
  8
1
  6
CONTINUOUS
 62
    18
100
AcDbLine
 10
13.549113
 20
6.181931
 30
0.0
 11
13.549093
 21
6.183026
 31
0.0
  0
LINE
  5
39E
330
4E
100
AcDbEntity
 67
     1
  8
1
  6
CONTINUOUS
 62
    18
100
AcDbLine
 10
13.547797
 20
6.168883
 30
0.0
 11
13.545217
 21
6.164242
 31
0.0
  0
LINE
  5
39F
330
4E
100
AcDbEntity
 67
     1
  8
1
  6
CONTINUOUS
 62
    18
100
AcDbLine
 10
13.545217
 20
6.164242
 30
0.0
 11
13.540701
 21
6.161532
 31
0.0
  0
LINE
  5
3A0
330
4E
100
AcDbEntity
 67
     1
  8
1
  6
CONTINUOUS
 62
    18
100
AcDbLine
 10
13.540701
 20
6.161532
 30
0.0
 11
13.534587
 21
6.160406
 31
0.0
  0
LINE
  5
3A1
330
4E
100
AcDbEntity
 67
     1
  8
1
  6
CONTINUOUS
 62
    18
100
AcDbLine
 10
13.534587
 20
6.160406
 30
0.0
 11
13.526429
 21
6.16011
 31
0.0
  0
LINE
  5
3A2
330
4E
100
AcDbEntity
 67
     1
  8
1
  6
CONTINUOUS
 62
    18
100
AcDbLine
 10
13.526429
 20
6.16011
 30
0.0
 11
13.519113
 21
6.160097
 31
0.0
  0
LINE
  5
3A3
330
4E
100
AcDbEntity
 67
     1
  8
1
  6
CONTINUOUS
 62
    18
100
AcDbLine
 10
13.788345
 20
6.160097
 30
0.0
 11
13.778502
 21
6.160143
 31
0.0
  0
LINE
  5
3A4
330
4E
100
AcDbEntity
 67
     1
  8
1
  6
CONTINUOUS
 62
    18
100
AcDbLine
 10
13.778502
 20
6.160143
 30
0.0
 11
13.769756
 21
6.160799
 31
0.0
  0
LINE
  5
3A5
330
4E
100
AcDbEntity
 67
     1
  8
1
  6
CONTINUOUS
 62
    18
100
AcDbLine
 10
13.769756
 20
6.160799
 30
0.0
 11
13.763449
 21
6.163188
 31
0.0
  0
LINE
  5
3A6
330
4E
100
AcDbEntity
 67
     1
  8
1
  6
CONTINUOUS
 62
    18
100
AcDbLine
 10
13.763449
 20
6.163188
 30
0.0
 11
13.760202
 21
6.167394
 31
0.0
  0
LINE
  5
3A7
330
4E
100
AcDbEntity
 67
     1
  8
1
  6
CONTINUOUS
 62
    18
100
AcDbLine
 10
13.760202
 20
6.167394
 30
0.0
 11
13.759662
 21
6.168883
 31
0.0
  0
LINE
  5
3A8
330
4E
100
AcDbEntity
 67
     1
  8
1
  6
CONTINUOUS
 62
    18
100
AcDbLine
 10
15.753729
 20
6.191813
 30
0.0
 11
15.75862
 21
6.191813
 31
0.0
  0
LINE
  5
3A9
330
4E
100
AcDbEntity
 67
     1
  8
1
  6
CONTINUOUS
 62
    18
100
AcDbLine
 10
15.75862
 20
6.191813
 30
0.0
 11
15.773175
 21
6.191813
 31
0.0
  0
LINE
  5
3AA
330
4E
100
AcDbEntity
 67
     1
  8
1
  6
CONTINUOUS
 62
    18
100
AcDbLine
 10
15.773175
 20
6.191813
 30
0.0
 11
15.797037
 21
6.191813
 31
0.0
  0
LINE
  5
3AB
330
4E
100
AcDbEntity
 67
     1
  8
1
  6
CONTINUOUS
 62
    18
100
AcDbLine
 10
15.797037
 20
6.191813
 30
0.0
 11
15.829623
 21
6.191813
 31
0.0
  0
LINE
  5
3AC
330
4E
100
AcDbEntity
 67
     1
  8
1
  6
CONTINUOUS
 62
    18
100
AcDbLine
 10
15.829623
 20
6.191813
 30
0.0
 11
15.870135
 21
6.191813
 31
0.0
  0
LINE
  5
3AD
330
4E
100
AcDbEntity
 67
     1
  8
1
  6
CONTINUOUS
 62
    18
100
AcDbLine
 10
15.870135
 20
6.191813
 30
0.0
 11
15.917583
 21
6.191813
 31
0.0
  0
LINE
  5
3AE
330
4E
100
AcDbEntity
 67
     1
  8
1
  6
CONTINUOUS
 62
    18
100
AcDbLine
 10
15.917583
 20
6.191813
 30
0.0
 11
15.970807
 21
6.191813
 31
0.0
  0
LINE
  5
3AF
330
4E
100
AcDbEntity
 67
     1
  8
1
  6
CONTINUOUS
 62
    18
100
AcDbLine
 10
15.970807
 20
6.191813
 30
0.0
 11
16.028505
 21
6.191813
 31
0.0
  0
LINE
  5
3B0
330
4E
100
AcDbEntity
 67
     1
  8
1
  6
CONTINUOUS
 62
    18
100
AcDbLine
 10
16.278954
 20
6.191813
 30
0.0
 11
16.336651
 21
6.191813
 31
0.0
  0
LINE
  5
3B1
330
4E
100
AcDbEntity
 67
     1
  8
1
  6
CONTINUOUS
 62
    18
100
AcDbLine
 10
16.336651
 20
6.191813
 30
0.0
 11
16.389875
 21
6.191813
 31
0.0
  0
LINE
  5
3B2
330
4E
100
AcDbEntity
 67
     1
  8
1
  6
CONTINUOUS
 62
    18
100
AcDbLine
 10
16.389875
 20
6.191813
 30
0.0
 11
16.437323
 21
6.191813
 31
0.0
  0
LINE
  5
3B3
330
4E
100
AcDbEntity
 67
     1
  8
1
  6
CONTINUOUS
 62
    18
100
AcDbLine
 10
16.437323
 20
6.191813
 30
0.0
 11
16.477835
 21
6.191813
 31
0.0
  0
LINE
  5
3B4
330
4E
100
AcDbEntity
 67
     1
  8
1
  6
CONTINUOUS
 62
    18
100
AcDbLine
 10
16.477835
 20
6.191813
 30
0.0
 11
16.510422
 21
6.191813
 31
0.0
  0
LINE
  5
3B5
330
4E
100
AcDbEntity
 67
     1
  8
1
  6
CONTINUOUS
 62
    18
100
AcDbLine
 10
16.510422
 20
6.191813
 30
0.0
 11
16.534283
 21
6.191813
 31
0.0
  0
LINE
  5
3B6
330
4E
100
AcDbEntity
 67
     1
  8
1
  6
CONTINUOUS
 62
    18
100
AcDbLine
 10
16.534283
 20
6.191813
 30
0.0
 11
16.548838
 21
6.191813
 31
0.0
  0
LINE
  5
3B7
330
4E
100
AcDbEntity
 67
     1
  8
1
  6
CONTINUOUS
 62
    18
100
AcDbLine
 10
16.548838
 20
6.191813
 30
0.0
 11
16.55373
 21
6.191813
 31
0.0
  0
LINE
  5
3B8
330
4E
100
AcDbEntity
 67
     1
  8
1
  6
CONTINUOUS
 62
    18
100
AcDbLine
 10
16.278954
 20
6.191813
 30
0.0
 11
16.2733
 21
6.191813
 31
0.0
  0
LINE
  5
3B9
330
4E
100
AcDbEntity
 67
     1
  8
1
  6
CONTINUOUS
 62
    18
100
AcDbLine
 10
16.2733
 20
6.191813
 30
0.0
 11
16.268288
 21
6.191813
 31
0.0
  0
LINE
  5
3BA
330
4E
100
AcDbEntity
 67
     1
  8
1
  6
CONTINUOUS
 62
    18
100
AcDbLine
 10
16.039171
 20
6.191813
 30
0.0
 11
16.034159
 21
6.191813
 31
0.0
  0
LINE
  5
3BB
330
4E
100
AcDbEntity
 67
     1
  8
1
  6
CONTINUOUS
 62
    18
100
AcDbLine
 10
16.034159
 20
6.191813
 30
0.0
 11
16.028505
 21
6.191813
 31
0.0
  0
LINE
  5
3BC
330
4E
100
AcDbEntity
 67
     1
  8
1
  6
CONTINUOUS
 62
    18
100
AcDbLine
 10
16.55373
 20
6.251812
 30
0.0
 11
16.548838
 21
6.251812
 31
0.0
  0
LINE
  5
3BD
330
4E
100
AcDbEntity
 67
     1
  8
1
  6
CONTINUOUS
 62
    18
100
AcDbLine
 10
16.548838
 20
6.251812
 30
0.0
 11
16.534283
 21
6.251812
 31
0.0
  0
LINE
  5
3BE
330
4E
100
AcDbEntity
 67
     1
  8
1
  6
CONTINUOUS
 62
    18
100
AcDbLine
 10
16.534283
 20
6.251812
 30
0.0
 11
16.510422
 21
6.251812
 31
0.0
  0
LINE
  5
3BF
330
4E
100
AcDbEntity
 67
     1
  8
1
  6
CONTINUOUS
 62
    18
100
AcDbLine
 10
16.510422
 20
6.251812
 30
0.0
 11
16.477835
 21
6.251812
 31
0.0
  0
LINE
  5
3C0
330
4E
100
AcDbEntity
 67
     1
  8
1
  6
CONTINUOUS
 62
    18
100
AcDbLine
 10
16.477835
 20
6.251812
 30
0.0
 11
16.437323
 21
6.251812
 31
0.0
  0
LINE
  5
3C1
330
4E
100
AcDbEntity
 67
     1
  8
1
  6
CONTINUOUS
 62
    18
100
AcDbLine
 10
16.437323
 20
6.251812
 30
0.0
 11
16.389875
 21
6.251812
 31
0.0
  0
LINE
  5
3C2
330
4E
100
AcDbEntity
 67
     1
  8
1
  6
CONTINUOUS
 62
    18
100
AcDbLine
 10
16.389875
 20
6.251812
 30
0.0
 11
16.336651
 21
6.251812
 31
0.0
  0
LINE
  5
3C3
330
4E
100
AcDbEntity
 67
     1
  8
1
  6
CONTINUOUS
 62
    18
100
AcDbLine
 10
16.336651
 20
6.251812
 30
0.0
 11
16.278954
 21
6.251812
 31
0.0
  0
LINE
  5
3C4
330
4E
100
AcDbEntity
 67
     1
  8
1
  6
CONTINUOUS
 62
    18
100
AcDbLine
 10
16.028505
 20
6.251812
 30
0.0
 11
15.970807
 21
6.251812
 31
0.0
  0
LINE
  5
3C5
330
4E
100
AcDbEntity
 67
     1
  8
1
  6
CONTINUOUS
 62
    18
100
AcDbLine
 10
15.970807
 20
6.251812
 30
0.0
 11
15.917583
 21
6.251812
 31
0.0
  0
LINE
  5
3C6
330
4E
100
AcDbEntity
 67
     1
  8
1
  6
CONTINUOUS
 62
    18
100
AcDbLine
 10
15.917583
 20
6.251812
 30
0.0
 11
15.870135
 21
6.251812
 31
0.0
  0
LINE
  5
3C7
330
4E
100
AcDbEntity
 67
     1
  8
1
  6
CONTINUOUS
 62
    18
100
AcDbLine
 10
15.870135
 20
6.251812
 30
0.0
 11
15.829623
 21
6.251812
 31
0.0
  0
LINE
  5
3C8
330
4E
100
AcDbEntity
 67
     1
  8
1
  6
CONTINUOUS
 62
    18
100
AcDbLine
 10
15.829623
 20
6.251812
 30
0.0
 11
15.797037
 21
6.251812
 31
0.0
  0
LINE
  5
3C9
330
4E
100
AcDbEntity
 67
     1
  8
1
  6
CONTINUOUS
 62
    18
100
AcDbLine
 10
15.797037
 20
6.251812
 30
0.0
 11
15.773175
 21
6.251812
 31
0.0
  0
LINE
  5
3CA
330
4E
100
AcDbEntity
 67
     1
  8
1
  6
CONTINUOUS
 62
    18
100
AcDbLine
 10
15.773175
 20
6.251812
 30
0.0
 11
15.75862
 21
6.251812
 31
0.0
  0
LINE
  5
3CB
330
4E
100
AcDbEntity
 67
     1
  8
1
  6
CONTINUOUS
 62
    18
100
AcDbLine
 10
15.75862
 20
6.251812
 30
0.0
 11
15.753729
 21
6.251812
 31
0.0
  0
LINE
  5
3CC
330
4E
100
AcDbEntity
 67
     1
  8
1
  6
CONTINUOUS
 62
    18
100
AcDbLine
 10
16.028505
 20
6.251812
 30
0.0
 11
16.034159
 21
6.251812
 31
0.0
  0
LINE
  5
3CD
330
4E
100
AcDbEntity
 67
     1
  8
1
  6
CONTINUOUS
 62
    18
100
AcDbLine
 10
16.034159
 20
6.251812
 30
0.0
 11
16.039171
 21
6.251812
 31
0.0
  0
LINE
  5
3CE
330
4E
100
AcDbEntity
 67
     1
  8
1
  6
CONTINUOUS
 62
    18
100
AcDbLine
 10
16.039171
 20
6.251812
 30
0.0
 11
16.268288
 21
6.251812
 31
0.0
  0
LINE
  5
3CF
330
4E
100
AcDbEntity
 67
     1
  8
1
  6
CONTINUOUS
 62
    18
100
AcDbLine
 10
16.268288
 20
6.251812
 30
0.0
 11
16.2733
 21
6.251812
 31
0.0
  0
LINE
  5
3D0
330
4E
100
AcDbEntity
 67
     1
  8
1
  6
CONTINUOUS
 62
    18
100
AcDbLine
 10
16.2733
 20
6.251812
 30
0.0
 11
16.278954
 21
6.251812
 31
0.0
  0
LINE
  5
3D1
330
4E
100
AcDbEntity
 67
     1
  8
1
  6
CONTINUOUS
 62
    18
100
AcDbLine
 10
16.028505
 20
6.191813
 30
0.0
 11
16.028505
 21
6.251812
 31
0.0
  0
LINE
  5
3D2
330
4E
100
AcDbEntity
 67
     1
  8
1
  6
CONTINUOUS
 62
    18
100
AcDbLine
 10
16.278954
 20
6.251812
 30
0.0
 11
16.278954
 21
6.191813
 31
0.0
  0
LINE
  5
3D3
330
4E
100
AcDbEntity
 67
     1
  8
1
  6
CONTINUOUS
 62
    18
100
AcDbLine
 10
16.049112
 20
6.249004
 30
0.0
 11
16.049112
 21
6.240008
 31
0.0
  0
LINE
  5
3D4
330
4E
100
AcDbEntity
 67
     1
  8
1
  6
CONTINUOUS
 62
    18
100
AcDbLine
 10
16.049112
 20
6.240008
 30
0.0
 11
16.049112
 21
6.225452
 31
0.0
  0
LINE
  5
3D5
330
4E
100
AcDbEntity
 67
     1
  8
1
  6
CONTINUOUS
 62
    18
100
AcDbLine
 10
16.258347
 20
6.249004
 30
0.0
 11
16.258347
 21
6.240008
 31
0.0
  0
LINE
  5
3D6
330
4E
100
AcDbEntity
 67
     1
  8
1
  6
CONTINUOUS
 62
    18
100
AcDbLine
 10
16.258347
 20
6.240008
 30
0.0
 11
16.258347
 21
6.225452
 31
0.0
  0
LINE
  5
3D7
330
4E
100
AcDbEntity
 67
     1
  8
1
  6
CONTINUOUS
 62
    18
100
AcDbLine
 10
16.039171
 20
6.251812
 30
0.0
 11
16.045282
 21
6.251488
 31
0.0
  0
LINE
  5
3D8
330
4E
100
AcDbEntity
 67
     1
  8
1
  6
CONTINUOUS
 62
    18
100
AcDbLine
 10
16.045282
 20
6.251488
 30
0.0
 11
16.048597
 21
6.250236
 31
0.0
  0
LINE
  5
3D9
330
4E
100
AcDbEntity
 67
     1
  8
1
  6
CONTINUOUS
 62
    18
100
AcDbLine
 10
16.048597
 20
6.250236
 30
0.0
 11
16.049112
 21
6.249004
 31
0.0
  0
LINE
  5
3DA
330
4E
100
AcDbEntity
 67
     1
  8
1
  6
CONTINUOUS
 62
    18
100
AcDbLine
 10
16.049112
 20
6.225452
 30
0.0
 11
16.258347
 21
6.225452
 31
0.0
  0
LINE
  5
3DB
330
4E
100
AcDbEntity
 67
     1
  8
1
  6
CONTINUOUS
 62
    18
100
AcDbLine
 10
16.258347
 20
6.249004
 30
0.0
 11
16.259882
 21
6.250893
 31
0.0
  0
LINE
  5
3DC
330
4E
100
AcDbEntity
 67
     1
  8
1
  6
CONTINUOUS
 62
    18
100
AcDbLine
 10
16.259882
 20
6.250893
 30
0.0
 11
16.264429
 21
6.251715
 31
0.0
  0
LINE
  5
3DD
330
4E
100
AcDbEntity
 67
     1
  8
1
  6
CONTINUOUS
 62
    18
100
AcDbLine
 10
16.264429
 20
6.251715
 30
0.0
 11
16.268288
 21
6.251812
 31
0.0
  0
LINE
  5
3DE
330
4E
100
AcDbEntity
 67
     1
  8
1
  6
CONTINUOUS
 62
    18
100
AcDbLine
 10
16.268288
 20
6.191813
 30
0.0
 11
16.263052
 21
6.19117
 31
0.0
  0
LINE
  5
3DF
330
4E
100
AcDbEntity
 67
     1
  8
1
  6
CONTINUOUS
 62
    18
100
AcDbLine
 10
16.263052
 20
6.19117
 30
0.0
 11
16.259754
 21
6.188741
 31
0.0
  0
LINE
  5
3E0
330
4E
100
AcDbEntity
 67
     1
  8
1
  6
CONTINUOUS
 62
    18
100
AcDbLine
 10
16.259754
 20
6.188741
 30
0.0
 11
16.258476
 21
6.184606
 31
0.0
  0
LINE
  5
3E1
330
4E
100
AcDbEntity
 67
     1
  8
1
  6
CONTINUOUS
 62
    18
100
AcDbLine
 10
16.258476
 20
6.184606
 30
0.0
 11
16.258366
 21
6.183026
 31
0.0
  0
LINE
  5
3E2
330
4E
100
AcDbEntity
 67
     1
  8
1
  6
CONTINUOUS
 62
    18
100
AcDbLine
 10
16.049093
 20
6.183026
 30
0.0
 11
16.048187
 21
6.187842
 31
0.0
  0
LINE
  5
3E3
330
4E
100
AcDbEntity
 67
     1
  8
1
  6
CONTINUOUS
 62
    18
100
AcDbLine
 10
16.048187
 20
6.187842
 30
0.0
 11
16.045462
 21
6.190736
 31
0.0
  0
LINE
  5
3E4
330
4E
100
AcDbEntity
 67
     1
  8
1
  6
CONTINUOUS
 62
    18
100
AcDbLine
 10
16.045462
 20
6.190736
 30
0.0
 11
16.041065
 21
6.191755
 31
0.0
  0
LINE
  5
3E5
330
4E
100
AcDbEntity
 67
     1
  8
1
  6
CONTINUOUS
 62
    18
100
AcDbLine
 10
16.041065
 20
6.191755
 30
0.0
 11
16.039171
 21
6.191813
 31
0.0
  0
LINE
  5
3E6
330
4E
100
AcDbEntity
 67
     1
  8
1
  6
CONTINUOUS
 62
    18
100
AcDbLine
 10
16.049112
 20
6.225452
 30
0.0
 11
16.049112
 21
6.17767
 31
0.0
  0
LINE
  5
3E7
330
4E
100
AcDbEntity
 67
     1
  8
1
  6
CONTINUOUS
 62
    18
100
AcDbLine
 10
16.258347
 20
6.225452
 30
0.0
 11
16.258347
 21
6.17767
 31
0.0
  0
LINE
  5
3E8
330
4E
100
AcDbEntity
 67
     1
  8
1
  6
CONTINUOUS
 62
    18
100
AcDbLine
 10
16.049112
 20
6.17767
 30
0.0
 11
16.047798
 21
6.168883
 31
0.0
  0
LINE
  5
3E9
330
4E
100
AcDbEntity
 67
     1
  8
1
  6
CONTINUOUS
 62
    18
100
AcDbLine
 10
16.047798
 20
6.168883
 30
0.0
 11
16.259661
 21
6.168883
 31
0.0
  0
LINE
  5
3EA
330
4E
100
AcDbEntity
 67
     1
  8
1
  6
CONTINUOUS
 62
    18
100
AcDbLine
 10
16.259661
 20
6.168883
 30
0.0
 11
16.258347
 21
6.17767
 31
0.0
  0
LINE
  5
3EB
330
4E
100
AcDbEntity
 67
     1
  8
1
  6
CONTINUOUS
 62
    18
100
AcDbLine
 10
16.258366
 20
6.183026
 30
0.0
 11
16.258347
 21
6.181931
 31
0.0
  0
LINE
  5
3EC
330
4E
100
AcDbEntity
 67
     1
  8
1
  6
CONTINUOUS
 62
    18
100
AcDbLine
 10
16.049112
 20
6.181931
 30
0.0
 11
16.049093
 21
6.183026
 31
0.0
  0
LINE
  5
3ED
330
4E
100
AcDbEntity
 67
     1
  8
1
  6
CONTINUOUS
 62
    18
100
AcDbLine
 10
16.047798
 20
6.168883
 30
0.0
 11
16.045218
 21
6.164242
 31
0.0
  0
LINE
  5
3EE
330
4E
100
AcDbEntity
 67
     1
  8
1
  6
CONTINUOUS
 62
    18
100
AcDbLine
 10
16.045218
 20
6.164242
 30
0.0
 11
16.040701
 21
6.161532
 31
0.0
  0
LINE
  5
3EF
330
4E
100
AcDbEntity
 67
     1
  8
1
  6
CONTINUOUS
 62
    18
100
AcDbLine
 10
16.040701
 20
6.161532
 30
0.0
 11
16.034586
 21
6.160406
 31
0.0
  0
LINE
  5
3F0
330
4E
100
AcDbEntity
 67
     1
  8
1
  6
CONTINUOUS
 62
    18
100
AcDbLine
 10
16.034586
 20
6.160406
 30
0.0
 11
16.02643
 21
6.16011
 31
0.0
  0
LINE
  5
3F1
330
4E
100
AcDbEntity
 67
     1
  8
1
  6
CONTINUOUS
 62
    18
100
AcDbLine
 10
16.02643
 20
6.16011
 30
0.0
 11
16.019114
 21
6.160097
 31
0.0
  0
LINE
  5
3F2
330
4E
100
AcDbEntity
 67
     1
  8
1
  6
CONTINUOUS
 62
    18
100
AcDbLine
 10
16.288345
 20
6.160097
 30
0.0
 11
16.278502
 21
6.160143
 31
0.0
  0
LINE
  5
3F3
330
4E
100
AcDbEntity
 67
     1
  8
1
  6
CONTINUOUS
 62
    18
100
AcDbLine
 10
16.278502
 20
6.160143
 30
0.0
 11
16.269756
 21
6.160799
 31
0.0
  0
LINE
  5
3F4
330
4E
100
AcDbEntity
 67
     1
  8
1
  6
CONTINUOUS
 62
    18
100
AcDbLine
 10
16.269756
 20
6.160799
 30
0.0
 11
16.263449
 21
6.163188
 31
0.0
  0
LINE
  5
3F5
330
4E
100
AcDbEntity
 67
     1
  8
1
  6
CONTINUOUS
 62
    18
100
AcDbLine
 10
16.263449
 20
6.163188
 30
0.0
 11
16.260202
 21
6.167394
 31
0.0
  0
LINE
  5
3F6
330
4E
100
AcDbEntity
 67
     1
  8
1
  6
CONTINUOUS
 62
    18
100
AcDbLine
 10
16.260202
 20
6.167394
 30
0.0
 11
16.259661
 21
6.168883
 31
0.0
  0
LINE
  5
3F7
330
4E
100
AcDbEntity
 67
     1
  8
1
  6
CONTINUOUS
 62
    18
100
AcDbLine
 10
18.253729
 20
6.191813
 30
0.0
 11
18.258621
 21
6.191813
 31
0.0
  0
LINE
  5
3F8
330
4E
100
AcDbEntity
 67
     1
  8
1
  6
CONTINUOUS
 62
    18
100
AcDbLine
 10
18.258621
 20
6.191813
 30
0.0
 11
18.273176
 21
6.191813
 31
0.0
  0
LINE
  5
3F9
330
4E
100
AcDbEntity
 67
     1
  8
1
  6
CONTINUOUS
 62
    18
100
AcDbLine
 10
18.273176
 20
6.191813
 30
0.0
 11
18.297037
 21
6.191813
 31
0.0
  0
LINE
  5
3FA
330
4E
100
AcDbEntity
 67
     1
  8
1
  6
CONTINUOUS
 62
    18
100
AcDbLine
 10
18.297037
 20
6.191813
 30
0.0
 11
18.329622
 21
6.191813
 31
0.0
  0
LINE
  5
3FB
330
4E
100
AcDbEntity
 67
     1
  8
1
  6
CONTINUOUS
 62
    18
100
AcDbLine
 10
18.329622
 20
6.191813
 30
0.0
 11
18.370134
 21
6.191813
 31
0.0
  0
LINE
  5
3FC
330
4E
100
AcDbEntity
 67
     1
  8
1
  6
CONTINUOUS
 62
    18
100
AcDbLine
 10
18.370134
 20
6.191813
 30
0.0
 11
18.417583
 21
6.191813
 31
0.0
  0
LINE
  5
3FD
330
4E
100
AcDbEntity
 67
     1
  8
1
  6
CONTINUOUS
 62
    18
100
AcDbLine
 10
18.417583
 20
6.191813
 30
0.0
 11
18.470808
 21
6.191813
 31
0.0
  0
LINE
  5
3FE
330
4E
100
AcDbEntity
 67
     1
  8
1
  6
CONTINUOUS
 62
    18
100
AcDbLine
 10
18.470808
 20
6.191813
 30
0.0
 11
18.528505
 21
6.191813
 31
0.0
  0
LINE
  5
3FF
330
4E
100
AcDbEntity
 67
     1
  8
1
  6
CONTINUOUS
 62
    18
100
AcDbLine
 10
18.778954
 20
6.191813
 30
0.0
 11
18.836651
 21
6.191813
 31
0.0
  0
LINE
  5
400
330
4E
100
AcDbEntity
 67
     1
  8
1
  6
CONTINUOUS
 62
    18
100
AcDbLine
 10
18.836651
 20
6.191813
 30
0.0
 11
18.889875
 21
6.191813
 31
0.0
  0
LINE
  5
401
330
4E
100
AcDbEntity
 67
     1
  8
1
  6
CONTINUOUS
 62
    18
100
AcDbLine
 10
18.889875
 20
6.191813
 30
0.0
 11
18.937323
 21
6.191813
 31
0.0
  0
LINE
  5
402
330
4E
100
AcDbEntity
 67
     1
  8
1
  6
CONTINUOUS
 62
    18
100
AcDbLine
 10
18.937323
 20
6.191813
 30
0.0
 11
18.977835
 21
6.191813
 31
0.0
  0
LINE
  5
403
330
4E
100
AcDbEntity
 67
     1
  8
1
  6
CONTINUOUS
 62
    18
100
AcDbLine
 10
18.977835
 20
6.191813
 30
0.0
 11
19.010422
 21
6.191813
 31
0.0
  0
LINE
  5
404
330
4E
100
AcDbEntity
 67
     1
  8
1
  6
CONTINUOUS
 62
    18
100
AcDbLine
 10
19.010422
 20
6.191813
 30
0.0
 11
19.034283
 21
6.191813
 31
0.0
  0
LINE
  5
405
330
4E
100
AcDbEntity
 67
     1
  8
1
  6
CONTINUOUS
 62
    18
100
AcDbLine
 10
19.034283
 20
6.191813
 30
0.0
 11
19.048838
 21
6.191813
 31
0.0
  0
LINE
  5
406
330
4E
100
AcDbEntity
 67
     1
  8
1
  6
CONTINUOUS
 62
    18
100
AcDbLine
 10
19.048838
 20
6.191813
 30
0.0
 11
19.05373
 21
6.191813
 31
0.0
  0
LINE
  5
407
330
4E
100
AcDbEntity
 67
     1
  8
1
  6
CONTINUOUS
 62
    18
100
AcDbLine
 10
18.778954
 20
6.191813
 30
0.0
 11
18.7733
 21
6.191813
 31
0.0
  0
LINE
  5
408
330
4E
100
AcDbEntity
 67
     1
  8
1
  6
CONTINUOUS
 62
    18
100
AcDbLine
 10
18.7733
 20
6.191813
 30
0.0
 11
18.768288
 21
6.191813
 31
0.0
  0
LINE
  5
409
330
4E
100
AcDbEntity
 67
     1
  8
1
  6
CONTINUOUS
 62
    18
100
AcDbLine
 10
18.539171
 20
6.191813
 30
0.0
 11
18.534159
 21
6.191813
 31
0.0
  0
LINE
  5
40A
330
4E
100
AcDbEntity
 67
     1
  8
1
  6
CONTINUOUS
 62
    18
100
AcDbLine
 10
18.534159
 20
6.191813
 30
0.0
 11
18.528505
 21
6.191813
 31
0.0
  0
LINE
  5
40B
330
4E
100
AcDbEntity
 67
     1
  8
1
  6
CONTINUOUS
 62
    18
100
AcDbLine
 10
19.05373
 20
6.251812
 30
0.0
 11
19.048838
 21
6.251812
 31
0.0
  0
LINE
  5
40C
330
4E
100
AcDbEntity
 67
     1
  8
1
  6
CONTINUOUS
 62
    18
100
AcDbLine
 10
19.048838
 20
6.251812
 30
0.0
 11
19.034283
 21
6.251812
 31
0.0
  0
LINE
  5
40D
330
4E
100
AcDbEntity
 67
     1
  8
1
  6
CONTINUOUS
 62
    18
100
AcDbLine
 10
19.034283
 20
6.251812
 30
0.0
 11
19.010422
 21
6.251812
 31
0.0
  0
LINE
  5
40E
330
4E
100
AcDbEntity
 67
     1
  8
1
  6
CONTINUOUS
 62
    18
100
AcDbLine
 10
19.010422
 20
6.251812
 30
0.0
 11
18.977835
 21
6.251812
 31
0.0
  0
LINE
  5
40F
330
4E
100
AcDbEntity
 67
     1
  8
1
  6
CONTINUOUS
 62
    18
100
AcDbLine
 10
18.977835
 20
6.251812
 30
0.0
 11
18.937323
 21
6.251812
 31
0.0
  0
LINE
  5
410
330
4E
100
AcDbEntity
 67
     1
  8
1
  6
CONTINUOUS
 62
    18
100
AcDbLine
 10
18.937323
 20
6.251812
 30
0.0
 11
18.889875
 21
6.251812
 31
0.0
  0
LINE
  5
411
330
4E
100
AcDbEntity
 67
     1
  8
1
  6
CONTINUOUS
 62
    18
100
AcDbLine
 10
18.889875
 20
6.251812
 30
0.0
 11
18.836651
 21
6.251812
 31
0.0
  0
LINE
  5
412
330
4E
100
AcDbEntity
 67
     1
  8
1
  6
CONTINUOUS
 62
    18
100
AcDbLine
 10
18.836651
 20
6.251812
 30
0.0
 11
18.778954
 21
6.251812
 31
0.0
  0
LINE
  5
413
330
4E
100
AcDbEntity
 67
     1
  8
1
  6
CONTINUOUS
 62
    18
100
AcDbLine
 10
18.528505
 20
6.251812
 30
0.0
 11
18.470808
 21
6.251812
 31
0.0
  0
LINE
  5
414
330
4E
100
AcDbEntity
 67
     1
  8
1
  6
CONTINUOUS
 62
    18
100
AcDbLine
 10
18.470808
 20
6.251812
 30
0.0
 11
18.417583
 21
6.251812
 31
0.0
  0
LINE
  5
415
330
4E
100
AcDbEntity
 67
     1
  8
1
  6
CONTINUOUS
 62
    18
100
AcDbLine
 10
18.417583
 20
6.251812
 30
0.0
 11
18.370134
 21
6.251812
 31
0.0
  0
LINE
  5
416
330
4E
100
AcDbEntity
 67
     1
  8
1
  6
CONTINUOUS
 62
    18
100
AcDbLine
 10
18.370134
 20
6.251812
 30
0.0
 11
18.329622
 21
6.251812
 31
0.0
  0
LINE
  5
417
330
4E
100
AcDbEntity
 67
     1
  8
1
  6
CONTINUOUS
 62
    18
100
AcDbLine
 10
18.329622
 20
6.251812
 30
0.0
 11
18.297037
 21
6.251812
 31
0.0
  0
LINE
  5
418
330
4E
100
AcDbEntity
 67
     1
  8
1
  6
CONTINUOUS
 62
    18
100
AcDbLine
 10
18.297037
 20
6.251812
 30
0.0
 11
18.273176
 21
6.251812
 31
0.0
  0
LINE
  5
419
330
4E
100
AcDbEntity
 67
     1
  8
1
  6
CONTINUOUS
 62
    18
100
AcDbLine
 10
18.273176
 20
6.251812
 30
0.0
 11
18.258621
 21
6.251812
 31
0.0
  0
LINE
  5
41A
330
4E
100
AcDbEntity
 67
     1
  8
1
  6
CONTINUOUS
 62
    18
100
AcDbLine
 10
18.258621
 20
6.251812
 30
0.0
 11
18.253729
 21
6.251812
 31
0.0
  0
LINE
  5
41B
330
4E
100
AcDbEntity
 67
     1
  8
1
  6
CONTINUOUS
 62
    18
100
AcDbLine
 10
18.528505
 20
6.251812
 30
0.0
 11
18.534159
 21
6.251812
 31
0.0
  0
LINE
  5
41C
330
4E
100
AcDbEntity
 67
     1
  8
1
  6
CONTINUOUS
 62
    18
100
AcDbLine
 10
18.534159
 20
6.251812
 30
0.0
 11
18.539171
 21
6.251812
 31
0.0
  0
LINE
  5
41D
330
4E
100
AcDbEntity
 67
     1
  8
1
  6
CONTINUOUS
 62
    18
100
AcDbLine
 10
18.539171
 20
6.251812
 30
0.0
 11
18.768288
 21
6.251812
 31
0.0
  0
LINE
  5
41E
330
4E
100
AcDbEntity
 67
     1
  8
1
  6
CONTINUOUS
 62
    18
100
AcDbLine
 10
18.768288
 20
6.251812
 30
0.0
 11
18.7733
 21
6.251812
 31
0.0
  0
LINE
  5
41F
330
4E
100
AcDbEntity
 67
     1
  8
1
  6
CONTINUOUS
 62
    18
100
AcDbLine
 10
18.7733
 20
6.251812
 30
0.0
 11
18.778954
 21
6.251812
 31
0.0
  0
LINE
  5
420
330
4E
100
AcDbEntity
 67
     1
  8
1
  6
CONTINUOUS
 62
    18
100
AcDbLine
 10
18.528505
 20
6.191813
 30
0.0
 11
18.528505
 21
6.251812
 31
0.0
  0
LINE
  5
421
330
4E
100
AcDbEntity
 67
     1
  8
1
  6
CONTINUOUS
 62
    18
100
AcDbLine
 10
18.778954
 20
6.251812
 30
0.0
 11
18.778954
 21
6.191813
 31
0.0
  0
LINE
  5
422
330
4E
100
AcDbEntity
 67
     1
  8
1
  6
CONTINUOUS
 62
    18
100
AcDbLine
 10
18.549112
 20
6.249004
 30
0.0
 11
18.549112
 21
6.240008
 31
0.0
  0
LINE
  5
423
330
4E
100
AcDbEntity
 67
     1
  8
1
  6
CONTINUOUS
 62
    18
100
AcDbLine
 10
18.549112
 20
6.240008
 30
0.0
 11
18.549112
 21
6.225452
 31
0.0
  0
LINE
  5
424
330
4E
100
AcDbEntity
 67
     1
  8
1
  6
CONTINUOUS
 62
    18
100
AcDbLine
 10
18.758347
 20
6.249004
 30
0.0
 11
18.758347
 21
6.240008
 31
0.0
  0
LINE
  5
425
330
4E
100
AcDbEntity
 67
     1
  8
1
  6
CONTINUOUS
 62
    18
100
AcDbLine
 10
18.758347
 20
6.240008
 30
0.0
 11
18.758347
 21
6.225452
 31
0.0
  0
LINE
  5
426
330
4E
100
AcDbEntity
 67
     1
  8
1
  6
CONTINUOUS
 62
    18
100
AcDbLine
 10
18.539171
 20
6.251812
 30
0.0
 11
18.545282
 21
6.251488
 31
0.0
  0
LINE
  5
427
330
4E
100
AcDbEntity
 67
     1
  8
1
  6
CONTINUOUS
 62
    18
100
AcDbLine
 10
18.545282
 20
6.251488
 30
0.0
 11
18.548597
 21
6.250236
 31
0.0
  0
LINE
  5
428
330
4E
100
AcDbEntity
 67
     1
  8
1
  6
CONTINUOUS
 62
    18
100
AcDbLine
 10
18.548597
 20
6.250236
 30
0.0
 11
18.549112
 21
6.249004
 31
0.0
  0
LINE
  5
429
330
4E
100
AcDbEntity
 67
     1
  8
1
  6
CONTINUOUS
 62
    18
100
AcDbLine
 10
18.549112
 20
6.225452
 30
0.0
 11
18.758347
 21
6.225452
 31
0.0
  0
LINE
  5
42A
330
4E
100
AcDbEntity
 67
     1
  8
1
  6
CONTINUOUS
 62
    18
100
AcDbLine
 10
18.758347
 20
6.249004
 30
0.0
 11
18.759882
 21
6.250893
 31
0.0
  0
LINE
  5
42B
330
4E
100
AcDbEntity
 67
     1
  8
1
  6
CONTINUOUS
 62
    18
100
AcDbLine
 10
18.759882
 20
6.250893
 30
0.0
 11
18.764429
 21
6.251715
 31
0.0
  0
LINE
  5
42C
330
4E
100
AcDbEntity
 67
     1
  8
1
  6
CONTINUOUS
 62
    18
100
AcDbLine
 10
18.764429
 20
6.251715
 30
0.0
 11
18.768288
 21
6.251812
 31
0.0
  0
LINE
  5
42D
330
4E
100
AcDbEntity
 67
     1
  8
1
  6
CONTINUOUS
 62
    18
100
AcDbLine
 10
18.768288
 20
6.191813
 30
0.0
 11
18.763052
 21
6.19117
 31
0.0
  0
LINE
  5
42E
330
4E
100
AcDbEntity
 67
     1
  8
1
  6
CONTINUOUS
 62
    18
100
AcDbLine
 10
18.763052
 20
6.19117
 30
0.0
 11
18.759754
 21
6.188741
 31
0.0
  0
LINE
  5
42F
330
4E
100
AcDbEntity
 67
     1
  8
1
  6
CONTINUOUS
 62
    18
100
AcDbLine
 10
18.759754
 20
6.188741
 30
0.0
 11
18.758476
 21
6.184606
 31
0.0
  0
LINE
  5
430
330
4E
100
AcDbEntity
 67
     1
  8
1
  6
CONTINUOUS
 62
    18
100
AcDbLine
 10
18.758476
 20
6.184606
 30
0.0
 11
18.758366
 21
6.183026
 31
0.0
  0
LINE
  5
431
330
4E
100
AcDbEntity
 67
     1
  8
1
  6
CONTINUOUS
 62
    18
100
AcDbLine
 10
18.549093
 20
6.183026
 30
0.0
 11
18.548187
 21
6.187842
 31
0.0
  0
LINE
  5
432
330
4E
100
AcDbEntity
 67
     1
  8
1
  6
CONTINUOUS
 62
    18
100
AcDbLine
 10
18.548187
 20
6.187842
 30
0.0
 11
18.545462
 21
6.190736
 31
0.0
  0
LINE
  5
433
330
4E
100
AcDbEntity
 67
     1
  8
1
  6
CONTINUOUS
 62
    18
100
AcDbLine
 10
18.545462
 20
6.190736
 30
0.0
 11
18.541065
 21
6.191755
 31
0.0
  0
LINE
  5
434
330
4E
100
AcDbEntity
 67
     1
  8
1
  6
CONTINUOUS
 62
    18
100
AcDbLine
 10
18.541065
 20
6.191755
 30
0.0
 11
18.539171
 21
6.191813
 31
0.0
  0
LINE
  5
435
330
4E
100
AcDbEntity
 67
     1
  8
1
  6
CONTINUOUS
 62
    18
100
AcDbLine
 10
18.549112
 20
6.225452
 30
0.0
 11
18.549112
 21
6.17767
 31
0.0
  0
LINE
  5
436
330
4E
100
AcDbEntity
 67
     1
  8
1
  6
CONTINUOUS
 62
    18
100
AcDbLine
 10
18.758347
 20
6.225452
 30
0.0
 11
18.758347
 21
6.17767
 31
0.0
  0
LINE
  5
437
330
4E
100
AcDbEntity
 67
     1
  8
1
  6
CONTINUOUS
 62
    18
100
AcDbLine
 10
18.549112
 20
6.17767
 30
0.0
 11
18.547798
 21
6.168883
 31
0.0
  0
LINE
  5
438
330
4E
100
AcDbEntity
 67
     1
  8
1
  6
CONTINUOUS
 62
    18
100
AcDbLine
 10
18.547798
 20
6.168883
 30
0.0
 11
18.759661
 21
6.168883
 31
0.0
  0
LINE
  5
439
330
4E
100
AcDbEntity
 67
     1
  8
1
  6
CONTINUOUS
 62
    18
100
AcDbLine
 10
18.759661
 20
6.168883
 30
0.0
 11
18.758347
 21
6.17767
 31
0.0
  0
LINE
  5
43A
330
4E
100
AcDbEntity
 67
     1
  8
1
  6
CONTINUOUS
 62
    18
100
AcDbLine
 10
18.758366
 20
6.183026
 30
0.0
 11
18.758347
 21
6.181931
 31
0.0
  0
LINE
  5
43B
330
4E
100
AcDbEntity
 67
     1
  8
1
  6
CONTINUOUS
 62
    18
100
AcDbLine
 10
18.549112
 20
6.181931
 30
0.0
 11
18.549093
 21
6.183026
 31
0.0
  0
LINE
  5
43C
330
4E
100
AcDbEntity
 67
     1
  8
1
  6
CONTINUOUS
 62
    18
100
AcDbLine
 10
18.547798
 20
6.168883
 30
0.0
 11
18.545218
 21
6.164242
 31
0.0
  0
LINE
  5
43D
330
4E
100
AcDbEntity
 67
     1
  8
1
  6
CONTINUOUS
 62
    18
100
AcDbLine
 10
18.545218
 20
6.164242
 30
0.0
 11
18.540701
 21
6.161532
 31
0.0
  0
LINE
  5
43E
330
4E
100
AcDbEntity
 67
     1
  8
1
  6
CONTINUOUS
 62
    18
100
AcDbLine
 10
18.540701
 20
6.161532
 30
0.0
 11
18.534586
 21
6.160406
 31
0.0
  0
LINE
  5
43F
330
4E
100
AcDbEntity
 67
     1
  8
1
  6
CONTINUOUS
 62
    18
100
AcDbLine
 10
18.534586
 20
6.160406
 30
0.0
 11
18.52643
 21
6.16011
 31
0.0
  0
LINE
  5
440
330
4E
100
AcDbEntity
 67
     1
  8
1
  6
CONTINUOUS
 62
    18
100
AcDbLine
 10
18.52643
 20
6.16011
 30
0.0
 11
18.519114
 21
6.160097
 31
0.0
  0
LINE
  5
441
330
4E
100
AcDbEntity
 67
     1
  8
1
  6
CONTINUOUS
 62
    18
100
AcDbLine
 10
18.788345
 20
6.160097
 30
0.0
 11
18.778502
 21
6.160143
 31
0.0
  0
LINE
  5
442
330
4E
100
AcDbEntity
 67
     1
  8
1
  6
CONTINUOUS
 62
    18
100
AcDbLine
 10
18.778502
 20
6.160143
 30
0.0
 11
18.769756
 21
6.160799
 31
0.0
  0
LINE
  5
443
330
4E
100
AcDbEntity
 67
     1
  8
1
  6
CONTINUOUS
 62
    18
100
AcDbLine
 10
18.769756
 20
6.160799
 30
0.0
 11
18.763449
 21
6.163188
 31
0.0
  0
LINE
  5
444
330
4E
100
AcDbEntity
 67
     1
  8
1
  6
CONTINUOUS
 62
    18
100
AcDbLine
 10
18.763449
 20
6.163188
 30
0.0
 11
18.760202
 21
6.167394
 31
0.0
  0
LINE
  5
445
330
4E
100
AcDbEntity
 67
     1
  8
1
  6
CONTINUOUS
 62
    18
100
AcDbLine
 10
18.760202
 20
6.167394
 30
0.0
 11
18.759661
 21
6.168883
 31
0.0
  0
LINE
  5
446
330
4E
100
AcDbEntity
 67
     1
  8
1
  6
CONTINUOUS
 62
    18
100
AcDbLine
 10
2.303729
 20
6.160097
 30
0.0
 11
2.303729
 21
6.155858
 31
0.0
  0
LINE
  5
447
330
4E
100
AcDbEntity
 67
     1
  8
1
  6
CONTINUOUS
 62
    18
100
AcDbLine
 10
2.303729
 20
6.155858
 30
0.0
 11
2.303729
 21
6.143207
 31
0.0
  0
LINE
  5
448
330
4E
100
AcDbEntity
 67
     1
  8
1
  6
CONTINUOUS
 62
    18
100
AcDbLine
 10
2.303729
 20
6.143207
 30
0.0
 11
2.303729
 21
6.122333
 31
0.0
  0
LINE
  5
449
330
4E
100
AcDbEntity
 67
     1
  8
1
  6
CONTINUOUS
 62
    18
100
AcDbLine
 10
2.303729
 20
6.122333
 30
0.0
 11
2.303729
 21
6.093554
 31
0.0
  0
LINE
  5
44A
330
4E
100
AcDbEntity
 67
     1
  8
1
  6
CONTINUOUS
 62
    18
100
AcDbLine
 10
2.303729
 20
6.093554
 30
0.0
 11
2.303729
 21
6.057305
 31
0.0
  0
LINE
  5
44B
330
4E
100
AcDbEntity
 67
     1
  8
1
  6
CONTINUOUS
 62
    18
100
AcDbLine
 10
2.303729
 20
6.057305
 30
0.0
 11
2.303729
 21
6.014135
 31
0.0
  0
LINE
  5
44C
330
4E
100
AcDbEntity
 67
     1
  8
1
  6
CONTINUOUS
 62
    18
100
AcDbLine
 10
2.303729
 20
6.014135
 30
0.0
 11
2.303729
 21
5.964698
 31
0.0
  0
LINE
  5
44D
330
4E
100
AcDbEntity
 67
     1
  8
1
  6
CONTINUOUS
 62
    18
100
AcDbLine
 10
2.303729
 20
5.964698
 30
0.0
 11
2.303729
 21
5.909741
 31
0.0
  0
LINE
  5
44E
330
4E
100
AcDbEntity
 67
     1
  8
1
  6
CONTINUOUS
 62
    18
100
AcDbLine
 10
2.303729
 20
5.909741
 30
0.0
 11
2.303729
 21
5.850097
 31
0.0
  0
LINE
  5
44F
330
4E
100
AcDbEntity
 67
     1
  8
1
  6
CONTINUOUS
 62
    18
100
AcDbLine
 10
19.503729
 20
6.160097
 30
0.0
 11
19.503729
 21
6.155858
 31
0.0
  0
LINE
  5
450
330
4E
100
AcDbEntity
 67
     1
  8
1
  6
CONTINUOUS
 62
    18
100
AcDbLine
 10
19.503729
 20
6.155858
 30
0.0
 11
19.503729
 21
6.143207
 31
0.0
  0
LINE
  5
451
330
4E
100
AcDbEntity
 67
     1
  8
1
  6
CONTINUOUS
 62
    18
100
AcDbLine
 10
19.503729
 20
6.143207
 30
0.0
 11
19.503729
 21
6.122333
 31
0.0
  0
LINE
  5
452
330
4E
100
AcDbEntity
 67
     1
  8
1
  6
CONTINUOUS
 62
    18
100
AcDbLine
 10
19.503729
 20
6.122333
 30
0.0
 11
19.503729
 21
6.093554
 31
0.0
  0
LINE
  5
453
330
4E
100
AcDbEntity
 67
     1
  8
1
  6
CONTINUOUS
 62
    18
100
AcDbLine
 10
19.503729
 20
6.093554
 30
0.0
 11
19.503729
 21
6.057305
 31
0.0
  0
LINE
  5
454
330
4E
100
AcDbEntity
 67
     1
  8
1
  6
CONTINUOUS
 62
    18
100
AcDbLine
 10
19.503729
 20
6.057305
 30
0.0
 11
19.503729
 21
6.014135
 31
0.0
  0
LINE
  5
455
330
4E
100
AcDbEntity
 67
     1
  8
1
  6
CONTINUOUS
 62
    18
100
AcDbLine
 10
19.503729
 20
6.014135
 30
0.0
 11
19.503729
 21
5.964698
 31
0.0
  0
LINE
  5
456
330
4E
100
AcDbEntity
 67
     1
  8
1
  6
CONTINUOUS
 62
    18
100
AcDbLine
 10
19.503729
 20
5.964698
 30
0.0
 11
19.503729
 21
5.909741
 31
0.0
  0
LINE
  5
457
330
4E
100
AcDbEntity
 67
     1
  8
1
  6
CONTINUOUS
 62
    18
100
AcDbLine
 10
19.503729
 20
5.909741
 30
0.0
 11
19.503729
 21
5.850097
 31
0.0
  0
LINE
  5
458
330
4E
100
AcDbEntity
 67
     1
  8
1
  6
CONTINUOUS
 62
    18
100
AcDbLine
 10
2.553729
 20
5.600097
 30
0.0
 11
19.253729
 21
5.600097
 31
0.0
  0
LINE
  5
459
330
4E
100
AcDbEntity
 67
     1
  8
1
  6
CONTINUOUS
 62
    18
100
AcDbLine
 10
19.253729
 20
5.600097
 30
0.0
 11
19.295034
 21
5.603532
 31
0.0
  0
LINE
  5
45A
330
4E
100
AcDbEntity
 67
     1
  8
1
  6
CONTINUOUS
 62
    18
100
AcDbLine
 10
19.295034
 20
5.603532
 30
0.0
 11
19.336338
 21
5.61414
 31
0.0
  0
LINE
  5
45B
330
4E
100
AcDbEntity
 67
     1
  8
1
  6
CONTINUOUS
 62
    18
100
AcDbLine
 10
19.336338
 20
5.61414
 30
0.0
 11
19.374184
 21
5.631028
 31
0.0
  0
LINE
  5
45C
330
4E
100
AcDbEntity
 67
     1
  8
1
  6
CONTINUOUS
 62
    18
100
AcDbLine
 10
19.374184
 20
5.631028
 30
0.0
 11
19.409651
 21
5.654678
 31
0.0
  0
LINE
  5
45D
330
4E
100
AcDbEntity
 67
     1
  8
1
  6
CONTINUOUS
 62
    18
100
AcDbLine
 10
19.409651
 20
5.654678
 30
0.0
 11
19.439438
 21
5.682728
 31
0.0
  0
LINE
  5
45E
330
4E
100
AcDbEntity
 67
     1
  8
1
  6
CONTINUOUS
 62
    18
100
AcDbLine
 10
19.439438
 20
5.682728
 30
0.0
 11
19.464783
 21
5.716096
 31
0.0
  0
LINE
  5
45F
330
4E
100
AcDbEntity
 67
     1
  8
1
  6
CONTINUOUS
 62
    18
100
AcDbLine
 10
19.464783
 20
5.716096
 30
0.0
 11
19.482988
 21
5.750398
 31
0.0
  0
LINE
  5
460
330
4E
100
AcDbEntity
 67
     1
  8
1
  6
CONTINUOUS
 62
    18
100
AcDbLine
 10
19.482988
 20
5.750398
 30
0.0
 11
19.495752
 21
5.78745
 31
0.0
  0
LINE
  5
461
330
4E
100
AcDbEntity
 67
     1
  8
1
  6
CONTINUOUS
 62
    18
100
AcDbLine
 10
19.495752
 20
5.78745
 30
0.0
 11
19.501745
 21
5.81867
 31
0.0
  0
LINE
  5
462
330
4E
100
AcDbEntity
 67
     1
  8
1
  6
CONTINUOUS
 62
    18
100
AcDbLine
 10
19.501745
 20
5.81867
 30
0.0
 11
19.503729
 21
5.850097
 31
0.0
  0
LINE
  5
463
330
4E
100
AcDbEntity
 67
     1
  8
1
  6
CONTINUOUS
 62
    18
100
AcDbLine
 10
2.303729
 20
5.850097
 30
0.0
 11
2.306553
 21
5.81263
 31
0.0
  0
LINE
  5
464
330
4E
100
AcDbEntity
 67
     1
  8
1
  6
CONTINUOUS
 62
    18
100
AcDbLine
 10
2.306553
 20
5.81263
 30
0.0
 11
2.315655
 21
5.773802
 31
0.0
  0
LINE
  5
465
330
4E
100
AcDbEntity
 67
     1
  8
1
  6
CONTINUOUS
 62
    18
100
AcDbLine
 10
2.315655
 20
5.773802
 30
0.0
 11
2.330813
 21
5.736922
 31
0.0
  0
LINE
  5
466
330
4E
100
AcDbEntity
 67
     1
  8
1
  6
CONTINUOUS
 62
    18
100
AcDbLine
 10
2.330813
 20
5.736922
 30
0.0
 11
2.352835
 21
5.701296
 31
0.0
  0
LINE
  5
467
330
4E
100
AcDbEntity
 67
     1
  8
1
  6
CONTINUOUS
 62
    18
100
AcDbLine
 10
2.352835
 20
5.701296
 30
0.0
 11
2.378474
 21
5.671812
 31
0.0
  0
LINE
  5
468
330
4E
100
AcDbEntity
 67
     1
  8
1
  6
CONTINUOUS
 62
    18
100
AcDbLine
 10
2.378474
 20
5.671812
 30
0.0
 11
2.409447
 21
5.645933
 31
0.0
  0
LINE
  5
469
330
4E
100
AcDbEntity
 67
     1
  8
1
  6
CONTINUOUS
 62
    18
100
AcDbLine
 10
2.409447
 20
5.645933
 30
0.0
 11
2.443811
 21
5.625557
 31
0.0
  0
LINE
  5
46A
330
4E
100
AcDbEntity
 67
     1
  8
1
  6
CONTINUOUS
 62
    18
100
AcDbLine
 10
2.443811
 20
5.625557
 30
0.0
 11
2.482047
 21
5.610594
 31
0.0
  0
LINE
  5
46B
330
4E
100
AcDbEntity
 67
     1
  8
1
  6
CONTINUOUS
 62
    18
100
AcDbLine
 10
2.482047
 20
5.610594
 30
0.0
 11
2.517123
 21
5.602791
 31
0.0
  0
LINE
  5
46C
330
4E
100
AcDbEntity
 67
     1
  8
1
  6
CONTINUOUS
 62
    18
100
AcDbLine
 10
2.517123
 20
5.602791
 30
0.0
 11
2.553729
 21
5.600097
 31
0.0
  0
ARC
  5
46D
330
4E
100
AcDbEntity
 67
     1
  8
1
  6
CONTINUOUS
 62
    18
100
AcDbCircle
 10
15.651229
 20
10.764608
 30
0.0
 40
0.0599999986588955
100
AcDbArc
 50
180.0
 51
270.0
  0
ARC
  5
46E
330
4E
100
AcDbEntity
 67
     1
  8
1
  6
CONTINUOUS
 62
    18
100
AcDbCircle
 10
15.651229
 20
11.699605
 30
0.0
 40
0.0599999986588955
100
AcDbArc
 50
90.0
 51
180.0
  0
ARC
  5
46F
330
4E
100
AcDbEntity
 67
     1
  8
1
  6
CONTINUOUS
 62
    18
100
AcDbCircle
 10
16.656229
 20
11.699605
 30
0.0
 40
0.0599999986588955
100
AcDbArc
 50
0.0
 51
90.0
  0
ARC
  5
470
330
4E
100
AcDbEntity
 67
     1
  8
1
  6
CONTINUOUS
 62
    18
100
AcDbCircle
 10
16.656229
 20
10.764608
 30
0.0
 40
0.0599999986588955
100
AcDbArc
 50
270.0
 51
0.0
  0
ARC
  5
471
330
4E
100
AcDbEntity
 67
     1
  8
1
  6
CONTINUOUS
 62
    18
100
AcDbCircle
 10
13.151229
 20
10.764608
 30
0.0
 40
0.0599999986588955
100
AcDbArc
 50
180.0
 51
270.0
  0
ARC
  5
472
330
4E
100
AcDbEntity
 67
     1
  8
1
  6
CONTINUOUS
 62
    18
100
AcDbCircle
 10
13.151229
 20
11.699605
 30
0.0
 40
0.0599999986588955
100
AcDbArc
 50
90.0
 51
180.0
  0
ARC
  5
473
330
4E
100
AcDbEntity
 67
     1
  8
1
  6
CONTINUOUS
 62
    18
100
AcDbCircle
 10
14.156229
 20
11.699605
 30
0.0
 40
0.0599999986588955
100
AcDbArc
 50
0.0
 51
90.0
  0
ARC
  5
474
330
4E
100
AcDbEntity
 67
     1
  8
1
  6
CONTINUOUS
 62
    18
100
AcDbCircle
 10
14.156229
 20
10.764608
 30
0.0
 40
0.0599999986588955
100
AcDbArc
 50
270.0
 51
0.0
  0
ARC
  5
475
330
4E
100
AcDbEntity
 67
     1
  8
1
  6
CONTINUOUS
 62
    18
100
AcDbCircle
 10
18.15123
 20
10.764608
 30
0.0
 40
0.0599999986588955
100
AcDbArc
 50
180.0
 51
270.0
  0
ARC
  5
476
330
4E
100
AcDbEntity
 67
     1
  8
1
  6
CONTINUOUS
 62
    18
100
AcDbCircle
 10
18.15123
 20
11.699605
 30
0.0
 40
0.0599999986588955
100
AcDbArc
 50
90.0
 51
180.0
  0
ARC
  5
477
330
4E
100
AcDbEntity
 67
     1
  8
1
  6
CONTINUOUS
 62
    18
100
AcDbCircle
 10
19.156229
 20
11.699605
 30
0.0
 40
0.0599999986588955
100
AcDbArc
 50
0.0
 51
90.0
  0
ARC
  5
478
330
4E
100
AcDbEntity
 67
     1
  8
1
  6
CONTINUOUS
 62
    18
100
AcDbCircle
 10
19.156229
 20
10.764608
 30
0.0
 40
0.0599999986588955
100
AcDbArc
 50
270.0
 51
0.0
  0
ARC
  5
479
330
4E
100
AcDbEntity
 67
     1
  8
1
  6
CONTINUOUS
 62
    18
100
AcDbCircle
 10
7.651229
 20
10.764608
 30
0.0
 40
0.0599999986588955
100
AcDbArc
 50
180.0
 51
270.0
  0
ARC
  5
47A
330
4E
100
AcDbEntity
 67
     1
  8
1
  6
CONTINUOUS
 62
    18
100
AcDbCircle
 10
7.651229
 20
11.699605
 30
0.0
 40
0.0599999986588955
100
AcDbArc
 50
90.0
 51
180.0
  0
ARC
  5
47B
330
4E
100
AcDbEntity
 67
     1
  8
1
  6
CONTINUOUS
 62
    18
100
AcDbCircle
 10
8.656229
 20
11.699605
 30
0.0
 40
0.0599999986588955
100
AcDbArc
 50
0.0
 51
90.0
  0
ARC
  5
47C
330
4E
100
AcDbEntity
 67
     1
  8
1
  6
CONTINUOUS
 62
    18
100
AcDbCircle
 10
8.656229
 20
10.764608
 30
0.0
 40
0.0599999986588955
100
AcDbArc
 50
270.0
 51
0.0
  0
ARC
  5
47D
330
4E
100
AcDbEntity
 67
     1
  8
1
  6
CONTINUOUS
 62
    18
100
AcDbCircle
 10
5.151229
 20
10.764608
 30
0.0
 40
0.0599999986588955
100
AcDbArc
 50
180.0
 51
270.0
  0
ARC
  5
47E
330
4E
100
AcDbEntity
 67
     1
  8
1
  6
CONTINUOUS
 62
    18
100
AcDbCircle
 10
5.151229
 20
11.699605
 30
0.0
 40
0.0599999986588955
100
AcDbArc
 50
90.0
 51
180.0
  0
ARC
  5
47F
330
4E
100
AcDbEntity
 67
     1
  8
1
  6
CONTINUOUS
 62
    18
100
AcDbCircle
 10
6.156229
 20
11.699605
 30
0.0
 40
0.0599999986588955
100
AcDbArc
 50
0.0
 51
90.0
  0
ARC
  5
480
330
4E
100
AcDbEntity
 67
     1
  8
1
  6
CONTINUOUS
 62
    18
100
AcDbCircle
 10
6.156229
 20
10.764608
 30
0.0
 40
0.0599999986588955
100
AcDbArc
 50
270.0
 51
0.0
  0
ARC
  5
481
330
4E
100
AcDbEntity
 67
     1
  8
1
  6
CONTINUOUS
 62
    18
100
AcDbCircle
 10
3.656229
 20
10.764608
 30
0.0
 40
0.0599999986588955
100
AcDbArc
 50
270.0
 51
0.0
  0
ARC
  5
482
330
4E
100
AcDbEntity
 67
     1
  8
1
  6
CONTINUOUS
 62
    18
100
AcDbCircle
 10
2.651229
 20
10.764608
 30
0.0
 40
0.0599999986588955
100
AcDbArc
 50
180.0
 51
270.0
  0
ARC
  5
483
330
4E
100
AcDbEntity
 67
     1
  8
1
  6
CONTINUOUS
 62
    18
100
AcDbCircle
 10
2.651229
 20
11.699605
 30
0.0
 40
0.0599999986588955
100
AcDbArc
 50
90.0
 51
180.0
  0
ARC
  5
484
330
4E
100
AcDbEntity
 67
     1
  8
1
  6
CONTINUOUS
 62
    18
100
AcDbCircle
 10
3.656229
 20
11.699605
 30
0.0
 40
0.0599999986588955
100
AcDbArc
 50
0.0
 51
90.0
  0
CIRCLE
  5
485
330
4E
100
AcDbEntity
 67
     1
  8
1
  6
CONTINUOUS
 62
    18
100
AcDbCircle
 10
3.153729
 20
11.232106
 30
0.0
 40
0.0935000032186508
  0
ARC
  5
486
330
4E
100
AcDbEntity
 67
     1
  8
1
  6
CONTINUOUS
 62
    18
100
AcDbCircle
 10
3.153729
 20
11.232106
 30
0.0
 40
0.4000000059604645
100
AcDbArc
 50
288.24382
 51
71.75618
  0
ARC
  5
487
330
4E
100
AcDbEntity
 67
     1
  8
1
  6
CONTINUOUS
 62
    18
100
AcDbCircle
 10
3.288346
 20
11.640491
 30
0.0
 40
0.0299999993294477
100
AcDbArc
 50
228.039551
 51
251.756181
  0
ARC
  5
488
330
4E
100
AcDbEntity
 67
     1
  8
1
  6
CONTINUOUS
 62
    18
100
AcDbCircle
 10
3.019113
 20
11.640491
 30
0.0
 40
0.0299999993294477
100
AcDbArc
 50
288.243819
 51
311.960449
  0
ARC
  5
489
330
4E
100
AcDbEntity
 67
     1
  8
1
  6
CONTINUOUS
 62
    18
100
AcDbCircle
 10
3.153729
 20
11.232106
 30
0.0
 40
0.4000000059604645
100
AcDbArc
 50
108.24382
 51
251.75618
  0
ARC
  5
48A
330
4E
100
AcDbEntity
 67
     1
  8
1
  6
CONTINUOUS
 62
    18
100
AcDbCircle
 10
3.019113
 20
10.823721
 30
0.0
 40
0.0299999993294477
100
AcDbArc
 50
48.039551
 51
71.756181
  0
ARC
  5
48B
330
4E
100
AcDbEntity
 67
     1
  8
1
  6
CONTINUOUS
 62
    18
100
AcDbCircle
 10
3.288346
 20
10.823721
 30
0.0
 40
0.0299999993294477
100
AcDbArc
 50
108.243819
 51
131.960449
  0
CIRCLE
  5
48C
330
4E
100
AcDbEntity
 67
     1
  8
1
  6
CONTINUOUS
 62
    18
100
AcDbCircle
 10
5.653729
 20
11.232106
 30
0.0
 40
0.0935000032186508
  0
ARC
  5
48D
330
4E
100
AcDbEntity
 67
     1
  8
1
  6
CONTINUOUS
 62
    18
100
AcDbCircle
 10
5.653729
 20
11.232106
 30
0.0
 40
0.4000000059604645
100
AcDbArc
 50
288.24382
 51
71.75618
  0
ARC
  5
48E
330
4E
100
AcDbEntity
 67
     1
  8
1
  6
CONTINUOUS
 62
    18
100
AcDbCircle
 10
5.788346
 20
11.640491
 30
0.0
 40
0.0299999993294477
100
AcDbArc
 50
228.039551
 51
251.756181
  0
ARC
  5
48F
330
4E
100
AcDbEntity
 67
     1
  8
1
  6
CONTINUOUS
 62
    18
100
AcDbCircle
 10
5.519113
 20
11.640491
 30
0.0
 40
0.0299999993294477
100
AcDbArc
 50
288.243819
 51
311.960449
  0
ARC
  5
490
330
4E
100
AcDbEntity
 67
     1
  8
1
  6
CONTINUOUS
 62
    18
100
AcDbCircle
 10
5.653729
 20
11.232106
 30
0.0
 40
0.4000000059604645
100
AcDbArc
 50
108.24382
 51
251.75618
  0
ARC
  5
491
330
4E
100
AcDbEntity
 67
     1
  8
1
  6
CONTINUOUS
 62
    18
100
AcDbCircle
 10
5.519113
 20
10.823721
 30
0.0
 40
0.0299999993294477
100
AcDbArc
 50
48.039551
 51
71.756181
  0
ARC
  5
492
330
4E
100
AcDbEntity
 67
     1
  8
1
  6
CONTINUOUS
 62
    18
100
AcDbCircle
 10
5.788346
 20
10.823721
 30
0.0
 40
0.0299999993294477
100
AcDbArc
 50
108.243819
 51
131.960449
  0
CIRCLE
  5
493
330
4E
100
AcDbEntity
 67
     1
  8
1
  6
CONTINUOUS
 62
    18
100
AcDbCircle
 10
8.153729
 20
11.232106
 30
0.0
 40
0.0935000032186508
  0
ARC
  5
494
330
4E
100
AcDbEntity
 67
     1
  8
1
  6
CONTINUOUS
 62
    18
100
AcDbCircle
 10
8.153729
 20
11.232106
 30
0.0
 40
0.4000000059604645
100
AcDbArc
 50
288.24382
 51
71.75618
  0
ARC
  5
495
330
4E
100
AcDbEntity
 67
     1
  8
1
  6
CONTINUOUS
 62
    18
100
AcDbCircle
 10
8.288345
 20
11.640491
 30
0.0
 40
0.0299999993294477
100
AcDbArc
 50
228.039551
 51
251.756181
  0
ARC
  5
496
330
4E
100
AcDbEntity
 67
     1
  8
1
  6
CONTINUOUS
 62
    18
100
AcDbCircle
 10
8.019113
 20
11.640491
 30
0.0
 40
0.0299999993294477
100
AcDbArc
 50
288.243819
 51
311.960449
  0
ARC
  5
497
330
4E
100
AcDbEntity
 67
     1
  8
1
  6
CONTINUOUS
 62
    18
100
AcDbCircle
 10
8.153729
 20
11.232106
 30
0.0
 40
0.4000000059604645
100
AcDbArc
 50
108.24382
 51
251.75618
  0
ARC
  5
498
330
4E
100
AcDbEntity
 67
     1
  8
1
  6
CONTINUOUS
 62
    18
100
AcDbCircle
 10
8.019113
 20
10.823721
 30
0.0
 40
0.0299999993294477
100
AcDbArc
 50
48.039551
 51
71.756181
  0
ARC
  5
499
330
4E
100
AcDbEntity
 67
     1
  8
1
  6
CONTINUOUS
 62
    18
100
AcDbCircle
 10
8.288345
 20
10.823721
 30
0.0
 40
0.0299999993294477
100
AcDbArc
 50
108.243819
 51
131.960449
  0
CIRCLE
  5
49A
330
4E
100
AcDbEntity
 67
     1
  8
1
  6
CONTINUOUS
 62
    18
100
AcDbCircle
 10
13.653729
 20
11.232106
 30
0.0
 40
0.0935000032186508
  0
ARC
  5
49B
330
4E
100
AcDbEntity
 67
     1
  8
1
  6
CONTINUOUS
 62
    18
100
AcDbCircle
 10
13.653729
 20
11.232106
 30
0.0
 40
0.4000000059604645
100
AcDbArc
 50
288.24382
 51
71.75618
  0
ARC
  5
49C
330
4E
100
AcDbEntity
 67
     1
  8
1
  6
CONTINUOUS
 62
    18
100
AcDbCircle
 10
13.788345
 20
11.640491
 30
0.0
 40
0.0299999993294477
100
AcDbArc
 50
228.039551
 51
251.756181
  0
ARC
  5
49D
330
4E
100
AcDbEntity
 67
     1
  8
1
  6
CONTINUOUS
 62
    18
100
AcDbCircle
 10
13.519113
 20
11.640491
 30
0.0
 40
0.0299999993294477
100
AcDbArc
 50
288.243819
 51
311.960449
  0
ARC
  5
49E
330
4E
100
AcDbEntity
 67
     1
  8
1
  6
CONTINUOUS
 62
    18
100
AcDbCircle
 10
13.653729
 20
11.232106
 30
0.0
 40
0.4000000059604645
100
AcDbArc
 50
108.24382
 51
251.75618
  0
ARC
  5
49F
330
4E
100
AcDbEntity
 67
     1
  8
1
  6
CONTINUOUS
 62
    18
100
AcDbCircle
 10
13.519113
 20
10.823721
 30
0.0
 40
0.0299999993294477
100
AcDbArc
 50
48.039551
 51
71.756181
  0
ARC
  5
4A0
330
4E
100
AcDbEntity
 67
     1
  8
1
  6
CONTINUOUS
 62
    18
100
AcDbCircle
 10
13.788345
 20
10.823721
 30
0.0
 40
0.0299999993294477
100
AcDbArc
 50
108.243819
 51
131.960449
  0
CIRCLE
  5
4A1
330
4E
100
AcDbEntity
 67
     1
  8
1
  6
CONTINUOUS
 62
    18
100
AcDbCircle
 10
16.153728
 20
11.232106
 30
0.0
 40
0.0935000032186508
  0
ARC
  5
4A2
330
4E
100
AcDbEntity
 67
     1
  8
1
  6
CONTINUOUS
 62
    18
100
AcDbCircle
 10
16.153728
 20
11.232106
 30
0.0
 40
0.4000000059604645
100
AcDbArc
 50
288.24382
 51
71.75618
  0
ARC
  5
4A3
330
4E
100
AcDbEntity
 67
     1
  8
1
  6
CONTINUOUS
 62
    18
100
AcDbCircle
 10
16.288345
 20
11.640491
 30
0.0
 40
0.0299999993294477
100
AcDbArc
 50
228.039551
 51
251.756181
  0
ARC
  5
4A4
330
4E
100
AcDbEntity
 67
     1
  8
1
  6
CONTINUOUS
 62
    18
100
AcDbCircle
 10
16.019114
 20
11.640491
 30
0.0
 40
0.0299999993294477
100
AcDbArc
 50
288.243819
 51
311.960449
  0
ARC
  5
4A5
330
4E
100
AcDbEntity
 67
     1
  8
1
  6
CONTINUOUS
 62
    18
100
AcDbCircle
 10
16.153728
 20
11.232106
 30
0.0
 40
0.4000000059604645
100
AcDbArc
 50
108.24382
 51
251.75618
  0
ARC
  5
4A6
330
4E
100
AcDbEntity
 67
     1
  8
1
  6
CONTINUOUS
 62
    18
100
AcDbCircle
 10
16.019114
 20
10.823721
 30
0.0
 40
0.0299999993294477
100
AcDbArc
 50
48.039551
 51
71.756181
  0
ARC
  5
4A7
330
4E
100
AcDbEntity
 67
     1
  8
1
  6
CONTINUOUS
 62
    18
100
AcDbCircle
 10
16.288345
 20
10.823721
 30
0.0
 40
0.0299999993294477
100
AcDbArc
 50
108.243819
 51
131.960449
  0
CIRCLE
  5
4A8
330
4E
100
AcDbEntity
 67
     1
  8
1
  6
CONTINUOUS
 62
    18
100
AcDbCircle
 10
18.653728
 20
11.232106
 30
0.0
 40
0.0935000032186508
  0
ARC
  5
4A9
330
4E
100
AcDbEntity
 67
     1
  8
1
  6
CONTINUOUS
 62
    18
100
AcDbCircle
 10
18.653728
 20
11.232106
 30
0.0
 40
0.4000000059604645
100
AcDbArc
 50
288.24382
 51
71.75618
  0
ARC
  5
4AA
330
4E
100
AcDbEntity
 67
     1
  8
1
  6
CONTINUOUS
 62
    18
100
AcDbCircle
 10
18.788345
 20
11.640491
 30
0.0
 40
0.0299999993294477
100
AcDbArc
 50
228.039551
 51
251.756181
  0
ARC
  5
4AB
330
4E
100
AcDbEntity
 67
     1
  8
1
  6
CONTINUOUS
 62
    18
100
AcDbCircle
 10
18.519114
 20
11.640491
 30
0.0
 40
0.0299999993294477
100
AcDbArc
 50
288.243819
 51
311.960449
  0
ARC
  5
4AC
330
4E
100
AcDbEntity
 67
     1
  8
1
  6
CONTINUOUS
 62
    18
100
AcDbCircle
 10
18.653728
 20
11.232106
 30
0.0
 40
0.4000000059604645
100
AcDbArc
 50
108.24382
 51
251.75618
  0
ARC
  5
4AD
330
4E
100
AcDbEntity
 67
     1
  8
1
  6
CONTINUOUS
 62
    18
100
AcDbCircle
 10
18.519114
 20
10.823721
 30
0.0
 40
0.0299999993294477
100
AcDbArc
 50
48.039551
 51
71.756181
  0
ARC
  5
4AE
330
4E
100
AcDbEntity
 67
     1
  8
1
  6
CONTINUOUS
 62
    18
100
AcDbCircle
 10
18.788345
 20
10.823721
 30
0.0
 40
0.0299999993294477
100
AcDbArc
 50
108.243819
 51
131.960449
  0
ARC
  5
4AF
330
4E
100
AcDbEntity
 67
     1
  8
1
  6
CONTINUOUS
 62
    18
100
AcDbCircle
 10
20.343729
 20
6.610096
 30
0.0
 40
0.0599999986588955
100
AcDbArc
 50
0.0
 51
90.0
  0
ARC
  5
4B0
330
4E
100
AcDbEntity
 67
     1
  8
1
  6
CONTINUOUS
 62
    18
100
AcDbCircle
 10
19.71373
 20
6.610096
 30
0.0
 40
0.0599999986588955
100
AcDbArc
 50
90.0
 51
180.0
  0
ARC
  5
4B1
330
4E
100
AcDbEntity
 67
     1
  8
1
  6
CONTINUOUS
 62
    18
100
AcDbCircle
 10
19.593729
 20
6.080097
 30
0.0
 40
0.0599999986588955
100
AcDbArc
 50
270.0
 51
0.0
  0
ARC
  5
4B2
330
4E
100
AcDbEntity
 67
     1
  8
1
  6
CONTINUOUS
 62
    18
100
AcDbCircle
 10
19.563728
 20
6.080097
 30
0.0
 40
0.0599999986588955
100
AcDbArc
 50
189.594068
 51
270.0
  0
ARC
  5
4B3
330
4E
100
AcDbEntity
 67
     1
  8
1
  6
CONTINUOUS
 62
    18
100
AcDbCircle
 10
2.243729
 20
6.080097
 30
0.0
 40
0.0599999986588955
100
AcDbArc
 50
270.0
 51
350.405932
  0
ARC
  5
4B4
330
4E
100
AcDbEntity
 67
     1
  8
1
  6
CONTINUOUS
 62
    18
100
AcDbCircle
 10
2.213729
 20
6.080097
 30
0.0
 40
0.0599999986588955
100
AcDbArc
 50
180.0
 51
270.0
  0
ARC
  5
4B5
330
4E
100
AcDbEntity
 67
     1
  8
1
  6
CONTINUOUS
 62
    18
100
AcDbCircle
 10
2.093729
 20
6.610096
 30
0.0
 40
0.0599999986588955
100
AcDbArc
 50
0.0
 51
90.0
  0
ARC
  5
4B6
330
4E
100
AcDbEntity
 67
     1
  8
1
  6
CONTINUOUS
 62
    18
100
AcDbCircle
 10
1.463729
 20
6.610096
 30
0.0
 40
0.0599999986588955
100
AcDbArc
 50
90.0
 51
180.0
  0
ARC
  5
4B7
330
4E
100
AcDbEntity
 67
     1
  8
1
  6
CONTINUOUS
 62
    18
100
AcDbCircle
 10
1.463729
 20
5.480097
 30
0.0
 40
0.0599999986588955
100
AcDbArc
 50
180.0
 51
270.0
  0
ARC
  5
4B8
330
4E
100
AcDbEntity
 67
     1
  8
1
  6
CONTINUOUS
 62
    18
100
AcDbCircle
 10
20.343729
 20
5.480097
 30
0.0
 40
0.0599999986588955
100
AcDbArc
 50
270.0
 51
0.0
  0
ARC
  5
4B9
330
4E
100
AcDbEntity
 67
     1
  8
1
  6
CONTINUOUS
 62
    18
100
AcDbCircle
 10
19.96373
 20
6.280097
 30
0.0
 40
0.1400000005960464
100
AcDbArc
 50
90.0
 51
270.0
  0
ARC
  5
4BA
330
4E
100
AcDbEntity
 67
     1
  8
1
  6
CONTINUOUS
 62
    18
100
AcDbCircle
 10
20.12373
 20
5.655097
 30
0.0
 40
0.1400000005960464
100
AcDbArc
 50
270.0
 51
90.0
  0
ARC
  5
4BB
330
4E
100
AcDbEntity
 67
     1
  8
1
  6
CONTINUOUS
 62
    18
100
AcDbCircle
 10
20.003729
 20
5.655097
 30
0.0
 40
0.1400000005960464
100
AcDbArc
 50
90.0
 51
270.0
  0
ARC
  5
4BC
330
4E
100
AcDbEntity
 67
     1
  8
1
  6
CONTINUOUS
 62
    18
100
AcDbCircle
 10
1.750229
 20
5.810097
 30
0.0
 40
0.2185000032186508
100
AcDbArc
 50
129.846446
 51
50.153554
  0
ARC
  5
4BD
330
4E
100
AcDbEntity
 67
     1
  8
1
  6
CONTINUOUS
 62
    18
100
AcDbCircle
 10
1.750229
 20
6.280097
 30
0.0
 40
0.1400000005960464
100
AcDbArc
 50
0.0
 51
180.0
  0
ENDSEC
  0
SECTION
  2
OBJECTS
  0
DICTIONARY
  5
C
330
0
100
AcDbDictionary
281
     1
  3
ACAD_GROUP
350
D
  3
ACAD_LAYOUT
350
1A
  3
ACAD_MATERIAL
350
3B
  3
ACAD_MLEADERSTYLE
350
4D1
  3
ACAD_MLINESTYLE
350
17
  3
ACAD_PLOTSETTINGS
350
19
  3
ACAD_PLOTSTYLENAME
350
E
  3
ACAD_VISUALSTYLE
350
2A
  3
AcDbVariableDictionary
350
4CF
  0
DICTIONARY
  5
D
102
{ACAD_REACTORS
330
C
102
}
330
C
100
AcDbDictionary
281
     1
  0
DICTIONARY
  5
1A
102
{ACAD_REACTORS
330
C
102
}
330
C
100
AcDbDictionary
281
     1
  3
Model
350
22
  3
Sheet 1
350
4BE
  0
DICTIONARY
  5
3B
102
{ACAD_REACTORS
330
C
102
}
330
C
100
AcDbDictionary
281
     1
  3
BYBLOCK
350
3D
  3
BYLAYER
350
3C
  3
Global
350
3E
  0
DICTIONARY
  5
4D1
102
{ACAD_REACTORS
330
C
102
}
330
C
100
AcDbDictionary
281
     1
  0
DICTIONARY
  5
17
102
{ACAD_REACTORS
330
C
102
}
330
C
100
AcDbDictionary
281
     1
  3
Standard
350
18
  0
DICTIONARY
  5
19
102
{ACAD_REACTORS
330
C
102
}
330
C
100
AcDbDictionary
281
     1
  0
ACDBDICTIONARYWDFLT
  5
E
102
{ACAD_REACTORS
330
C
102
}
330
C
100
AcDbDictionary
281
     1
  3
Normal
350
F
100
AcDbDictionaryWithDefault
340
F
  0
DICTIONARY
  5
2A
102
{ACAD_REACTORS
330
C
102
}
330
C
100
AcDbDictionary
281
     1
  3
2dWireframe
350
2F
  3
3D Hidden
350
31
  3
3dWireframe
350
30
  3
Basic
350
32
  3
Brighten
350
36
  3
ColorChange
350
3A
  3
Conceptual
350
34
  3
Dim
350
35
  3
Facepattern
350
39
  3
Flat
350
2B
  3
FlatWithEdges
350
2C
  3
Gouraud
350
2D
  3
GouraudWithEdges
350
2E
  3
Linepattern
350
38
  3
Realistic
350
33
  3
Thicken
350
37
  0
DICTIONARY
  5
4CF
102
{ACAD_REACTORS
330
C
102
}
330
C
100
AcDbDictionary
281
     1
  3
DIMASSOC
350
4D2
  3
HIDETEXT
350
4D3
  0
LAYOUT
  5
22
102
{ACAD_REACTORS
330
1A
102
}
330
1A
100
AcDbPlotSettings
  1

  2
none_device
  4

  6

 40
0.0
 41
0.0
 42
0.0
 43
0.0
 44
0.0
 45
0.0
 46
0.0
 47
0.0
 48
0.0
 49
0.0
140
0.0
141
0.0
142
1.0
143
1.0
 70
  1712
 72
     0
 73
     0
 74
     0
  7

 75
     0
147
1.0
148
0.0
149
0.0
100
AcDbLayout
  1
Model
 70
     1
 71
     0
 10
-0.5
 20
-0.5
 11
5.0
 21
5.0
 12
0.0
 22
0.0
 32
0.0
 14
-0.5
 24
-0.5
 34
-0.5
 15
5.0
 25
5.0
 35
5.0
146
0.0
 13
0.0
 23
0.0
 33
0.0
 16
1.0
 26
0.0
 36
0.0
 17
0.0
 27
1.0
 37
0.0
 76
     0
330
1F
331
29
  0
LAYOUT
  5
4BE
102
{ACAD_REACTORS
330
1A
102
}
330
1A
100
AcDbPlotSettings
  1

  2
none_device
  4
ARCH_C_(24.00_x_18.00_Inches)
  6

 40
6.35
 41
19.05
 42
6.349975
 43
19.049987
 44
609.6
 45
457.2
 46
29.028576
 47
0.0
 48
0.0
 49
0.0
140
24.0
141
19.0
142
1.0
143
1.060606
 70
   692
 72
     0
 73
     0
 74
     1
  7

 75
     0
147
0.942857
148
12.7
149
12.7
100
AcDbLayout
  1
Sheet 1
 70
     1
 71
     1
 10
0.0
 20
0.0
 11
22.0
 21
17.0
 12
0.0
 22
0.0
 32
0.0
 14
0.0
 24
0.0
 34
0.0
 15
22.0
 25
17.0
 35
0.0
146
0.0
 13
0.0
 23
0.0
 33
0.0
 16
1.0
 26
0.0
 36
0.0
 17
0.0
 27
1.0
 37
0.0
 76
     0
330
4E
331
51
  0
MATERIAL
  5
3D
102
{ACAD_REACTORS
330
3B
102
}
102
{ACAD_XDICTIONARY
360
4F6
102
}
330
3B
100
AcDbMaterial
  1
BYBLOCK
  0
MATERIAL
  5
3C
102
{ACAD_REACTORS
330
3B
102
}
102
{ACAD_XDICTIONARY
360
4F4
102
}
330
3B
100
AcDbMaterial
  1
BYLAYER
  0
MATERIAL
  5
3E
102
{ACAD_REACTORS
330
3B
102
}
102
{ACAD_XDICTIONARY
360
4F8
102
}
330
3B
100
AcDbMaterial
  1
Global
  0
MLINESTYLE
  5
18
102
{ACAD_REACTORS
330
17
102
}
330
17
100
AcDbMlineStyle
  2
Standard
 70
     0
  3

 62
   256
 51
90.0
 52
90.0
 71
     2
 49
0.5
 62
   256
  6
BYLAYER
 49
-0.5
 62
   256
  6
BYLAYER
  0
ACDBPLACEHOLDER
  5
F
102
{ACAD_REACTORS
330
E
102
}
330
E
  0
VISUALSTYLE
  5
2F
102
{ACAD_REACTORS
330
2A
102
}
102
{ACAD_XDICTIONARY
360
4DC
102
}
330
2A
100
AcDbVisualStyle
  2
2dWireframe
 70
     4
 71
     0
 72
     2
 73
     0
 90
        0
 40
-0.6
 41
-30.0
 62
     5
 63
     7
 74
     1
 91
        4
 64
     7
 65
   257
 75
     1
175
     1
 42
1.0
 92
        0
 66
   257
 43
1.0
 76
     1
 77
     6
 78
     2
 67
     7
 79
     5
170
     0
171
     0
290
     0
174
     0
 93
        1
 44
0.0
173
     0
291
     0
 45
0.0
1001
ACAD
1000
AcDbSavedByObjectVersion
1070
     0
  0
VISUALSTYLE
  5
31
102
{ACAD_REACTORS
330
2A
102
}
102
{ACAD_XDICTIONARY
360
4E0
102
}
330
2A
100
AcDbVisualStyle
  2
3D Hidden
 70
     6
 71
     1
 72
     2
 73
     2
 90
        0
 40
-0.6
 41
-30.0
 62
     5
 63
     7
 74
     2
 91
        2
 64
     7
 65
   257
 75
     2
175
     1
 42
40.0
 92
        0
 66
   257
 43
1.0
 76
     1
 77
     6
 78
     2
 67
     7
 79
     3
170
     0
171
     0
290
     0
174
     0
 93
        1
 44
0.0
173
     0
291
     0
 45
0.0
1001
ACAD
1000
AcDbSavedByObjectVersion
1070
     0
  0
VISUALSTYLE
  5
30
102
{ACAD_REACTORS
330
2A
102
}
102
{ACAD_XDICTIONARY
360
4DE
102
}
330
2A
100
AcDbVisualStyle
  2
3dWireframe
 70
     5
 71
     0
 72
     2
 73
     0
 90
        0
 40
-0.6
 41
-30.0
 62
     5
 63
     7
 74
     1
 91
        4
 64
     7
 65
   257
 75
     1
175
     1
 42
1.0
 92
        0
 66
   257
 43
1.0
 76
     1
 77
     6
 78
     2
 67
     7
 79
     5
170
     0
171
     0
290
     0
174
     0
 93
        1
 44
0.0
173
     0
291
     0
 45
0.0
1001
ACAD
1000
AcDbSavedByObjectVersion
1070
     0
  0
VISUALSTYLE
  5
32
102
{ACAD_REACTORS
330
2A
102
}
102
{ACAD_XDICTIONARY
360
4E2
102
}
330
2A
100
AcDbVisualStyle
  2
Basic
 70
     7
 71
     1
 72
     0
 73
     1
 90
        0
 40
-0.6
 41
-30.0
 62
     5
 63
     7
 74
     0
 91
        4
 64
     7
 65
   257
 75
     1
175
     1
 42
1.0
 92
        8
 66
     7
 43
1.0
 76
     1
 77
     6
 78
     2
 67
     7
 79
     5
170
     0
171
     0
290
     0
174
     0
 93
        1
 44
0.0
173
     0
291
     1
 45
0.0
1001
ACAD
1000
AcDbSavedByObjectVersion
1070
     0
  0
VISUALSTYLE
  5
36
102
{ACAD_REACTORS
330
2A
102
}
102
{ACAD_XDICTIONARY
360
4EA
102
}
330
2A
100
AcDbVisualStyle
  2
Brighten
 70
    12
 71
     2
 72
     2
 73
     0
 90
        0
 40
-0.6
 41
-30.0
 62
     5
 63
     7
 74
     1
 91
        4
 64
     7
 65
   257
 75
     1
175
     1
 42
1.0
 92
        8
 66
     7
 43
1.0
 76
     1
 77
     6
 78
     2
 67
     7
 79
     5
170
     0
171
     0
290
     0
174
     0
 93
        1
 44
50.0
173
     0
291
     1
 45
0.0
1001
ACAD
1000
AcDbSavedByObjectVersion
1070
     0
  0
VISUALSTYLE
  5
3A
102
{ACAD_REACTORS
330
2A
102
}
102
{ACAD_XDICTIONARY
360
4F2
102
}
330
2A
100
AcDbVisualStyle
  2
ColorChange
 70
    16
 71
     2
 72
     2
 73
     3
 90
        0
 40
-0.6
 41
-30.0
 62
     5
 63
     8
 74
     1
 91
        4
 64
     7
 65
   257
 75
     1
175
     1
 42
1.0
 92
        8
 66
     8
 43
1.0
 76
     1
 77
     6
 78
     2
 67
     7
 79
     5
170
     0
171
     0
290
     0
174
     0
 93
        1
 44
0.0
173
     0
291
     1
 45
0.0
1001
ACAD
1000
AcDbSavedByObjectVersion
1070
     0
  0
VISUALSTYLE
  5
34
102
{ACAD_REACTORS
330
2A
102
}
102
{ACAD_XDICTIONARY
360
4E6
102
}
330
2A
100
AcDbVisualStyle
  2
Conceptual
 70
     9
 71
     3
 72
     2
 73
     0
 90
        0
 40
-0.6
 41
-30.0
 62
     5
 63
     7
 74
     2
 91
        2
 64
     7
 65
   257
 75
     1
175
     1
 42
40.0
 92
        8
 66
     7
 43
1.0
 76
     1
 77
     6
 78
     2
 67
     7
 79
     3
170
     0
171
     0
290
     0
174
     0
 93
        1
 44
0.0
173
     0
291
     0
 45
0.0
1001
ACAD
1000
AcDbSavedByObjectVersion
1070
     0
  0
VISUALSTYLE
  5
35
102
{ACAD_REACTORS
330
2A
102
}
102
{ACAD_XDICTIONARY
360
4E8
102
}
330
2A
100
AcDbVisualStyle
  2
Dim
 70
    11
 71
     2
 72
     2
 73
     0
 90
        0
 40
-0.6
 41
-30.0
 62
     5
 63
     7
 74
     1
 91
        4
 64
     7
 65
   257
 75
     1
175
     1
 42
1.0
 92
        8
 66
     7
 43
1.0
 76
     1
 77
     6
 78
     2
 67
     7
 79
     5
170
     0
171
     0
290
     0
174
     0
 93
        1
 44
-50.0
173
     0
291
     1
 45
0.0
1001
ACAD
1000
AcDbSavedByObjectVersion
1070
     0
  0
VISUALSTYLE
  5
39
102
{ACAD_REACTORS
330
2A
102
}
102
{ACAD_XDICTIONARY
360
4F0
102
}
330
2A
100
AcDbVisualStyle
  2
Facepattern
 70
    15
 71
     2
 72
     2
 73
     0
 90
        0
 40
-0.6
 41
-30.0
 62
     5
 63
     7
 74
     1
 91
        4
 64
     7
 65
   257
 75
     1
175
     1
 42
1.0
 92
        8
 66
     7
 43
1.0
 76
     1
 77
     6
 78
     2
 67
     7
 79
     5
170
     0
171
     0
290
     0
174
     0
 93
        1
 44
0.0
173
     0
291
     1
 45
0.0
1001
ACAD
1000
AcDbSavedByObjectVersion
1070
     0
  0
VISUALSTYLE
  5
2B
102
{ACAD_REACTORS
330
2A
102
}
102
{ACAD_XDICTIONARY
360
4D4
102
}
330
2A
100
AcDbVisualStyle
  2
Flat
 70
     0
 71
     2
 72
     1
 73
     1
 90
        2
 40
-0.6
 41
30.0
 62
     5
 63
     7
 74
     0
 91
        4
 64
     7
 65
   257
 75
     1
175
     1
 42
1.0
 92
        8
 66
     7
 43
1.0
 76
     1
 77
     6
 78
     2
 67
     7
 79
     5
170
     0
171
     0
290
     0
174
     0
 93
       13
 44
0.0
173
     0
291
     1
 45
0.0
1001
ACAD
1000
AcDbSavedByObjectVersion
1070
     0
  0
VISUALSTYLE
  5
2C
102
{ACAD_REACTORS
330
2A
102
}
102
{ACAD_XDICTIONARY
360
4D6
102
}
330
2A
100
AcDbVisualStyle
  2
FlatWithEdges
 70
     1
 71
     2
 72
     1
 73
     1
 90
        2
 40
-0.6
 41
30.0
 62
     5
 63
     7
 74
     1
 91
        4
 64
     7
 65
   257
 75
     1
175
     1
 42
1.0
 92
        0
 66
   257
 43
1.0
 76
     1
 77
     6
 78
     2
 67
     7
 79
     5
170
     0
171
     0
290
     0
174
     0
 93
       13
 44
0.0
173
     0
291
     1
 45
0.0
1001
ACAD
1000
AcDbSavedByObjectVersion
1070
     0
  0
VISUALSTYLE
  5
2D
102
{ACAD_REACTORS
330
2A
102
}
102
{ACAD_XDICTIONARY
360
4D8
102
}
330
2A
100
AcDbVisualStyle
  2
Gouraud
 70
     2
 71
     2
 72
     2
 73
     1
 90
        2
 40
-0.6
 41
30.0
 62
     5
 63
     7
 74
     0
 91
        4
 64
     7
 65
   257
 75
     1
175
     1
 42
1.0
 92
        0
 66
     7
 43
1.0
 76
     1
 77
     6
 78
     2
 67
     7
 79
     5
170
     0
171
     0
290
     0
174
     0
 93
       13
 44
0.0
173
     0
291
     1
 45
0.0
1001
ACAD
1000
AcDbSavedByObjectVersion
1070
     0
  0
VISUALSTYLE
  5
2E
102
{ACAD_REACTORS
330
2A
102
}
102
{ACAD_XDICTIONARY
360
4DA
102
}
330
2A
100
AcDbVisualStyle
  2
GouraudWithEdges
 70
     3
 71
     2
 72
     2
 73
     1
 90
        2
 40
-0.6
 41
30.0
 62
     5
 63
     7
 74
     1
 91
        4
 64
     7
 65
   257
 75
     1
175
     1
 42
1.0
 92
        0
 66
   257
 43
1.0
 76
     1
 77
     6
 78
     2
 67
     7
 79
     5
170
     0
171
     0
290
     0
174
     0
 93
       13
 44
0.0
173
     0
291
     1
 45
0.0
1001
ACAD
1000
AcDbSavedByObjectVersion
1070
     0
  0
VISUALSTYLE
  5
38
102
{ACAD_REACTORS
330
2A
102
}
102
{ACAD_XDICTIONARY
360
4EE
102
}
330
2A
100
AcDbVisualStyle
  2
Linepattern
 70
    14
 71
     2
 72
     2
 73
     0
 90
        0
 40
-0.6
 41
-30.0
 62
     5
 63
     7
 74
     1
 91
        4
 64
     7
 65
   257
 75
     7
175
     7
 42
1.0
 92
        8
 66
     7
 43
1.0
 76
     1
 77
     6
 78
     2
 67
     7
 79
     5
170
     0
171
     0
290
     0
174
     0
 93
        1
 44
0.0
173
     0
291
     1
 45
0.0
1001
ACAD
1000
AcDbSavedByObjectVersion
1070
     0
  0
VISUALSTYLE
  5
33
102
{ACAD_REACTORS
330
2A
102
}
102
{ACAD_XDICTIONARY
360
4E4
102
}
330
2A
100
AcDbVisualStyle
  2
Realistic
 70
     8
 71
     2
 72
     2
 73
     0
 90
        0
 40
-0.6
 41
-30.0
 62
     5
 63
     7
 74
     1
 91
        0
 64
     7
 65
   257
 75
     1
175
     1
 42
1.0
 92
        8
 66
     8
 43
1.0
 76
     1
 77
     6
 78
     2
 67
     7
 79
     5
170
     0
171
     0
290
     0
174
     0
 93
       13
 44
0.0
173
     0
291
     0
 45
0.0
1001
ACAD
1000
AcDbSavedByObjectVersion
1070
     0
  0
VISUALSTYLE
  5
37
102
{ACAD_REACTORS
330
2A
102
}
102
{ACAD_XDICTIONARY
360
4EC
102
}
330
2A
100
AcDbVisualStyle
  2
Thicken
 70
    13
 71
     2
 72
     2
 73
     0
 90
        0
 40
-0.6
 41
-30.0
 62
     5
 63
     7
 74
     1
 91
        4
 64
     7
 65
   257
 75
     1
175
     1
 42
1.0
 92
       12
 66
     7
 43
1.0
 76
     1
 77
     6
 78
     2
 67
     7
 79
     5
170
     0
171
     0
290
     0
174
     0
 93
        1
 44
0.0
173
     0
291
     1
 45
0.0
1001
ACAD
1000
AcDbSavedByObjectVersion
1070
     0
  0
DICTIONARYVAR
  5
4D2
102
{ACAD_REACTORS
330
4CF
102
}
330
4CF
100
DictionaryVariables
280
     0
  1
2
  0
DICTIONARYVAR
  5
4D3
102
{ACAD_REACTORS
330
4CF
102
}
330
4CF
100
DictionaryVariables
280
     0
  1
1
  0
DICTIONARY
  5
4F6
330
3D
100
AcDbDictionary
280
     1
281
     1
  3
ACAD_XREC_ROUNDTRIP
360
4F7
  0
DICTIONARY
  5
4F4
330
3C
100
AcDbDictionary
280
     1
281
     1
  3
ACAD_XREC_ROUNDTRIP
360
4F5
  0
DICTIONARY
  5
4F8
330
3E
100
AcDbDictionary
280
     1
281
     1
  3
ACAD_XREC_ROUNDTRIP
360
4F9
  0
DICTIONARY
  5
4DC
330
2F
100
AcDbDictionary
280
     1
281
     1
  3
ACAD_XREC_ROUNDTRIP
360
4DD
  0
DICTIONARY
  5
4E0
330
31
100
AcDbDictionary
280
     1
281
     1
  3
ACAD_XREC_ROUNDTRIP
360
4E1
  0
DICTIONARY
  5
4DE
330
30
100
AcDbDictionary
280
     1
281
     1
  3
ACAD_XREC_ROUNDTRIP
360
4DF
  0
DICTIONARY
  5
4E2
330
32
100
AcDbDictionary
280
     1
281
     1
  3
ACAD_XREC_ROUNDTRIP
360
4E3
  0
DICTIONARY
  5
4EA
330
36
100
AcDbDictionary
280
     1
281
     1
  3
ACAD_XREC_ROUNDTRIP
360
4EB
  0
DICTIONARY
  5
4F2
330
3A
100
AcDbDictionary
280
     1
281
     1
  3
ACAD_XREC_ROUNDTRIP
360
4F3
  0
DICTIONARY
  5
4E6
330
34
100
AcDbDictionary
280
     1
281
     1
  3
ACAD_XREC_ROUNDTRIP
360
4E7
  0
DICTIONARY
  5
4E8
330
35
100
AcDbDictionary
280
     1
281
     1
  3
ACAD_XREC_ROUNDTRIP
360
4E9
  0
DICTIONARY
  5
4F0
330
39
100
AcDbDictionary
280
     1
281
     1
  3
ACAD_XREC_ROUNDTRIP
360
4F1
  0
DICTIONARY
  5
4D4
330
2B
100
AcDbDictionary
280
     1
281
     1
  3
ACAD_XREC_ROUNDTRIP
360
4D5
  0
DICTIONARY
  5
4D6
330
2C
100
AcDbDictionary
280
     1
281
     1
  3
ACAD_XREC_ROUNDTRIP
360
4D7
  0
DICTIONARY
  5
4D8
330
2D
100
AcDbDictionary
280
     1
281
     1
  3
ACAD_XREC_ROUNDTRIP
360
4D9
  0
DICTIONARY
  5
4DA
330
2E
100
AcDbDictionary
280
     1
281
     1
  3
ACAD_XREC_ROUNDTRIP
360
4DB
  0
DICTIONARY
  5
4EE
330
38
100
AcDbDictionary
280
     1
281
     1
  3
ACAD_XREC_ROUNDTRIP
360
4EF
  0
DICTIONARY
  5
4E4
330
33
100
AcDbDictionary
280
     1
281
     1
  3
ACAD_XREC_ROUNDTRIP
360
4E5
  0
DICTIONARY
  5
4EC
330
37
100
AcDbDictionary
280
     1
281
     1
  3
ACAD_XREC_ROUNDTRIP
360
4ED
  0
XRECORD
  5
4F7
102
{ACAD_REACTORS
330
4F6
102
}
330
4F6
100
AcDbXrecord
280
     1
102
MATERIAL
148
0.0
149
0.0
149
0.0
 93
        0
 94
      127
282
     0
 72
     1
 77
     1
171
     1
175
     1
179
     1
273
     0
  0
XRECORD
  5
4F5
102
{ACAD_REACTORS
330
4F4
102
}
330
4F4
100
AcDbXrecord
280
     1
102
MATERIAL
148
0.0
149
0.0
149
0.0
 93
        0
 94
      127
282
     0
 72
     1
 77
     1
171
     1
175
     1
179
     1
273
     0
  0
XRECORD
  5
4F9
102
{ACAD_REACTORS
330
4F8
102
}
330
4F8
100
AcDbXrecord
280
     1
102
MATERIAL
148
0.0
149
0.0
149
0.0
 93
        0
 94
      127
282
     0
 72
     1
 77
     1
171
     1
175
     1
179
     1
273
     0
  0
XRECORD
  5
4DD
102
{ACAD_REACTORS
330
4DC
102
}
330
4DC
100
AcDbXrecord
280
     1
102
RTVSPropertyOp0
 70
     1
102
RTVSPropertyOp1
 70
     1
102
RTVSPropertyOp2
 70
     1
102
RTVSPropertyOp3
 70
     1
102
RTVSPropertyOp4
 70
     1
102
RTVSPropertyOp5
 70
     1
102
RTVSPropertyOp6
 70
     1
102
RTVSPropertyOp7
 70
     1
102
RTVSPropertyOp8
 70
     1
102
RTVSPropertyOp9
 70
     1
102
RTVSPropertyOp10
 70
     1
102
RTVSPropertyOp11
 70
     1
102
RTVSPropertyOp12
 70
     1
102
RTVSPropertyOp13
 70
     1
102
RTVSPropertyOp14
 70
     1
102
RTVSPropertyOp15
 70
     1
102
RTVSPropertyOp16
 70
     1
102
RTVSPropertyOp17
 70
     1
102
RTVSPropertyOp18
 70
     1
102
RTVSPropertyOp19
 70
     1
102
RTVSPropertyOp20
 70
     1
102
RTVSPropertyOp21
 70
     1
102
RTVSPropertyOp22
 70
     1
102
RTVSPropertyOp23
 70
     1
102
RTVSPropertyOp24
 70
     1
102
RTVSPropertyOp25
 70
     1
102
RTVSPropertyOp26
 70
     1
102
RTVSPropertyOp27
 70
     1
  0
XRECORD
  5
4E1
102
{ACAD_REACTORS
330
4E0
102
}
330
4E0
100
AcDbXrecord
280
     1
102
RTVSPropertyOp0
 70
     1
102
RTVSPropertyOp1
 70
     1
102
RTVSPropertyOp2
 70
     1
102
RTVSPropertyOp3
 70
     1
102
RTVSPropertyOp4
 70
     1
102
RTVSPropertyOp5
 70
     1
102
RTVSPropertyOp6
 70
     1
102
RTVSPropertyOp7
 70
     1
102
RTVSPropertyOp8
 70
     1
102
RTVSPropertyOp9
 70
     1
102
RTVSPropertyOp10
 70
     1
102
RTVSPropertyOp11
 70
     1
102
RTVSPropertyOp12
 70
     1
102
RTVSPropertyOp13
 70
     1
102
RTVSPropertyOp14
 70
     1
102
RTVSPropertyOp15
 70
     1
102
RTVSPropertyOp16
 70
     1
102
RTVSPropertyOp17
 70
     1
102
RTVSPropertyOp18
 70
     1
102
RTVSPropertyOp19
 70
     1
102
RTVSPropertyOp20
 70
     1
102
RTVSPropertyOp21
 70
     1
102
RTVSPropertyOp22
 70
     1
102
RTVSPropertyOp23
 70
     1
102
RTVSPropertyOp24
 70
     1
102
RTVSPropertyOp25
 70
     1
102
RTVSPropertyOp26
 70
     1
102
RTVSPropertyOp27
 70
     1
  0
XRECORD
  5
4DF
102
{ACAD_REACTORS
330
4DE
102
}
330
4DE
100
AcDbXrecord
280
     1
102
RTVSPropertyOp0
 70
     1
102
RTVSPropertyOp1
 70
     1
102
RTVSPropertyOp2
 70
     1
102
RTVSPropertyOp3
 70
     1
102
RTVSPropertyOp4
 70
     1
102
RTVSPropertyOp5
 70
     1
102
RTVSPropertyOp6
 70
     1
102
RTVSPropertyOp7
 70
     1
102
RTVSPropertyOp8
 70
     1
102
RTVSPropertyOp9
 70
     1
102
RTVSPropertyOp10
 70
     1
102
RTVSPropertyOp11
 70
     1
102
RTVSPropertyOp12
 70
     1
102
RTVSPropertyOp13
 70
     1
102
RTVSPropertyOp14
 70
     1
102
RTVSPropertyOp15
 70
     1
102
RTVSPropertyOp16
 70
     1
102
RTVSPropertyOp17
 70
     1
102
RTVSPropertyOp18
 70
     1
102
RTVSPropertyOp19
 70
     1
102
RTVSPropertyOp20
 70
     1
102
RTVSPropertyOp21
 70
     1
102
RTVSPropertyOp22
 70
     1
102
RTVSPropertyOp23
 70
     1
102
RTVSPropertyOp24
 70
     1
102
RTVSPropertyOp25
 70
     1
102
RTVSPropertyOp26
 70
     1
102
RTVSPropertyOp27
 70
     1
  0
XRECORD
  5
4E3
102
{ACAD_REACTORS
330
4E2
102
}
330
4E2
100
AcDbXrecord
280
     1
102
RTVSPropertyOp0
 70
     1
102
RTVSPropertyOp1
 70
     1
102
RTVSPropertyOp2
 70
     1
102
RTVSPropertyOp3
 70
     1
102
RTVSPropertyOp4
 70
     1
102
RTVSPropertyOp5
 70
     1
102
RTVSPropertyOp6
 70
     1
102
RTVSPropertyOp7
 70
     1
102
RTVSPropertyOp8
 70
     1
102
RTVSPropertyOp9
 70
     1
102
RTVSPropertyOp10
 70
     1
102
RTVSPropertyOp11
 70
     1
102
RTVSPropertyOp12
 70
     1
102
RTVSPropertyOp13
 70
     1
102
RTVSPropertyOp14
 70
     1
102
RTVSPropertyOp15
 70
     1
102
RTVSPropertyOp16
 70
     1
102
RTVSPropertyOp17
 70
     1
102
RTVSPropertyOp18
 70
     1
102
RTVSPropertyOp19
 70
     1
102
RTVSPropertyOp20
 70
     1
102
RTVSPropertyOp21
 70
     1
102
RTVSPropertyOp22
 70
     1
102
RTVSPropertyOp23
 70
     1
102
RTVSPropertyOp24
 70
     1
102
RTVSPropertyOp25
 70
     1
102
RTVSPropertyOp26
 70
     1
102
RTVSPropertyOp27
 70
     1
  0
XRECORD
  5
4EB
102
{ACAD_REACTORS
330
4EA
102
}
330
4EA
100
AcDbXrecord
280
     1
102
RTVSPropertyOp0
 70
     1
102
RTVSPropertyOp1
 70
     1
102
RTVSPropertyOp2
 70
     1
102
RTVSPropertyOp3
 70
     1
102
RTVSPropertyOp4
 70
     1
102
RTVSPropertyOp5
 70
     1
102
RTVSPropertyOp6
 70
     1
102
RTVSPropertyOp7
 70
     1
102
RTVSPropertyOp8
 70
     1
102
RTVSPropertyOp9
 70
     1
102
RTVSPropertyOp10
 70
     1
102
RTVSPropertyOp11
 70
     1
102
RTVSPropertyOp12
 70
     1
102
RTVSPropertyOp13
 70
     1
102
RTVSPropertyOp14
 70
     1
102
RTVSPropertyOp15
 70
     1
102
RTVSPropertyOp16
 70
     1
102
RTVSPropertyOp17
 70
     1
102
RTVSPropertyOp18
 70
     1
102
RTVSPropertyOp19
 70
     1
102
RTVSPropertyOp20
 70
     1
102
RTVSPropertyOp21
 70
     1
102
RTVSPropertyOp22
 70
     1
102
RTVSPropertyOp23
 70
     1
102
RTVSPropertyOp24
 70
     1
102
RTVSPropertyOp25
 70
     1
102
RTVSPropertyOp26
 70
     1
102
RTVSPropertyOp27
 70
     1
  0
XRECORD
  5
4F3
102
{ACAD_REACTORS
330
4F2
102
}
330
4F2
100
AcDbXrecord
280
     1
102
RTVSPropertyOp0
 70
     1
102
RTVSPropertyOp1
 70
     1
102
RTVSPropertyOp2
 70
     1
102
RTVSPropertyOp3
 70
     1
102
RTVSPropertyOp4
 70
     1
102
RTVSPropertyOp5
 70
     1
102
RTVSPropertyOp6
 70
     1
102
RTVSPropertyOp7
 70
     1
102
RTVSPropertyOp8
 70
     1
102
RTVSPropertyOp9
 70
     1
102
RTVSPropertyOp10
 70
     1
102
RTVSPropertyOp11
 70
     1
102
RTVSPropertyOp12
 70
     1
102
RTVSPropertyOp13
 70
     1
102
RTVSPropertyOp14
 70
     1
102
RTVSPropertyOp15
 70
     1
102
RTVSPropertyOp16
 70
     1
102
RTVSPropertyOp17
 70
     1
102
RTVSPropertyOp18
 70
     1
102
RTVSPropertyOp19
 70
     1
102
RTVSPropertyOp20
 70
     1
102
RTVSPropertyOp21
 70
     1
102
RTVSPropertyOp22
 70
     1
102
RTVSPropertyOp23
 70
     1
102
RTVSPropertyOp24
 70
     1
102
RTVSPropertyOp25
 70
     1
102
RTVSPropertyOp26
 70
     1
102
RTVSPropertyOp27
 70
     1
  0
XRECORD
  5
4E7
102
{ACAD_REACTORS
330
4E6
102
}
330
4E6
100
AcDbXrecord
280
     1
102
RTVSPropertyOp0
 70
     1
102
RTVSPropertyOp1
 70
     1
102
RTVSPropertyOp2
 70
     1
102
RTVSPropertyOp3
 70
     1
102
RTVSPropertyOp4
 70
     1
102
RTVSPropertyOp5
 70
     1
102
RTVSPropertyOp6
 70
     1
102
RTVSPropertyOp7
 70
     1
102
RTVSPropertyOp8
 70
     1
102
RTVSPropertyOp9
 70
     1
102
RTVSPropertyOp10
 70
     1
102
RTVSPropertyOp11
 70
     1
102
RTVSPropertyOp12
 70
     1
102
RTVSPropertyOp13
 70
     1
102
RTVSPropertyOp14
 70
     1
102
RTVSPropertyOp15
 70
     1
102
RTVSPropertyOp16
 70
     1
102
RTVSPropertyOp17
 70
     1
102
RTVSPropertyOp18
 70
     1
102
RTVSPropertyOp19
 70
     1
102
RTVSPropertyOp20
 70
     1
102
RTVSPropertyOp21
 70
     1
102
RTVSPropertyOp22
 70
     1
102
RTVSPropertyOp23
 70
     1
102
RTVSPropertyOp24
 70
     1
102
RTVSPropertyOp25
 70
     1
102
RTVSPropertyOp26
 70
     1
102
RTVSPropertyOp27
 70
     1
  0
XRECORD
  5
4E9
102
{ACAD_REACTORS
330
4E8
102
}
330
4E8
100
AcDbXrecord
280
     1
102
RTVSPropertyOp0
 70
     1
102
RTVSPropertyOp1
 70
     1
102
RTVSPropertyOp2
 70
     1
102
RTVSPropertyOp3
 70
     1
102
RTVSPropertyOp4
 70
     1
102
RTVSPropertyOp5
 70
     1
102
RTVSPropertyOp6
 70
     1
102
RTVSPropertyOp7
 70
     1
102
RTVSPropertyOp8
 70
     1
102
RTVSPropertyOp9
 70
     1
102
RTVSPropertyOp10
 70
     1
102
RTVSPropertyOp11
 70
     1
102
RTVSPropertyOp12
 70
     1
102
RTVSPropertyOp13
 70
     1
102
RTVSPropertyOp14
 70
     1
102
RTVSPropertyOp15
 70
     1
102
RTVSPropertyOp16
 70
     1
102
RTVSPropertyOp17
 70
     1
102
RTVSPropertyOp18
 70
     1
102
RTVSPropertyOp19
 70
     1
102
RTVSPropertyOp20
 70
     1
102
RTVSPropertyOp21
 70
     1
102
RTVSPropertyOp22
 70
     1
102
RTVSPropertyOp23
 70
     1
102
RTVSPropertyOp24
 70
     1
102
RTVSPropertyOp25
 70
     1
102
RTVSPropertyOp26
 70
     1
102
RTVSPropertyOp27
 70
     1
  0
XRECORD
  5
4F1
102
{ACAD_REACTORS
330
4F0
102
}
330
4F0
100
AcDbXrecord
280
     1
102
RTVSPropertyOp0
 70
     1
102
RTVSPropertyOp1
 70
     1
102
RTVSPropertyOp2
 70
     1
102
RTVSPropertyOp3
 70
     1
102
RTVSPropertyOp4
 70
     1
102
RTVSPropertyOp5
 70
     1
102
RTVSPropertyOp6
 70
     1
102
RTVSPropertyOp7
 70
     1
102
RTVSPropertyOp8
 70
     1
102
RTVSPropertyOp9
 70
     1
102
RTVSPropertyOp10
 70
     1
102
RTVSPropertyOp11
 70
     1
102
RTVSPropertyOp12
 70
     1
102
RTVSPropertyOp13
 70
     1
102
RTVSPropertyOp14
 70
     1
102
RTVSPropertyOp15
 70
     1
102
RTVSPropertyOp16
 70
     1
102
RTVSPropertyOp17
 70
     1
102
RTVSPropertyOp18
 70
     1
102
RTVSPropertyOp19
 70
     1
102
RTVSPropertyOp20
 70
     1
102
RTVSPropertyOp21
 70
     1
102
RTVSPropertyOp22
 70
     1
102
RTVSPropertyOp23
 70
     1
102
RTVSPropertyOp24
 70
     1
102
RTVSPropertyOp25
 70
     1
102
RTVSPropertyOp26
 70
     1
102
RTVSPropertyOp27
 70
     1
  0
XRECORD
  5
4D5
102
{ACAD_REACTORS
330
4D4
102
}
330
4D4
100
AcDbXrecord
280
     1
102
RTVSPropertyOp0
 70
     1
102
RTVSPropertyOp1
 70
     1
102
RTVSPropertyOp2
 70
     1
102
RTVSPropertyOp3
 70
     1
102
RTVSPropertyOp4
 70
     1
102
RTVSPropertyOp5
 70
     1
102
RTVSPropertyOp6
 70
     1
102
RTVSPropertyOp7
 70
     1
102
RTVSPropertyOp8
 70
     1
102
RTVSPropertyOp9
 70
     1
102
RTVSPropertyOp10
 70
     1
102
RTVSPropertyOp11
 70
     1
102
RTVSPropertyOp12
 70
     1
102
RTVSPropertyOp13
 70
     1
102
RTVSPropertyOp14
 70
     1
102
RTVSPropertyOp15
 70
     1
102
RTVSPropertyOp16
 70
     1
102
RTVSPropertyOp17
 70
     1
102
RTVSPropertyOp18
 70
     1
102
RTVSPropertyOp19
 70
     1
102
RTVSPropertyOp20
 70
     1
102
RTVSPropertyOp21
 70
     1
102
RTVSPropertyOp22
 70
     1
102
RTVSPropertyOp23
 70
     1
102
RTVSPropertyOp24
 70
     1
102
RTVSPropertyOp25
 70
     1
102
RTVSPropertyOp26
 70
     1
102
RTVSPropertyOp27
 70
     1
  0
XRECORD
  5
4D7
102
{ACAD_REACTORS
330
4D6
102
}
330
4D6
100
AcDbXrecord
280
     1
102
RTVSPropertyOp0
 70
     1
102
RTVSPropertyOp1
 70
     1
102
RTVSPropertyOp2
 70
     1
102
RTVSPropertyOp3
 70
     1
102
RTVSPropertyOp4
 70
     1
102
RTVSPropertyOp5
 70
     1
102
RTVSPropertyOp6
 70
     1
102
RTVSPropertyOp7
 70
     1
102
RTVSPropertyOp8
 70
     1
102
RTVSPropertyOp9
 70
     1
102
RTVSPropertyOp10
 70
     1
102
RTVSPropertyOp11
 70
     1
102
RTVSPropertyOp12
 70
     1
102
RTVSPropertyOp13
 70
     1
102
RTVSPropertyOp14
 70
     1
102
RTVSPropertyOp15
 70
     1
102
RTVSPropertyOp16
 70
     1
102
RTVSPropertyOp17
 70
     1
102
RTVSPropertyOp18
 70
     1
102
RTVSPropertyOp19
 70
     1
102
RTVSPropertyOp20
 70
     1
102
RTVSPropertyOp21
 70
     1
102
RTVSPropertyOp22
 70
     1
102
RTVSPropertyOp23
 70
     1
102
RTVSPropertyOp24
 70
     1
102
RTVSPropertyOp25
 70
     1
102
RTVSPropertyOp26
 70
     1
102
RTVSPropertyOp27
 70
     1
  0
XRECORD
  5
4D9
102
{ACAD_REACTORS
330
4D8
102
}
330
4D8
100
AcDbXrecord
280
     1
102
RTVSPropertyOp0
 70
     1
102
RTVSPropertyOp1
 70
     1
102
RTVSPropertyOp2
 70
     1
102
RTVSPropertyOp3
 70
     1
102
RTVSPropertyOp4
 70
     1
102
RTVSPropertyOp5
 70
     1
102
RTVSPropertyOp6
 70
     1
102
RTVSPropertyOp7
 70
     1
102
RTVSPropertyOp8
 70
     1
102
RTVSPropertyOp9
 70
     1
102
RTVSPropertyOp10
 70
     1
102
RTVSPropertyOp11
 70
     1
102
RTVSPropertyOp12
 70
     1
102
RTVSPropertyOp13
 70
     1
102
RTVSPropertyOp14
 70
     1
102
RTVSPropertyOp15
 70
     1
102
RTVSPropertyOp16
 70
     1
102
RTVSPropertyOp17
 70
     1
102
RTVSPropertyOp18
 70
     1
102
RTVSPropertyOp19
 70
     1
102
RTVSPropertyOp20
 70
     1
102
RTVSPropertyOp21
 70
     1
102
RTVSPropertyOp22
 70
     1
102
RTVSPropertyOp23
 70
     1
102
RTVSPropertyOp24
 70
     1
102
RTVSPropertyOp25
 70
     1
102
RTVSPropertyOp26
 70
     1
102
RTVSPropertyOp27
 70
     1
  0
XRECORD
  5
4DB
102
{ACAD_REACTORS
330
4DA
102
}
330
4DA
100
AcDbXrecord
280
     1
102
RTVSPropertyOp0
 70
     1
102
RTVSPropertyOp1
 70
     1
102
RTVSPropertyOp2
 70
     1
102
RTVSPropertyOp3
 70
     1
102
RTVSPropertyOp4
 70
     1
102
RTVSPropertyOp5
 70
     1
102
RTVSPropertyOp6
 70
     1
102
RTVSPropertyOp7
 70
     1
102
RTVSPropertyOp8
 70
     1
102
RTVSPropertyOp9
 70
     1
102
RTVSPropertyOp10
 70
     1
102
RTVSPropertyOp11
 70
     1
102
RTVSPropertyOp12
 70
     1
102
RTVSPropertyOp13
 70
     1
102
RTVSPropertyOp14
 70
     1
102
RTVSPropertyOp15
 70
     1
102
RTVSPropertyOp16
 70
     1
102
RTVSPropertyOp17
 70
     1
102
RTVSPropertyOp18
 70
     1
102
RTVSPropertyOp19
 70
     1
102
RTVSPropertyOp20
 70
     1
102
RTVSPropertyOp21
 70
     1
102
RTVSPropertyOp22
 70
     1
102
RTVSPropertyOp23
 70
     1
102
RTVSPropertyOp24
 70
     1
102
RTVSPropertyOp25
 70
     1
102
RTVSPropertyOp26
 70
     1
102
RTVSPropertyOp27
 70
     1
  0
XRECORD
  5
4EF
102
{ACAD_REACTORS
330
4EE
102
}
330
4EE
100
AcDbXrecord
280
     1
102
RTVSPropertyOp0
 70
     1
102
RTVSPropertyOp1
 70
     1
102
RTVSPropertyOp2
 70
     1
102
RTVSPropertyOp3
 70
     1
102
RTVSPropertyOp4
 70
     1
102
RTVSPropertyOp5
 70
     1
102
RTVSPropertyOp6
 70
     1
102
RTVSPropertyOp7
 70
     1
102
RTVSPropertyOp8
 70
     1
102
RTVSPropertyOp9
 70
     1
102
RTVSPropertyOp10
 70
     1
102
RTVSPropertyOp11
 70
     1
102
RTVSPropertyOp12
 70
     1
102
RTVSPropertyOp13
 70
     1
102
RTVSPropertyOp14
 70
     1
102
RTVSPropertyOp15
 70
     1
102
RTVSPropertyOp16
 70
     1
102
RTVSPropertyOp17
 70
     1
102
RTVSPropertyOp18
 70
     1
102
RTVSPropertyOp19
 70
     1
102
RTVSPropertyOp20
 70
     1
102
RTVSPropertyOp21
 70
     1
102
RTVSPropertyOp22
 70
     1
102
RTVSPropertyOp23
 70
     1
102
RTVSPropertyOp24
 70
     1
102
RTVSPropertyOp25
 70
     1
102
RTVSPropertyOp26
 70
     1
102
RTVSPropertyOp27
 70
     1
  0
XRECORD
  5
4E5
102
{ACAD_REACTORS
330
4E4
102
}
330
4E4
100
AcDbXrecord
280
     1
102
RTVSPropertyOp0
 70
     1
102
RTVSPropertyOp1
 70
     1
102
RTVSPropertyOp2
 70
     1
102
RTVSPropertyOp3
 70
     1
102
RTVSPropertyOp4
 70
     1
102
RTVSPropertyOp5
 70
     1
102
RTVSPropertyOp6
 70
     1
102
RTVSPropertyOp7
 70
     1
102
RTVSPropertyOp8
 70
     1
102
RTVSPropertyOp9
 70
     1
102
RTVSPropertyOp10
 70
     1
102
RTVSPropertyOp11
 70
     1
102
RTVSPropertyOp12
 70
     1
102
RTVSPropertyOp13
 70
     1
102
RTVSPropertyOp14
 70
     1
102
RTVSPropertyOp15
 70
     1
102
RTVSPropertyOp16
 70
     1
102
RTVSPropertyOp17
 70
     1
102
RTVSPropertyOp18
 70
     1
102
RTVSPropertyOp19
 70
     1
102
RTVSPropertyOp20
 70
     1
102
RTVSPropertyOp21
 70
     1
102
RTVSPropertyOp22
 70
     1
102
RTVSPropertyOp23
 70
     1
102
RTVSPropertyOp24
 70
     1
102
RTVSPropertyOp25
 70
     1
102
RTVSPropertyOp26
 70
     1
102
RTVSPropertyOp27
 70
     1
  0
XRECORD
  5
4ED
102
{ACAD_REACTORS
330
4EC
102
}
330
4EC
100
AcDbXrecord
280
     1
102
RTVSPropertyOp0
 70
     1
102
RTVSPropertyOp1
 70
     1
102
RTVSPropertyOp2
 70
     1
102
RTVSPropertyOp3
 70
     1
102
RTVSPropertyOp4
 70
     1
102
RTVSPropertyOp5
 70
     1
102
RTVSPropertyOp6
 70
     1
102
RTVSPropertyOp7
 70
     1
102
RTVSPropertyOp8
 70
     1
102
RTVSPropertyOp9
 70
     1
102
RTVSPropertyOp10
 70
     1
102
RTVSPropertyOp11
 70
     1
102
RTVSPropertyOp12
 70
     1
102
RTVSPropertyOp13
 70
     1
102
RTVSPropertyOp14
 70
     1
102
RTVSPropertyOp15
 70
     1
102
RTVSPropertyOp16
 70
     1
102
RTVSPropertyOp17
 70
     1
102
RTVSPropertyOp18
 70
     1
102
RTVSPropertyOp19
 70
     1
102
RTVSPropertyOp20
 70
     1
102
RTVSPropertyOp21
 70
     1
102
RTVSPropertyOp22
 70
     1
102
RTVSPropertyOp23
 70
     1
102
RTVSPropertyOp24
 70
     1
102
RTVSPropertyOp25
 70
     1
102
RTVSPropertyOp26
 70
     1
102
RTVSPropertyOp27
 70
     1
  0
ENDSEC
  0
EOF
