  0
SECTION
  2
HEADER
  9
$ACADVER
  1
AC1024
  9
$ACADMAINTVER
 70
    63
  9
$DWGCODEPAGE
  3
ANSI_1252
  9
$LASTSAVEDBY
  1
bjn
  9
$INSBASE
 10
0.0
 20
0.0
 30
0.0
  9
$EXTMIN
 10
-0.5
 20
-0.5
 30
-0.5
  9
$EXTMAX
 10
5.0
 20
5.0
 30
5.0
  9
$LIMMIN
 10
-0.5
 20
-0.5
  9
$LIMMAX
 10
5.0
 20
5.0
  9
$ORTHOMODE
 70
     0
  9
$REGENMODE
 70
     1
  9
$FILLMODE
 70
     1
  9
$QTEXTMODE
 70
     0
  9
$MIRRTEXT
 70
     1
  9
$LTSCALE
 40
1.0
  9
$ATTMODE
 70
     1
  9
$TEXTSIZE
 40
0.2
  9
$TRACEWID
 40
0.05
  9
$TEXTSTYLE
  7
Standard
  9
$CLAYER
  8
0
  9
$CELTYPE
  6
BYLAYER
  9
$CECOLOR
 62
   256
  9
$CELTSCALE
 40
1.0
  9
$DISPSILH
 70
     0
  9
$DIMSCALE
 40
1.0
  9
$DIMASZ
 40
0.18
  9
$DIMEXO
 40
0.0625
  9
$DIMDLI
 40
0.38
  9
$DIMRND
 40
0.0
  9
$DIMDLE
 40
0.0
  9
$DIMEXE
 40
0.18
  9
$DIMTP
 40
0.0
  9
$DIMTM
 40
0.0
  9
$DIMTXT
 40
0.18
  9
$DIMCEN
 40
0.09
  9
$DIMTSZ
 40
0.0
  9
$DIMTOL
 70
     0
  9
$DIMLIM
 70
     0
  9
$DIMTIH
 70
     1
  9
$DIMTOH
 70
     1
  9
$DIMSE1
 70
     0
  9
$DIMSE2
 70
     0
  9
$DIMTAD
 70
     0
  9
$DIMZIN
 70
     0
  9
$DIMBLK
  1

  9
$DIMASO
 70
     1
  9
$DIMSHO
 70
     1
  9
$DIMPOST
  1

  9
$DIMAPOST
  1

  9
$DIMALT
 70
     0
  9
$DIMALTD
 70
     2
  9
$DIMALTF
 40
25.4
  9
$DIMLFAC
 40
1.0
  9
$DIMTOFL
 70
     0
  9
$DIMTVP
 40
0.0
  9
$DIMTIX
 70
     0
  9
$DIMSOXD
 70
     0
  9
$DIMSAH
 70
     0
  9
$DIMBLK1
  1

  9
$DIMBLK2
  1

  9
$DIMSTYLE
  2
Standard
  9
$DIMCLRD
 70
     0
  9
$DIMCLRE
 70
     0
  9
$DIMCLRT
 70
     0
  9
$DIMTFAC
 40
1.0
  9
$DIMGAP
 40
0.09
  9
$DIMJUST
 70
     0
  9
$DIMSD1
 70
     0
  9
$DIMSD2
 70
     0
  9
$DIMTOLJ
 70
     1
  9
$DIMTZIN
 70
     0
  9
$DIMALTZ
 70
     0
  9
$DIMALTTZ
 70
     0
  9
$DIMUPT
 70
     0
  9
$DIMDEC
 70
     4
  9
$DIMTDEC
 70
     4
  9
$DIMALTU
 70
     2
  9
$DIMALTTD
 70
     2
  9
$DIMTXSTY
  7
Standard
  9
$DIMAUNIT
 70
     0
  9
$DIMADEC
 70
     0
  9
$DIMALTRND
 40
0.0
  9
$DIMAZIN
 70
     0
  9
$DIMDSEP
 70
    46
  9
$DIMATFIT
 70
     3
  9
$DIMFRAC
 70
     0
  9
$DIMLDRBLK
  1

  9
$DIMLUNIT
 70
     2
  9
$DIMLWD
 70
    -2
  9
$DIMLWE
 70
    -2
  9
$DIMTMOVE
 70
     0
  9
$DIMFXL
 40
1.0
  9
$DIMFXLON
 70
     0
  9
$DIMJOGANG
 40
0.7853981633974483
  9
$DIMTFILL
 70
     0
  9
$DIMTFILLCLR
 70
     0
  9
$DIMARCSYM
 70
     0
  9
$DIMLTYPE
  6

  9
$DIMLTEX1
  6

  9
$DIMLTEX2
  6

  9
$DIMTXTDIRECTION
 70
     0
  9
$LUNITS
 70
     2
  9
$LUPREC
 70
     4
  9
$SKETCHINC
 40
0.1
  9
$FILLETRAD
 40
0.5
  9
$AUNITS
 70
     0
  9
$AUPREC
 70
     0
  9
$MENU
  1
.
  9
$ELEVATION
 40
0.0
  9
$PELEVATION
 40
0.0
  9
$THICKNESS
 40
0.0
  9
$LIMCHECK
 70
     0
  9
$CHAMFERA
 40
0.0
  9
$CHAMFERB
 40
0.0
  9
$CHAMFERC
 40
0.0
  9
$CHAMFERD
 40
0.0
  9
$SKPOLY
 70
     0
  9
$TDCREATE
 40
2457157.623083889
  9
$TDUCREATE
 40
2457157.831417222
  9
$TDUPDATE
 40
2457157.625246864
  9
$TDUUPDATE
 40
2457157.833580197
  9
$TDINDWG
 40
0.0019535995
  9
$TDUSRTIMER
 40
0.0019535995
  9
$USRTIMER
 70
     1
  9
$ANGBASE
 50
0.0
  9
$ANGDIR
 70
     0
  9
$PDMODE
 70
     0
  9
$PDSIZE
 40
0.0
  9
$PLINEWID
 40
0.0
  9
$SPLFRAME
 70
     0
  9
$SPLINETYPE
 70
     6
  9
$SPLINESEGS
 70
     8
  9
$HANDSEED
  5
78A
  9
$SURFTAB1
 70
     6
  9
$SURFTAB2
 70
     6
  9
$SURFTYPE
 70
     6
  9
$SURFU
 70
     6
  9
$SURFV
 70
     6
  9
$UCSBASE
  2

  9
$UCSNAME
  2

  9
$UCSORG
 10
0.0
 20
0.0
 30
0.0
  9
$UCSXDIR
 10
1.0
 20
0.0
 30
0.0
  9
$UCSYDIR
 10
0.0
 20
1.0
 30
0.0
  9
$UCSORTHOREF
  2

  9
$UCSORTHOVIEW
 70
     0
  9
$UCSORGTOP
 10
0.0
 20
0.0
 30
0.0
  9
$UCSORGBOTTOM
 10
0.0
 20
0.0
 30
0.0
  9
$UCSORGLEFT
 10
0.0
 20
0.0
 30
0.0
  9
$UCSORGRIGHT
 10
0.0
 20
0.0
 30
0.0
  9
$UCSORGFRONT
 10
0.0
 20
0.0
 30
0.0
  9
$UCSORGBACK
 10
0.0
 20
0.0
 30
0.0
  9
$PUCSBASE
  2

  9
$PUCSNAME
  2

  9
$PUCSORG
 10
0.0
 20
0.0
 30
0.0
  9
$PUCSXDIR
 10
1.0
 20
0.0
 30
0.0
  9
$PUCSYDIR
 10
0.0
 20
1.0
 30
0.0
  9
$PUCSORTHOREF
  2

  9
$PUCSORTHOVIEW
 70
     0
  9
$PUCSORGTOP
 10
0.0
 20
0.0
 30
0.0
  9
$PUCSORGBOTTOM
 10
0.0
 20
0.0
 30
0.0
  9
$PUCSORGLEFT
 10
0.0
 20
0.0
 30
0.0
  9
$PUCSORGRIGHT
 10
0.0
 20
0.0
 30
0.0
  9
$PUCSORGFRONT
 10
0.0
 20
0.0
 30
0.0
  9
$PUCSORGBACK
 10
0.0
 20
0.0
 30
0.0
  9
$USERI1
 70
     0
  9
$USERI2
 70
     0
  9
$USERI3
 70
     0
  9
$USERI4
 70
     0
  9
$USERI5
 70
     0
  9
$USERR1
 40
0.0
  9
$USERR2
 40
0.0
  9
$USERR3
 40
0.0
  9
$USERR4
 40
0.0
  9
$USERR5
 40
0.0
  9
$WORLDVIEW
 70
     1
  9
$SHADEDGE
 70
     3
  9
$SHADEDIF
 70
    70
  9
$TILEMODE
 70
     0
  9
$MAXACTVP
 70
    64
  9
$PINSBASE
 10
0.0
 20
0.0
 30
0.0
  9
$PLIMCHECK
 70
     0
  9
$PEXTMIN
 10
0.9798889427677401
 20
3.576210045926515
 30
-0.0015258207003583
  9
$PEXTMAX
 10
6.347625752617172
 20
6.962669390559508
 30
0.0000000349246037
  9
$PLIMMIN
 10
0.0
 20
0.0
  9
$PLIMMAX
 10
11.0
 20
8.5
  9
$UNITMODE
 70
     0
  9
$VISRETAIN
 70
     1
  9
$PLINEGEN
 70
     0
  9
$PSLTSCALE
 70
     1
  9
$TREEDEPTH
 70
  3020
  9
$CMLSTYLE
  2
Standard
  9
$CMLJUST
 70
     0
  9
$CMLSCALE
 40
1.0
  9
$PROXYGRAPHICS
 70
     1
  9
$MEASUREMENT
 70
     0
  9
$CELWEIGHT
370
    18
  9
$ENDCAPS
280
     0
  9
$JOINSTYLE
280
     0
  9
$LWDISPLAY
290
     0
  9
$INSUNITS
 70
     1
  9
$HYPERLINKBASE
  1

  9
$STYLESHEET
  1

  9
$XEDIT
290
     1
  9
$CEPSNTYPE
380
     0
  9
$PSTYLEMODE
290
     1
  9
$FINGERPRINTGUID
  2
{9E281F0A-5622-4C38-B414-471CC4C8DE5D}
  9
$VERSIONGUID
  2
{1CE7949D-12C6-4AB0-90E1-2A8044D09285}
  9
$EXTNAMES
290
     1
  9
$PSVPSCALE
 40
0.0
  9
$OLESTARTUP
290
     0
  9
$SORTENTS
280
   127
  9
$INDEXCTL
280
     0
  9
$HIDETEXT
280
     1
  9
$XCLIPFRAME
280
     0
  9
$HALOGAP
280
     0
  9
$OBSCOLOR
 70
   257
  9
$OBSLTYPE
280
     0
  9
$INTERSECTIONDISPLAY
280
     0
  9
$INTERSECTIONCOLOR
 70
   257
  9
$DIMASSOC
280
     2
  9
$PROJECTNAME
  1

  9
$CAMERADISPLAY
290
     0
  9
$LENSLENGTH
 40
50.0
  9
$CAMERAHEIGHT
 40
0.0
  9
$STEPSPERSEC
 40
2.0
  9
$STEPSIZE
 40
6.0
  9
$3DDWFPREC
 40
2.0
  9
$PSOLWIDTH
 40
0.25
  9
$PSOLHEIGHT
 40
4.0
  9
$LOFTANG1
 40
1.570796326794896
  9
$LOFTANG2
 40
1.570796326794896
  9
$LOFTMAG1
 40
0.0
  9
$LOFTMAG2
 40
0.0
  9
$LOFTPARAM
 70
     7
  9
$LOFTNORMALS
280
     1
  9
$LATITUDE
 40
37.795
  9
$LONGITUDE
 40
-122.394
  9
$NORTHDIRECTION
 40
0.0
  9
$TIMEZONE
 70
 -8000
  9
$LIGHTGLYPHDISPLAY
280
     1
  9
$TILEMODELIGHTSYNCH
280
     1
  9
$CMATERIAL
347
44
  9
$SOLIDHIST
280
     0
  9
$SHOWHIST
280
     1
  9
$DWFFRAME
280
     2
  9
$DGNFRAME
280
     0
  9
$REALWORLDSCALE
290
     1
  9
$INTERFERECOLOR
 62
     1
  9
$INTERFEREOBJVS
345
33
  9
$INTERFEREVPVS
346
30
  9
$CSHADOW
280
     0
  9
$SHADOWPLANELOCATION
 40
0.0
  0
ENDSEC
  0
SECTION
  2
CLASSES
  0
CLASS
  1
ACDBDICTIONARYWDFLT
  2
AcDbDictionaryWithDefault
  3
ObjectDBX Classes
 90
        0
 91
        1
280
     0
281
     0
  0
CLASS
  1
VISUALSTYLE
  2
AcDbVisualStyle
  3
ObjectDBX Classes
 90
     4095
 91
       24
280
     0
281
     0
  0
CLASS
  1
MATERIAL
  2
AcDbMaterial
  3
ObjectDBX Classes
 90
     1153
 91
        3
280
     0
281
     0
  0
CLASS
  1
SCALE
  2
AcDbScale
  3
ObjectDBX Classes
 90
     1153
 91
       33
280
     0
281
     0
  0
CLASS
  1
SUN
  2
AcDbSun
  3
SCENEOE
 90
     1153
 91
        1
280
     0
281
     0
  0
CLASS
  1
DICTIONARYVAR
  2
AcDbDictionaryVar
  3
ObjectDBX Classes
 90
        0
 91
       13
280
     0
281
     0
  0
CLASS
  1
TABLESTYLE
  2
AcDbTableStyle
  3
ObjectDBX Classes
 90
     4095
 91
        1
280
     0
281
     0
  0
CLASS
  1
MLEADERSTYLE
  2
AcDbMLeaderStyle
  3
ACDB_MLEADERSTYLE_CLASS
 90
     4095
 91
        1
280
     0
281
     0
  0
CLASS
  1
CELLSTYLEMAP
  2
AcDbCellStyleMap
  3
ObjectDBX Classes
 90
     1152
 91
        1
280
     0
281
     0
  0
ENDSEC
  0
SECTION
  2
TABLES
  0
TABLE
  2
VPORT
  5
8
102
{ACAD_XDICTIONARY
360
72A
102
}
330
0
100
AcDbSymbolTable
 70
    17
  0
VPORT
  5
29
330
8
100
AcDbSymbolTableRecord
100
AcDbViewportTableRecord
  2
DUMMY
 70
     0
 10
0.0
 20
0.0
 11
1.0
 21
1.0
 12
10.42990654205607
 22
4.5
 13
0.0
 23
0.0
 14
0.5
 24
0.5
 15
0.5
 25
0.5
 16
0.0
 26
0.0
 36
1.0
 17
0.0
 27
0.0
 37
0.0
 40
9.0
 41
1.972972972850328
 42
50.0
 43
0.0
 44
0.0
 50
0.0
 51
0.0
 71
     0
 72
   100
 73
     1
 74
     3
 75
     0
 76
     0
 77
     0
 78
     0
281
     0
 65
     1
110
0.0
120
0.0
130
0.0
111
1.0
121
0.0
131
0.0
112
0.0
122
1.0
132
0.0
 79
     0
146
0.0
348
2F
 60
     3
 61
     5
292
     1
282
     1
141
0.0
142
0.0
 63
   250
421
  3355443
361
69
  0
VPORT
  5
6B2
330
8
100
AcDbSymbolTableRecord
100
AcDbViewportTableRecord
  2
*ACTIVE
 70
     0
 10
0.0
 20
0.0
 11
1.0
 21
1.0
 12
1.580315976074436
 22
1.393603836722714
 13
0.0
 23
0.0
 14
0.5
 24
0.5
 15
0.5
 25
0.5
 16
0.0
 26
0.0
 36
1.0
 17
0.0
 27
0.0
 37
0.0
 40
9.611835629921259
 41
1.847384562047324
 42
50.0
 43
7.73520642127343
 44
-7.73520642127343
 50
0.0
 51
0.0
 71
     0
 72
   100
 73
     1
 74
     3
 75
     0
 76
     0
 77
     0
 78
     0
281
     0
 65
     1
110
0.0
120
0.0
130
0.0
111
1.0
121
0.0
131
0.0
112
0.0
122
1.0
132
0.0
 79
     0
146
0.0
348
2F
 60
     3
 61
     5
292
     1
282
     1
141
0.0
142
0.0
 63
   250
421
  3355443
  0
VPORT
  5
6B3
330
8
100
AcDbSymbolTableRecord
100
AcDbViewportTableRecord
  2
L1
 70
     0
 10
0.0
 20
0.0
 11
1.0
 21
1.0
 12
1.580315976074436
 22
1.393603836722714
 13
0.0
 23
0.0
 14
0.5
 24
0.5
 15
0.5
 25
0.5
 16
0.0
 26
0.0
 36
1.0
 17
0.0
 27
0.0
 37
0.0
 40
9.611835629921259
 41
1.847384562047324
 42
50.0
 43
7.73520642127343
 44
-7.73520642127343
 50
0.0
 51
0.0
 71
     0
 72
   100
 73
     1
 74
     3
 75
     0
 76
     0
 77
     0
 78
     0
281
     0
 65
     1
110
0.0
120
0.0
130
0.0
111
1.0
121
0.0
131
0.0
112
0.0
122
1.0
132
0.0
 79
     0
146
0.0
348
2F
 60
     3
 61
     5
292
     1
282
     1
141
0.0
142
0.0
 63
   250
421
  3355443
  0
VPORT
  5
6B4
330
8
100
AcDbSymbolTableRecord
100
AcDbViewportTableRecord
  2
L2
 70
     0
 10
0.0
 20
0.0
 11
0.5
 21
1.0
 12
0.0
 22
0.0
 13
0.0
 23
0.0
 14
0.5
 24
0.5
 15
0.5
 25
0.5
 16
0.0
 26
-1.0
 36
0.0
 17
0.0
 27
0.0
 37
0.0
 40
60.81899256816211
 41
0.2919607182863527
 42
50.0
 43
31.32558665535711
 44
-31.32558665535711
 50
0.0
 51
0.0
 71
     0
 72
   100
 73
     1
 74
     3
 75
     0
 76
     0
 77
     0
 78
     0
281
     0
 65
     1
110
0.0
120
0.0
130
0.0
111
1.0
121
0.0
131
0.0
112
0.0
122
1.0
132
0.0
 79
     0
146
0.0
348
2F
 60
     3
 61
     5
292
     1
282
     1
141
0.0
142
0.0
 63
   250
421
  3355443
  0
VPORT
  5
6B5
330
8
100
AcDbSymbolTableRecord
100
AcDbViewportTableRecord
  2
L2
 70
     0
 10
0.5
 20
0.0
 11
1.0
 21
1.0
 12
0.0
 22
0.0
 13
0.0
 23
0.0
 14
0.5
 24
0.5
 15
0.5
 25
0.5
 16
1.0
 26
0.0
 36
0.0
 17
0.0
 27
0.0
 37
0.0
 40
60.81899256816211
 41
0.2919607182863527
 42
50.0
 43
30.78691784339082
 44
-30.78691784339082
 50
0.0
 51
0.0
 71
     0
 72
   100
 73
     1
 74
     3
 75
     0
 76
     0
 77
     0
 78
     0
281
     0
 65
     1
110
0.0
120
0.0
130
0.0
111
1.0
121
0.0
131
0.0
112
0.0
122
1.0
132
0.0
 79
     0
146
0.0
348
2F
 60
     3
 61
     5
292
     1
282
     1
141
0.0
142
0.0
 63
   250
421
  3355443
  0
VPORT
  5
6B6
330
8
100
AcDbSymbolTableRecord
100
AcDbViewportTableRecord
  2
L3
 70
     0
 10
0.0
 20
0.5
 11
1.0
 21
1.0
 12
1.580315976074436
 22
1.393603836722714
 13
0.0
 23
0.0
 14
0.5
 24
0.5
 15
0.5
 25
0.5
 16
0.0
 26
0.0
 36
1.0
 17
0.0
 27
0.0
 37
0.0
 40
9.611835629921259
 41
1.847384562047324
 42
50.0
 43
7.73520642127343
 44
-7.73520642127343
 50
0.0
 51
0.0
 71
     0
 72
   100
 73
     1
 74
     3
 75
     0
 76
     0
 77
     0
 78
     0
281
     0
 65
     1
110
0.0
120
0.0
130
0.0
111
1.0
121
0.0
131
0.0
112
0.0
122
1.0
132
0.0
 79
     0
146
0.0
348
2F
 60
     3
 61
     5
292
     1
282
     1
141
0.0
142
0.0
 63
   250
421
  3355443
  0
VPORT
  5
6B7
330
8
100
AcDbSymbolTableRecord
100
AcDbViewportTableRecord
  2
L3
 70
     0
 10
0.0
 20
0.0
 11
1.0
 21
0.5
 12
0.0
 22
0.0
 13
0.0
 23
0.0
 14
0.5
 24
0.5
 15
0.5
 25
0.5
 16
0.0
 26
-1.0
 36
0.0
 17
0.0
 27
0.0
 37
0.0
 40
60.81899256816211
 41
0.2919607182863527
 42
50.0
 43
31.32558665535711
 44
-31.32558665535711
 50
0.0
 51
0.0
 71
     0
 72
   100
 73
     1
 74
     3
 75
     0
 76
     0
 77
     0
 78
     0
281
     0
 65
     1
110
0.0
120
0.0
130
0.0
111
1.0
121
0.0
131
0.0
112
0.0
122
1.0
132
0.0
 79
     0
146
0.0
348
2F
 60
     3
 61
     5
292
     1
282
     1
141
0.0
142
0.0
 63
   250
421
  3355443
  0
VPORT
  5
6B8
330
8
100
AcDbSymbolTableRecord
100
AcDbViewportTableRecord
  2
L4
 70
     0
 10
0.0
 20
0.5
 11
0.5
 21
1.0
 12
1.580315976074436
 22
1.393603836722714
 13
0.0
 23
0.0
 14
0.5
 24
0.5
 15
0.5
 25
0.5
 16
0.0
 26
0.0
 36
1.0
 17
0.0
 27
0.0
 37
0.0
 40
9.611835629921259
 41
1.847384562047324
 42
50.0
 43
7.73520642127343
 44
-7.73520642127343
 50
0.0
 51
0.0
 71
     0
 72
   100
 73
     1
 74
     3
 75
     0
 76
     0
 77
     0
 78
     0
281
     0
 65
     1
110
0.0
120
0.0
130
0.0
111
1.0
121
0.0
131
0.0
112
0.0
122
1.0
132
0.0
 79
     0
146
0.0
348
2F
 60
     3
 61
     5
292
     1
282
     1
141
0.0
142
0.0
 63
   250
421
  3355443
  0
VPORT
  5
6B9
330
8
100
AcDbSymbolTableRecord
100
AcDbViewportTableRecord
  2
L4
 70
     0
 10
0.0
 20
0.0
 11
0.5
 21
0.5
 12
0.0
 22
0.0
 13
0.0
 23
0.0
 14
0.5
 24
0.5
 15
0.5
 25
0.5
 16
0.0
 26
-1.0
 36
0.0
 17
0.0
 27
0.0
 37
0.0
 40
60.81899256816211
 41
0.2919607182863527
 42
50.0
 43
31.32558665535711
 44
-31.32558665535711
 50
0.0
 51
0.0
 71
     0
 72
   100
 73
     1
 74
     3
 75
     0
 76
     0
 77
     0
 78
     0
281
     0
 65
     1
110
0.0
120
0.0
130
0.0
111
1.0
121
0.0
131
0.0
112
0.0
122
1.0
132
0.0
 79
     0
146
0.0
348
2F
 60
     3
 61
     5
292
     1
282
     1
141
0.0
142
0.0
 63
   250
421
  3355443
  0
VPORT
  5
6BA
330
8
100
AcDbSymbolTableRecord
100
AcDbViewportTableRecord
  2
L4
 70
     0
 10
0.5
 20
0.0
 11
1.0
 21
0.5
 12
0.0
 22
0.0
 13
0.0
 23
0.0
 14
0.5
 24
0.5
 15
0.5
 25
0.5
 16
1.0
 26
0.0
 36
0.0
 17
0.0
 27
0.0
 37
0.0
 40
60.81899256816211
 41
0.2919607182863527
 42
50.0
 43
30.78691784339082
 44
-30.78691784339082
 50
0.0
 51
0.0
 71
     0
 72
   100
 73
     1
 74
     3
 75
     0
 76
     0
 77
     0
 78
     0
281
     0
 65
     1
110
0.0
120
0.0
130
0.0
111
1.0
121
0.0
131
0.0
112
0.0
122
1.0
132
0.0
 79
     0
146
0.0
348
2F
 60
     3
 61
     5
292
     1
282
     1
141
0.0
142
0.0
 63
   250
421
  3355443
  0
VPORT
  5
6BB
330
8
100
AcDbSymbolTableRecord
100
AcDbViewportTableRecord
  2
L4
 70
     0
 10
0.5
 20
0.5
 11
1.0
 21
1.0
 12
0.0
 22
0.0
 13
0.0
 23
0.0
 14
0.5
 24
0.5
 15
0.5
 25
0.5
 16
0.5773502691896259
 26
-0.5773502691896259
 36
0.5773502691896259
 17
0.0
 27
0.0
 37
0.0
 40
59.7228143497866
 41
0.297319490867503
 42
50.0
 43
31.10741814587184
 44
-31.10741814587184
 50
0.0
 51
0.0
 71
     0
 72
   100
 73
     1
 74
     3
 75
     0
 76
     0
 77
     0
 78
     0
281
     0
 65
     1
110
0.0
120
0.0
130
0.0
111
1.0
121
0.0
131
0.0
112
0.0
122
1.0
132
0.0
 79
     0
146
0.0
348
2F
 60
     3
 61
     5
292
     1
282
     1
141
0.0
142
0.0
 63
   250
421
  3355443
  0
VPORT
  5
6BC
330
8
100
AcDbSymbolTableRecord
100
AcDbViewportTableRecord
  2
L6
 70
     0
 10
0.0
 20
0.5
 11
0.3333333333333334
 21
1.0
 12
0.0
 22
0.0
 13
0.0
 23
0.0
 14
0.5
 24
0.5
 15
0.5
 25
0.5
 16
0.7188730927569435
 26
-0.5850486126764432
 36
0.3754192287502549
 17
0.0
 27
0.0
 37
0.0
 40
63.02760314763449
 41
0.2817298432570872
 42
50.0
 43
32.63335673688484
 44
-32.63335673688484
 50
0.0
 51
0.0
 71
     0
 72
   100
 73
     1
 74
     3
 75
     0
 76
     0
 77
     0
 78
     0
281
     0
 65
     1
110
0.0
120
0.0
130
0.0
111
1.0
121
0.0
131
0.0
112
0.0
122
1.0
132
0.0
 79
     0
146
0.0
348
2F
 60
     3
 61
     5
292
     1
282
     1
141
0.0
142
0.0
 63
   250
421
  3355443
  0
VPORT
  5
6BD
330
8
100
AcDbSymbolTableRecord
100
AcDbViewportTableRecord
  2
L6
 70
     0
 10
0.0
 20
0.0
 11
0.3333333333333334
 21
0.5
 12
0.0
 22
0.0
 13
0.0
 23
0.0
 14
0.5
 24
0.5
 15
0.5
 25
0.5
 16
-1.0
 26
0.0
 36
0.0
 17
0.0
 27
0.0
 37
0.0
 40
60.81899256816211
 41
0.2919607182863527
 42
50.0
 43
30.78691784339082
 44
-30.78691784339082
 50
0.0
 51
0.0
 71
     0
 72
   100
 73
     1
 74
     3
 75
     0
 76
     0
 77
     0
 78
     0
281
     0
 65
     1
110
0.0
120
0.0
130
0.0
111
1.0
121
0.0
131
0.0
112
0.0
122
1.0
132
0.0
 79
     0
146
0.0
348
2F
 60
     3
 61
     5
292
     1
282
     1
141
0.0
142
0.0
 63
   250
421
  3355443
  0
VPORT
  5
6BE
330
8
100
AcDbSymbolTableRecord
100
AcDbViewportTableRecord
  2
L6
 70
     0
 10
0.3333333333333334
 20
0.5
 11
0.6666666666666666
 21
1.0
 12
1.580315976074436
 22
1.393603836722714
 13
0.0
 23
0.0
 14
0.5
 24
0.5
 15
0.5
 25
0.5
 16
0.0
 26
0.0
 36
1.0
 17
0.0
 27
0.0
 37
0.0
 40
9.611835629921259
 41
1.847384562047324
 42
50.0
 43
7.73520642127343
 44
-7.73520642127343
 50
0.0
 51
0.0
 71
     0
 72
   100
 73
     1
 74
     3
 75
     0
 76
     0
 77
     0
 78
     0
281
     0
 65
     1
110
0.0
120
0.0
130
0.0
111
1.0
121
0.0
131
0.0
112
0.0
122
1.0
132
0.0
 79
     0
146
0.0
348
2F
 60
     3
 61
     5
292
     1
282
     1
141
0.0
142
0.0
 63
   250
421
  3355443
  0
VPORT
  5
6BF
330
8
100
AcDbSymbolTableRecord
100
AcDbViewportTableRecord
  2
L6
 70
     0
 10
0.3333333333333334
 20
0.0
 11
0.6666666666666666
 21
0.5
 12
0.0
 22
0.0
 13
0.0
 23
0.0
 14
0.5
 24
0.5
 15
0.5
 25
0.5
 16
0.0
 26
-1.0
 36
0.0
 17
0.0
 27
0.0
 37
0.0
 40
60.81899256816211
 41
0.2919607182863527
 42
50.0
 43
31.32558665535711
 44
-31.32558665535711
 50
0.0
 51
0.0
 71
     0
 72
   100
 73
     1
 74
     3
 75
     0
 76
     0
 77
     0
 78
     0
281
     0
 65
     1
110
0.0
120
0.0
130
0.0
111
1.0
121
0.0
131
0.0
112
0.0
122
1.0
132
0.0
 79
     0
146
0.0
348
2F
 60
     3
 61
     5
292
     1
282
     1
141
0.0
142
0.0
 63
   250
421
  3355443
  0
VPORT
  5
6C0
330
8
100
AcDbSymbolTableRecord
100
AcDbViewportTableRecord
  2
L6
 70
     0
 10
0.6666666666666666
 20
0.5
 11
1.0
 21
1.0
 12
0.0
 22
0.0
 13
0.0
 23
0.0
 14
0.5
 24
0.5
 15
0.5
 25
0.5
 16
0.5773502691896259
 26
-0.5773502691896259
 36
0.5773502691896259
 17
0.0
 27
0.0
 37
0.0
 40
59.7228143497866
 41
0.297319490867503
 42
50.0
 43
31.10741814587184
 44
-31.10741814587184
 50
0.0
 51
0.0
 71
     0
 72
   100
 73
     1
 74
     3
 75
     0
 76
     0
 77
     0
 78
     0
281
     0
 65
     1
110
0.0
120
0.0
130
0.0
111
1.0
121
0.0
131
0.0
112
0.0
122
1.0
132
0.0
 79
     0
146
0.0
348
2F
 60
     3
 61
     5
292
     1
282
     1
141
0.0
142
0.0
 63
   250
421
  3355443
  0
VPORT
  5
6C1
330
8
100
AcDbSymbolTableRecord
100
AcDbViewportTableRecord
  2
L6
 70
     0
 10
0.6666666666666666
 20
0.0
 11
1.0
 21
0.5
 12
0.0
 22
0.0
 13
0.0
 23
0.0
 14
0.5
 24
0.5
 15
0.5
 25
0.5
 16
1.0
 26
0.0
 36
0.0
 17
0.0
 27
0.0
 37
0.0
 40
60.81899256816211
 41
0.2919607182863527
 42
50.0
 43
30.78691784339082
 44
-30.78691784339082
 50
0.0
 51
0.0
 71
     0
 72
   100
 73
     1
 74
     3
 75
     0
 76
     0
 77
     0
 78
     0
281
     0
 65
     1
110
0.0
120
0.0
130
0.0
111
1.0
121
0.0
131
0.0
112
0.0
122
1.0
132
0.0
 79
     0
146
0.0
348
2F
 60
     3
 61
     5
292
     1
282
     1
141
0.0
142
0.0
 63
   250
421
  3355443
  0
ENDTAB
  0
TABLE
  2
LTYPE
  5
5
330
0
100
AcDbSymbolTable
 70
    21
  0
LTYPE
  5
14
330
5
100
AcDbSymbolTableRecord
100
AcDbLinetypeTableRecord
  2
BYBLOCK
 70
     0
  3

 72
    65
 73
     0
 40
0.0
  0
LTYPE
  5
15
330
5
100
AcDbSymbolTableRecord
100
AcDbLinetypeTableRecord
  2
BYLAYER
 70
     0
  3

 72
    65
 73
     0
 40
0.0
  0
LTYPE
  5
16
330
5
100
AcDbSymbolTableRecord
100
AcDbLinetypeTableRecord
  2
CONTINUOUS
 70
     0
  3
Solid line
 72
    65
 73
     0
 40
0.0
  0
LTYPE
  5
6C
330
5
100
AcDbSymbolTableRecord
100
AcDbLinetypeTableRecord
  2
CENTER
 70
     0
  3
____ _ ____ _ ____ _ ____
 72
    65
 73
     4
 40
47.4
 49
22.0
 74
     4
 75
     0
340
0
 46
0.0
 50
0.0
 44
0.0
 45
0.0
 49
-8.5
 74
     4
 75
     0
340
0
 46
0.0
 50
0.0
 44
0.0
 45
0.0
 49
8.5
 74
     4
 75
     0
340
0
 46
0.0
 50
0.0
 44
0.0
 45
0.0
 49
-8.5
 74
     4
 75
     0
340
0
 46
0.0
 50
0.0
 44
0.0
 45
0.0
  0
LTYPE
  5
6D
330
5
100
AcDbSymbolTableRecord
100
AcDbLinetypeTableRecord
  2
DASHDOT
 70
     0
  3
_._._._._._._._._._._._._._._._.
 72
    65
 73
     4
 40
70.0
 49
31.0
 74
     4
 75
     0
340
0
 46
0.0
 50
0.0
 44
0.0
 45
0.0
 49
-13.0
 74
     4
 75
     0
340
0
 46
0.0
 50
0.0
 44
0.0
 45
0.0
 49
13.0
 74
     4
 75
     0
340
0
 46
0.0
 50
0.0
 44
0.0
 45
0.0
 49
-13.0
 74
     4
 75
     0
340
0
 46
0.0
 50
0.0
 44
0.0
 45
0.0
  0
LTYPE
  5
6E
330
5
100
AcDbSymbolTableRecord
100
AcDbLinetypeTableRecord
  2
DASHED
 70
     0
  3
__ __ __ __ __ __ __ __ __
 72
    65
 73
     2
 40
25.72
 49
12.86
 74
     4
 75
     0
340
0
 46
0.0
 50
0.0
 44
0.0
 45
0.0
 49
-12.86
 74
     4
 75
     0
340
0
 46
0.0
 50
0.0
 44
0.0
 45
0.0
  0
LTYPE
  5
6F
330
5
100
AcDbSymbolTableRecord
100
AcDbLinetypeTableRecord
  2
DOT
 70
     0
  3
.........................
 72
    65
 73
     2
 40
10.0
 49
0.0
 74
     4
 75
     0
340
0
 46
0.0
 50
0.0
 44
0.0
 45
0.0
 49
-10.0
 74
     4
 75
     0
340
0
 46
0.0
 50
0.0
 44
0.0
 45
0.0
  0
LTYPE
  5
70
330
5
100
AcDbSymbolTableRecord
100
AcDbLinetypeTableRecord
  2
PHANTOM
 70
     0
  3
____ _ _ ____ _ _ _____ _ _ ____
 72
    65
 73
     6
 40
50.5
 49
18.0
 74
     4
 75
     0
340
0
 46
0.0
 50
0.0
 44
0.0
 45
0.0
 49
-6.5
 74
     4
 75
     0
340
0
 46
0.0
 50
0.0
 44
0.0
 45
0.0
 49
6.5
 74
     4
 75
     0
340
0
 46
0.0
 50
0.0
 44
0.0
 45
0.0
 49
-6.5
 74
     4
 75
     0
340
0
 46
0.0
 50
0.0
 44
0.0
 45
0.0
 49
6.5
 74
     4
 75
     0
340
0
 46
0.0
 50
0.0
 44
0.0
 45
0.0
 49
-6.5
 74
     4
 75
     0
340
0
 46
0.0
 50
0.0
 44
0.0
 45
0.0
  0
ENDTAB
  0
TABLE
  2
LAYER
  5
2
330
0
100
AcDbSymbolTable
 70
    10
  0
LAYER
  5
10
330
2
100
AcDbSymbolTableRecord
100
AcDbLayerTableRecord
  2
0
 70
     0
 62
     7
  6
CONTINUOUS
370
    -3
390
F
347
46
  0
LAYER
  5
71
330
2
100
AcDbSymbolTableRecord
100
AcDbLayerTableRecord
  2
TOP$7
 70
     0
 62
     7
420
 16777215
  6
CONTINUOUS
370
    -3
390
F
347
46
  0
LAYER
  5
72
330
2
100
AcDbSymbolTableRecord
100
AcDbLayerTableRecord
  2
ORTHO$8
 70
     0
 62
     7
420
 16777215
  6
CONTINUOUS
370
    -3
390
F
347
46
  0
LAYER
  5
73
330
2
100
AcDbSymbolTableRecord
100
AcDbLayerTableRecord
  2
TFR-TRI$11
 70
     0
 62
     7
420
 16777215
  6
CONTINUOUS
370
    -3
390
F
347
46
  0
LAYER
  5
74
330
2
100
AcDbSymbolTableRecord
100
AcDbLayerTableRecord
  2
1
 70
     0
 62
     7
420
 16777215
  6
CONTINUOUS
370
    -3
390
F
347
46
  0
LAYER
  5
6C6
330
2
100
AcDbSymbolTableRecord
100
AcDbLayerTableRecord
  2
XREF001I$
 70
     0
 62
     7
420
 16777215
  6
CONTINUOUS
370
    -3
390
F
347
46
  0
LAYER
  5
774
330
2
100
AcDbSymbolTableRecord
100
AcDbLayerTableRecord
  2
M00741FJ_MODEL|1
 70
    48
 62
     7
420
 16777215
  6
CONTINUOUS
370
    -3
390
F
347
46
  0
LAYER
  5
775
330
2
100
AcDbSymbolTableRecord
100
AcDbLayerTableRecord
  2
M00741FJ_MODEL|XREF001I$
 70
    48
 62
     7
420
 16777215
  6
CONTINUOUS
370
    -3
390
F
347
46
  0
LAYER
  5
776
330
2
100
AcDbSymbolTableRecord
100
AcDbLayerTableRecord
  2
D35233BA_MODEL|1
 70
    48
 62
     7
420
 16777215
  6
CONTINUOUS
370
    -3
390
F
347
46
  0
LAYER
  5
777
330
2
100
AcDbSymbolTableRecord
100
AcDbLayerTableRecord
  2
M02201BC_MODEL|1
 70
    48
 62
     7
420
 16777215
  6
CONTINUOUS
370
    -3
390
F
347
46
  0
ENDTAB
  0
TABLE
  2
STYLE
  5
3
330
0
100
AcDbSymbolTable
 70
     8
  0
STYLE
  5
11
330
3
100
AcDbSymbolTableRecord
100
AcDbTextStyleTableRecord
  2
Standard
 70
     0
 40
0.0
 41
1.0
 50
0.0
 71
     0
 42
0.2
  3
txt
  4

  0
STYLE
  5
646
330
3
100
AcDbSymbolTableRecord
100
AcDbTextStyleTableRecord
  2
blockfont
 70
     0
 40
0.0
 41
1.0
 50
0.0
 71
     0
 42
0.2
  3
simplex.shx
  4

  0
STYLE
  5
647
330
3
100
AcDbSymbolTableRecord
100
AcDbTextStyleTableRecord
  2
DWGDirectTextStyle
 70
     0
 40
0.0
 41
1.0
 50
0.0
 71
     0
 42
0.2
  3
simplex
  4

  0
STYLE
  5
664
330
3
100
AcDbSymbolTableRecord
100
AcDbTextStyleTableRecord
  2
blackfont
 70
     0
 40
0.0
 41
1.0
 50
0.0
 71
     0
 42
0.2
  3
simplex.shx
  4

  0
STYLE
  5
66D
330
3
100
AcDbSymbolTableRecord
100
AcDbTextStyleTableRecord
  2
helios
 70
     0
 40
0.0
 41
1.0
 50
0.0
 71
     0
 42
0.2
  3
Monospac821 BT
  4

1001
ACAD
1000
Monospac821 BT
1071
        0
  0
ENDTAB
  0
TABLE
  2
VIEW
  5
6
330
0
100
AcDbSymbolTable
 70
     8
  0
VIEW
  5
75
330
6
100
AcDbSymbolTableRecord
100
AcDbViewTableRecord
  2
Top
 70
     0
 40
9.611835629921259
 10
0.0
 20
0.0
 41
15.04060039370078
 11
0.0
 21
0.0
 31
1.0
 12
0.0
 22
0.0
 32
0.0
 42
50.0
 43
30.40949628408106
 44
-30.40949628408106
 50
0.0
 71
     0
281
     0
 72
     0
 73
     0
348
2F
  0
VIEW
  5
76
330
6
100
AcDbSymbolTableRecord
100
AcDbViewTableRecord
  2
Front
 70
     0
 40
60.81899256816211
 10
0.0
 20
0.0
 41
15.04060039370078
 11
0.0
 21
-1.0
 31
0.0
 12
0.0
 22
0.0
 32
0.0
 42
50.0
 43
31.32558665535711
 44
-31.32558665535711
 50
0.0
 71
     0
281
     0
 72
     0
 73
     0
348
2F
  0
VIEW
  5
77
330
6
100
AcDbSymbolTableRecord
100
AcDbViewTableRecord
  2
Right
 70
     0
 40
60.81899256816211
 10
0.0
 20
0.0
 41
9.611835629921259
 11
1.0
 21
0.0
 31
0.0
 12
0.0
 22
0.0
 32
0.0
 42
50.0
 43
30.78691784339082
 44
-30.78691784339082
 50
0.0
 71
     0
281
     0
 72
     0
 73
     0
348
2F
  0
VIEW
  5
78
330
6
100
AcDbSymbolTableRecord
100
AcDbViewTableRecord
  2
Back
 70
     0
 40
60.81899256816211
 10
0.0
 20
0.0
 41
15.04060039370078
 11
0.0
 21
1.0
 31
0.0
 12
0.0
 22
0.0
 32
0.0
 42
50.0
 43
31.32558665535711
 44
-31.32558665535711
 50
0.0
 71
     0
281
     0
 72
     0
 73
     0
348
2F
  0
VIEW
  5
79
330
6
100
AcDbSymbolTableRecord
100
AcDbViewTableRecord
  2
Bottom
 70
     0
 40
9.611835629921259
 10
0.0
 20
0.0
 41
15.04060039370078
 11
0.0
 21
0.0
 31
-1.0
 12
0.0
 22
0.0
 32
0.0
 42
50.0
 43
30.40949628408106
 44
-30.40949628408106
 50
180.0
 71
     0
281
     0
 72
     0
 73
     0
348
2F
  0
VIEW
  5
7A
330
6
100
AcDbSymbolTableRecord
100
AcDbViewTableRecord
  2
Left
 70
     0
 40
60.81899256816211
 10
0.0
 20
0.0
 41
9.611835629921259
 11
-1.0
 21
0.0
 31
0.0
 12
0.0
 22
0.0
 32
0.0
 42
50.0
 43
30.78691784339082
 44
-30.78691784339082
 50
0.0
 71
     0
281
     0
 72
     0
 73
     0
348
2F
  0
VIEW
  5
7B
330
6
100
AcDbSymbolTableRecord
100
AcDbViewTableRecord
  2
Isometric
 70
     0
 40
59.7228143497866
 10
0.0
 20
0.0
 41
17.43190468507068
 11
0.5773502691896259
 21
-0.5773502691896259
 31
0.5773502691896259
 12
0.0
 22
0.0
 32
0.0
 42
50.0
 43
31.10741814587184
 44
-31.10741814587184
 50
0.0
 71
     0
281
     0
 72
     0
 73
     0
348
2F
  0
VIEW
  5
7C
330
6
100
AcDbSymbolTableRecord
100
AcDbViewTableRecord
  2
Trimetric
 70
     0
 40
63.02760314763449
 10
0.0
 20
0.0
 41
16.94889757864634
 11
0.7188730927569435
 21
-0.5850486126764432
 31
0.3754192287502549
 12
0.0
 22
0.0
 32
0.0
 42
50.0
 43
32.63335673688484
 44
-32.63335673688484
 50
0.0
 71
     0
281
     0
 72
     0
 73
     0
348
2F
  0
ENDTAB
  0
TABLE
  2
UCS
  5
7
330
0
100
AcDbSymbolTable
 70
     0
  0
ENDTAB
  0
TABLE
  2
APPID
  5
9
330
0
100
AcDbSymbolTable
 70
     1
  0
APPID
  5
12
330
9
100
AcDbSymbolTableRecord
100
AcDbRegAppTableRecord
  2
ACAD
 70
     0
  0
ENDTAB
  0
TABLE
  2
DIMSTYLE
  5
A
330
0
100
AcDbSymbolTable
 70
     4
100
AcDbDimStyleTable
 71
     0
  0
DIMSTYLE
105
27
330
A
100
AcDbSymbolTableRecord
100
AcDbDimStyleTableRecord
  2
Standard
 70
     0
340
11
  0
ENDTAB
  0
TABLE
  2
BLOCK_RECORD
  5
1
330
0
100
AcDbSymbolTable
 70
     3
  0
BLOCK_RECORD
  5
1F
330
1
100
AcDbSymbolTableRecord
100
AcDbBlockTableRecord
  2
*Model_Space
340
22
 70
     0
280
     1
281
     0
  0
BLOCK_RECORD
  5
7D
330
1
100
AcDbSymbolTableRecord
100
AcDbBlockTableRecord
  2
*PAPER_SPACE
340
6B0
 70
     0
280
     1
281
     0
  0
BLOCK_RECORD
  5
6C2
330
1
100
AcDbSymbolTableRecord
100
AcDbBlockTableRecord
  2
M00741FJ_MODEL
340
0
102
{BLKREFS
331
6C5
332
76E
332
771
102
}
 70
     0
280
     1
281
     0
  0
BLOCK_RECORD
  5
76E
330
1
100
AcDbSymbolTableRecord
100
AcDbBlockTableRecord
  2
D35233BA_MODEL
340
0
 70
     0
280
     1
281
     0
  0
BLOCK_RECORD
  5
771
330
1
100
AcDbSymbolTableRecord
100
AcDbBlockTableRecord
  2
M02201BC_MODEL
340
0
 70
     0
280
     1
281
     0
  0
ENDTAB
  0
ENDSEC
  0
SECTION
  2
BLOCKS
  0
BLOCK
  5
20
330
1F
100
AcDbEntity
  8
0
100
AcDbBlockBegin
  2
*Model_Space
 70
     0
 10
0.0
 20
0.0
 30
0.0
  3
*Model_Space
  1

  0
ENDBLK
  5
21
330
1F
100
AcDbEntity
  8
0
100
AcDbBlockEnd
  0
BLOCK
  5
7E
330
7D
100
AcDbEntity
 67
     1
  8
0
100
AcDbBlockBegin
  2
*PAPER_SPACE
 70
     0
 10
0.0
 20
0.0
 30
0.0
  3
*PAPER_SPACE
  1

  0
ENDBLK
  5
7F
330
7D
100
AcDbEntity
 67
     1
  8
0
100
AcDbBlockEnd
  0
BLOCK
  5
6C3
330
6C2
100
AcDbEntity
  8
0
100
AcDbBlockBegin
  2
M00741FJ_MODEL
 70
    36
 10
0.0
 20
0.0
 30
0.0
  3
M00741FJ_MODEL
  1
M00741FJ_MODEL.dwg
  0
ENDBLK
  5
6C4
330
6C2
100
AcDbEntity
  8
0
100
AcDbBlockEnd
  0
BLOCK
  5
76F
330
76E
100
AcDbEntity
  8
0
370
    18
100
AcDbBlockBegin
  2
D35233BA_MODEL
 70
    36
 10
0.0
 20
0.0
 30
0.0
  3
D35233BA_MODEL
  1
D35233BA_MODEL.dwg
  0
ENDBLK
  5
770
330
76E
100
AcDbEntity
  8
0
370
    18
100
AcDbBlockEnd
  0
BLOCK
  5
772
330
771
100
AcDbEntity
  8
0
370
    18
100
AcDbBlockBegin
  2
M02201BC_MODEL
 70
    36
 10
0.0
 20
0.0
 30
0.0
  3
M02201BC_MODEL
  1
M02201BC_MODEL.dwg
  0
ENDBLK
  5
773
330
771
100
AcDbEntity
  8
0
370
    18
100
AcDbBlockEnd
  0
ENDSEC
  0
SECTION
  2
ENTITIES
  0
INSERT
  5
6C5
330
1F
100
AcDbEntity
  8
XREF001I$
  6
Continuous
 62
     3
370
    18
100
AcDbBlockReference
  2
M00741FJ_MODEL
 10
0.0
 20
0.0
 30
0.0
  0
VIEWPORT
  5
80
330
7D
100
AcDbEntity
 67
     1
  8
0
370
    18
100
AcDbViewport
 10
3.663757347692456
 20
5.269439718243011
 30
0.0
 40
9.054284764588658
 41
3.420380473293757
 68
     1
 69
     1
 12
3.663757347692456
 22
5.269439718243011
 13
0.0
 23
0.0
 14
1.0
 24
1.0
 15
1.0
 25
1.0
 16
0.0
 26
0.0
 36
1.0
 17
0.0
 27
0.0
 37
0.0
 42
44.34589800443459
 43
0.0
 44
0.0
 45
3.420380473293757
 50
0.0
 51
0.0
 72
   100
 90
   557152
  1

281
     0
 71
     1
 74
     0
110
0.0
120
0.0
130
0.0
111
1.0
121
0.0
131
0.0
112
0.0
122
1.0
132
0.0
 79
     0
146
0.0
170
     0
 61
     5
348
2F
292
     1
282
     1
141
0.0
142
0.0
 63
   250
421
  3355443
  0
LINE
  5
27C
330
7D
100
AcDbEntity
 67
     1
  8
1
  6
Continuous
 62
   163
370
    18
100
AcDbLine
 10
3.453733921051025
 20
4.85897159576416
 30
0.0
 11
3.454816102981567
 21
4.856805801391601
 31
0.0
  0
LINE
  5
27D
330
7D
100
AcDbEntity
 67
     1
  8
1
  6
Continuous
 62
   163
370
    18
100
AcDbLine
 10
3.453192949295043
 20
4.856805801391601
 30
0.0
 11
3.453733921051025
 21
4.85897159576416
 31
0.0
  0
LINE
  5
27E
330
7D
100
AcDbEntity
 67
     1
  8
1
  6
Continuous
 62
   163
370
    18
100
AcDbLine
 10
3.454816102981567
 20
4.856805801391601
 30
0.0
 11
3.453192949295043
 21
4.856805801391601
 31
0.0
  0
LINE
  5
27F
330
7D
100
AcDbEntity
 67
     1
  8
1
  6
Continuous
 62
   163
370
    18
100
AcDbLine
 10
1.893398523330688
 20
4.85897159576416
 30
0.0
 11
1.892316102981567
 21
4.856805801391601
 31
0.0
  0
LINE
  5
280
330
7D
100
AcDbEntity
 67
     1
  8
1
  6
Continuous
 62
   163
370
    18
100
AcDbLine
 10
1.893939495086669
 20
4.856805801391601
 30
0.0
 11
1.893398523330688
 21
4.85897159576416
 31
0.0
  0
LINE
  5
281
330
7D
100
AcDbEntity
 67
     1
  8
1
  6
Continuous
 62
   163
370
    18
100
AcDbLine
 10
1.893939495086669
 20
4.856805801391601
 30
0.0
 11
1.892316102981567
 21
4.856805801391601
 31
0.0
  0
LINE
  5
282
330
7D
100
AcDbEntity
 67
     1
  8
1
  6
Continuous
 62
   163
370
    18
100
AcDbLine
 10
3.32000994682312
 20
5.621628284454345
 30
0.0
 11
2.027122497558593
 21
5.621628284454345
 31
0.0
  0
LINE
  5
283
330
7D
100
AcDbEntity
 67
     1
  8
1
  6
Continuous
 62
   163
370
    18
100
AcDbLine
 10
3.409691333770751
 20
4.551670551300048
 30
0.0
 11
3.409691333770751
 21
5.494973182678222
 31
0.0
  0
LINE
  5
284
330
7D
100
AcDbEntity
 67
     1
  8
1
  6
Continuous
 62
   163
370
    18
100
AcDbLine
 10
2.027122497558593
 20
4.425015926361083
 30
0.0
 11
3.32000994682312
 21
4.425015926361083
 31
0.0
  0
LINE
  5
285
330
7D
100
AcDbEntity
 67
     1
  8
1
  6
Continuous
 62
   163
370
    18
100
AcDbLine
 10
3.409691333770751
 20
4.551670551300048
 30
0.0
 11
3.406664848327636
 21
4.518595695495605
 31
0.0
  0
LINE
  5
286
330
7D
100
AcDbEntity
 67
     1
  8
1
  6
Continuous
 62
   163
370
    18
100
AcDbLine
 10
3.406664848327636
 20
4.518595695495605
 30
0.0
 11
3.397782802581787
 21
4.48798656463623
 31
0.0
  0
LINE
  5
287
330
7D
100
AcDbEntity
 67
     1
  8
1
  6
Continuous
 62
   163
370
    18
100
AcDbLine
 10
3.397782802581787
 20
4.48798656463623
 30
0.0
 11
3.383622169494628
 21
4.461833000183105
 31
0.0
  0
LINE
  5
288
330
7D
100
AcDbEntity
 67
     1
  8
1
  6
Continuous
 62
   163
370
    18
100
AcDbLine
 10
3.383622169494628
 20
4.461833000183105
 30
0.0
 11
3.365103244781494
 21
4.441833972930908
 31
0.0
  0
LINE
  5
289
330
7D
100
AcDbEntity
 67
     1
  8
1
  6
Continuous
 62
   163
370
    18
100
AcDbLine
 10
3.365103244781494
 20
4.441833972930908
 30
0.0
 11
3.343429565429687
 21
4.429290294647216
 31
0.0
  0
LINE
  5
28A
330
7D
100
AcDbEntity
 67
     1
  8
1
  6
Continuous
 62
   163
370
    18
100
AcDbLine
 10
3.343429565429687
 20
4.429290294647216
 30
0.0
 11
3.32000994682312
 21
4.425015926361083
 31
0.0
  0
LINE
  5
28B
330
7D
100
AcDbEntity
 67
     1
  8
1
  6
Continuous
 62
   163
370
    18
100
AcDbLine
 10
3.32000994682312
 20
5.621628284454345
 30
0.0
 11
3.343429565429687
 21
5.617353916168212
 31
0.0
  0
LINE
  5
28C
330
7D
100
AcDbEntity
 67
     1
  8
1
  6
Continuous
 62
   163
370
    18
100
AcDbLine
 10
3.343429565429687
 20
5.617353916168212
 30
0.0
 11
3.365103244781494
 21
5.604810237884521
 31
0.0
  0
LINE
  5
28D
330
7D
100
AcDbEntity
 67
     1
  8
1
  6
Continuous
 62
   163
370
    18
100
AcDbLine
 10
3.365103244781494
 20
5.604810237884521
 30
0.0
 11
3.383622169494628
 21
5.584811210632324
 31
0.0
  0
LINE
  5
28E
330
7D
100
AcDbEntity
 67
     1
  8
1
  6
Continuous
 62
   163
370
    18
100
AcDbLine
 10
3.383622169494628
 20
5.584811210632324
 30
0.0
 11
3.397782802581787
 21
5.558657169342041
 31
0.0
  0
LINE
  5
28F
330
7D
100
AcDbEntity
 67
     1
  8
1
  6
Continuous
 62
   163
370
    18
100
AcDbLine
 10
3.397782802581787
 20
5.558657169342041
 30
0.0
 11
3.406664848327636
 21
5.528048515319824
 31
0.0
  0
LINE
  5
290
330
7D
100
AcDbEntity
 67
     1
  8
1
  6
Continuous
 62
   163
370
    18
100
AcDbLine
 10
3.406664848327636
 20
5.528048515319824
 30
0.0
 11
3.409691333770751
 21
5.494973182678222
 31
0.0
  0
LINE
  5
291
330
7D
100
AcDbEntity
 67
     1
  8
1
  6
Continuous
 62
   163
370
    18
100
AcDbLine
 10
1.893939495086669
 20
4.856805801391601
 30
0.0
 11
1.893939495086669
 21
5.189837932586669
 31
0.0
  0
LINE
  5
292
330
7D
100
AcDbEntity
 67
     1
  8
1
  6
Continuous
 62
   163
370
    18
100
AcDbLine
 10
2.027122497558593
 20
4.425015926361083
 30
0.0
 11
2.003702640533447
 21
4.429290294647216
 31
0.0
  0
LINE
  5
293
330
7D
100
AcDbEntity
 67
     1
  8
1
  6
Continuous
 62
   163
370
    18
100
AcDbLine
 10
2.003702640533447
 20
4.429290294647216
 30
0.0
 11
1.98202908039093
 21
4.441833972930908
 31
0.0
  0
LINE
  5
294
330
7D
100
AcDbEntity
 67
     1
  8
1
  6
Continuous
 62
   163
370
    18
100
AcDbLine
 10
1.98202908039093
 20
4.441833972930908
 30
0.0
 11
1.963510155677795
 21
4.461833000183105
 31
0.0
  0
LINE
  5
295
330
7D
100
AcDbEntity
 67
     1
  8
1
  6
Continuous
 62
   163
370
    18
100
AcDbLine
 10
1.963510155677795
 20
4.461833000183105
 30
0.0
 11
1.949349641799926
 21
4.48798656463623
 31
0.0
  0
LINE
  5
296
330
7D
100
AcDbEntity
 67
     1
  8
1
  6
Continuous
 62
   163
370
    18
100
AcDbLine
 10
1.949349641799926
 20
4.48798656463623
 30
0.0
 11
1.940467357635498
 21
4.518595695495605
 31
0.0
  0
LINE
  5
297
330
7D
100
AcDbEntity
 67
     1
  8
1
  6
Continuous
 62
   163
370
    18
100
AcDbLine
 10
1.940467357635498
 20
4.518595695495605
 30
0.0
 11
1.937441229820251
 21
4.551670551300048
 31
0.0
  0
LINE
  5
298
330
7D
100
AcDbEntity
 67
     1
  8
1
  6
Continuous
 62
   163
370
    18
100
AcDbLine
 10
1.892316102981567
 20
4.355821132659912
 30
0.0
 11
3.454816102981567
 21
4.355821132659912
 31
0.0
  0
LINE
  5
299
330
7D
100
AcDbEntity
 67
     1
  8
1
  6
Continuous
 62
   163
370
    18
100
AcDbLine
 10
1.937441229820251
 20
5.494973182678222
 30
0.0
 11
1.937441229820251
 21
4.551670551300048
 31
0.0
  0
LINE
  5
29A
330
7D
100
AcDbEntity
 67
     1
  8
1
  6
Continuous
 62
   163
370
    18
100
AcDbLine
 10
3.454816102981567
 20
4.355821132659912
 30
0.0
 11
3.454816102981567
 21
4.856805801391601
 31
0.0
  0
LINE
  5
29B
330
7D
100
AcDbEntity
 67
     1
  8
1
  6
Continuous
 62
   163
370
    18
100
AcDbLine
 10
3.453192949295043
 20
5.189837932586669
 30
0.0
 11
3.453192949295043
 21
4.856805801391601
 31
0.0
  0
LINE
  5
29C
330
7D
100
AcDbEntity
 67
     1
  8
1
  6
Continuous
 62
   163
370
    18
100
AcDbLine
 10
3.454816102981567
 20
5.189837932586669
 30
0.0
 11
3.453192949295043
 21
5.189837932586669
 31
0.0
  0
LINE
  5
29D
330
7D
100
AcDbEntity
 67
     1
  8
1
  6
Continuous
 62
   163
370
    18
100
AcDbLine
 10
3.454816102981567
 20
5.189837932586669
 30
0.0
 11
3.454816102981567
 21
5.690822601318359
 31
0.0
  0
LINE
  5
29E
330
7D
100
AcDbEntity
 67
     1
  8
1
  6
Continuous
 62
   163
370
    18
100
AcDbLine
 10
1.892316102981567
 20
5.690822601318359
 30
0.0
 11
3.454816102981567
 21
5.690822601318359
 31
0.0
  0
LINE
  5
29F
330
7D
100
AcDbEntity
 67
     1
  8
1
  6
Continuous
 62
   163
370
    18
100
AcDbLine
 10
1.937441229820251
 20
5.494973182678222
 30
0.0
 11
1.940467357635498
 21
5.528048515319824
 31
0.0
  0
LINE
  5
2A0
330
7D
100
AcDbEntity
 67
     1
  8
1
  6
Continuous
 62
   163
370
    18
100
AcDbLine
 10
1.940467357635498
 20
5.528048515319824
 30
0.0
 11
1.949349641799926
 21
5.558657169342041
 31
0.0
  0
LINE
  5
2A1
330
7D
100
AcDbEntity
 67
     1
  8
1
  6
Continuous
 62
   163
370
    18
100
AcDbLine
 10
1.949349641799926
 20
5.558657169342041
 30
0.0
 11
1.963510155677795
 21
5.584811210632324
 31
0.0
  0
LINE
  5
2A2
330
7D
100
AcDbEntity
 67
     1
  8
1
  6
Continuous
 62
   163
370
    18
100
AcDbLine
 10
1.963510155677795
 20
5.584811210632324
 30
0.0
 11
1.98202908039093
 21
5.604810237884521
 31
0.0
  0
LINE
  5
2A3
330
7D
100
AcDbEntity
 67
     1
  8
1
  6
Continuous
 62
   163
370
    18
100
AcDbLine
 10
1.98202908039093
 20
5.604810237884521
 30
0.0
 11
2.003702640533447
 21
5.617353916168212
 31
0.0
  0
LINE
  5
2A4
330
7D
100
AcDbEntity
 67
     1
  8
1
  6
Continuous
 62
   163
370
    18
100
AcDbLine
 10
2.003702640533447
 20
5.617353916168212
 30
0.0
 11
2.027122497558593
 21
5.621628284454345
 31
0.0
  0
LINE
  5
2A5
330
7D
100
AcDbEntity
 67
     1
  8
1
  6
Continuous
 62
   163
370
    18
100
AcDbLine
 10
1.892316102981567
 20
4.355821132659912
 30
0.0
 11
1.892316102981567
 21
4.856805801391601
 31
0.0
  0
LINE
  5
2A6
330
7D
100
AcDbEntity
 67
     1
  8
1
  6
Continuous
 62
   163
370
    18
100
AcDbLine
 10
1.892316102981567
 20
5.189837932586669
 30
0.0
 11
1.892316102981567
 21
5.690822601318359
 31
0.0
  0
LINE
  5
2A7
330
7D
100
AcDbEntity
 67
     1
  8
1
  6
Continuous
 62
   163
370
    18
100
AcDbLine
 10
1.893939495086669
 20
5.189837932586669
 30
0.0
 11
1.892316102981567
 21
5.189837932586669
 31
0.0
  0
LINE
  5
2A8
330
7D
100
AcDbEntity
 67
     1
  8
1
  6
Continuous
 62
   163
370
    18
100
AcDbLine
 10
2.057566165924072
 20
4.900898933410644
 30
0.0
 11
2.057566165924072
 21
4.443400859832763
 31
0.0
  0
LINE
  5
2A9
330
7D
100
AcDbEntity
 67
     1
  8
1
  6
Continuous
 62
   163
370
    18
100
AcDbLine
 10
2.639566183090209
 20
4.900898933410644
 30
0.0
 11
2.639566183090209
 21
4.443400859832763
 31
0.0
  0
LINE
  5
2AA
330
7D
100
AcDbEntity
 67
     1
  8
1
  6
Continuous
 62
   163
370
    18
100
AcDbLine
 10
2.057566165924072
 20
4.465884685516357
 30
0.0
 11
2.639566183090209
 21
4.465884685516357
 31
0.0
  0
LINE
  5
2AB
330
7D
100
AcDbEntity
 67
     1
  8
1
  6
Continuous
 62
   163
370
    18
100
AcDbLine
 10
2.639566183090209
 20
4.479299068450927
 30
0.0
 11
2.057566165924072
 21
4.479299068450927
 31
0.0
  0
LINE
  5
2AC
330
7D
100
AcDbEntity
 67
     1
  8
1
  6
Continuous
 62
   163
370
    18
100
AcDbLine
 10
3.289566040039062
 20
4.900898933410644
 30
0.0
 11
3.289566040039062
 21
4.443400859832763
 31
0.0
  0
LINE
  5
2AD
330
7D
100
AcDbEntity
 67
     1
  8
1
  6
Continuous
 62
   163
370
    18
100
AcDbLine
 10
2.707566261291503
 20
4.900898933410644
 30
0.0
 11
2.707566261291503
 21
4.443400859832763
 31
0.0
  0
LINE
  5
2AE
330
7D
100
AcDbEntity
 67
     1
  8
1
  6
Continuous
 62
   163
370
    18
100
AcDbLine
 10
3.289566040039062
 20
4.479299068450927
 30
0.0
 11
2.707566261291503
 21
4.479299068450927
 31
0.0
  0
LINE
  5
2AF
330
7D
100
AcDbEntity
 67
     1
  8
1
  6
Continuous
 62
   163
370
    18
100
AcDbLine
 10
2.707566261291503
 20
4.465884685516357
 30
0.0
 11
3.289566040039062
 21
4.465884685516357
 31
0.0
  0
LINE
  5
2B0
330
7D
100
AcDbEntity
 67
     1
  8
1
  6
Continuous
 62
   163
370
    18
100
AcDbLine
 10
3.292100429534912
 20
5.089083194732666
 30
0.0
 11
3.32000994682312
 21
5.621628284454345
 31
0.0
  0
LINE
  5
2B1
330
7D
100
AcDbEntity
 67
     1
  8
1
  6
Continuous
 62
   163
370
    18
100
AcDbLine
 10
2.027122497558593
 20
5.621628284454345
 30
0.0
 11
2.055032014846801
 21
5.089083194732666
 31
0.0
  0
LINE
  5
2B2
330
7D
100
AcDbEntity
 67
     1
  8
1
  6
Continuous
 62
   163
370
    18
100
AcDbLine
 10
3.384973049163818
 20
5.023322105407714
 30
0.0
 11
3.409691333770751
 21
4.551670551300048
 31
0.0
  0
LINE
  5
2B3
330
7D
100
AcDbEntity
 67
     1
  8
1
  6
Continuous
 62
   163
370
    18
100
AcDbLine
 10
1.937441229820251
 20
4.551670551300048
 30
0.0
 11
1.962159514427185
 21
5.023322105407714
 31
0.0
  0
LINE
  5
2B4
330
7D
100
AcDbEntity
 67
     1
  8
1
  6
Continuous
 62
   163
370
    18
100
AcDbLine
 10
1.962159514427185
 20
5.023322105407714
 30
0.0
 11
1.937441229820251
 21
5.494973182678222
 31
0.0
  0
LINE
  5
2B5
330
7D
100
AcDbEntity
 67
     1
  8
1
  6
Continuous
 62
   163
370
    18
100
AcDbLine
 10
2.055032014846801
 20
5.089083194732666
 30
0.0
 11
3.292100429534912
 21
5.089083194732666
 31
0.0
  0
LINE
  5
2B6
330
7D
100
AcDbEntity
 67
     1
  8
1
  6
Continuous
 62
   163
370
    18
100
AcDbLine
 10
3.409691333770751
 20
5.494973182678222
 30
0.0
 11
3.384973049163818
 21
5.023322105407714
 31
0.0
  0
LINE
  5
2B7
330
7D
100
AcDbEntity
 67
     1
  8
1
  6
Continuous
 62
   163
370
    18
100
AcDbLine
 10
2.057566165924072
 20
4.900898933410644
 30
0.0
 11
2.639566183090209
 21
4.900898933410644
 31
0.0
  0
LINE
  5
2B8
330
7D
100
AcDbEntity
 67
     1
  8
1
  6
Continuous
 62
   163
370
    18
100
AcDbLine
 10
2.057566165924072
 20
4.443400859832763
 30
0.0
 11
2.639566183090209
 21
4.443400859832763
 31
0.0
  0
LINE
  5
2B9
330
7D
100
AcDbEntity
 67
     1
  8
1
  6
Continuous
 62
   163
370
    18
100
AcDbLine
 10
2.707566261291503
 20
4.900898933410644
 30
0.0
 11
3.289566040039062
 21
4.900898933410644
 31
0.0
  0
LINE
  5
2BA
330
7D
100
AcDbEntity
 67
     1
  8
1
  6
Continuous
 62
   163
370
    18
100
AcDbLine
 10
3.292100429534912
 20
4.957561016082763
 30
0.0
 11
2.055032014846801
 21
4.957561016082763
 31
0.0
  0
LINE
  5
2BB
330
7D
100
AcDbEntity
 67
     1
  8
1
  6
Continuous
 62
   163
370
    18
100
AcDbLine
 10
3.32000994682312
 20
4.425015926361083
 30
0.0
 11
3.292100429534912
 21
4.957561016082763
 31
0.0
  0
LINE
  5
2BC
330
7D
100
AcDbEntity
 67
     1
  8
1
  6
Continuous
 62
   163
370
    18
100
AcDbLine
 10
2.055032014846801
 20
4.957561016082763
 30
0.0
 11
2.027122497558593
 21
4.425015926361083
 31
0.0
  0
LINE
  5
2BD
330
7D
100
AcDbEntity
 67
     1
  8
1
  6
Continuous
 62
   163
370
    18
100
AcDbLine
 10
2.707566261291503
 20
4.443400859832763
 30
0.0
 11
3.289566040039062
 21
4.443400859832763
 31
0.0
  0
LINE
  5
2BE
330
7D
100
AcDbEntity
 67
     1
  8
1
  6
Continuous
 62
   163
370
    18
100
AcDbLine
 10
1.893398523330688
 20
5.187672615051269
 30
0.0
 11
1.892316102981567
 21
5.189837932586669
 31
0.0
  0
LINE
  5
2BF
330
7D
100
AcDbEntity
 67
     1
  8
1
  6
Continuous
 62
   163
370
    18
100
AcDbLine
 10
3.453733921051025
 20
5.187672615051269
 30
0.0
 11
3.454816102981567
 21
5.189837932586669
 31
0.0
  0
LINE
  5
2C0
330
7D
100
AcDbEntity
 67
     1
  8
1
  6
Continuous
 62
   163
370
    18
100
AcDbLine
 10
2.431740522384643
 20
4.591633319854736
 30
0.0
 11
2.265391588211059
 21
4.591633319854736
 31
0.0
  0
LINE
  5
2C1
330
7D
100
AcDbEntity
 67
     1
  8
1
  6
Continuous
 62
   163
370
    18
100
AcDbLine
 10
2.431740522384643
 20
4.591633319854736
 30
0.0
 11
2.431740522384643
 21
4.619917392730712
 31
0.0
  0
LINE
  5
2C2
330
7D
100
AcDbEntity
 67
     1
  8
1
  6
Continuous
 62
   163
370
    18
100
AcDbLine
 10
2.431367397308349
 20
4.619917392730712
 30
0.0
 11
2.431740522384643
 21
4.619917392730712
 31
0.0
  0
LINE
  5
2C3
330
7D
100
AcDbEntity
 67
     1
  8
1
  6
Continuous
 62
   163
370
    18
100
AcDbLine
 10
2.431367397308349
 20
4.591633319854736
 30
0.0
 11
2.431367397308349
 21
4.619917392730712
 31
0.0
  0
LINE
  5
2C4
330
7D
100
AcDbEntity
 67
     1
  8
1
  6
Continuous
 62
   163
370
    18
100
AcDbLine
 10
2.915857315063476
 20
4.591633319854736
 30
0.0
 11
2.915857315063476
 21
4.619917392730712
 31
0.0
  0
LINE
  5
2C5
330
7D
100
AcDbEntity
 67
     1
  8
1
  6
Continuous
 62
   163
370
    18
100
AcDbLine
 10
2.915391683578491
 20
4.619917392730712
 30
0.0
 11
2.915857315063476
 21
4.619917392730712
 31
0.0
  0
LINE
  5
2C6
330
7D
100
AcDbEntity
 67
     1
  8
1
  6
Continuous
 62
   163
370
    18
100
AcDbLine
 10
2.915391683578491
 20
4.591633319854736
 30
0.0
 11
2.915391683578491
 21
4.619917392730712
 31
0.0
  0
LINE
  5
2C7
330
7D
100
AcDbEntity
 67
     1
  8
1
  6
Continuous
 62
   163
370
    18
100
AcDbLine
 10
3.081740617752075
 20
4.591633319854736
 30
0.0
 11
2.915391683578491
 21
4.591633319854736
 31
0.0
  0
LINE
  5
2C8
330
7D
100
AcDbEntity
 67
     1
  8
1
  6
Continuous
 62
   163
370
    18
100
AcDbLine
 10
2.265764951705932
 20
4.591633319854736
 30
0.0
 11
2.265764951705932
 21
4.619917392730712
 31
0.0
  0
LINE
  5
2C9
330
7D
100
AcDbEntity
 67
     1
  8
1
  6
Continuous
 62
   163
370
    18
100
AcDbLine
 10
2.265391588211059
 20
4.619917392730712
 30
0.0
 11
2.265764951705932
 21
4.619917392730712
 31
0.0
  0
LINE
  5
2CA
330
7D
100
AcDbEntity
 67
     1
  8
1
  6
Continuous
 62
   163
370
    18
100
AcDbLine
 10
2.265391588211059
 20
4.591633319854736
 30
0.0
 11
2.265391588211059
 21
4.619917392730712
 31
0.0
  0
LINE
  5
2CB
330
7D
100
AcDbEntity
 67
     1
  8
1
  6
Continuous
 62
   163
370
    18
100
AcDbLine
 10
3.081740617752075
 20
4.591633319854736
 30
0.0
 11
3.081740617752075
 21
4.619917392730712
 31
0.0
  0
LINE
  5
2CC
330
7D
100
AcDbEntity
 67
     1
  8
1
  6
Continuous
 62
   163
370
    18
100
AcDbLine
 10
3.081367492675781
 20
4.619917392730712
 30
0.0
 11
3.081740617752075
 21
4.619917392730712
 31
0.0
  0
LINE
  5
2CD
330
7D
100
AcDbEntity
 67
     1
  8
1
  6
Continuous
 62
   163
370
    18
100
AcDbLine
 10
3.081367492675781
 20
4.591633319854736
 30
0.0
 11
3.081367492675781
 21
4.619917392730712
 31
0.0
  0
LINE
  5
2CE
330
7D
100
AcDbEntity
 67
     1
  8
1
  6
Continuous
 62
   163
370
    18
100
AcDbLine
 10
3.080994129180908
 20
4.619917392730712
 30
0.0
 11
3.081367492675781
 21
4.619917392730712
 31
0.0
  0
LINE
  5
2CF
330
7D
100
AcDbEntity
 67
     1
  8
1
  6
Continuous
 62
   163
370
    18
100
AcDbLine
 10
3.080994129180908
 20
4.619917392730712
 30
0.0
 11
3.080994129180908
 21
4.591633319854736
 31
0.0
  0
LINE
  5
2D0
330
7D
100
AcDbEntity
 67
     1
  8
1
  6
Continuous
 62
   163
370
    18
100
AcDbLine
 10
3.076644659042358
 20
4.619917392730712
 30
0.0
 11
3.080994129180908
 21
4.619917392730712
 31
0.0
  0
LINE
  5
2D1
330
7D
100
AcDbEntity
 67
     1
  8
1
  6
Continuous
 62
   163
370
    18
100
AcDbLine
 10
3.076644659042358
 20
4.619917392730712
 30
0.0
 11
3.076033592224121
 21
4.619570255279541
 31
0.0
  0
LINE
  5
2D2
330
7D
100
AcDbEntity
 67
     1
  8
1
  6
Continuous
 62
   163
370
    18
100
AcDbLine
 10
3.076033592224121
 20
4.619570255279541
 30
0.0
 11
3.076033592224121
 21
4.591633319854736
 31
0.0
  0
LINE
  5
2D3
330
7D
100
AcDbEntity
 67
     1
  8
1
  6
Continuous
 62
   163
370
    18
100
AcDbLine
 10
3.076033592224121
 20
4.619570255279541
 30
0.0
 11
2.920352220535278
 21
4.619570255279541
 31
0.0
  0
LINE
  5
2D4
330
7D
100
AcDbEntity
 67
     1
  8
1
  6
Continuous
 62
   163
370
    18
100
AcDbLine
 10
2.920352220535278
 20
4.619570255279541
 30
0.0
 11
2.920352220535278
 21
4.591633319854736
 31
0.0
  0
LINE
  5
2D5
330
7D
100
AcDbEntity
 67
     1
  8
1
  6
Continuous
 62
   163
370
    18
100
AcDbLine
 10
2.920352220535278
 20
4.619570255279541
 30
0.0
 11
2.919741153717041
 21
4.619917392730712
 31
0.0
  0
LINE
  5
2D6
330
7D
100
AcDbEntity
 67
     1
  8
1
  6
Continuous
 62
   163
370
    18
100
AcDbLine
 10
2.915857315063476
 20
4.619917392730712
 30
0.0
 11
2.919741153717041
 21
4.619917392730712
 31
0.0
  0
LINE
  5
2D7
330
7D
100
AcDbEntity
 67
     1
  8
1
  6
Continuous
 62
   163
370
    18
100
AcDbLine
 10
2.427018165588378
 20
4.619917392730712
 30
0.0
 11
2.431367397308349
 21
4.619917392730712
 31
0.0
  0
LINE
  5
2D8
330
7D
100
AcDbEntity
 67
     1
  8
1
  6
Continuous
 62
   163
370
    18
100
AcDbLine
 10
2.426406860351562
 20
4.591633319854736
 30
0.0
 11
2.426406860351562
 21
4.619570255279541
 31
0.0
  0
LINE
  5
2D9
330
7D
100
AcDbEntity
 67
     1
  8
1
  6
Continuous
 62
   163
370
    18
100
AcDbLine
 10
2.426406860351562
 20
4.619570255279541
 30
0.0
 11
2.27072525024414
 21
4.619570255279541
 31
0.0
  0
LINE
  5
2DA
330
7D
100
AcDbEntity
 67
     1
  8
1
  6
Continuous
 62
   163
370
    18
100
AcDbLine
 10
2.27072525024414
 20
4.619570255279541
 30
0.0
 11
2.270114421844482
 21
4.619917392730712
 31
0.0
  0
LINE
  5
2DB
330
7D
100
AcDbEntity
 67
     1
  8
1
  6
Continuous
 62
   163
370
    18
100
AcDbLine
 10
2.265764951705932
 20
4.619917392730712
 30
0.0
 11
2.270114421844482
 21
4.619917392730712
 31
0.0
  0
LINE
  5
2DC
330
7D
100
AcDbEntity
 67
     1
  8
1
  6
Continuous
 62
   163
370
    18
100
AcDbLine
 10
2.915391683578491
 20
4.619917392730712
 30
0.0
 11
2.707566261291503
 21
4.619917392730712
 31
0.0
  0
LINE
  5
2DD
330
7D
100
AcDbEntity
 67
     1
  8
1
  6
Continuous
 62
   163
370
    18
100
AcDbLine
 10
2.639566183090209
 20
4.619917392730712
 30
0.0
 11
2.431740522384643
 21
4.619917392730712
 31
0.0
  0
LINE
  5
2DE
330
7D
100
AcDbEntity
 67
     1
  8
1
  6
Continuous
 62
   163
370
    18
100
AcDbLine
 10
2.057566165924072
 20
4.591633319854736
 30
0.0
 11
2.265391588211059
 21
4.591633319854736
 31
0.0
  0
LINE
  5
2DF
330
7D
100
AcDbEntity
 67
     1
  8
1
  6
Continuous
 62
   163
370
    18
100
AcDbLine
 10
2.265391588211059
 20
4.619917392730712
 30
0.0
 11
2.057566165924072
 21
4.619917392730712
 31
0.0
  0
LINE
  5
2E0
330
7D
100
AcDbEntity
 67
     1
  8
1
  6
Continuous
 62
   163
370
    18
100
AcDbLine
 10
2.057566165924072
 20
4.529230594635009
 30
0.0
 11
2.639566183090209
 21
4.529230594635009
 31
0.0
  0
LINE
  5
2E1
330
7D
100
AcDbEntity
 67
     1
  8
1
  6
Continuous
 62
   163
370
    18
100
AcDbLine
 10
2.639566183090209
 20
4.54178237915039
 30
0.0
 11
2.057566165924072
 21
4.54178237915039
 31
0.0
  0
LINE
  5
2E2
330
7D
100
AcDbEntity
 67
     1
  8
1
  6
Continuous
 62
   163
370
    18
100
AcDbLine
 10
2.639566183090209
 20
4.58031940460205
 30
0.0
 11
2.057566165924072
 21
4.58031940460205
 31
0.0
  0
LINE
  5
2E3
330
7D
100
AcDbEntity
 67
     1
  8
1
  6
Continuous
 62
   163
370
    18
100
AcDbLine
 10
2.431740522384643
 20
4.591633319854736
 30
0.0
 11
2.639566183090209
 21
4.591633319854736
 31
0.0
  0
LINE
  5
2E4
330
7D
100
AcDbEntity
 67
     1
  8
1
  6
Continuous
 62
   163
370
    18
100
AcDbLine
 10
3.289566040039062
 20
4.619917392730712
 30
0.0
 11
3.081740617752075
 21
4.619917392730712
 31
0.0
  0
LINE
  5
2E5
330
7D
100
AcDbEntity
 67
     1
  8
1
  6
Continuous
 62
   163
370
    18
100
AcDbLine
 10
3.081740617752075
 20
4.591633319854736
 30
0.0
 11
3.289566040039062
 21
4.591633319854736
 31
0.0
  0
LINE
  5
2E6
330
7D
100
AcDbEntity
 67
     1
  8
1
  6
Continuous
 62
   163
370
    18
100
AcDbLine
 10
2.707566261291503
 20
4.591633319854736
 30
0.0
 11
2.915391683578491
 21
4.591633319854736
 31
0.0
  0
LINE
  5
2E7
330
7D
100
AcDbEntity
 67
     1
  8
1
  6
Continuous
 62
   163
370
    18
100
AcDbLine
 10
2.27072525024414
 20
4.591633319854736
 30
0.0
 11
2.27072525024414
 21
4.619570255279541
 31
0.0
  0
LINE
  5
2E8
330
7D
100
AcDbEntity
 67
     1
  8
1
  6
Continuous
 62
   163
370
    18
100
AcDbLine
 10
3.289566040039062
 20
4.58031940460205
 30
0.0
 11
2.707566261291503
 21
4.58031940460205
 31
0.0
  0
LINE
  5
2E9
330
7D
100
AcDbEntity
 67
     1
  8
1
  6
Continuous
 62
   163
370
    18
100
AcDbLine
 10
3.289566040039062
 20
4.54178237915039
 30
0.0
 11
2.707566261291503
 21
4.54178237915039
 31
0.0
  0
LINE
  5
2EA
330
7D
100
AcDbEntity
 67
     1
  8
1
  6
Continuous
 62
   163
370
    18
100
AcDbLine
 10
2.707566261291503
 20
4.529230594635009
 30
0.0
 11
3.289566040039062
 21
4.529230594635009
 31
0.0
  0
LINE
  5
2EB
330
7D
100
AcDbEntity
 67
     1
  8
1
  6
Continuous
 62
   163
370
    18
100
AcDbLine
 10
2.427018165588378
 20
4.619917392730712
 30
0.0
 11
2.426406860351562
 21
4.619570255279541
 31
0.0
  0
LINE
  5
2EC
330
7D
100
AcDbEntity
 67
     1
  8
1
  6
Continuous
 62
   163
370
    18
100
AcDbLine
 10
3.453192949295043
 20
5.189837932586669
 30
0.0
 11
3.453733921051025
 21
5.187672615051269
 31
0.0
  0
LINE
  5
2ED
330
7D
100
AcDbEntity
 67
     1
  8
1
  6
Continuous
 62
   163
370
    18
100
AcDbLine
 10
1.893939495086669
 20
5.189837932586669
 30
0.0
 11
1.893398523330688
 21
5.187672615051269
 31
0.0
  0
LINE
  5
2EE
330
7D
100
AcDbEntity
 67
     1
  8
1
  6
Continuous
 62
   163
370
    18
100
AcDbLine
 10
3.292100429534912
 20
4.957561016082763
 30
0.0
 11
3.292100429534912
 21
4.981100559234619
 31
0.0
  0
LINE
  5
2EF
330
7D
100
AcDbEntity
 67
     1
  8
1
  6
Continuous
 62
   163
370
    18
100
AcDbLine
 10
3.292100429534912
 20
4.981100559234619
 30
0.0
 11
3.292100429534912
 21
5.008773803710937
 31
0.0
  0
LINE
  5
2F0
330
7D
100
AcDbEntity
 67
     1
  8
1
  6
Continuous
 62
   163
370
    18
100
AcDbLine
 10
3.292100429534912
 20
5.008773803710937
 30
0.0
 11
3.292100429534912
 21
5.037870407104492
 31
0.0
  0
LINE
  5
2F1
330
7D
100
AcDbEntity
 67
     1
  8
1
  6
Continuous
 62
   163
370
    18
100
AcDbLine
 10
3.292100429534912
 20
5.037870407104492
 30
0.0
 11
3.292100429534912
 21
5.065543174743652
 31
0.0
  0
LINE
  5
2F2
330
7D
100
AcDbEntity
 67
     1
  8
1
  6
Continuous
 62
   163
370
    18
100
AcDbLine
 10
3.292100429534912
 20
5.065543174743652
 30
0.0
 11
3.292100429534912
 21
5.089083194732666
 31
0.0
  0
LINE
  5
2F3
330
7D
100
AcDbEntity
 67
     1
  8
1
  6
Continuous
 62
   163
370
    18
100
AcDbLine
 10
2.055032014846801
 20
5.089083194732666
 30
0.0
 11
2.055032014846801
 21
5.065543174743652
 31
0.0
  0
LINE
  5
2F4
330
7D
100
AcDbEntity
 67
     1
  8
1
  6
Continuous
 62
   163
370
    18
100
AcDbLine
 10
2.055032014846801
 20
5.065543174743652
 30
0.0
 11
2.055032014846801
 21
5.037870407104492
 31
0.0
  0
LINE
  5
2F5
330
7D
100
AcDbEntity
 67
     1
  8
1
  6
Continuous
 62
   163
370
    18
100
AcDbLine
 10
2.055032014846801
 20
5.037870407104492
 30
0.0
 11
2.055032014846801
 21
5.008773803710937
 31
0.0
  0
LINE
  5
2F6
330
7D
100
AcDbEntity
 67
     1
  8
1
  6
Continuous
 62
   163
370
    18
100
AcDbLine
 10
2.055032014846801
 20
5.008773803710937
 30
0.0
 11
2.055032014846801
 21
4.981100559234619
 31
0.0
  0
LINE
  5
2F7
330
7D
100
AcDbEntity
 67
     1
  8
1
  6
Continuous
 62
   163
370
    18
100
AcDbLine
 10
2.055032014846801
 20
4.981100559234619
 30
0.0
 11
2.055032014846801
 21
4.957561016082763
 31
0.0
  0
LINE
  5
2F8
330
7D
100
AcDbEntity
 67
     1
  8
1
  6
Continuous
 62
   163
370
    18
100
AcDbLine
 10
1.962159514427185
 20
5.023322105407714
 30
0.0
 11
1.967533469200134
 21
5.003450870513916
 31
0.0
  0
LINE
  5
2F9
330
7D
100
AcDbEntity
 67
     1
  8
1
  6
Continuous
 62
   163
370
    18
100
AcDbLine
 10
1.967533469200134
 20
5.003450870513916
 30
0.0
 11
1.981076717376708
 21
4.985434532165527
 31
0.0
  0
LINE
  5
2FA
330
7D
100
AcDbEntity
 67
     1
  8
1
  6
Continuous
 62
   163
370
    18
100
AcDbLine
 10
1.981076717376708
 20
4.985434532165527
 30
0.0
 11
2.001524448394775
 21
4.970955848693847
 31
0.0
  0
LINE
  5
2FB
330
7D
100
AcDbEntity
 67
     1
  8
1
  6
Continuous
 62
   163
370
    18
100
AcDbLine
 10
2.001524448394775
 20
4.970955848693847
 30
0.0
 11
2.026968240737915
 21
4.961366653442382
 31
0.0
  0
LINE
  5
2FC
330
7D
100
AcDbEntity
 67
     1
  8
1
  6
Continuous
 62
   163
370
    18
100
AcDbLine
 10
2.026968240737915
 20
4.961366653442382
 30
0.0
 11
2.055032014846801
 21
4.957561016082763
 31
0.0
  0
LINE
  5
2FD
330
7D
100
AcDbEntity
 67
     1
  8
1
  6
Continuous
 62
   163
370
    18
100
AcDbLine
 10
1.962159514427185
 20
5.023322105407714
 30
0.0
 11
1.967533469200134
 21
5.043193340301513
 31
0.0
  0
LINE
  5
2FE
330
7D
100
AcDbEntity
 67
     1
  8
1
  6
Continuous
 62
   163
370
    18
100
AcDbLine
 10
1.967533469200134
 20
5.043193340301513
 30
0.0
 11
1.981076717376708
 21
5.061209201812744
 31
0.0
  0
LINE
  5
2FF
330
7D
100
AcDbEntity
 67
     1
  8
1
  6
Continuous
 62
   163
370
    18
100
AcDbLine
 10
1.981076717376708
 20
5.061209201812744
 30
0.0
 11
2.001524448394775
 21
5.075688362121582
 31
0.0
  0
LINE
  5
300
330
7D
100
AcDbEntity
 67
     1
  8
1
  6
Continuous
 62
   163
370
    18
100
AcDbLine
 10
2.001524448394775
 20
5.075688362121582
 30
0.0
 11
2.026968240737915
 21
5.085277557373046
 31
0.0
  0
LINE
  5
301
330
7D
100
AcDbEntity
 67
     1
  8
1
  6
Continuous
 62
   163
370
    18
100
AcDbLine
 10
2.026968240737915
 20
5.085277557373046
 30
0.0
 11
2.055032014846801
 21
5.089083194732666
 31
0.0
  0
LINE
  5
302
330
7D
100
AcDbEntity
 67
     1
  8
1
  6
Continuous
 62
   163
370
    18
100
AcDbLine
 10
3.384973049163818
 20
5.023322105407714
 30
0.0
 11
3.37959885597229
 21
5.043193340301513
 31
0.0
  0
LINE
  5
303
330
7D
100
AcDbEntity
 67
     1
  8
1
  6
Continuous
 62
   163
370
    18
100
AcDbLine
 10
3.37959885597229
 20
5.043193340301513
 30
0.0
 11
3.366055727005004
 21
5.061209201812744
 31
0.0
  0
LINE
  5
304
330
7D
100
AcDbEntity
 67
     1
  8
1
  6
Continuous
 62
   163
370
    18
100
AcDbLine
 10
3.366055727005004
 20
5.061209201812744
 30
0.0
 11
3.345607757568359
 21
5.075688362121582
 31
0.0
  0
LINE
  5
305
330
7D
100
AcDbEntity
 67
     1
  8
1
  6
Continuous
 62
   163
370
    18
100
AcDbLine
 10
3.345607757568359
 20
5.075688362121582
 30
0.0
 11
3.320164203643798
 21
5.085277557373046
 31
0.0
  0
LINE
  5
306
330
7D
100
AcDbEntity
 67
     1
  8
1
  6
Continuous
 62
   163
370
    18
100
AcDbLine
 10
3.320164203643798
 20
5.085277557373046
 30
0.0
 11
3.292100429534912
 21
5.089083194732666
 31
0.0
  0
LINE
  5
307
330
7D
100
AcDbEntity
 67
     1
  8
1
  6
Continuous
 62
   163
370
    18
100
AcDbLine
 10
3.384973049163818
 20
5.023322105407714
 30
0.0
 11
3.37959885597229
 21
5.003450870513916
 31
0.0
  0
LINE
  5
308
330
7D
100
AcDbEntity
 67
     1
  8
1
  6
Continuous
 62
   163
370
    18
100
AcDbLine
 10
3.37959885597229
 20
5.003450870513916
 30
0.0
 11
3.366055727005004
 21
4.985434532165527
 31
0.0
  0
LINE
  5
309
330
7D
100
AcDbEntity
 67
     1
  8
1
  6
Continuous
 62
   163
370
    18
100
AcDbLine
 10
3.366055727005004
 20
4.985434532165527
 30
0.0
 11
3.345607757568359
 21
4.970955848693847
 31
0.0
  0
LINE
  5
30A
330
7D
100
AcDbEntity
 67
     1
  8
1
  6
Continuous
 62
   163
370
    18
100
AcDbLine
 10
3.345607757568359
 20
4.970955848693847
 30
0.0
 11
3.320164203643798
 21
4.961366653442382
 31
0.0
  0
LINE
  5
30B
330
7D
100
AcDbEntity
 67
     1
  8
1
  6
Continuous
 62
   163
370
    18
100
AcDbLine
 10
3.320164203643798
 20
4.961366653442382
 30
0.0
 11
3.292100429534912
 21
4.957561016082763
 31
0.0
  0
LINE
  5
30C
330
7D
100
AcDbEntity
 67
     1
  8
1
  6
Continuous
 62
    21
370
    18
100
AcDbLine
 10
1.020739793777465
 20
6.906527042388916
 30
0.0
 11
1.020739793777465
 21
3.632047653198242
 31
0.0
  0
LINE
  5
30D
330
7D
100
AcDbEntity
 67
     1
  8
1
  6
Continuous
 62
    21
370
    18
100
AcDbLine
 10
1.020739793777465
 20
3.632047653198242
 30
0.0
 11
1.025300502777099
 21
3.621021509170532
 31
0.0
  0
LINE
  5
30E
330
7D
100
AcDbEntity
 67
     1
  8
1
  6
Continuous
 62
    21
370
    18
100
AcDbLine
 10
1.025300502777099
 20
3.621021509170532
 30
0.0
 11
1.036326766014099
 21
3.616460800170898
 31
0.0
  0
LINE
  5
30F
330
7D
100
AcDbEntity
 67
     1
  8
1
  6
Continuous
 62
    21
370
    18
100
AcDbLine
 10
4.310805797576904
 20
3.616460800170898
 30
0.0
 11
4.321832180023193
 21
3.621021509170532
 31
0.0
  0
LINE
  5
310
330
7D
100
AcDbEntity
 67
     1
  8
1
  6
Continuous
 62
    21
370
    18
100
AcDbLine
 10
4.321832180023193
 20
3.621021509170532
 30
0.0
 11
4.326392650604248
 21
3.632047653198242
 31
0.0
  0
LINE
  5
311
330
7D
100
AcDbEntity
 67
     1
  8
1
  6
Continuous
 62
    21
370
    18
100
AcDbLine
 10
4.326392650604248
 20
3.632047653198242
 30
0.0
 11
4.326392650604248
 21
6.906527042388916
 31
0.0
  0
LINE
  5
312
330
7D
100
AcDbEntity
 67
     1
  8
1
  6
Continuous
 62
    21
370
    18
100
AcDbLine
 10
4.326392650604248
 20
6.906527042388916
 30
0.0
 11
4.321832180023193
 21
6.917552947998046
 31
0.0
  0
LINE
  5
313
330
7D
100
AcDbEntity
 67
     1
  8
1
  6
Continuous
 62
    21
370
    18
100
AcDbLine
 10
4.321832180023193
 20
6.917552947998046
 30
0.0
 11
4.310805797576904
 21
6.922113418579101
 31
0.0
  0
LINE
  5
314
330
7D
100
AcDbEntity
 67
     1
  8
1
  6
Continuous
 62
    21
370
    18
100
AcDbLine
 10
1.036326766014099
 20
6.922113418579101
 30
0.0
 11
1.025300502777099
 21
6.917552947998046
 31
0.0
  0
LINE
  5
315
330
7D
100
AcDbEntity
 67
     1
  8
1
  6
Continuous
 62
    21
370
    18
100
AcDbLine
 10
1.025300502777099
 20
6.917552947998046
 30
0.0
 11
1.020739793777465
 21
6.906527042388916
 31
0.0
  0
LINE
  5
316
330
7D
100
AcDbEntity
 67
     1
  8
1
  6
Continuous
 62
    21
370
    18
100
AcDbLine
 10
3.515092849731445
 20
4.935822010040283
 30
0.0
 11
3.47109055519104
 21
4.935822010040283
 31
0.0
  0
LINE
  5
317
330
7D
100
AcDbEntity
 67
     1
  8
1
  6
Continuous
 62
    21
370
    18
100
AcDbLine
 10
3.47109055519104
 20
4.935822010040283
 30
0.0
 11
3.465434312820434
 21
4.933479309082031
 31
0.0
  0
LINE
  5
318
330
7D
100
AcDbEntity
 67
     1
  8
1
  6
Continuous
 62
    21
370
    18
100
AcDbLine
 10
3.465434312820434
 20
4.933479309082031
 30
0.0
 11
3.463091611862182
 21
4.927823066711425
 31
0.0
  0
LINE
  5
319
330
7D
100
AcDbEntity
 67
     1
  8
1
  6
Continuous
 62
    21
370
    18
100
AcDbLine
 10
3.463091611862182
 20
4.35654592514038
 30
0.0
 11
3.463091611862182
 21
4.927823066711425
 31
0.0
  0
LINE
  5
31A
330
7D
100
AcDbEntity
 67
     1
  8
1
  6
Continuous
 62
    21
370
    18
100
AcDbLine
 10
1.036326766014099
 20
3.616460800170898
 30
0.0
 11
4.310805797576904
 21
3.616460800170898
 31
0.0
  0
LINE
  5
31B
330
7D
100
AcDbEntity
 67
     1
  8
1
  6
Continuous
 62
    21
370
    18
100
AcDbLine
 10
4.310805797576904
 20
6.922113418579101
 30
0.0
 11
1.036326766014099
 21
6.922113418579101
 31
0.0
  0
LINE
  5
31C
330
7D
100
AcDbEntity
 67
     1
  8
1
  6
Continuous
 62
    21
370
    18
100
AcDbLine
 10
1.884040594100952
 20
4.35654592514038
 30
0.0
 11
1.884040594100952
 21
4.927823066711425
 31
0.0
  0
LINE
  5
31D
330
7D
100
AcDbEntity
 67
     1
  8
1
  6
Continuous
 62
    21
370
    18
100
AcDbLine
 10
1.884040594100952
 20
4.927823066711425
 30
0.0
 11
1.8816978931427
 21
4.933479309082031
 31
0.0
  0
LINE
  5
31E
330
7D
100
AcDbEntity
 67
     1
  8
1
  6
Continuous
 62
    21
370
    18
100
AcDbLine
 10
1.8816978931427
 20
4.933479309082031
 30
0.0
 11
1.876041769981384
 21
4.935822010040283
 31
0.0
  0
LINE
  5
31F
330
7D
100
AcDbEntity
 67
     1
  8
1
  6
Continuous
 62
    21
370
    18
100
AcDbLine
 10
1.832039475440979
 20
4.935822010040283
 30
0.0
 11
1.876041769981384
 21
4.935822010040283
 31
0.0
  0
LINE
  5
320
330
7D
100
AcDbEntity
 67
     1
  8
1
  6
Continuous
 62
    21
370
    18
100
AcDbLine
 10
1.892040610313415
 20
4.348546028137207
 30
0.0
 11
3.455091714859008
 21
4.348546028137207
 31
0.0
  0
LINE
  5
321
330
7D
100
AcDbEntity
 67
     1
  8
1
  6
Continuous
 62
    21
370
    18
100
AcDbLine
 10
1.824040532112121
 20
5.102823257446289
 30
0.0
 11
1.824040532112121
 21
4.94382095336914
 31
0.0
  0
LINE
  5
322
330
7D
100
AcDbEntity
 67
     1
  8
1
  6
Continuous
 62
    21
370
    18
100
AcDbLine
 10
1.832039475440979
 20
4.935822010040283
 30
0.0
 11
1.826383352279663
 21
4.938164710998535
 31
0.0
  0
LINE
  5
323
330
7D
100
AcDbEntity
 67
     1
  8
1
  6
Continuous
 62
    21
370
    18
100
AcDbLine
 10
1.826383352279663
 20
4.938164710998535
 30
0.0
 11
1.824040532112121
 21
4.94382095336914
 31
0.0
  0
LINE
  5
324
330
7D
100
AcDbEntity
 67
     1
  8
1
  6
Continuous
 62
    21
370
    18
100
AcDbLine
 10
1.832039475440979
 20
5.110822200775146
 30
0.0
 11
1.876041769981384
 21
5.110822200775146
 31
0.0
  0
LINE
  5
325
330
7D
100
AcDbEntity
 67
     1
  8
1
  6
Continuous
 62
    21
370
    18
100
AcDbLine
 10
1.884040594100952
 20
5.118821144104003
 30
0.0
 11
1.884040594100952
 21
5.690098285675048
 31
0.0
  0
LINE
  5
326
330
7D
100
AcDbEntity
 67
     1
  8
1
  6
Continuous
 62
    21
370
    18
100
AcDbLine
 10
1.876041769981384
 20
5.110822200775146
 30
0.0
 11
1.8816978931427
 21
5.11316442489624
 31
0.0
  0
LINE
  5
327
330
7D
100
AcDbEntity
 67
     1
  8
1
  6
Continuous
 62
    21
370
    18
100
AcDbLine
 10
1.8816978931427
 20
5.11316442489624
 30
0.0
 11
1.884040594100952
 21
5.118821144104003
 31
0.0
  0
LINE
  5
328
330
7D
100
AcDbEntity
 67
     1
  8
1
  6
Continuous
 62
    21
370
    18
100
AcDbLine
 10
3.463091611862182
 20
5.118821144104003
 30
0.0
 11
3.463091611862182
 21
5.690098285675048
 31
0.0
  0
LINE
  5
329
330
7D
100
AcDbEntity
 67
     1
  8
1
  6
Continuous
 62
    21
370
    18
100
AcDbLine
 10
3.463091611862182
 20
5.118821144104003
 30
0.0
 11
3.465434312820434
 21
5.11316442489624
 31
0.0
  0
LINE
  5
32A
330
7D
100
AcDbEntity
 67
     1
  8
1
  6
Continuous
 62
    21
370
    18
100
AcDbLine
 10
3.465434312820434
 20
5.11316442489624
 30
0.0
 11
3.47109055519104
 21
5.110822200775146
 31
0.0
  0
LINE
  5
32B
330
7D
100
AcDbEntity
 67
     1
  8
1
  6
Continuous
 62
    21
370
    18
100
AcDbLine
 10
3.515092849731445
 20
5.110822200775146
 30
0.0
 11
3.47109055519104
 21
5.110822200775146
 31
0.0
  0
LINE
  5
32C
330
7D
100
AcDbEntity
 67
     1
  8
1
  6
Continuous
 62
    21
370
    18
100
AcDbLine
 10
3.515092849731445
 20
5.110822200775146
 30
0.0
 11
3.52074909210205
 21
5.108479499816894
 31
0.0
  0
LINE
  5
32D
330
7D
100
AcDbEntity
 67
     1
  8
1
  6
Continuous
 62
    21
370
    18
100
AcDbLine
 10
3.52074909210205
 20
5.108479499816894
 30
0.0
 11
3.523091793060302
 21
5.102823257446289
 31
0.0
  0
LINE
  5
32E
330
7D
100
AcDbEntity
 67
     1
  8
1
  6
Continuous
 62
    21
370
    18
100
AcDbLine
 10
3.523091793060302
 20
5.102823257446289
 30
0.0
 11
3.523091793060302
 21
4.94382095336914
 31
0.0
  0
LINE
  5
32F
330
7D
100
AcDbEntity
 67
     1
  8
1
  6
Continuous
 62
    21
370
    18
100
AcDbLine
 10
1.892040610313415
 20
5.698098182678222
 30
0.0
 11
3.455091714859008
 21
5.698098182678222
 31
0.0
  0
LINE
  5
330
330
7D
100
AcDbEntity
 67
     1
  8
1
  6
Continuous
 62
    21
370
    18
100
AcDbLine
 10
3.523091793060302
 20
4.94382095336914
 30
0.0
 11
3.52074909210205
 21
4.938164710998535
 31
0.0
  0
LINE
  5
331
330
7D
100
AcDbEntity
 67
     1
  8
1
  6
Continuous
 62
    21
370
    18
100
AcDbLine
 10
3.52074909210205
 20
4.938164710998535
 30
0.0
 11
3.515092849731445
 21
4.935822010040283
 31
0.0
  0
LINE
  5
332
330
7D
100
AcDbEntity
 67
     1
  8
1
  6
Continuous
 62
    21
370
    18
100
AcDbLine
 10
1.952431678771972
 20
6.186112403869628
 30
0.0
 11
1.952431678771972
 21
5.845843791961669
 31
0.0
  0
LINE
  5
333
330
7D
100
AcDbEntity
 67
     1
  8
1
  6
Continuous
 62
    21
370
    18
100
AcDbLine
 10
1.962431669235229
 20
6.196112632751464
 30
0.0
 11
3.384700775146484
 21
6.196112632751464
 31
0.0
  0
LINE
  5
334
330
7D
100
AcDbEntity
 67
     1
  8
1
  6
Continuous
 62
    21
370
    18
100
AcDbLine
 10
3.394700765609741
 20
6.186112403869628
 30
0.0
 11
3.394700765609741
 21
5.845843791961669
 31
0.0
  0
LINE
  5
335
330
7D
100
AcDbEntity
 67
     1
  8
1
  6
Continuous
 62
    21
370
    18
100
AcDbLine
 10
1.962431669235229
 20
5.835843563079833
 30
0.0
 11
3.384700775146484
 21
5.835843563079833
 31
0.0
  0
LINE
  5
336
330
7D
100
AcDbEntity
 67
     1
  8
1
  6
Continuous
 62
    21
370
    18
100
AcDbLine
 10
1.824040532112121
 20
5.102823257446289
 30
0.0
 11
1.826383352279663
 21
5.108479499816894
 31
0.0
  0
LINE
  5
337
330
7D
100
AcDbEntity
 67
     1
  8
1
  6
Continuous
 62
    21
370
    18
100
AcDbLine
 10
1.826383352279663
 20
5.108479499816894
 30
0.0
 11
1.832039475440979
 21
5.110822200775146
 31
0.0
  0
LINE
  5
338
330
7D
100
AcDbEntity
 67
     1
  8
1
  6
Continuous
 62
    21
370
    18
100
AcDbLine
 10
3.463091611862182
 20
4.927823066711425
 30
0.0
 11
3.459816217422485
 21
4.931098937988281
 31
0.0
  0
LINE
  5
339
330
7D
100
AcDbEntity
 67
     1
  8
1
  6
Continuous
 62
    21
370
    18
100
AcDbLine
 10
3.459816217422485
 20
4.351821422576904
 30
0.0
 11
3.459816217422485
 21
4.829603195190429
 31
0.0
  0
LINE
  5
33A
330
7D
100
AcDbEntity
 67
     1
  8
1
  6
Continuous
 62
    21
370
    18
100
AcDbLine
 10
3.459816217422485
 20
4.829603195190429
 30
0.0
 11
3.459816217422485
 21
4.931098937988281
 31
0.0
  0
LINE
  5
33B
330
7D
100
AcDbEntity
 67
     1
  8
1
  6
Continuous
 62
    21
370
    18
100
AcDbLine
 10
3.459816217422485
 20
4.829603195190429
 30
0.0
 11
3.454815864562988
 21
4.829603195190429
 31
0.0
  0
LINE
  5
33C
330
7D
100
AcDbEntity
 67
     1
  8
1
  6
Continuous
 62
    21
370
    18
100
AcDbLine
 10
3.399816274642944
 20
4.351821422576904
 30
0.0
 11
3.459816217422485
 21
4.351821422576904
 31
0.0
  0
LINE
  5
33D
330
7D
100
AcDbEntity
 67
     1
  8
1
  6
Continuous
 62
    21
370
    18
100
AcDbLine
 10
3.39674949645996
 20
4.355822563171386
 30
0.0
 11
3.39674949645996
 21
4.354888439178466
 31
0.0
  0
LINE
  5
33E
330
7D
100
AcDbEntity
 67
     1
  8
1
  6
Continuous
 62
    21
370
    18
100
AcDbLine
 10
3.399816274642944
 20
4.351821422576904
 30
0.0
 11
3.39674949645996
 21
4.354888439178466
 31
0.0
  0
LINE
  5
33F
330
7D
100
AcDbEntity
 67
     1
  8
1
  6
Continuous
 62
    21
370
    18
100
AcDbLine
 10
3.460748672485351
 20
4.350888729095458
 30
0.0
 11
3.459816217422485
 21
4.351821422576904
 31
0.0
  0
LINE
  5
340
330
7D
100
AcDbEntity
 67
     1
  8
1
  6
Continuous
 62
    21
370
    18
100
AcDbLine
 10
1.887316107749938
 20
4.931098937988281
 30
0.0
 11
1.884040594100952
 21
4.927823066711425
 31
0.0
  0
LINE
  5
341
330
7D
100
AcDbEntity
 67
     1
  8
1
  6
Continuous
 62
    21
370
    18
100
AcDbLine
 10
3.399816274642944
 20
4.351821422576904
 30
0.0
 11
3.399816274642944
 21
4.355823040008544
 31
0.0
  0
LINE
  5
342
330
7D
100
AcDbEntity
 67
     1
  8
1
  6
Continuous
 62
    21
370
    18
100
AcDbLine
 10
1.886383771896362
 20
4.350888729095458
 30
0.0
 11
1.887316107749938
 21
4.351821422576904
 31
0.0
  0
LINE
  5
343
330
7D
100
AcDbEntity
 67
     1
  8
1
  6
Continuous
 62
    21
370
    18
100
AcDbLine
 10
1.887316107749938
 20
4.829603195190429
 30
0.0
 11
1.887316107749938
 21
4.931098937988281
 31
0.0
  0
LINE
  5
344
330
7D
100
AcDbEntity
 67
     1
  8
1
  6
Continuous
 62
    21
370
    18
100
AcDbLine
 10
1.887316107749938
 20
4.351821422576904
 30
0.0
 11
1.887316107749938
 21
4.829603195190429
 31
0.0
  0
LINE
  5
345
330
7D
100
AcDbEntity
 67
     1
  8
1
  6
Continuous
 62
    21
370
    18
100
AcDbLine
 10
1.887316107749938
 20
4.829603195190429
 30
0.0
 11
1.892316341400146
 21
4.833764553070068
 31
0.0
  0
LINE
  5
346
330
7D
100
AcDbEntity
 67
     1
  8
1
  6
Continuous
 62
    21
370
    18
100
AcDbLine
 10
1.887316107749938
 20
4.829603195190429
 30
0.0
 11
1.892316699028015
 21
4.829603195190429
 31
0.0
  0
LINE
  5
347
330
7D
100
AcDbEntity
 67
     1
  8
1
  6
Continuous
 62
    21
370
    18
100
AcDbLine
 10
1.887316107749938
 20
5.217041015625
 30
0.0
 11
1.892316699028015
 21
5.217041015625
 31
0.0
  0
LINE
  5
348
330
7D
100
AcDbEntity
 67
     1
  8
1
  6
Continuous
 62
    21
370
    18
100
AcDbLine
 10
1.887316107749938
 20
5.217041015625
 30
0.0
 11
1.892316341400146
 21
5.212879180908203
 31
0.0
  0
LINE
  5
349
330
7D
100
AcDbEntity
 67
     1
  8
1
  6
Continuous
 62
    21
370
    18
100
AcDbLine
 10
1.947316169738769
 20
4.355823040008544
 30
0.0
 11
1.947316169738769
 21
4.351821422576904
 31
0.0
  0
LINE
  5
34A
330
7D
100
AcDbEntity
 67
     1
  8
1
  6
Continuous
 62
    21
370
    18
100
AcDbLine
 10
1.887316107749938
 20
4.351821422576904
 30
0.0
 11
1.947316169738769
 21
4.351821422576904
 31
0.0
  0
LINE
  5
34B
330
7D
100
AcDbEntity
 67
     1
  8
1
  6
Continuous
 62
    21
370
    18
100
AcDbLine
 10
1.887316107749938
 20
5.115545272827148
 30
0.0
 11
1.887316107749938
 21
5.217041015625
 31
0.0
  0
LINE
  5
34C
330
7D
100
AcDbEntity
 67
     1
  8
1
  6
Continuous
 62
    21
370
    18
100
AcDbLine
 10
1.950382709503173
 20
4.355822563171386
 30
0.0
 11
1.950382709503173
 21
4.354888439178466
 31
0.0
  0
LINE
  5
34D
330
7D
100
AcDbEntity
 67
     1
  8
1
  6
Continuous
 62
    21
370
    18
100
AcDbLine
 10
1.947316169738769
 20
4.351821422576904
 30
0.0
 11
1.950382709503173
 21
4.354888439178466
 31
0.0
  0
LINE
  5
34E
330
7D
100
AcDbEntity
 67
     1
  8
1
  6
Continuous
 62
    21
370
    18
100
AcDbLine
 10
3.399816274642944
 20
5.690821170806884
 30
0.0
 11
3.399816274642944
 21
5.694822788238525
 31
0.0
  0
LINE
  5
34F
330
7D
100
AcDbEntity
 67
     1
  8
1
  6
Continuous
 62
    21
370
    18
100
AcDbLine
 10
1.887316107749938
 20
4.931098937988281
 30
0.0
 11
1.887316107749938
 21
5.115545272827148
 31
0.0
  0
LINE
  5
350
330
7D
100
AcDbEntity
 67
     1
  8
1
  6
Continuous
 62
    21
370
    18
100
AcDbLine
 10
3.459816217422485
 20
5.217041015625
 30
0.0
 11
3.459816217422485
 21
5.694822788238525
 31
0.0
  0
LINE
  5
351
330
7D
100
AcDbEntity
 67
     1
  8
1
  6
Continuous
 62
    21
370
    18
100
AcDbLine
 10
3.399816274642944
 20
5.694822788238525
 30
0.0
 11
3.459816217422485
 21
5.694822788238525
 31
0.0
  0
LINE
  5
352
330
7D
100
AcDbEntity
 67
     1
  8
1
  6
Continuous
 62
    21
370
    18
100
AcDbLine
 10
3.459816217422485
 20
5.217041015625
 30
0.0
 11
3.454815864562988
 21
5.217041015625
 31
0.0
  0
LINE
  5
353
330
7D
100
AcDbEntity
 67
     1
  8
1
  6
Continuous
 62
    21
370
    18
100
AcDbLine
 10
1.011740088462829
 20
3.576287031173706
 30
0.0
 11
4.335392475128173
 21
3.576287031173706
 31
0.0
  0
LINE
  5
354
330
7D
100
AcDbEntity
 67
     1
  8
1
  6
Continuous
 62
    21
370
    18
100
AcDbLine
 10
1.011740088462829
 20
3.576287031173706
 30
0.0
 11
0.9961413741111755
 21
3.580458641052246
 31
0.0
  0
LINE
  5
355
330
7D
100
AcDbEntity
 67
     1
  8
1
  6
Continuous
 62
    21
370
    18
100
AcDbLine
 10
0.9961413741111755
 20
3.580458641052246
 30
0.0
 11
0.9847376942634582
 21
3.591862440109252
 31
0.0
  0
LINE
  5
356
330
7D
100
AcDbEntity
 67
     1
  8
1
  6
Continuous
 62
    21
370
    18
100
AcDbLine
 10
0.9847376942634582
 20
3.591862440109252
 30
0.0
 11
0.9805661439895629
 21
3.607460975646972
 31
0.0
  0
LINE
  5
357
330
7D
100
AcDbEntity
 67
     1
  8
1
  6
Continuous
 62
    21
370
    18
100
AcDbLine
 10
0.9805661439895629
 20
6.931113243103027
 30
0.0
 11
0.9805661439895629
 21
3.607460975646972
 31
0.0
  0
LINE
  5
358
330
7D
100
AcDbEntity
 67
     1
  8
1
  6
Continuous
 62
    21
370
    18
100
AcDbLine
 10
4.335392475128173
 20
6.962286949157714
 30
0.0
 11
1.011740088462829
 21
6.962286949157714
 31
0.0
  0
LINE
  5
359
330
7D
100
AcDbEntity
 67
     1
  8
1
  6
Continuous
 62
    21
370
    18
100
AcDbLine
 10
4.366566181182861
 20
3.607460975646972
 30
0.0
 11
4.366566181182861
 21
6.931113243103027
 31
0.0
  0
LINE
  5
35A
330
7D
100
AcDbEntity
 67
     1
  8
1
  6
Continuous
 62
    21
370
    18
100
AcDbLine
 10
4.335392475128173
 20
6.962286949157714
 30
0.0
 11
4.350990772247314
 21
6.958115577697753
 31
0.0
  0
LINE
  5
35B
330
7D
100
AcDbEntity
 67
     1
  8
1
  6
Continuous
 62
    21
370
    18
100
AcDbLine
 10
4.350990772247314
 20
6.958115577697753
 30
0.0
 11
4.3623948097229
 21
6.946711540222167
 31
0.0
  0
LINE
  5
35C
330
7D
100
AcDbEntity
 67
     1
  8
1
  6
Continuous
 62
    21
370
    18
100
AcDbLine
 10
4.3623948097229
 20
6.946711540222167
 30
0.0
 11
4.366566181182861
 21
6.931113243103027
 31
0.0
  0
LINE
  5
35D
330
7D
100
AcDbEntity
 67
     1
  8
1
  6
Continuous
 62
    21
370
    18
100
AcDbLine
 10
4.366566181182861
 20
3.607460975646972
 30
0.0
 11
4.3623948097229
 21
3.591862440109252
 31
0.0
  0
LINE
  5
35E
330
7D
100
AcDbEntity
 67
     1
  8
1
  6
Continuous
 62
    21
370
    18
100
AcDbLine
 10
4.3623948097229
 20
3.591862440109252
 30
0.0
 11
4.350990772247314
 21
3.580458641052246
 31
0.0
  0
LINE
  5
35F
330
7D
100
AcDbEntity
 67
     1
  8
1
  6
Continuous
 62
    21
370
    18
100
AcDbLine
 10
4.350990772247314
 20
3.580458641052246
 30
0.0
 11
4.335392475128173
 21
3.576287031173706
 31
0.0
  0
LINE
  5
360
330
7D
100
AcDbEntity
 67
     1
  8
1
  6
Continuous
 62
    21
370
    18
100
AcDbLine
 10
4.310805797576904
 20
3.600873708724975
 30
0.0
 11
1.036326766014099
 21
3.600873708724975
 31
0.0
  0
LINE
  5
361
330
7D
100
AcDbEntity
 67
     1
  8
1
  6
Continuous
 62
    21
370
    18
100
AcDbLine
 10
1.036326766014099
 20
3.600873708724975
 30
0.0
 11
1.011740088462829
 21
3.576287031173706
 31
0.0
  0
LINE
  5
362
330
7D
100
AcDbEntity
 67
     1
  8
1
  6
Continuous
 62
    21
370
    18
100
AcDbLine
 10
0.9805661439895629
 20
3.607460975646972
 30
0.0
 11
1.005152940750122
 21
3.632047653198242
 31
0.0
  0
LINE
  5
363
330
7D
100
AcDbEntity
 67
     1
  8
1
  6
Continuous
 62
    21
370
    18
100
AcDbLine
 10
1.005152940750122
 20
3.632047653198242
 30
0.0
 11
1.005152940750122
 21
6.906527042388916
 31
0.0
  0
LINE
  5
364
330
7D
100
AcDbEntity
 67
     1
  8
1
  6
Continuous
 62
    21
370
    18
100
AcDbLine
 10
1.005152940750122
 20
6.906527042388916
 30
0.0
 11
0.9805661439895629
 21
6.931113243103027
 31
0.0
  0
LINE
  5
365
330
7D
100
AcDbEntity
 67
     1
  8
1
  6
Continuous
 62
    21
370
    18
100
AcDbLine
 10
1.011740088462829
 20
6.962286949157714
 30
0.0
 11
1.036326766014099
 21
6.937700271606445
 31
0.0
  0
LINE
  5
366
330
7D
100
AcDbEntity
 67
     1
  8
1
  6
Continuous
 62
    21
370
    18
100
AcDbLine
 10
1.036326766014099
 20
6.937700271606445
 30
0.0
 11
4.310805797576904
 21
6.937700271606445
 31
0.0
  0
LINE
  5
367
330
7D
100
AcDbEntity
 67
     1
  8
1
  6
Continuous
 62
    21
370
    18
100
AcDbLine
 10
4.310805797576904
 20
6.937700271606445
 30
0.0
 11
4.335392475128173
 21
6.962286949157714
 31
0.0
  0
LINE
  5
368
330
7D
100
AcDbEntity
 67
     1
  8
1
  6
Continuous
 62
    21
370
    18
100
AcDbLine
 10
4.366566181182861
 20
6.931113243103027
 30
0.0
 11
4.341979503631591
 21
6.906527042388916
 31
0.0
  0
LINE
  5
369
330
7D
100
AcDbEntity
 67
     1
  8
1
  6
Continuous
 62
    21
370
    18
100
AcDbLine
 10
4.341979503631591
 20
6.906527042388916
 30
0.0
 11
4.341979503631591
 21
3.632047653198242
 31
0.0
  0
LINE
  5
36A
330
7D
100
AcDbEntity
 67
     1
  8
1
  6
Continuous
 62
    21
370
    18
100
AcDbLine
 10
4.341979503631591
 20
3.632047653198242
 30
0.0
 11
4.366566181182861
 21
3.607460975646972
 31
0.0
  0
LINE
  5
36B
330
7D
100
AcDbEntity
 67
     1
  8
1
  6
Continuous
 62
    21
370
    18
100
AcDbLine
 10
1.036326766014099
 20
3.600873708724975
 30
0.0
 11
1.020755767822265
 21
3.605072975158691
 31
0.0
  0
LINE
  5
36C
330
7D
100
AcDbEntity
 67
     1
  8
1
  6
Continuous
 62
    21
370
    18
100
AcDbLine
 10
1.020755767822265
 20
3.605072975158691
 30
0.0
 11
1.009352087974548
 21
3.616476774215698
 31
0.0
  0
LINE
  5
36D
330
7D
100
AcDbEntity
 67
     1
  8
1
  6
Continuous
 62
    21
370
    18
100
AcDbLine
 10
1.009352087974548
 20
3.616476774215698
 30
0.0
 11
1.005152940750122
 21
3.632047653198242
 31
0.0
  0
LINE
  5
36E
330
7D
100
AcDbEntity
 67
     1
  8
1
  6
Continuous
 62
    21
370
    18
100
AcDbLine
 10
0.9805661439895629
 20
6.931113243103027
 30
0.0
 11
0.9847376942634582
 21
6.946711540222167
 31
0.0
  0
LINE
  5
36F
330
7D
100
AcDbEntity
 67
     1
  8
1
  6
Continuous
 62
    21
370
    18
100
AcDbLine
 10
0.9847376942634582
 20
6.946711540222167
 30
0.0
 11
0.9961413741111755
 21
6.958115577697753
 31
0.0
  0
LINE
  5
370
330
7D
100
AcDbEntity
 67
     1
  8
1
  6
Continuous
 62
    21
370
    18
100
AcDbLine
 10
0.9961413741111755
 20
6.958115577697753
 30
0.0
 11
1.011740088462829
 21
6.962286949157714
 31
0.0
  0
LINE
  5
371
330
7D
100
AcDbEntity
 67
     1
  8
1
  6
Continuous
 62
    21
370
    18
100
AcDbLine
 10
4.310805797576904
 20
6.937700271606445
 30
0.0
 11
4.326376438140869
 21
6.933501243591308
 31
0.0
  0
LINE
  5
372
330
7D
100
AcDbEntity
 67
     1
  8
1
  6
Continuous
 62
    21
370
    18
100
AcDbLine
 10
4.326376438140869
 20
6.933501243591308
 30
0.0
 11
4.337780475616455
 21
6.922097206115722
 31
0.0
  0
LINE
  5
373
330
7D
100
AcDbEntity
 67
     1
  8
1
  6
Continuous
 62
    21
370
    18
100
AcDbLine
 10
4.337780475616455
 20
6.922097206115722
 30
0.0
 11
4.341979503631591
 21
6.906527042388916
 31
0.0
  0
LINE
  5
374
330
7D
100
AcDbEntity
 67
     1
  8
1
  6
Continuous
 62
    21
370
    18
100
AcDbLine
 10
4.341979503631591
 20
3.632047653198242
 30
0.0
 11
4.337780475616455
 21
3.616476774215698
 31
0.0
  0
LINE
  5
375
330
7D
100
AcDbEntity
 67
     1
  8
1
  6
Continuous
 62
    21
370
    18
100
AcDbLine
 10
4.337780475616455
 20
3.616476774215698
 30
0.0
 11
4.326376438140869
 21
3.605072975158691
 31
0.0
  0
LINE
  5
376
330
7D
100
AcDbEntity
 67
     1
  8
1
  6
Continuous
 62
    21
370
    18
100
AcDbLine
 10
4.326376438140869
 20
3.605072975158691
 30
0.0
 11
4.310805797576904
 21
3.600873708724975
 31
0.0
  0
LINE
  5
377
330
7D
100
AcDbEntity
 67
     1
  8
1
  6
Continuous
 62
    21
370
    18
100
AcDbLine
 10
4.341979503631591
 20
6.906527042388916
 30
0.0
 11
4.337049007415771
 21
6.906527042388916
 31
0.0
  0
LINE
  5
378
330
7D
100
AcDbEntity
 67
     1
  8
1
  6
Continuous
 62
    21
370
    18
100
AcDbLine
 10
4.337049007415771
 20
6.906527042388916
 30
0.0
 11
4.326392650604248
 21
6.906527042388916
 31
0.0
  0
LINE
  5
379
330
7D
100
AcDbEntity
 67
     1
  8
1
  6
Continuous
 62
    21
370
    18
100
AcDbLine
 10
4.310805797576904
 20
6.922113418579101
 30
0.0
 11
4.310805797576904
 21
6.932769298553466
 31
0.0
  0
LINE
  5
37A
330
7D
100
AcDbEntity
 67
     1
  8
1
  6
Continuous
 62
    21
370
    18
100
AcDbLine
 10
4.310805797576904
 20
6.932769298553466
 30
0.0
 11
4.310805797576904
 21
6.937700271606445
 31
0.0
  0
LINE
  5
37B
330
7D
100
AcDbEntity
 67
     1
  8
1
  6
Continuous
 62
    21
370
    18
100
AcDbLine
 10
1.036326766014099
 20
6.922113418579101
 30
0.0
 11
1.036326766014099
 21
6.932769298553466
 31
0.0
  0
LINE
  5
37C
330
7D
100
AcDbEntity
 67
     1
  8
1
  6
Continuous
 62
    21
370
    18
100
AcDbLine
 10
1.036326766014099
 20
6.932769298553466
 30
0.0
 11
1.036326766014099
 21
6.937700271606445
 31
0.0
  0
LINE
  5
37D
330
7D
100
AcDbEntity
 67
     1
  8
1
  6
Continuous
 62
    21
370
    18
100
AcDbLine
 10
4.341979503631591
 20
3.632047653198242
 30
0.0
 11
4.337049007415771
 21
3.632047653198242
 31
0.0
  0
LINE
  5
37E
330
7D
100
AcDbEntity
 67
     1
  8
1
  6
Continuous
 62
    21
370
    18
100
AcDbLine
 10
4.337049007415771
 20
3.632047653198242
 30
0.0
 11
4.326392650604248
 21
3.632047653198242
 31
0.0
  0
LINE
  5
37F
330
7D
100
AcDbEntity
 67
     1
  8
1
  6
Continuous
 62
    21
370
    18
100
AcDbLine
 10
1.020739793777465
 20
6.906527042388916
 30
0.0
 11
1.010083675384521
 21
6.906527042388916
 31
0.0
  0
LINE
  5
380
330
7D
100
AcDbEntity
 67
     1
  8
1
  6
Continuous
 62
    21
370
    18
100
AcDbLine
 10
1.010083675384521
 20
6.906527042388916
 30
0.0
 11
1.005152940750122
 21
6.906527042388916
 31
0.0
  0
LINE
  5
381
330
7D
100
AcDbEntity
 67
     1
  8
1
  6
Continuous
 62
    21
370
    18
100
AcDbLine
 10
4.310805797576904
 20
3.600873708724975
 30
0.0
 11
4.310805797576904
 21
3.605804443359375
 31
0.0
  0
LINE
  5
382
330
7D
100
AcDbEntity
 67
     1
  8
1
  6
Continuous
 62
    21
370
    18
100
AcDbLine
 10
4.310805797576904
 20
3.605804443359375
 30
0.0
 11
4.310805797576904
 21
3.616460800170898
 31
0.0
  0
LINE
  5
383
330
7D
100
AcDbEntity
 67
     1
  8
1
  6
Continuous
 62
    21
370
    18
100
AcDbLine
 10
1.005152940750122
 20
6.906527042388916
 30
0.0
 11
1.009352087974548
 21
6.922097206115722
 31
0.0
  0
LINE
  5
384
330
7D
100
AcDbEntity
 67
     1
  8
1
  6
Continuous
 62
    21
370
    18
100
AcDbLine
 10
1.009352087974548
 20
6.922097206115722
 30
0.0
 11
1.020755767822265
 21
6.933501243591308
 31
0.0
  0
LINE
  5
385
330
7D
100
AcDbEntity
 67
     1
  8
1
  6
Continuous
 62
    21
370
    18
100
AcDbLine
 10
1.020755767822265
 20
6.933501243591308
 30
0.0
 11
1.036326766014099
 21
6.937700271606445
 31
0.0
  0
LINE
  5
386
330
7D
100
AcDbEntity
 67
     1
  8
1
  6
Continuous
 62
    21
370
    18
100
AcDbLine
 10
1.036326766014099
 20
3.600873708724975
 30
0.0
 11
1.036326766014099
 21
3.605804443359375
 31
0.0
  0
LINE
  5
387
330
7D
100
AcDbEntity
 67
     1
  8
1
  6
Continuous
 62
    21
370
    18
100
AcDbLine
 10
1.036326766014099
 20
3.605804443359375
 30
0.0
 11
1.036326766014099
 21
3.616460800170898
 31
0.0
  0
LINE
  5
388
330
7D
100
AcDbEntity
 67
     1
  8
1
  6
Continuous
 62
    21
370
    18
100
AcDbLine
 10
1.887316107749938
 20
5.217041015625
 30
0.0
 11
1.887316107749938
 21
5.694822788238525
 31
0.0
  0
LINE
  5
389
330
7D
100
AcDbEntity
 67
     1
  8
1
  6
Continuous
 62
    21
370
    18
100
AcDbLine
 10
4.335392475128173
 20
3.576287031173706
 30
0.0
 11
4.310805797576904
 21
3.600873708724975
 31
0.0
  0
LINE
  5
38A
330
7D
100
AcDbEntity
 67
     1
  8
1
  6
Continuous
 62
    21
370
    18
100
AcDbLine
 10
1.887316107749938
 20
5.694822788238525
 30
0.0
 11
1.947316169738769
 21
5.694822788238525
 31
0.0
  0
LINE
  5
38B
330
7D
100
AcDbEntity
 67
     1
  8
1
  6
Continuous
 62
    21
370
    18
100
AcDbLine
 10
3.459816217422485
 20
5.115545272827148
 30
0.0
 11
3.459816217422485
 21
5.217041015625
 31
0.0
  0
LINE
  5
38C
330
7D
100
AcDbEntity
 67
     1
  8
1
  6
Continuous
 62
    21
370
    18
100
AcDbLine
 10
3.459816217422485
 20
5.115545272827148
 30
0.0
 11
3.463091611862182
 21
5.118821144104003
 31
0.0
  0
LINE
  5
38D
330
7D
100
AcDbEntity
 67
     1
  8
1
  6
Continuous
 62
    21
370
    18
100
AcDbLine
 10
1.020739793777465
 20
3.632047653198242
 30
0.0
 11
1.010083675384521
 21
3.632047653198242
 31
0.0
  0
LINE
  5
38E
330
7D
100
AcDbEntity
 67
     1
  8
1
  6
Continuous
 62
    21
370
    18
100
AcDbLine
 10
1.010083675384521
 20
3.632047653198242
 30
0.0
 11
1.005152940750122
 21
3.632047653198242
 31
0.0
  0
LINE
  5
38F
330
7D
100
AcDbEntity
 67
     1
  8
1
  6
Continuous
 62
    21
370
    18
100
AcDbLine
 10
1.884040594100952
 20
5.118821144104003
 30
0.0
 11
1.887316107749938
 21
5.115545272827148
 31
0.0
  0
LINE
  5
390
330
7D
100
AcDbEntity
 67
     1
  8
1
  6
Continuous
 62
    21
370
    18
100
AcDbLine
 10
3.460748672485351
 20
5.695755004882812
 30
0.0
 11
3.459816217422485
 21
5.694822788238525
 31
0.0
  0
LINE
  5
391
330
7D
100
AcDbEntity
 67
     1
  8
1
  6
Continuous
 62
    21
370
    18
100
AcDbLine
 10
1.886383771896362
 20
5.695755004882812
 30
0.0
 11
1.887316107749938
 21
5.694822788238525
 31
0.0
  0
LINE
  5
392
330
7D
100
AcDbEntity
 67
     1
  8
1
  6
Continuous
 62
    21
370
    18
100
AcDbLine
 10
3.299535989761352
 20
5.6939377784729
 30
0.0
 11
3.313302993774414
 21
5.693841934204101
 31
0.0
  0
LINE
  5
393
330
7D
100
AcDbEntity
 67
     1
  8
1
  6
Continuous
 62
    21
370
    18
100
AcDbLine
 10
3.313302993774414
 20
5.693841934204101
 30
0.0
 11
3.319508552551269
 21
5.693606853485107
 31
0.0
  0
LINE
  5
394
330
7D
100
AcDbEntity
 67
     1
  8
1
  6
Continuous
 62
    21
370
    18
100
AcDbLine
 10
3.319508552551269
 20
5.693606853485107
 30
0.0
 11
3.325066089630126
 21
5.691755771636962
 31
0.0
  0
LINE
  5
395
330
7D
100
AcDbEntity
 67
     1
  8
1
  6
Continuous
 62
    21
370
    18
100
AcDbLine
 10
1.947316169738769
 20
5.694822788238525
 30
0.0
 11
1.947316169738769
 21
5.690821170806884
 31
0.0
  0
LINE
  5
396
330
7D
100
AcDbEntity
 67
     1
  8
1
  6
Continuous
 62
    21
370
    18
100
AcDbLine
 10
3.399816274642944
 20
5.694822788238525
 30
0.0
 11
3.39674949645996
 21
5.691755771636962
 31
0.0
  0
LINE
  5
397
330
7D
100
AcDbEntity
 67
     1
  8
1
  6
Continuous
 62
    21
370
    18
100
AcDbLine
 10
1.947316169738769
 20
5.694822788238525
 30
0.0
 11
1.950382709503173
 21
5.691755771636962
 31
0.0
  0
LINE
  5
398
330
7D
100
AcDbEntity
 67
     1
  8
1
  6
Continuous
 62
    21
370
    18
100
AcDbLine
 10
1.950382709503173
 20
5.691755771636962
 30
0.0
 11
2.022066116333007
 21
5.691755771636962
 31
0.0
  0
LINE
  5
399
330
7D
100
AcDbEntity
 67
     1
  8
1
  6
Continuous
 62
    21
370
    18
100
AcDbLine
 10
2.022066116333007
 20
5.691755771636962
 30
0.0
 11
2.027623653411865
 21
5.693606853485107
 31
0.0
  0
LINE
  5
39A
330
7D
100
AcDbEntity
 67
     1
  8
1
  6
Continuous
 62
    21
370
    18
100
AcDbLine
 10
3.325066089630126
 20
5.691755771636962
 30
0.0
 11
3.39674949645996
 21
5.691755771636962
 31
0.0
  0
LINE
  5
39B
330
7D
100
AcDbEntity
 67
     1
  8
1
  6
Continuous
 62
    21
370
    18
100
AcDbLine
 10
2.027623653411865
 20
5.693606853485107
 30
0.0
 11
2.033829450607299
 21
5.693841934204101
 31
0.0
  0
LINE
  5
39C
330
7D
100
AcDbEntity
 67
     1
  8
1
  6
Continuous
 62
    21
370
    18
100
AcDbLine
 10
2.033829450607299
 20
5.693841934204101
 30
0.0
 11
2.047596454620361
 21
5.6939377784729
 31
0.0
  0
LINE
  5
39D
330
7D
100
AcDbEntity
 67
     1
  8
1
  6
Continuous
 62
    21
370
    18
100
AcDbLine
 10
3.39674949645996
 20
5.691755771636962
 30
0.0
 11
3.39674949645996
 21
5.690821647644042
 31
0.0
  0
LINE
  5
39E
330
7D
100
AcDbEntity
 67
     1
  8
1
  6
Continuous
 62
    21
370
    18
100
AcDbLine
 10
1.950382709503173
 20
4.354888439178466
 30
0.0
 11
3.39674949645996
 21
4.354888439178466
 31
0.0
  0
LINE
  5
39F
330
7D
100
AcDbEntity
 67
     1
  8
1
  6
Continuous
 62
    21
370
    18
100
AcDbLine
 10
2.047596454620361
 20
5.6939377784729
 30
0.0
 11
3.299535989761352
 21
5.6939377784729
 31
0.0
  0
LINE
  5
3A0
330
7D
100
AcDbEntity
 67
     1
  8
1
  6
Continuous
 62
    21
370
    18
100
AcDbLine
 10
1.950382709503173
 20
5.691755771636962
 30
0.0
 11
1.950382709503173
 21
5.690821647644042
 31
0.0
  0
LINE
  5
3A1
330
7D
100
AcDbEntity
 67
     1
  8
1
  6
Continuous
 62
    21
370
    18
100
AcDbLine
 10
1.876041769981384
 20
4.935822010040283
 30
0.0
 11
1.87931752204895
 21
4.93909740447998
 31
0.0
  0
LINE
  5
3A2
330
7D
100
AcDbEntity
 67
     1
  8
1
  6
Continuous
 62
    21
370
    18
100
AcDbLine
 10
1.835314989089965
 20
4.93909740447998
 30
0.0
 11
1.832039475440979
 21
4.935822010040283
 31
0.0
  0
LINE
  5
3A3
330
7D
100
AcDbEntity
 67
     1
  8
1
  6
Continuous
 62
    21
370
    18
100
AcDbLine
 10
1.827316164970397
 20
4.947096347808837
 30
0.0
 11
1.829658865928649
 21
4.941440105438232
 31
0.0
  0
LINE
  5
3A4
330
7D
100
AcDbEntity
 67
     1
  8
1
  6
Continuous
 62
    21
370
    18
100
AcDbLine
 10
1.829658865928649
 20
4.941440105438232
 30
0.0
 11
1.835314989089965
 21
4.93909740447998
 31
0.0
  0
LINE
  5
3A5
330
7D
100
AcDbEntity
 67
     1
  8
1
  6
Continuous
 62
    21
370
    18
100
AcDbLine
 10
1.87931752204895
 20
4.93909740447998
 30
0.0
 11
1.884973645210266
 21
4.936755180358886
 31
0.0
  0
LINE
  5
3A6
330
7D
100
AcDbEntity
 67
     1
  8
1
  6
Continuous
 62
    21
370
    18
100
AcDbLine
 10
1.884973645210266
 20
4.936755180358886
 30
0.0
 11
1.887316107749938
 21
4.931098937988281
 31
0.0
  0
LINE
  5
3A7
330
7D
100
AcDbEntity
 67
     1
  8
1
  6
Continuous
 62
    21
370
    18
100
AcDbLine
 10
1.835314989089965
 20
4.93909740447998
 30
0.0
 11
1.87931752204895
 21
4.93909740447998
 31
0.0
  0
LINE
  5
3A8
330
7D
100
AcDbEntity
 67
     1
  8
1
  6
Continuous
 62
    21
370
    18
100
AcDbLine
 10
1.835314989089965
 20
5.107546329498291
 30
0.0
 11
1.87931752204895
 21
5.107546329498291
 31
0.0
  0
LINE
  5
3A9
330
7D
100
AcDbEntity
 67
     1
  8
1
  6
Continuous
 62
    21
370
    18
100
AcDbLine
 10
1.827316164970397
 20
5.099547863006591
 30
0.0
 11
1.827316164970397
 21
4.947096347808837
 31
0.0
  0
LINE
  5
3AA
330
7D
100
AcDbEntity
 67
     1
  8
1
  6
Continuous
 62
    21
370
    18
100
AcDbLine
 10
1.835314989089965
 20
5.107546329498291
 30
0.0
 11
1.829658865928649
 21
5.105204105377197
 31
0.0
  0
LINE
  5
3AB
330
7D
100
AcDbEntity
 67
     1
  8
1
  6
Continuous
 62
    21
370
    18
100
AcDbLine
 10
1.829658865928649
 20
5.105204105377197
 30
0.0
 11
1.827316164970397
 21
5.099547863006591
 31
0.0
  0
LINE
  5
3AC
330
7D
100
AcDbEntity
 67
     1
  8
1
  6
Continuous
 62
    21
370
    18
100
AcDbLine
 10
1.87931752204895
 20
5.107546329498291
 30
0.0
 11
1.876041769981384
 21
5.110822200775146
 31
0.0
  0
LINE
  5
3AD
330
7D
100
AcDbEntity
 67
     1
  8
1
  6
Continuous
 62
    21
370
    18
100
AcDbLine
 10
1.824040532112121
 20
4.94382095336914
 30
0.0
 11
1.827316164970397
 21
4.947096347808837
 31
0.0
  0
LINE
  5
3AE
330
7D
100
AcDbEntity
 67
     1
  8
1
  6
Continuous
 62
    21
370
    18
100
AcDbLine
 10
1.887316107749938
 20
5.115545272827148
 30
0.0
 11
1.884973645210266
 21
5.109889030456542
 31
0.0
  0
LINE
  5
3AF
330
7D
100
AcDbEntity
 67
     1
  8
1
  6
Continuous
 62
    21
370
    18
100
AcDbLine
 10
1.884973645210266
 20
5.109889030456542
 30
0.0
 11
1.87931752204895
 21
5.107546329498291
 31
0.0
  0
LINE
  5
3B0
330
7D
100
AcDbEntity
 67
     1
  8
1
  6
Continuous
 62
    21
370
    18
100
AcDbLine
 10
3.459816217422485
 20
4.829603195190429
 30
0.0
 11
3.454816102981567
 21
4.833764553070068
 31
0.0
  0
LINE
  5
3B1
330
7D
100
AcDbEntity
 67
     1
  8
1
  6
Continuous
 62
    21
370
    18
100
AcDbLine
 10
3.459816217422485
 20
5.217041015625
 30
0.0
 11
3.454816102981567
 21
5.212879180908203
 31
0.0
  0
LINE
  5
3B2
330
7D
100
AcDbEntity
 67
     1
  8
1
  6
Continuous
 62
    21
370
    18
100
AcDbLine
 10
1.832039475440979
 20
5.110822200775146
 30
0.0
 11
1.835314989089965
 21
5.107546329498291
 31
0.0
  0
LINE
  5
3B3
330
7D
100
AcDbEntity
 67
     1
  8
1
  6
Continuous
 62
    21
370
    18
100
AcDbLine
 10
3.511817216873168
 20
4.93909740447998
 30
0.0
 11
3.467814922332763
 21
4.93909740447998
 31
0.0
  0
LINE
  5
3B4
330
7D
100
AcDbEntity
 67
     1
  8
1
  6
Continuous
 62
    21
370
    18
100
AcDbLine
 10
1.827316164970397
 20
5.099547863006591
 30
0.0
 11
1.824040532112121
 21
5.102823257446289
 31
0.0
  0
LINE
  5
3B5
330
7D
100
AcDbEntity
 67
     1
  8
1
  6
Continuous
 62
    21
370
    18
100
AcDbLine
 10
3.515092849731445
 20
4.935822010040283
 30
0.0
 11
3.511817216873168
 21
4.93909740447998
 31
0.0
  0
LINE
  5
3B6
330
7D
100
AcDbEntity
 67
     1
  8
1
  6
Continuous
 62
    21
370
    18
100
AcDbLine
 10
3.467814922332763
 20
4.93909740447998
 30
0.0
 11
3.47109055519104
 21
4.935822010040283
 31
0.0
  0
LINE
  5
3B7
330
7D
100
AcDbEntity
 67
     1
  8
1
  6
Continuous
 62
    21
370
    18
100
AcDbLine
 10
3.511817216873168
 20
5.107546329498291
 30
0.0
 11
3.467814922332763
 21
5.107546329498291
 31
0.0
  0
LINE
  5
3B8
330
7D
100
AcDbEntity
 67
     1
  8
1
  6
Continuous
 62
    21
370
    18
100
AcDbLine
 10
3.47109055519104
 20
5.110822200775146
 30
0.0
 11
3.467814922332763
 21
5.107546329498291
 31
0.0
  0
LINE
  5
3B9
330
7D
100
AcDbEntity
 67
     1
  8
1
  6
Continuous
 62
    21
370
    18
100
AcDbLine
 10
3.511817216873168
 20
4.93909740447998
 30
0.0
 11
3.517473697662353
 21
4.941440105438232
 31
0.0
  0
LINE
  5
3BA
330
7D
100
AcDbEntity
 67
     1
  8
1
  6
Continuous
 62
    21
370
    18
100
AcDbLine
 10
3.517473697662353
 20
4.941440105438232
 30
0.0
 11
3.519816160202026
 21
4.947096347808837
 31
0.0
  0
LINE
  5
3BB
330
7D
100
AcDbEntity
 67
     1
  8
1
  6
Continuous
 62
    21
370
    18
100
AcDbLine
 10
3.519816160202026
 20
5.099547863006591
 30
0.0
 11
3.519816160202026
 21
4.947096347808837
 31
0.0
  0
LINE
  5
3BC
330
7D
100
AcDbEntity
 67
     1
  8
1
  6
Continuous
 62
    21
370
    18
100
AcDbLine
 10
3.519816160202026
 20
5.099547863006591
 30
0.0
 11
3.517473697662353
 21
5.105204105377197
 31
0.0
  0
LINE
  5
3BD
330
7D
100
AcDbEntity
 67
     1
  8
1
  6
Continuous
 62
    21
370
    18
100
AcDbLine
 10
3.517473697662353
 20
5.105204105377197
 30
0.0
 11
3.511817216873168
 21
5.107546329498291
 31
0.0
  0
LINE
  5
3BE
330
7D
100
AcDbEntity
 67
     1
  8
1
  6
Continuous
 62
    21
370
    18
100
AcDbLine
 10
3.467814922332763
 20
5.107546329498291
 30
0.0
 11
3.462158679962158
 21
5.109889030456542
 31
0.0
  0
LINE
  5
3BF
330
7D
100
AcDbEntity
 67
     1
  8
1
  6
Continuous
 62
    21
370
    18
100
AcDbLine
 10
3.462158679962158
 20
5.109889030456542
 30
0.0
 11
3.459816217422485
 21
5.115545272827148
 31
0.0
  0
LINE
  5
3C0
330
7D
100
AcDbEntity
 67
     1
  8
1
  6
Continuous
 62
    21
370
    18
100
AcDbLine
 10
3.511817216873168
 20
5.107546329498291
 30
0.0
 11
3.515092849731445
 21
5.110822200775146
 31
0.0
  0
LINE
  5
3C1
330
7D
100
AcDbEntity
 67
     1
  8
1
  6
Continuous
 62
    21
370
    18
100
AcDbLine
 10
3.519816160202026
 20
4.947096347808837
 30
0.0
 11
3.523091793060302
 21
4.94382095336914
 31
0.0
  0
LINE
  5
3C2
330
7D
100
AcDbEntity
 67
     1
  8
1
  6
Continuous
 62
    21
370
    18
100
AcDbLine
 10
3.523091793060302
 20
5.102823257446289
 30
0.0
 11
3.519816160202026
 21
5.099547863006591
 31
0.0
  0
LINE
  5
3C3
330
7D
100
AcDbEntity
 67
     1
  8
1
  6
Continuous
 62
    21
370
    18
100
AcDbLine
 10
3.459816217422485
 20
4.931098937988281
 30
0.0
 11
3.459816217422485
 21
5.115545272827148
 31
0.0
  0
LINE
  5
3C4
330
7D
100
AcDbEntity
 67
     1
  8
1
  6
Continuous
 62
    21
370
    18
100
AcDbLine
 10
3.459816217422485
 20
4.931098937988281
 30
0.0
 11
3.462158679962158
 21
4.936755180358886
 31
0.0
  0
LINE
  5
3C5
330
7D
100
AcDbEntity
 67
     1
  8
1
  6
Continuous
 62
    21
370
    18
100
AcDbLine
 10
3.462158679962158
 20
4.936755180358886
 30
0.0
 11
3.467814922332763
 21
4.93909740447998
 31
0.0
  0
LINE
  5
3C6
330
7D
100
AcDbEntity
 67
     1
  8
1
  6
Continuous
 62
    21
370
    18
100
AcDbLine
 10
1.95295512676239
 20
5.845843791961669
 30
0.0
 11
1.95295512676239
 21
6.186112403869628
 31
0.0
  0
LINE
  5
3C7
330
7D
100
AcDbEntity
 67
     1
  8
1
  6
Continuous
 62
    21
370
    18
100
AcDbLine
 10
1.952431678771972
 20
5.845843791961669
 30
0.0
 11
1.95295512676239
 21
5.845843791961669
 31
0.0
  0
LINE
  5
3C8
330
7D
100
AcDbEntity
 67
     1
  8
1
  6
Continuous
 62
    21
370
    18
100
AcDbLine
 10
1.95295512676239
 20
6.186112403869628
 30
0.0
 11
1.952431678771972
 21
6.186112403869628
 31
0.0
  0
LINE
  5
3C9
330
7D
100
AcDbEntity
 67
     1
  8
1
  6
Continuous
 62
    21
370
    18
100
AcDbLine
 10
3.384700775146484
 20
5.835843563079833
 30
0.0
 11
3.384700775146484
 21
5.836367130279541
 31
0.0
  0
LINE
  5
3CA
330
7D
100
AcDbEntity
 67
     1
  8
1
  6
Continuous
 62
    21
370
    18
100
AcDbLine
 10
2.003029346466064
 20
5.836367130279541
 30
0.0
 11
1.962431669235229
 21
5.836367130279541
 31
0.0
  0
LINE
  5
3CB
330
7D
100
AcDbEntity
 67
     1
  8
1
  6
Continuous
 62
    21
370
    18
100
AcDbLine
 10
3.384700775146484
 20
5.836367130279541
 30
0.0
 11
3.344103097915649
 21
5.836367130279541
 31
0.0
  0
LINE
  5
3CC
330
7D
100
AcDbEntity
 67
     1
  8
1
  6
Continuous
 62
    21
370
    18
100
AcDbLine
 10
2.006091833114624
 20
5.836977958679199
 30
0.0
 11
3.341040611267089
 21
5.836977958679199
 31
0.0
  0
LINE
  5
3CD
330
7D
100
AcDbEntity
 67
     1
  8
1
  6
Continuous
 62
    21
370
    18
100
AcDbLine
 10
2.006091833114624
 20
5.836977958679199
 30
0.0
 11
2.003029346466064
 21
5.836367130279541
 31
0.0
  0
LINE
  5
3CE
330
7D
100
AcDbEntity
 67
     1
  8
1
  6
Continuous
 62
    21
370
    18
100
AcDbLine
 10
3.344103097915649
 20
5.836367130279541
 30
0.0
 11
3.341040611267089
 21
5.836977958679199
 31
0.0
  0
LINE
  5
3CF
330
7D
100
AcDbEntity
 67
     1
  8
1
  6
Continuous
 62
    21
370
    18
100
AcDbLine
 10
1.962431669235229
 20
5.836367130279541
 30
0.0
 11
1.962431669235229
 21
5.835843563079833
 31
0.0
  0
LINE
  5
3D0
330
7D
100
AcDbEntity
 67
     1
  8
1
  6
Continuous
 62
    21
370
    18
100
AcDbLine
 10
3.394177198410034
 20
6.186112403869628
 30
0.0
 11
3.394177198410034
 21
5.845843791961669
 31
0.0
  0
LINE
  5
3D1
330
7D
100
AcDbEntity
 67
     1
  8
1
  6
Continuous
 62
    21
370
    18
100
AcDbLine
 10
3.394700765609741
 20
6.186112403869628
 30
0.0
 11
3.394177198410034
 21
6.186112403869628
 31
0.0
  0
LINE
  5
3D2
330
7D
100
AcDbEntity
 67
     1
  8
1
  6
Continuous
 62
    21
370
    18
100
AcDbLine
 10
2.006529092788696
 20
6.194978237152099
 30
0.0
 11
3.340603113174438
 21
6.194978237152099
 31
0.0
  0
LINE
  5
3D3
330
7D
100
AcDbEntity
 67
     1
  8
1
  6
Continuous
 62
    21
370
    18
100
AcDbLine
 10
3.394177198410034
 20
5.845843791961669
 30
0.0
 11
3.394700765609741
 21
5.845843791961669
 31
0.0
  0
LINE
  5
3D4
330
7D
100
AcDbEntity
 67
     1
  8
1
  6
Continuous
 62
    21
370
    18
100
AcDbLine
 10
1.962431669235229
 20
6.196112632751464
 30
0.0
 11
1.962431669235229
 21
6.195589065551757
 31
0.0
  0
LINE
  5
3D5
330
7D
100
AcDbEntity
 67
     1
  8
1
  6
Continuous
 62
    21
370
    18
100
AcDbLine
 10
2.006529092788696
 20
6.194978237152099
 30
0.0
 11
2.006091833114624
 21
5.836977958679199
 31
0.0
  0
LINE
  5
3D6
330
7D
100
AcDbEntity
 67
     1
  8
1
  6
Continuous
 62
    21
370
    18
100
AcDbLine
 10
2.00346827507019
 20
6.195589065551757
 30
0.0
 11
2.006529092788696
 21
6.194978237152099
 31
0.0
  0
LINE
  5
3D7
330
7D
100
AcDbEntity
 67
     1
  8
1
  6
Continuous
 62
    21
370
    18
100
AcDbLine
 10
3.340603113174438
 20
6.194978237152099
 30
0.0
 11
3.343663930892944
 21
6.195589065551757
 31
0.0
  0
LINE
  5
3D8
330
7D
100
AcDbEntity
 67
     1
  8
1
  6
Continuous
 62
    21
370
    18
100
AcDbLine
 10
3.343663930892944
 20
6.195589065551757
 30
0.0
 11
3.384700775146484
 21
6.195589065551757
 31
0.0
  0
LINE
  5
3D9
330
7D
100
AcDbEntity
 67
     1
  8
1
  6
Continuous
 62
    21
370
    18
100
AcDbLine
 10
3.341040611267089
 20
5.836977958679199
 30
0.0
 11
3.340603113174438
 21
6.194978237152099
 31
0.0
  0
LINE
  5
3DA
330
7D
100
AcDbEntity
 67
     1
  8
1
  6
Continuous
 62
    21
370
    18
100
AcDbLine
 10
1.962431669235229
 20
6.195589065551757
 30
0.0
 11
2.00346827507019
 21
6.195589065551757
 31
0.0
  0
LINE
  5
3DB
330
7D
100
AcDbEntity
 67
     1
  8
1
  6
Continuous
 62
    21
370
    18
100
AcDbLine
 10
3.384700775146484
 20
6.195589065551757
 30
0.0
 11
3.384700775146484
 21
6.196112632751464
 31
0.0
  0
LINE
  5
3DC
330
7D
100
AcDbEntity
 67
     1
  8
1
  6
Continuous
 62
    21
370
    18
100
AcDbLine
 10
4.13877534866333
 20
3.834834814071655
 30
0.0
 11
4.13877534866333
 21
3.810664653778076
 31
0.0
  0
LINE
  5
3DD
330
7D
100
AcDbEntity
 67
     1
  8
1
  6
Continuous
 62
    21
370
    18
100
AcDbLine
 10
4.13877534866333
 20
3.810664653778076
 30
0.0
 11
4.162945747375488
 21
3.810664653778076
 31
0.0
  0
LINE
  5
3DE
330
7D
100
AcDbEntity
 67
     1
  8
1
  6
Continuous
 62
    21
370
    18
100
AcDbLine
 10
4.162945747375488
 20
3.810664653778076
 30
0.0
 11
4.162945747375488
 21
3.716460943222045
 31
0.0
  0
LINE
  5
3DF
330
7D
100
AcDbEntity
 67
     1
  8
1
  6
Continuous
 62
    21
370
    18
100
AcDbLine
 10
4.162945747375488
 20
3.716460943222045
 30
0.0
 11
4.199201107025146
 21
3.716460943222045
 31
0.0
  0
LINE
  5
3E0
330
7D
100
AcDbEntity
 67
     1
  8
1
  6
Continuous
 62
    21
370
    18
100
AcDbLine
 10
4.199201107025146
 20
3.810664653778076
 30
0.0
 11
4.226392745971679
 21
3.810664653778076
 31
0.0
  0
LINE
  5
3E1
330
7D
100
AcDbEntity
 67
     1
  8
1
  6
Continuous
 62
    21
370
    18
100
AcDbLine
 10
4.199201107025146
 20
3.716460943222045
 30
0.0
 11
4.199201107025146
 21
3.810664653778076
 31
0.0
  0
LINE
  5
3E2
330
7D
100
AcDbEntity
 67
     1
  8
1
  6
Continuous
 62
    21
370
    18
100
AcDbLine
 10
4.226392745971679
 20
3.810664653778076
 30
0.0
 11
4.226392745971679
 21
3.834834814071655
 31
0.0
  0
LINE
  5
3E3
330
7D
100
AcDbEntity
 67
     1
  8
1
  6
Continuous
 62
    21
370
    18
100
AcDbLine
 10
4.226392745971679
 20
3.834834814071655
 30
0.0
 11
4.13877534866333
 21
3.834834814071655
 31
0.0
  0
LINE
  5
3E4
330
7D
100
AcDbEntity
 67
     1
  8
1
  6
Continuous
 62
    21
370
    18
100
AcDbLine
 10
3.994478940963745
 20
3.73760986328125
 30
0.0
 11
3.994478940963745
 21
3.834834814071655
 31
0.0
  0
LINE
  5
3E5
330
7D
100
AcDbEntity
 67
     1
  8
1
  6
Continuous
 62
    21
370
    18
100
AcDbLine
 10
3.994478940963745
 20
3.834834814071655
 30
0.0
 11
4.033574104309082
 21
3.834834814071655
 31
0.0
  0
LINE
  5
3E6
330
7D
100
AcDbEntity
 67
     1
  8
1
  6
Continuous
 62
    21
370
    18
100
AcDbLine
 10
4.039616584777832
 20
3.74365234375
 30
0.0
 11
4.048136711120605
 21
3.74365234375
 31
0.0
  0
LINE
  5
3E7
330
7D
100
AcDbEntity
 67
     1
  8
1
  6
Continuous
 62
    21
370
    18
100
AcDbLine
 10
4.054179191589355
 20
3.834834814071655
 30
0.0
 11
4.078893184661865
 21
3.834834814071655
 31
0.0
  0
LINE
  5
3E8
330
7D
100
AcDbEntity
 67
     1
  8
1
  6
Continuous
 62
    21
370
    18
100
AcDbLine
 10
4.033574104309082
 20
3.834834814071655
 30
0.0
 11
4.033574104309082
 21
3.74969482421875
 31
0.0
  0
LINE
  5
3E9
330
7D
100
AcDbEntity
 67
     1
  8
1
  6
Continuous
 62
    21
370
    18
100
AcDbLine
 10
4.078893184661865
 20
3.834834814071655
 30
0.0
 11
4.078893184661865
 21
3.73760986328125
 31
0.0
  0
LINE
  5
3EA
330
7D
100
AcDbEntity
 67
     1
  8
1
  6
Continuous
 62
    21
370
    18
100
AcDbLine
 10
4.05774450302124
 20
3.716460943222045
 30
0.0
 11
4.015627861022949
 21
3.716460943222045
 31
0.0
  0
LINE
  5
3EB
330
7D
100
AcDbEntity
 67
     1
  8
1
  6
Continuous
 62
    21
370
    18
100
AcDbLine
 10
4.054179191589355
 20
3.74969482421875
 30
0.0
 11
4.054179191589355
 21
3.834834814071655
 31
0.0
  0
LINE
  5
3EC
330
7D
100
AcDbEntity
 67
     1
  8
1
  6
Continuous
 62
    21
370
    18
100
AcDbLine
 10
3.714405536651611
 20
3.759151697158813
 30
0.0
 11
3.729270458221435
 21
3.792627334594726
 31
0.0
  0
LINE
  5
3ED
330
7D
100
AcDbEntity
 67
     1
  8
1
  6
Continuous
 62
    21
370
    18
100
AcDbLine
 10
3.74437665939331
 20
3.759151697158813
 30
0.0
 11
3.714405536651611
 21
3.759151697158813
 31
0.0
  0
LINE
  5
3EE
330
7D
100
AcDbEntity
 67
     1
  8
1
  6
Continuous
 62
    21
370
    18
100
AcDbLine
 10
3.625882148742675
 20
3.84389853477478
 30
0.0
 11
3.64098834991455
 21
3.84389853477478
 31
0.0
  0
LINE
  5
3EF
330
7D
100
AcDbEntity
 67
     1
  8
1
  6
Continuous
 62
    21
370
    18
100
AcDbLine
 10
3.625882148742675
 20
3.789515495300292
 30
0.0
 11
3.625882148742675
 21
3.84389853477478
 31
0.0
  0
LINE
  5
3F0
330
7D
100
AcDbEntity
 67
     1
  8
1
  6
Continuous
 62
    21
370
    18
100
AcDbLine
 10
3.648541688919067
 20
3.836345195770263
 30
0.0
 11
3.648541688919067
 21
3.797068834304809
 31
0.0
  0
LINE
  5
3F1
330
7D
100
AcDbEntity
 67
     1
  8
1
  6
Continuous
 62
    21
370
    18
100
AcDbLine
 10
3.64098834991455
 20
3.789515495300292
 30
0.0
 11
3.625882148742675
 21
3.789515495300292
 31
0.0
  0
LINE
  5
3F2
330
7D
100
AcDbEntity
 67
     1
  8
1
  6
Continuous
 62
    21
370
    18
100
AcDbLine
 10
3.556392431259155
 20
3.716460943222045
 30
0.0
 11
3.556392431259155
 21
3.871090173721313
 31
0.0
  0
LINE
  5
3F3
330
7D
100
AcDbEntity
 67
     1
  8
1
  6
Continuous
 62
    21
370
    18
100
AcDbLine
 10
3.556392431259155
 20
3.871090173721313
 30
0.0
 11
3.663768768310546
 21
3.871090173721313
 31
0.0
  0
LINE
  5
3F4
330
7D
100
AcDbEntity
 67
     1
  8
1
  6
Continuous
 62
    21
370
    18
100
AcDbLine
 10
3.71418023109436
 20
3.834834814071655
 30
0.0
 11
3.745373964309692
 21
3.834834814071655
 31
0.0
  0
LINE
  5
3F5
330
7D
100
AcDbEntity
 67
     1
  8
1
  6
Continuous
 62
    21
370
    18
100
AcDbLine
 10
3.779967546463012
 20
3.757791757583618
 30
0.0
 11
3.779967546463012
 21
3.834834814071655
 31
0.0
  0
LINE
  5
3F6
330
7D
100
AcDbEntity
 67
     1
  8
1
  6
Continuous
 62
    21
370
    18
100
AcDbLine
 10
3.745373964309692
 20
3.834834814071655
 30
0.0
 11
3.779967546463012
 21
3.757791757583618
 31
0.0
  0
LINE
  5
3F7
330
7D
100
AcDbEntity
 67
     1
  8
1
  6
Continuous
 62
    21
370
    18
100
AcDbLine
 10
3.819546461105346
 20
3.834834814071655
 30
0.0
 11
3.84039306640625
 21
3.791932582855224
 31
0.0
  0
LINE
  5
3F8
330
7D
100
AcDbEntity
 67
     1
  8
1
  6
Continuous
 62
    21
370
    18
100
AcDbLine
 10
3.779967546463012
 20
3.834834814071655
 30
0.0
 11
3.819546461105346
 21
3.834834814071655
 31
0.0
  0
LINE
  5
3F9
330
7D
100
AcDbEntity
 67
     1
  8
1
  6
Continuous
 62
    21
370
    18
100
AcDbLine
 10
3.84039306640625
 20
3.791932582855224
 30
0.0
 11
3.84039306640625
 21
3.834834814071655
 31
0.0
  0
LINE
  5
3FA
330
7D
100
AcDbEntity
 67
     1
  8
1
  6
Continuous
 62
    21
370
    18
100
AcDbLine
 10
3.84039306640625
 20
3.834834814071655
 30
0.0
 11
3.870605945587158
 21
3.834834814071655
 31
0.0
  0
LINE
  5
3FB
330
7D
100
AcDbEntity
 67
     1
  8
1
  6
Continuous
 62
    21
370
    18
100
AcDbLine
 10
3.870605945587158
 20
3.834834814071655
 30
0.0
 11
3.870605945587158
 21
3.716460943222045
 31
0.0
  0
LINE
  5
3FC
330
7D
100
AcDbEntity
 67
     1
  8
1
  6
Continuous
 62
    21
370
    18
100
AcDbLine
 10
3.870605945587158
 20
3.716460943222045
 30
0.0
 11
3.834954977035522
 21
3.716460943222045
 31
0.0
  0
LINE
  5
3FD
330
7D
100
AcDbEntity
 67
     1
  8
1
  6
Continuous
 62
    21
370
    18
100
AcDbLine
 10
3.834954977035522
 20
3.716460943222045
 30
0.0
 11
3.813201665878295
 21
3.766855955123901
 31
0.0
  0
LINE
  5
3FE
330
7D
100
AcDbEntity
 67
     1
  8
1
  6
Continuous
 62
    21
370
    18
100
AcDbLine
 10
3.813201665878295
 20
3.766855955123901
 30
0.0
 11
3.813201665878295
 21
3.716460943222045
 31
0.0
  0
LINE
  5
3FF
330
7D
100
AcDbEntity
 67
     1
  8
1
  6
Continuous
 62
    21
370
    18
100
AcDbLine
 10
3.760268688201904
 20
3.716460943222045
 30
0.0
 11
3.751929998397827
 21
3.733531236648559
 31
0.0
  0
LINE
  5
400
330
7D
100
AcDbEntity
 67
     1
  8
1
  6
Continuous
 62
    21
370
    18
100
AcDbLine
 10
3.813201665878295
 20
3.716460943222045
 30
0.0
 11
3.760268688201904
 21
3.716460943222045
 31
0.0
  0
LINE
  5
401
330
7D
100
AcDbEntity
 67
     1
  8
1
  6
Continuous
 62
    21
370
    18
100
AcDbLine
 10
3.706943035125732
 20
3.733531236648559
 30
0.0
 11
3.699722290039062
 21
3.716460943222045
 31
0.0
  0
LINE
  5
402
330
7D
100
AcDbEntity
 67
     1
  8
1
  6
Continuous
 62
    21
370
    18
100
AcDbLine
 10
3.699722290039062
 20
3.716460943222045
 30
0.0
 11
3.664796113967895
 21
3.716460943222045
 31
0.0
  0
LINE
  5
403
330
7D
100
AcDbEntity
 67
     1
  8
1
  6
Continuous
 62
    21
370
    18
100
AcDbLine
 10
3.664796113967895
 20
3.716460943222045
 30
0.0
 11
3.687067508697509
 21
3.770116806030273
 31
0.0
  0
LINE
  5
404
330
7D
100
AcDbEntity
 67
     1
  8
1
  6
Continuous
 62
    21
370
    18
100
AcDbLine
 10
3.751929998397827
 20
3.733531236648559
 30
0.0
 11
3.706943035125732
 21
3.733531236648559
 31
0.0
  0
LINE
  5
405
330
7D
100
AcDbEntity
 67
     1
  8
1
  6
Continuous
 62
    21
370
    18
100
AcDbLine
 10
3.663768768310546
 20
3.764740943908691
 30
0.0
 11
3.625882148742675
 21
3.764740943908691
 31
0.0
  0
LINE
  5
406
330
7D
100
AcDbEntity
 67
     1
  8
1
  6
Continuous
 62
    21
370
    18
100
AcDbLine
 10
3.625882148742675
 20
3.764740943908691
 30
0.0
 11
3.625882148742675
 21
3.716460943222045
 31
0.0
  0
LINE
  5
407
330
7D
100
AcDbEntity
 67
     1
  8
1
  6
Continuous
 62
    21
370
    18
100
AcDbLine
 10
3.625882148742675
 20
3.716460943222045
 30
0.0
 11
3.556392431259155
 21
3.716460943222045
 31
0.0
  0
LINE
  5
408
330
7D
100
AcDbEntity
 67
     1
  8
1
  6
Continuous
 62
    21
370
    18
100
AcDbLine
 10
3.729270458221435
 20
3.792627334594726
 30
0.0
 11
3.74437665939331
 21
3.759151697158813
 31
0.0
  0
LINE
  5
409
330
7D
100
AcDbEntity
 67
     1
  8
1
  6
Continuous
 62
    21
370
    18
100
AcDbLine
 10
3.923750400543212
 20
3.74365234375
 30
0.0
 11
3.923750400543212
 21
3.810120582580566
 31
0.0
  0
LINE
  5
40A
330
7D
100
AcDbEntity
 67
     1
  8
1
  6
Continuous
 62
    21
370
    18
100
AcDbLine
 10
3.935835361480712
 20
3.74365234375
 30
0.0
 11
3.923750400543212
 21
3.74365234375
 31
0.0
  0
LINE
  5
40B
330
7D
100
AcDbEntity
 67
     1
  8
1
  6
Continuous
 62
    21
370
    18
100
AcDbLine
 10
3.941878318786621
 20
3.804078102111816
 30
0.0
 11
3.941878318786621
 21
3.74969482421875
 31
0.0
  0
LINE
  5
40C
330
7D
100
AcDbEntity
 67
     1
  8
1
  6
Continuous
 62
    21
370
    18
100
AcDbLine
 10
3.888733863830566
 20
3.834834814071655
 30
0.0
 11
3.955201864242553
 21
3.834834814071655
 31
0.0
  0
LINE
  5
40D
330
7D
100
AcDbEntity
 67
     1
  8
1
  6
Continuous
 62
    21
370
    18
100
AcDbLine
 10
3.888733863830566
 20
3.716460943222045
 30
0.0
 11
3.888733863830566
 21
3.834834814071655
 31
0.0
  0
LINE
  5
40E
330
7D
100
AcDbEntity
 67
     1
  8
1
  6
Continuous
 62
    21
370
    18
100
AcDbLine
 10
3.976351022720336
 20
3.813685894012451
 30
0.0
 11
3.976351022720336
 21
3.73760986328125
 31
0.0
  0
LINE
  5
40F
330
7D
100
AcDbEntity
 67
     1
  8
1
  6
Continuous
 62
    21
370
    18
100
AcDbLine
 10
3.955201864242553
 20
3.716460943222045
 30
0.0
 11
3.888733863830566
 21
3.716460943222045
 31
0.0
  0
LINE
  5
410
330
7D
100
AcDbEntity
 67
     1
  8
1
  6
Continuous
 62
    21
370
    18
100
AcDbLine
 10
3.923750400543212
 20
3.810120582580566
 30
0.0
 11
3.935835361480712
 21
3.810120582580566
 31
0.0
  0
LINE
  5
411
330
7D
100
AcDbEntity
 67
     1
  8
1
  6
Continuous
 62
    21
370
    18
100
AcDbLine
 10
4.097988128662109
 20
3.716460943222045
 30
0.0
 11
4.097988128662109
 21
3.834834814071655
 31
0.0
  0
LINE
  5
412
330
7D
100
AcDbEntity
 67
     1
  8
1
  6
Continuous
 62
    21
370
    18
100
AcDbLine
 10
4.129711627960205
 20
3.834834814071655
 30
0.0
 11
4.129711627960205
 21
3.716460943222045
 31
0.0
  0
LINE
  5
413
330
7D
100
AcDbEntity
 67
     1
  8
1
  6
Continuous
 62
    21
370
    18
100
AcDbLine
 10
4.129711627960205
 20
3.716460943222045
 30
0.0
 11
4.097988128662109
 21
3.716460943222045
 31
0.0
  0
LINE
  5
414
330
7D
100
AcDbEntity
 67
     1
  8
1
  6
Continuous
 62
    21
370
    18
100
AcDbLine
 10
4.097988128662109
 20
3.834834814071655
 30
0.0
 11
4.129711627960205
 21
3.834834814071655
 31
0.0
  0
LINE
  5
415
330
7D
100
AcDbEntity
 67
     1
  8
1
  6
Continuous
 62
   163
370
    18
100
AcDbLine
 10
5.296446323394775
 20
5.089083194732666
 30
0.0
 11
5.828991413116455
 21
5.621628284454345
 31
0.0
  0
LINE
  5
416
330
7D
100
AcDbEntity
 67
     1
  8
1
  6
Continuous
 62
   163
370
    18
100
AcDbLine
 10
5.828991413116455
 20
5.494973182678222
 30
0.0
 11
5.357339859008789
 21
5.023322105407714
 31
0.0
  0
LINE
  5
417
330
7D
100
AcDbEntity
 67
     1
  8
1
  6
Continuous
 62
   163
370
    18
100
AcDbLine
 10
5.357339859008789
 20
5.023322105407714
 30
0.0
 11
5.828991413116455
 21
4.551670551300048
 31
0.0
  0
LINE
  5
418
330
7D
100
AcDbEntity
 67
     1
  8
1
  6
Continuous
 62
   163
370
    18
100
AcDbLine
 10
5.828991413116455
 20
4.425015926361083
 30
0.0
 11
5.296446323394775
 21
4.957561016082763
 31
0.0
  0
LINE
  5
419
330
7D
100
AcDbEntity
 67
     1
  8
1
  6
Continuous
 62
   163
370
    18
100
AcDbLine
 10
6.205227375030517
 20
4.619917392730712
 30
0.0
 11
6.195132732391357
 21
4.619917392730712
 31
0.0
  0
LINE
  5
41A
330
7D
100
AcDbEntity
 67
     1
  8
1
  6
Continuous
 62
   163
370
    18
100
AcDbLine
 10
6.235227108001708
 20
4.589917659759521
 30
0.0
 11
6.235227108001708
 21
4.52921724319458
 31
0.0
  0
LINE
  5
41B
330
7D
100
AcDbEntity
 67
     1
  8
1
  6
Continuous
 62
   163
370
    18
100
AcDbLine
 10
6.205227375030517
 20
4.619917392730712
 30
0.0
 11
6.220227241516113
 21
4.615898609161376
 31
0.0
  0
LINE
  5
41C
330
7D
100
AcDbEntity
 67
     1
  8
1
  6
Continuous
 62
   163
370
    18
100
AcDbLine
 10
6.220227241516113
 20
4.615898609161376
 30
0.0
 11
6.231208324432373
 21
4.604917526245117
 31
0.0
  0
LINE
  5
41D
330
7D
100
AcDbEntity
 67
     1
  8
1
  6
Continuous
 62
   163
370
    18
100
AcDbLine
 10
6.231208324432373
 20
4.604917526245117
 30
0.0
 11
6.235227108001708
 21
4.589917659759521
 31
0.0
  0
LINE
  5
41E
330
7D
100
AcDbEntity
 67
     1
  8
1
  6
Continuous
 62
   163
370
    18
100
AcDbLine
 10
6.195133686065673
 20
4.439691066741943
 30
0.0
 11
6.216807842254638
 21
4.465331554412841
 31
0.0
  0
LINE
  5
41F
330
7D
100
AcDbEntity
 67
     1
  8
1
  6
Continuous
 62
   163
370
    18
100
AcDbLine
 10
6.216807842254638
 20
4.465331554412841
 30
0.0
 11
6.230530738830566
 21
4.495973587036132
 31
0.0
  0
LINE
  5
420
330
7D
100
AcDbEntity
 67
     1
  8
1
  6
Continuous
 62
   163
370
    18
100
AcDbLine
 10
6.230530738830566
 20
4.495973587036132
 30
0.0
 11
6.235227108001708
 21
4.52921724319458
 31
0.0
  0
LINE
  5
421
330
7D
100
AcDbEntity
 67
     1
  8
1
  6
Continuous
 62
   163
370
    18
100
AcDbLine
 10
6.195128917694091
 20
5.177052021026611
 30
0.0
 11
6.198337078094482
 21
5.176940441131591
 31
0.0
  0
LINE
  5
422
330
7D
100
AcDbEntity
 67
     1
  8
1
  6
Continuous
 62
   163
370
    18
100
AcDbLine
 10
6.198337078094482
 20
5.176940441131591
 30
0.0
 11
6.217337131500244
 21
5.176276683807373
 31
0.0
  0
LINE
  5
423
330
7D
100
AcDbEntity
 67
     1
  8
1
  6
Continuous
 62
   163
370
    18
100
AcDbLine
 10
6.346991062164306
 20
5.171749114990234
 30
0.0
 11
6.217337131500244
 21
5.176276683807373
 31
0.0
  0
LINE
  5
424
330
7D
100
AcDbEntity
 67
     1
  8
1
  6
Continuous
 62
   163
370
    18
100
AcDbLine
 10
6.346991062164306
 20
4.874895095825195
 30
0.0
 11
6.217337131500244
 21
4.870367527008056
 31
0.0
  0
LINE
  5
425
330
7D
100
AcDbEntity
 67
     1
  8
1
  6
Continuous
 62
   163
370
    18
100
AcDbLine
 10
6.198337078094482
 20
4.869703769683837
 30
0.0
 11
6.217337131500244
 21
4.870367527008056
 31
0.0
  0
LINE
  5
426
330
7D
100
AcDbEntity
 67
     1
  8
1
  6
Continuous
 62
   163
370
    18
100
AcDbLine
 10
6.195128917694091
 20
4.869592189788818
 30
0.0
 11
6.198337078094482
 21
4.869703769683837
 31
0.0
  0
LINE
  5
427
330
7D
100
AcDbEntity
 67
     1
  8
1
  6
Continuous
 62
   163
370
    18
100
AcDbLine
 10
6.217337131500244
 20
4.870367527008056
 30
0.0
 11
6.217337131500244
 21
5.176276683807373
 31
0.0
  0
LINE
  5
428
330
7D
100
AcDbEntity
 67
     1
  8
1
  6
Continuous
 62
   163
370
    18
100
AcDbLine
 10
6.198337078094482
 20
5.176940441131591
 30
0.0
 11
6.198337078094482
 21
4.869703769683837
 31
0.0
  0
LINE
  5
429
330
7D
100
AcDbEntity
 67
     1
  8
1
  6
Continuous
 62
   163
370
    18
100
AcDbLine
 10
6.346991062164306
 20
5.171749114990234
 30
0.0
 11
6.346991062164306
 21
4.874895095825195
 31
0.0
  0
LINE
  5
42A
330
7D
100
AcDbEntity
 67
     1
  8
1
  6
Continuous
 62
   163
370
    18
100
AcDbLine
 10
5.357339859008789
 20
5.023322105407714
 30
0.0
 11
5.337750434875488
 21
5.043193340301513
 31
0.0
  0
LINE
  5
42B
330
7D
100
AcDbEntity
 67
     1
  8
1
  6
Continuous
 62
   163
370
    18
100
AcDbLine
 10
5.337750434875488
 20
5.043193340301513
 30
0.0
 11
5.320444107055664
 21
5.061209201812744
 31
0.0
  0
LINE
  5
42C
330
7D
100
AcDbEntity
 67
     1
  8
1
  6
Continuous
 62
   163
370
    18
100
AcDbLine
 10
5.320444107055664
 20
5.061209201812744
 30
0.0
 11
5.307036876678466
 21
5.075688362121582
 31
0.0
  0
LINE
  5
42D
330
7D
100
AcDbEntity
 67
     1
  8
1
  6
Continuous
 62
   163
370
    18
100
AcDbLine
 10
5.307036876678466
 20
5.075688362121582
 30
0.0
 11
5.298780441284179
 21
5.085277557373046
 31
0.0
  0
LINE
  5
42E
330
7D
100
AcDbEntity
 67
     1
  8
1
  6
Continuous
 62
   163
370
    18
100
AcDbLine
 10
5.298780441284179
 20
5.085277557373046
 30
0.0
 11
5.296446323394775
 21
5.089083194732666
 31
0.0
  0
LINE
  5
42F
330
7D
100
AcDbEntity
 67
     1
  8
1
  6
Continuous
 62
   163
370
    18
100
AcDbLine
 10
5.357339859008789
 20
5.023322105407714
 30
0.0
 11
5.337750434875488
 21
5.003450870513916
 31
0.0
  0
LINE
  5
430
330
7D
100
AcDbEntity
 67
     1
  8
1
  6
Continuous
 62
   163
370
    18
100
AcDbLine
 10
5.337750434875488
 20
5.003450870513916
 30
0.0
 11
5.320444107055664
 21
4.985434532165527
 31
0.0
  0
LINE
  5
431
330
7D
100
AcDbEntity
 67
     1
  8
1
  6
Continuous
 62
   163
370
    18
100
AcDbLine
 10
5.320444107055664
 20
4.985434532165527
 30
0.0
 11
5.307036876678466
 21
4.970955848693847
 31
0.0
  0
LINE
  5
432
330
7D
100
AcDbEntity
 67
     1
  8
1
  6
Continuous
 62
   163
370
    18
100
AcDbLine
 10
5.307036876678466
 20
4.970955848693847
 30
0.0
 11
5.298780441284179
 21
4.961366653442382
 31
0.0
  0
LINE
  5
433
330
7D
100
AcDbEntity
 67
     1
  8
1
  6
Continuous
 62
   163
370
    18
100
AcDbLine
 10
5.298780441284179
 20
4.961366653442382
 30
0.0
 11
5.296446323394775
 21
4.957561016082763
 31
0.0
  0
LINE
  5
434
330
7D
100
AcDbEntity
 67
     1
  8
1
  6
Continuous
 62
    21
370
    18
100
AcDbLine
 10
5.828991413116455
 20
3.632047653198242
 30
0.0
 11
5.828991413116455
 21
6.906527042388916
 31
0.0
  0
LINE
  5
435
330
7D
100
AcDbEntity
 67
     1
  8
1
  6
Continuous
 62
    21
370
    18
100
AcDbLine
 10
5.828991413116455
 20
3.616460800170898
 30
0.0
 11
5.828991413116455
 21
3.621021509170532
 31
0.0
  0
LINE
  5
436
330
7D
100
AcDbEntity
 67
     1
  8
1
  6
Continuous
 62
    21
370
    18
100
AcDbLine
 10
5.828991413116455
 20
3.621021509170532
 30
0.0
 11
5.828991413116455
 21
3.632047653198242
 31
0.0
  0
LINE
  5
437
330
7D
100
AcDbEntity
 67
     1
  8
1
  6
Continuous
 62
    21
370
    18
100
AcDbLine
 10
5.828991413116455
 20
6.906527042388916
 30
0.0
 11
5.828991413116455
 21
6.917552947998046
 31
0.0
  0
LINE
  5
438
330
7D
100
AcDbEntity
 67
     1
  8
1
  6
Continuous
 62
    21
370
    18
100
AcDbLine
 10
5.828991413116455
 20
6.917552947998046
 30
0.0
 11
5.828991413116455
 21
6.922113418579101
 31
0.0
  0
LINE
  5
439
330
7D
100
AcDbEntity
 67
     1
  8
1
  6
Continuous
 62
    21
370
    18
100
AcDbLine
 10
6.195132732391357
 20
6.962286949157714
 30
0.0
 11
6.195132732391357
 21
6.958115577697753
 31
0.0
  0
LINE
  5
43A
330
7D
100
AcDbEntity
 67
     1
  8
1
  6
Continuous
 62
    21
370
    18
100
AcDbLine
 10
6.195132732391357
 20
6.958115577697753
 30
0.0
 11
6.195132732391357
 21
6.946711540222167
 31
0.0
  0
LINE
  5
43B
330
7D
100
AcDbEntity
 67
     1
  8
1
  6
Continuous
 62
    21
370
    18
100
AcDbLine
 10
6.195132732391357
 20
6.946711540222167
 30
0.0
 11
6.195132732391357
 21
6.931113243103027
 31
0.0
  0
LINE
  5
43C
330
7D
100
AcDbEntity
 67
     1
  8
1
  6
Continuous
 62
    21
370
    18
100
AcDbLine
 10
6.195132732391357
 20
3.607460975646972
 30
0.0
 11
6.195132732391357
 21
3.591862440109252
 31
0.0
  0
LINE
  5
43D
330
7D
100
AcDbEntity
 67
     1
  8
1
  6
Continuous
 62
    21
370
    18
100
AcDbLine
 10
6.195132732391357
 20
3.591862440109252
 30
0.0
 11
6.195132732391357
 21
3.580458641052246
 31
0.0
  0
LINE
  5
43E
330
7D
100
AcDbEntity
 67
     1
  8
1
  6
Continuous
 62
    21
370
    18
100
AcDbLine
 10
6.195132732391357
 20
3.580458641052246
 30
0.0
 11
6.195132732391357
 21
3.576287031173706
 31
0.0
  0
LINE
  5
43F
330
7D
100
AcDbEntity
 67
     1
  8
1
  6
Continuous
 62
    21
370
    18
100
AcDbLine
 10
6.195132732391357
 20
3.576287031173706
 30
0.0
 11
5.843526363372802
 21
3.600873708724975
 31
0.0
  0
LINE
  5
440
330
7D
100
AcDbEntity
 67
     1
  8
1
  6
Continuous
 62
    21
370
    18
100
AcDbLine
 10
5.843526363372802
 20
6.937700271606445
 30
0.0
 11
6.195132732391357
 21
6.962286949157714
 31
0.0
  0
LINE
  5
441
330
7D
100
AcDbEntity
 67
     1
  8
1
  6
Continuous
 62
    21
370
    18
100
AcDbLine
 10
5.843526363372802
 20
6.906527042388916
 30
0.0
 11
5.843526363372802
 21
3.632047653198242
 31
0.0
  0
LINE
  5
442
330
7D
100
AcDbEntity
 67
     1
  8
1
  6
Continuous
 62
    21
370
    18
100
AcDbLine
 10
6.195132732391357
 20
6.931113243103027
 30
0.0
 11
5.843526363372802
 21
6.906527042388916
 31
0.0
  0
LINE
  5
443
330
7D
100
AcDbEntity
 67
     1
  8
1
  6
Continuous
 62
    21
370
    18
100
AcDbLine
 10
5.843526363372802
 20
3.632047653198242
 30
0.0
 11
6.195132732391357
 21
3.607460975646972
 31
0.0
  0
LINE
  5
444
330
7D
100
AcDbEntity
 67
     1
  8
1
  6
Continuous
 62
    21
370
    18
100
AcDbLine
 10
5.843526363372802
 20
6.937700271606445
 30
0.0
 11
5.843131065368652
 21
6.933501243591308
 31
0.0
  0
LINE
  5
445
330
7D
100
AcDbEntity
 67
     1
  8
1
  6
Continuous
 62
    21
370
    18
100
AcDbLine
 10
5.843131065368652
 20
6.933501243591308
 30
0.0
 11
5.843131065368652
 21
6.922097206115722
 31
0.0
  0
LINE
  5
446
330
7D
100
AcDbEntity
 67
     1
  8
1
  6
Continuous
 62
    21
370
    18
100
AcDbLine
 10
5.843131065368652
 20
6.922097206115722
 30
0.0
 11
5.843526363372802
 21
6.906527042388916
 31
0.0
  0
LINE
  5
447
330
7D
100
AcDbEntity
 67
     1
  8
1
  6
Continuous
 62
    21
370
    18
100
AcDbLine
 10
6.195132732391357
 20
3.607460975646972
 30
0.0
 11
6.195132732391357
 21
6.931113243103027
 31
0.0
  0
LINE
  5
448
330
7D
100
AcDbEntity
 67
     1
  8
1
  6
Continuous
 62
    21
370
    18
100
AcDbLine
 10
5.843526363372802
 20
3.632047653198242
 30
0.0
 11
5.843131065368652
 21
3.616476774215698
 31
0.0
  0
LINE
  5
449
330
7D
100
AcDbEntity
 67
     1
  8
1
  6
Continuous
 62
    21
370
    18
100
AcDbLine
 10
5.843131065368652
 20
3.616476774215698
 30
0.0
 11
5.843131065368652
 21
3.605072975158691
 31
0.0
  0
LINE
  5
44A
330
7D
100
AcDbEntity
 67
     1
  8
1
  6
Continuous
 62
    21
370
    18
100
AcDbLine
 10
5.843131065368652
 20
3.605072975158691
 30
0.0
 11
5.843526363372802
 21
3.600873708724975
 31
0.0
  0
LINE
  5
44B
330
7D
100
AcDbEntity
 67
     1
  8
1
  6
Continuous
 62
    21
370
    18
100
AcDbLine
 10
5.843526363372802
 20
3.632047653198242
 30
0.0
 11
5.833189010620117
 21
3.632047653198242
 31
0.0
  0
LINE
  5
44C
330
7D
100
AcDbEntity
 67
     1
  8
1
  6
Continuous
 62
    21
370
    18
100
AcDbLine
 10
5.833189010620117
 20
3.632047653198242
 30
0.0
 11
5.828991413116455
 21
3.632047653198242
 31
0.0
  0
LINE
  5
44D
330
7D
100
AcDbEntity
 67
     1
  8
1
  6
Continuous
 62
    21
370
    18
100
AcDbLine
 10
5.843526363372802
 20
6.906527042388916
 30
0.0
 11
5.833189010620117
 21
6.906527042388916
 31
0.0
  0
LINE
  5
44E
330
7D
100
AcDbEntity
 67
     1
  8
1
  6
Continuous
 62
    21
370
    18
100
AcDbLine
 10
5.833189010620117
 20
6.906527042388916
 30
0.0
 11
5.828991413116455
 21
6.906527042388916
 31
0.0
  0
LINE
  5
44F
330
7D
100
AcDbEntity
 67
     1
  8
1
  6
Continuous
 62
    21
370
    18
100
AcDbLine
 10
5.818991661071777
 20
3.716460943222045
 30
0.0
 11
5.828991413116455
 21
3.716460943222045
 31
0.0
  0
LINE
  5
450
330
7D
100
AcDbEntity
 67
     1
  8
1
  6
Continuous
 62
    21
370
    18
100
AcDbLine
 10
5.818991661071777
 20
3.716460943222045
 30
0.0
 11
5.818991661071777
 21
3.810664653778076
 31
0.0
  0
LINE
  5
451
330
7D
100
AcDbEntity
 67
     1
  8
1
  6
Continuous
 62
    21
370
    18
100
AcDbLine
 10
5.818991661071777
 20
3.834834814071655
 30
0.0
 11
5.828991413116455
 21
3.834834814071655
 31
0.0
  0
LINE
  5
452
330
7D
100
AcDbEntity
 67
     1
  8
1
  6
Continuous
 62
    21
370
    18
100
AcDbLine
 10
5.818991661071777
 20
3.810664653778076
 30
0.0
 11
5.818991661071777
 21
3.834834814071655
 31
0.0
  0
LINE
  5
453
330
7D
100
AcDbEntity
 67
     1
  8
1
  6
Continuous
 62
    21
370
    18
100
AcDbLine
 10
5.818991661071777
 20
3.810664653778076
 30
0.0
 11
5.828991413116455
 21
3.810664653778076
 31
0.0
  0
LINE
  5
454
330
7D
100
AcDbEntity
 67
     1
  8
1
  6
Continuous
 62
    21
370
    18
100
AcDbLine
 10
5.818991661071777
 20
3.871090173721313
 30
0.0
 11
5.828991413116455
 21
3.871090173721313
 31
0.0
  0
LINE
  5
455
330
7D
100
AcDbEntity
 67
     1
  8
1
  6
Continuous
 62
    21
370
    18
100
AcDbLine
 10
5.818991661071777
 20
3.871090173721313
 30
0.0
 11
5.818991661071777
 21
3.866562128067016
 31
0.0
  0
LINE
  5
456
330
7D
100
AcDbEntity
 67
     1
  8
1
  6
Continuous
 62
    21
370
    18
100
AcDbLine
 10
5.818991661071777
 20
3.866562128067016
 30
0.0
 11
5.818991661071777
 21
3.853749752044677
 31
0.0
  0
LINE
  5
457
330
7D
100
AcDbEntity
 67
     1
  8
1
  6
Continuous
 62
    21
370
    18
100
AcDbLine
 10
5.818991661071777
 20
3.853749752044677
 30
0.0
 11
5.818991661071777
 21
3.834834814071655
 31
0.0
  0
ARC
  5
620
330
7D
100
AcDbEntity
 67
     1
  8
1
  6
Continuous
 62
    21
370
    18
100
AcDbCircle
 10
3.455091714859008
 20
4.35654592514038
 30
0.0
 40
0.0080000003799796
100
AcDbArc
 50
270.0
 51
0.0
  0
ARC
  5
621
330
7D
100
AcDbEntity
 67
     1
  8
1
  6
Continuous
 62
    21
370
    18
100
AcDbCircle
 10
1.892040610313415
 20
4.35654592514038
 30
0.0
 40
0.0080000003799796
100
AcDbArc
 50
180.0
 51
270.0
  0
ARC
  5
622
330
7D
100
AcDbEntity
 67
     1
  8
1
  6
Continuous
 62
    21
370
    18
100
AcDbCircle
 10
1.892040610313415
 20
5.690098285675048
 30
0.0
 40
0.0080000003799796
100
AcDbArc
 50
90.0
 51
180.0
  0
ARC
  5
623
330
7D
100
AcDbEntity
 67
     1
  8
1
  6
Continuous
 62
    21
370
    18
100
AcDbCircle
 10
3.455091714859008
 20
5.690098285675048
 30
0.0
 40
0.0080000003799796
100
AcDbArc
 50
0.0
 51
90.0
  0
CIRCLE
  5
624
330
7D
100
AcDbEntity
 67
     1
  8
1
  6
Continuous
 62
    21
370
    18
100
AcDbCircle
 10
1.485566139221191
 20
5.269287109375
 30
0.0
 40
0.1360000073909759
  0
ARC
  5
625
330
7D
100
AcDbEntity
 67
     1
  8
1
  6
Continuous
 62
    21
370
    18
100
AcDbCircle
 10
1.962431669235229
 20
6.186112403869628
 30
0.0
 40
0.0099999997764826
100
AcDbArc
 50
90.0
 51
180.0
  0
ARC
  5
626
330
7D
100
AcDbEntity
 67
     1
  8
1
  6
Continuous
 62
    21
370
    18
100
AcDbCircle
 10
3.384700775146484
 20
6.186112403869628
 30
0.0
 40
0.0099999997764826
100
AcDbArc
 50
0.0
 51
90.0
  0
ARC
  5
627
330
7D
100
AcDbEntity
 67
     1
  8
1
  6
Continuous
 62
    21
370
    18
100
AcDbCircle
 10
3.384700775146484
 20
5.845843791961669
 30
0.0
 40
0.0099999997764826
100
AcDbArc
 50
270.0
 51
0.0
  0
ARC
  5
628
330
7D
100
AcDbEntity
 67
     1
  8
1
  6
Continuous
 62
    21
370
    18
100
AcDbCircle
 10
1.962431669235229
 20
5.845843791961669
 30
0.0
 40
0.0099999997764826
100
AcDbArc
 50
180.0
 51
270.0
  0
CIRCLE
  5
629
330
7D
100
AcDbEntity
 67
     1
  8
1
  6
Continuous
 62
    21
370
    18
100
AcDbCircle
 10
3.861566305160522
 20
5.269287109375
 30
0.0
 40
0.1360000073909759
  0
CIRCLE
  5
62A
330
7D
100
AcDbEntity
 67
     1
  8
1
  6
Continuous
 62
    21
370
    18
100
AcDbCircle
 10
1.485566139221191
 20
5.269287109375
 30
0.0
 40
0.0759999975562096
  0
CIRCLE
  5
62B
330
7D
100
AcDbEntity
 67
     1
  8
1
  6
Continuous
 62
    21
370
    18
100
AcDbCircle
 10
1.485566139221191
 20
5.269287109375
 30
0.0
 40
0.0769999995827675
  0
CIRCLE
  5
62C
330
7D
100
AcDbEntity
 67
     1
  8
1
  6
Continuous
 62
    21
370
    18
100
AcDbCircle
 10
1.485566139221191
 20
5.269287109375
 30
0.0
 40
0.135000005364418
  0
CIRCLE
  5
62D
330
7D
100
AcDbEntity
 67
     1
  8
1
  6
Continuous
 62
    21
370
    18
100
AcDbCircle
 10
3.861566305160522
 20
5.269287109375
 30
0.0
 40
0.0759999975562096
  0
CIRCLE
  5
62E
330
7D
100
AcDbEntity
 67
     1
  8
1
  6
Continuous
 62
    21
370
    18
100
AcDbCircle
 10
3.861566305160522
 20
5.269287109375
 30
0.0
 40
0.0769999995827675
  0
CIRCLE
  5
62F
330
7D
100
AcDbEntity
 67
     1
  8
1
  6
Continuous
 62
    21
370
    18
100
AcDbCircle
 10
3.861566305160522
 20
5.269287109375
 30
0.0
 40
0.135000005364418
  0
ARC
  5
630
330
7D
100
AcDbEntity
 67
     1
  8
1
  6
Continuous
 62
    21
370
    18
100
AcDbCircle
 10
3.384700775146484
 20
6.186112403869628
 30
0.0
 40
0.0094763478264213
100
AcDbArc
 50
0.0
 51
90.0
  0
ARC
  5
631
330
7D
100
AcDbEntity
 67
     1
  8
1
  6
Continuous
 62
    21
370
    18
100
AcDbCircle
 10
3.384700775146484
 20
5.845843791961669
 30
0.0
 40
0.0094763478264213
100
AcDbArc
 50
270.0
 51
0.0
  0
ARC
  5
632
330
7D
100
AcDbEntity
 67
     1
  8
1
  6
Continuous
 62
    21
370
    18
100
AcDbCircle
 10
1.962431669235229
 20
6.186112403869628
 30
0.0
 40
0.0094763478264213
100
AcDbArc
 50
90.0
 51
180.0
  0
ARC
  5
633
330
7D
100
AcDbEntity
 67
     1
  8
1
  6
Continuous
 62
    21
370
    18
100
AcDbCircle
 10
1.962431669235229
 20
5.845843791961669
 30
0.0
 40
0.0094763478264213
100
AcDbArc
 50
180.0
 51
270.0
  0
ARC
  5
634
330
7D
100
AcDbEntity
 67
     1
  8
1
  6
Continuous
 62
    21
370
    18
100
AcDbCircle
 10
4.039616584777832
 20
3.74969482421875
 30
0.0
 40
0.0060425689443946
100
AcDbArc
 50
180.0
 51
270.0
  0
ARC
  5
635
330
7D
100
AcDbEntity
 67
     1
  8
1
  6
Continuous
 62
    21
370
    18
100
AcDbCircle
 10
4.048136711120605
 20
3.74969482421875
 30
0.0
 40
0.0060425689443946
100
AcDbArc
 50
270.0
 51
0.0
  0
ARC
  5
636
330
7D
100
AcDbEntity
 67
     1
  8
1
  6
Continuous
 62
    21
370
    18
100
AcDbCircle
 10
4.05774450302124
 20
3.73760986328125
 30
0.0
 40
0.0211489908397198
100
AcDbArc
 50
270.0
 51
0.0
  0
ARC
  5
637
330
7D
100
AcDbEntity
 67
     1
  8
1
  6
Continuous
 62
    21
370
    18
100
AcDbCircle
 10
4.015627861022949
 20
3.73760986328125
 30
0.0
 40
0.0211489908397198
100
AcDbArc
 50
180.0
 51
270.0
  0
ARC
  5
638
330
7D
100
AcDbEntity
 67
     1
  8
1
  6
Continuous
 62
    21
370
    18
100
AcDbCircle
 10
3.64098834991455
 20
3.836345195770263
 30
0.0
 40
0.0075532114133239
100
AcDbArc
 50
0.0
 51
90.0
  0
ARC
  5
639
330
7D
100
AcDbEntity
 67
     1
  8
1
  6
Continuous
 62
    21
370
    18
100
AcDbCircle
 10
3.663768768310546
 20
3.817915439605712
 30
0.0
 40
0.0531746037304402
100
AcDbArc
 50
18.55300105801696
 51
90.0
  0
ARC
  5
63A
330
7D
100
AcDbEntity
 67
     1
  8
1
  6
Continuous
 62
    21
370
    18
100
AcDbCircle
 10
3.663768768310546
 20
3.817915439605712
 30
0.0
 40
0.0531746037304402
100
AcDbArc
 50
270.0
 51
295.9858204950424
  0
ARC
  5
63B
330
7D
100
AcDbEntity
 67
     1
  8
1
  6
Continuous
 62
    21
370
    18
100
AcDbCircle
 10
3.64098834991455
 20
3.797068834304809
 30
0.0
 40
0.0075532114133239
100
AcDbArc
 50
270.0
 51
0.0
  0
ARC
  5
63C
330
7D
100
AcDbEntity
 67
     1
  8
1
  6
Continuous
 62
    21
370
    18
100
AcDbCircle
 10
3.935835361480712
 20
3.74969482421875
 30
0.0
 40
0.0060425689443946
100
AcDbArc
 50
270.0
 51
0.0
  0
ARC
  5
63D
330
7D
100
AcDbEntity
 67
     1
  8
1
  6
Continuous
 62
    21
370
    18
100
AcDbCircle
 10
3.935835361480712
 20
3.804078102111816
 30
0.0
 40
0.0060425689443946
100
AcDbArc
 50
0.0
 51
90.0
  0
ARC
  5
63E
330
7D
100
AcDbEntity
 67
     1
  8
1
  6
Continuous
 62
    21
370
    18
100
AcDbCircle
 10
3.955201864242553
 20
3.73760986328125
 30
0.0
 40
0.0211489908397198
100
AcDbArc
 50
270.0
 51
0.0
  0
ARC
  5
63F
330
7D
100
AcDbEntity
 67
     1
  8
1
  6
Continuous
 62
    21
370
    18
100
AcDbCircle
 10
3.955201864242553
 20
3.813685894012451
 30
0.0
 40
0.0211489908397198
100
AcDbArc
 50
0.0
 51
90.0
  0
ARC
  5
640
330
7D
100
AcDbEntity
 67
     1
  8
1
  6
Continuous
 62
   163
370
    18
100
AcDbCircle
 10
5.362206935882568
 20
5.023322105407714
 30
0.0
 40
0.0930000022053719
100
AcDbArc
 50
135.0
 51
225.0
  0
ARC
  5
641
330
7D
100
AcDbEntity
 67
     1
  8
1
  6
Continuous
 62
    21
370
    18
100
AcDbCircle
 10
5.844616413116455
 20
6.922113418579101
 30
0.0
 40
0.015625
100
AcDbArc
 50
93.99999998726284
 51
180.0
  0
ARC
  5
642
330
7D
100
AcDbEntity
 67
     1
  8
1
  6
Continuous
 62
    21
370
    18
100
AcDbCircle
 10
5.844616413116455
 20
3.616460800170898
 30
0.0
 40
0.015625
100
AcDbArc
 50
180.0
 51
266.0000000127372
  0
ENDSEC
  0
SECTION
  2
OBJECTS
  0
DICTIONARY
  5
C
330
0
100
AcDbDictionary
281
     1
  3
ACAD_CIP_PREVIOUS_PRODUCT_INFO
350
778
  3
ACAD_COLOR
350
764
  3
ACAD_DETAILVIEWSTYLE
350
716
  3
ACAD_GROUP
350
D
  3
ACAD_LAYOUT
350
1A
  3
ACAD_MATERIAL
350
43
  3
ACAD_MLEADERSTYLE
350
715
  3
ACAD_MLINESTYLE
350
17
  3
ACAD_PLOTSETTINGS
350
19
  3
ACAD_PLOTSTYLENAME
350
E
  3
ACAD_SCALELIST
350
47
  3
ACAD_SECTIONVIEWSTYLE
350
717
  3
ACAD_TABLESTYLE
350
714
  3
ACAD_VISUALSTYLE
350
2A
  3
ACDB_RECOMPOSE_DATA
350
789
  3
AcDbVariableDictionary
350
6DB
  0
DICTIONARY
  5
72A
330
8
100
AcDbDictionary
280
     1
281
     1
  0
SUN
  5
69
330
29
100
AcDbSun
 90
        1
290
     0
 63
     7
421
 16777215
 40
1.0
291
     1
 91
  2455826
 92
 54000000
292
     0
 70
     0
 71
   256
280
     1
  0
XRECORD
  5
778
102
{ACAD_REACTORS
330
C
102
}
330
C
100
AcDbXrecord
280
     1
300
ACD
300
2012
300
85730ACD_2012_0F
  0
DICTIONARY
  5
764
102
{ACAD_REACTORS
330
C
102
}
330
C
100
AcDbDictionary
281
     1
  0
DICTIONARY
  5
716
102
{ACAD_REACTORS
330
C
102
}
330
C
100
AcDbDictionary
281
     1
  0
DICTIONARY
  5
D
102
{ACAD_REACTORS
330
C
102
}
330
C
100
AcDbDictionary
281
     1
  0
DICTIONARY
  5
1A
102
{ACAD_REACTORS
330
C
102
}
330
C
100
AcDbDictionary
281
     1
  3
Model
350
22
  3
SH1
350
6B0
  0
DICTIONARY
  5
43
102
{ACAD_REACTORS
330
C
102
}
330
C
100
AcDbDictionary
281
     1
  3
ByBlock
350
45
  3
ByLayer
350
44
  3
Global
350
46
  0
DICTIONARY
  5
715
102
{ACAD_REACTORS
330
C
102
}
330
C
100
AcDbDictionary
281
     1
  3
Standard
350
766
  0
DICTIONARY
  5
17
102
{ACAD_REACTORS
330
C
102
}
330
C
100
AcDbDictionary
281
     1
  3
Standard
350
18
  0
DICTIONARY
  5
19
102
{ACAD_REACTORS
330
C
102
}
330
C
100
AcDbDictionary
281
     1
  0
ACDBDICTIONARYWDFLT
  5
E
102
{ACAD_REACTORS
330
C
102
}
330
C
100
AcDbDictionary
281
     1
  3
Normal
350
F
100
AcDbDictionaryWithDefault
340
F
  0
DICTIONARY
  5
47
102
{ACAD_REACTORS
330
C
102
}
330
C
100
AcDbDictionary
281
     1
  3
A0
350
48
  3
A1
350
49
  3
A2
350
4A
  3
A3
350
4B
  3
A4
350
4C
  3
A5
350
4D
  3
A6
350
4E
  3
A7
350
4F
  3
A8
350
50
  3
A9
350
51
  3
B0
350
52
  3
B1
350
53
  3
B2
350
54
  3
B3
350
55
  3
B4
350
56
  3
B5
350
57
  3
B6
350
58
  3
B7
350
59
  3
B8
350
5A
  3
B9
350
5B
  3
C0
350
5C
  3
C1
350
5D
  3
C2
350
5E
  3
C3
350
5F
  3
C4
350
60
  3
C5
350
61
  3
C6
350
62
  3
C7
350
63
  3
C8
350
64
  3
C9
350
65
  3
D0
350
66
  3
D1
350
67
  3
D2
350
68
  0
DICTIONARY
  5
717
102
{ACAD_REACTORS
330
C
102
}
330
C
100
AcDbDictionary
281
     1
  0
DICTIONARY
  5
714
102
{ACAD_REACTORS
330
C
102
}
330
C
100
AcDbDictionary
281
     1
  3
Standard
350
765
  0
DICTIONARY
  5
2A
102
{ACAD_REACTORS
330
C
102
}
330
C
100
AcDbDictionary
281
     1
  3
2dWireframe
350
2F
  3
Basic
350
32
  3
Brighten
350
36
  3
ColorChange
350
3A
  3
Conceptual
350
34
  3
Dim
350
35
  3
EdgeColorOff
350
3D
  3
Facepattern
350
39
  3
Flat
350
2B
  3
FlatWithEdges
350
2C
  3
Gouraud
350
2D
  3
GouraudWithEdges
350
2E
  3
Hidden
350
31
  3
JitterOff
350
3B
  3
Linepattern
350
38
  3
OverhangOff
350
3C
  3
Realistic
350
33
  3
Shaded
350
42
  3
Shaded with edges
350
41
  3
Shades of Gray
350
3E
  3
Sketchy
350
3F
  3
Thicken
350
37
  3
Wireframe
350
30
  3
X-Ray
350
40
  0
XRECORD
  5
789
102
{ACAD_REACTORS
330
C
102
}
330
C
100
AcDbXrecord
280
     1
 90
        1
330
765
  0
DICTIONARY
  5
6DB
102
{ACAD_REACTORS
330
C
102
}
330
C
100
AcDbDictionary
281
     1
  3
CANNOSCALE
350
6DC
  3
CMLEADERSTYLE
350
781
  3
CTABLESTYLE
350
780
  3
LAYEREVAL
350
783
  3
LAYERNOTIFY
350
784
  3
LIGHTINGUNITS
350
782
  3
MSLTSCALE
350
6DD
  0
LAYOUT
  5
22
102
{ACAD_REACTORS
330
1A
102
}
330
1A
100
AcDbPlotSettings
  1

  2
none_device
  4
Letter_(8.50_x_11.00_Inches)
  6

 40
6.349999999999999
 41
6.349999999999999
 42
6.350005079999999
 43
6.350005079999999
 44
215.9
 45
279.4
 46
0.0
 47
0.0
 48
0.0
 49
0.0
140
0.0
141
0.0
142
1.0
143
1.0
 70
  1712
 72
     0
 73
     0
 74
     0
  7

 75
     0
147
1.0
 76
     0
 77
     2
 78
   300
148
0.0
149
0.0
100
AcDbLayout
  1
Model
 70
     1
 71
     0
 10
-0.5
 20
-0.5
 11
5.0
 21
5.0
 12
0.0
 22
0.0
 32
0.0
 14
-0.5
 24
-0.5
 34
-0.5
 15
5.0
 25
5.0
 35
5.0
146
0.0
 13
0.0
 23
0.0
 33
0.0
 16
1.0
 26
0.0
 36
0.0
 17
0.0
 27
1.0
 37
0.0
 76
     0
330
1F
  0
LAYOUT
  5
6B0
102
{ACAD_REACTORS
330
1A
102
}
330
1A
100
AcDbPlotSettings
  1

  2
none_device
  4
ISO_B4_(250.00_x_354.00_MM)
  6

 40
7.5
 41
20.0
 42
7.5
 43
20.0
 44
250.0
 45
354.0
 46
0.0
 47
6.861111111111114
 48
0.0
 49
0.0
140
13.0
141
10.5
142
1.0
143
0.9727659574468084
 70
   692
 72
     0
 73
     1
 74
     1
  7

 75
     0
147
1.027996500437445
 76
     0
 77
     2
 78
   300
148
12.7
149
12.7
100
AcDbLayout
  1
SH1
 70
     1
 71
     1
 10
0.0
 20
0.0
 11
11.0
 21
8.5
 12
0.0
 22
0.0
 32
0.0
 14
0.9798889427677401
 24
3.576210045926515
 34
-0.0015258207003583
 15
6.347625752617172
 25
6.962669390559508
 35
0.0000000349246037
146
0.0
 13
0.0
 23
0.0
 33
0.0
 16
1.0
 26
0.0
 36
0.0
 17
0.0
 27
1.0
 37
0.0
 76
     0
330
7D
331
80
  0
MATERIAL
  5
45
102
{ACAD_REACTORS
330
43
102
}
330
43
100
AcDbMaterial
  1
ByBlock
 73
     1
 78
     1
172
     1
176
     1
270
     1
274
     1
  0
MATERIAL
  5
44
102
{ACAD_REACTORS
330
43
102
}
330
43
100
AcDbMaterial
  1
ByLayer
 73
     1
 78
     1
172
     1
176
     1
270
     1
274
     1
  0
MATERIAL
  5
46
102
{ACAD_REACTORS
330
43
102
}
330
43
100
AcDbMaterial
  1
Global
 73
     1
 78
     1
172
     1
176
     1
270
     1
274
     1
  0
MLEADERSTYLE
  5
766
102
{ACAD_XDICTIONARY
360
787
102
}
102
{ACAD_REACTORS
330
715
102
}
330
715
100
AcDbMLeaderStyle
179
     2
170
     2
171
     1
172
     0
 90
        2
 40
0.0
 41
0.0
173
     1
 91
-1056964608
340
14
 92
       -2
290
     1
 42
0.09
291
     1
 43
0.36
  3
Standard
 44
0.18
300

342
11
174
     1
178
     6
175
     1
176
     0
 93
-1056964608
 45
0.18
292
     0
297
     0
 46
0.18
 94
-1056964608
 47
1.0
 49
1.0
140
1.0
293
     1
141
0.0
294
     1
177
     0
142
1.0
295
     0
296
     0
143
0.125
271
     0
272
     9
273
     9
  0
MLINESTYLE
  5
18
102
{ACAD_REACTORS
330
17
102
}
330
17
100
AcDbMlineStyle
  2
STANDARD
 70
     0
  3

 62
   256
 51
90.0
 52
90.0
 71
     2
 49
0.5
 62
   256
  6
BYLAYER
 49
-0.5
 62
   256
  6
BYLAYER
  0
ACDBPLACEHOLDER
  5
F
102
{ACAD_REACTORS
330
E
102
}
330
E
  0
SCALE
  5
48
102
{ACAD_REACTORS
330
47
102
}
330
47
100
AcDbScale
 70
     0
300
1:1
140
1.0
141
1.0
290
     1
  0
SCALE
  5
49
102
{ACAD_REACTORS
330
47
102
}
330
47
100
AcDbScale
 70
     0
300
1:2
140
1.0
141
2.0
290
     0
  0
SCALE
  5
4A
102
{ACAD_REACTORS
330
47
102
}
330
47
100
AcDbScale
 70
     0
300
1:4
140
1.0
141
4.0
290
     0
  0
SCALE
  5
4B
102
{ACAD_REACTORS
330
47
102
}
330
47
100
AcDbScale
 70
     0
300
1:5
140
1.0
141
5.0
290
     0
  0
SCALE
  5
4C
102
{ACAD_REACTORS
330
47
102
}
330
47
100
AcDbScale
 70
     0
300
1:8
140
1.0
141
8.0
290
     0
  0
SCALE
  5
4D
102
{ACAD_REACTORS
330
47
102
}
330
47
100
AcDbScale
 70
     0
300
1:10
140
1.0
141
10.0
290
     0
  0
SCALE
  5
4E
102
{ACAD_REACTORS
330
47
102
}
330
47
100
AcDbScale
 70
     0
300
1:16
140
1.0
141
16.0
290
     0
  0
SCALE
  5
4F
102
{ACAD_REACTORS
330
47
102
}
330
47
100
AcDbScale
 70
     0
300
1:20
140
1.0
141
20.0
290
     0
  0
SCALE
  5
50
102
{ACAD_REACTORS
330
47
102
}
330
47
100
AcDbScale
 70
     0
300
1:30
140
1.0
141
30.0
290
     0
  0
SCALE
  5
51
102
{ACAD_REACTORS
330
47
102
}
330
47
100
AcDbScale
 70
     0
300
1:40
140
1.0
141
40.0
290
     0
  0
SCALE
  5
52
102
{ACAD_REACTORS
330
47
102
}
330
47
100
AcDbScale
 70
     0
300
1:50
140
1.0
141
50.0
290
     0
  0
SCALE
  5
53
102
{ACAD_REACTORS
330
47
102
}
330
47
100
AcDbScale
 70
     0
300
1:100
140
1.0
141
100.0
290
     0
  0
SCALE
  5
54
102
{ACAD_REACTORS
330
47
102
}
330
47
100
AcDbScale
 70
     0
300
2:1
140
2.0
141
1.0
290
     0
  0
SCALE
  5
55
102
{ACAD_REACTORS
330
47
102
}
330
47
100
AcDbScale
 70
     0
300
4:1
140
4.0
141
1.0
290
     0
  0
SCALE
  5
56
102
{ACAD_REACTORS
330
47
102
}
330
47
100
AcDbScale
 70
     0
300
8:1
140
8.0
141
1.0
290
     0
  0
SCALE
  5
57
102
{ACAD_REACTORS
330
47
102
}
330
47
100
AcDbScale
 70
     0
300
10:1
140
10.0
141
1.0
290
     0
  0
SCALE
  5
58
102
{ACAD_REACTORS
330
47
102
}
330
47
100
AcDbScale
 70
     0
300
100:1
140
100.0
141
1.0
290
     0
  0
SCALE
  5
59
102
{ACAD_REACTORS
330
47
102
}
330
47
100
AcDbScale
 70
     0
300
1/128" = 1'-0"
140
0.0078125
141
12.0
290
     0
  0
SCALE
  5
5A
102
{ACAD_REACTORS
330
47
102
}
330
47
100
AcDbScale
 70
     0
300
1/64" = 1'-0"
140
0.015625
141
12.0
290
     0
  0
SCALE
  5
5B
102
{ACAD_REACTORS
330
47
102
}
330
47
100
AcDbScale
 70
     0
300
1/32" = 1'-0"
140
0.03125
141
12.0
290
     0
  0
SCALE
  5
5C
102
{ACAD_REACTORS
330
47
102
}
330
47
100
AcDbScale
 70
     0
300
1/16" = 1'-0"
140
0.0625
141
12.0
290
     0
  0
SCALE
  5
5D
102
{ACAD_REACTORS
330
47
102
}
330
47
100
AcDbScale
 70
     0
300
3/32" = 1'-0"
140
0.09375
141
12.0
290
     0
  0
SCALE
  5
5E
102
{ACAD_REACTORS
330
47
102
}
330
47
100
AcDbScale
 70
     0
300
1/8" = 1'-0"
140
0.125
141
12.0
290
     0
  0
SCALE
  5
5F
102
{ACAD_REACTORS
330
47
102
}
330
47
100
AcDbScale
 70
     0
300
3/16" = 1'-0"
140
0.1875
141
12.0
290
     0
  0
SCALE
  5
60
102
{ACAD_REACTORS
330
47
102
}
330
47
100
AcDbScale
 70
     0
300
1/4" = 1'-0"
140
0.25
141
12.0
290
     0
  0
SCALE
  5
61
102
{ACAD_REACTORS
330
47
102
}
330
47
100
AcDbScale
 70
     0
300
3/8" = 1'-0"
140
0.375
141
12.0
290
     0
  0
SCALE
  5
62
102
{ACAD_REACTORS
330
47
102
}
330
47
100
AcDbScale
 70
     0
300
1/2" = 1'-0"
140
0.5
141
12.0
290
     0
  0
SCALE
  5
63
102
{ACAD_REACTORS
330
47
102
}
330
47
100
AcDbScale
 70
     0
300
3/4" = 1'-0"
140
0.75
141
12.0
290
     0
  0
SCALE
  5
64
102
{ACAD_REACTORS
330
47
102
}
330
47
100
AcDbScale
 70
     0
300
1" = 1'-0"
140
1.0
141
12.0
290
     0
  0
SCALE
  5
65
102
{ACAD_REACTORS
330
47
102
}
330
47
100
AcDbScale
 70
     0
300
1-1/2" = 1'-0"
140
1.5
141
12.0
290
     0
  0
SCALE
  5
66
102
{ACAD_REACTORS
330
47
102
}
330
47
100
AcDbScale
 70
     0
300
3" = 1'-0"
140
3.0
141
12.0
290
     0
  0
SCALE
  5
67
102
{ACAD_REACTORS
330
47
102
}
330
47
100
AcDbScale
 70
     0
300
6" = 1'-0"
140
6.0
141
12.0
290
     0
  0
SCALE
  5
68
102
{ACAD_REACTORS
330
47
102
}
330
47
100
AcDbScale
 70
     0
300
1'-0" = 1'-0"
140
12.0
141
12.0
290
     0
  0
TABLESTYLE
  5
765
102
{ACAD_XDICTIONARY
360
785
102
}
102
{ACAD_REACTORS
330
714
102
}
330
714
100
AcDbTableStyle
280
     0
  3
Standard
 70
     0
 71
     0
 40
0.06
 41
0.06
280
     0
281
     0
  7
Standard
140
0.18
170
     2
 62
     0
 63
     7
283
     0
 90
      512
 91
        0
  1

274
    -2
284
     1
 64
     0
275
    -2
285
     1
 65
     0
276
    -2
286
     1
 66
     0
277
    -2
287
     1
 67
     0
278
    -2
288
     1
 68
     0
279
    -2
289
     1
 69
     0
  7
Standard
140
0.25
170
     5
 62
     0
 63
     7
283
     0
 90
      512
 91
        0
  1

274
    -2
284
     1
 64
     0
275
    -2
285
     1
 65
     0
276
    -2
286
     1
 66
     0
277
    -2
287
     1
 67
     0
278
    -2
288
     1
 68
     0
279
    -2
289
     1
 69
     0
  7
Standard
140
0.18
170
     5
 62
     0
 63
     7
283
     0
 90
      512
 91
        0
  1

274
    -2
284
     1
 64
     0
275
    -2
285
     1
 65
     0
276
    -2
286
     1
 66
     0
277
    -2
287
     1
 67
     0
278
    -2
288
     1
 68
     0
279
    -2
289
     1
 69
     0
  0
VISUALSTYLE
  5
2F
102
{ACAD_XDICTIONARY
360
734
102
}
102
{ACAD_REACTORS
330
2A
102
}
330
2A
100
AcDbVisualStyle
  2
2dWireframe
 70
     4
177
     2
291
     0
 71
     0
176
     1
 72
     2
176
     1
 73
     0
176
     1
 90
        0
176
     1
 40
0.6
176
     1
 41
30.0
176
     1
 63
     7
421
 16777215
176
     1
 74
     1
176
     1
 91
        4
176
     1
 64
     7
176
     1
 65
   257
176
     1
 75
     1
176
     1
175
     1
176
     1
 42
1.0
176
     1
 92
        0
176
     1
 66
   257
176
     1
 43
1.0
176
     1
 76
     1
176
     1
 77
     6
176
     1
 78
     2
176
     1
 67
     7
176
     1
 79
     5
176
     1
170
     0
176
     1
171
     0
176
     1
290
     0
176
     1
 93
        1
176
     1
 44
0.0
176
     1
173
     0
176
     1
  0
VISUALSTYLE
  5
32
102
{ACAD_XDICTIONARY
360
73A
102
}
102
{ACAD_REACTORS
330
2A
102
}
330
2A
100
AcDbVisualStyle
  2
Basic
 70
     7
177
     2
291
     1
 71
     1
176
     1
 72
     0
176
     1
 73
     1
176
     1
 90
        0
176
     1
 40
0.6
176
     1
 41
30.0
176
     1
 63
     7
421
 16777215
176
     1
 74
     0
176
     1
 91
        4
176
     1
 64
     7
176
     1
 65
   257
176
     1
 75
     1
176
     1
175
     1
176
     1
 42
1.0
176
     1
 92
        8
176
     1
 66
     7
176
     1
 43
1.0
176
     1
 76
     1
176
     1
 77
     6
176
     1
 78
     2
176
     1
 67
     7
176
     1
 79
     5
176
     1
170
     0
176
     1
171
     0
176
     1
290
     0
176
     1
 93
        1
176
     1
 44
0.0
176
     1
173
     0
176
     1
  0
VISUALSTYLE
  5
36
102
{ACAD_XDICTIONARY
360
742
102
}
102
{ACAD_REACTORS
330
2A
102
}
330
2A
100
AcDbVisualStyle
  2
Brighten
 70
    12
177
     2
291
     1
 71
     2
176
     1
 72
     2
176
     1
 73
     0
176
     1
 90
        0
176
     1
 40
0.6
176
     1
 41
30.0
176
     1
 63
     7
421
 16777215
176
     1
 74
     1
176
     1
 91
        4
176
     1
 64
     7
176
     1
 65
   257
176
     1
 75
     1
176
     1
175
     1
176
     1
 42
1.0
176
     1
 92
        8
176
     1
 66
     7
176
     1
 43
1.0
176
     1
 76
     1
176
     1
 77
     6
176
     1
 78
     2
176
     1
 67
     7
176
     1
 79
     5
176
     1
170
     0
176
     1
171
     0
176
     1
290
     0
176
     1
 93
        1
176
     1
 44
50.0
176
     1
173
     0
176
     1
  0
VISUALSTYLE
  5
3A
102
{ACAD_XDICTIONARY
360
74A
102
}
102
{ACAD_REACTORS
330
2A
102
}
330
2A
100
AcDbVisualStyle
  2
ColorChange
 70
    16
177
     2
291
     1
 71
     2
176
     1
 72
     2
176
     1
 73
     3
176
     1
 90
        0
176
     1
 40
0.6
176
     1
 41
30.0
176
     1
 63
     8
421
  8421504
176
     1
 74
     1
176
     1
 91
        4
176
     1
 64
     7
176
     1
 65
   257
176
     1
 75
     1
176
     1
175
     1
176
     1
 42
1.0
176
     1
 92
        8
176
     1
 66
     8
424
  8421504
176
     1
 43
1.0
176
     1
 76
     1
176
     1
 77
     6
176
     1
 78
     2
176
     1
 67
     7
176
     1
 79
     5
176
     1
170
     0
176
     1
171
     0
176
     1
290
     0
176
     1
 93
        1
176
     1
 44
0.0
176
     1
173
     0
176
     1
  0
VISUALSTYLE
  5
34
102
{ACAD_XDICTIONARY
360
73E
102
}
102
{ACAD_REACTORS
330
2A
102
}
330
2A
100
AcDbVisualStyle
  2
Conceptual
 70
     9
177
     2
291
     0
 71
     3
176
     1
 72
     2
176
     1
 73
     0
176
     1
 90
        0
176
     1
 40
0.6
176
     1
 41
30.0
176
     1
 63
     7
421
 16777215
176
     1
 74
     2
176
     1
 91
        2
176
     1
 64
     7
176
     1
 65
   257
176
     1
 75
     1
176
     1
175
     1
176
     1
 42
179.0
176
     1
 92
        8
176
     1
 66
     7
176
     1
 43
1.0
176
     1
 76
     1
176
     1
 77
     6
176
     1
 78
     2
176
     1
 67
     7
176
     1
 79
     3
176
     1
170
     0
176
     1
171
     0
176
     1
290
     0
176
     1
 93
        1
176
     1
 44
0.0
176
     1
173
     0
176
     1
  0
VISUALSTYLE
  5
35
102
{ACAD_XDICTIONARY
360
740
102
}
102
{ACAD_REACTORS
330
2A
102
}
330
2A
100
AcDbVisualStyle
  2
Dim
 70
    11
177
     2
291
     1
 71
     2
176
     1
 72
     2
176
     1
 73
     0
176
     1
 90
        0
176
     1
 40
0.6
176
     1
 41
30.0
176
     1
 63
     7
421
 16777215
176
     1
 74
     1
176
     1
 91
        4
176
     1
 64
     7
176
     1
 65
   257
176
     1
 75
     1
176
     1
175
     1
176
     1
 42
1.0
176
     1
 92
        8
176
     1
 66
     7
176
     1
 43
1.0
176
     1
 76
     1
176
     1
 77
     6
176
     1
 78
     2
176
     1
 67
     7
176
     1
 79
     5
176
     1
170
     0
176
     1
171
     0
176
     1
290
     0
176
     1
 93
        1
176
     1
 44
-50.0
176
     1
173
     0
176
     1
  0
VISUALSTYLE
  5
3D
102
{ACAD_XDICTIONARY
360
750
102
}
102
{ACAD_REACTORS
330
2A
102
}
330
2A
100
AcDbVisualStyle
  2
EdgeColorOff
 70
    22
177
     2
291
     1
 71
     2
176
     0
 72
     2
176
     0
 73
     0
176
     0
 90
        0
176
     0
 40
0.6
176
     0
 41
30.0
176
     0
 63
     7
421
 16777215
176
     0
 74
     1
176
     0
 91
        4
176
     0
 64
     7
176
     0
 65
   257
176
     0
 75
     1
176
     0
175
     1
176
     0
 42
1.0
176
     0
 92
        8
176
     2
 66
     7
176
     0
 43
1.0
176
     0
 76
     1
176
     0
 77
     6
176
     0
 78
     2
176
     0
 67
     7
176
     0
 79
     5
176
     0
170
     0
176
     0
171
     0
176
     0
290
     0
176
     0
 93
        1
176
     0
 44
0.0
176
     0
173
     0
176
     0
  0
VISUALSTYLE
  5
39
102
{ACAD_XDICTIONARY
360
748
102
}
102
{ACAD_REACTORS
330
2A
102
}
330
2A
100
AcDbVisualStyle
  2
Facepattern
 70
    15
177
     2
291
     1
 71
     2
176
     1
 72
     2
176
     1
 73
     0
176
     1
 90
        0
176
     1
 40
0.6
176
     1
 41
30.0
176
     1
 63
     7
421
 16777215
176
     1
 74
     1
176
     1
 91
        4
176
     1
 64
     7
176
     1
 65
   257
176
     1
 75
     1
176
     1
175
     1
176
     1
 42
1.0
176
     1
 92
        8
176
     1
 66
     7
176
     1
 43
1.0
176
     1
 76
     1
176
     1
 77
     6
176
     1
 78
     2
176
     1
 67
     7
176
     1
 79
     5
176
     1
170
     0
176
     1
171
     0
176
     1
290
     0
176
     1
 93
        1
176
     1
 44
0.0
176
     1
173
     0
176
     1
  0
VISUALSTYLE
  5
2B
102
{ACAD_XDICTIONARY
360
72C
102
}
102
{ACAD_REACTORS
330
2A
102
}
330
2A
100
AcDbVisualStyle
  2
Flat
 70
     0
177
     2
291
     1
 71
     2
176
     1
 72
     1
176
     1
 73
     1
176
     1
 90
        2
176
     1
 40
0.6
176
     1
 41
30.0
176
     1
 63
     7
421
 16777215
176
     1
 74
     0
176
     1
 91
        0
176
     1
 64
     7
176
     1
 65
   257
176
     1
 75
     1
176
     1
175
     1
176
     1
 42
1.0
176
     1
 92
        8
176
     1
 66
     7
176
     1
 43
1.0
176
     1
 76
     1
176
     1
 77
     6
176
     1
 78
     2
176
     1
 67
     7
176
     1
 79
     5
176
     1
170
     0
176
     1
171
     0
176
     1
290
     0
176
     1
 93
       13
176
     1
 44
0.0
176
     1
173
     0
176
     1
  0
VISUALSTYLE
  5
2C
102
{ACAD_XDICTIONARY
360
72E
102
}
102
{ACAD_REACTORS
330
2A
102
}
330
2A
100
AcDbVisualStyle
  2
FlatWithEdges
 70
     1
177
     2
291
     1
 71
     2
176
     1
 72
     1
176
     1
 73
     1
176
     1
 90
        2
176
     1
 40
0.6
176
     1
 41
30.0
176
     1
 63
     7
421
 16777215
176
     1
 74
     1
176
     1
 91
        0
176
     1
 64
     7
176
     1
 65
   257
176
     1
 75
     1
176
     1
175
     1
176
     1
 42
1.0
176
     1
 92
        0
176
     1
 66
   257
176
     1
 43
1.0
176
     1
 76
     1
176
     1
 77
     6
176
     1
 78
     2
176
     1
 67
     7
176
     1
 79
     5
176
     1
170
     0
176
     1
171
     0
176
     1
290
     0
176
     1
 93
       13
176
     1
 44
0.0
176
     1
173
     0
176
     1
  0
VISUALSTYLE
  5
2D
102
{ACAD_XDICTIONARY
360
730
102
}
102
{ACAD_REACTORS
330
2A
102
}
330
2A
100
AcDbVisualStyle
  2
Gouraud
 70
     2
177
     2
291
     1
 71
     2
176
     1
 72
     2
176
     1
 73
     1
176
     1
 90
        2
176
     1
 40
0.6
176
     1
 41
30.0
176
     1
 63
     7
421
 16777215
176
     1
 74
     0
176
     1
 91
        0
176
     1
 64
     7
176
     1
 65
   257
176
     1
 75
     1
176
     1
175
     1
176
     1
 42
1.0
176
     1
 92
        0
176
     1
 66
     7
176
     1
 43
1.0
176
     1
 76
     1
176
     1
 77
     6
176
     1
 78
     2
176
     1
 67
     7
176
     1
 79
     5
176
     1
170
     0
176
     1
171
     0
176
     1
290
     0
176
     1
 93
       13
176
     1
 44
0.0
176
     1
173
     0
176
     1
  0
VISUALSTYLE
  5
2E
102
{ACAD_XDICTIONARY
360
732
102
}
102
{ACAD_REACTORS
330
2A
102
}
330
2A
100
AcDbVisualStyle
  2
GouraudWithEdges
 70
     3
177
     2
291
     1
 71
     2
176
     1
 72
     2
176
     1
 73
     1
176
     1
 90
        2
176
     1
 40
0.6
176
     1
 41
30.0
176
     1
 63
     7
421
 16777215
176
     1
 74
     1
176
     1
 91
        0
176
     1
 64
     7
176
     1
 65
   257
176
     1
 75
     1
176
     1
175
     1
176
     1
 42
1.0
176
     1
 92
        0
176
     1
 66
   257
176
     1
 43
1.0
176
     1
 76
     1
176
     1
 77
     6
176
     1
 78
     2
176
     1
 67
     7
176
     1
 79
     5
176
     1
170
     0
176
     1
171
     0
176
     1
290
     0
176
     1
 93
       13
176
     1
 44
0.0
176
     1
173
     0
176
     1
  0
VISUALSTYLE
  5
31
102
{ACAD_XDICTIONARY
360
738
102
}
102
{ACAD_REACTORS
330
2A
102
}
330
2A
100
AcDbVisualStyle
  2
Hidden
 70
     6
177
     2
291
     0
 71
     1
176
     1
 72
     2
176
     1
 73
     2
176
     1
 90
        0
176
     1
 40
0.6
176
     1
 41
30.0
176
     1
 63
     7
421
 16777215
176
     1
 74
     2
176
     1
 91
        2
176
     1
 64
     7
176
     1
 65
   257
176
     1
 75
     2
176
     1
175
     1
176
     1
 42
40.0
176
     1
 92
        0
176
     1
 66
   257
176
     1
 43
1.0
176
     1
 76
     1
176
     1
 77
     6
176
     1
 78
     2
176
     1
 67
     7
176
     1
 79
     3
176
     1
170
     0
176
     1
171
     0
176
     1
290
     0
176
     1
 93
        1
176
     1
 44
0.0
176
     1
173
     0
176
     1
  0
VISUALSTYLE
  5
3B
102
{ACAD_XDICTIONARY
360
74C
102
}
102
{ACAD_REACTORS
330
2A
102
}
330
2A
100
AcDbVisualStyle
  2
JitterOff
 70
    20
177
     2
291
     1
 71
     2
176
     0
 72
     2
176
     0
 73
     0
176
     0
 90
        0
176
     0
 40
0.6
176
     0
 41
30.0
176
     0
 63
     7
421
 16777215
176
     0
 74
     1
176
     0
 91
        4
176
     0
 64
     7
176
     0
 65
   257
176
     0
 75
     1
176
     0
175
     1
176
     0
 42
1.0
176
     0
 92
       10
176
     2
 66
     7
176
     0
 43
1.0
176
     0
 76
     1
176
     0
 77
     6
176
     0
 78
     2
176
     0
 67
     7
176
     0
 79
     5
176
     0
170
     0
176
     0
171
     0
176
     0
290
     0
176
     0
 93
        1
176
     0
 44
0.0
176
     0
173
     0
176
     0
  0
VISUALSTYLE
  5
38
102
{ACAD_XDICTIONARY
360
746
102
}
102
{ACAD_REACTORS
330
2A
102
}
330
2A
100
AcDbVisualStyle
  2
Linepattern
 70
    14
177
     2
291
     1
 71
     2
176
     1
 72
     2
176
     1
 73
     0
176
     1
 90
        0
176
     1
 40
0.6
176
     1
 41
30.0
176
     1
 63
     7
421
 16777215
176
     1
 74
     1
176
     1
 91
        4
176
     1
 64
     7
176
     1
 65
   257
176
     1
 75
     7
176
     1
175
     7
176
     1
 42
1.0
176
     1
 92
        8
176
     1
 66
     7
176
     1
 43
1.0
176
     1
 76
     1
176
     1
 77
     6
176
     1
 78
     2
176
     1
 67
     7
176
     1
 79
     5
176
     1
170
     0
176
     1
171
     0
176
     1
290
     0
176
     1
 93
        1
176
     1
 44
0.0
176
     1
173
     0
176
     1
  0
VISUALSTYLE
  5
3C
102
{ACAD_XDICTIONARY
360
74E
102
}
102
{ACAD_REACTORS
330
2A
102
}
330
2A
100
AcDbVisualStyle
  2
OverhangOff
 70
    21
177
     2
291
     1
 71
     2
176
     0
 72
     2
176
     0
 73
     0
176
     0
 90
        0
176
     0
 40
0.6
176
     0
 41
30.0
176
     0
 63
     7
421
 16777215
176
     0
 74
     1
176
     0
 91
        4
176
     0
 64
     7
176
     0
 65
   257
176
     0
 75
     1
176
     0
175
     1
176
     0
 42
1.0
176
     0
 92
        9
176
     2
 66
     7
176
     0
 43
1.0
176
     0
 76
     1
176
     0
 77
     6
176
     0
 78
     2
176
     0
 67
     7
176
     0
 79
     5
176
     0
170
     0
176
     0
171
     0
176
     0
290
     0
176
     0
 93
        1
176
     0
 44
0.0
176
     0
173
     0
176
     0
  0
VISUALSTYLE
  5
33
102
{ACAD_XDICTIONARY
360
73C
102
}
102
{ACAD_REACTORS
330
2A
102
}
330
2A
100
AcDbVisualStyle
  2
Realistic
 70
     8
177
     2
291
     0
 71
     2
176
     1
 72
     3
176
     1
 73
     0
176
     1
 90
        2
176
     1
 40
0.6
176
     1
 41
30.0
176
     1
 63
     7
421
 16777215
176
     1
 74
     0
176
     1
 91
        0
176
     1
 64
     7
176
     1
 65
   257
176
     1
 75
     1
176
     1
175
     1
176
     1
 42
1.0
176
     1
 92
        8
176
     1
 66
   257
176
     1
 43
1.0
176
     1
 76
     1
176
     1
 77
     6
176
     1
 78
     2
176
     1
 67
     7
176
     1
 79
     3
176
     1
170
     0
176
     1
171
     0
176
     1
290
     0
176
     1
 93
       13
176
     1
 44
0.0
176
     1
173
     0
176
     1
  0
VISUALSTYLE
  5
42
102
{ACAD_XDICTIONARY
360
75A
102
}
102
{ACAD_REACTORS
330
2A
102
}
330
2A
100
AcDbVisualStyle
  2
Shaded
 70
    27
177
     2
291
     0
 71
     2
176
     1
 72
     2
176
     1
 73
     1
176
     1
 90
        2
176
     1
 40
0.6
176
     1
 41
30.0
176
     1
 63
     7
421
 16777215
176
     1
 74
     0
176
     1
 91
        4
176
     1
 64
     7
176
     1
 65
   257
176
     1
 75
     1
176
     1
175
     1
176
     1
 42
1.0
176
     1
 92
        8
176
     1
 66
   257
176
     1
 43
1.0
176
     1
 76
     1
176
     1
 77
     6
176
     1
 78
     2
176
     1
 67
     8
425
  7895160
176
     1
 79
     3
176
     1
170
     0
176
     1
171
     0
176
     1
290
     0
176
     1
 93
        5
176
     1
 44
0.0
176
     1
173
     0
176
     1
  0
VISUALSTYLE
  5
41
102
{ACAD_XDICTIONARY
360
758
102
}
102
{ACAD_REACTORS
330
2A
102
}
330
2A
100
AcDbVisualStyle
  2
Shaded with edges
 70
    26
177
     2
291
     0
 71
     2
176
     1
 72
     2
176
     1
 73
     1
176
     1
 90
        2
176
     1
 40
0.6
176
     1
 41
30.0
176
     1
 63
     7
421
 16777215
176
     1
 74
     1
176
     1
 91
       10
176
     1
 64
     7
176
     1
 65
   257
176
     1
 75
     2
176
     1
175
     1
176
     1
 42
1.0
176
     1
 92
        8
176
     1
 66
   257
176
     1
 43
1.0
176
     1
 76
     1
176
     1
 77
     6
176
     1
 78
     2
176
     1
 67
     7
176
     1
 79
     3
176
     1
170
     0
176
     1
171
     0
176
     1
290
     0
176
     1
 93
        5
176
     1
 44
0.0
176
     1
173
     0
176
     1
  0
VISUALSTYLE
  5
3E
102
{ACAD_XDICTIONARY
360
752
102
}
102
{ACAD_REACTORS
330
2A
102
}
330
2A
100
AcDbVisualStyle
  2
Shades of Gray
 70
    23
177
     2
291
     0
 71
     2
176
     1
 72
     2
176
     1
 73
     3
176
     1
 90
        0
176
     1
 40
0.6
176
     1
 41
30.0
176
     1
 63
     7
421
 16777215
176
     1
 74
     2
176
     1
 91
        2
176
     1
 64
     7
176
     1
 65
     7
176
     1
 75
     1
176
     1
175
     1
176
     1
 42
40.0
176
     1
 92
        8
176
     1
 66
     7
176
     1
 43
1.0
176
     1
 76
     1
176
     1
 77
     6
176
     1
 78
     2
176
     1
 67
     7
176
     1
 79
     3
176
     1
170
     0
176
     1
171
     0
176
     1
290
     0
176
     1
 93
        1
176
     1
 44
0.0
176
     1
173
     0
176
     1
  0
VISUALSTYLE
  5
3F
102
{ACAD_XDICTIONARY
360
754
102
}
102
{ACAD_REACTORS
330
2A
102
}
330
2A
100
AcDbVisualStyle
  2
Sketchy
 70
    24
177
     2
291
     0
 71
     1
176
     1
 72
     2
176
     1
 73
     2
176
     1
 90
        0
176
     1
 40
0.6
176
     1
 41
30.0
176
     1
 63
     7
421
 16777215
176
     1
 74
     2
176
     1
 91
        2
176
     1
 64
     7
176
     1
 65
     7
176
     1
 75
     1
176
     1
175
     1
176
     1
 42
40.0
176
     1
 92
       11
176
     1
 66
     7
176
     1
 43
1.0
176
     1
 76
     1
176
     1
 77
     6
176
     1
 78
     2
176
     1
 67
     7
176
     1
 79
     6
176
     1
170
     0
176
     1
171
     0
176
     1
290
     0
176
     1
 93
        1
176
     1
 44
0.0
176
     1
173
     0
176
     1
  0
VISUALSTYLE
  5
37
102
{ACAD_XDICTIONARY
360
744
102
}
102
{ACAD_REACTORS
330
2A
102
}
330
2A
100
AcDbVisualStyle
  2
Thicken
 70
    13
177
     2
291
     1
 71
     2
176
     1
 72
     2
176
     1
 73
     0
176
     1
 90
        0
176
     1
 40
0.6
176
     1
 41
30.0
176
     1
 63
     7
421
 16777215
176
     1
 74
     1
176
     1
 91
        4
176
     1
 64
     7
176
     1
 65
   257
176
     1
 75
     1
176
     1
175
     1
176
     1
 42
1.0
176
     1
 92
       12
176
     1
 66
     7
176
     1
 43
1.0
176
     1
 76
     1
176
     1
 77
     6
176
     1
 78
     2
176
     1
 67
     7
176
     1
 79
     5
176
     1
170
     0
176
     1
171
     0
176
     1
290
     0
176
     1
 93
        1
176
     1
 44
0.0
176
     1
173
     0
176
     1
  0
VISUALSTYLE
  5
30
102
{ACAD_XDICTIONARY
360
736
102
}
102
{ACAD_REACTORS
330
2A
102
}
330
2A
100
AcDbVisualStyle
  2
Wireframe
 70
     5
177
     2
291
     0
 71
     0
176
     1
 72
     2
176
     1
 73
     0
176
     1
 90
        0
176
     1
 40
0.6
176
     1
 41
30.0
176
     1
 63
     7
421
 16777215
176
     1
 74
     1
176
     1
 91
        4
176
     1
 64
     7
176
     1
 65
   257
176
     1
 75
     1
176
     1
175
     1
176
     1
 42
1.0
176
     1
 92
        0
176
     1
 66
   257
176
     1
 43
1.0
176
     1
 76
     1
176
     1
 77
     6
176
     1
 78
     2
176
     1
 67
     7
176
     1
 79
     3
176
     1
170
     0
176
     1
171
     0
176
     1
290
     0
176
     1
 93
        1
176
     1
 44
0.0
176
     1
173
     0
176
     1
  0
VISUALSTYLE
  5
40
102
{ACAD_XDICTIONARY
360
756
102
}
102
{ACAD_REACTORS
330
2A
102
}
330
2A
100
AcDbVisualStyle
  2
X-Ray
 70
    25
177
     2
291
     0
 71
     2
176
     1
 72
     2
176
     1
 73
     1
176
     1
 90
        1
176
     1
 40
0.5
176
     1
 41
30.0
176
     1
 63
     7
421
 16777215
176
     1
 74
     1
176
     1
 91
        0
176
     1
 64
     7
176
     1
 65
   257
176
     1
 75
     1
176
     1
175
     1
176
     1
 42
1.0
176
     1
 92
        8
176
     1
 66
     7
176
     1
 43
1.0
176
     1
 76
     1
176
     1
 77
     6
176
     1
 78
     2
176
     1
 67
     7
176
     1
 79
     3
176
     1
170
     0
176
     1
171
     0
176
     1
290
     0
176
     1
 93
       13
176
     1
 44
0.0
176
     1
173
     0
176
     1
  0
DICTIONARYVAR
  5
6DC
102
{ACAD_REACTORS
330
6DB
102
}
330
6DB
100
DictionaryVariables
280
     0
  1
1:1
  0
DICTIONARYVAR
  5
781
102
{ACAD_REACTORS
330
6DB
102
}
330
6DB
100
DictionaryVariables
280
     0
  1
STANDARD
  0
DICTIONARYVAR
  5
780
102
{ACAD_REACTORS
330
6DB
102
}
330
6DB
100
DictionaryVariables
280
     0
  1
STANDARD
  0
DICTIONARYVAR
  5
783
102
{ACAD_REACTORS
330
6DB
102
}
330
6DB
100
DictionaryVariables
280
     0
  1
1
  0
DICTIONARYVAR
  5
784
102
{ACAD_REACTORS
330
6DB
102
}
330
6DB
100
DictionaryVariables
280
     0
  1
15
  0
DICTIONARYVAR
  5
782
102
{ACAD_REACTORS
330
6DB
102
}
330
6DB
100
DictionaryVariables
280
     0
  1
0
  0
DICTIONARYVAR
  5
6DD
102
{ACAD_REACTORS
330
6DB
102
}
330
6DB
100
DictionaryVariables
280
     0
  1
1
  0
DICTIONARY
  5
787
330
766
100
AcDbDictionary
280
     1
281
     1
  3
ACAD_XREC_ROUNDTRIP
360
788
  0
DICTIONARY
  5
785
330
765
100
AcDbDictionary
280
     1
281
     1
  3
ACAD_ROUNDTRIP_2008_TABLESTYLE_CELLSTYLEMAP
360
786
  0
DICTIONARY
  5
734
330
2F
100
AcDbDictionary
280
     1
281
     1
  3
ACAD_XREC_ROUNDTRIP
360
735
  0
DICTIONARY
  5
73A
330
32
100
AcDbDictionary
280
     1
281
     1
  3
ACAD_XREC_ROUNDTRIP
360
73B
  0
DICTIONARY
  5
742
330
36
100
AcDbDictionary
280
     1
281
     1
  3
ACAD_XREC_ROUNDTRIP
360
743
  0
DICTIONARY
  5
74A
330
3A
100
AcDbDictionary
280
     1
281
     1
  3
ACAD_XREC_ROUNDTRIP
360
74B
  0
DICTIONARY
  5
73E
330
34
100
AcDbDictionary
280
     1
281
     1
  3
ACAD_XREC_ROUNDTRIP
360
73F
  0
DICTIONARY
  5
740
330
35
100
AcDbDictionary
280
     1
281
     1
  3
ACAD_XREC_ROUNDTRIP
360
741
  0
DICTIONARY
  5
750
330
3D
100
AcDbDictionary
280
     1
281
     1
  3
ACAD_XREC_ROUNDTRIP
360
751
  0
DICTIONARY
  5
748
330
39
100
AcDbDictionary
280
     1
281
     1
  3
ACAD_XREC_ROUNDTRIP
360
749
  0
DICTIONARY
  5
72C
330
2B
100
AcDbDictionary
280
     1
281
     1
  3
ACAD_XREC_ROUNDTRIP
360
72D
  0
DICTIONARY
  5
72E
330
2C
100
AcDbDictionary
280
     1
281
     1
  3
ACAD_XREC_ROUNDTRIP
360
72F
  0
DICTIONARY
  5
730
330
2D
100
AcDbDictionary
280
     1
281
     1
  3
ACAD_XREC_ROUNDTRIP
360
731
  0
DICTIONARY
  5
732
330
2E
100
AcDbDictionary
280
     1
281
     1
  3
ACAD_XREC_ROUNDTRIP
360
733
  0
DICTIONARY
  5
738
330
31
100
AcDbDictionary
280
     1
281
     1
  3
ACAD_XREC_ROUNDTRIP
360
739
  0
DICTIONARY
  5
74C
330
3B
100
AcDbDictionary
280
     1
281
     1
  3
ACAD_XREC_ROUNDTRIP
360
74D
  0
DICTIONARY
  5
746
330
38
100
AcDbDictionary
280
     1
281
     1
  3
ACAD_XREC_ROUNDTRIP
360
747
  0
DICTIONARY
  5
74E
330
3C
100
AcDbDictionary
280
     1
281
     1
  3
ACAD_XREC_ROUNDTRIP
360
74F
  0
DICTIONARY
  5
73C
330
33
100
AcDbDictionary
280
     1
281
     1
  3
ACAD_XREC_ROUNDTRIP
360
73D
  0
DICTIONARY
  5
75A
330
42
100
AcDbDictionary
280
     1
281
     1
  3
ACAD_XREC_ROUNDTRIP
360
75B
  0
DICTIONARY
  5
758
330
41
100
AcDbDictionary
280
     1
281
     1
  3
ACAD_XREC_ROUNDTRIP
360
759
  0
DICTIONARY
  5
752
330
3E
100
AcDbDictionary
280
     1
281
     1
  3
ACAD_XREC_ROUNDTRIP
360
753
  0
DICTIONARY
  5
754
330
3F
100
AcDbDictionary
280
     1
281
     1
  3
ACAD_XREC_ROUNDTRIP
360
755
  0
DICTIONARY
  5
744
330
37
100
AcDbDictionary
280
     1
281
     1
  3
ACAD_XREC_ROUNDTRIP
360
745
  0
DICTIONARY
  5
736
330
30
100
AcDbDictionary
280
     1
281
     1
  3
ACAD_XREC_ROUNDTRIP
360
737
  0
DICTIONARY
  5
756
330
40
100
AcDbDictionary
280
     1
281
     1
  3
ACAD_XREC_ROUNDTRIP
360
757
  0
XRECORD
  5
788
102
{ACAD_REACTORS
330
787
102
}
330
787
100
AcDbXrecord
280
     1
102
ACAD_ROUNDTRIP_2012_MLEADER_STYLE
298
     1
  0
CELLSTYLEMAP
  5
786
102
{ACAD_REACTORS
330
785
102
}
330
785
100
AcDbCellStyleMap
 90
        3
300
CELLSTYLE
  1
TABLEFORMAT_BEGIN
 90
        5
170
     1
 91
        0
 92
    32768
 62
   257
 93
        1
300
CONTENTFORMAT
  1
CONTENTFORMAT_BEGIN
 90
        0
 91
        0
 92
      512
 93
        0
300

 40
0.0
140
1.0
 94
        5
 62
     0
340
11
144
0.25
309
CONTENTFORMAT_END
171
     0
 94
        0
309
TABLEFORMAT_END
  1
CELLSTYLE_BEGIN
 90
        1
 91
        1
300
_TITLE
309
CELLSTYLE_END
300
CELLSTYLE
  1
TABLEFORMAT_BEGIN
 90
        5
170
     1
 91
        0
 92
        0
 62
   257
 93
        1
300
CONTENTFORMAT
  1
CONTENTFORMAT_BEGIN
 90
        0
 91
        0
 92
      512
 93
        0
300

 40
0.0
140
1.0
 94
        5
 62
     0
340
11
144
0.18
309
CONTENTFORMAT_END
171
     0
 94
        0
309
TABLEFORMAT_END
  1
CELLSTYLE_BEGIN
 90
        2
 91
        1
300
_HEADER
309
CELLSTYLE_END
300
CELLSTYLE
  1
TABLEFORMAT_BEGIN
 90
        5
170
     1
 91
        0
 92
        0
 62
   257
 93
        1
300
CONTENTFORMAT
  1
CONTENTFORMAT_BEGIN
 90
        0
 91
        0
 92
      512
 93
        0
300

 40
0.0
140
1.0
 94
        2
 62
     0
340
11
144
0.18
309
CONTENTFORMAT_END
171
     0
 94
        0
309
TABLEFORMAT_END
  1
CELLSTYLE_BEGIN
 90
        3
 91
        2
300
_DATA
309
CELLSTYLE_END
  0
XRECORD
  5
735
102
{ACAD_REACTORS
330
734
102
}
330
734
100
AcDbXrecord
280
     1
102
RTVSPropertyOp33
 70
     1
102
RTVSPropertyOp34
 70
     1
102
RTVSPropertyOp35
 70
     1
102
RTVSPropertyOp36
 70
     1
102
RTVSPropertyOp37
 70
     1
102
RTVSPropertyOp38
 70
     1
102
RTVSPropertyOp39
 70
     1
102
RTVSPropertyOp40
 70
     1
102
RTVSPropertyOp41
 70
     1
102
RTVSPropertyOp42
 70
     1
102
RTVSPropertyOp43
 70
     1
102
RTVSPropertyOp44
 70
     1
102
RTVSPropertyOp45
 70
     1
102
RTVSPropertyOp46
 70
     1
102
RTVSPropertyOp47
 70
     1
102
RTVSPropertyOp48
 70
     1
102
RTVSPropertyOp49
 70
     1
102
RTVSPropertyOp50
 70
     1
102
RTVSPropertyOp51
 70
     0
102
RTVSPropertyOp52
 70
     0
102
RTVSPropertyOp53
 70
     1
102
RTVSPropertyOp54
 70
     1
102
RTVSPropertyOp55
 70
     1
102
RTVSPropertyOp56
 70
     1
102
RTVSPropertyOp57
 70
     1
102
RTVSPost2010Prop28
280
     1
102
RTVSPost2010PropOp28
 70
     1
102
RTVSPost2010Prop29
280
     1
102
RTVSPost2010PropOp29
 70
     1
102
RTVSPost2010Prop30
280
     0
102
RTVSPost2010PropOp30
 70
     1
102
RTVSPost2010Prop31
280
     0
102
RTVSPost2010PropOp31
 70
     1
102
RTVSPost2010Prop32
280
     0
102
RTVSPost2010PropOp32
 70
     1
102
RTVSPost2010Prop33
280
     0
102
RTVSPost2010PropOp33
 70
     1
102
RTVSPost2010Prop34
280
     0
102
RTVSPost2010PropOp34
 70
     1
102
RTVSPost2010Prop35
280
     0
102
RTVSPost2010PropOp35
 70
     1
102
RTVSPost2010Prop36
280
     0
102
RTVSPost2010PropOp36
 70
     1
102
RTVSPost2010Prop37
 90
       50
102
RTVSPost2010PropOp37
 70
     1
102
RTVSPost2010Prop38
140
0.0
102
RTVSPost2010PropOp38
 70
     1
102
RTVSPost2010Prop39
140
1.0
102
RTVSPost2010PropOp39
 70
     1
102
RTVSPost2010Prop40
 90
        0
102
RTVSPost2010PropOp40
 70
     1
102
RTVSPost2010Prop41ColorIndex
 90
       18
102
RTVSPost2010Prop41ColorRGB
 90
        0
102
RTVSPost2010PropOp41
 70
     1
102
RTVSPost2010Prop42
 90
       50
102
RTVSPost2010PropOp42
 70
     1
102
RTVSPost2010Prop43
 90
        3
102
RTVSPost2010PropOp43
 70
     1
102
RTVSPost2010Prop44ColorIndex
 90
        5
102
RTVSPost2010Prop44ColorRGB
 90
      255
102
RTVSPost2010PropOp44
 70
     1
102
RTVSPost2010Prop45
280
     0
102
RTVSPost2010PropOp45
 70
     1
102
RTVSPost2010Prop46
 90
       50
102
RTVSPost2010PropOp46
 70
     1
102
RTVSPost2010Prop47
 90
       50
102
RTVSPost2010PropOp47
 70
     1
102
RTVSPost2010Prop48
 90
       50
102
RTVSPost2010PropOp48
 70
     1
102
RTVSPost2010Prop49
280
     0
102
RTVSPost2010PropOp49
 70
     1
102
RTVSPost2010Prop50
 90
       50
102
RTVSPost2010PropOp50
 70
     1
102
RTVSPost2010Prop51ColorIndex
 90
      256
102
RTVSPost2010Prop51ColorRGB
 90
-16777216
102
RTVSPost2010PropOp51
 70
     0
102
RTVSPost2010Prop52
140
1.0
102
RTVSPost2010PropOp52
 70
     0
102
RTVSPost2010Prop53
 90
        2
102
RTVSPost2010PropOp53
 70
     1
102
RTVSPost2010Prop54
  1
strokes_ogs.tif
102
RTVSPost2010PropOp54
 70
     1
102
RTVSPost2010Prop55
280
     0
102
RTVSPost2010PropOp55
 70
     1
102
RTVSPost2010Prop56
140
1.0
102
RTVSPost2010PropOp56
 70
     1
102
RTVSPost2010Prop57
140
1.0
102
RTVSPost2010PropOp57
 70
     1
  0
XRECORD
  5
73B
102
{ACAD_REACTORS
330
73A
102
}
330
73A
100
AcDbXrecord
280
     1
102
RTVSPropertyOp33
 70
     1
102
RTVSPropertyOp34
 70
     1
102
RTVSPropertyOp35
 70
     1
102
RTVSPropertyOp36
 70
     1
102
RTVSPropertyOp37
 70
     1
102
RTVSPropertyOp38
 70
     1
102
RTVSPropertyOp39
 70
     1
102
RTVSPropertyOp40
 70
     1
102
RTVSPropertyOp41
 70
     1
102
RTVSPropertyOp42
 70
     1
102
RTVSPropertyOp43
 70
     1
102
RTVSPropertyOp44
 70
     1
102
RTVSPropertyOp45
 70
     1
102
RTVSPropertyOp46
 70
     1
102
RTVSPropertyOp47
 70
     1
102
RTVSPropertyOp48
 70
     1
102
RTVSPropertyOp49
 70
     1
102
RTVSPropertyOp50
 70
     1
102
RTVSPropertyOp51
 70
     0
102
RTVSPropertyOp52
 70
     0
102
RTVSPropertyOp53
 70
     1
102
RTVSPropertyOp54
 70
     1
102
RTVSPropertyOp55
 70
     1
102
RTVSPropertyOp56
 70
     1
102
RTVSPropertyOp57
 70
     1
102
RTVSPost2010Prop28
280
     0
102
RTVSPost2010PropOp28
 70
     1
102
RTVSPost2010Prop29
280
     1
102
RTVSPost2010PropOp29
 70
     1
102
RTVSPost2010Prop30
280
     1
102
RTVSPost2010PropOp30
 70
     1
102
RTVSPost2010Prop31
280
     0
102
RTVSPost2010PropOp31
 70
     1
102
RTVSPost2010Prop32
280
     0
102
RTVSPost2010PropOp32
 70
     1
102
RTVSPost2010Prop33
280
     0
102
RTVSPost2010PropOp33
 70
     1
102
RTVSPost2010Prop34
280
     0
102
RTVSPost2010PropOp34
 70
     1
102
RTVSPost2010Prop35
280
     0
102
RTVSPost2010PropOp35
 70
     1
102
RTVSPost2010Prop36
280
     0
102
RTVSPost2010PropOp36
 70
     1
102
RTVSPost2010Prop37
 90
       50
102
RTVSPost2010PropOp37
 70
     1
102
RTVSPost2010Prop38
140
0.0
102
RTVSPost2010PropOp38
 70
     1
102
RTVSPost2010Prop39
140
1.0
102
RTVSPost2010PropOp39
 70
     1
102
RTVSPost2010Prop40
 90
        0
102
RTVSPost2010PropOp40
 70
     1
102
RTVSPost2010Prop41ColorIndex
 90
       18
102
RTVSPost2010Prop41ColorRGB
 90
        0
102
RTVSPost2010PropOp41
 70
     1
102
RTVSPost2010Prop42
 90
       50
102
RTVSPost2010PropOp42
 70
     1
102
RTVSPost2010Prop43
 90
        3
102
RTVSPost2010PropOp43
 70
     1
102
RTVSPost2010Prop44ColorIndex
 90
        5
102
RTVSPost2010Prop44ColorRGB
 90
      255
102
RTVSPost2010PropOp44
 70
     1
102
RTVSPost2010Prop45
280
     0
102
RTVSPost2010PropOp45
 70
     1
102
RTVSPost2010Prop46
 90
       50
102
RTVSPost2010PropOp46
 70
     1
102
RTVSPost2010Prop47
 90
       50
102
RTVSPost2010PropOp47
 70
     1
102
RTVSPost2010Prop48
 90
       50
102
RTVSPost2010PropOp48
 70
     1
102
RTVSPost2010Prop49
280
     0
102
RTVSPost2010PropOp49
 70
     1
102
RTVSPost2010Prop50
 90
       50
102
RTVSPost2010PropOp50
 70
     1
102
RTVSPost2010Prop51ColorIndex
 90
      256
102
RTVSPost2010Prop51ColorRGB
 90
-16777216
102
RTVSPost2010PropOp51
 70
     0
102
RTVSPost2010Prop52
140
1.0
102
RTVSPost2010PropOp52
 70
     0
102
RTVSPost2010Prop53
 90
        2
102
RTVSPost2010PropOp53
 70
     1
102
RTVSPost2010Prop54
  1
strokes_ogs.tif
102
RTVSPost2010PropOp54
 70
     1
102
RTVSPost2010Prop55
280
     0
102
RTVSPost2010PropOp55
 70
     1
102
RTVSPost2010Prop56
140
1.0
102
RTVSPost2010PropOp56
 70
     1
102
RTVSPost2010Prop57
140
1.0
102
RTVSPost2010PropOp57
 70
     1
  0
XRECORD
  5
743
102
{ACAD_REACTORS
330
742
102
}
330
742
100
AcDbXrecord
280
     1
102
RTVSPropertyOp33
 70
     1
102
RTVSPropertyOp34
 70
     1
102
RTVSPropertyOp35
 70
     1
102
RTVSPropertyOp36
 70
     1
102
RTVSPropertyOp37
 70
     1
102
RTVSPropertyOp38
 70
     1
102
RTVSPropertyOp39
 70
     1
102
RTVSPropertyOp40
 70
     1
102
RTVSPropertyOp41
 70
     1
102
RTVSPropertyOp42
 70
     1
102
RTVSPropertyOp43
 70
     1
102
RTVSPropertyOp44
 70
     1
102
RTVSPropertyOp45
 70
     1
102
RTVSPropertyOp46
 70
     1
102
RTVSPropertyOp47
 70
     1
102
RTVSPropertyOp48
 70
     1
102
RTVSPropertyOp49
 70
     1
102
RTVSPropertyOp50
 70
     1
102
RTVSPropertyOp51
 70
     0
102
RTVSPropertyOp52
 70
     0
102
RTVSPropertyOp53
 70
     1
102
RTVSPropertyOp54
 70
     1
102
RTVSPropertyOp55
 70
     1
102
RTVSPropertyOp56
 70
     1
102
RTVSPropertyOp57
 70
     1
102
RTVSPost2010Prop28
280
     0
102
RTVSPost2010PropOp28
 70
     1
102
RTVSPost2010Prop29
280
     1
102
RTVSPost2010PropOp29
 70
     1
102
RTVSPost2010Prop30
280
     1
102
RTVSPost2010PropOp30
 70
     1
102
RTVSPost2010Prop31
280
     0
102
RTVSPost2010PropOp31
 70
     1
102
RTVSPost2010Prop32
280
     0
102
RTVSPost2010PropOp32
 70
     1
102
RTVSPost2010Prop33
280
     0
102
RTVSPost2010PropOp33
 70
     1
102
RTVSPost2010Prop34
280
     0
102
RTVSPost2010PropOp34
 70
     1
102
RTVSPost2010Prop35
280
     0
102
RTVSPost2010PropOp35
 70
     1
102
RTVSPost2010Prop36
280
     0
102
RTVSPost2010PropOp36
 70
     1
102
RTVSPost2010Prop37
 90
       50
102
RTVSPost2010PropOp37
 70
     1
102
RTVSPost2010Prop38
140
0.0
102
RTVSPost2010PropOp38
 70
     1
102
RTVSPost2010Prop39
140
1.0
102
RTVSPost2010PropOp39
 70
     1
102
RTVSPost2010Prop40
 90
        0
102
RTVSPost2010PropOp40
 70
     1
102
RTVSPost2010Prop41ColorIndex
 90
       18
102
RTVSPost2010Prop41ColorRGB
 90
        0
102
RTVSPost2010PropOp41
 70
     1
102
RTVSPost2010Prop42
 90
       50
102
RTVSPost2010PropOp42
 70
     1
102
RTVSPost2010Prop43
 90
        3
102
RTVSPost2010PropOp43
 70
     1
102
RTVSPost2010Prop44ColorIndex
 90
        5
102
RTVSPost2010Prop44ColorRGB
 90
      255
102
RTVSPost2010PropOp44
 70
     1
102
RTVSPost2010Prop45
280
     0
102
RTVSPost2010PropOp45
 70
     1
102
RTVSPost2010Prop46
 90
       50
102
RTVSPost2010PropOp46
 70
     1
102
RTVSPost2010Prop47
 90
       50
102
RTVSPost2010PropOp47
 70
     1
102
RTVSPost2010Prop48
 90
       50
102
RTVSPost2010PropOp48
 70
     1
102
RTVSPost2010Prop49
280
     0
102
RTVSPost2010PropOp49
 70
     1
102
RTVSPost2010Prop50
 90
       50
102
RTVSPost2010PropOp50
 70
     1
102
RTVSPost2010Prop51ColorIndex
 90
      256
102
RTVSPost2010Prop51ColorRGB
 90
-16777216
102
RTVSPost2010PropOp51
 70
     0
102
RTVSPost2010Prop52
140
1.0
102
RTVSPost2010PropOp52
 70
     0
102
RTVSPost2010Prop53
 90
        2
102
RTVSPost2010PropOp53
 70
     1
102
RTVSPost2010Prop54
  1
strokes_ogs.tif
102
RTVSPost2010PropOp54
 70
     1
102
RTVSPost2010Prop55
280
     0
102
RTVSPost2010PropOp55
 70
     1
102
RTVSPost2010Prop56
140
1.0
102
RTVSPost2010PropOp56
 70
     1
102
RTVSPost2010Prop57
140
1.0
102
RTVSPost2010PropOp57
 70
     1
  0
XRECORD
  5
74B
102
{ACAD_REACTORS
330
74A
102
}
330
74A
100
AcDbXrecord
280
     1
102
RTVSPropertyOp33
 70
     1
102
RTVSPropertyOp34
 70
     1
102
RTVSPropertyOp35
 70
     1
102
RTVSPropertyOp36
 70
     1
102
RTVSPropertyOp37
 70
     1
102
RTVSPropertyOp38
 70
     1
102
RTVSPropertyOp39
 70
     1
102
RTVSPropertyOp40
 70
     1
102
RTVSPropertyOp41
 70
     1
102
RTVSPropertyOp42
 70
     1
102
RTVSPropertyOp43
 70
     1
102
RTVSPropertyOp44
 70
     1
102
RTVSPropertyOp45
 70
     1
102
RTVSPropertyOp46
 70
     1
102
RTVSPropertyOp47
 70
     1
102
RTVSPropertyOp48
 70
     1
102
RTVSPropertyOp49
 70
     1
102
RTVSPropertyOp50
 70
     1
102
RTVSPropertyOp51
 70
     0
102
RTVSPropertyOp52
 70
     0
102
RTVSPropertyOp53
 70
     1
102
RTVSPropertyOp54
 70
     1
102
RTVSPropertyOp55
 70
     1
102
RTVSPropertyOp56
 70
     1
102
RTVSPropertyOp57
 70
     1
102
RTVSPost2010Prop28
280
     0
102
RTVSPost2010PropOp28
 70
     1
102
RTVSPost2010Prop29
280
     1
102
RTVSPost2010PropOp29
 70
     1
102
RTVSPost2010Prop30
280
     1
102
RTVSPost2010PropOp30
 70
     1
102
RTVSPost2010Prop31
280
     0
102
RTVSPost2010PropOp31
 70
     1
102
RTVSPost2010Prop32
280
     0
102
RTVSPost2010PropOp32
 70
     1
102
RTVSPost2010Prop33
280
     0
102
RTVSPost2010PropOp33
 70
     1
102
RTVSPost2010Prop34
280
     0
102
RTVSPost2010PropOp34
 70
     1
102
RTVSPost2010Prop35
280
     0
102
RTVSPost2010PropOp35
 70
     1
102
RTVSPost2010Prop36
280
     0
102
RTVSPost2010PropOp36
 70
     1
102
RTVSPost2010Prop37
 90
       50
102
RTVSPost2010PropOp37
 70
     1
102
RTVSPost2010Prop38
140
0.0
102
RTVSPost2010PropOp38
 70
     1
102
RTVSPost2010Prop39
140
1.0
102
RTVSPost2010PropOp39
 70
     1
102
RTVSPost2010Prop40
 90
        0
102
RTVSPost2010PropOp40
 70
     1
102
RTVSPost2010Prop41ColorIndex
 90
       18
102
RTVSPost2010Prop41ColorRGB
 90
        0
102
RTVSPost2010PropOp41
 70
     1
102
RTVSPost2010Prop42
 90
       50
102
RTVSPost2010PropOp42
 70
     1
102
RTVSPost2010Prop43
 90
        3
102
RTVSPost2010PropOp43
 70
     1
102
RTVSPost2010Prop44ColorIndex
 90
        5
102
RTVSPost2010Prop44ColorRGB
 90
      255
102
RTVSPost2010PropOp44
 70
     1
102
RTVSPost2010Prop45
280
     0
102
RTVSPost2010PropOp45
 70
     1
102
RTVSPost2010Prop46
 90
       50
102
RTVSPost2010PropOp46
 70
     1
102
RTVSPost2010Prop47
 90
       50
102
RTVSPost2010PropOp47
 70
     1
102
RTVSPost2010Prop48
 90
       50
102
RTVSPost2010PropOp48
 70
     1
102
RTVSPost2010Prop49
280
     0
102
RTVSPost2010PropOp49
 70
     1
102
RTVSPost2010Prop50
 90
       50
102
RTVSPost2010PropOp50
 70
     1
102
RTVSPost2010Prop51ColorIndex
 90
      256
102
RTVSPost2010Prop51ColorRGB
 90
-16777216
102
RTVSPost2010PropOp51
 70
     0
102
RTVSPost2010Prop52
140
1.0
102
RTVSPost2010PropOp52
 70
     0
102
RTVSPost2010Prop53
 90
        2
102
RTVSPost2010PropOp53
 70
     1
102
RTVSPost2010Prop54
  1
strokes_ogs.tif
102
RTVSPost2010PropOp54
 70
     1
102
RTVSPost2010Prop55
280
     0
102
RTVSPost2010PropOp55
 70
     1
102
RTVSPost2010Prop56
140
1.0
102
RTVSPost2010PropOp56
 70
     1
102
RTVSPost2010Prop57
140
1.0
102
RTVSPost2010PropOp57
 70
     1
  0
XRECORD
  5
73F
102
{ACAD_REACTORS
330
73E
102
}
330
73E
100
AcDbXrecord
280
     1
102
RTVSPropertyOp33
 70
     1
102
RTVSPropertyOp34
 70
     1
102
RTVSPropertyOp35
 70
     1
102
RTVSPropertyOp36
 70
     1
102
RTVSPropertyOp37
 70
     1
102
RTVSPropertyOp38
 70
     1
102
RTVSPropertyOp39
 70
     1
102
RTVSPropertyOp40
 70
     1
102
RTVSPropertyOp41
 70
     1
102
RTVSPropertyOp42
 70
     1
102
RTVSPropertyOp43
 70
     1
102
RTVSPropertyOp44
 70
     1
102
RTVSPropertyOp45
 70
     1
102
RTVSPropertyOp46
 70
     1
102
RTVSPropertyOp47
 70
     1
102
RTVSPropertyOp48
 70
     1
102
RTVSPropertyOp49
 70
     1
102
RTVSPropertyOp50
 70
     1
102
RTVSPropertyOp51
 70
     0
102
RTVSPropertyOp52
 70
     0
102
RTVSPropertyOp53
 70
     1
102
RTVSPropertyOp54
 70
     1
102
RTVSPropertyOp55
 70
     1
102
RTVSPropertyOp56
 70
     1
102
RTVSPropertyOp57
 70
     1
102
RTVSPost2010Prop28
280
     0
102
RTVSPost2010PropOp28
 70
     1
102
RTVSPost2010Prop29
280
     1
102
RTVSPost2010PropOp29
 70
     1
102
RTVSPost2010Prop30
280
     1
102
RTVSPost2010PropOp30
 70
     1
102
RTVSPost2010Prop31
280
     0
102
RTVSPost2010PropOp31
 70
     1
102
RTVSPost2010Prop32
280
     0
102
RTVSPost2010PropOp32
 70
     1
102
RTVSPost2010Prop33
280
     0
102
RTVSPost2010PropOp33
 70
     1
102
RTVSPost2010Prop34
280
     0
102
RTVSPost2010PropOp34
 70
     1
102
RTVSPost2010Prop35
280
     0
102
RTVSPost2010PropOp35
 70
     1
102
RTVSPost2010Prop36
280
     0
102
RTVSPost2010PropOp36
 70
     1
102
RTVSPost2010Prop37
 90
       50
102
RTVSPost2010PropOp37
 70
     1
102
RTVSPost2010Prop38
140
0.0
102
RTVSPost2010PropOp38
 70
     1
102
RTVSPost2010Prop39
140
1.0
102
RTVSPost2010PropOp39
 70
     1
102
RTVSPost2010Prop40
 90
        0
102
RTVSPost2010PropOp40
 70
     1
102
RTVSPost2010Prop41ColorIndex
 90
       18
102
RTVSPost2010Prop41ColorRGB
 90
        0
102
RTVSPost2010PropOp41
 70
     1
102
RTVSPost2010Prop42
 90
       50
102
RTVSPost2010PropOp42
 70
     1
102
RTVSPost2010Prop43
 90
        3
102
RTVSPost2010PropOp43
 70
     1
102
RTVSPost2010Prop44ColorIndex
 90
        5
102
RTVSPost2010Prop44ColorRGB
 90
      255
102
RTVSPost2010PropOp44
 70
     1
102
RTVSPost2010Prop45
280
     0
102
RTVSPost2010PropOp45
 70
     1
102
RTVSPost2010Prop46
 90
       50
102
RTVSPost2010PropOp46
 70
     1
102
RTVSPost2010Prop47
 90
       50
102
RTVSPost2010PropOp47
 70
     1
102
RTVSPost2010Prop48
 90
       50
102
RTVSPost2010PropOp48
 70
     1
102
RTVSPost2010Prop49
280
     0
102
RTVSPost2010PropOp49
 70
     1
102
RTVSPost2010Prop50
 90
       50
102
RTVSPost2010PropOp50
 70
     1
102
RTVSPost2010Prop51ColorIndex
 90
      256
102
RTVSPost2010Prop51ColorRGB
 90
-16777216
102
RTVSPost2010PropOp51
 70
     0
102
RTVSPost2010Prop52
140
1.0
102
RTVSPost2010PropOp52
 70
     0
102
RTVSPost2010Prop53
 90
        2
102
RTVSPost2010PropOp53
 70
     1
102
RTVSPost2010Prop54
  1
strokes_ogs.tif
102
RTVSPost2010PropOp54
 70
     1
102
RTVSPost2010Prop55
280
     0
102
RTVSPost2010PropOp55
 70
     1
102
RTVSPost2010Prop56
140
1.0
102
RTVSPost2010PropOp56
 70
     1
102
RTVSPost2010Prop57
140
1.0
102
RTVSPost2010PropOp57
 70
     1
  0
XRECORD
  5
741
102
{ACAD_REACTORS
330
740
102
}
330
740
100
AcDbXrecord
280
     1
102
RTVSPropertyOp33
 70
     1
102
RTVSPropertyOp34
 70
     1
102
RTVSPropertyOp35
 70
     1
102
RTVSPropertyOp36
 70
     1
102
RTVSPropertyOp37
 70
     1
102
RTVSPropertyOp38
 70
     1
102
RTVSPropertyOp39
 70
     1
102
RTVSPropertyOp40
 70
     1
102
RTVSPropertyOp41
 70
     1
102
RTVSPropertyOp42
 70
     1
102
RTVSPropertyOp43
 70
     1
102
RTVSPropertyOp44
 70
     1
102
RTVSPropertyOp45
 70
     1
102
RTVSPropertyOp46
 70
     1
102
RTVSPropertyOp47
 70
     1
102
RTVSPropertyOp48
 70
     1
102
RTVSPropertyOp49
 70
     1
102
RTVSPropertyOp50
 70
     1
102
RTVSPropertyOp51
 70
     0
102
RTVSPropertyOp52
 70
     0
102
RTVSPropertyOp53
 70
     1
102
RTVSPropertyOp54
 70
     1
102
RTVSPropertyOp55
 70
     1
102
RTVSPropertyOp56
 70
     1
102
RTVSPropertyOp57
 70
     1
102
RTVSPost2010Prop28
280
     0
102
RTVSPost2010PropOp28
 70
     1
102
RTVSPost2010Prop29
280
     1
102
RTVSPost2010PropOp29
 70
     1
102
RTVSPost2010Prop30
280
     1
102
RTVSPost2010PropOp30
 70
     1
102
RTVSPost2010Prop31
280
     0
102
RTVSPost2010PropOp31
 70
     1
102
RTVSPost2010Prop32
280
     0
102
RTVSPost2010PropOp32
 70
     1
102
RTVSPost2010Prop33
280
     0
102
RTVSPost2010PropOp33
 70
     1
102
RTVSPost2010Prop34
280
     0
102
RTVSPost2010PropOp34
 70
     1
102
RTVSPost2010Prop35
280
     0
102
RTVSPost2010PropOp35
 70
     1
102
RTVSPost2010Prop36
280
     0
102
RTVSPost2010PropOp36
 70
     1
102
RTVSPost2010Prop37
 90
       50
102
RTVSPost2010PropOp37
 70
     1
102
RTVSPost2010Prop38
140
0.0
102
RTVSPost2010PropOp38
 70
     1
102
RTVSPost2010Prop39
140
1.0
102
RTVSPost2010PropOp39
 70
     1
102
RTVSPost2010Prop40
 90
        0
102
RTVSPost2010PropOp40
 70
     1
102
RTVSPost2010Prop41ColorIndex
 90
       18
102
RTVSPost2010Prop41ColorRGB
 90
        0
102
RTVSPost2010PropOp41
 70
     1
102
RTVSPost2010Prop42
 90
       50
102
RTVSPost2010PropOp42
 70
     1
102
RTVSPost2010Prop43
 90
        3
102
RTVSPost2010PropOp43
 70
     1
102
RTVSPost2010Prop44ColorIndex
 90
        5
102
RTVSPost2010Prop44ColorRGB
 90
      255
102
RTVSPost2010PropOp44
 70
     1
102
RTVSPost2010Prop45
280
     0
102
RTVSPost2010PropOp45
 70
     1
102
RTVSPost2010Prop46
 90
       50
102
RTVSPost2010PropOp46
 70
     1
102
RTVSPost2010Prop47
 90
       50
102
RTVSPost2010PropOp47
 70
     1
102
RTVSPost2010Prop48
 90
       50
102
RTVSPost2010PropOp48
 70
     1
102
RTVSPost2010Prop49
280
     0
102
RTVSPost2010PropOp49
 70
     1
102
RTVSPost2010Prop50
 90
       50
102
RTVSPost2010PropOp50
 70
     1
102
RTVSPost2010Prop51ColorIndex
 90
      256
102
RTVSPost2010Prop51ColorRGB
 90
-16777216
102
RTVSPost2010PropOp51
 70
     0
102
RTVSPost2010Prop52
140
1.0
102
RTVSPost2010PropOp52
 70
     0
102
RTVSPost2010Prop53
 90
        2
102
RTVSPost2010PropOp53
 70
     1
102
RTVSPost2010Prop54
  1
strokes_ogs.tif
102
RTVSPost2010PropOp54
 70
     1
102
RTVSPost2010Prop55
280
     0
102
RTVSPost2010PropOp55
 70
     1
102
RTVSPost2010Prop56
140
1.0
102
RTVSPost2010PropOp56
 70
     1
102
RTVSPost2010Prop57
140
1.0
102
RTVSPost2010PropOp57
 70
     1
  0
XRECORD
  5
751
102
{ACAD_REACTORS
330
750
102
}
330
750
100
AcDbXrecord
280
     1
102
RTVSPropertyOp33
 70
     0
102
RTVSPropertyOp34
 70
     0
102
RTVSPropertyOp35
 70
     0
102
RTVSPropertyOp36
 70
     0
102
RTVSPropertyOp37
 70
     0
102
RTVSPropertyOp38
 70
     0
102
RTVSPropertyOp39
 70
     0
102
RTVSPropertyOp40
 70
     0
102
RTVSPropertyOp41
 70
     0
102
RTVSPropertyOp42
 70
     0
102
RTVSPropertyOp43
 70
     0
102
RTVSPropertyOp44
 70
     0
102
RTVSPropertyOp45
 70
     0
102
RTVSPropertyOp46
 70
     0
102
RTVSPropertyOp47
 70
     0
102
RTVSPropertyOp48
 70
     0
102
RTVSPropertyOp49
 70
     0
102
RTVSPropertyOp50
 70
     0
102
RTVSPropertyOp51
 70
     0
102
RTVSPropertyOp52
 70
     0
102
RTVSPropertyOp53
 70
     0
102
RTVSPropertyOp54
 70
     0
102
RTVSPropertyOp55
 70
     0
102
RTVSPropertyOp56
 70
     0
102
RTVSPropertyOp57
 70
     0
102
RTVSPost2010Prop28
280
     0
102
RTVSPost2010PropOp28
 70
     0
102
RTVSPost2010Prop29
280
     1
102
RTVSPost2010PropOp29
 70
     0
102
RTVSPost2010Prop30
280
     1
102
RTVSPost2010PropOp30
 70
     0
102
RTVSPost2010Prop31
280
     0
102
RTVSPost2010PropOp31
 70
     0
102
RTVSPost2010Prop32
280
     0
102
RTVSPost2010PropOp32
 70
     0
102
RTVSPost2010Prop33
280
     0
102
RTVSPost2010PropOp33
 70
     0
102
RTVSPost2010Prop34
280
     0
102
RTVSPost2010PropOp34
 70
     0
102
RTVSPost2010Prop35
280
     0
102
RTVSPost2010PropOp35
 70
     0
102
RTVSPost2010Prop36
280
     0
102
RTVSPost2010PropOp36
 70
     0
102
RTVSPost2010Prop37
 90
       50
102
RTVSPost2010PropOp37
 70
     0
102
RTVSPost2010Prop38
140
0.0
102
RTVSPost2010PropOp38
 70
     0
102
RTVSPost2010Prop39
140
1.0
102
RTVSPost2010PropOp39
 70
     0
102
RTVSPost2010Prop40
 90
        0
102
RTVSPost2010PropOp40
 70
     0
102
RTVSPost2010Prop41ColorIndex
 90
       18
102
RTVSPost2010Prop41ColorRGB
 90
        0
102
RTVSPost2010PropOp41
 70
     0
102
RTVSPost2010Prop42
 90
       50
102
RTVSPost2010PropOp42
 70
     0
102
RTVSPost2010Prop43
 90
        3
102
RTVSPost2010PropOp43
 70
     0
102
RTVSPost2010Prop44ColorIndex
 90
        5
102
RTVSPost2010Prop44ColorRGB
 90
      255
102
RTVSPost2010PropOp44
 70
     0
102
RTVSPost2010Prop45
280
     0
102
RTVSPost2010PropOp45
 70
     0
102
RTVSPost2010Prop46
 90
       50
102
RTVSPost2010PropOp46
 70
     0
102
RTVSPost2010Prop47
 90
       50
102
RTVSPost2010PropOp47
 70
     0
102
RTVSPost2010Prop48
 90
       50
102
RTVSPost2010PropOp48
 70
     0
102
RTVSPost2010Prop49
280
     0
102
RTVSPost2010PropOp49
 70
     0
102
RTVSPost2010Prop50
 90
       50
102
RTVSPost2010PropOp50
 70
     0
102
RTVSPost2010Prop51ColorIndex
 90
      256
102
RTVSPost2010Prop51ColorRGB
 90
-16777216
102
RTVSPost2010PropOp51
 70
     0
102
RTVSPost2010Prop52
140
1.0
102
RTVSPost2010PropOp52
 70
     0
102
RTVSPost2010Prop53
 90
        2
102
RTVSPost2010PropOp53
 70
     0
102
RTVSPost2010Prop54
  1
strokes_ogs.tif
102
RTVSPost2010PropOp54
 70
     0
102
RTVSPost2010Prop55
280
     0
102
RTVSPost2010PropOp55
 70
     0
102
RTVSPost2010Prop56
140
1.0
102
RTVSPost2010PropOp56
 70
     0
102
RTVSPost2010Prop57
140
1.0
102
RTVSPost2010PropOp57
 70
     0
  0
XRECORD
  5
749
102
{ACAD_REACTORS
330
748
102
}
330
748
100
AcDbXrecord
280
     1
102
RTVSPropertyOp33
 70
     1
102
RTVSPropertyOp34
 70
     1
102
RTVSPropertyOp35
 70
     1
102
RTVSPropertyOp36
 70
     1
102
RTVSPropertyOp37
 70
     1
102
RTVSPropertyOp38
 70
     1
102
RTVSPropertyOp39
 70
     1
102
RTVSPropertyOp40
 70
     1
102
RTVSPropertyOp41
 70
     1
102
RTVSPropertyOp42
 70
     1
102
RTVSPropertyOp43
 70
     1
102
RTVSPropertyOp44
 70
     1
102
RTVSPropertyOp45
 70
     1
102
RTVSPropertyOp46
 70
     1
102
RTVSPropertyOp47
 70
     1
102
RTVSPropertyOp48
 70
     1
102
RTVSPropertyOp49
 70
     1
102
RTVSPropertyOp50
 70
     1
102
RTVSPropertyOp51
 70
     0
102
RTVSPropertyOp52
 70
     0
102
RTVSPropertyOp53
 70
     1
102
RTVSPropertyOp54
 70
     1
102
RTVSPropertyOp55
 70
     1
102
RTVSPropertyOp56
 70
     1
102
RTVSPropertyOp57
 70
     1
102
RTVSPost2010Prop28
280
     0
102
RTVSPost2010PropOp28
 70
     1
102
RTVSPost2010Prop29
280
     1
102
RTVSPost2010PropOp29
 70
     1
102
RTVSPost2010Prop30
280
     1
102
RTVSPost2010PropOp30
 70
     1
102
RTVSPost2010Prop31
280
     0
102
RTVSPost2010PropOp31
 70
     1
102
RTVSPost2010Prop32
280
     0
102
RTVSPost2010PropOp32
 70
     1
102
RTVSPost2010Prop33
280
     0
102
RTVSPost2010PropOp33
 70
     1
102
RTVSPost2010Prop34
280
     0
102
RTVSPost2010PropOp34
 70
     1
102
RTVSPost2010Prop35
280
     0
102
RTVSPost2010PropOp35
 70
     1
102
RTVSPost2010Prop36
280
     0
102
RTVSPost2010PropOp36
 70
     1
102
RTVSPost2010Prop37
 90
       50
102
RTVSPost2010PropOp37
 70
     1
102
RTVSPost2010Prop38
140
0.0
102
RTVSPost2010PropOp38
 70
     1
102
RTVSPost2010Prop39
140
1.0
102
RTVSPost2010PropOp39
 70
     1
102
RTVSPost2010Prop40
 90
        0
102
RTVSPost2010PropOp40
 70
     1
102
RTVSPost2010Prop41ColorIndex
 90
       18
102
RTVSPost2010Prop41ColorRGB
 90
        0
102
RTVSPost2010PropOp41
 70
     1
102
RTVSPost2010Prop42
 90
       50
102
RTVSPost2010PropOp42
 70
     1
102
RTVSPost2010Prop43
 90
        3
102
RTVSPost2010PropOp43
 70
     1
102
RTVSPost2010Prop44ColorIndex
 90
        5
102
RTVSPost2010Prop44ColorRGB
 90
      255
102
RTVSPost2010PropOp44
 70
     1
102
RTVSPost2010Prop45
280
     0
102
RTVSPost2010PropOp45
 70
     1
102
RTVSPost2010Prop46
 90
       50
102
RTVSPost2010PropOp46
 70
     1
102
RTVSPost2010Prop47
 90
       50
102
RTVSPost2010PropOp47
 70
     1
102
RTVSPost2010Prop48
 90
       50
102
RTVSPost2010PropOp48
 70
     1
102
RTVSPost2010Prop49
280
     0
102
RTVSPost2010PropOp49
 70
     1
102
RTVSPost2010Prop50
 90
       50
102
RTVSPost2010PropOp50
 70
     1
102
RTVSPost2010Prop51ColorIndex
 90
      256
102
RTVSPost2010Prop51ColorRGB
 90
-16777216
102
RTVSPost2010PropOp51
 70
     0
102
RTVSPost2010Prop52
140
1.0
102
RTVSPost2010PropOp52
 70
     0
102
RTVSPost2010Prop53
 90
        2
102
RTVSPost2010PropOp53
 70
     1
102
RTVSPost2010Prop54
  1
strokes_ogs.tif
102
RTVSPost2010PropOp54
 70
     1
102
RTVSPost2010Prop55
280
     0
102
RTVSPost2010PropOp55
 70
     1
102
RTVSPost2010Prop56
140
1.0
102
RTVSPost2010PropOp56
 70
     1
102
RTVSPost2010Prop57
140
1.0
102
RTVSPost2010PropOp57
 70
     1
  0
XRECORD
  5
72D
102
{ACAD_REACTORS
330
72C
102
}
330
72C
100
AcDbXrecord
280
     1
102
RTVSPropertyOp33
 70
     1
102
RTVSPropertyOp34
 70
     1
102
RTVSPropertyOp35
 70
     1
102
RTVSPropertyOp36
 70
     1
102
RTVSPropertyOp37
 70
     1
102
RTVSPropertyOp38
 70
     1
102
RTVSPropertyOp39
 70
     1
102
RTVSPropertyOp40
 70
     1
102
RTVSPropertyOp41
 70
     1
102
RTVSPropertyOp42
 70
     1
102
RTVSPropertyOp43
 70
     1
102
RTVSPropertyOp44
 70
     1
102
RTVSPropertyOp45
 70
     1
102
RTVSPropertyOp46
 70
     1
102
RTVSPropertyOp47
 70
     1
102
RTVSPropertyOp48
 70
     1
102
RTVSPropertyOp49
 70
     1
102
RTVSPropertyOp50
 70
     1
102
RTVSPropertyOp51
 70
     0
102
RTVSPropertyOp52
 70
     0
102
RTVSPropertyOp53
 70
     1
102
RTVSPropertyOp54
 70
     1
102
RTVSPropertyOp55
 70
     1
102
RTVSPropertyOp56
 70
     1
102
RTVSPropertyOp57
 70
     1
102
RTVSPost2010Prop28
280
     0
102
RTVSPost2010PropOp28
 70
     1
102
RTVSPost2010Prop29
280
     1
102
RTVSPost2010PropOp29
 70
     1
102
RTVSPost2010Prop30
280
     1
102
RTVSPost2010PropOp30
 70
     1
102
RTVSPost2010Prop31
280
     0
102
RTVSPost2010PropOp31
 70
     1
102
RTVSPost2010Prop32
280
     0
102
RTVSPost2010PropOp32
 70
     1
102
RTVSPost2010Prop33
280
     0
102
RTVSPost2010PropOp33
 70
     1
102
RTVSPost2010Prop34
280
     0
102
RTVSPost2010PropOp34
 70
     1
102
RTVSPost2010Prop35
280
     0
102
RTVSPost2010PropOp35
 70
     1
102
RTVSPost2010Prop36
280
     0
102
RTVSPost2010PropOp36
 70
     1
102
RTVSPost2010Prop37
 90
       50
102
RTVSPost2010PropOp37
 70
     1
102
RTVSPost2010Prop38
140
0.0
102
RTVSPost2010PropOp38
 70
     1
102
RTVSPost2010Prop39
140
1.0
102
RTVSPost2010PropOp39
 70
     1
102
RTVSPost2010Prop40
 90
        0
102
RTVSPost2010PropOp40
 70
     1
102
RTVSPost2010Prop41ColorIndex
 90
       18
102
RTVSPost2010Prop41ColorRGB
 90
        0
102
RTVSPost2010PropOp41
 70
     1
102
RTVSPost2010Prop42
 90
       50
102
RTVSPost2010PropOp42
 70
     1
102
RTVSPost2010Prop43
 90
        3
102
RTVSPost2010PropOp43
 70
     1
102
RTVSPost2010Prop44ColorIndex
 90
        5
102
RTVSPost2010Prop44ColorRGB
 90
      255
102
RTVSPost2010PropOp44
 70
     1
102
RTVSPost2010Prop45
280
     0
102
RTVSPost2010PropOp45
 70
     1
102
RTVSPost2010Prop46
 90
       50
102
RTVSPost2010PropOp46
 70
     1
102
RTVSPost2010Prop47
 90
       50
102
RTVSPost2010PropOp47
 70
     1
102
RTVSPost2010Prop48
 90
       50
102
RTVSPost2010PropOp48
 70
     1
102
RTVSPost2010Prop49
280
     0
102
RTVSPost2010PropOp49
 70
     1
102
RTVSPost2010Prop50
 90
       50
102
RTVSPost2010PropOp50
 70
     1
102
RTVSPost2010Prop51ColorIndex
 90
      256
102
RTVSPost2010Prop51ColorRGB
 90
-16777216
102
RTVSPost2010PropOp51
 70
     0
102
RTVSPost2010Prop52
140
1.0
102
RTVSPost2010PropOp52
 70
     0
102
RTVSPost2010Prop53
 90
        2
102
RTVSPost2010PropOp53
 70
     1
102
RTVSPost2010Prop54
  1
strokes_ogs.tif
102
RTVSPost2010PropOp54
 70
     1
102
RTVSPost2010Prop55
280
     0
102
RTVSPost2010PropOp55
 70
     1
102
RTVSPost2010Prop56
140
1.0
102
RTVSPost2010PropOp56
 70
     1
102
RTVSPost2010Prop57
140
1.0
102
RTVSPost2010PropOp57
 70
     1
  0
XRECORD
  5
72F
102
{ACAD_REACTORS
330
72E
102
}
330
72E
100
AcDbXrecord
280
     1
102
RTVSPropertyOp33
 70
     1
102
RTVSPropertyOp34
 70
     1
102
RTVSPropertyOp35
 70
     1
102
RTVSPropertyOp36
 70
     1
102
RTVSPropertyOp37
 70
     1
102
RTVSPropertyOp38
 70
     1
102
RTVSPropertyOp39
 70
     1
102
RTVSPropertyOp40
 70
     1
102
RTVSPropertyOp41
 70
     1
102
RTVSPropertyOp42
 70
     1
102
RTVSPropertyOp43
 70
     1
102
RTVSPropertyOp44
 70
     1
102
RTVSPropertyOp45
 70
     1
102
RTVSPropertyOp46
 70
     1
102
RTVSPropertyOp47
 70
     1
102
RTVSPropertyOp48
 70
     1
102
RTVSPropertyOp49
 70
     1
102
RTVSPropertyOp50
 70
     1
102
RTVSPropertyOp51
 70
     0
102
RTVSPropertyOp52
 70
     0
102
RTVSPropertyOp53
 70
     1
102
RTVSPropertyOp54
 70
     1
102
RTVSPropertyOp55
 70
     1
102
RTVSPropertyOp56
 70
     1
102
RTVSPropertyOp57
 70
     1
102
RTVSPost2010Prop28
280
     0
102
RTVSPost2010PropOp28
 70
     1
102
RTVSPost2010Prop29
280
     1
102
RTVSPost2010PropOp29
 70
     1
102
RTVSPost2010Prop30
280
     1
102
RTVSPost2010PropOp30
 70
     1
102
RTVSPost2010Prop31
280
     0
102
RTVSPost2010PropOp31
 70
     1
102
RTVSPost2010Prop32
280
     0
102
RTVSPost2010PropOp32
 70
     1
102
RTVSPost2010Prop33
280
     0
102
RTVSPost2010PropOp33
 70
     1
102
RTVSPost2010Prop34
280
     0
102
RTVSPost2010PropOp34
 70
     1
102
RTVSPost2010Prop35
280
     0
102
RTVSPost2010PropOp35
 70
     1
102
RTVSPost2010Prop36
280
     0
102
RTVSPost2010PropOp36
 70
     1
102
RTVSPost2010Prop37
 90
       50
102
RTVSPost2010PropOp37
 70
     1
102
RTVSPost2010Prop38
140
0.0
102
RTVSPost2010PropOp38
 70
     1
102
RTVSPost2010Prop39
140
1.0
102
RTVSPost2010PropOp39
 70
     1
102
RTVSPost2010Prop40
 90
        0
102
RTVSPost2010PropOp40
 70
     1
102
RTVSPost2010Prop41ColorIndex
 90
       18
102
RTVSPost2010Prop41ColorRGB
 90
        0
102
RTVSPost2010PropOp41
 70
     1
102
RTVSPost2010Prop42
 90
       50
102
RTVSPost2010PropOp42
 70
     1
102
RTVSPost2010Prop43
 90
        3
102
RTVSPost2010PropOp43
 70
     1
102
RTVSPost2010Prop44ColorIndex
 90
        5
102
RTVSPost2010Prop44ColorRGB
 90
      255
102
RTVSPost2010PropOp44
 70
     1
102
RTVSPost2010Prop45
280
     0
102
RTVSPost2010PropOp45
 70
     1
102
RTVSPost2010Prop46
 90
       50
102
RTVSPost2010PropOp46
 70
     1
102
RTVSPost2010Prop47
 90
       50
102
RTVSPost2010PropOp47
 70
     1
102
RTVSPost2010Prop48
 90
       50
102
RTVSPost2010PropOp48
 70
     1
102
RTVSPost2010Prop49
280
     0
102
RTVSPost2010PropOp49
 70
     1
102
RTVSPost2010Prop50
 90
       50
102
RTVSPost2010PropOp50
 70
     1
102
RTVSPost2010Prop51ColorIndex
 90
      256
102
RTVSPost2010Prop51ColorRGB
 90
-16777216
102
RTVSPost2010PropOp51
 70
     0
102
RTVSPost2010Prop52
140
1.0
102
RTVSPost2010PropOp52
 70
     0
102
RTVSPost2010Prop53
 90
        2
102
RTVSPost2010PropOp53
 70
     1
102
RTVSPost2010Prop54
  1
strokes_ogs.tif
102
RTVSPost2010PropOp54
 70
     1
102
RTVSPost2010Prop55
280
     0
102
RTVSPost2010PropOp55
 70
     1
102
RTVSPost2010Prop56
140
1.0
102
RTVSPost2010PropOp56
 70
     1
102
RTVSPost2010Prop57
140
1.0
102
RTVSPost2010PropOp57
 70
     1
  0
XRECORD
  5
731
102
{ACAD_REACTORS
330
730
102
}
330
730
100
AcDbXrecord
280
     1
102
RTVSPropertyOp33
 70
     1
102
RTVSPropertyOp34
 70
     1
102
RTVSPropertyOp35
 70
     1
102
RTVSPropertyOp36
 70
     1
102
RTVSPropertyOp37
 70
     1
102
RTVSPropertyOp38
 70
     1
102
RTVSPropertyOp39
 70
     1
102
RTVSPropertyOp40
 70
     1
102
RTVSPropertyOp41
 70
     1
102
RTVSPropertyOp42
 70
     1
102
RTVSPropertyOp43
 70
     1
102
RTVSPropertyOp44
 70
     1
102
RTVSPropertyOp45
 70
     1
102
RTVSPropertyOp46
 70
     1
102
RTVSPropertyOp47
 70
     1
102
RTVSPropertyOp48
 70
     1
102
RTVSPropertyOp49
 70
     1
102
RTVSPropertyOp50
 70
     1
102
RTVSPropertyOp51
 70
     0
102
RTVSPropertyOp52
 70
     0
102
RTVSPropertyOp53
 70
     1
102
RTVSPropertyOp54
 70
     1
102
RTVSPropertyOp55
 70
     1
102
RTVSPropertyOp56
 70
     1
102
RTVSPropertyOp57
 70
     1
102
RTVSPost2010Prop28
280
     0
102
RTVSPost2010PropOp28
 70
     1
102
RTVSPost2010Prop29
280
     1
102
RTVSPost2010PropOp29
 70
     1
102
RTVSPost2010Prop30
280
     1
102
RTVSPost2010PropOp30
 70
     1
102
RTVSPost2010Prop31
280
     0
102
RTVSPost2010PropOp31
 70
     1
102
RTVSPost2010Prop32
280
     0
102
RTVSPost2010PropOp32
 70
     1
102
RTVSPost2010Prop33
280
     0
102
RTVSPost2010PropOp33
 70
     1
102
RTVSPost2010Prop34
280
     0
102
RTVSPost2010PropOp34
 70
     1
102
RTVSPost2010Prop35
280
     0
102
RTVSPost2010PropOp35
 70
     1
102
RTVSPost2010Prop36
280
     0
102
RTVSPost2010PropOp36
 70
     1
102
RTVSPost2010Prop37
 90
       50
102
RTVSPost2010PropOp37
 70
     1
102
RTVSPost2010Prop38
140
0.0
102
RTVSPost2010PropOp38
 70
     1
102
RTVSPost2010Prop39
140
1.0
102
RTVSPost2010PropOp39
 70
     1
102
RTVSPost2010Prop40
 90
        0
102
RTVSPost2010PropOp40
 70
     1
102
RTVSPost2010Prop41ColorIndex
 90
       18
102
RTVSPost2010Prop41ColorRGB
 90
        0
102
RTVSPost2010PropOp41
 70
     1
102
RTVSPost2010Prop42
 90
       50
102
RTVSPost2010PropOp42
 70
     1
102
RTVSPost2010Prop43
 90
        3
102
RTVSPost2010PropOp43
 70
     1
102
RTVSPost2010Prop44ColorIndex
 90
        5
102
RTVSPost2010Prop44ColorRGB
 90
      255
102
RTVSPost2010PropOp44
 70
     1
102
RTVSPost2010Prop45
280
     0
102
RTVSPost2010PropOp45
 70
     1
102
RTVSPost2010Prop46
 90
       50
102
RTVSPost2010PropOp46
 70
     1
102
RTVSPost2010Prop47
 90
       50
102
RTVSPost2010PropOp47
 70
     1
102
RTVSPost2010Prop48
 90
       50
102
RTVSPost2010PropOp48
 70
     1
102
RTVSPost2010Prop49
280
     0
102
RTVSPost2010PropOp49
 70
     1
102
RTVSPost2010Prop50
 90
       50
102
RTVSPost2010PropOp50
 70
     1
102
RTVSPost2010Prop51ColorIndex
 90
      256
102
RTVSPost2010Prop51ColorRGB
 90
-16777216
102
RTVSPost2010PropOp51
 70
     0
102
RTVSPost2010Prop52
140
1.0
102
RTVSPost2010PropOp52
 70
     0
102
RTVSPost2010Prop53
 90
        2
102
RTVSPost2010PropOp53
 70
     1
102
RTVSPost2010Prop54
  1
strokes_ogs.tif
102
RTVSPost2010PropOp54
 70
     1
102
RTVSPost2010Prop55
280
     0
102
RTVSPost2010PropOp55
 70
     1
102
RTVSPost2010Prop56
140
1.0
102
RTVSPost2010PropOp56
 70
     1
102
RTVSPost2010Prop57
140
1.0
102
RTVSPost2010PropOp57
 70
     1
  0
XRECORD
  5
733
102
{ACAD_REACTORS
330
732
102
}
330
732
100
AcDbXrecord
280
     1
102
RTVSPropertyOp33
 70
     1
102
RTVSPropertyOp34
 70
     1
102
RTVSPropertyOp35
 70
     1
102
RTVSPropertyOp36
 70
     1
102
RTVSPropertyOp37
 70
     1
102
RTVSPropertyOp38
 70
     1
102
RTVSPropertyOp39
 70
     1
102
RTVSPropertyOp40
 70
     1
102
RTVSPropertyOp41
 70
     1
102
RTVSPropertyOp42
 70
     1
102
RTVSPropertyOp43
 70
     1
102
RTVSPropertyOp44
 70
     1
102
RTVSPropertyOp45
 70
     1
102
RTVSPropertyOp46
 70
     1
102
RTVSPropertyOp47
 70
     1
102
RTVSPropertyOp48
 70
     1
102
RTVSPropertyOp49
 70
     1
102
RTVSPropertyOp50
 70
     1
102
RTVSPropertyOp51
 70
     0
102
RTVSPropertyOp52
 70
     0
102
RTVSPropertyOp53
 70
     1
102
RTVSPropertyOp54
 70
     1
102
RTVSPropertyOp55
 70
     1
102
RTVSPropertyOp56
 70
     1
102
RTVSPropertyOp57
 70
     1
102
RTVSPost2010Prop28
280
     0
102
RTVSPost2010PropOp28
 70
     1
102
RTVSPost2010Prop29
280
     1
102
RTVSPost2010PropOp29
 70
     1
102
RTVSPost2010Prop30
280
     1
102
RTVSPost2010PropOp30
 70
     1
102
RTVSPost2010Prop31
280
     0
102
RTVSPost2010PropOp31
 70
     1
102
RTVSPost2010Prop32
280
     0
102
RTVSPost2010PropOp32
 70
     1
102
RTVSPost2010Prop33
280
     0
102
RTVSPost2010PropOp33
 70
     1
102
RTVSPost2010Prop34
280
     0
102
RTVSPost2010PropOp34
 70
     1
102
RTVSPost2010Prop35
280
     0
102
RTVSPost2010PropOp35
 70
     1
102
RTVSPost2010Prop36
280
     0
102
RTVSPost2010PropOp36
 70
     1
102
RTVSPost2010Prop37
 90
       50
102
RTVSPost2010PropOp37
 70
     1
102
RTVSPost2010Prop38
140
0.0
102
RTVSPost2010PropOp38
 70
     1
102
RTVSPost2010Prop39
140
1.0
102
RTVSPost2010PropOp39
 70
     1
102
RTVSPost2010Prop40
 90
        0
102
RTVSPost2010PropOp40
 70
     1
102
RTVSPost2010Prop41ColorIndex
 90
       18
102
RTVSPost2010Prop41ColorRGB
 90
        0
102
RTVSPost2010PropOp41
 70
     1
102
RTVSPost2010Prop42
 90
       50
102
RTVSPost2010PropOp42
 70
     1
102
RTVSPost2010Prop43
 90
        3
102
RTVSPost2010PropOp43
 70
     1
102
RTVSPost2010Prop44ColorIndex
 90
        5
102
RTVSPost2010Prop44ColorRGB
 90
      255
102
RTVSPost2010PropOp44
 70
     1
102
RTVSPost2010Prop45
280
     0
102
RTVSPost2010PropOp45
 70
     1
102
RTVSPost2010Prop46
 90
       50
102
RTVSPost2010PropOp46
 70
     1
102
RTVSPost2010Prop47
 90
       50
102
RTVSPost2010PropOp47
 70
     1
102
RTVSPost2010Prop48
 90
       50
102
RTVSPost2010PropOp48
 70
     1
102
RTVSPost2010Prop49
280
     0
102
RTVSPost2010PropOp49
 70
     1
102
RTVSPost2010Prop50
 90
       50
102
RTVSPost2010PropOp50
 70
     1
102
RTVSPost2010Prop51ColorIndex
 90
      256
102
RTVSPost2010Prop51ColorRGB
 90
-16777216
102
RTVSPost2010PropOp51
 70
     0
102
RTVSPost2010Prop52
140
1.0
102
RTVSPost2010PropOp52
 70
     0
102
RTVSPost2010Prop53
 90
        2
102
RTVSPost2010PropOp53
 70
     1
102
RTVSPost2010Prop54
  1
strokes_ogs.tif
102
RTVSPost2010PropOp54
 70
     1
102
RTVSPost2010Prop55
280
     0
102
RTVSPost2010PropOp55
 70
     1
102
RTVSPost2010Prop56
140
1.0
102
RTVSPost2010PropOp56
 70
     1
102
RTVSPost2010Prop57
140
1.0
102
RTVSPost2010PropOp57
 70
     1
  0
XRECORD
  5
739
102
{ACAD_REACTORS
330
738
102
}
330
738
100
AcDbXrecord
280
     1
102
RTVSPropertyOp33
 70
     1
102
RTVSPropertyOp34
 70
     1
102
RTVSPropertyOp35
 70
     1
102
RTVSPropertyOp36
 70
     1
102
RTVSPropertyOp37
 70
     1
102
RTVSPropertyOp38
 70
     1
102
RTVSPropertyOp39
 70
     1
102
RTVSPropertyOp40
 70
     1
102
RTVSPropertyOp41
 70
     1
102
RTVSPropertyOp42
 70
     1
102
RTVSPropertyOp43
 70
     1
102
RTVSPropertyOp44
 70
     1
102
RTVSPropertyOp45
 70
     1
102
RTVSPropertyOp46
 70
     1
102
RTVSPropertyOp47
 70
     1
102
RTVSPropertyOp48
 70
     1
102
RTVSPropertyOp49
 70
     1
102
RTVSPropertyOp50
 70
     1
102
RTVSPropertyOp51
 70
     0
102
RTVSPropertyOp52
 70
     0
102
RTVSPropertyOp53
 70
     1
102
RTVSPropertyOp54
 70
     1
102
RTVSPropertyOp55
 70
     1
102
RTVSPropertyOp56
 70
     1
102
RTVSPropertyOp57
 70
     1
102
RTVSPost2010Prop28
280
     0
102
RTVSPost2010PropOp28
 70
     1
102
RTVSPost2010Prop29
280
     1
102
RTVSPost2010PropOp29
 70
     1
102
RTVSPost2010Prop30
280
     1
102
RTVSPost2010PropOp30
 70
     1
102
RTVSPost2010Prop31
280
     0
102
RTVSPost2010PropOp31
 70
     1
102
RTVSPost2010Prop32
280
     0
102
RTVSPost2010PropOp32
 70
     1
102
RTVSPost2010Prop33
280
     0
102
RTVSPost2010PropOp33
 70
     1
102
RTVSPost2010Prop34
280
     0
102
RTVSPost2010PropOp34
 70
     1
102
RTVSPost2010Prop35
280
     0
102
RTVSPost2010PropOp35
 70
     1
102
RTVSPost2010Prop36
280
     0
102
RTVSPost2010PropOp36
 70
     1
102
RTVSPost2010Prop37
 90
       50
102
RTVSPost2010PropOp37
 70
     1
102
RTVSPost2010Prop38
140
0.0
102
RTVSPost2010PropOp38
 70
     1
102
RTVSPost2010Prop39
140
1.0
102
RTVSPost2010PropOp39
 70
     1
102
RTVSPost2010Prop40
 90
        0
102
RTVSPost2010PropOp40
 70
     1
102
RTVSPost2010Prop41ColorIndex
 90
       18
102
RTVSPost2010Prop41ColorRGB
 90
        0
102
RTVSPost2010PropOp41
 70
     1
102
RTVSPost2010Prop42
 90
       50
102
RTVSPost2010PropOp42
 70
     1
102
RTVSPost2010Prop43
 90
        3
102
RTVSPost2010PropOp43
 70
     1
102
RTVSPost2010Prop44ColorIndex
 90
        5
102
RTVSPost2010Prop44ColorRGB
 90
      255
102
RTVSPost2010PropOp44
 70
     1
102
RTVSPost2010Prop45
280
     0
102
RTVSPost2010PropOp45
 70
     1
102
RTVSPost2010Prop46
 90
       50
102
RTVSPost2010PropOp46
 70
     1
102
RTVSPost2010Prop47
 90
       50
102
RTVSPost2010PropOp47
 70
     1
102
RTVSPost2010Prop48
 90
       50
102
RTVSPost2010PropOp48
 70
     1
102
RTVSPost2010Prop49
280
     0
102
RTVSPost2010PropOp49
 70
     1
102
RTVSPost2010Prop50
 90
       50
102
RTVSPost2010PropOp50
 70
     1
102
RTVSPost2010Prop51ColorIndex
 90
      256
102
RTVSPost2010Prop51ColorRGB
 90
-16777216
102
RTVSPost2010PropOp51
 70
     0
102
RTVSPost2010Prop52
140
1.0
102
RTVSPost2010PropOp52
 70
     0
102
RTVSPost2010Prop53
 90
        2
102
RTVSPost2010PropOp53
 70
     1
102
RTVSPost2010Prop54
  1
strokes_ogs.tif
102
RTVSPost2010PropOp54
 70
     1
102
RTVSPost2010Prop55
280
     0
102
RTVSPost2010PropOp55
 70
     1
102
RTVSPost2010Prop56
140
1.0
102
RTVSPost2010PropOp56
 70
     1
102
RTVSPost2010Prop57
140
1.0
102
RTVSPost2010PropOp57
 70
     1
  0
XRECORD
  5
74D
102
{ACAD_REACTORS
330
74C
102
}
330
74C
100
AcDbXrecord
280
     1
102
RTVSPropertyOp33
 70
     0
102
RTVSPropertyOp34
 70
     0
102
RTVSPropertyOp35
 70
     0
102
RTVSPropertyOp36
 70
     0
102
RTVSPropertyOp37
 70
     0
102
RTVSPropertyOp38
 70
     0
102
RTVSPropertyOp39
 70
     0
102
RTVSPropertyOp40
 70
     0
102
RTVSPropertyOp41
 70
     0
102
RTVSPropertyOp42
 70
     0
102
RTVSPropertyOp43
 70
     0
102
RTVSPropertyOp44
 70
     0
102
RTVSPropertyOp45
 70
     0
102
RTVSPropertyOp46
 70
     0
102
RTVSPropertyOp47
 70
     0
102
RTVSPropertyOp48
 70
     0
102
RTVSPropertyOp49
 70
     0
102
RTVSPropertyOp50
 70
     0
102
RTVSPropertyOp51
 70
     0
102
RTVSPropertyOp52
 70
     0
102
RTVSPropertyOp53
 70
     0
102
RTVSPropertyOp54
 70
     0
102
RTVSPropertyOp55
 70
     0
102
RTVSPropertyOp56
 70
     0
102
RTVSPropertyOp57
 70
     0
102
RTVSPost2010Prop28
280
     0
102
RTVSPost2010PropOp28
 70
     0
102
RTVSPost2010Prop29
280
     1
102
RTVSPost2010PropOp29
 70
     0
102
RTVSPost2010Prop30
280
     1
102
RTVSPost2010PropOp30
 70
     0
102
RTVSPost2010Prop31
280
     0
102
RTVSPost2010PropOp31
 70
     0
102
RTVSPost2010Prop32
280
     0
102
RTVSPost2010PropOp32
 70
     0
102
RTVSPost2010Prop33
280
     0
102
RTVSPost2010PropOp33
 70
     0
102
RTVSPost2010Prop34
280
     0
102
RTVSPost2010PropOp34
 70
     0
102
RTVSPost2010Prop35
280
     0
102
RTVSPost2010PropOp35
 70
     0
102
RTVSPost2010Prop36
280
     0
102
RTVSPost2010PropOp36
 70
     0
102
RTVSPost2010Prop37
 90
       50
102
RTVSPost2010PropOp37
 70
     0
102
RTVSPost2010Prop38
140
0.0
102
RTVSPost2010PropOp38
 70
     0
102
RTVSPost2010Prop39
140
1.0
102
RTVSPost2010PropOp39
 70
     0
102
RTVSPost2010Prop40
 90
        0
102
RTVSPost2010PropOp40
 70
     0
102
RTVSPost2010Prop41ColorIndex
 90
       18
102
RTVSPost2010Prop41ColorRGB
 90
        0
102
RTVSPost2010PropOp41
 70
     0
102
RTVSPost2010Prop42
 90
       50
102
RTVSPost2010PropOp42
 70
     0
102
RTVSPost2010Prop43
 90
        3
102
RTVSPost2010PropOp43
 70
     0
102
RTVSPost2010Prop44ColorIndex
 90
        5
102
RTVSPost2010Prop44ColorRGB
 90
      255
102
RTVSPost2010PropOp44
 70
     0
102
RTVSPost2010Prop45
280
     0
102
RTVSPost2010PropOp45
 70
     0
102
RTVSPost2010Prop46
 90
       50
102
RTVSPost2010PropOp46
 70
     0
102
RTVSPost2010Prop47
 90
       50
102
RTVSPost2010PropOp47
 70
     0
102
RTVSPost2010Prop48
 90
       50
102
RTVSPost2010PropOp48
 70
     0
102
RTVSPost2010Prop49
280
     0
102
RTVSPost2010PropOp49
 70
     0
102
RTVSPost2010Prop50
 90
       50
102
RTVSPost2010PropOp50
 70
     0
102
RTVSPost2010Prop51ColorIndex
 90
      256
102
RTVSPost2010Prop51ColorRGB
 90
-16777216
102
RTVSPost2010PropOp51
 70
     0
102
RTVSPost2010Prop52
140
1.0
102
RTVSPost2010PropOp52
 70
     0
102
RTVSPost2010Prop53
 90
        2
102
RTVSPost2010PropOp53
 70
     0
102
RTVSPost2010Prop54
  1
strokes_ogs.tif
102
RTVSPost2010PropOp54
 70
     0
102
RTVSPost2010Prop55
280
     0
102
RTVSPost2010PropOp55
 70
     0
102
RTVSPost2010Prop56
140
1.0
102
RTVSPost2010PropOp56
 70
     0
102
RTVSPost2010Prop57
140
1.0
102
RTVSPost2010PropOp57
 70
     0
  0
XRECORD
  5
747
102
{ACAD_REACTORS
330
746
102
}
330
746
100
AcDbXrecord
280
     1
102
RTVSPropertyOp33
 70
     1
102
RTVSPropertyOp34
 70
     1
102
RTVSPropertyOp35
 70
     1
102
RTVSPropertyOp36
 70
     1
102
RTVSPropertyOp37
 70
     1
102
RTVSPropertyOp38
 70
     1
102
RTVSPropertyOp39
 70
     1
102
RTVSPropertyOp40
 70
     1
102
RTVSPropertyOp41
 70
     1
102
RTVSPropertyOp42
 70
     1
102
RTVSPropertyOp43
 70
     1
102
RTVSPropertyOp44
 70
     1
102
RTVSPropertyOp45
 70
     1
102
RTVSPropertyOp46
 70
     1
102
RTVSPropertyOp47
 70
     1
102
RTVSPropertyOp48
 70
     1
102
RTVSPropertyOp49
 70
     1
102
RTVSPropertyOp50
 70
     1
102
RTVSPropertyOp51
 70
     0
102
RTVSPropertyOp52
 70
     0
102
RTVSPropertyOp53
 70
     1
102
RTVSPropertyOp54
 70
     1
102
RTVSPropertyOp55
 70
     1
102
RTVSPropertyOp56
 70
     1
102
RTVSPropertyOp57
 70
     1
102
RTVSPost2010Prop28
280
     0
102
RTVSPost2010PropOp28
 70
     1
102
RTVSPost2010Prop29
280
     1
102
RTVSPost2010PropOp29
 70
     1
102
RTVSPost2010Prop30
280
     1
102
RTVSPost2010PropOp30
 70
     1
102
RTVSPost2010Prop31
280
     0
102
RTVSPost2010PropOp31
 70
     1
102
RTVSPost2010Prop32
280
     0
102
RTVSPost2010PropOp32
 70
     1
102
RTVSPost2010Prop33
280
     0
102
RTVSPost2010PropOp33
 70
     1
102
RTVSPost2010Prop34
280
     0
102
RTVSPost2010PropOp34
 70
     1
102
RTVSPost2010Prop35
280
     0
102
RTVSPost2010PropOp35
 70
     1
102
RTVSPost2010Prop36
280
     0
102
RTVSPost2010PropOp36
 70
     1
102
RTVSPost2010Prop37
 90
       50
102
RTVSPost2010PropOp37
 70
     1
102
RTVSPost2010Prop38
140
0.0
102
RTVSPost2010PropOp38
 70
     1
102
RTVSPost2010Prop39
140
1.0
102
RTVSPost2010PropOp39
 70
     1
102
RTVSPost2010Prop40
 90
        0
102
RTVSPost2010PropOp40
 70
     1
102
RTVSPost2010Prop41ColorIndex
 90
       18
102
RTVSPost2010Prop41ColorRGB
 90
        0
102
RTVSPost2010PropOp41
 70
     1
102
RTVSPost2010Prop42
 90
       50
102
RTVSPost2010PropOp42
 70
     1
102
RTVSPost2010Prop43
 90
        3
102
RTVSPost2010PropOp43
 70
     1
102
RTVSPost2010Prop44ColorIndex
 90
        5
102
RTVSPost2010Prop44ColorRGB
 90
      255
102
RTVSPost2010PropOp44
 70
     1
102
RTVSPost2010Prop45
280
     0
102
RTVSPost2010PropOp45
 70
     1
102
RTVSPost2010Prop46
 90
       50
102
RTVSPost2010PropOp46
 70
     1
102
RTVSPost2010Prop47
 90
       50
102
RTVSPost2010PropOp47
 70
     1
102
RTVSPost2010Prop48
 90
       50
102
RTVSPost2010PropOp48
 70
     1
102
RTVSPost2010Prop49
280
     0
102
RTVSPost2010PropOp49
 70
     1
102
RTVSPost2010Prop50
 90
       50
102
RTVSPost2010PropOp50
 70
     1
102
RTVSPost2010Prop51ColorIndex
 90
      256
102
RTVSPost2010Prop51ColorRGB
 90
-16777216
102
RTVSPost2010PropOp51
 70
     0
102
RTVSPost2010Prop52
140
1.0
102
RTVSPost2010PropOp52
 70
     0
102
RTVSPost2010Prop53
 90
        2
102
RTVSPost2010PropOp53
 70
     1
102
RTVSPost2010Prop54
  1
strokes_ogs.tif
102
RTVSPost2010PropOp54
 70
     1
102
RTVSPost2010Prop55
280
     0
102
RTVSPost2010PropOp55
 70
     1
102
RTVSPost2010Prop56
140
1.0
102
RTVSPost2010PropOp56
 70
     1
102
RTVSPost2010Prop57
140
1.0
102
RTVSPost2010PropOp57
 70
     1
  0
XRECORD
  5
74F
102
{ACAD_REACTORS
330
74E
102
}
330
74E
100
AcDbXrecord
280
     1
102
RTVSPropertyOp33
 70
     0
102
RTVSPropertyOp34
 70
     0
102
RTVSPropertyOp35
 70
     0
102
RTVSPropertyOp36
 70
     0
102
RTVSPropertyOp37
 70
     0
102
RTVSPropertyOp38
 70
     0
102
RTVSPropertyOp39
 70
     0
102
RTVSPropertyOp40
 70
     0
102
RTVSPropertyOp41
 70
     0
102
RTVSPropertyOp42
 70
     0
102
RTVSPropertyOp43
 70
     0
102
RTVSPropertyOp44
 70
     0
102
RTVSPropertyOp45
 70
     0
102
RTVSPropertyOp46
 70
     0
102
RTVSPropertyOp47
 70
     0
102
RTVSPropertyOp48
 70
     0
102
RTVSPropertyOp49
 70
     0
102
RTVSPropertyOp50
 70
     0
102
RTVSPropertyOp51
 70
     0
102
RTVSPropertyOp52
 70
     0
102
RTVSPropertyOp53
 70
     0
102
RTVSPropertyOp54
 70
     0
102
RTVSPropertyOp55
 70
     0
102
RTVSPropertyOp56
 70
     0
102
RTVSPropertyOp57
 70
     0
102
RTVSPost2010Prop28
280
     0
102
RTVSPost2010PropOp28
 70
     0
102
RTVSPost2010Prop29
280
     1
102
RTVSPost2010PropOp29
 70
     0
102
RTVSPost2010Prop30
280
     1
102
RTVSPost2010PropOp30
 70
     0
102
RTVSPost2010Prop31
280
     0
102
RTVSPost2010PropOp31
 70
     0
102
RTVSPost2010Prop32
280
     0
102
RTVSPost2010PropOp32
 70
     0
102
RTVSPost2010Prop33
280
     0
102
RTVSPost2010PropOp33
 70
     0
102
RTVSPost2010Prop34
280
     0
102
RTVSPost2010PropOp34
 70
     0
102
RTVSPost2010Prop35
280
     0
102
RTVSPost2010PropOp35
 70
     0
102
RTVSPost2010Prop36
280
     0
102
RTVSPost2010PropOp36
 70
     0
102
RTVSPost2010Prop37
 90
       50
102
RTVSPost2010PropOp37
 70
     0
102
RTVSPost2010Prop38
140
0.0
102
RTVSPost2010PropOp38
 70
     0
102
RTVSPost2010Prop39
140
1.0
102
RTVSPost2010PropOp39
 70
     0
102
RTVSPost2010Prop40
 90
        0
102
RTVSPost2010PropOp40
 70
     0
102
RTVSPost2010Prop41ColorIndex
 90
       18
102
RTVSPost2010Prop41ColorRGB
 90
        0
102
RTVSPost2010PropOp41
 70
     0
102
RTVSPost2010Prop42
 90
       50
102
RTVSPost2010PropOp42
 70
     0
102
RTVSPost2010Prop43
 90
        3
102
RTVSPost2010PropOp43
 70
     0
102
RTVSPost2010Prop44ColorIndex
 90
        5
102
RTVSPost2010Prop44ColorRGB
 90
      255
102
RTVSPost2010PropOp44
 70
     0
102
RTVSPost2010Prop45
280
     0
102
RTVSPost2010PropOp45
 70
     0
102
RTVSPost2010Prop46
 90
       50
102
RTVSPost2010PropOp46
 70
     0
102
RTVSPost2010Prop47
 90
       50
102
RTVSPost2010PropOp47
 70
     0
102
RTVSPost2010Prop48
 90
       50
102
RTVSPost2010PropOp48
 70
     0
102
RTVSPost2010Prop49
280
     0
102
RTVSPost2010PropOp49
 70
     0
102
RTVSPost2010Prop50
 90
       50
102
RTVSPost2010PropOp50
 70
     0
102
RTVSPost2010Prop51ColorIndex
 90
      256
102
RTVSPost2010Prop51ColorRGB
 90
-16777216
102
RTVSPost2010PropOp51
 70
     0
102
RTVSPost2010Prop52
140
1.0
102
RTVSPost2010PropOp52
 70
     0
102
RTVSPost2010Prop53
 90
        2
102
RTVSPost2010PropOp53
 70
     0
102
RTVSPost2010Prop54
  1
strokes_ogs.tif
102
RTVSPost2010PropOp54
 70
     0
102
RTVSPost2010Prop55
280
     0
102
RTVSPost2010PropOp55
 70
     0
102
RTVSPost2010Prop56
140
1.0
102
RTVSPost2010PropOp56
 70
     0
102
RTVSPost2010Prop57
140
1.0
102
RTVSPost2010PropOp57
 70
     0
  0
XRECORD
  5
73D
102
{ACAD_REACTORS
330
73C
102
}
330
73C
100
AcDbXrecord
280
     1
102
RTVSPropertyOp33
 70
     1
102
RTVSPropertyOp34
 70
     1
102
RTVSPropertyOp35
 70
     1
102
RTVSPropertyOp36
 70
     1
102
RTVSPropertyOp37
 70
     1
102
RTVSPropertyOp38
 70
     1
102
RTVSPropertyOp39
 70
     1
102
RTVSPropertyOp40
 70
     1
102
RTVSPropertyOp41
 70
     1
102
RTVSPropertyOp42
 70
     1
102
RTVSPropertyOp43
 70
     1
102
RTVSPropertyOp44
 70
     1
102
RTVSPropertyOp45
 70
     1
102
RTVSPropertyOp46
 70
     1
102
RTVSPropertyOp47
 70
     1
102
RTVSPropertyOp48
 70
     1
102
RTVSPropertyOp49
 70
     1
102
RTVSPropertyOp50
 70
     1
102
RTVSPropertyOp51
 70
     0
102
RTVSPropertyOp52
 70
     0
102
RTVSPropertyOp53
 70
     1
102
RTVSPropertyOp54
 70
     1
102
RTVSPropertyOp55
 70
     1
102
RTVSPropertyOp56
 70
     1
102
RTVSPropertyOp57
 70
     1
102
RTVSPost2010Prop28
280
     0
102
RTVSPost2010PropOp28
 70
     1
102
RTVSPost2010Prop29
280
     1
102
RTVSPost2010PropOp29
 70
     1
102
RTVSPost2010Prop30
280
     1
102
RTVSPost2010PropOp30
 70
     1
102
RTVSPost2010Prop31
280
     0
102
RTVSPost2010PropOp31
 70
     1
102
RTVSPost2010Prop32
280
     0
102
RTVSPost2010PropOp32
 70
     1
102
RTVSPost2010Prop33
280
     0
102
RTVSPost2010PropOp33
 70
     1
102
RTVSPost2010Prop34
280
     0
102
RTVSPost2010PropOp34
 70
     1
102
RTVSPost2010Prop35
280
     0
102
RTVSPost2010PropOp35
 70
     1
102
RTVSPost2010Prop36
280
     0
102
RTVSPost2010PropOp36
 70
     1
102
RTVSPost2010Prop37
 90
       50
102
RTVSPost2010PropOp37
 70
     1
102
RTVSPost2010Prop38
140
0.0
102
RTVSPost2010PropOp38
 70
     1
102
RTVSPost2010Prop39
140
1.0
102
RTVSPost2010PropOp39
 70
     1
102
RTVSPost2010Prop40
 90
        0
102
RTVSPost2010PropOp40
 70
     1
102
RTVSPost2010Prop41ColorIndex
 90
       18
102
RTVSPost2010Prop41ColorRGB
 90
        0
102
RTVSPost2010PropOp41
 70
     1
102
RTVSPost2010Prop42
 90
       50
102
RTVSPost2010PropOp42
 70
     1
102
RTVSPost2010Prop43
 90
        3
102
RTVSPost2010PropOp43
 70
     1
102
RTVSPost2010Prop44ColorIndex
 90
        5
102
RTVSPost2010Prop44ColorRGB
 90
      255
102
RTVSPost2010PropOp44
 70
     1
102
RTVSPost2010Prop45
280
     0
102
RTVSPost2010PropOp45
 70
     1
102
RTVSPost2010Prop46
 90
       50
102
RTVSPost2010PropOp46
 70
     1
102
RTVSPost2010Prop47
 90
       50
102
RTVSPost2010PropOp47
 70
     1
102
RTVSPost2010Prop48
 90
       50
102
RTVSPost2010PropOp48
 70
     1
102
RTVSPost2010Prop49
280
     0
102
RTVSPost2010PropOp49
 70
     1
102
RTVSPost2010Prop50
 90
       50
102
RTVSPost2010PropOp50
 70
     1
102
RTVSPost2010Prop51ColorIndex
 90
      256
102
RTVSPost2010Prop51ColorRGB
 90
-16777216
102
RTVSPost2010PropOp51
 70
     0
102
RTVSPost2010Prop52
140
1.0
102
RTVSPost2010PropOp52
 70
     0
102
RTVSPost2010Prop53
 90
        2
102
RTVSPost2010PropOp53
 70
     1
102
RTVSPost2010Prop54
  1
strokes_ogs.tif
102
RTVSPost2010PropOp54
 70
     1
102
RTVSPost2010Prop55
280
     0
102
RTVSPost2010PropOp55
 70
     1
102
RTVSPost2010Prop56
140
1.0
102
RTVSPost2010PropOp56
 70
     1
102
RTVSPost2010Prop57
140
1.0
102
RTVSPost2010PropOp57
 70
     1
  0
XRECORD
  5
75B
102
{ACAD_REACTORS
330
75A
102
}
330
75A
100
AcDbXrecord
280
     1
102
RTVSPropertyOp33
 70
     1
102
RTVSPropertyOp34
 70
     1
102
RTVSPropertyOp35
 70
     1
102
RTVSPropertyOp36
 70
     1
102
RTVSPropertyOp37
 70
     1
102
RTVSPropertyOp38
 70
     1
102
RTVSPropertyOp39
 70
     1
102
RTVSPropertyOp40
 70
     1
102
RTVSPropertyOp41
 70
     1
102
RTVSPropertyOp42
 70
     1
102
RTVSPropertyOp43
 70
     1
102
RTVSPropertyOp44
 70
     1
102
RTVSPropertyOp45
 70
     1
102
RTVSPropertyOp46
 70
     1
102
RTVSPropertyOp47
 70
     1
102
RTVSPropertyOp48
 70
     1
102
RTVSPropertyOp49
 70
     1
102
RTVSPropertyOp50
 70
     1
102
RTVSPropertyOp51
 70
     0
102
RTVSPropertyOp52
 70
     0
102
RTVSPropertyOp53
 70
     1
102
RTVSPropertyOp54
 70
     1
102
RTVSPropertyOp55
 70
     1
102
RTVSPropertyOp56
 70
     1
102
RTVSPropertyOp57
 70
     1
102
RTVSPost2010Prop28
280
     0
102
RTVSPost2010PropOp28
 70
     1
102
RTVSPost2010Prop29
280
     1
102
RTVSPost2010PropOp29
 70
     1
102
RTVSPost2010Prop30
280
     1
102
RTVSPost2010PropOp30
 70
     1
102
RTVSPost2010Prop31
280
     0
102
RTVSPost2010PropOp31
 70
     1
102
RTVSPost2010Prop32
280
     0
102
RTVSPost2010PropOp32
 70
     1
102
RTVSPost2010Prop33
280
     0
102
RTVSPost2010PropOp33
 70
     1
102
RTVSPost2010Prop34
280
     0
102
RTVSPost2010PropOp34
 70
     1
102
RTVSPost2010Prop35
280
     0
102
RTVSPost2010PropOp35
 70
     1
102
RTVSPost2010Prop36
280
     0
102
RTVSPost2010PropOp36
 70
     1
102
RTVSPost2010Prop37
 90
       50
102
RTVSPost2010PropOp37
 70
     1
102
RTVSPost2010Prop38
140
0.0
102
RTVSPost2010PropOp38
 70
     1
102
RTVSPost2010Prop39
140
1.0
102
RTVSPost2010PropOp39
 70
     1
102
RTVSPost2010Prop40
 90
        0
102
RTVSPost2010PropOp40
 70
     1
102
RTVSPost2010Prop41ColorIndex
 90
       18
102
RTVSPost2010Prop41ColorRGB
 90
        0
102
RTVSPost2010PropOp41
 70
     1
102
RTVSPost2010Prop42
 90
       50
102
RTVSPost2010PropOp42
 70
     1
102
RTVSPost2010Prop43
 90
        3
102
RTVSPost2010PropOp43
 70
     1
102
RTVSPost2010Prop44ColorIndex
 90
        5
102
RTVSPost2010Prop44ColorRGB
 90
      255
102
RTVSPost2010PropOp44
 70
     1
102
RTVSPost2010Prop45
280
     0
102
RTVSPost2010PropOp45
 70
     1
102
RTVSPost2010Prop46
 90
       50
102
RTVSPost2010PropOp46
 70
     1
102
RTVSPost2010Prop47
 90
       50
102
RTVSPost2010PropOp47
 70
     1
102
RTVSPost2010Prop48
 90
       50
102
RTVSPost2010PropOp48
 70
     1
102
RTVSPost2010Prop49
280
     0
102
RTVSPost2010PropOp49
 70
     1
102
RTVSPost2010Prop50
 90
       50
102
RTVSPost2010PropOp50
 70
     1
102
RTVSPost2010Prop51ColorIndex
 90
      256
102
RTVSPost2010Prop51ColorRGB
 90
-16777216
102
RTVSPost2010PropOp51
 70
     0
102
RTVSPost2010Prop52
140
1.0
102
RTVSPost2010PropOp52
 70
     0
102
RTVSPost2010Prop53
 90
        2
102
RTVSPost2010PropOp53
 70
     1
102
RTVSPost2010Prop54
  1
strokes_ogs.tif
102
RTVSPost2010PropOp54
 70
     1
102
RTVSPost2010Prop55
280
     0
102
RTVSPost2010PropOp55
 70
     1
102
RTVSPost2010Prop56
140
1.0
102
RTVSPost2010PropOp56
 70
     1
102
RTVSPost2010Prop57
140
1.0
102
RTVSPost2010PropOp57
 70
     1
  0
XRECORD
  5
759
102
{ACAD_REACTORS
330
758
102
}
330
758
100
AcDbXrecord
280
     1
102
RTVSPropertyOp33
 70
     1
102
RTVSPropertyOp34
 70
     1
102
RTVSPropertyOp35
 70
     1
102
RTVSPropertyOp36
 70
     1
102
RTVSPropertyOp37
 70
     1
102
RTVSPropertyOp38
 70
     1
102
RTVSPropertyOp39
 70
     1
102
RTVSPropertyOp40
 70
     1
102
RTVSPropertyOp41
 70
     1
102
RTVSPropertyOp42
 70
     1
102
RTVSPropertyOp43
 70
     1
102
RTVSPropertyOp44
 70
     1
102
RTVSPropertyOp45
 70
     1
102
RTVSPropertyOp46
 70
     1
102
RTVSPropertyOp47
 70
     1
102
RTVSPropertyOp48
 70
     1
102
RTVSPropertyOp49
 70
     1
102
RTVSPropertyOp50
 70
     1
102
RTVSPropertyOp51
 70
     0
102
RTVSPropertyOp52
 70
     0
102
RTVSPropertyOp53
 70
     1
102
RTVSPropertyOp54
 70
     1
102
RTVSPropertyOp55
 70
     1
102
RTVSPropertyOp56
 70
     1
102
RTVSPropertyOp57
 70
     1
102
RTVSPost2010Prop28
280
     0
102
RTVSPost2010PropOp28
 70
     1
102
RTVSPost2010Prop29
280
     1
102
RTVSPost2010PropOp29
 70
     1
102
RTVSPost2010Prop30
280
     1
102
RTVSPost2010PropOp30
 70
     1
102
RTVSPost2010Prop31
280
     0
102
RTVSPost2010PropOp31
 70
     1
102
RTVSPost2010Prop32
280
     0
102
RTVSPost2010PropOp32
 70
     1
102
RTVSPost2010Prop33
280
     0
102
RTVSPost2010PropOp33
 70
     1
102
RTVSPost2010Prop34
280
     0
102
RTVSPost2010PropOp34
 70
     1
102
RTVSPost2010Prop35
280
     0
102
RTVSPost2010PropOp35
 70
     1
102
RTVSPost2010Prop36
280
     0
102
RTVSPost2010PropOp36
 70
     1
102
RTVSPost2010Prop37
 90
       50
102
RTVSPost2010PropOp37
 70
     1
102
RTVSPost2010Prop38
140
0.0
102
RTVSPost2010PropOp38
 70
     1
102
RTVSPost2010Prop39
140
1.0
102
RTVSPost2010PropOp39
 70
     1
102
RTVSPost2010Prop40
 90
        0
102
RTVSPost2010PropOp40
 70
     1
102
RTVSPost2010Prop41ColorIndex
 90
       18
102
RTVSPost2010Prop41ColorRGB
 90
        0
102
RTVSPost2010PropOp41
 70
     1
102
RTVSPost2010Prop42
 90
       50
102
RTVSPost2010PropOp42
 70
     1
102
RTVSPost2010Prop43
 90
        3
102
RTVSPost2010PropOp43
 70
     1
102
RTVSPost2010Prop44ColorIndex
 90
        5
102
RTVSPost2010Prop44ColorRGB
 90
      255
102
RTVSPost2010PropOp44
 70
     1
102
RTVSPost2010Prop45
280
     0
102
RTVSPost2010PropOp45
 70
     1
102
RTVSPost2010Prop46
 90
       50
102
RTVSPost2010PropOp46
 70
     1
102
RTVSPost2010Prop47
 90
       50
102
RTVSPost2010PropOp47
 70
     1
102
RTVSPost2010Prop48
 90
       50
102
RTVSPost2010PropOp48
 70
     1
102
RTVSPost2010Prop49
280
     0
102
RTVSPost2010PropOp49
 70
     1
102
RTVSPost2010Prop50
 90
       50
102
RTVSPost2010PropOp50
 70
     1
102
RTVSPost2010Prop51ColorIndex
 90
      256
102
RTVSPost2010Prop51ColorRGB
 90
-16777216
102
RTVSPost2010PropOp51
 70
     0
102
RTVSPost2010Prop52
140
1.0
102
RTVSPost2010PropOp52
 70
     0
102
RTVSPost2010Prop53
 90
        2
102
RTVSPost2010PropOp53
 70
     1
102
RTVSPost2010Prop54
  1
strokes_ogs.tif
102
RTVSPost2010PropOp54
 70
     1
102
RTVSPost2010Prop55
280
     0
102
RTVSPost2010PropOp55
 70
     1
102
RTVSPost2010Prop56
140
1.0
102
RTVSPost2010PropOp56
 70
     1
102
RTVSPost2010Prop57
140
1.0
102
RTVSPost2010PropOp57
 70
     1
  0
XRECORD
  5
753
102
{ACAD_REACTORS
330
752
102
}
330
752
100
AcDbXrecord
280
     1
102
RTVSPropertyOp33
 70
     1
102
RTVSPropertyOp34
 70
     1
102
RTVSPropertyOp35
 70
     1
102
RTVSPropertyOp36
 70
     1
102
RTVSPropertyOp37
 70
     1
102
RTVSPropertyOp38
 70
     1
102
RTVSPropertyOp39
 70
     1
102
RTVSPropertyOp40
 70
     1
102
RTVSPropertyOp41
 70
     1
102
RTVSPropertyOp42
 70
     1
102
RTVSPropertyOp43
 70
     1
102
RTVSPropertyOp44
 70
     1
102
RTVSPropertyOp45
 70
     1
102
RTVSPropertyOp46
 70
     1
102
RTVSPropertyOp47
 70
     1
102
RTVSPropertyOp48
 70
     1
102
RTVSPropertyOp49
 70
     1
102
RTVSPropertyOp50
 70
     1
102
RTVSPropertyOp51
 70
     0
102
RTVSPropertyOp52
 70
     0
102
RTVSPropertyOp53
 70
     1
102
RTVSPropertyOp54
 70
     1
102
RTVSPropertyOp55
 70
     1
102
RTVSPropertyOp56
 70
     1
102
RTVSPropertyOp57
 70
     1
102
RTVSPost2010Prop28
280
     0
102
RTVSPost2010PropOp28
 70
     1
102
RTVSPost2010Prop29
280
     1
102
RTVSPost2010PropOp29
 70
     1
102
RTVSPost2010Prop30
280
     1
102
RTVSPost2010PropOp30
 70
     1
102
RTVSPost2010Prop31
280
     0
102
RTVSPost2010PropOp31
 70
     1
102
RTVSPost2010Prop32
280
     0
102
RTVSPost2010PropOp32
 70
     1
102
RTVSPost2010Prop33
280
     0
102
RTVSPost2010PropOp33
 70
     1
102
RTVSPost2010Prop34
280
     0
102
RTVSPost2010PropOp34
 70
     1
102
RTVSPost2010Prop35
280
     0
102
RTVSPost2010PropOp35
 70
     1
102
RTVSPost2010Prop36
280
     0
102
RTVSPost2010PropOp36
 70
     1
102
RTVSPost2010Prop37
 90
       50
102
RTVSPost2010PropOp37
 70
     1
102
RTVSPost2010Prop38
140
0.0
102
RTVSPost2010PropOp38
 70
     1
102
RTVSPost2010Prop39
140
1.0
102
RTVSPost2010PropOp39
 70
     1
102
RTVSPost2010Prop40
 90
        0
102
RTVSPost2010PropOp40
 70
     1
102
RTVSPost2010Prop41ColorIndex
 90
       18
102
RTVSPost2010Prop41ColorRGB
 90
        0
102
RTVSPost2010PropOp41
 70
     1
102
RTVSPost2010Prop42
 90
       50
102
RTVSPost2010PropOp42
 70
     1
102
RTVSPost2010Prop43
 90
        3
102
RTVSPost2010PropOp43
 70
     1
102
RTVSPost2010Prop44ColorIndex
 90
        5
102
RTVSPost2010Prop44ColorRGB
 90
      255
102
RTVSPost2010PropOp44
 70
     1
102
RTVSPost2010Prop45
280
     0
102
RTVSPost2010PropOp45
 70
     1
102
RTVSPost2010Prop46
 90
       50
102
RTVSPost2010PropOp46
 70
     1
102
RTVSPost2010Prop47
 90
       50
102
RTVSPost2010PropOp47
 70
     1
102
RTVSPost2010Prop48
 90
       50
102
RTVSPost2010PropOp48
 70
     1
102
RTVSPost2010Prop49
280
     0
102
RTVSPost2010PropOp49
 70
     1
102
RTVSPost2010Prop50
 90
       50
102
RTVSPost2010PropOp50
 70
     1
102
RTVSPost2010Prop51ColorIndex
 90
      256
102
RTVSPost2010Prop51ColorRGB
 90
-16777216
102
RTVSPost2010PropOp51
 70
     0
102
RTVSPost2010Prop52
140
1.0
102
RTVSPost2010PropOp52
 70
     0
102
RTVSPost2010Prop53
 90
        2
102
RTVSPost2010PropOp53
 70
     1
102
RTVSPost2010Prop54
  1
strokes_ogs.tif
102
RTVSPost2010PropOp54
 70
     1
102
RTVSPost2010Prop55
280
     0
102
RTVSPost2010PropOp55
 70
     1
102
RTVSPost2010Prop56
140
1.0
102
RTVSPost2010PropOp56
 70
     1
102
RTVSPost2010Prop57
140
1.0
102
RTVSPost2010PropOp57
 70
     1
  0
XRECORD
  5
755
102
{ACAD_REACTORS
330
754
102
}
330
754
100
AcDbXrecord
280
     1
102
RTVSPropertyOp33
 70
     1
102
RTVSPropertyOp34
 70
     1
102
RTVSPropertyOp35
 70
     1
102
RTVSPropertyOp36
 70
     1
102
RTVSPropertyOp37
 70
     1
102
RTVSPropertyOp38
 70
     1
102
RTVSPropertyOp39
 70
     1
102
RTVSPropertyOp40
 70
     1
102
RTVSPropertyOp41
 70
     1
102
RTVSPropertyOp42
 70
     1
102
RTVSPropertyOp43
 70
     1
102
RTVSPropertyOp44
 70
     1
102
RTVSPropertyOp45
 70
     1
102
RTVSPropertyOp46
 70
     1
102
RTVSPropertyOp47
 70
     1
102
RTVSPropertyOp48
 70
     1
102
RTVSPropertyOp49
 70
     1
102
RTVSPropertyOp50
 70
     1
102
RTVSPropertyOp51
 70
     0
102
RTVSPropertyOp52
 70
     0
102
RTVSPropertyOp53
 70
     1
102
RTVSPropertyOp54
 70
     1
102
RTVSPropertyOp55
 70
     1
102
RTVSPropertyOp56
 70
     1
102
RTVSPropertyOp57
 70
     1
102
RTVSPost2010Prop28
280
     0
102
RTVSPost2010PropOp28
 70
     1
102
RTVSPost2010Prop29
280
     1
102
RTVSPost2010PropOp29
 70
     1
102
RTVSPost2010Prop30
280
     1
102
RTVSPost2010PropOp30
 70
     1
102
RTVSPost2010Prop31
280
     0
102
RTVSPost2010PropOp31
 70
     1
102
RTVSPost2010Prop32
280
     0
102
RTVSPost2010PropOp32
 70
     1
102
RTVSPost2010Prop33
280
     0
102
RTVSPost2010PropOp33
 70
     1
102
RTVSPost2010Prop34
280
     0
102
RTVSPost2010PropOp34
 70
     1
102
RTVSPost2010Prop35
280
     0
102
RTVSPost2010PropOp35
 70
     1
102
RTVSPost2010Prop36
280
     0
102
RTVSPost2010PropOp36
 70
     1
102
RTVSPost2010Prop37
 90
       50
102
RTVSPost2010PropOp37
 70
     1
102
RTVSPost2010Prop38
140
0.0
102
RTVSPost2010PropOp38
 70
     1
102
RTVSPost2010Prop39
140
1.0
102
RTVSPost2010PropOp39
 70
     1
102
RTVSPost2010Prop40
 90
        0
102
RTVSPost2010PropOp40
 70
     1
102
RTVSPost2010Prop41ColorIndex
 90
       18
102
RTVSPost2010Prop41ColorRGB
 90
        0
102
RTVSPost2010PropOp41
 70
     1
102
RTVSPost2010Prop42
 90
       50
102
RTVSPost2010PropOp42
 70
     1
102
RTVSPost2010Prop43
 90
        3
102
RTVSPost2010PropOp43
 70
     1
102
RTVSPost2010Prop44ColorIndex
 90
        5
102
RTVSPost2010Prop44ColorRGB
 90
      255
102
RTVSPost2010PropOp44
 70
     1
102
RTVSPost2010Prop45
280
     0
102
RTVSPost2010PropOp45
 70
     1
102
RTVSPost2010Prop46
 90
       50
102
RTVSPost2010PropOp46
 70
     1
102
RTVSPost2010Prop47
 90
       50
102
RTVSPost2010PropOp47
 70
     1
102
RTVSPost2010Prop48
 90
       50
102
RTVSPost2010PropOp48
 70
     1
102
RTVSPost2010Prop49
280
     0
102
RTVSPost2010PropOp49
 70
     1
102
RTVSPost2010Prop50
 90
       50
102
RTVSPost2010PropOp50
 70
     1
102
RTVSPost2010Prop51ColorIndex
 90
      256
102
RTVSPost2010Prop51ColorRGB
 90
-16777216
102
RTVSPost2010PropOp51
 70
     0
102
RTVSPost2010Prop52
140
1.0
102
RTVSPost2010PropOp52
 70
     0
102
RTVSPost2010Prop53
 90
        2
102
RTVSPost2010PropOp53
 70
     1
102
RTVSPost2010Prop54
  1
strokes_ogs.tif
102
RTVSPost2010PropOp54
 70
     1
102
RTVSPost2010Prop55
280
     0
102
RTVSPost2010PropOp55
 70
     1
102
RTVSPost2010Prop56
140
1.0
102
RTVSPost2010PropOp56
 70
     1
102
RTVSPost2010Prop57
140
1.0
102
RTVSPost2010PropOp57
 70
     1
  0
XRECORD
  5
745
102
{ACAD_REACTORS
330
744
102
}
330
744
100
AcDbXrecord
280
     1
102
RTVSPropertyOp33
 70
     1
102
RTVSPropertyOp34
 70
     1
102
RTVSPropertyOp35
 70
     1
102
RTVSPropertyOp36
 70
     1
102
RTVSPropertyOp37
 70
     1
102
RTVSPropertyOp38
 70
     1
102
RTVSPropertyOp39
 70
     1
102
RTVSPropertyOp40
 70
     1
102
RTVSPropertyOp41
 70
     1
102
RTVSPropertyOp42
 70
     1
102
RTVSPropertyOp43
 70
     1
102
RTVSPropertyOp44
 70
     1
102
RTVSPropertyOp45
 70
     1
102
RTVSPropertyOp46
 70
     1
102
RTVSPropertyOp47
 70
     1
102
RTVSPropertyOp48
 70
     1
102
RTVSPropertyOp49
 70
     1
102
RTVSPropertyOp50
 70
     1
102
RTVSPropertyOp51
 70
     0
102
RTVSPropertyOp52
 70
     0
102
RTVSPropertyOp53
 70
     1
102
RTVSPropertyOp54
 70
     1
102
RTVSPropertyOp55
 70
     1
102
RTVSPropertyOp56
 70
     1
102
RTVSPropertyOp57
 70
     1
102
RTVSPost2010Prop28
280
     0
102
RTVSPost2010PropOp28
 70
     1
102
RTVSPost2010Prop29
280
     1
102
RTVSPost2010PropOp29
 70
     1
102
RTVSPost2010Prop30
280
     1
102
RTVSPost2010PropOp30
 70
     1
102
RTVSPost2010Prop31
280
     0
102
RTVSPost2010PropOp31
 70
     1
102
RTVSPost2010Prop32
280
     0
102
RTVSPost2010PropOp32
 70
     1
102
RTVSPost2010Prop33
280
     0
102
RTVSPost2010PropOp33
 70
     1
102
RTVSPost2010Prop34
280
     0
102
RTVSPost2010PropOp34
 70
     1
102
RTVSPost2010Prop35
280
     0
102
RTVSPost2010PropOp35
 70
     1
102
RTVSPost2010Prop36
280
     0
102
RTVSPost2010PropOp36
 70
     1
102
RTVSPost2010Prop37
 90
       50
102
RTVSPost2010PropOp37
 70
     1
102
RTVSPost2010Prop38
140
0.0
102
RTVSPost2010PropOp38
 70
     1
102
RTVSPost2010Prop39
140
1.0
102
RTVSPost2010PropOp39
 70
     1
102
RTVSPost2010Prop40
 90
        0
102
RTVSPost2010PropOp40
 70
     1
102
RTVSPost2010Prop41ColorIndex
 90
       18
102
RTVSPost2010Prop41ColorRGB
 90
        0
102
RTVSPost2010PropOp41
 70
     1
102
RTVSPost2010Prop42
 90
       50
102
RTVSPost2010PropOp42
 70
     1
102
RTVSPost2010Prop43
 90
        3
102
RTVSPost2010PropOp43
 70
     1
102
RTVSPost2010Prop44ColorIndex
 90
        5
102
RTVSPost2010Prop44ColorRGB
 90
      255
102
RTVSPost2010PropOp44
 70
     1
102
RTVSPost2010Prop45
280
     0
102
RTVSPost2010PropOp45
 70
     1
102
RTVSPost2010Prop46
 90
       50
102
RTVSPost2010PropOp46
 70
     1
102
RTVSPost2010Prop47
 90
       50
102
RTVSPost2010PropOp47
 70
     1
102
RTVSPost2010Prop48
 90
       50
102
RTVSPost2010PropOp48
 70
     1
102
RTVSPost2010Prop49
280
     0
102
RTVSPost2010PropOp49
 70
     1
102
RTVSPost2010Prop50
 90
       50
102
RTVSPost2010PropOp50
 70
     1
102
RTVSPost2010Prop51ColorIndex
 90
      256
102
RTVSPost2010Prop51ColorRGB
 90
-16777216
102
RTVSPost2010PropOp51
 70
     0
102
RTVSPost2010Prop52
140
1.0
102
RTVSPost2010PropOp52
 70
     0
102
RTVSPost2010Prop53
 90
        2
102
RTVSPost2010PropOp53
 70
     1
102
RTVSPost2010Prop54
  1
strokes_ogs.tif
102
RTVSPost2010PropOp54
 70
     1
102
RTVSPost2010Prop55
280
     0
102
RTVSPost2010PropOp55
 70
     1
102
RTVSPost2010Prop56
140
1.0
102
RTVSPost2010PropOp56
 70
     1
102
RTVSPost2010Prop57
140
1.0
102
RTVSPost2010PropOp57
 70
     1
  0
XRECORD
  5
737
102
{ACAD_REACTORS
330
736
102
}
330
736
100
AcDbXrecord
280
     1
102
RTVSPropertyOp33
 70
     1
102
RTVSPropertyOp34
 70
     1
102
RTVSPropertyOp35
 70
     1
102
RTVSPropertyOp36
 70
     1
102
RTVSPropertyOp37
 70
     1
102
RTVSPropertyOp38
 70
     1
102
RTVSPropertyOp39
 70
     1
102
RTVSPropertyOp40
 70
     1
102
RTVSPropertyOp41
 70
     1
102
RTVSPropertyOp42
 70
     1
102
RTVSPropertyOp43
 70
     1
102
RTVSPropertyOp44
 70
     1
102
RTVSPropertyOp45
 70
     1
102
RTVSPropertyOp46
 70
     1
102
RTVSPropertyOp47
 70
     1
102
RTVSPropertyOp48
 70
     1
102
RTVSPropertyOp49
 70
     1
102
RTVSPropertyOp50
 70
     1
102
RTVSPropertyOp51
 70
     0
102
RTVSPropertyOp52
 70
     0
102
RTVSPropertyOp53
 70
     1
102
RTVSPropertyOp54
 70
     1
102
RTVSPropertyOp55
 70
     1
102
RTVSPropertyOp56
 70
     1
102
RTVSPropertyOp57
 70
     1
102
RTVSPost2010Prop28
280
     0
102
RTVSPost2010PropOp28
 70
     1
102
RTVSPost2010Prop29
280
     1
102
RTVSPost2010PropOp29
 70
     1
102
RTVSPost2010Prop30
280
     1
102
RTVSPost2010PropOp30
 70
     1
102
RTVSPost2010Prop31
280
     0
102
RTVSPost2010PropOp31
 70
     1
102
RTVSPost2010Prop32
280
     0
102
RTVSPost2010PropOp32
 70
     1
102
RTVSPost2010Prop33
280
     0
102
RTVSPost2010PropOp33
 70
     1
102
RTVSPost2010Prop34
280
     0
102
RTVSPost2010PropOp34
 70
     1
102
RTVSPost2010Prop35
280
     0
102
RTVSPost2010PropOp35
 70
     1
102
RTVSPost2010Prop36
280
     0
102
RTVSPost2010PropOp36
 70
     1
102
RTVSPost2010Prop37
 90
       50
102
RTVSPost2010PropOp37
 70
     1
102
RTVSPost2010Prop38
140
0.0
102
RTVSPost2010PropOp38
 70
     1
102
RTVSPost2010Prop39
140
1.0
102
RTVSPost2010PropOp39
 70
     1
102
RTVSPost2010Prop40
 90
        0
102
RTVSPost2010PropOp40
 70
     1
102
RTVSPost2010Prop41ColorIndex
 90
       18
102
RTVSPost2010Prop41ColorRGB
 90
        0
102
RTVSPost2010PropOp41
 70
     1
102
RTVSPost2010Prop42
 90
       50
102
RTVSPost2010PropOp42
 70
     1
102
RTVSPost2010Prop43
 90
        3
102
RTVSPost2010PropOp43
 70
     1
102
RTVSPost2010Prop44ColorIndex
 90
        5
102
RTVSPost2010Prop44ColorRGB
 90
      255
102
RTVSPost2010PropOp44
 70
     1
102
RTVSPost2010Prop45
280
     0
102
RTVSPost2010PropOp45
 70
     1
102
RTVSPost2010Prop46
 90
       50
102
RTVSPost2010PropOp46
 70
     1
102
RTVSPost2010Prop47
 90
       50
102
RTVSPost2010PropOp47
 70
     1
102
RTVSPost2010Prop48
 90
       50
102
RTVSPost2010PropOp48
 70
     1
102
RTVSPost2010Prop49
280
     0
102
RTVSPost2010PropOp49
 70
     1
102
RTVSPost2010Prop50
 90
       50
102
RTVSPost2010PropOp50
 70
     1
102
RTVSPost2010Prop51ColorIndex
 90
      256
102
RTVSPost2010Prop51ColorRGB
 90
-16777216
102
RTVSPost2010PropOp51
 70
     0
102
RTVSPost2010Prop52
140
1.0
102
RTVSPost2010PropOp52
 70
     0
102
RTVSPost2010Prop53
 90
        2
102
RTVSPost2010PropOp53
 70
     1
102
RTVSPost2010Prop54
  1
strokes_ogs.tif
102
RTVSPost2010PropOp54
 70
     1
102
RTVSPost2010Prop55
280
     0
102
RTVSPost2010PropOp55
 70
     1
102
RTVSPost2010Prop56
140
1.0
102
RTVSPost2010PropOp56
 70
     1
102
RTVSPost2010Prop57
140
1.0
102
RTVSPost2010PropOp57
 70
     1
  0
XRECORD
  5
757
102
{ACAD_REACTORS
330
756
102
}
330
756
100
AcDbXrecord
280
     1
102
RTVSPropertyOp33
 70
     1
102
RTVSPropertyOp34
 70
     1
102
RTVSPropertyOp35
 70
     1
102
RTVSPropertyOp36
 70
     1
102
RTVSPropertyOp37
 70
     1
102
RTVSPropertyOp38
 70
     1
102
RTVSPropertyOp39
 70
     1
102
RTVSPropertyOp40
 70
     1
102
RTVSPropertyOp41
 70
     1
102
RTVSPropertyOp42
 70
     1
102
RTVSPropertyOp43
 70
     1
102
RTVSPropertyOp44
 70
     1
102
RTVSPropertyOp45
 70
     1
102
RTVSPropertyOp46
 70
     1
102
RTVSPropertyOp47
 70
     1
102
RTVSPropertyOp48
 70
     1
102
RTVSPropertyOp49
 70
     1
102
RTVSPropertyOp50
 70
     1
102
RTVSPropertyOp51
 70
     0
102
RTVSPropertyOp52
 70
     0
102
RTVSPropertyOp53
 70
     1
102
RTVSPropertyOp54
 70
     1
102
RTVSPropertyOp55
 70
     1
102
RTVSPropertyOp56
 70
     1
102
RTVSPropertyOp57
 70
     1
102
RTVSPost2010Prop28
280
     0
102
RTVSPost2010PropOp28
 70
     1
102
RTVSPost2010Prop29
280
     1
102
RTVSPost2010PropOp29
 70
     1
102
RTVSPost2010Prop30
280
     1
102
RTVSPost2010PropOp30
 70
     1
102
RTVSPost2010Prop31
280
     0
102
RTVSPost2010PropOp31
 70
     1
102
RTVSPost2010Prop32
280
     0
102
RTVSPost2010PropOp32
 70
     1
102
RTVSPost2010Prop33
280
     0
102
RTVSPost2010PropOp33
 70
     1
102
RTVSPost2010Prop34
280
     0
102
RTVSPost2010PropOp34
 70
     1
102
RTVSPost2010Prop35
280
     0
102
RTVSPost2010PropOp35
 70
     1
102
RTVSPost2010Prop36
280
     0
102
RTVSPost2010PropOp36
 70
     1
102
RTVSPost2010Prop37
 90
       50
102
RTVSPost2010PropOp37
 70
     1
102
RTVSPost2010Prop38
140
0.0
102
RTVSPost2010PropOp38
 70
     1
102
RTVSPost2010Prop39
140
1.0
102
RTVSPost2010PropOp39
 70
     1
102
RTVSPost2010Prop40
 90
        0
102
RTVSPost2010PropOp40
 70
     1
102
RTVSPost2010Prop41ColorIndex
 90
       18
102
RTVSPost2010Prop41ColorRGB
 90
        0
102
RTVSPost2010PropOp41
 70
     1
102
RTVSPost2010Prop42
 90
       50
102
RTVSPost2010PropOp42
 70
     1
102
RTVSPost2010Prop43
 90
        3
102
RTVSPost2010PropOp43
 70
     1
102
RTVSPost2010Prop44ColorIndex
 90
        5
102
RTVSPost2010Prop44ColorRGB
 90
      255
102
RTVSPost2010PropOp44
 70
     1
102
RTVSPost2010Prop45
280
     0
102
RTVSPost2010PropOp45
 70
     1
102
RTVSPost2010Prop46
 90
       50
102
RTVSPost2010PropOp46
 70
     1
102
RTVSPost2010Prop47
 90
       50
102
RTVSPost2010PropOp47
 70
     1
102
RTVSPost2010Prop48
 90
       50
102
RTVSPost2010PropOp48
 70
     1
102
RTVSPost2010Prop49
280
     0
102
RTVSPost2010PropOp49
 70
     1
102
RTVSPost2010Prop50
 90
       50
102
RTVSPost2010PropOp50
 70
     1
102
RTVSPost2010Prop51ColorIndex
 90
      256
102
RTVSPost2010Prop51ColorRGB
 90
-16777216
102
RTVSPost2010PropOp51
 70
     0
102
RTVSPost2010Prop52
140
1.0
102
RTVSPost2010PropOp52
 70
     0
102
RTVSPost2010Prop53
 90
        2
102
RTVSPost2010PropOp53
 70
     1
102
RTVSPost2010Prop54
  1
strokes_ogs.tif
102
RTVSPost2010PropOp54
 70
     1
102
RTVSPost2010Prop55
280
     0
102
RTVSPost2010PropOp55
 70
     1
102
RTVSPost2010Prop56
140
1.0
102
RTVSPost2010PropOp56
 70
     1
102
RTVSPost2010Prop57
140
1.0
102
RTVSPost2010PropOp57
 70
     1
  0
ENDSEC
  0
EOF
