  0
SECTION
  2
HEADER
  9
$ACADVER
  1
AC1024
  9
$ACADMAINTVER
 70
    63
  9
$DWGCODEPAGE
  3
ANSI_1252
  9
$LASTSAVEDBY
  1
bjn
  9
$INSBASE
 10
0.0
 20
0.0
 30
0.0
  9
$EXTMIN
 10
-0.5
 20
-0.5
 30
-0.5
  9
$EXTMAX
 10
5.0
 20
5.0
 30
5.0
  9
$LIMMIN
 10
-0.5
 20
-0.5
  9
$LIMMAX
 10
5.0
 20
5.0
  9
$ORTHOMODE
 70
     0
  9
$REGENMODE
 70
     1
  9
$FILLMODE
 70
     1
  9
$QTEXTMODE
 70
     0
  9
$MIRRTEXT
 70
     1
  9
$LTSCALE
 40
1.0
  9
$ATTMODE
 70
     1
  9
$TEXTSIZE
 40
0.2
  9
$TRACEWID
 40
0.05
  9
$TEXTSTYLE
  7
Standard
  9
$CLAYER
  8
0
  9
$CELTYPE
  6
BYLAYER
  9
$CECOLOR
 62
   256
  9
$CELTSCALE
 40
1.0
  9
$DISPSILH
 70
     0
  9
$DIMSCALE
 40
1.0
  9
$DIMASZ
 40
0.18
  9
$DIMEXO
 40
0.0625
  9
$DIMDLI
 40
0.38
  9
$DIMRND
 40
0.0
  9
$DIMDLE
 40
0.0
  9
$DIMEXE
 40
0.18
  9
$DIMTP
 40
0.0
  9
$DIMTM
 40
0.0
  9
$DIMTXT
 40
0.18
  9
$DIMCEN
 40
0.09
  9
$DIMTSZ
 40
0.0
  9
$DIMTOL
 70
     0
  9
$DIMLIM
 70
     0
  9
$DIMTIH
 70
     1
  9
$DIMTOH
 70
     1
  9
$DIMSE1
 70
     0
  9
$DIMSE2
 70
     0
  9
$DIMTAD
 70
     0
  9
$DIMZIN
 70
     0
  9
$DIMBLK
  1

  9
$DIMASO
 70
     1
  9
$DIMSHO
 70
     1
  9
$DIMPOST
  1

  9
$DIMAPOST
  1

  9
$DIMALT
 70
     0
  9
$DIMALTD
 70
     2
  9
$DIMALTF
 40
25.4
  9
$DIMLFAC
 40
1.0
  9
$DIMTOFL
 70
     0
  9
$DIMTVP
 40
0.0
  9
$DIMTIX
 70
     0
  9
$DIMSOXD
 70
     0
  9
$DIMSAH
 70
     0
  9
$DIMBLK1
  1

  9
$DIMBLK2
  1

  9
$DIMSTYLE
  2
Standard
  9
$DIMCLRD
 70
     0
  9
$DIMCLRE
 70
     0
  9
$DIMCLRT
 70
     0
  9
$DIMTFAC
 40
1.0
  9
$DIMGAP
 40
0.09
  9
$DIMJUST
 70
     0
  9
$DIMSD1
 70
     0
  9
$DIMSD2
 70
     0
  9
$DIMTOLJ
 70
     1
  9
$DIMTZIN
 70
     0
  9
$DIMALTZ
 70
     0
  9
$DIMALTTZ
 70
     0
  9
$DIMUPT
 70
     0
  9
$DIMDEC
 70
     4
  9
$DIMTDEC
 70
     4
  9
$DIMALTU
 70
     2
  9
$DIMALTTD
 70
     2
  9
$DIMTXSTY
  7
Standard
  9
$DIMAUNIT
 70
     0
  9
$DIMADEC
 70
     0
  9
$DIMALTRND
 40
0.0
  9
$DIMAZIN
 70
     0
  9
$DIMDSEP
 70
    46
  9
$DIMATFIT
 70
     3
  9
$DIMFRAC
 70
     0
  9
$DIMLDRBLK
  1

  9
$DIMLUNIT
 70
     2
  9
$DIMLWD
 70
    -2
  9
$DIMLWE
 70
    -2
  9
$DIMTMOVE
 70
     0
  9
$DIMFXL
 40
1.0
  9
$DIMFXLON
 70
     0
  9
$DIMJOGANG
 40
0.7853981633974483
  9
$DIMTFILL
 70
     0
  9
$DIMTFILLCLR
 70
     0
  9
$DIMARCSYM
 70
     0
  9
$DIMLTYPE
  6

  9
$DIMLTEX1
  6

  9
$DIMLTEX2
  6

  9
$DIMTXTDIRECTION
 70
     0
  9
$LUNITS
 70
     2
  9
$LUPREC
 70
     4
  9
$SKETCHINC
 40
0.1
  9
$FILLETRAD
 40
0.5
  9
$AUNITS
 70
     0
  9
$AUPREC
 70
     0
  9
$MENU
  1
.
  9
$ELEVATION
 40
0.0
  9
$PELEVATION
 40
0.0
  9
$THICKNESS
 40
0.0
  9
$LIMCHECK
 70
     0
  9
$CHAMFERA
 40
0.0
  9
$CHAMFERB
 40
0.0
  9
$CHAMFERC
 40
0.0
  9
$CHAMFERD
 40
0.0
  9
$SKPOLY
 70
     0
  9
$TDCREATE
 40
2457157.619162142
  9
$TDUCREATE
 40
2457157.827495475
  9
$TDUPDATE
 40
2457157.620213218
  9
$TDUUPDATE
 40
2457157.828546551
  9
$TDINDWG
 40
0.0008867593
  9
$TDUSRTIMER
 40
0.0008867593
  9
$USRTIMER
 70
     1
  9
$ANGBASE
 50
0.0
  9
$ANGDIR
 70
     0
  9
$PDMODE
 70
     0
  9
$PDSIZE
 40
0.0
  9
$PLINEWID
 40
0.0
  9
$SPLFRAME
 70
     0
  9
$SPLINETYPE
 70
     6
  9
$SPLINESEGS
 70
     8
  9
$HANDSEED
  5
59F
  9
$SURFTAB1
 70
     6
  9
$SURFTAB2
 70
     6
  9
$SURFTYPE
 70
     6
  9
$SURFU
 70
     6
  9
$SURFV
 70
     6
  9
$UCSBASE
  2

  9
$UCSNAME
  2

  9
$UCSORG
 10
0.0
 20
0.0
 30
0.0
  9
$UCSXDIR
 10
1.0
 20
0.0
 30
0.0
  9
$UCSYDIR
 10
0.0
 20
1.0
 30
0.0
  9
$UCSORTHOREF
  2

  9
$UCSORTHOVIEW
 70
     0
  9
$UCSORGTOP
 10
0.0
 20
0.0
 30
0.0
  9
$UCSORGBOTTOM
 10
0.0
 20
0.0
 30
0.0
  9
$UCSORGLEFT
 10
0.0
 20
0.0
 30
0.0
  9
$UCSORGRIGHT
 10
0.0
 20
0.0
 30
0.0
  9
$UCSORGFRONT
 10
0.0
 20
0.0
 30
0.0
  9
$UCSORGBACK
 10
0.0
 20
0.0
 30
0.0
  9
$PUCSBASE
  2

  9
$PUCSNAME
  2

  9
$PUCSORG
 10
0.0
 20
0.0
 30
0.0
  9
$PUCSXDIR
 10
1.0
 20
0.0
 30
0.0
  9
$PUCSYDIR
 10
0.0
 20
1.0
 30
0.0
  9
$PUCSORTHOREF
  2

  9
$PUCSORTHOVIEW
 70
     0
  9
$PUCSORGTOP
 10
0.0
 20
0.0
 30
0.0
  9
$PUCSORGBOTTOM
 10
0.0
 20
0.0
 30
0.0
  9
$PUCSORGLEFT
 10
0.0
 20
0.0
 30
0.0
  9
$PUCSORGRIGHT
 10
0.0
 20
0.0
 30
0.0
  9
$PUCSORGFRONT
 10
0.0
 20
0.0
 30
0.0
  9
$PUCSORGBACK
 10
0.0
 20
0.0
 30
0.0
  9
$USERI1
 70
     0
  9
$USERI2
 70
     0
  9
$USERI3
 70
     0
  9
$USERI4
 70
     0
  9
$USERI5
 70
     0
  9
$USERR1
 40
0.0
  9
$USERR2
 40
0.0
  9
$USERR3
 40
0.0
  9
$USERR4
 40
0.0
  9
$USERR5
 40
0.0
  9
$WORLDVIEW
 70
     1
  9
$SHADEDGE
 70
     3
  9
$SHADEDIF
 70
    70
  9
$TILEMODE
 70
     0
  9
$MAXACTVP
 70
    64
  9
$PINSBASE
 10
0.0
 20
0.0
 30
0.0
  9
$PLIMCHECK
 70
     0
  9
$PEXTMIN
 10
1.080596950697479
 20
4.019134545953868
 30
-0.0015258207003583
  9
$PEXTMAX
 10
5.765197773423512
 20
7.40559389058686
 30
0.0000000349246037
  9
$PLIMMIN
 10
0.0
 20
0.0
  9
$PLIMMAX
 10
11.0
 20
8.5
  9
$UNITMODE
 70
     0
  9
$VISRETAIN
 70
     1
  9
$PLINEGEN
 70
     0
  9
$PSLTSCALE
 70
     1
  9
$TREEDEPTH
 70
  3020
  9
$CMLSTYLE
  2
Standard
  9
$CMLJUST
 70
     0
  9
$CMLSCALE
 40
1.0
  9
$PROXYGRAPHICS
 70
     1
  9
$MEASUREMENT
 70
     0
  9
$CELWEIGHT
370
    18
  9
$ENDCAPS
280
     0
  9
$JOINSTYLE
280
     0
  9
$LWDISPLAY
290
     0
  9
$INSUNITS
 70
     1
  9
$HYPERLINKBASE
  1

  9
$STYLESHEET
  1

  9
$XEDIT
290
     1
  9
$CEPSNTYPE
380
     0
  9
$PSTYLEMODE
290
     1
  9
$FINGERPRINTGUID
  2
{C6DF069C-052E-400C-9D18-0828F2126F85}
  9
$VERSIONGUID
  2
{2974ECA2-5FD1-48CB-8451-0FD5F1D99E49}
  9
$EXTNAMES
290
     1
  9
$PSVPSCALE
 40
0.0
  9
$OLESTARTUP
290
     0
  9
$SORTENTS
280
   127
  9
$INDEXCTL
280
     0
  9
$HIDETEXT
280
     1
  9
$XCLIPFRAME
280
     0
  9
$HALOGAP
280
     0
  9
$OBSCOLOR
 70
   257
  9
$OBSLTYPE
280
     0
  9
$INTERSECTIONDISPLAY
280
     0
  9
$INTERSECTIONCOLOR
 70
   257
  9
$DIMASSOC
280
     2
  9
$PROJECTNAME
  1

  9
$CAMERADISPLAY
290
     0
  9
$LENSLENGTH
 40
50.0
  9
$CAMERAHEIGHT
 40
0.0
  9
$STEPSPERSEC
 40
2.0
  9
$STEPSIZE
 40
6.0
  9
$3DDWFPREC
 40
2.0
  9
$PSOLWIDTH
 40
0.25
  9
$PSOLHEIGHT
 40
4.0
  9
$LOFTANG1
 40
1.570796326794896
  9
$LOFTANG2
 40
1.570796326794896
  9
$LOFTMAG1
 40
0.0
  9
$LOFTMAG2
 40
0.0
  9
$LOFTPARAM
 70
     7
  9
$LOFTNORMALS
280
     1
  9
$LATITUDE
 40
37.795
  9
$LONGITUDE
 40
-122.394
  9
$NORTHDIRECTION
 40
0.0
  9
$TIMEZONE
 70
 -8000
  9
$LIGHTGLYPHDISPLAY
280
     1
  9
$TILEMODELIGHTSYNCH
280
     1
  9
$CMATERIAL
347
44
  9
$SOLIDHIST
280
     0
  9
$SHOWHIST
280
     1
  9
$DWFFRAME
280
     2
  9
$DGNFRAME
280
     0
  9
$REALWORLDSCALE
290
     1
  9
$INTERFERECOLOR
 62
     1
  9
$INTERFEREOBJVS
345
33
  9
$INTERFEREVPVS
346
30
  9
$CSHADOW
280
     0
  9
$SHADOWPLANELOCATION
 40
0.0
  0
ENDSEC
  0
SECTION
  2
CLASSES
  0
CLASS
  1
ACDBDICTIONARYWDFLT
  2
AcDbDictionaryWithDefault
  3
ObjectDBX Classes
 90
        0
 91
        1
280
     0
281
     0
  0
CLASS
  1
VISUALSTYLE
  2
AcDbVisualStyle
  3
ObjectDBX Classes
 90
     4095
 91
       24
280
     0
281
     0
  0
CLASS
  1
MATERIAL
  2
AcDbMaterial
  3
ObjectDBX Classes
 90
     1153
 91
        3
280
     0
281
     0
  0
CLASS
  1
SCALE
  2
AcDbScale
  3
ObjectDBX Classes
 90
     1153
 91
       33
280
     0
281
     0
  0
CLASS
  1
SUN
  2
AcDbSun
  3
SCENEOE
 90
     1153
 91
        1
280
     0
281
     0
  0
CLASS
  1
DICTIONARYVAR
  2
AcDbDictionaryVar
  3
ObjectDBX Classes
 90
        0
 91
       13
280
     0
281
     0
  0
CLASS
  1
TABLESTYLE
  2
AcDbTableStyle
  3
ObjectDBX Classes
 90
     4095
 91
        1
280
     0
281
     0
  0
CLASS
  1
MLEADERSTYLE
  2
AcDbMLeaderStyle
  3
ACDB_MLEADERSTYLE_CLASS
 90
     4095
 91
        1
280
     0
281
     0
  0
CLASS
  1
CELLSTYLEMAP
  2
AcDbCellStyleMap
  3
ObjectDBX Classes
 90
     1152
 91
        1
280
     0
281
     0
  0
ENDSEC
  0
SECTION
  2
TABLES
  0
TABLE
  2
VPORT
  5
8
102
{ACAD_XDICTIONARY
360
548
102
}
330
0
100
AcDbSymbolTable
 70
    17
  0
VPORT
  5
29
330
8
100
AcDbSymbolTableRecord
100
AcDbViewportTableRecord
  2
DUMMY
 70
     0
 10
0.0
 20
0.0
 11
1.0
 21
1.0
 12
10.42990654205607
 22
4.5
 13
0.0
 23
0.0
 14
0.5
 24
0.5
 15
0.5
 25
0.5
 16
0.0
 26
0.0
 36
1.0
 17
0.0
 27
0.0
 37
0.0
 40
9.0
 41
1.972972972850328
 42
50.0
 43
0.0
 44
0.0
 50
0.0
 51
0.0
 71
     0
 72
   100
 73
     1
 74
     3
 75
     0
 76
     0
 77
     0
 78
     0
281
     0
 65
     1
110
0.0
120
0.0
130
0.0
111
1.0
121
0.0
131
0.0
112
0.0
122
1.0
132
0.0
 79
     0
146
0.0
348
2F
 60
     3
 61
     5
292
     1
282
     1
141
0.0
142
0.0
 63
   250
421
  3355443
361
69
  0
VPORT
  5
4D0
330
8
100
AcDbSymbolTableRecord
100
AcDbViewportTableRecord
  2
*ACTIVE
 70
     0
 10
0.0
 20
0.0
 11
1.0
 21
1.0
 12
1.692999999999999
 22
1.693
 13
0.0
 23
0.0
 14
0.5
 24
0.5
 15
0.5
 25
0.5
 16
0.7188730927569435
 26
-0.5850486126764432
 36
0.3754192287502549
 17
0.0
 27
0.0
 37
0.0
 40
60.10920666424619
 41
0.2954082700648074
 42
50.0
 43
10.91199264838943
 44
-10.91199264838943
 50
0.0
 51
0.0
 71
     0
 72
   100
 73
     1
 74
     3
 75
     0
 76
     0
 77
     0
 78
     0
281
     0
 65
     1
110
0.0
120
0.0
130
0.0
111
1.0
121
0.0
131
0.0
112
0.0
122
1.0
132
0.0
 79
     0
146
0.0
348
2F
 60
     3
 61
     5
292
     1
282
     1
141
0.0
142
0.0
 63
   250
421
  3355443
  0
VPORT
  5
4D1
330
8
100
AcDbSymbolTableRecord
100
AcDbViewportTableRecord
  2
L1
 70
     0
 10
0.0
 20
0.0
 11
1.0
 21
1.0
 12
1.692999999999999
 22
1.693
 13
0.0
 23
0.0
 14
0.5
 24
0.5
 15
0.5
 25
0.5
 16
0.7188730927569435
 26
-0.5850486126764432
 36
0.3754192287502549
 17
0.0
 27
0.0
 37
0.0
 40
60.10920666424619
 41
0.2954082700648074
 42
50.0
 43
10.91199264838943
 44
-10.91199264838943
 50
0.0
 51
0.0
 71
     0
 72
   100
 73
     1
 74
     3
 75
     0
 76
     0
 77
     0
 78
     0
281
     0
 65
     1
110
0.0
120
0.0
130
0.0
111
1.0
121
0.0
131
0.0
112
0.0
122
1.0
132
0.0
 79
     0
146
0.0
348
2F
 60
     3
 61
     5
292
     1
282
     1
141
0.0
142
0.0
 63
   250
421
  3355443
  0
VPORT
  5
4D2
330
8
100
AcDbSymbolTableRecord
100
AcDbViewportTableRecord
  2
L2
 70
     0
 10
0.0
 20
0.0
 11
0.5
 21
1.0
 12
0.0
 22
0.0
 13
0.0
 23
0.0
 14
0.5
 24
0.5
 15
0.5
 25
0.5
 16
0.0
 26
-1.0
 36
0.0
 17
0.0
 27
0.0
 37
0.0
 40
57.9376586752366
 41
0.3064803991336028
 42
50.0
 43
29.92904923720102
 44
-29.92904923720102
 50
0.0
 51
0.0
 71
     0
 72
   100
 73
     1
 74
     3
 75
     0
 76
     0
 77
     0
 78
     0
281
     0
 65
     1
110
0.0
120
0.0
130
0.0
111
1.0
121
0.0
131
0.0
112
0.0
122
1.0
132
0.0
 79
     0
146
0.0
348
2F
 60
     3
 61
     5
292
     1
282
     1
141
0.0
142
0.0
 63
   250
421
  3355443
  0
VPORT
  5
4D3
330
8
100
AcDbSymbolTableRecord
100
AcDbViewportTableRecord
  2
L2
 70
     0
 10
0.5
 20
0.0
 11
1.0
 21
1.0
 12
0.0
 22
0.0
 13
0.0
 23
0.0
 14
0.5
 24
0.5
 15
0.5
 25
0.5
 16
1.0
 26
0.0
 36
0.0
 17
0.0
 27
0.0
 37
0.0
 40
57.9376586752366
 41
0.3064803991336028
 42
50.0
 43
29.28374042137102
 44
-29.28374042137102
 50
0.0
 51
0.0
 71
     0
 72
   100
 73
     1
 74
     3
 75
     0
 76
     0
 77
     0
 78
     0
281
     0
 65
     1
110
0.0
120
0.0
130
0.0
111
1.0
121
0.0
131
0.0
112
0.0
122
1.0
132
0.0
 79
     0
146
0.0
348
2F
 60
     3
 61
     5
292
     1
282
     1
141
0.0
142
0.0
 63
   250
421
  3355443
  0
VPORT
  5
4D4
330
8
100
AcDbSymbolTableRecord
100
AcDbViewportTableRecord
  2
L3
 70
     0
 10
0.0
 20
0.5
 11
1.0
 21
1.0
 12
0.0
 22
0.0
 13
0.0
 23
0.0
 14
0.5
 24
0.5
 15
0.5
 25
0.5
 16
0.0
 26
0.0
 36
1.0
 17
0.0
 27
0.0
 37
0.0
 40
8.566067913385825
 41
2.072918045385238
 42
50.0
 43
28.9688293376183
 44
-28.9688293376183
 50
0.0
 51
0.0
 71
     0
 72
   100
 73
     1
 74
     3
 75
     0
 76
     0
 77
     0
 78
     0
281
     0
 65
     1
110
0.0
120
0.0
130
0.0
111
1.0
121
0.0
131
0.0
112
0.0
122
1.0
132
0.0
 79
     0
146
0.0
348
2F
 60
     3
 61
     5
292
     1
282
     1
141
0.0
142
0.0
 63
   250
421
  3355443
  0
VPORT
  5
4D5
330
8
100
AcDbSymbolTableRecord
100
AcDbViewportTableRecord
  2
L3
 70
     0
 10
0.0
 20
0.0
 11
1.0
 21
0.5
 12
0.0
 22
0.0
 13
0.0
 23
0.0
 14
0.5
 24
0.5
 15
0.5
 25
0.5
 16
0.0
 26
-1.0
 36
0.0
 17
0.0
 27
0.0
 37
0.0
 40
57.9376586752366
 41
0.3064803991336028
 42
50.0
 43
29.92904923720102
 44
-29.92904923720102
 50
0.0
 51
0.0
 71
     0
 72
   100
 73
     1
 74
     3
 75
     0
 76
     0
 77
     0
 78
     0
281
     0
 65
     1
110
0.0
120
0.0
130
0.0
111
1.0
121
0.0
131
0.0
112
0.0
122
1.0
132
0.0
 79
     0
146
0.0
348
2F
 60
     3
 61
     5
292
     1
282
     1
141
0.0
142
0.0
 63
   250
421
  3355443
  0
VPORT
  5
4D6
330
8
100
AcDbSymbolTableRecord
100
AcDbViewportTableRecord
  2
L4
 70
     0
 10
0.0
 20
0.5
 11
0.5
 21
1.0
 12
0.0
 22
0.0
 13
0.0
 23
0.0
 14
0.5
 24
0.5
 15
0.5
 25
0.5
 16
0.0
 26
0.0
 36
1.0
 17
0.0
 27
0.0
 37
0.0
 40
8.566067913385825
 41
2.072918045385238
 42
50.0
 43
28.9688293376183
 44
-28.9688293376183
 50
0.0
 51
0.0
 71
     0
 72
   100
 73
     1
 74
     3
 75
     0
 76
     0
 77
     0
 78
     0
281
     0
 65
     1
110
0.0
120
0.0
130
0.0
111
1.0
121
0.0
131
0.0
112
0.0
122
1.0
132
0.0
 79
     0
146
0.0
348
2F
 60
     3
 61
     5
292
     1
282
     1
141
0.0
142
0.0
 63
   250
421
  3355443
  0
VPORT
  5
4D7
330
8
100
AcDbSymbolTableRecord
100
AcDbViewportTableRecord
  2
L4
 70
     0
 10
0.0
 20
0.0
 11
0.5
 21
0.5
 12
0.0
 22
0.0
 13
0.0
 23
0.0
 14
0.5
 24
0.5
 15
0.5
 25
0.5
 16
0.0
 26
-1.0
 36
0.0
 17
0.0
 27
0.0
 37
0.0
 40
57.9376586752366
 41
0.3064803991336028
 42
50.0
 43
29.92904923720102
 44
-29.92904923720102
 50
0.0
 51
0.0
 71
     0
 72
   100
 73
     1
 74
     3
 75
     0
 76
     0
 77
     0
 78
     0
281
     0
 65
     1
110
0.0
120
0.0
130
0.0
111
1.0
121
0.0
131
0.0
112
0.0
122
1.0
132
0.0
 79
     0
146
0.0
348
2F
 60
     3
 61
     5
292
     1
282
     1
141
0.0
142
0.0
 63
   250
421
  3355443
  0
VPORT
  5
4D8
330
8
100
AcDbSymbolTableRecord
100
AcDbViewportTableRecord
  2
L4
 70
     0
 10
0.5
 20
0.0
 11
1.0
 21
0.5
 12
0.0
 22
0.0
 13
0.0
 23
0.0
 14
0.5
 24
0.5
 15
0.5
 25
0.5
 16
1.0
 26
0.0
 36
0.0
 17
0.0
 27
0.0
 37
0.0
 40
57.9376586752366
 41
0.3064803991336028
 42
50.0
 43
29.28374042137102
 44
-29.28374042137102
 50
0.0
 51
0.0
 71
     0
 72
   100
 73
     1
 74
     3
 75
     0
 76
     0
 77
     0
 78
     0
281
     0
 65
     1
110
0.0
120
0.0
130
0.0
111
1.0
121
0.0
131
0.0
112
0.0
122
1.0
132
0.0
 79
     0
146
0.0
348
2F
 60
     3
 61
     5
292
     1
282
     1
141
0.0
142
0.0
 63
   250
421
  3355443
  0
VPORT
  5
4D9
330
8
100
AcDbSymbolTableRecord
100
AcDbViewportTableRecord
  2
L4
 70
     0
 10
0.5
 20
0.5
 11
1.0
 21
1.0
 12
0.0
 22
0.0
 13
0.0
 23
0.0
 14
0.5
 24
0.5
 15
0.5
 25
0.5
 16
0.5773502691896259
 26
-0.5773502691896259
 36
0.5773502691896259
 17
0.0
 27
0.0
 37
0.0
 40
56.94328219520386
 41
0.3118323368642868
 42
50.0
 43
29.66974376971861
 44
-29.66974376971861
 50
0.0
 51
0.0
 71
     0
 72
   100
 73
     1
 74
     3
 75
     0
 76
     0
 77
     0
 78
     0
281
     0
 65
     1
110
0.0
120
0.0
130
0.0
111
1.0
121
0.0
131
0.0
112
0.0
122
1.0
132
0.0
 79
     0
146
0.0
348
2F
 60
     3
 61
     5
292
     1
282
     1
141
0.0
142
0.0
 63
   250
421
  3355443
  0
VPORT
  5
4DA
330
8
100
AcDbSymbolTableRecord
100
AcDbViewportTableRecord
  2
L6
 70
     0
 10
0.0
 20
0.5
 11
0.3333333333333334
 21
1.0
 12
1.692999999999999
 22
1.693
 13
0.0
 23
0.0
 14
0.5
 24
0.5
 15
0.5
 25
0.5
 16
0.7188730927569435
 26
-0.5850486126764432
 36
0.3754192287502549
 17
0.0
 27
0.0
 37
0.0
 40
60.10920666424619
 41
0.2954082700648074
 42
50.0
 43
10.91199264838943
 44
-10.91199264838943
 50
0.0
 51
0.0
 71
     0
 72
   100
 73
     1
 74
     3
 75
     0
 76
     0
 77
     0
 78
     0
281
     0
 65
     1
110
0.0
120
0.0
130
0.0
111
1.0
121
0.0
131
0.0
112
0.0
122
1.0
132
0.0
 79
     0
146
0.0
348
2F
 60
     3
 61
     5
292
     1
282
     1
141
0.0
142
0.0
 63
   250
421
  3355443
  0
VPORT
  5
4DB
330
8
100
AcDbSymbolTableRecord
100
AcDbViewportTableRecord
  2
L6
 70
     0
 10
0.0
 20
0.0
 11
0.3333333333333334
 21
0.5
 12
0.0
 22
0.0
 13
0.0
 23
0.0
 14
0.5
 24
0.5
 15
0.5
 25
0.5
 16
-1.0
 26
0.0
 36
0.0
 17
0.0
 27
0.0
 37
0.0
 40
57.9376586752366
 41
0.3064803991336028
 42
50.0
 43
29.28374042137102
 44
-29.28374042137102
 50
0.0
 51
0.0
 71
     0
 72
   100
 73
     1
 74
     3
 75
     0
 76
     0
 77
     0
 78
     0
281
     0
 65
     1
110
0.0
120
0.0
130
0.0
111
1.0
121
0.0
131
0.0
112
0.0
122
1.0
132
0.0
 79
     0
146
0.0
348
2F
 60
     3
 61
     5
292
     1
282
     1
141
0.0
142
0.0
 63
   250
421
  3355443
  0
VPORT
  5
4DC
330
8
100
AcDbSymbolTableRecord
100
AcDbViewportTableRecord
  2
L6
 70
     0
 10
0.3333333333333334
 20
0.5
 11
0.6666666666666666
 21
1.0
 12
0.0
 22
0.0
 13
0.0
 23
0.0
 14
0.5
 24
0.5
 15
0.5
 25
0.5
 16
0.0
 26
0.0
 36
1.0
 17
0.0
 27
0.0
 37
0.0
 40
8.566067913385825
 41
2.072918045385238
 42
50.0
 43
28.9688293376183
 44
-28.9688293376183
 50
0.0
 51
0.0
 71
     0
 72
   100
 73
     1
 74
     3
 75
     0
 76
     0
 77
     0
 78
     0
281
     0
 65
     1
110
0.0
120
0.0
130
0.0
111
1.0
121
0.0
131
0.0
112
0.0
122
1.0
132
0.0
 79
     0
146
0.0
348
2F
 60
     3
 61
     5
292
     1
282
     1
141
0.0
142
0.0
 63
   250
421
  3355443
  0
VPORT
  5
4DD
330
8
100
AcDbSymbolTableRecord
100
AcDbViewportTableRecord
  2
L6
 70
     0
 10
0.3333333333333334
 20
0.0
 11
0.6666666666666666
 21
0.5
 12
0.0
 22
0.0
 13
0.0
 23
0.0
 14
0.5
 24
0.5
 15
0.5
 25
0.5
 16
0.0
 26
-1.0
 36
0.0
 17
0.0
 27
0.0
 37
0.0
 40
57.9376586752366
 41
0.3064803991336028
 42
50.0
 43
29.92904923720102
 44
-29.92904923720102
 50
0.0
 51
0.0
 71
     0
 72
   100
 73
     1
 74
     3
 75
     0
 76
     0
 77
     0
 78
     0
281
     0
 65
     1
110
0.0
120
0.0
130
0.0
111
1.0
121
0.0
131
0.0
112
0.0
122
1.0
132
0.0
 79
     0
146
0.0
348
2F
 60
     3
 61
     5
292
     1
282
     1
141
0.0
142
0.0
 63
   250
421
  3355443
  0
VPORT
  5
4DE
330
8
100
AcDbSymbolTableRecord
100
AcDbViewportTableRecord
  2
L6
 70
     0
 10
0.6666666666666666
 20
0.5
 11
1.0
 21
1.0
 12
0.0
 22
0.0
 13
0.0
 23
0.0
 14
0.5
 24
0.5
 15
0.5
 25
0.5
 16
0.5773502691896259
 26
-0.5773502691896259
 36
0.5773502691896259
 17
0.0
 27
0.0
 37
0.0
 40
56.94328219520386
 41
0.3118323368642868
 42
50.0
 43
29.66974376971861
 44
-29.66974376971861
 50
0.0
 51
0.0
 71
     0
 72
   100
 73
     1
 74
     3
 75
     0
 76
     0
 77
     0
 78
     0
281
     0
 65
     1
110
0.0
120
0.0
130
0.0
111
1.0
121
0.0
131
0.0
112
0.0
122
1.0
132
0.0
 79
     0
146
0.0
348
2F
 60
     3
 61
     5
292
     1
282
     1
141
0.0
142
0.0
 63
   250
421
  3355443
  0
VPORT
  5
4DF
330
8
100
AcDbSymbolTableRecord
100
AcDbViewportTableRecord
  2
L6
 70
     0
 10
0.6666666666666666
 20
0.0
 11
1.0
 21
0.5
 12
0.0
 22
0.0
 13
0.0
 23
0.0
 14
0.5
 24
0.5
 15
0.5
 25
0.5
 16
1.0
 26
0.0
 36
0.0
 17
0.0
 27
0.0
 37
0.0
 40
57.9376586752366
 41
0.3064803991336028
 42
50.0
 43
29.28374042137102
 44
-29.28374042137102
 50
0.0
 51
0.0
 71
     0
 72
   100
 73
     1
 74
     3
 75
     0
 76
     0
 77
     0
 78
     0
281
     0
 65
     1
110
0.0
120
0.0
130
0.0
111
1.0
121
0.0
131
0.0
112
0.0
122
1.0
132
0.0
 79
     0
146
0.0
348
2F
 60
     3
 61
     5
292
     1
282
     1
141
0.0
142
0.0
 63
   250
421
  3355443
  0
ENDTAB
  0
TABLE
  2
LTYPE
  5
5
330
0
100
AcDbSymbolTable
 70
    11
  0
LTYPE
  5
14
330
5
100
AcDbSymbolTableRecord
100
AcDbLinetypeTableRecord
  2
BYBLOCK
 70
     0
  3

 72
    65
 73
     0
 40
0.0
  0
LTYPE
  5
15
330
5
100
AcDbSymbolTableRecord
100
AcDbLinetypeTableRecord
  2
BYLAYER
 70
     0
  3

 72
    65
 73
     0
 40
0.0
  0
LTYPE
  5
16
330
5
100
AcDbSymbolTableRecord
100
AcDbLinetypeTableRecord
  2
CONTINUOUS
 70
     0
  3
Solid line
 72
    65
 73
     0
 40
0.0
  0
LTYPE
  5
6C
330
5
100
AcDbSymbolTableRecord
100
AcDbLinetypeTableRecord
  2
CENTER
 70
     0
  3
____ _ ____ _ ____ _ ____
 72
    65
 73
     4
 40
47.4
 49
22.0
 74
     4
 75
     0
340
0
 46
0.0
 50
0.0
 44
0.0
 45
0.0
 49
-8.5
 74
     4
 75
     0
340
0
 46
0.0
 50
0.0
 44
0.0
 45
0.0
 49
8.5
 74
     4
 75
     0
340
0
 46
0.0
 50
0.0
 44
0.0
 45
0.0
 49
-8.5
 74
     4
 75
     0
340
0
 46
0.0
 50
0.0
 44
0.0
 45
0.0
  0
LTYPE
  5
6D
330
5
100
AcDbSymbolTableRecord
100
AcDbLinetypeTableRecord
  2
DASHDOT
 70
     0
  3
_._._._._._._._._._._._._._._._.
 72
    65
 73
     4
 40
70.0
 49
31.0
 74
     4
 75
     0
340
0
 46
0.0
 50
0.0
 44
0.0
 45
0.0
 49
-13.0
 74
     4
 75
     0
340
0
 46
0.0
 50
0.0
 44
0.0
 45
0.0
 49
13.0
 74
     4
 75
     0
340
0
 46
0.0
 50
0.0
 44
0.0
 45
0.0
 49
-13.0
 74
     4
 75
     0
340
0
 46
0.0
 50
0.0
 44
0.0
 45
0.0
  0
LTYPE
  5
6E
330
5
100
AcDbSymbolTableRecord
100
AcDbLinetypeTableRecord
  2
DASHED
 70
     0
  3
__ __ __ __ __ __ __ __ __
 72
    65
 73
     2
 40
25.72
 49
12.86
 74
     4
 75
     0
340
0
 46
0.0
 50
0.0
 44
0.0
 45
0.0
 49
-12.86
 74
     4
 75
     0
340
0
 46
0.0
 50
0.0
 44
0.0
 45
0.0
  0
LTYPE
  5
6F
330
5
100
AcDbSymbolTableRecord
100
AcDbLinetypeTableRecord
  2
DOT
 70
     0
  3
.........................
 72
    65
 73
     2
 40
10.0
 49
0.0
 74
     4
 75
     0
340
0
 46
0.0
 50
0.0
 44
0.0
 45
0.0
 49
-10.0
 74
     4
 75
     0
340
0
 46
0.0
 50
0.0
 44
0.0
 45
0.0
  0
LTYPE
  5
70
330
5
100
AcDbSymbolTableRecord
100
AcDbLinetypeTableRecord
  2
PHANTOM
 70
     0
  3
____ _ _ ____ _ _ _____ _ _ ____
 72
    65
 73
     6
 40
50.5
 49
18.0
 74
     4
 75
     0
340
0
 46
0.0
 50
0.0
 44
0.0
 45
0.0
 49
-6.5
 74
     4
 75
     0
340
0
 46
0.0
 50
0.0
 44
0.0
 45
0.0
 49
6.5
 74
     4
 75
     0
340
0
 46
0.0
 50
0.0
 44
0.0
 45
0.0
 49
-6.5
 74
     4
 75
     0
340
0
 46
0.0
 50
0.0
 44
0.0
 45
0.0
 49
6.5
 74
     4
 75
     0
340
0
 46
0.0
 50
0.0
 44
0.0
 45
0.0
 49
-6.5
 74
     4
 75
     0
340
0
 46
0.0
 50
0.0
 44
0.0
 45
0.0
  0
ENDTAB
  0
TABLE
  2
LAYER
  5
2
330
0
100
AcDbSymbolTable
 70
     7
  0
LAYER
  5
10
330
2
100
AcDbSymbolTableRecord
100
AcDbLayerTableRecord
  2
0
 70
     0
 62
     7
  6
CONTINUOUS
370
    -3
390
F
347
46
  0
LAYER
  5
71
330
2
100
AcDbSymbolTableRecord
100
AcDbLayerTableRecord
  2
TOP$1
 70
     0
 62
     7
420
 16777215
  6
CONTINUOUS
370
    -3
390
F
347
46
  0
LAYER
  5
72
330
2
100
AcDbSymbolTableRecord
100
AcDbLayerTableRecord
  2
ORTHO$2
 70
     0
 62
     7
420
 16777215
  6
CONTINUOUS
370
    -3
390
F
347
46
  0
LAYER
  5
73
330
2
100
AcDbSymbolTableRecord
100
AcDbLayerTableRecord
  2
TFR-TRI$9
 70
     0
 62
     7
420
 16777215
  6
CONTINUOUS
370
    -3
390
F
347
46
  0
LAYER
  5
74
330
2
100
AcDbSymbolTableRecord
100
AcDbLayerTableRecord
  2
1
 70
     0
 62
     7
420
 16777215
  6
CONTINUOUS
370
    -3
390
F
347
46
  0
LAYER
  5
4E4
330
2
100
AcDbSymbolTableRecord
100
AcDbLayerTableRecord
  2
XREF001I$
 70
     0
 62
     7
420
 16777215
  6
CONTINUOUS
370
    -3
390
F
347
46
  0
LAYER
  5
58C
330
2
100
AcDbSymbolTableRecord
100
AcDbLayerTableRecord
  2
D35233BA_MODEL|1
 70
    48
 62
     7
420
 16777215
  6
CONTINUOUS
370
    -3
390
F
347
46
  0
ENDTAB
  0
TABLE
  2
STYLE
  5
3
330
0
100
AcDbSymbolTable
 70
     6
  0
STYLE
  5
11
330
3
100
AcDbSymbolTableRecord
100
AcDbTextStyleTableRecord
  2
Standard
 70
     0
 40
0.0
 41
1.0
 50
0.0
 71
     0
 42
0.2
  3
txt
  4

  0
STYLE
  5
46F
330
3
100
AcDbSymbolTableRecord
100
AcDbTextStyleTableRecord
  2
blockfont
 70
     0
 40
0.0
 41
1.0
 50
0.0
 71
     0
 42
0.2
  3
simplex.shx
  4

  0
STYLE
  5
470
330
3
100
AcDbSymbolTableRecord
100
AcDbTextStyleTableRecord
  2
DWGDirectTextStyle
 70
     0
 40
0.0
 41
1.0
 50
0.0
 71
     0
 42
0.2
  3
simplex
  4

  0
STYLE
  5
484
330
3
100
AcDbSymbolTableRecord
100
AcDbTextStyleTableRecord
  2
blackfont
 70
     0
 40
0.0
 41
1.0
 50
0.0
 71
     0
 42
0.2
  3
simplex.shx
  4

  0
STYLE
  5
48D
330
3
100
AcDbSymbolTableRecord
100
AcDbTextStyleTableRecord
  2
helios
 70
     0
 40
0.0
 41
1.0
 50
0.0
 71
     0
 42
0.2
  3
Monospac821 BT
  4

1001
ACAD
1000
Monospac821 BT
1071
        0
  0
ENDTAB
  0
TABLE
  2
VIEW
  5
6
330
0
100
AcDbSymbolTable
 70
     8
  0
VIEW
  5
75
330
6
100
AcDbSymbolTableRecord
100
AcDbViewTableRecord
  2
Top
 70
     0
 40
8.566067913385825
 10
0.0
 20
0.0
 41
15.04060039370078
 11
0.0
 21
0.0
 31
1.0
 12
0.0
 22
0.0
 32
0.0
 42
50.0
 43
28.9688293376183
 44
-28.9688293376183
 50
0.0
 71
     0
281
     0
 72
     0
 73
     0
348
2F
  0
VIEW
  5
76
330
6
100
AcDbSymbolTableRecord
100
AcDbViewTableRecord
  2
Front
 70
     0
 40
57.9376586752366
 10
0.0
 20
0.0
 41
15.04060039370078
 11
0.0
 21
-1.0
 31
0.0
 12
0.0
 22
0.0
 32
0.0
 42
50.0
 43
29.92904923720102
 44
-29.92904923720102
 50
0.0
 71
     0
281
     0
 72
     0
 73
     0
348
2F
  0
VIEW
  5
77
330
6
100
AcDbSymbolTableRecord
100
AcDbViewTableRecord
  2
Right
 70
     0
 40
57.9376586752366
 10
0.0
 20
0.0
 41
8.566067913385825
 11
1.0
 21
0.0
 31
0.0
 12
0.0
 22
0.0
 32
0.0
 42
50.0
 43
29.28374042137102
 44
-29.28374042137102
 50
0.0
 71
     0
281
     0
 72
     0
 73
     0
348
2F
  0
VIEW
  5
78
330
6
100
AcDbSymbolTableRecord
100
AcDbViewTableRecord
  2
Back
 70
     0
 40
57.9376586752366
 10
0.0
 20
0.0
 41
15.04060039370078
 11
0.0
 21
1.0
 31
0.0
 12
0.0
 22
0.0
 32
0.0
 42
50.0
 43
29.92904923720102
 44
-29.92904923720102
 50
0.0
 71
     0
281
     0
 72
     0
 73
     0
348
2F
  0
VIEW
  5
79
330
6
100
AcDbSymbolTableRecord
100
AcDbViewTableRecord
  2
Bottom
 70
     0
 40
8.566067913385825
 10
0.0
 20
0.0
 41
15.04060039370078
 11
0.0
 21
0.0
 31
-1.0
 12
0.0
 22
0.0
 32
0.0
 42
50.0
 43
28.9688293376183
 44
-28.9688293376183
 50
180.0
 71
     0
281
     0
 72
     0
 73
     0
348
2F
  0
VIEW
  5
7A
330
6
100
AcDbSymbolTableRecord
100
AcDbViewTableRecord
  2
Left
 70
     0
 40
57.9376586752366
 10
0.0
 20
0.0
 41
8.566067913385825
 11
-1.0
 21
0.0
 31
0.0
 12
0.0
 22
0.0
 32
0.0
 42
50.0
 43
29.28374042137102
 44
-29.28374042137102
 50
0.0
 71
     0
281
     0
 72
     0
 73
     0
348
2F
  0
VIEW
  5
7B
330
6
100
AcDbSymbolTableRecord
100
AcDbViewTableRecord
  2
Isometric
 70
     0
 40
56.94328219520386
 10
0.0
 20
0.0
 41
16.6924352411625
 11
0.5773502691896259
 21
-0.5773502691896259
 31
0.5773502691896259
 12
0.0
 22
0.0
 32
0.0
 42
50.0
 43
29.66974376971861
 44
-29.66974376971861
 50
0.0
 71
     0
281
     0
 72
     0
 73
     0
348
2F
  0
VIEW
  5
7C
330
6
100
AcDbSymbolTableRecord
100
AcDbViewTableRecord
  2
Trimetric
 70
     0
 40
60.10920666424619
 10
0.0
 20
0.0
 41
16.13779532416398
 11
0.7188730927569435
 21
-0.5850486126764432
 31
0.3754192287502549
 12
0.0
 22
0.0
 32
0.0
 42
50.0
 43
31.11890568340116
 44
-31.11890568340116
 50
0.0
 71
     0
281
     0
 72
     0
 73
     0
348
2F
  0
ENDTAB
  0
TABLE
  2
UCS
  5
7
330
0
100
AcDbSymbolTable
 70
     0
  0
ENDTAB
  0
TABLE
  2
APPID
  5
9
330
0
100
AcDbSymbolTable
 70
     1
  0
APPID
  5
12
330
9
100
AcDbSymbolTableRecord
100
AcDbRegAppTableRecord
  2
ACAD
 70
     0
  0
ENDTAB
  0
TABLE
  2
DIMSTYLE
  5
A
330
0
100
AcDbSymbolTable
 70
     2
100
AcDbDimStyleTable
 71
     0
  0
DIMSTYLE
105
27
330
A
100
AcDbSymbolTableRecord
100
AcDbDimStyleTableRecord
  2
Standard
 70
     0
340
11
  0
ENDTAB
  0
TABLE
  2
BLOCK_RECORD
  5
1
330
0
100
AcDbSymbolTable
 70
     1
  0
BLOCK_RECORD
  5
1F
330
1
100
AcDbSymbolTableRecord
100
AcDbBlockTableRecord
  2
*Model_Space
340
22
 70
     0
280
     1
281
     0
  0
BLOCK_RECORD
  5
7D
330
1
100
AcDbSymbolTableRecord
100
AcDbBlockTableRecord
  2
*PAPER_SPACE
340
4CE
 70
     0
280
     1
281
     0
  0
BLOCK_RECORD
  5
4E0
330
1
100
AcDbSymbolTableRecord
100
AcDbBlockTableRecord
  2
D35233BA_MODEL
340
0
102
{BLKREFS
331
4E3
102
}
 70
     0
280
     1
281
     0
  0
ENDTAB
  0
ENDSEC
  0
SECTION
  2
BLOCKS
  0
BLOCK
  5
20
330
1F
100
AcDbEntity
  8
0
100
AcDbBlockBegin
  2
*Model_Space
 70
     0
 10
0.0
 20
0.0
 30
0.0
  3
*Model_Space
  1

  0
ENDBLK
  5
21
330
1F
100
AcDbEntity
  8
0
100
AcDbBlockEnd
  0
BLOCK
  5
7E
330
7D
100
AcDbEntity
 67
     1
  8
0
100
AcDbBlockBegin
  2
*PAPER_SPACE
 70
     0
 10
0.0
 20
0.0
 30
0.0
  3
*PAPER_SPACE
  1

  0
ENDBLK
  5
7F
330
7D
100
AcDbEntity
 67
     1
  8
0
100
AcDbBlockEnd
  0
BLOCK
  5
4E1
330
4E0
100
AcDbEntity
  8
0
100
AcDbBlockBegin
  2
D35233BA_MODEL
 70
    36
 10
0.0
 20
0.0
 30
0.0
  3
D35233BA_MODEL
  1
D35233BA_MODEL.dwg
  0
ENDBLK
  5
4E2
330
4E0
100
AcDbEntity
  8
0
100
AcDbBlockEnd
  0
ENDSEC
  0
SECTION
  2
ENTITIES
  0
INSERT
  5
4E3
330
1F
100
AcDbEntity
  8
XREF001I$
  6
Continuous
 62
     3
370
    18
100
AcDbBlockReference
  2
D35233BA_MODEL
 10
0.0
 20
0.0
 30
0.0
  0
VIEWPORT
  5
80
330
7D
100
AcDbEntity
 67
     1
  8
0
370
    18
100
AcDbViewport
 10
3.422897362060496
 20
5.712364218270364
 30
0.0
 40
9.054284764588659
 41
3.420380473293757
 68
     1
 69
     1
 12
3.422897362060496
 22
5.712364218270364
 13
0.0
 23
0.0
 14
1.0
 24
1.0
 15
1.0
 25
1.0
 16
0.0
 26
0.0
 36
1.0
 17
0.0
 27
0.0
 37
0.0
 42
40.05260640841703
 43
0.0
 44
0.0
 45
3.420380473293757
 50
0.0
 51
0.0
 72
   100
 90
   557152
  1

281
     0
 71
     1
 74
     0
110
0.0
120
0.0
130
0.0
111
1.0
121
0.0
131
0.0
112
0.0
122
1.0
132
0.0
 79
     0
146
0.0
170
     0
 61
     5
348
2F
292
     1
282
     1
141
0.0
142
0.0
 63
   250
421
  3355443
  0
LINE
  5
185
330
7D
100
AcDbEntity
 67
     1
  8
1
  6
Continuous
 62
    21
370
    18
100
AcDbLine
 10
1.121305227279663
 20
7.349750995635986
 30
0.0
 11
1.121305227279663
 21
4.07527208328247
 31
0.0
  0
LINE
  5
186
330
7D
100
AcDbEntity
 67
     1
  8
1
  6
Continuous
 62
    21
370
    18
100
AcDbLine
 10
4.411370754241943
 20
4.059685230255126
 30
0.0
 11
4.422397136688232
 21
4.064245700836181
 31
0.0
  0
LINE
  5
187
330
7D
100
AcDbEntity
 67
     1
  8
1
  6
Continuous
 62
    21
370
    18
100
AcDbLine
 10
4.422397136688232
 20
4.064245700836181
 30
0.0
 11
4.426958084106445
 21
4.07527208328247
 31
0.0
  0
LINE
  5
188
330
7D
100
AcDbEntity
 67
     1
  8
1
  6
Continuous
 62
    21
370
    18
100
AcDbLine
 10
1.136892199516296
 20
4.059685230255126
 30
0.0
 11
4.411370754241943
 21
4.059685230255126
 31
0.0
  0
LINE
  5
189
330
7D
100
AcDbEntity
 67
     1
  8
1
  6
Continuous
 62
    21
370
    18
100
AcDbLine
 10
1.121305227279663
 20
4.07527208328247
 30
0.0
 11
1.125866055488586
 21
4.064245700836181
 31
0.0
  0
LINE
  5
18A
330
7D
100
AcDbEntity
 67
     1
  8
1
  6
Continuous
 62
    21
370
    18
100
AcDbLine
 10
1.125866055488586
 20
4.064245700836181
 30
0.0
 11
1.136892199516296
 21
4.059685230255126
 31
0.0
  0
LINE
  5
18B
330
7D
100
AcDbEntity
 67
     1
  8
1
  6
Continuous
 62
    21
370
    18
100
AcDbLine
 10
1.136892199516296
 20
7.36533784866333
 30
0.0
 11
1.125866055488586
 21
7.360777378082275
 31
0.0
  0
LINE
  5
18C
330
7D
100
AcDbEntity
 67
     1
  8
1
  6
Continuous
 62
    21
370
    18
100
AcDbLine
 10
1.125866055488586
 20
7.360777378082275
 30
0.0
 11
1.121305227279663
 21
7.349750995635986
 31
0.0
  0
LINE
  5
18D
330
7D
100
AcDbEntity
 67
     1
  8
1
  6
Continuous
 62
    21
370
    18
100
AcDbLine
 10
3.615658521652221
 20
5.379046440124511
 30
0.0
 11
3.571656227111816
 21
5.379046440124511
 31
0.0
  0
LINE
  5
18E
330
7D
100
AcDbEntity
 67
     1
  8
1
  6
Continuous
 62
    21
370
    18
100
AcDbLine
 10
4.426958084106445
 20
4.07527208328247
 30
0.0
 11
4.426958084106445
 21
7.349750995635986
 31
0.0
  0
LINE
  5
18F
330
7D
100
AcDbEntity
 67
     1
  8
1
  6
Continuous
 62
    21
370
    18
100
AcDbLine
 10
3.563657283782958
 20
4.799769878387451
 30
0.0
 11
3.563657283782958
 21
5.371047496795654
 31
0.0
  0
LINE
  5
190
330
7D
100
AcDbEntity
 67
     1
  8
1
  6
Continuous
 62
    21
370
    18
100
AcDbLine
 10
4.426958084106445
 20
7.349750995635986
 30
0.0
 11
4.422397136688232
 21
7.360777378082275
 31
0.0
  0
LINE
  5
191
330
7D
100
AcDbEntity
 67
     1
  8
1
  6
Continuous
 62
    21
370
    18
100
AcDbLine
 10
4.422397136688232
 20
7.360777378082275
 30
0.0
 11
4.411370754241943
 21
7.36533784866333
 31
0.0
  0
LINE
  5
192
330
7D
100
AcDbEntity
 67
     1
  8
1
  6
Continuous
 62
    21
370
    18
100
AcDbLine
 10
1.992606043815612
 20
4.791769981384277
 30
0.0
 11
3.555657148361206
 21
4.791769981384277
 31
0.0
  0
LINE
  5
193
330
7D
100
AcDbEntity
 67
     1
  8
1
  6
Continuous
 62
    21
370
    18
100
AcDbLine
 10
4.411370754241943
 20
7.36533784866333
 30
0.0
 11
1.136892199516296
 21
7.36533784866333
 31
0.0
  0
LINE
  5
194
330
7D
100
AcDbEntity
 67
     1
  8
1
  6
Continuous
 62
    21
370
    18
100
AcDbLine
 10
1.984605908393859
 20
4.799769878387451
 30
0.0
 11
1.984605908393859
 21
5.371047496795654
 31
0.0
  0
LINE
  5
195
330
7D
100
AcDbEntity
 67
     1
  8
1
  6
Continuous
 62
    21
370
    18
100
AcDbLine
 10
3.571656227111816
 20
5.379046440124511
 30
0.0
 11
3.565999746322631
 21
5.376703262329101
 31
0.0
  0
LINE
  5
196
330
7D
100
AcDbEntity
 67
     1
  8
1
  6
Continuous
 62
    21
370
    18
100
AcDbLine
 10
3.565999746322631
 20
5.376703262329101
 30
0.0
 11
3.563657283782958
 21
5.371047496795654
 31
0.0
  0
LINE
  5
197
330
7D
100
AcDbEntity
 67
     1
  8
1
  6
Continuous
 62
    21
370
    18
100
AcDbLine
 10
1.984605908393859
 20
5.371047496795654
 30
0.0
 11
1.982263445854187
 21
5.376703262329101
 31
0.0
  0
LINE
  5
198
330
7D
100
AcDbEntity
 67
     1
  8
1
  6
Continuous
 62
    21
370
    18
100
AcDbLine
 10
1.982263445854187
 20
5.376703262329101
 30
0.0
 11
1.976607322692871
 21
5.379046440124511
 31
0.0
  0
LINE
  5
199
330
7D
100
AcDbEntity
 67
     1
  8
1
  6
Continuous
 62
    21
370
    18
100
AcDbLine
 10
1.932604789733886
 20
5.379046440124511
 30
0.0
 11
1.92694866657257
 21
5.381388664245605
 31
0.0
  0
LINE
  5
19A
330
7D
100
AcDbEntity
 67
     1
  8
1
  6
Continuous
 62
    21
370
    18
100
AcDbLine
 10
1.92694866657257
 20
5.381388664245605
 30
0.0
 11
1.924605965614318
 21
5.38704490661621
 31
0.0
  0
LINE
  5
19B
330
7D
100
AcDbEntity
 67
     1
  8
1
  6
Continuous
 62
    21
370
    18
100
AcDbLine
 10
1.924605965614318
 20
5.546047687530517
 30
0.0
 11
1.924605965614318
 21
5.38704490661621
 31
0.0
  0
LINE
  5
19C
330
7D
100
AcDbEntity
 67
     1
  8
1
  6
Continuous
 62
    21
370
    18
100
AcDbLine
 10
1.924605965614318
 20
5.546047687530517
 30
0.0
 11
1.92694866657257
 21
5.551703453063964
 31
0.0
  0
LINE
  5
19D
330
7D
100
AcDbEntity
 67
     1
  8
1
  6
Continuous
 62
    21
370
    18
100
AcDbLine
 10
1.92694866657257
 20
5.551703453063964
 30
0.0
 11
1.932604789733886
 21
5.554046154022216
 31
0.0
  0
LINE
  5
19E
330
7D
100
AcDbEntity
 67
     1
  8
1
  6
Continuous
 62
    21
370
    18
100
AcDbLine
 10
1.932604789733886
 20
5.554046154022216
 30
0.0
 11
1.976607322692871
 21
5.554046154022216
 31
0.0
  0
LINE
  5
19F
330
7D
100
AcDbEntity
 67
     1
  8
1
  6
Continuous
 62
    21
370
    18
100
AcDbLine
 10
1.976607322692871
 20
5.554046154022216
 30
0.0
 11
1.982263445854187
 21
5.556388854980468
 31
0.0
  0
LINE
  5
1A0
330
7D
100
AcDbEntity
 67
     1
  8
1
  6
Continuous
 62
    21
370
    18
100
AcDbLine
 10
1.982263445854187
 20
5.556388854980468
 30
0.0
 11
1.984605908393859
 21
5.562044620513916
 31
0.0
  0
LINE
  5
1A1
330
7D
100
AcDbEntity
 67
     1
  8
1
  6
Continuous
 62
    21
370
    18
100
AcDbLine
 10
1.932604789733886
 20
5.379046440124511
 30
0.0
 11
1.976607322692871
 21
5.379046440124511
 31
0.0
  0
LINE
  5
1A2
330
7D
100
AcDbEntity
 67
     1
  8
1
  6
Continuous
 62
    21
370
    18
100
AcDbLine
 10
1.992606043815612
 20
6.141322612762451
 30
0.0
 11
3.555657148361206
 21
6.141322612762451
 31
0.0
  0
LINE
  5
1A3
330
7D
100
AcDbEntity
 67
     1
  8
1
  6
Continuous
 62
    21
370
    18
100
AcDbLine
 10
3.563657283782958
 20
5.562044620513916
 30
0.0
 11
3.565999746322631
 21
5.556388854980468
 31
0.0
  0
LINE
  5
1A4
330
7D
100
AcDbEntity
 67
     1
  8
1
  6
Continuous
 62
    21
370
    18
100
AcDbLine
 10
3.565999746322631
 20
5.556388854980468
 30
0.0
 11
3.571656227111816
 21
5.554046154022216
 31
0.0
  0
LINE
  5
1A5
330
7D
100
AcDbEntity
 67
     1
  8
1
  6
Continuous
 62
    21
370
    18
100
AcDbLine
 10
3.615658521652221
 20
5.554046154022216
 30
0.0
 11
3.571656227111816
 21
5.554046154022216
 31
0.0
  0
LINE
  5
1A6
330
7D
100
AcDbEntity
 67
     1
  8
1
  6
Continuous
 62
    21
370
    18
100
AcDbLine
 10
3.615658521652221
 20
5.554046154022216
 30
0.0
 11
3.621314764022827
 21
5.551703453063964
 31
0.0
  0
LINE
  5
1A7
330
7D
100
AcDbEntity
 67
     1
  8
1
  6
Continuous
 62
    21
370
    18
100
AcDbLine
 10
3.621314764022827
 20
5.551703453063964
 30
0.0
 11
3.6236572265625
 21
5.546047687530517
 31
0.0
  0
LINE
  5
1A8
330
7D
100
AcDbEntity
 67
     1
  8
1
  6
Continuous
 62
    21
370
    18
100
AcDbLine
 10
3.6236572265625
 20
5.546047687530517
 30
0.0
 11
3.6236572265625
 21
5.38704490661621
 31
0.0
  0
LINE
  5
1A9
330
7D
100
AcDbEntity
 67
     1
  8
1
  6
Continuous
 62
    21
370
    18
100
AcDbLine
 10
1.984605908393859
 20
5.562044620513916
 30
0.0
 11
1.984605908393859
 21
6.133322715759277
 31
0.0
  0
LINE
  5
1AA
330
7D
100
AcDbEntity
 67
     1
  8
1
  6
Continuous
 62
    21
370
    18
100
AcDbLine
 10
3.563657283782958
 20
5.562044620513916
 30
0.0
 11
3.563657283782958
 21
6.133322715759277
 31
0.0
  0
LINE
  5
1AB
330
7D
100
AcDbEntity
 67
     1
  8
1
  6
Continuous
 62
    21
370
    18
100
AcDbLine
 10
2.052997112274169
 20
6.629336833953857
 30
0.0
 11
2.052997112274169
 21
6.28906774520874
 31
0.0
  0
LINE
  5
1AC
330
7D
100
AcDbEntity
 67
     1
  8
1
  6
Continuous
 62
    21
370
    18
100
AcDbLine
 10
3.6236572265625
 20
5.38704490661621
 30
0.0
 11
3.621314764022827
 21
5.381388664245605
 31
0.0
  0
LINE
  5
1AD
330
7D
100
AcDbEntity
 67
     1
  8
1
  6
Continuous
 62
    21
370
    18
100
AcDbLine
 10
3.621314764022827
 20
5.381388664245605
 30
0.0
 11
3.615658521652221
 21
5.379046440124511
 31
0.0
  0
LINE
  5
1AE
330
7D
100
AcDbEntity
 67
     1
  8
1
  6
Continuous
 62
    21
370
    18
100
AcDbLine
 10
3.495266199111938
 20
6.629336833953857
 30
0.0
 11
3.495266199111938
 21
6.28906774520874
 31
0.0
  0
LINE
  5
1AF
330
7D
100
AcDbEntity
 67
     1
  8
1
  6
Continuous
 62
    21
370
    18
100
AcDbLine
 10
2.062997102737426
 20
6.279067993164062
 30
0.0
 11
3.485266208648681
 21
6.279067993164062
 31
0.0
  0
LINE
  5
1B0
330
7D
100
AcDbEntity
 67
     1
  8
1
  6
Continuous
 62
    21
370
    18
100
AcDbLine
 10
2.062997102737426
 20
6.639337062835693
 30
0.0
 11
3.485266208648681
 21
6.639337062835693
 31
0.0
  0
LINE
  5
1B1
330
7D
100
AcDbEntity
 67
     1
  8
1
  6
Continuous
 62
    21
370
    18
100
AcDbLine
 10
3.563657283782958
 20
5.371047496795654
 30
0.0
 11
3.560381650924682
 21
5.374322891235351
 31
0.0
  0
LINE
  5
1B2
330
7D
100
AcDbEntity
 67
     1
  8
1
  6
Continuous
 62
    21
370
    18
100
AcDbLine
 10
3.560381650924682
 20
5.272826671600341
 30
0.0
 11
3.560381650924682
 21
5.374322891235351
 31
0.0
  0
LINE
  5
1B3
330
7D
100
AcDbEntity
 67
     1
  8
1
  6
Continuous
 62
    21
370
    18
100
AcDbLine
 10
3.560381650924682
 20
4.795045852661132
 30
0.0
 11
3.560381650924682
 21
5.272826671600341
 31
0.0
  0
LINE
  5
1B4
330
7D
100
AcDbEntity
 67
     1
  8
1
  6
Continuous
 62
    21
370
    18
100
AcDbLine
 10
3.561313867568969
 20
4.794113159179687
 30
0.0
 11
3.560381650924682
 21
4.795045852661132
 31
0.0
  0
LINE
  5
1B5
330
7D
100
AcDbEntity
 67
     1
  8
1
  6
Continuous
 62
    21
370
    18
100
AcDbLine
 10
3.500381708145141
 20
4.795045852661132
 30
0.0
 11
3.500381708145141
 21
5.272826671600341
 31
0.0
  0
LINE
  5
1B6
330
7D
100
AcDbEntity
 67
     1
  8
1
  6
Continuous
 62
    21
370
    18
100
AcDbLine
 10
3.500381708145141
 20
4.795045852661132
 30
0.0
 11
3.560381650924682
 21
4.795045852661132
 31
0.0
  0
LINE
  5
1B7
330
7D
100
AcDbEntity
 67
     1
  8
1
  6
Continuous
 62
    21
370
    18
100
AcDbLine
 10
3.497314929962158
 20
5.288197517395019
 30
0.0
 11
3.497314929962158
 21
4.798111915588378
 31
0.0
  0
LINE
  5
1B8
330
7D
100
AcDbEntity
 67
     1
  8
1
  6
Continuous
 62
    21
370
    18
100
AcDbLine
 10
3.560381650924682
 20
5.272826671600341
 30
0.0
 11
3.500381708145141
 21
5.272826671600341
 31
0.0
  0
LINE
  5
1B9
330
7D
100
AcDbEntity
 67
     1
  8
1
  6
Continuous
 62
    21
370
    18
100
AcDbLine
 10
3.500381708145141
 20
4.795045852661132
 30
0.0
 11
3.497314929962158
 21
4.798111915588378
 31
0.0
  0
LINE
  5
1BA
330
7D
100
AcDbEntity
 67
     1
  8
1
  6
Continuous
 62
    21
370
    18
100
AcDbLine
 10
1.987881779670715
 20
5.374322891235351
 30
0.0
 11
1.984605908393859
 21
5.371047496795654
 31
0.0
  0
LINE
  5
1BB
330
7D
100
AcDbEntity
 67
     1
  8
1
  6
Continuous
 62
    21
370
    18
100
AcDbLine
 10
3.500381708145141
 20
5.272826671600341
 30
0.0
 11
3.497314929962158
 21
5.288197517395019
 31
0.0
  0
LINE
  5
1BC
330
7D
100
AcDbEntity
 67
     1
  8
1
  6
Continuous
 62
    21
370
    18
100
AcDbLine
 10
1.98694908618927
 20
4.794113159179687
 30
0.0
 11
1.987881779670715
 21
4.795045852661132
 31
0.0
  0
LINE
  5
1BD
330
7D
100
AcDbEntity
 67
     1
  8
1
  6
Continuous
 62
    21
370
    18
100
AcDbLine
 10
1.987881779670715
 20
5.272826671600341
 30
0.0
 11
1.987881779670715
 21
5.374322891235351
 31
0.0
  0
LINE
  5
1BE
330
7D
100
AcDbEntity
 67
     1
  8
1
  6
Continuous
 62
    21
370
    18
100
AcDbLine
 10
1.987881779670715
 20
4.795045852661132
 30
0.0
 11
1.987881779670715
 21
5.272826671600341
 31
0.0
  0
LINE
  5
1BF
330
7D
100
AcDbEntity
 67
     1
  8
1
  6
Continuous
 62
    21
370
    18
100
AcDbLine
 10
2.05094838142395
 20
5.288197517395019
 30
0.0
 11
2.006347179412841
 21
5.288197517395019
 31
0.0
  0
LINE
  5
1C0
330
7D
100
AcDbEntity
 67
     1
  8
1
  6
Continuous
 62
    21
370
    18
100
AcDbLine
 10
1.987881779670715
 20
5.272826671600341
 30
0.0
 11
2.006347179412841
 21
5.288197517395019
 31
0.0
  0
LINE
  5
1C1
330
7D
100
AcDbEntity
 67
     1
  8
1
  6
Continuous
 62
    21
370
    18
100
AcDbLine
 10
1.987881779670715
 20
5.272826671600341
 30
0.0
 11
2.047881841659545
 21
5.272826671600341
 31
0.0
  0
LINE
  5
1C2
330
7D
100
AcDbEntity
 67
     1
  8
1
  6
Continuous
 62
    21
370
    18
100
AcDbLine
 10
2.05094838142395
 20
5.288197517395019
 30
0.0
 11
2.047881841659545
 21
5.272826671600341
 31
0.0
  0
LINE
  5
1C3
330
7D
100
AcDbEntity
 67
     1
  8
1
  6
Continuous
 62
    21
370
    18
100
AcDbLine
 10
1.987881779670715
 20
5.660265445709228
 30
0.0
 11
2.047881841659545
 21
5.660265445709228
 31
0.0
  0
LINE
  5
1C4
330
7D
100
AcDbEntity
 67
     1
  8
1
  6
Continuous
 62
    21
370
    18
100
AcDbLine
 10
2.047881841659545
 20
5.660265445709228
 30
0.0
 11
2.05094838142395
 21
5.64489459991455
 31
0.0
  0
LINE
  5
1C5
330
7D
100
AcDbEntity
 67
     1
  8
1
  6
Continuous
 62
    21
370
    18
100
AcDbLine
 10
2.006347179412841
 20
5.64489459991455
 30
0.0
 11
2.006347179412841
 21
5.288197517395019
 31
0.0
  0
LINE
  5
1C6
330
7D
100
AcDbEntity
 67
     1
  8
1
  6
Continuous
 62
    21
370
    18
100
AcDbLine
 10
1.987881779670715
 20
5.660265445709228
 30
0.0
 11
2.006347179412841
 21
5.64489459991455
 31
0.0
  0
LINE
  5
1C7
330
7D
100
AcDbEntity
 67
     1
  8
1
  6
Continuous
 62
    21
370
    18
100
AcDbLine
 10
1.987881779670715
 20
5.558769226074218
 30
0.0
 11
1.987881779670715
 21
5.660265445709228
 31
0.0
  0
LINE
  5
1C8
330
7D
100
AcDbEntity
 67
     1
  8
1
  6
Continuous
 62
    21
370
    18
100
AcDbLine
 10
2.047881841659545
 20
5.272826671600341
 30
0.0
 11
2.047881841659545
 21
4.795045852661132
 31
0.0
  0
LINE
  5
1C9
330
7D
100
AcDbEntity
 67
     1
  8
1
  6
Continuous
 62
    21
370
    18
100
AcDbLine
 10
1.987881779670715
 20
4.795045852661132
 30
0.0
 11
2.047881841659545
 21
4.795045852661132
 31
0.0
  0
LINE
  5
1CA
330
7D
100
AcDbEntity
 67
     1
  8
1
  6
Continuous
 62
    21
370
    18
100
AcDbLine
 10
2.05094838142395
 20
5.288197517395019
 30
0.0
 11
2.05094838142395
 21
4.798111915588378
 31
0.0
  0
LINE
  5
1CB
330
7D
100
AcDbEntity
 67
     1
  8
1
  6
Continuous
 62
    21
370
    18
100
AcDbLine
 10
2.047881841659545
 20
4.795045852661132
 30
0.0
 11
2.05094838142395
 21
4.798111915588378
 31
0.0
  0
LINE
  5
1CC
330
7D
100
AcDbEntity
 67
     1
  8
1
  6
Continuous
 62
    21
370
    18
100
AcDbLine
 10
3.500381708145141
 20
5.660265445709228
 30
0.0
 11
3.500381708145141
 21
6.138046741485595
 31
0.0
  0
LINE
  5
1CD
330
7D
100
AcDbEntity
 67
     1
  8
1
  6
Continuous
 62
    21
370
    18
100
AcDbLine
 10
3.560381650924682
 20
5.660265445709228
 30
0.0
 11
3.500381708145141
 21
5.660265445709228
 31
0.0
  0
LINE
  5
1CE
330
7D
100
AcDbEntity
 67
     1
  8
1
  6
Continuous
 62
    21
370
    18
100
AcDbLine
 10
3.560381650924682
 20
5.660265445709228
 30
0.0
 11
3.560381650924682
 21
6.138046741485595
 31
0.0
  0
LINE
  5
1CF
330
7D
100
AcDbEntity
 67
     1
  8
1
  6
Continuous
 62
    21
370
    18
100
AcDbLine
 10
2.05094838142395
 20
5.64489459991455
 30
0.0
 11
2.006347179412841
 21
5.64489459991455
 31
0.0
  0
LINE
  5
1D0
330
7D
100
AcDbEntity
 67
     1
  8
1
  6
Continuous
 62
    21
370
    18
100
AcDbLine
 10
1.987881779670715
 20
5.374322891235351
 30
0.0
 11
1.987881779670715
 21
5.558769226074218
 31
0.0
  0
LINE
  5
1D1
330
7D
100
AcDbEntity
 67
     1
  8
1
  6
Continuous
 62
    21
370
    18
100
AcDbLine
 10
3.500381708145141
 20
6.138046741485595
 30
0.0
 11
3.560381650924682
 21
6.138046741485595
 31
0.0
  0
LINE
  5
1D2
330
7D
100
AcDbEntity
 67
     1
  8
1
  6
Continuous
 62
    21
370
    18
100
AcDbLine
 10
1.112305521965026
 20
4.019511222839355
 30
0.0
 11
4.435957908630371
 21
4.019511222839355
 31
0.0
  0
LINE
  5
1D3
330
7D
100
AcDbEntity
 67
     1
  8
1
  6
Continuous
 62
    21
370
    18
100
AcDbLine
 10
1.08113157749176
 20
7.374337673187255
 30
0.0
 11
1.08113157749176
 21
4.050685405731201
 31
0.0
  0
LINE
  5
1D4
330
7D
100
AcDbEntity
 67
     1
  8
1
  6
Continuous
 62
    21
370
    18
100
AcDbLine
 10
1.08113157749176
 20
7.374337673187255
 30
0.0
 11
1.0853031873703
 21
7.389935970306396
 31
0.0
  0
LINE
  5
1D5
330
7D
100
AcDbEntity
 67
     1
  8
1
  6
Continuous
 62
    21
370
    18
100
AcDbLine
 10
1.0853031873703
 20
7.389935970306396
 30
0.0
 11
1.096706867218017
 21
7.401339530944824
 31
0.0
  0
LINE
  5
1D6
330
7D
100
AcDbEntity
 67
     1
  8
1
  6
Continuous
 62
    21
370
    18
100
AcDbLine
 10
1.096706867218017
 20
7.401339530944824
 30
0.0
 11
1.112305521965026
 21
7.405511379241943
 31
0.0
  0
LINE
  5
1D7
330
7D
100
AcDbEntity
 67
     1
  8
1
  6
Continuous
 62
    21
370
    18
100
AcDbLine
 10
4.435957908630371
 20
7.405511379241943
 30
0.0
 11
4.451556682586669
 21
7.401339530944824
 31
0.0
  0
LINE
  5
1D8
330
7D
100
AcDbEntity
 67
     1
  8
1
  6
Continuous
 62
    21
370
    18
100
AcDbLine
 10
4.451556682586669
 20
7.401339530944824
 30
0.0
 11
4.462960243225097
 21
7.389935970306396
 31
0.0
  0
LINE
  5
1D9
330
7D
100
AcDbEntity
 67
     1
  8
1
  6
Continuous
 62
    21
370
    18
100
AcDbLine
 10
4.462960243225097
 20
7.389935970306396
 30
0.0
 11
4.467132091522216
 21
7.374337673187255
 31
0.0
  0
LINE
  5
1DA
330
7D
100
AcDbEntity
 67
     1
  8
1
  6
Continuous
 62
    21
370
    18
100
AcDbLine
 10
4.467132091522216
 20
4.050685405731201
 30
0.0
 11
4.467132091522216
 21
7.374337673187255
 31
0.0
  0
LINE
  5
1DB
330
7D
100
AcDbEntity
 67
     1
  8
1
  6
Continuous
 62
    21
370
    18
100
AcDbLine
 10
4.467132091522216
 20
4.050685405731201
 30
0.0
 11
4.462960243225097
 21
4.035086154937744
 31
0.0
  0
LINE
  5
1DC
330
7D
100
AcDbEntity
 67
     1
  8
1
  6
Continuous
 62
    21
370
    18
100
AcDbLine
 10
4.462960243225097
 20
4.035086154937744
 30
0.0
 11
4.451556682586669
 21
4.023683071136474
 31
0.0
  0
LINE
  5
1DD
330
7D
100
AcDbEntity
 67
     1
  8
1
  6
Continuous
 62
    21
370
    18
100
AcDbLine
 10
4.451556682586669
 20
4.023683071136474
 30
0.0
 11
4.435957908630371
 21
4.019511222839355
 31
0.0
  0
LINE
  5
1DE
330
7D
100
AcDbEntity
 67
     1
  8
1
  6
Continuous
 62
    21
370
    18
100
AcDbLine
 10
4.435957908630371
 20
4.019511222839355
 30
0.0
 11
4.411370754241943
 21
4.044097900390625
 31
0.0
  0
LINE
  5
1DF
330
7D
100
AcDbEntity
 67
     1
  8
1
  6
Continuous
 62
    21
370
    18
100
AcDbLine
 10
4.411370754241943
 20
4.044097900390625
 30
0.0
 11
1.136892199516296
 21
4.044097900390625
 31
0.0
  0
LINE
  5
1E0
330
7D
100
AcDbEntity
 67
     1
  8
1
  6
Continuous
 62
    21
370
    18
100
AcDbLine
 10
1.136892199516296
 20
4.044097900390625
 30
0.0
 11
1.112305521965026
 21
4.019511222839355
 31
0.0
  0
LINE
  5
1E1
330
7D
100
AcDbEntity
 67
     1
  8
1
  6
Continuous
 62
    21
370
    18
100
AcDbLine
 10
1.08113157749176
 20
4.050685405731201
 30
0.0
 11
1.105718255043029
 21
4.07527208328247
 31
0.0
  0
LINE
  5
1E2
330
7D
100
AcDbEntity
 67
     1
  8
1
  6
Continuous
 62
    21
370
    18
100
AcDbLine
 10
1.105718255043029
 20
4.07527208328247
 30
0.0
 11
1.105718255043029
 21
7.349750995635986
 31
0.0
  0
LINE
  5
1E3
330
7D
100
AcDbEntity
 67
     1
  8
1
  6
Continuous
 62
    21
370
    18
100
AcDbLine
 10
1.105718255043029
 20
7.349750995635986
 30
0.0
 11
1.08113157749176
 21
7.374337673187255
 31
0.0
  0
LINE
  5
1E4
330
7D
100
AcDbEntity
 67
     1
  8
1
  6
Continuous
 62
    21
370
    18
100
AcDbLine
 10
1.112305521965026
 20
7.405511379241943
 30
0.0
 11
1.136892199516296
 21
7.380924701690673
 31
0.0
  0
LINE
  5
1E5
330
7D
100
AcDbEntity
 67
     1
  8
1
  6
Continuous
 62
    21
370
    18
100
AcDbLine
 10
1.136892199516296
 20
7.380924701690673
 30
0.0
 11
4.411370754241943
 21
7.380924701690673
 31
0.0
  0
LINE
  5
1E6
330
7D
100
AcDbEntity
 67
     1
  8
1
  6
Continuous
 62
    21
370
    18
100
AcDbLine
 10
1.112305521965026
 20
4.019511222839355
 30
0.0
 11
1.096706867218017
 21
4.023683071136474
 31
0.0
  0
LINE
  5
1E7
330
7D
100
AcDbEntity
 67
     1
  8
1
  6
Continuous
 62
    21
370
    18
100
AcDbLine
 10
1.096706867218017
 20
4.023683071136474
 30
0.0
 11
1.0853031873703
 21
4.035086154937744
 31
0.0
  0
LINE
  5
1E8
330
7D
100
AcDbEntity
 67
     1
  8
1
  6
Continuous
 62
    21
370
    18
100
AcDbLine
 10
1.0853031873703
 20
4.035086154937744
 30
0.0
 11
1.08113157749176
 21
4.050685405731201
 31
0.0
  0
LINE
  5
1E9
330
7D
100
AcDbEntity
 67
     1
  8
1
  6
Continuous
 62
    21
370
    18
100
AcDbLine
 10
4.435957908630371
 20
7.405511379241943
 30
0.0
 11
1.112305521965026
 21
7.405511379241943
 31
0.0
  0
LINE
  5
1EA
330
7D
100
AcDbEntity
 67
     1
  8
1
  6
Continuous
 62
    21
370
    18
100
AcDbLine
 10
4.442544937133789
 20
7.349750995635986
 30
0.0
 11
4.442544937133789
 21
4.07527208328247
 31
0.0
  0
LINE
  5
1EB
330
7D
100
AcDbEntity
 67
     1
  8
1
  6
Continuous
 62
    21
370
    18
100
AcDbLine
 10
4.411370754241943
 20
7.380924701690673
 30
0.0
 11
4.435957908630371
 21
7.405511379241943
 31
0.0
  0
LINE
  5
1EC
330
7D
100
AcDbEntity
 67
     1
  8
1
  6
Continuous
 62
    21
370
    18
100
AcDbLine
 10
1.136892199516296
 20
4.044097900390625
 30
0.0
 11
1.121321201324462
 21
4.048297405242919
 31
0.0
  0
LINE
  5
1ED
330
7D
100
AcDbEntity
 67
     1
  8
1
  6
Continuous
 62
    21
370
    18
100
AcDbLine
 10
1.121321201324462
 20
4.048297405242919
 30
0.0
 11
1.109917521476745
 21
4.059700965881347
 31
0.0
  0
LINE
  5
1EE
330
7D
100
AcDbEntity
 67
     1
  8
1
  6
Continuous
 62
    21
370
    18
100
AcDbLine
 10
1.109917521476745
 20
4.059700965881347
 30
0.0
 11
1.105718255043029
 21
4.07527208328247
 31
0.0
  0
LINE
  5
1EF
330
7D
100
AcDbEntity
 67
     1
  8
1
  6
Continuous
 62
    21
370
    18
100
AcDbLine
 10
1.105718255043029
 20
7.349750995635986
 30
0.0
 11
1.109917521476745
 21
7.365321636199951
 31
0.0
  0
LINE
  5
1F0
330
7D
100
AcDbEntity
 67
     1
  8
1
  6
Continuous
 62
    21
370
    18
100
AcDbLine
 10
1.109917521476745
 20
7.365321636199951
 30
0.0
 11
1.121321201324462
 21
7.376725673675537
 31
0.0
  0
LINE
  5
1F1
330
7D
100
AcDbEntity
 67
     1
  8
1
  6
Continuous
 62
    21
370
    18
100
AcDbLine
 10
1.121321201324462
 20
7.376725673675537
 30
0.0
 11
1.136892199516296
 21
7.380924701690673
 31
0.0
  0
LINE
  5
1F2
330
7D
100
AcDbEntity
 67
     1
  8
1
  6
Continuous
 62
    21
370
    18
100
AcDbLine
 10
4.467132091522216
 20
7.374337673187255
 30
0.0
 11
4.442544937133789
 21
7.349750995635986
 31
0.0
  0
LINE
  5
1F3
330
7D
100
AcDbEntity
 67
     1
  8
1
  6
Continuous
 62
    21
370
    18
100
AcDbLine
 10
4.442544937133789
 20
4.07527208328247
 30
0.0
 11
4.438345432281494
 21
4.059700965881347
 31
0.0
  0
LINE
  5
1F4
330
7D
100
AcDbEntity
 67
     1
  8
1
  6
Continuous
 62
    21
370
    18
100
AcDbLine
 10
4.438345432281494
 20
4.059700965881347
 30
0.0
 11
4.426942348480224
 21
4.048297405242919
 31
0.0
  0
LINE
  5
1F5
330
7D
100
AcDbEntity
 67
     1
  8
1
  6
Continuous
 62
    21
370
    18
100
AcDbLine
 10
4.426942348480224
 20
4.048297405242919
 30
0.0
 11
4.411370754241943
 21
4.044097900390625
 31
0.0
  0
LINE
  5
1F6
330
7D
100
AcDbEntity
 67
     1
  8
1
  6
Continuous
 62
    21
370
    18
100
AcDbLine
 10
4.442544937133789
 20
7.349750995635986
 30
0.0
 11
4.437614440917968
 21
7.349750995635986
 31
0.0
  0
LINE
  5
1F7
330
7D
100
AcDbEntity
 67
     1
  8
1
  6
Continuous
 62
    21
370
    18
100
AcDbLine
 10
4.437614440917968
 20
7.349750995635986
 30
0.0
 11
4.426958084106445
 21
7.349750995635986
 31
0.0
  0
LINE
  5
1F8
330
7D
100
AcDbEntity
 67
     1
  8
1
  6
Continuous
 62
    21
370
    18
100
AcDbLine
 10
4.411370754241943
 20
7.36533784866333
 30
0.0
 11
4.411370754241943
 21
7.375993728637695
 31
0.0
  0
LINE
  5
1F9
330
7D
100
AcDbEntity
 67
     1
  8
1
  6
Continuous
 62
    21
370
    18
100
AcDbLine
 10
4.411370754241943
 20
7.375993728637695
 30
0.0
 11
4.411370754241943
 21
7.380924701690673
 31
0.0
  0
LINE
  5
1FA
330
7D
100
AcDbEntity
 67
     1
  8
1
  6
Continuous
 62
    21
370
    18
100
AcDbLine
 10
1.136892199516296
 20
7.36533784866333
 30
0.0
 11
1.136892199516296
 21
7.375993728637695
 31
0.0
  0
LINE
  5
1FB
330
7D
100
AcDbEntity
 67
     1
  8
1
  6
Continuous
 62
    21
370
    18
100
AcDbLine
 10
1.136892199516296
 20
7.375993728637695
 30
0.0
 11
1.136892199516296
 21
7.380924701690673
 31
0.0
  0
LINE
  5
1FC
330
7D
100
AcDbEntity
 67
     1
  8
1
  6
Continuous
 62
    21
370
    18
100
AcDbLine
 10
4.442544937133789
 20
4.07527208328247
 30
0.0
 11
4.437614440917968
 21
4.07527208328247
 31
0.0
  0
LINE
  5
1FD
330
7D
100
AcDbEntity
 67
     1
  8
1
  6
Continuous
 62
    21
370
    18
100
AcDbLine
 10
4.437614440917968
 20
4.07527208328247
 30
0.0
 11
4.426958084106445
 21
4.07527208328247
 31
0.0
  0
LINE
  5
1FE
330
7D
100
AcDbEntity
 67
     1
  8
1
  6
Continuous
 62
    21
370
    18
100
AcDbLine
 10
4.411370754241943
 20
7.380924701690673
 30
0.0
 11
4.426942348480224
 21
7.376725673675537
 31
0.0
  0
LINE
  5
1FF
330
7D
100
AcDbEntity
 67
     1
  8
1
  6
Continuous
 62
    21
370
    18
100
AcDbLine
 10
4.426942348480224
 20
7.376725673675537
 30
0.0
 11
4.438345432281494
 21
7.365321636199951
 31
0.0
  0
LINE
  5
200
330
7D
100
AcDbEntity
 67
     1
  8
1
  6
Continuous
 62
    21
370
    18
100
AcDbLine
 10
4.438345432281494
 20
7.365321636199951
 30
0.0
 11
4.442544937133789
 21
7.349750995635986
 31
0.0
  0
LINE
  5
201
330
7D
100
AcDbEntity
 67
     1
  8
1
  6
Continuous
 62
    21
370
    18
100
AcDbLine
 10
4.442544937133789
 20
4.07527208328247
 30
0.0
 11
4.467132091522216
 21
4.050685405731201
 31
0.0
  0
LINE
  5
202
330
7D
100
AcDbEntity
 67
     1
  8
1
  6
Continuous
 62
    21
370
    18
100
AcDbLine
 10
1.121305227279663
 20
4.07527208328247
 30
0.0
 11
1.110648989677429
 21
4.07527208328247
 31
0.0
  0
LINE
  5
203
330
7D
100
AcDbEntity
 67
     1
  8
1
  6
Continuous
 62
    21
370
    18
100
AcDbLine
 10
1.110648989677429
 20
4.07527208328247
 30
0.0
 11
1.105718255043029
 21
4.07527208328247
 31
0.0
  0
LINE
  5
204
330
7D
100
AcDbEntity
 67
     1
  8
1
  6
Continuous
 62
    21
370
    18
100
AcDbLine
 10
1.121305227279663
 20
7.349750995635986
 30
0.0
 11
1.110648989677429
 21
7.349750995635986
 31
0.0
  0
LINE
  5
205
330
7D
100
AcDbEntity
 67
     1
  8
1
  6
Continuous
 62
    21
370
    18
100
AcDbLine
 10
1.110648989677429
 20
7.349750995635986
 30
0.0
 11
1.105718255043029
 21
7.349750995635986
 31
0.0
  0
LINE
  5
206
330
7D
100
AcDbEntity
 67
     1
  8
1
  6
Continuous
 62
    21
370
    18
100
AcDbLine
 10
1.987881779670715
 20
5.660265445709228
 30
0.0
 11
1.987881779670715
 21
6.138046741485595
 31
0.0
  0
LINE
  5
207
330
7D
100
AcDbEntity
 67
     1
  8
1
  6
Continuous
 62
    21
370
    18
100
AcDbLine
 10
2.047881841659545
 20
6.138046741485595
 30
0.0
 11
2.047881841659545
 21
5.660265445709228
 31
0.0
  0
LINE
  5
208
330
7D
100
AcDbEntity
 67
     1
  8
1
  6
Continuous
 62
    21
370
    18
100
AcDbLine
 10
1.987881779670715
 20
6.138046741485595
 30
0.0
 11
2.047881841659545
 21
6.138046741485595
 31
0.0
  0
LINE
  5
209
330
7D
100
AcDbEntity
 67
     1
  8
1
  6
Continuous
 62
    21
370
    18
100
AcDbLine
 10
3.560381650924682
 20
5.558769226074218
 30
0.0
 11
3.560381650924682
 21
5.660265445709228
 31
0.0
  0
LINE
  5
20A
330
7D
100
AcDbEntity
 67
     1
  8
1
  6
Continuous
 62
    21
370
    18
100
AcDbLine
 10
3.560381650924682
 20
5.558769226074218
 30
0.0
 11
3.563657283782958
 21
5.562044620513916
 31
0.0
  0
LINE
  5
20B
330
7D
100
AcDbEntity
 67
     1
  8
1
  6
Continuous
 62
    21
370
    18
100
AcDbLine
 10
3.561313867568969
 20
6.138979434967041
 30
0.0
 11
3.560381650924682
 21
6.138046741485595
 31
0.0
  0
LINE
  5
20C
330
7D
100
AcDbEntity
 67
     1
  8
1
  6
Continuous
 62
    21
370
    18
100
AcDbLine
 10
1.136892199516296
 20
4.044097900390625
 30
0.0
 11
1.136892199516296
 21
4.049028873443603
 31
0.0
  0
LINE
  5
20D
330
7D
100
AcDbEntity
 67
     1
  8
1
  6
Continuous
 62
    21
370
    18
100
AcDbLine
 10
1.136892199516296
 20
4.049028873443603
 30
0.0
 11
1.136892199516296
 21
4.059685230255126
 31
0.0
  0
LINE
  5
20E
330
7D
100
AcDbEntity
 67
     1
  8
1
  6
Continuous
 62
    21
370
    18
100
AcDbLine
 10
1.984605908393859
 20
5.562044620513916
 30
0.0
 11
1.987881779670715
 21
5.558769226074218
 31
0.0
  0
LINE
  5
20F
330
7D
100
AcDbEntity
 67
     1
  8
1
  6
Continuous
 62
    21
370
    18
100
AcDbLine
 10
1.98694908618927
 20
6.138979434967041
 30
0.0
 11
1.987881779670715
 21
6.138046741485595
 31
0.0
  0
LINE
  5
210
330
7D
100
AcDbEntity
 67
     1
  8
1
  6
Continuous
 62
    21
370
    18
100
AcDbLine
 10
3.400101423263549
 20
6.137162208557128
 30
0.0
 11
3.413868427276611
 21
6.137065887451171
 31
0.0
  0
LINE
  5
211
330
7D
100
AcDbEntity
 67
     1
  8
1
  6
Continuous
 62
    21
370
    18
100
AcDbLine
 10
3.413868427276611
 20
6.137065887451171
 30
0.0
 11
3.420074224472045
 21
6.136831283569335
 31
0.0
  0
LINE
  5
212
330
7D
100
AcDbEntity
 67
     1
  8
1
  6
Continuous
 62
    21
370
    18
100
AcDbLine
 10
3.420074224472045
 20
6.136831283569335
 30
0.0
 11
3.425631523132324
 21
6.134980201721191
 31
0.0
  0
LINE
  5
213
330
7D
100
AcDbEntity
 67
     1
  8
1
  6
Continuous
 62
    21
370
    18
100
AcDbLine
 10
3.425631523132324
 20
6.134980201721191
 30
0.0
 11
3.497314929962158
 21
6.134980201721191
 31
0.0
  0
LINE
  5
214
330
7D
100
AcDbEntity
 67
     1
  8
1
  6
Continuous
 62
    21
370
    18
100
AcDbLine
 10
3.500381708145141
 20
6.138046741485595
 30
0.0
 11
3.497314929962158
 21
6.134980201721191
 31
0.0
  0
LINE
  5
215
330
7D
100
AcDbEntity
 67
     1
  8
1
  6
Continuous
 62
    21
370
    18
100
AcDbLine
 10
2.05094838142395
 20
6.134980201721191
 30
0.0
 11
2.122631788253784
 21
6.134980201721191
 31
0.0
  0
LINE
  5
216
330
7D
100
AcDbEntity
 67
     1
  8
1
  6
Continuous
 62
    21
370
    18
100
AcDbLine
 10
2.047881841659545
 20
6.138046741485595
 30
0.0
 11
2.05094838142395
 21
6.134980201721191
 31
0.0
  0
LINE
  5
217
330
7D
100
AcDbEntity
 67
     1
  8
1
  6
Continuous
 62
    21
370
    18
100
AcDbLine
 10
2.128189325332641
 20
6.136831283569335
 30
0.0
 11
2.134394884109497
 21
6.137065887451171
 31
0.0
  0
LINE
  5
218
330
7D
100
AcDbEntity
 67
     1
  8
1
  6
Continuous
 62
    21
370
    18
100
AcDbLine
 10
2.134394884109497
 20
6.137065887451171
 30
0.0
 11
2.148161888122558
 21
6.137162208557128
 31
0.0
  0
LINE
  5
219
330
7D
100
AcDbEntity
 67
     1
  8
1
  6
Continuous
 62
    21
370
    18
100
AcDbLine
 10
2.148161888122558
 20
6.137162208557128
 30
0.0
 11
3.400101423263549
 21
6.137162208557128
 31
0.0
  0
LINE
  5
21A
330
7D
100
AcDbEntity
 67
     1
  8
1
  6
Continuous
 62
    21
370
    18
100
AcDbLine
 10
3.497314929962158
 20
6.134980201721191
 30
0.0
 11
3.497314929962158
 21
5.64489459991455
 31
0.0
  0
LINE
  5
21B
330
7D
100
AcDbEntity
 67
     1
  8
1
  6
Continuous
 62
    21
370
    18
100
AcDbLine
 10
3.497314929962158
 20
5.64489459991455
 30
0.0
 11
3.500381708145141
 21
5.660265445709228
 31
0.0
  0
LINE
  5
21C
330
7D
100
AcDbEntity
 67
     1
  8
1
  6
Continuous
 62
    21
370
    18
100
AcDbLine
 10
2.05094838142395
 20
4.798111915588378
 30
0.0
 11
3.497314929962158
 21
4.798111915588378
 31
0.0
  0
LINE
  5
21D
330
7D
100
AcDbEntity
 67
     1
  8
1
  6
Continuous
 62
    21
370
    18
100
AcDbLine
 10
2.05094838142395
 20
6.134980201721191
 30
0.0
 11
2.05094838142395
 21
5.64489459991455
 31
0.0
  0
LINE
  5
21E
330
7D
100
AcDbEntity
 67
     1
  8
1
  6
Continuous
 62
    21
370
    18
100
AcDbLine
 10
2.122631788253784
 20
6.134980201721191
 30
0.0
 11
2.128189325332641
 21
6.136831283569335
 31
0.0
  0
LINE
  5
21F
330
7D
100
AcDbEntity
 67
     1
  8
1
  6
Continuous
 62
    21
370
    18
100
AcDbLine
 10
4.411370754241943
 20
4.044097900390625
 30
0.0
 11
4.411370754241943
 21
4.049028873443603
 31
0.0
  0
LINE
  5
220
330
7D
100
AcDbEntity
 67
     1
  8
1
  6
Continuous
 62
    21
370
    18
100
AcDbLine
 10
4.411370754241943
 20
4.049028873443603
 30
0.0
 11
4.411370754241943
 21
4.059685230255126
 31
0.0
  0
LINE
  5
221
330
7D
100
AcDbEntity
 67
     1
  8
1
  6
Continuous
 62
    21
370
    18
100
AcDbLine
 10
3.541916131973266
 20
5.288197517395019
 30
0.0
 11
3.497314929962158
 21
5.288197517395019
 31
0.0
  0
LINE
  5
222
330
7D
100
AcDbEntity
 67
     1
  8
1
  6
Continuous
 62
    21
370
    18
100
AcDbLine
 10
3.541916131973266
 20
5.288197517395019
 30
0.0
 11
3.541916131973266
 21
5.64489459991455
 31
0.0
  0
LINE
  5
223
330
7D
100
AcDbEntity
 67
     1
  8
1
  6
Continuous
 62
    21
370
    18
100
AcDbLine
 10
3.541916131973266
 20
5.64489459991455
 30
0.0
 11
3.497314929962158
 21
5.64489459991455
 31
0.0
  0
LINE
  5
224
330
7D
100
AcDbEntity
 67
     1
  8
1
  6
Continuous
 62
    21
370
    18
100
AcDbLine
 10
1.976607322692871
 20
5.379046440124511
 30
0.0
 11
1.979882836341857
 21
5.382321834564208
 31
0.0
  0
LINE
  5
225
330
7D
100
AcDbEntity
 67
     1
  8
1
  6
Continuous
 62
    21
370
    18
100
AcDbLine
 10
1.935880422592163
 20
5.382321834564208
 30
0.0
 11
1.979882836341857
 21
5.382321834564208
 31
0.0
  0
LINE
  5
226
330
7D
100
AcDbEntity
 67
     1
  8
1
  6
Continuous
 62
    21
370
    18
100
AcDbLine
 10
1.935880422592163
 20
5.382321834564208
 30
0.0
 11
1.932604789733886
 21
5.379046440124511
 31
0.0
  0
LINE
  5
227
330
7D
100
AcDbEntity
 67
     1
  8
1
  6
Continuous
 62
    21
370
    18
100
AcDbLine
 10
1.927881717681884
 20
5.542771816253662
 30
0.0
 11
1.927881717681884
 21
5.390320777893066
 31
0.0
  0
LINE
  5
228
330
7D
100
AcDbEntity
 67
     1
  8
1
  6
Continuous
 62
    21
370
    18
100
AcDbLine
 10
1.927881717681884
 20
5.390320777893066
 30
0.0
 11
1.930224299430847
 21
5.38466453552246
 31
0.0
  0
LINE
  5
229
330
7D
100
AcDbEntity
 67
     1
  8
1
  6
Continuous
 62
    21
370
    18
100
AcDbLine
 10
1.930224299430847
 20
5.38466453552246
 30
0.0
 11
1.935880422592163
 21
5.382321834564208
 31
0.0
  0
LINE
  5
22A
330
7D
100
AcDbEntity
 67
     1
  8
1
  6
Continuous
 62
    21
370
    18
100
AcDbLine
 10
1.935880422592163
 20
5.550770759582519
 30
0.0
 11
1.979882836341857
 21
5.550770759582519
 31
0.0
  0
LINE
  5
22B
330
7D
100
AcDbEntity
 67
     1
  8
1
  6
Continuous
 62
    21
370
    18
100
AcDbLine
 10
1.935880422592163
 20
5.550770759582519
 30
0.0
 11
1.930224299430847
 21
5.548428058624267
 31
0.0
  0
LINE
  5
22C
330
7D
100
AcDbEntity
 67
     1
  8
1
  6
Continuous
 62
    21
370
    18
100
AcDbLine
 10
1.930224299430847
 20
5.548428058624267
 30
0.0
 11
1.927881717681884
 21
5.542771816253662
 31
0.0
  0
LINE
  5
22D
330
7D
100
AcDbEntity
 67
     1
  8
1
  6
Continuous
 62
    21
370
    18
100
AcDbLine
 10
1.979882836341857
 20
5.382321834564208
 30
0.0
 11
1.985538959503173
 21
5.379979133605957
 31
0.0
  0
LINE
  5
22E
330
7D
100
AcDbEntity
 67
     1
  8
1
  6
Continuous
 62
    21
370
    18
100
AcDbLine
 10
1.985538959503173
 20
5.379979133605957
 30
0.0
 11
1.987881779670715
 21
5.374322891235351
 31
0.0
  0
LINE
  5
22F
330
7D
100
AcDbEntity
 67
     1
  8
1
  6
Continuous
 62
    21
370
    18
100
AcDbLine
 10
1.979882836341857
 20
5.550770759582519
 30
0.0
 11
1.976607322692871
 21
5.554046154022216
 31
0.0
  0
LINE
  5
230
330
7D
100
AcDbEntity
 67
     1
  8
1
  6
Continuous
 62
    21
370
    18
100
AcDbLine
 10
1.924605965614318
 20
5.38704490661621
 30
0.0
 11
1.927881717681884
 21
5.390320777893066
 31
0.0
  0
LINE
  5
231
330
7D
100
AcDbEntity
 67
     1
  8
1
  6
Continuous
 62
    21
370
    18
100
AcDbLine
 10
1.927881717681884
 20
5.542771816253662
 30
0.0
 11
1.924605965614318
 21
5.546047687530517
 31
0.0
  0
LINE
  5
232
330
7D
100
AcDbEntity
 67
     1
  8
1
  6
Continuous
 62
    21
370
    18
100
AcDbLine
 10
3.560381650924682
 20
5.272826671600341
 30
0.0
 11
3.541916131973266
 21
5.288197517395019
 31
0.0
  0
LINE
  5
233
330
7D
100
AcDbEntity
 67
     1
  8
1
  6
Continuous
 62
    21
370
    18
100
AcDbLine
 10
3.560381650924682
 20
5.660265445709228
 30
0.0
 11
3.541916131973266
 21
5.64489459991455
 31
0.0
  0
LINE
  5
234
330
7D
100
AcDbEntity
 67
     1
  8
1
  6
Continuous
 62
    21
370
    18
100
AcDbLine
 10
1.987881779670715
 20
5.558769226074218
 30
0.0
 11
1.985538959503173
 21
5.553113460540771
 31
0.0
  0
LINE
  5
235
330
7D
100
AcDbEntity
 67
     1
  8
1
  6
Continuous
 62
    21
370
    18
100
AcDbLine
 10
1.985538959503173
 20
5.553113460540771
 30
0.0
 11
1.979882836341857
 21
5.550770759582519
 31
0.0
  0
LINE
  5
236
330
7D
100
AcDbEntity
 67
     1
  8
1
  6
Continuous
 62
    21
370
    18
100
AcDbLine
 10
3.612382888793945
 20
5.382321834564208
 30
0.0
 11
3.56838059425354
 21
5.382321834564208
 31
0.0
  0
LINE
  5
237
330
7D
100
AcDbEntity
 67
     1
  8
1
  6
Continuous
 62
    21
370
    18
100
AcDbLine
 10
3.56838059425354
 20
5.382321834564208
 30
0.0
 11
3.571656227111816
 21
5.379046440124511
 31
0.0
  0
LINE
  5
238
330
7D
100
AcDbEntity
 67
     1
  8
1
  6
Continuous
 62
    21
370
    18
100
AcDbLine
 10
3.615658521652221
 20
5.379046440124511
 30
0.0
 11
3.612382888793945
 21
5.382321834564208
 31
0.0
  0
LINE
  5
239
330
7D
100
AcDbEntity
 67
     1
  8
1
  6
Continuous
 62
    21
370
    18
100
AcDbLine
 10
3.612382888793945
 20
5.550770759582519
 30
0.0
 11
3.56838059425354
 21
5.550770759582519
 31
0.0
  0
LINE
  5
23A
330
7D
100
AcDbEntity
 67
     1
  8
1
  6
Continuous
 62
    21
370
    18
100
AcDbLine
 10
1.932604789733886
 20
5.554046154022216
 30
0.0
 11
1.935880422592163
 21
5.550770759582519
 31
0.0
  0
LINE
  5
23B
330
7D
100
AcDbEntity
 67
     1
  8
1
  6
Continuous
 62
    21
370
    18
100
AcDbLine
 10
3.571656227111816
 20
5.554046154022216
 30
0.0
 11
3.56838059425354
 21
5.550770759582519
 31
0.0
  0
LINE
  5
23C
330
7D
100
AcDbEntity
 67
     1
  8
1
  6
Continuous
 62
    21
370
    18
100
AcDbLine
 10
3.560381650924682
 20
5.374322891235351
 30
0.0
 11
3.560381650924682
 21
5.558769226074218
 31
0.0
  0
LINE
  5
23D
330
7D
100
AcDbEntity
 67
     1
  8
1
  6
Continuous
 62
    21
370
    18
100
AcDbLine
 10
3.620381832122802
 20
5.542771816253662
 30
0.0
 11
3.620381832122802
 21
5.390320777893066
 31
0.0
  0
LINE
  5
23E
330
7D
100
AcDbEntity
 67
     1
  8
1
  6
Continuous
 62
    21
370
    18
100
AcDbLine
 10
3.612382888793945
 20
5.382321834564208
 30
0.0
 11
3.61803913116455
 21
5.38466453552246
 31
0.0
  0
LINE
  5
23F
330
7D
100
AcDbEntity
 67
     1
  8
1
  6
Continuous
 62
    21
370
    18
100
AcDbLine
 10
3.61803913116455
 20
5.38466453552246
 30
0.0
 11
3.620381832122802
 21
5.390320777893066
 31
0.0
  0
LINE
  5
240
330
7D
100
AcDbEntity
 67
     1
  8
1
  6
Continuous
 62
    21
370
    18
100
AcDbLine
 10
3.56838059425354
 20
5.550770759582519
 30
0.0
 11
3.562724351882934
 21
5.553113460540771
 31
0.0
  0
LINE
  5
241
330
7D
100
AcDbEntity
 67
     1
  8
1
  6
Continuous
 62
    21
370
    18
100
AcDbLine
 10
3.562724351882934
 20
5.553113460540771
 30
0.0
 11
3.560381650924682
 21
5.558769226074218
 31
0.0
  0
LINE
  5
242
330
7D
100
AcDbEntity
 67
     1
  8
1
  6
Continuous
 62
    21
370
    18
100
AcDbLine
 10
3.560381650924682
 20
5.374322891235351
 30
0.0
 11
3.562724351882934
 21
5.379979133605957
 31
0.0
  0
LINE
  5
243
330
7D
100
AcDbEntity
 67
     1
  8
1
  6
Continuous
 62
    21
370
    18
100
AcDbLine
 10
3.562724351882934
 20
5.379979133605957
 30
0.0
 11
3.56838059425354
 21
5.382321834564208
 31
0.0
  0
LINE
  5
244
330
7D
100
AcDbEntity
 67
     1
  8
1
  6
Continuous
 62
    21
370
    18
100
AcDbLine
 10
3.620381832122802
 20
5.390320777893066
 30
0.0
 11
3.6236572265625
 21
5.38704490661621
 31
0.0
  0
LINE
  5
245
330
7D
100
AcDbEntity
 67
     1
  8
1
  6
Continuous
 62
    21
370
    18
100
AcDbLine
 10
3.620381832122802
 20
5.542771816253662
 30
0.0
 11
3.61803913116455
 21
5.548428058624267
 31
0.0
  0
LINE
  5
246
330
7D
100
AcDbEntity
 67
     1
  8
1
  6
Continuous
 62
    21
370
    18
100
AcDbLine
 10
3.61803913116455
 20
5.548428058624267
 30
0.0
 11
3.612382888793945
 21
5.550770759582519
 31
0.0
  0
LINE
  5
247
330
7D
100
AcDbEntity
 67
     1
  8
1
  6
Continuous
 62
    21
370
    18
100
AcDbLine
 10
3.6236572265625
 20
5.546047687530517
 30
0.0
 11
3.620381832122802
 21
5.542771816253662
 31
0.0
  0
LINE
  5
248
330
7D
100
AcDbEntity
 67
     1
  8
1
  6
Continuous
 62
    21
370
    18
100
AcDbLine
 10
3.612382888793945
 20
5.550770759582519
 30
0.0
 11
3.615658521652221
 21
5.554046154022216
 31
0.0
  0
LINE
  5
249
330
7D
100
AcDbEntity
 67
     1
  8
1
  6
Continuous
 62
    21
370
    18
100
AcDbLine
 10
2.052997112274169
 20
6.28906774520874
 30
0.0
 11
2.053520679473876
 21
6.28906774520874
 31
0.0
  0
LINE
  5
24A
330
7D
100
AcDbEntity
 67
     1
  8
1
  6
Continuous
 62
    21
370
    18
100
AcDbLine
 10
2.053520679473876
 20
6.28906774520874
 30
0.0
 11
2.053520679473876
 21
6.629336833953857
 31
0.0
  0
LINE
  5
24B
330
7D
100
AcDbEntity
 67
     1
  8
1
  6
Continuous
 62
    21
370
    18
100
AcDbLine
 10
2.103594779968261
 20
6.279591083526611
 30
0.0
 11
2.062997102737426
 21
6.279591083526611
 31
0.0
  0
LINE
  5
24C
330
7D
100
AcDbEntity
 67
     1
  8
1
  6
Continuous
 62
    21
370
    18
100
AcDbLine
 10
3.485266208648681
 20
6.279067993164062
 30
0.0
 11
3.485266208648681
 21
6.279591083526611
 31
0.0
  0
LINE
  5
24D
330
7D
100
AcDbEntity
 67
     1
  8
1
  6
Continuous
 62
    21
370
    18
100
AcDbLine
 10
3.485266208648681
 20
6.279591083526611
 30
0.0
 11
3.444668531417846
 21
6.279591083526611
 31
0.0
  0
LINE
  5
24E
330
7D
100
AcDbEntity
 67
     1
  8
1
  6
Continuous
 62
    21
370
    18
100
AcDbLine
 10
3.444668531417846
 20
6.279591083526611
 30
0.0
 11
3.441606044769287
 21
6.280202388763427
 31
0.0
  0
LINE
  5
24F
330
7D
100
AcDbEntity
 67
     1
  8
1
  6
Continuous
 62
    21
370
    18
100
AcDbLine
 10
2.106657266616821
 20
6.280202388763427
 30
0.0
 11
3.441606044769287
 21
6.280202388763427
 31
0.0
  0
LINE
  5
250
330
7D
100
AcDbEntity
 67
     1
  8
1
  6
Continuous
 62
    21
370
    18
100
AcDbLine
 10
2.053520679473876
 20
6.629336833953857
 30
0.0
 11
2.052997112274169
 21
6.629336833953857
 31
0.0
  0
LINE
  5
251
330
7D
100
AcDbEntity
 67
     1
  8
1
  6
Continuous
 62
    21
370
    18
100
AcDbLine
 10
2.106657266616821
 20
6.280202388763427
 30
0.0
 11
2.103594779968261
 21
6.279591083526611
 31
0.0
  0
LINE
  5
252
330
7D
100
AcDbEntity
 67
     1
  8
1
  6
Continuous
 62
    21
370
    18
100
AcDbLine
 10
3.494742631912231
 20
6.629336833953857
 30
0.0
 11
3.494742631912231
 21
6.28906774520874
 31
0.0
  0
LINE
  5
253
330
7D
100
AcDbEntity
 67
     1
  8
1
  6
Continuous
 62
    21
370
    18
100
AcDbLine
 10
3.494742631912231
 20
6.28906774520874
 30
0.0
 11
3.495266199111938
 21
6.28906774520874
 31
0.0
  0
LINE
  5
254
330
7D
100
AcDbEntity
 67
     1
  8
1
  6
Continuous
 62
    21
370
    18
100
AcDbLine
 10
3.495266199111938
 20
6.629336833953857
 30
0.0
 11
3.494742631912231
 21
6.629336833953857
 31
0.0
  0
LINE
  5
255
330
7D
100
AcDbEntity
 67
     1
  8
1
  6
Continuous
 62
    21
370
    18
100
AcDbLine
 10
2.062997102737426
 20
6.279591083526611
 30
0.0
 11
2.062997102737426
 21
6.279067993164062
 31
0.0
  0
LINE
  5
256
330
7D
100
AcDbEntity
 67
     1
  8
1
  6
Continuous
 62
    21
370
    18
100
AcDbLine
 10
3.441606044769287
 20
6.280202388763427
 30
0.0
 11
3.441168785095214
 21
6.638202667236328
 31
0.0
  0
LINE
  5
257
330
7D
100
AcDbEntity
 67
     1
  8
1
  6
Continuous
 62
    21
370
    18
100
AcDbLine
 10
2.107094764709472
 20
6.638202667236328
 30
0.0
 11
3.441168785095214
 21
6.638202667236328
 31
0.0
  0
LINE
  5
258
330
7D
100
AcDbEntity
 67
     1
  8
1
  6
Continuous
 62
    21
370
    18
100
AcDbLine
 10
2.062997102737426
 20
6.639337062835693
 30
0.0
 11
2.062997102737426
 21
6.638813018798828
 31
0.0
  0
LINE
  5
259
330
7D
100
AcDbEntity
 67
     1
  8
1
  6
Continuous
 62
    21
370
    18
100
AcDbLine
 10
2.062997102737426
 20
6.638813018798828
 30
0.0
 11
2.104033946990966
 21
6.638813018798828
 31
0.0
  0
LINE
  5
25A
330
7D
100
AcDbEntity
 67
     1
  8
1
  6
Continuous
 62
    21
370
    18
100
AcDbLine
 10
2.104033946990966
 20
6.638813018798828
 30
0.0
 11
2.107094764709472
 21
6.638202667236328
 31
0.0
  0
LINE
  5
25B
330
7D
100
AcDbEntity
 67
     1
  8
1
  6
Continuous
 62
    21
370
    18
100
AcDbLine
 10
2.107094764709472
 20
6.638202667236328
 30
0.0
 11
2.106657266616821
 21
6.280202388763427
 31
0.0
  0
LINE
  5
25C
330
7D
100
AcDbEntity
 67
     1
  8
1
  6
Continuous
 62
    21
370
    18
100
AcDbLine
 10
3.441168785095214
 20
6.638202667236328
 30
0.0
 11
3.444229364395141
 21
6.638813018798828
 31
0.0
  0
LINE
  5
25D
330
7D
100
AcDbEntity
 67
     1
  8
1
  6
Continuous
 62
    21
370
    18
100
AcDbLine
 10
3.444229364395141
 20
6.638813018798828
 30
0.0
 11
3.485266208648681
 21
6.638813018798828
 31
0.0
  0
LINE
  5
25E
330
7D
100
AcDbEntity
 67
     1
  8
1
  6
Continuous
 62
    21
370
    18
100
AcDbLine
 10
3.485266208648681
 20
6.638813018798828
 30
0.0
 11
3.485266208648681
 21
6.639337062835693
 31
0.0
  0
LINE
  5
25F
330
7D
100
AcDbEntity
 67
     1
  8
1
  6
Continuous
 62
    21
370
    18
100
AcDbLine
 10
4.239340782165527
 20
4.278059005737304
 30
0.0
 11
4.239340782165527
 21
4.253888607025146
 31
0.0
  0
LINE
  5
260
330
7D
100
AcDbEntity
 67
     1
  8
1
  6
Continuous
 62
    21
370
    18
100
AcDbLine
 10
4.239340782165527
 20
4.253888607025146
 30
0.0
 11
4.263511180877685
 21
4.253888607025146
 31
0.0
  0
LINE
  5
261
330
7D
100
AcDbEntity
 67
     1
  8
1
  6
Continuous
 62
    21
370
    18
100
AcDbLine
 10
4.263511180877685
 20
4.253888607025146
 30
0.0
 11
4.263511180877685
 21
4.159685134887695
 31
0.0
  0
LINE
  5
262
330
7D
100
AcDbEntity
 67
     1
  8
1
  6
Continuous
 62
    21
370
    18
100
AcDbLine
 10
4.263511180877685
 20
4.159685134887695
 30
0.0
 11
4.299766540527343
 21
4.159685134887695
 31
0.0
  0
LINE
  5
263
330
7D
100
AcDbEntity
 67
     1
  8
1
  6
Continuous
 62
    21
370
    18
100
AcDbLine
 10
4.299766540527343
 20
4.253888607025146
 30
0.0
 11
4.326958179473876
 21
4.253888607025146
 31
0.0
  0
LINE
  5
264
330
7D
100
AcDbEntity
 67
     1
  8
1
  6
Continuous
 62
    21
370
    18
100
AcDbLine
 10
4.299766540527343
 20
4.159685134887695
 30
0.0
 11
4.299766540527343
 21
4.253888607025146
 31
0.0
  0
LINE
  5
265
330
7D
100
AcDbEntity
 67
     1
  8
1
  6
Continuous
 62
    21
370
    18
100
AcDbLine
 10
4.326958179473876
 20
4.278059005737304
 30
0.0
 11
4.239340782165527
 21
4.278059005737304
 31
0.0
  0
LINE
  5
266
330
7D
100
AcDbEntity
 67
     1
  8
1
  6
Continuous
 62
    21
370
    18
100
AcDbLine
 10
4.326958179473876
 20
4.253888607025146
 30
0.0
 11
4.326958179473876
 21
4.278059005737304
 31
0.0
  0
LINE
  5
267
330
7D
100
AcDbEntity
 67
     1
  8
1
  6
Continuous
 62
    21
370
    18
100
AcDbLine
 10
4.095044136047363
 20
4.18083381652832
 30
0.0
 11
4.095044136047363
 21
4.278059005737304
 31
0.0
  0
LINE
  5
268
330
7D
100
AcDbEntity
 67
     1
  8
1
  6
Continuous
 62
    21
370
    18
100
AcDbLine
 10
4.095044136047363
 20
4.278059005737304
 30
0.0
 11
4.134139537811279
 21
4.278059005737304
 31
0.0
  0
LINE
  5
269
330
7D
100
AcDbEntity
 67
     1
  8
1
  6
Continuous
 62
    21
370
    18
100
AcDbLine
 10
4.134139537811279
 20
4.278059005737304
 30
0.0
 11
4.134139537811279
 21
4.192919254302978
 31
0.0
  0
LINE
  5
26A
330
7D
100
AcDbEntity
 67
     1
  8
1
  6
Continuous
 62
    21
370
    18
100
AcDbLine
 10
4.140182495117187
 20
4.186876773834228
 30
0.0
 11
4.148702144622802
 21
4.186876773834228
 31
0.0
  0
LINE
  5
26B
330
7D
100
AcDbEntity
 67
     1
  8
1
  6
Continuous
 62
    21
370
    18
100
AcDbLine
 10
4.15474510192871
 20
4.192919254302978
 30
0.0
 11
4.15474510192871
 21
4.278059005737304
 31
0.0
  0
LINE
  5
26C
330
7D
100
AcDbEntity
 67
     1
  8
1
  6
Continuous
 62
    21
370
    18
100
AcDbLine
 10
4.17945909500122
 20
4.278059005737304
 30
0.0
 11
4.17945909500122
 21
4.18083381652832
 31
0.0
  0
LINE
  5
26D
330
7D
100
AcDbEntity
 67
     1
  8
1
  6
Continuous
 62
    21
370
    18
100
AcDbLine
 10
4.15474510192871
 20
4.278059005737304
 30
0.0
 11
4.17945909500122
 21
4.278059005737304
 31
0.0
  0
LINE
  5
26E
330
7D
100
AcDbEntity
 67
     1
  8
1
  6
Continuous
 62
    21
370
    18
100
AcDbLine
 10
4.158309936523437
 20
4.159685134887695
 30
0.0
 11
4.116193294525146
 21
4.159685134887695
 31
0.0
  0
LINE
  5
26F
330
7D
100
AcDbEntity
 67
     1
  8
1
  6
Continuous
 62
    21
370
    18
100
AcDbLine
 10
3.814971208572387
 20
4.202375411987304
 30
0.0
 11
3.829835653305053
 21
4.235851764678955
 31
0.0
  0
LINE
  5
270
330
7D
100
AcDbEntity
 67
     1
  8
1
  6
Continuous
 62
    21
370
    18
100
AcDbLine
 10
3.844942331314086
 20
4.202375411987304
 30
0.0
 11
3.814971208572387
 21
4.202375411987304
 31
0.0
  0
LINE
  5
271
330
7D
100
AcDbEntity
 67
     1
  8
1
  6
Continuous
 62
    21
370
    18
100
AcDbLine
 10
3.749107360839843
 20
4.279569625854492
 30
0.0
 11
3.749107360839843
 21
4.2402925491333
 31
0.0
  0
LINE
  5
272
330
7D
100
AcDbEntity
 67
     1
  8
1
  6
Continuous
 62
    21
370
    18
100
AcDbLine
 10
3.726447343826293
 20
4.287122726440429
 30
0.0
 11
3.741554021835327
 21
4.287122726440429
 31
0.0
  0
LINE
  5
273
330
7D
100
AcDbEntity
 67
     1
  8
1
  6
Continuous
 62
    21
370
    18
100
AcDbLine
 10
3.726447343826293
 20
4.232739925384521
 30
0.0
 11
3.726447343826293
 21
4.287122726440429
 31
0.0
  0
LINE
  5
274
330
7D
100
AcDbEntity
 67
     1
  8
1
  6
Continuous
 62
    21
370
    18
100
AcDbLine
 10
3.741554021835327
 20
4.232739925384521
 30
0.0
 11
3.726447343826293
 21
4.232739925384521
 31
0.0
  0
LINE
  5
275
330
7D
100
AcDbEntity
 67
     1
  8
1
  6
Continuous
 62
    21
370
    18
100
AcDbLine
 10
3.656958103179931
 20
4.159685134887695
 30
0.0
 11
3.656958103179931
 21
4.314314365386962
 31
0.0
  0
LINE
  5
276
330
7D
100
AcDbEntity
 67
     1
  8
1
  6
Continuous
 62
    21
370
    18
100
AcDbLine
 10
3.656958103179931
 20
4.314314365386962
 30
0.0
 11
3.764334440231323
 21
4.314314365386962
 31
0.0
  0
LINE
  5
277
330
7D
100
AcDbEntity
 67
     1
  8
1
  6
Continuous
 62
    21
370
    18
100
AcDbLine
 10
3.814745426177978
 20
4.278059005737304
 30
0.0
 11
3.84593915939331
 21
4.278059005737304
 31
0.0
  0
LINE
  5
278
330
7D
100
AcDbEntity
 67
     1
  8
1
  6
Continuous
 62
    21
370
    18
100
AcDbLine
 10
3.84593915939331
 20
4.278059005737304
 30
0.0
 11
3.880533218383789
 21
4.201015949249267
 31
0.0
  0
LINE
  5
279
330
7D
100
AcDbEntity
 67
     1
  8
1
  6
Continuous
 62
    21
370
    18
100
AcDbLine
 10
3.880533218383789
 20
4.201015949249267
 30
0.0
 11
3.880533218383789
 21
4.278059005737304
 31
0.0
  0
LINE
  5
27A
330
7D
100
AcDbEntity
 67
     1
  8
1
  6
Continuous
 62
    21
370
    18
100
AcDbLine
 10
3.880533218383789
 20
4.278059005737304
 30
0.0
 11
3.920111894607543
 21
4.278059005737304
 31
0.0
  0
LINE
  5
27B
330
7D
100
AcDbEntity
 67
     1
  8
1
  6
Continuous
 62
    21
370
    18
100
AcDbLine
 10
3.920111894607543
 20
4.278059005737304
 30
0.0
 11
3.940958738327026
 21
4.235156536102294
 31
0.0
  0
LINE
  5
27C
330
7D
100
AcDbEntity
 67
     1
  8
1
  6
Continuous
 62
    21
370
    18
100
AcDbLine
 10
3.940958738327026
 20
4.235156536102294
 30
0.0
 11
3.940958738327026
 21
4.278059005737304
 31
0.0
  0
LINE
  5
27D
330
7D
100
AcDbEntity
 67
     1
  8
1
  6
Continuous
 62
    21
370
    18
100
AcDbLine
 10
3.940958738327026
 20
4.278059005737304
 30
0.0
 11
3.971171617507934
 21
4.278059005737304
 31
0.0
  0
LINE
  5
27E
330
7D
100
AcDbEntity
 67
     1
  8
1
  6
Continuous
 62
    21
370
    18
100
AcDbLine
 10
3.971171617507934
 20
4.159685134887695
 30
0.0
 11
3.935520410537719
 21
4.159685134887695
 31
0.0
  0
LINE
  5
27F
330
7D
100
AcDbEntity
 67
     1
  8
1
  6
Continuous
 62
    21
370
    18
100
AcDbLine
 10
3.971171617507934
 20
4.278059005737304
 30
0.0
 11
3.971171617507934
 21
4.159685134887695
 31
0.0
  0
LINE
  5
280
330
7D
100
AcDbEntity
 67
     1
  8
1
  6
Continuous
 62
    21
370
    18
100
AcDbLine
 10
3.935520410537719
 20
4.159685134887695
 30
0.0
 11
3.913767099380493
 21
4.210079669952392
 31
0.0
  0
LINE
  5
281
330
7D
100
AcDbEntity
 67
     1
  8
1
  6
Continuous
 62
    21
370
    18
100
AcDbLine
 10
3.913767099380493
 20
4.210079669952392
 30
0.0
 11
3.913767099380493
 21
4.159685134887695
 31
0.0
  0
LINE
  5
282
330
7D
100
AcDbEntity
 67
     1
  8
1
  6
Continuous
 62
    21
370
    18
100
AcDbLine
 10
3.913767099380493
 20
4.159685134887695
 30
0.0
 11
3.860834121704101
 21
4.159685134887695
 31
0.0
  0
LINE
  5
283
330
7D
100
AcDbEntity
 67
     1
  8
1
  6
Continuous
 62
    21
370
    18
100
AcDbLine
 10
3.860834121704101
 20
4.159685134887695
 30
0.0
 11
3.852495670318603
 21
4.17675495147705
 31
0.0
  0
LINE
  5
284
330
7D
100
AcDbEntity
 67
     1
  8
1
  6
Continuous
 62
    21
370
    18
100
AcDbLine
 10
3.852495670318603
 20
4.17675495147705
 30
0.0
 11
3.807508707046508
 21
4.17675495147705
 31
0.0
  0
LINE
  5
285
330
7D
100
AcDbEntity
 67
     1
  8
1
  6
Continuous
 62
    21
370
    18
100
AcDbLine
 10
3.807508707046508
 20
4.17675495147705
 30
0.0
 11
3.800287723541259
 21
4.159685134887695
 31
0.0
  0
LINE
  5
286
330
7D
100
AcDbEntity
 67
     1
  8
1
  6
Continuous
 62
    21
370
    18
100
AcDbLine
 10
3.800287723541259
 20
4.159685134887695
 30
0.0
 11
3.765361785888671
 21
4.159685134887695
 31
0.0
  0
LINE
  5
287
330
7D
100
AcDbEntity
 67
     1
  8
1
  6
Continuous
 62
    21
370
    18
100
AcDbLine
 10
3.765361785888671
 20
4.159685134887695
 30
0.0
 11
3.787632703781127
 21
4.213340759277343
 31
0.0
  0
LINE
  5
288
330
7D
100
AcDbEntity
 67
     1
  8
1
  6
Continuous
 62
    21
370
    18
100
AcDbLine
 10
3.764334440231323
 20
4.207965373992919
 30
0.0
 11
3.726447343826293
 21
4.207965373992919
 31
0.0
  0
LINE
  5
289
330
7D
100
AcDbEntity
 67
     1
  8
1
  6
Continuous
 62
    21
370
    18
100
AcDbLine
 10
3.726447343826293
 20
4.207965373992919
 30
0.0
 11
3.726447343826293
 21
4.159685134887695
 31
0.0
  0
LINE
  5
28A
330
7D
100
AcDbEntity
 67
     1
  8
1
  6
Continuous
 62
    21
370
    18
100
AcDbLine
 10
3.726447343826293
 20
4.159685134887695
 30
0.0
 11
3.656958103179931
 21
4.159685134887695
 31
0.0
  0
LINE
  5
28B
330
7D
100
AcDbEntity
 67
     1
  8
1
  6
Continuous
 62
    21
370
    18
100
AcDbLine
 10
3.829835653305053
 20
4.235851764678955
 30
0.0
 11
3.844942331314086
 21
4.202375411987304
 31
0.0
  0
LINE
  5
28C
330
7D
100
AcDbEntity
 67
     1
  8
1
  6
Continuous
 62
    21
370
    18
100
AcDbLine
 10
4.024316310882568
 20
4.186876773834228
 30
0.0
 11
4.024316310882568
 21
4.253345012664794
 31
0.0
  0
LINE
  5
28D
330
7D
100
AcDbEntity
 67
     1
  8
1
  6
Continuous
 62
    21
370
    18
100
AcDbLine
 10
4.036401271820068
 20
4.186876773834228
 30
0.0
 11
4.024316310882568
 21
4.186876773834228
 31
0.0
  0
LINE
  5
28E
330
7D
100
AcDbEntity
 67
     1
  8
1
  6
Continuous
 62
    21
370
    18
100
AcDbLine
 10
4.042443752288818
 20
4.247302532196044
 30
0.0
 11
4.042443752288818
 21
4.192919254302978
 31
0.0
  0
LINE
  5
28F
330
7D
100
AcDbEntity
 67
     1
  8
1
  6
Continuous
 62
    21
370
    18
100
AcDbLine
 10
3.989299297332763
 20
4.278059005737304
 30
0.0
 11
4.05576753616333
 21
4.278059005737304
 31
0.0
  0
LINE
  5
290
330
7D
100
AcDbEntity
 67
     1
  8
1
  6
Continuous
 62
    21
370
    18
100
AcDbLine
 10
3.989299297332763
 20
4.159685134887695
 30
0.0
 11
3.989299297332763
 21
4.278059005737304
 31
0.0
  0
LINE
  5
291
330
7D
100
AcDbEntity
 67
     1
  8
1
  6
Continuous
 62
    21
370
    18
100
AcDbLine
 10
4.076916694641113
 20
4.256910324096679
 30
0.0
 11
4.076916694641113
 21
4.18083381652832
 31
0.0
  0
LINE
  5
292
330
7D
100
AcDbEntity
 67
     1
  8
1
  6
Continuous
 62
    21
370
    18
100
AcDbLine
 10
4.024316310882568
 20
4.253345012664794
 30
0.0
 11
4.036401271820068
 21
4.253345012664794
 31
0.0
  0
LINE
  5
293
330
7D
100
AcDbEntity
 67
     1
  8
1
  6
Continuous
 62
    21
370
    18
100
AcDbLine
 10
4.05576753616333
 20
4.159685134887695
 30
0.0
 11
3.989299297332763
 21
4.159685134887695
 31
0.0
  0
LINE
  5
294
330
7D
100
AcDbEntity
 67
     1
  8
1
  6
Continuous
 62
    21
370
    18
100
AcDbLine
 10
4.198553562164306
 20
4.159685134887695
 30
0.0
 11
4.198553562164306
 21
4.278059005737304
 31
0.0
  0
LINE
  5
295
330
7D
100
AcDbEntity
 67
     1
  8
1
  6
Continuous
 62
    21
370
    18
100
AcDbLine
 10
4.198553562164306
 20
4.278059005737304
 30
0.0
 11
4.230276584625244
 21
4.278059005737304
 31
0.0
  0
LINE
  5
296
330
7D
100
AcDbEntity
 67
     1
  8
1
  6
Continuous
 62
    21
370
    18
100
AcDbLine
 10
4.230276584625244
 20
4.278059005737304
 30
0.0
 11
4.230276584625244
 21
4.159685134887695
 31
0.0
  0
LINE
  5
297
330
7D
100
AcDbEntity
 67
     1
  8
1
  6
Continuous
 62
    21
370
    18
100
AcDbLine
 10
4.230276584625244
 20
4.159685134887695
 30
0.0
 11
4.198553562164306
 21
4.159685134887695
 31
0.0
  0
LINE
  5
298
330
7D
100
AcDbEntity
 67
     1
  8
1
  6
Continuous
 62
    21
370
    18
100
AcDbLine
 10
5.398659229278564
 20
4.07527208328247
 30
0.0
 11
5.398659229278564
 21
7.349750995635986
 31
0.0
  0
LINE
  5
299
330
7D
100
AcDbEntity
 67
     1
  8
1
  6
Continuous
 62
    21
370
    18
100
AcDbLine
 10
5.398659229278564
 20
7.349750995635986
 30
0.0
 11
5.398659229278564
 21
7.360777378082275
 31
0.0
  0
LINE
  5
29A
330
7D
100
AcDbEntity
 67
     1
  8
1
  6
Continuous
 62
    21
370
    18
100
AcDbLine
 10
5.398659229278564
 20
7.360777378082275
 30
0.0
 11
5.398659229278564
 21
7.36533784866333
 31
0.0
  0
LINE
  5
29B
330
7D
100
AcDbEntity
 67
     1
  8
1
  6
Continuous
 62
    21
370
    18
100
AcDbLine
 10
5.398659229278564
 20
4.059685230255126
 30
0.0
 11
5.398659229278564
 21
4.064245700836181
 31
0.0
  0
LINE
  5
29C
330
7D
100
AcDbEntity
 67
     1
  8
1
  6
Continuous
 62
    21
370
    18
100
AcDbLine
 10
5.398659229278564
 20
4.064245700836181
 30
0.0
 11
5.398659229278564
 21
4.07527208328247
 31
0.0
  0
LINE
  5
29D
330
7D
100
AcDbEntity
 67
     1
  8
1
  6
Continuous
 62
    21
370
    18
100
AcDbLine
 10
5.764801025390625
 20
7.405511379241943
 30
0.0
 11
5.764801025390625
 21
7.401339530944824
 31
0.0
  0
LINE
  5
29E
330
7D
100
AcDbEntity
 67
     1
  8
1
  6
Continuous
 62
    21
370
    18
100
AcDbLine
 10
5.764801025390625
 20
7.401339530944824
 30
0.0
 11
5.764801025390625
 21
7.389935970306396
 31
0.0
  0
LINE
  5
29F
330
7D
100
AcDbEntity
 67
     1
  8
1
  6
Continuous
 62
    21
370
    18
100
AcDbLine
 10
5.764801025390625
 20
7.389935970306396
 30
0.0
 11
5.764801025390625
 21
7.374337673187255
 31
0.0
  0
LINE
  5
2A0
330
7D
100
AcDbEntity
 67
     1
  8
1
  6
Continuous
 62
    21
370
    18
100
AcDbLine
 10
5.764801025390625
 20
4.050685405731201
 30
0.0
 11
5.764801025390625
 21
7.374337673187255
 31
0.0
  0
LINE
  5
2A1
330
7D
100
AcDbEntity
 67
     1
  8
1
  6
Continuous
 62
    21
370
    18
100
AcDbLine
 10
5.764801025390625
 20
4.019511222839355
 30
0.0
 11
5.413194179534912
 21
4.044097900390625
 31
0.0
  0
LINE
  5
2A2
330
7D
100
AcDbEntity
 67
     1
  8
1
  6
Continuous
 62
    21
370
    18
100
AcDbLine
 10
5.413194179534912
 20
7.380924701690673
 30
0.0
 11
5.764801025390625
 21
7.405511379241943
 31
0.0
  0
LINE
  5
2A3
330
7D
100
AcDbEntity
 67
     1
  8
1
  6
Continuous
 62
    21
370
    18
100
AcDbLine
 10
5.764801025390625
 20
7.374337673187255
 30
0.0
 11
5.413194179534912
 21
7.349750995635986
 31
0.0
  0
LINE
  5
2A4
330
7D
100
AcDbEntity
 67
     1
  8
1
  6
Continuous
 62
    21
370
    18
100
AcDbLine
 10
5.413194179534912
 20
7.349750995635986
 30
0.0
 11
5.413194179534912
 21
4.07527208328247
 31
0.0
  0
LINE
  5
2A5
330
7D
100
AcDbEntity
 67
     1
  8
1
  6
Continuous
 62
    21
370
    18
100
AcDbLine
 10
5.413194179534912
 20
4.07527208328247
 30
0.0
 11
5.764801025390625
 21
4.050685405731201
 31
0.0
  0
LINE
  5
2A6
330
7D
100
AcDbEntity
 67
     1
  8
1
  6
Continuous
 62
    21
370
    18
100
AcDbLine
 10
5.764801025390625
 20
4.050685405731201
 30
0.0
 11
5.764801025390625
 21
4.035086154937744
 31
0.0
  0
LINE
  5
2A7
330
7D
100
AcDbEntity
 67
     1
  8
1
  6
Continuous
 62
    21
370
    18
100
AcDbLine
 10
5.764801025390625
 20
4.035086154937744
 30
0.0
 11
5.764801025390625
 21
4.023683071136474
 31
0.0
  0
LINE
  5
2A8
330
7D
100
AcDbEntity
 67
     1
  8
1
  6
Continuous
 62
    21
370
    18
100
AcDbLine
 10
5.764801025390625
 20
4.023683071136474
 30
0.0
 11
5.764801025390625
 21
4.019511222839355
 31
0.0
  0
LINE
  5
2A9
330
7D
100
AcDbEntity
 67
     1
  8
1
  6
Continuous
 62
    21
370
    18
100
AcDbLine
 10
5.413194179534912
 20
7.380924701690673
 30
0.0
 11
5.412798881530761
 21
7.376725673675537
 31
0.0
  0
LINE
  5
2AA
330
7D
100
AcDbEntity
 67
     1
  8
1
  6
Continuous
 62
    21
370
    18
100
AcDbLine
 10
5.412798881530761
 20
7.376725673675537
 30
0.0
 11
5.412798881530761
 21
7.365321636199951
 31
0.0
  0
LINE
  5
2AB
330
7D
100
AcDbEntity
 67
     1
  8
1
  6
Continuous
 62
    21
370
    18
100
AcDbLine
 10
5.412798881530761
 20
7.365321636199951
 30
0.0
 11
5.413194179534912
 21
7.349750995635986
 31
0.0
  0
LINE
  5
2AC
330
7D
100
AcDbEntity
 67
     1
  8
1
  6
Continuous
 62
    21
370
    18
100
AcDbLine
 10
5.413194179534912
 20
4.07527208328247
 30
0.0
 11
5.412798881530761
 21
4.059700965881347
 31
0.0
  0
LINE
  5
2AD
330
7D
100
AcDbEntity
 67
     1
  8
1
  6
Continuous
 62
    21
370
    18
100
AcDbLine
 10
5.412798881530761
 20
4.059700965881347
 30
0.0
 11
5.412798881530761
 21
4.048297405242919
 31
0.0
  0
LINE
  5
2AE
330
7D
100
AcDbEntity
 67
     1
  8
1
  6
Continuous
 62
    21
370
    18
100
AcDbLine
 10
5.412798881530761
 20
4.048297405242919
 30
0.0
 11
5.413194179534912
 21
4.044097900390625
 31
0.0
  0
LINE
  5
2AF
330
7D
100
AcDbEntity
 67
     1
  8
1
  6
Continuous
 62
    21
370
    18
100
AcDbLine
 10
5.413194179534912
 20
7.349750995635986
 30
0.0
 11
5.402856826782226
 21
7.349750995635986
 31
0.0
  0
LINE
  5
2B0
330
7D
100
AcDbEntity
 67
     1
  8
1
  6
Continuous
 62
    21
370
    18
100
AcDbLine
 10
5.402856826782226
 20
7.349750995635986
 30
0.0
 11
5.398659229278564
 21
7.349750995635986
 31
0.0
  0
LINE
  5
2B1
330
7D
100
AcDbEntity
 67
     1
  8
1
  6
Continuous
 62
    21
370
    18
100
AcDbLine
 10
5.413194179534912
 20
4.07527208328247
 30
0.0
 11
5.402856826782226
 21
4.07527208328247
 31
0.0
  0
LINE
  5
2B2
330
7D
100
AcDbEntity
 67
     1
  8
1
  6
Continuous
 62
    21
370
    18
100
AcDbLine
 10
5.402856826782226
 20
4.07527208328247
 30
0.0
 11
5.398659229278564
 21
4.07527208328247
 31
0.0
  0
LINE
  5
2B3
330
7D
100
AcDbEntity
 67
     1
  8
1
  6
Continuous
 62
    21
370
    18
100
AcDbLine
 10
5.388659477233886
 20
4.159685134887695
 30
0.0
 11
5.398659229278564
 21
4.159685134887695
 31
0.0
  0
LINE
  5
2B4
330
7D
100
AcDbEntity
 67
     1
  8
1
  6
Continuous
 62
    21
370
    18
100
AcDbLine
 10
5.388659477233886
 20
4.159685134887695
 30
0.0
 11
5.388659477233886
 21
4.253888607025146
 31
0.0
  0
LINE
  5
2B5
330
7D
100
AcDbEntity
 67
     1
  8
1
  6
Continuous
 62
    21
370
    18
100
AcDbLine
 10
5.388659477233886
 20
4.278059005737304
 30
0.0
 11
5.398659229278564
 21
4.278059005737304
 31
0.0
  0
LINE
  5
2B6
330
7D
100
AcDbEntity
 67
     1
  8
1
  6
Continuous
 62
    21
370
    18
100
AcDbLine
 10
5.388659477233886
 20
4.253888607025146
 30
0.0
 11
5.388659477233886
 21
4.278059005737304
 31
0.0
  0
LINE
  5
2B7
330
7D
100
AcDbEntity
 67
     1
  8
1
  6
Continuous
 62
    21
370
    18
100
AcDbLine
 10
5.388659477233886
 20
4.253888607025146
 30
0.0
 11
5.398659229278564
 21
4.253888607025146
 31
0.0
  0
LINE
  5
2B8
330
7D
100
AcDbEntity
 67
     1
  8
1
  6
Continuous
 62
    21
370
    18
100
AcDbLine
 10
5.388659477233886
 20
4.314314365386962
 30
0.0
 11
5.398659229278564
 21
4.314314365386962
 31
0.0
  0
LINE
  5
2B9
330
7D
100
AcDbEntity
 67
     1
  8
1
  6
Continuous
 62
    21
370
    18
100
AcDbLine
 10
5.388659477233886
 20
4.314314365386962
 30
0.0
 11
5.388659477233886
 21
4.309786319732666
 31
0.0
  0
LINE
  5
2BA
330
7D
100
AcDbEntity
 67
     1
  8
1
  6
Continuous
 62
    21
370
    18
100
AcDbLine
 10
5.388659477233886
 20
4.309786319732666
 30
0.0
 11
5.388659477233886
 21
4.296974182128906
 31
0.0
  0
LINE
  5
2BB
330
7D
100
AcDbEntity
 67
     1
  8
1
  6
Continuous
 62
    21
370
    18
100
AcDbLine
 10
5.388659477233886
 20
4.296974182128906
 30
0.0
 11
5.388659477233886
 21
4.278059005737304
 31
0.0
  0
ARC
  5
44C
330
7D
100
AcDbEntity
 67
     1
  8
1
  6
Continuous
 62
    21
370
    18
100
AcDbCircle
 10
1.992606043815612
 20
4.799769878387451
 30
0.0
 40
0.0080000003799796
100
AcDbArc
 50
180.0
 51
270.0
  0
ARC
  5
44D
330
7D
100
AcDbEntity
 67
     1
  8
1
  6
Continuous
 62
    21
370
    18
100
AcDbCircle
 10
1.992606043815612
 20
6.133322715759277
 30
0.0
 40
0.0080000003799796
100
AcDbArc
 50
90.0
 51
180.0
  0
ARC
  5
44E
330
7D
100
AcDbEntity
 67
     1
  8
1
  6
Continuous
 62
    21
370
    18
100
AcDbCircle
 10
3.555657148361206
 20
6.133322715759277
 30
0.0
 40
0.0080000003799796
100
AcDbArc
 50
0.0
 51
90.0
  0
ARC
  5
44F
330
7D
100
AcDbEntity
 67
     1
  8
1
  6
Continuous
 62
    21
370
    18
100
AcDbCircle
 10
3.555657148361206
 20
4.799769878387451
 30
0.0
 40
0.0080000003799796
100
AcDbArc
 50
270.0
 51
0.0
  0
CIRCLE
  5
450
330
7D
100
AcDbEntity
 67
     1
  8
1
  6
Continuous
 62
    21
370
    18
100
AcDbCircle
 10
1.586131572723388
 20
5.712511539459228
 30
0.0
 40
0.1360000073909759
  0
CIRCLE
  5
451
330
7D
100
AcDbEntity
 67
     1
  8
1
  6
Continuous
 62
    21
370
    18
100
AcDbCircle
 10
3.962131738662719
 20
5.712511539459228
 30
0.0
 40
0.1360000073909759
  0
ARC
  5
452
330
7D
100
AcDbEntity
 67
     1
  8
1
  6
Continuous
 62
    21
370
    18
100
AcDbCircle
 10
2.062997102737426
 20
6.629336833953857
 30
0.0
 40
0.0099999997764826
100
AcDbArc
 50
90.0
 51
180.0
  0
ARC
  5
453
330
7D
100
AcDbEntity
 67
     1
  8
1
  6
Continuous
 62
    21
370
    18
100
AcDbCircle
 10
3.485266208648681
 20
6.28906774520874
 30
0.0
 40
0.0099999997764826
100
AcDbArc
 50
270.0
 51
0.0
  0
ARC
  5
454
330
7D
100
AcDbEntity
 67
     1
  8
1
  6
Continuous
 62
    21
370
    18
100
AcDbCircle
 10
2.062997102737426
 20
6.28906774520874
 30
0.0
 40
0.0099999997764826
100
AcDbArc
 50
180.0
 51
270.0
  0
ARC
  5
455
330
7D
100
AcDbEntity
 67
     1
  8
1
  6
Continuous
 62
    21
370
    18
100
AcDbCircle
 10
3.485266208648681
 20
6.629336833953857
 30
0.0
 40
0.0099999997764826
100
AcDbArc
 50
0.0
 51
90.0
  0
CIRCLE
  5
456
330
7D
100
AcDbEntity
 67
     1
  8
1
  6
Continuous
 62
    21
370
    18
100
AcDbCircle
 10
1.586131572723388
 20
5.712511539459228
 30
0.0
 40
0.0759999975562096
  0
CIRCLE
  5
457
330
7D
100
AcDbEntity
 67
     1
  8
1
  6
Continuous
 62
    21
370
    18
100
AcDbCircle
 10
1.586131572723388
 20
5.712511539459228
 30
0.0
 40
0.0769999995827675
  0
CIRCLE
  5
458
330
7D
100
AcDbEntity
 67
     1
  8
1
  6
Continuous
 62
    21
370
    18
100
AcDbCircle
 10
1.586131572723388
 20
5.712511539459228
 30
0.0
 40
0.135000005364418
  0
CIRCLE
  5
459
330
7D
100
AcDbEntity
 67
     1
  8
1
  6
Continuous
 62
    21
370
    18
100
AcDbCircle
 10
3.962131738662719
 20
5.712511539459228
 30
0.0
 40
0.0759999975562096
  0
CIRCLE
  5
45A
330
7D
100
AcDbEntity
 67
     1
  8
1
  6
Continuous
 62
    21
370
    18
100
AcDbCircle
 10
3.962131738662719
 20
5.712511539459228
 30
0.0
 40
0.135000005364418
  0
CIRCLE
  5
45B
330
7D
100
AcDbEntity
 67
     1
  8
1
  6
Continuous
 62
    21
370
    18
100
AcDbCircle
 10
3.962131738662719
 20
5.712511539459228
 30
0.0
 40
0.0769999995827675
  0
ARC
  5
45C
330
7D
100
AcDbEntity
 67
     1
  8
1
  6
Continuous
 62
    21
370
    18
100
AcDbCircle
 10
3.485266208648681
 20
6.629336833953857
 30
0.0
 40
0.0094763478264213
100
AcDbArc
 50
0.0
 51
90.0
  0
ARC
  5
45D
330
7D
100
AcDbEntity
 67
     1
  8
1
  6
Continuous
 62
    21
370
    18
100
AcDbCircle
 10
3.485266208648681
 20
6.28906774520874
 30
0.0
 40
0.0094763478264213
100
AcDbArc
 50
270.0
 51
0.0
  0
ARC
  5
45E
330
7D
100
AcDbEntity
 67
     1
  8
1
  6
Continuous
 62
    21
370
    18
100
AcDbCircle
 10
2.062997102737426
 20
6.629336833953857
 30
0.0
 40
0.0094763478264213
100
AcDbArc
 50
90.0
 51
180.0
  0
ARC
  5
45F
330
7D
100
AcDbEntity
 67
     1
  8
1
  6
Continuous
 62
    21
370
    18
100
AcDbCircle
 10
2.062997102737426
 20
6.28906774520874
 30
0.0
 40
0.0094763478264213
100
AcDbArc
 50
180.0
 51
270.0
  0
ARC
  5
460
330
7D
100
AcDbEntity
 67
     1
  8
1
  6
Continuous
 62
    21
370
    18
100
AcDbCircle
 10
4.140182495117187
 20
4.192919254302978
 30
0.0
 40
0.0060425689443946
100
AcDbArc
 50
180.0
 51
270.0
  0
ARC
  5
461
330
7D
100
AcDbEntity
 67
     1
  8
1
  6
Continuous
 62
    21
370
    18
100
AcDbCircle
 10
4.148702144622802
 20
4.192919254302978
 30
0.0
 40
0.0060425689443946
100
AcDbArc
 50
270.0
 51
0.0
  0
ARC
  5
462
330
7D
100
AcDbEntity
 67
     1
  8
1
  6
Continuous
 62
    21
370
    18
100
AcDbCircle
 10
4.158309936523437
 20
4.18083381652832
 30
0.0
 40
0.0211489908397198
100
AcDbArc
 50
270.0
 51
0.0
  0
ARC
  5
463
330
7D
100
AcDbEntity
 67
     1
  8
1
  6
Continuous
 62
    21
370
    18
100
AcDbCircle
 10
4.116193294525146
 20
4.18083381652832
 30
0.0
 40
0.0211489908397198
100
AcDbArc
 50
180.0
 51
270.0
  0
ARC
  5
464
330
7D
100
AcDbEntity
 67
     1
  8
1
  6
Continuous
 62
    21
370
    18
100
AcDbCircle
 10
3.741554021835327
 20
4.279569625854492
 30
0.0
 40
0.0075532114133239
100
AcDbArc
 50
0.0
 51
90.0
  0
ARC
  5
465
330
7D
100
AcDbEntity
 67
     1
  8
1
  6
Continuous
 62
    21
370
    18
100
AcDbCircle
 10
3.764334440231323
 20
4.261139869689941
 30
0.0
 40
0.0531746037304402
100
AcDbArc
 50
18.55300105801696
 51
90.0
  0
ARC
  5
466
330
7D
100
AcDbEntity
 67
     1
  8
1
  6
Continuous
 62
    21
370
    18
100
AcDbCircle
 10
3.764334440231323
 20
4.261139869689941
 30
0.0
 40
0.0531746037304402
100
AcDbArc
 50
270.0
 51
295.9858204950424
  0
ARC
  5
467
330
7D
100
AcDbEntity
 67
     1
  8
1
  6
Continuous
 62
    21
370
    18
100
AcDbCircle
 10
3.741554021835327
 20
4.2402925491333
 30
0.0
 40
0.0075532114133239
100
AcDbArc
 50
270.0
 51
0.0
  0
ARC
  5
468
330
7D
100
AcDbEntity
 67
     1
  8
1
  6
Continuous
 62
    21
370
    18
100
AcDbCircle
 10
4.036401271820068
 20
4.192919254302978
 30
0.0
 40
0.0060425689443946
100
AcDbArc
 50
270.0
 51
0.0
  0
ARC
  5
469
330
7D
100
AcDbEntity
 67
     1
  8
1
  6
Continuous
 62
    21
370
    18
100
AcDbCircle
 10
4.036401271820068
 20
4.247302532196044
 30
0.0
 40
0.0060425689443946
100
AcDbArc
 50
0.0
 51
90.0
  0
ARC
  5
46A
330
7D
100
AcDbEntity
 67
     1
  8
1
  6
Continuous
 62
    21
370
    18
100
AcDbCircle
 10
4.05576753616333
 20
4.256910324096679
 30
0.0
 40
0.0211489908397198
100
AcDbArc
 50
0.0
 51
90.0
  0
ARC
  5
46B
330
7D
100
AcDbEntity
 67
     1
  8
1
  6
Continuous
 62
    21
370
    18
100
AcDbCircle
 10
4.05576753616333
 20
4.18083381652832
 30
0.0
 40
0.0211489908397198
100
AcDbArc
 50
270.0
 51
0.0
  0
ARC
  5
46C
330
7D
100
AcDbEntity
 67
     1
  8
1
  6
Continuous
 62
    21
370
    18
100
AcDbCircle
 10
5.414284229278564
 20
7.36533784866333
 30
0.0
 40
0.015625
100
AcDbArc
 50
93.99999998726284
 51
180.0
  0
ARC
  5
46D
330
7D
100
AcDbEntity
 67
     1
  8
1
  6
Continuous
 62
    21
370
    18
100
AcDbCircle
 10
5.414284229278564
 20
4.059685230255126
 30
0.0
 40
0.015625
100
AcDbArc
 50
180.0
 51
266.0000000127372
  0
ENDSEC
  0
SECTION
  2
OBJECTS
  0
DICTIONARY
  5
C
330
0
100
AcDbDictionary
281
     1
  3
ACAD_CIP_PREVIOUS_PRODUCT_INFO
350
58D
  3
ACAD_COLOR
350
582
  3
ACAD_DETAILVIEWSTYLE
350
534
  3
ACAD_GROUP
350
D
  3
ACAD_LAYOUT
350
1A
  3
ACAD_MATERIAL
350
43
  3
ACAD_MLEADERSTYLE
350
533
  3
ACAD_MLINESTYLE
350
17
  3
ACAD_PLOTSETTINGS
350
19
  3
ACAD_PLOTSTYLENAME
350
E
  3
ACAD_SCALELIST
350
47
  3
ACAD_SECTIONVIEWSTYLE
350
535
  3
ACAD_TABLESTYLE
350
532
  3
ACAD_VISUALSTYLE
350
2A
  3
ACDB_RECOMPOSE_DATA
350
59E
  3
AcDbVariableDictionary
350
4F9
  0
DICTIONARY
  5
548
330
8
100
AcDbDictionary
280
     1
281
     1
  0
SUN
  5
69
330
29
100
AcDbSun
 90
        1
290
     0
 63
     7
421
 16777215
 40
1.0
291
     1
 91
  2455826
 92
 54000000
292
     0
 70
     0
 71
   256
280
     1
  0
XRECORD
  5
58D
102
{ACAD_REACTORS
330
C
102
}
330
C
100
AcDbXrecord
280
     1
300
ACD
300
2012
300
85730ACD_2012_0F
  0
DICTIONARY
  5
582
102
{ACAD_REACTORS
330
C
102
}
330
C
100
AcDbDictionary
281
     1
  0
DICTIONARY
  5
534
102
{ACAD_REACTORS
330
C
102
}
330
C
100
AcDbDictionary
281
     1
  0
DICTIONARY
  5
D
102
{ACAD_REACTORS
330
C
102
}
330
C
100
AcDbDictionary
281
     1
  0
DICTIONARY
  5
1A
102
{ACAD_REACTORS
330
C
102
}
330
C
100
AcDbDictionary
281
     1
  3
Model
350
22
  3
SH1
350
4CE
  0
DICTIONARY
  5
43
102
{ACAD_REACTORS
330
C
102
}
330
C
100
AcDbDictionary
281
     1
  3
ByBlock
350
45
  3
ByLayer
350
44
  3
Global
350
46
  0
DICTIONARY
  5
533
102
{ACAD_REACTORS
330
C
102
}
330
C
100
AcDbDictionary
281
     1
  3
Standard
350
584
  0
DICTIONARY
  5
17
102
{ACAD_REACTORS
330
C
102
}
330
C
100
AcDbDictionary
281
     1
  3
Standard
350
18
  0
DICTIONARY
  5
19
102
{ACAD_REACTORS
330
C
102
}
330
C
100
AcDbDictionary
281
     1
  0
ACDBDICTIONARYWDFLT
  5
E
102
{ACAD_REACTORS
330
C
102
}
330
C
100
AcDbDictionary
281
     1
  3
Normal
350
F
100
AcDbDictionaryWithDefault
340
F
  0
DICTIONARY
  5
47
102
{ACAD_REACTORS
330
C
102
}
330
C
100
AcDbDictionary
281
     1
  3
A0
350
48
  3
A1
350
49
  3
A2
350
4A
  3
A3
350
4B
  3
A4
350
4C
  3
A5
350
4D
  3
A6
350
4E
  3
A7
350
4F
  3
A8
350
50
  3
A9
350
51
  3
B0
350
52
  3
B1
350
53
  3
B2
350
54
  3
B3
350
55
  3
B4
350
56
  3
B5
350
57
  3
B6
350
58
  3
B7
350
59
  3
B8
350
5A
  3
B9
350
5B
  3
C0
350
5C
  3
C1
350
5D
  3
C2
350
5E
  3
C3
350
5F
  3
C4
350
60
  3
C5
350
61
  3
C6
350
62
  3
C7
350
63
  3
C8
350
64
  3
C9
350
65
  3
D0
350
66
  3
D1
350
67
  3
D2
350
68
  0
DICTIONARY
  5
535
102
{ACAD_REACTORS
330
C
102
}
330
C
100
AcDbDictionary
281
     1
  0
DICTIONARY
  5
532
102
{ACAD_REACTORS
330
C
102
}
330
C
100
AcDbDictionary
281
     1
  3
Standard
350
583
  0
DICTIONARY
  5
2A
102
{ACAD_REACTORS
330
C
102
}
330
C
100
AcDbDictionary
281
     1
  3
2dWireframe
350
2F
  3
Basic
350
32
  3
Brighten
350
36
  3
ColorChange
350
3A
  3
Conceptual
350
34
  3
Dim
350
35
  3
EdgeColorOff
350
3D
  3
Facepattern
350
39
  3
Flat
350
2B
  3
FlatWithEdges
350
2C
  3
Gouraud
350
2D
  3
GouraudWithEdges
350
2E
  3
Hidden
350
31
  3
JitterOff
350
3B
  3
Linepattern
350
38
  3
OverhangOff
350
3C
  3
Realistic
350
33
  3
Shaded
350
42
  3
Shaded with edges
350
41
  3
Shades of Gray
350
3E
  3
Sketchy
350
3F
  3
Thicken
350
37
  3
Wireframe
350
30
  3
X-Ray
350
40
  0
XRECORD
  5
59E
102
{ACAD_REACTORS
330
C
102
}
330
C
100
AcDbXrecord
280
     1
 90
        1
330
583
  0
DICTIONARY
  5
4F9
102
{ACAD_REACTORS
330
C
102
}
330
C
100
AcDbDictionary
281
     1
  3
CANNOSCALE
350
4FA
  3
CMLEADERSTYLE
350
596
  3
CTABLESTYLE
350
595
  3
LAYEREVAL
350
598
  3
LAYERNOTIFY
350
599
  3
LIGHTINGUNITS
350
597
  3
MSLTSCALE
350
4FB
  0
LAYOUT
  5
22
102
{ACAD_REACTORS
330
1A
102
}
330
1A
100
AcDbPlotSettings
  1

  2
none_device
  4
Letter_(8.50_x_11.00_Inches)
  6

 40
6.349999999999999
 41
6.349999999999999
 42
6.350005079999999
 43
6.350005079999999
 44
215.9
 45
279.4
 46
0.0
 47
0.0
 48
0.0
 49
0.0
140
0.0
141
0.0
142
1.0
143
1.0
 70
  1712
 72
     0
 73
     0
 74
     0
  7

 75
     0
147
1.0
 76
     0
 77
     2
 78
   300
148
0.0
149
0.0
100
AcDbLayout
  1
Model
 70
     1
 71
     0
 10
-0.5
 20
-0.5
 11
5.0
 21
5.0
 12
0.0
 22
0.0
 32
0.0
 14
-0.5
 24
-0.5
 34
-0.5
 15
5.0
 25
5.0
 35
5.0
146
0.0
 13
0.0
 23
0.0
 33
0.0
 16
1.0
 26
0.0
 36
0.0
 17
0.0
 27
1.0
 37
0.0
 76
     0
330
1F
  0
LAYOUT
  5
4CE
102
{ACAD_REACTORS
330
1A
102
}
330
1A
100
AcDbPlotSettings
  1

  2
none_device
  4
ISO_B4_(250.00_x_354.00_MM)
  6

 40
7.5
 41
20.0
 42
7.5
 43
20.0
 44
250.0
 45
354.0
 46
0.0
 47
6.861111111111114
 48
0.0
 49
0.0
140
13.0
141
10.5
142
1.0
143
0.9727659574468084
 70
   692
 72
     0
 73
     1
 74
     1
  7

 75
     0
147
1.027996500437445
 76
     0
 77
     2
 78
   300
148
12.7
149
12.7
100
AcDbLayout
  1
SH1
 70
     1
 71
     1
 10
0.0
 20
0.0
 11
11.0
 21
8.5
 12
0.0
 22
0.0
 32
0.0
 14
1.080596950697479
 24
4.019134545953868
 34
-0.0015258207003583
 15
5.765197773423512
 25
7.40559389058686
 35
0.0000000349246037
146
0.0
 13
0.0
 23
0.0
 33
0.0
 16
1.0
 26
0.0
 36
0.0
 17
0.0
 27
1.0
 37
0.0
 76
     0
330
7D
331
80
  0
MATERIAL
  5
45
102
{ACAD_REACTORS
330
43
102
}
330
43
100
AcDbMaterial
  1
ByBlock
 73
     1
 78
     1
172
     1
176
     1
270
     1
274
     1
  0
MATERIAL
  5
44
102
{ACAD_REACTORS
330
43
102
}
330
43
100
AcDbMaterial
  1
ByLayer
 73
     1
 78
     1
172
     1
176
     1
270
     1
274
     1
  0
MATERIAL
  5
46
102
{ACAD_REACTORS
330
43
102
}
330
43
100
AcDbMaterial
  1
Global
 73
     1
 78
     1
172
     1
176
     1
270
     1
274
     1
  0
MLEADERSTYLE
  5
584
102
{ACAD_XDICTIONARY
360
59C
102
}
102
{ACAD_REACTORS
330
533
102
}
330
533
100
AcDbMLeaderStyle
179
     2
170
     2
171
     1
172
     0
 90
        2
 40
0.0
 41
0.0
173
     1
 91
-1056964608
340
14
 92
       -2
290
     1
 42
0.09
291
     1
 43
0.36
  3
Standard
 44
0.18
300

342
11
174
     1
178
     6
175
     1
176
     0
 93
-1056964608
 45
0.18
292
     0
297
     0
 46
0.18
 94
-1056964608
 47
1.0
 49
1.0
140
1.0
293
     1
141
0.0
294
     1
177
     0
142
1.0
295
     0
296
     0
143
0.125
271
     0
272
     9
273
     9
  0
MLINESTYLE
  5
18
102
{ACAD_REACTORS
330
17
102
}
330
17
100
AcDbMlineStyle
  2
STANDARD
 70
     0
  3

 62
   256
 51
90.0
 52
90.0
 71
     2
 49
0.5
 62
   256
  6
BYLAYER
 49
-0.5
 62
   256
  6
BYLAYER
  0
ACDBPLACEHOLDER
  5
F
102
{ACAD_REACTORS
330
E
102
}
330
E
  0
SCALE
  5
48
102
{ACAD_REACTORS
330
47
102
}
330
47
100
AcDbScale
 70
     0
300
1:1
140
1.0
141
1.0
290
     1
  0
SCALE
  5
49
102
{ACAD_REACTORS
330
47
102
}
330
47
100
AcDbScale
 70
     0
300
1:2
140
1.0
141
2.0
290
     0
  0
SCALE
  5
4A
102
{ACAD_REACTORS
330
47
102
}
330
47
100
AcDbScale
 70
     0
300
1:4
140
1.0
141
4.0
290
     0
  0
SCALE
  5
4B
102
{ACAD_REACTORS
330
47
102
}
330
47
100
AcDbScale
 70
     0
300
1:5
140
1.0
141
5.0
290
     0
  0
SCALE
  5
4C
102
{ACAD_REACTORS
330
47
102
}
330
47
100
AcDbScale
 70
     0
300
1:8
140
1.0
141
8.0
290
     0
  0
SCALE
  5
4D
102
{ACAD_REACTORS
330
47
102
}
330
47
100
AcDbScale
 70
     0
300
1:10
140
1.0
141
10.0
290
     0
  0
SCALE
  5
4E
102
{ACAD_REACTORS
330
47
102
}
330
47
100
AcDbScale
 70
     0
300
1:16
140
1.0
141
16.0
290
     0
  0
SCALE
  5
4F
102
{ACAD_REACTORS
330
47
102
}
330
47
100
AcDbScale
 70
     0
300
1:20
140
1.0
141
20.0
290
     0
  0
SCALE
  5
50
102
{ACAD_REACTORS
330
47
102
}
330
47
100
AcDbScale
 70
     0
300
1:30
140
1.0
141
30.0
290
     0
  0
SCALE
  5
51
102
{ACAD_REACTORS
330
47
102
}
330
47
100
AcDbScale
 70
     0
300
1:40
140
1.0
141
40.0
290
     0
  0
SCALE
  5
52
102
{ACAD_REACTORS
330
47
102
}
330
47
100
AcDbScale
 70
     0
300
1:50
140
1.0
141
50.0
290
     0
  0
SCALE
  5
53
102
{ACAD_REACTORS
330
47
102
}
330
47
100
AcDbScale
 70
     0
300
1:100
140
1.0
141
100.0
290
     0
  0
SCALE
  5
54
102
{ACAD_REACTORS
330
47
102
}
330
47
100
AcDbScale
 70
     0
300
2:1
140
2.0
141
1.0
290
     0
  0
SCALE
  5
55
102
{ACAD_REACTORS
330
47
102
}
330
47
100
AcDbScale
 70
     0
300
4:1
140
4.0
141
1.0
290
     0
  0
SCALE
  5
56
102
{ACAD_REACTORS
330
47
102
}
330
47
100
AcDbScale
 70
     0
300
8:1
140
8.0
141
1.0
290
     0
  0
SCALE
  5
57
102
{ACAD_REACTORS
330
47
102
}
330
47
100
AcDbScale
 70
     0
300
10:1
140
10.0
141
1.0
290
     0
  0
SCALE
  5
58
102
{ACAD_REACTORS
330
47
102
}
330
47
100
AcDbScale
 70
     0
300
100:1
140
100.0
141
1.0
290
     0
  0
SCALE
  5
59
102
{ACAD_REACTORS
330
47
102
}
330
47
100
AcDbScale
 70
     0
300
1/128" = 1'-0"
140
0.0078125
141
12.0
290
     0
  0
SCALE
  5
5A
102
{ACAD_REACTORS
330
47
102
}
330
47
100
AcDbScale
 70
     0
300
1/64" = 1'-0"
140
0.015625
141
12.0
290
     0
  0
SCALE
  5
5B
102
{ACAD_REACTORS
330
47
102
}
330
47
100
AcDbScale
 70
     0
300
1/32" = 1'-0"
140
0.03125
141
12.0
290
     0
  0
SCALE
  5
5C
102
{ACAD_REACTORS
330
47
102
}
330
47
100
AcDbScale
 70
     0
300
1/16" = 1'-0"
140
0.0625
141
12.0
290
     0
  0
SCALE
  5
5D
102
{ACAD_REACTORS
330
47
102
}
330
47
100
AcDbScale
 70
     0
300
3/32" = 1'-0"
140
0.09375
141
12.0
290
     0
  0
SCALE
  5
5E
102
{ACAD_REACTORS
330
47
102
}
330
47
100
AcDbScale
 70
     0
300
1/8" = 1'-0"
140
0.125
141
12.0
290
     0
  0
SCALE
  5
5F
102
{ACAD_REACTORS
330
47
102
}
330
47
100
AcDbScale
 70
     0
300
3/16" = 1'-0"
140
0.1875
141
12.0
290
     0
  0
SCALE
  5
60
102
{ACAD_REACTORS
330
47
102
}
330
47
100
AcDbScale
 70
     0
300
1/4" = 1'-0"
140
0.25
141
12.0
290
     0
  0
SCALE
  5
61
102
{ACAD_REACTORS
330
47
102
}
330
47
100
AcDbScale
 70
     0
300
3/8" = 1'-0"
140
0.375
141
12.0
290
     0
  0
SCALE
  5
62
102
{ACAD_REACTORS
330
47
102
}
330
47
100
AcDbScale
 70
     0
300
1/2" = 1'-0"
140
0.5
141
12.0
290
     0
  0
SCALE
  5
63
102
{ACAD_REACTORS
330
47
102
}
330
47
100
AcDbScale
 70
     0
300
3/4" = 1'-0"
140
0.75
141
12.0
290
     0
  0
SCALE
  5
64
102
{ACAD_REACTORS
330
47
102
}
330
47
100
AcDbScale
 70
     0
300
1" = 1'-0"
140
1.0
141
12.0
290
     0
  0
SCALE
  5
65
102
{ACAD_REACTORS
330
47
102
}
330
47
100
AcDbScale
 70
     0
300
1-1/2" = 1'-0"
140
1.5
141
12.0
290
     0
  0
SCALE
  5
66
102
{ACAD_REACTORS
330
47
102
}
330
47
100
AcDbScale
 70
     0
300
3" = 1'-0"
140
3.0
141
12.0
290
     0
  0
SCALE
  5
67
102
{ACAD_REACTORS
330
47
102
}
330
47
100
AcDbScale
 70
     0
300
6" = 1'-0"
140
6.0
141
12.0
290
     0
  0
SCALE
  5
68
102
{ACAD_REACTORS
330
47
102
}
330
47
100
AcDbScale
 70
     0
300
1'-0" = 1'-0"
140
12.0
141
12.0
290
     0
  0
TABLESTYLE
  5
583
102
{ACAD_XDICTIONARY
360
59A
102
}
102
{ACAD_REACTORS
330
532
102
}
330
532
100
AcDbTableStyle
280
     0
  3
Standard
 70
     0
 71
     0
 40
0.06
 41
0.06
280
     0
281
     0
  7
Standard
140
0.18
170
     2
 62
     0
 63
     7
283
     0
 90
      512
 91
        0
  1

274
    -2
284
     1
 64
     0
275
    -2
285
     1
 65
     0
276
    -2
286
     1
 66
     0
277
    -2
287
     1
 67
     0
278
    -2
288
     1
 68
     0
279
    -2
289
     1
 69
     0
  7
Standard
140
0.25
170
     5
 62
     0
 63
     7
283
     0
 90
      512
 91
        0
  1

274
    -2
284
     1
 64
     0
275
    -2
285
     1
 65
     0
276
    -2
286
     1
 66
     0
277
    -2
287
     1
 67
     0
278
    -2
288
     1
 68
     0
279
    -2
289
     1
 69
     0
  7
Standard
140
0.18
170
     5
 62
     0
 63
     7
283
     0
 90
      512
 91
        0
  1

274
    -2
284
     1
 64
     0
275
    -2
285
     1
 65
     0
276
    -2
286
     1
 66
     0
277
    -2
287
     1
 67
     0
278
    -2
288
     1
 68
     0
279
    -2
289
     1
 69
     0
  0
VISUALSTYLE
  5
2F
102
{ACAD_XDICTIONARY
360
552
102
}
102
{ACAD_REACTORS
330
2A
102
}
330
2A
100
AcDbVisualStyle
  2
2dWireframe
 70
     4
177
     2
291
     0
 71
     0
176
     1
 72
     2
176
     1
 73
     0
176
     1
 90
        0
176
     1
 40
0.6
176
     1
 41
30.0
176
     1
 63
     7
421
 16777215
176
     1
 74
     1
176
     1
 91
        4
176
     1
 64
     7
176
     1
 65
   257
176
     1
 75
     1
176
     1
175
     1
176
     1
 42
1.0
176
     1
 92
        0
176
     1
 66
   257
176
     1
 43
1.0
176
     1
 76
     1
176
     1
 77
     6
176
     1
 78
     2
176
     1
 67
     7
176
     1
 79
     5
176
     1
170
     0
176
     1
171
     0
176
     1
290
     0
176
     1
 93
        1
176
     1
 44
0.0
176
     1
173
     0
176
     1
  0
VISUALSTYLE
  5
32
102
{ACAD_XDICTIONARY
360
558
102
}
102
{ACAD_REACTORS
330
2A
102
}
330
2A
100
AcDbVisualStyle
  2
Basic
 70
     7
177
     2
291
     1
 71
     1
176
     1
 72
     0
176
     1
 73
     1
176
     1
 90
        0
176
     1
 40
0.6
176
     1
 41
30.0
176
     1
 63
     7
421
 16777215
176
     1
 74
     0
176
     1
 91
        4
176
     1
 64
     7
176
     1
 65
   257
176
     1
 75
     1
176
     1
175
     1
176
     1
 42
1.0
176
     1
 92
        8
176
     1
 66
     7
176
     1
 43
1.0
176
     1
 76
     1
176
     1
 77
     6
176
     1
 78
     2
176
     1
 67
     7
176
     1
 79
     5
176
     1
170
     0
176
     1
171
     0
176
     1
290
     0
176
     1
 93
        1
176
     1
 44
0.0
176
     1
173
     0
176
     1
  0
VISUALSTYLE
  5
36
102
{ACAD_XDICTIONARY
360
560
102
}
102
{ACAD_REACTORS
330
2A
102
}
330
2A
100
AcDbVisualStyle
  2
Brighten
 70
    12
177
     2
291
     1
 71
     2
176
     1
 72
     2
176
     1
 73
     0
176
     1
 90
        0
176
     1
 40
0.6
176
     1
 41
30.0
176
     1
 63
     7
421
 16777215
176
     1
 74
     1
176
     1
 91
        4
176
     1
 64
     7
176
     1
 65
   257
176
     1
 75
     1
176
     1
175
     1
176
     1
 42
1.0
176
     1
 92
        8
176
     1
 66
     7
176
     1
 43
1.0
176
     1
 76
     1
176
     1
 77
     6
176
     1
 78
     2
176
     1
 67
     7
176
     1
 79
     5
176
     1
170
     0
176
     1
171
     0
176
     1
290
     0
176
     1
 93
        1
176
     1
 44
50.0
176
     1
173
     0
176
     1
  0
VISUALSTYLE
  5
3A
102
{ACAD_XDICTIONARY
360
568
102
}
102
{ACAD_REACTORS
330
2A
102
}
330
2A
100
AcDbVisualStyle
  2
ColorChange
 70
    16
177
     2
291
     1
 71
     2
176
     1
 72
     2
176
     1
 73
     3
176
     1
 90
        0
176
     1
 40
0.6
176
     1
 41
30.0
176
     1
 63
     8
421
  8421504
176
     1
 74
     1
176
     1
 91
        4
176
     1
 64
     7
176
     1
 65
   257
176
     1
 75
     1
176
     1
175
     1
176
     1
 42
1.0
176
     1
 92
        8
176
     1
 66
     8
424
  8421504
176
     1
 43
1.0
176
     1
 76
     1
176
     1
 77
     6
176
     1
 78
     2
176
     1
 67
     7
176
     1
 79
     5
176
     1
170
     0
176
     1
171
     0
176
     1
290
     0
176
     1
 93
        1
176
     1
 44
0.0
176
     1
173
     0
176
     1
  0
VISUALSTYLE
  5
34
102
{ACAD_XDICTIONARY
360
55C
102
}
102
{ACAD_REACTORS
330
2A
102
}
330
2A
100
AcDbVisualStyle
  2
Conceptual
 70
     9
177
     2
291
     0
 71
     3
176
     1
 72
     2
176
     1
 73
     0
176
     1
 90
        0
176
     1
 40
0.6
176
     1
 41
30.0
176
     1
 63
     7
421
 16777215
176
     1
 74
     2
176
     1
 91
        2
176
     1
 64
     7
176
     1
 65
   257
176
     1
 75
     1
176
     1
175
     1
176
     1
 42
179.0
176
     1
 92
        8
176
     1
 66
     7
176
     1
 43
1.0
176
     1
 76
     1
176
     1
 77
     6
176
     1
 78
     2
176
     1
 67
     7
176
     1
 79
     3
176
     1
170
     0
176
     1
171
     0
176
     1
290
     0
176
     1
 93
        1
176
     1
 44
0.0
176
     1
173
     0
176
     1
  0
VISUALSTYLE
  5
35
102
{ACAD_XDICTIONARY
360
55E
102
}
102
{ACAD_REACTORS
330
2A
102
}
330
2A
100
AcDbVisualStyle
  2
Dim
 70
    11
177
     2
291
     1
 71
     2
176
     1
 72
     2
176
     1
 73
     0
176
     1
 90
        0
176
     1
 40
0.6
176
     1
 41
30.0
176
     1
 63
     7
421
 16777215
176
     1
 74
     1
176
     1
 91
        4
176
     1
 64
     7
176
     1
 65
   257
176
     1
 75
     1
176
     1
175
     1
176
     1
 42
1.0
176
     1
 92
        8
176
     1
 66
     7
176
     1
 43
1.0
176
     1
 76
     1
176
     1
 77
     6
176
     1
 78
     2
176
     1
 67
     7
176
     1
 79
     5
176
     1
170
     0
176
     1
171
     0
176
     1
290
     0
176
     1
 93
        1
176
     1
 44
-50.0
176
     1
173
     0
176
     1
  0
VISUALSTYLE
  5
3D
102
{ACAD_XDICTIONARY
360
56E
102
}
102
{ACAD_REACTORS
330
2A
102
}
330
2A
100
AcDbVisualStyle
  2
EdgeColorOff
 70
    22
177
     2
291
     1
 71
     2
176
     0
 72
     2
176
     0
 73
     0
176
     0
 90
        0
176
     0
 40
0.6
176
     0
 41
30.0
176
     0
 63
     7
421
 16777215
176
     0
 74
     1
176
     0
 91
        4
176
     0
 64
     7
176
     0
 65
   257
176
     0
 75
     1
176
     0
175
     1
176
     0
 42
1.0
176
     0
 92
        8
176
     2
 66
     7
176
     0
 43
1.0
176
     0
 76
     1
176
     0
 77
     6
176
     0
 78
     2
176
     0
 67
     7
176
     0
 79
     5
176
     0
170
     0
176
     0
171
     0
176
     0
290
     0
176
     0
 93
        1
176
     0
 44
0.0
176
     0
173
     0
176
     0
  0
VISUALSTYLE
  5
39
102
{ACAD_XDICTIONARY
360
566
102
}
102
{ACAD_REACTORS
330
2A
102
}
330
2A
100
AcDbVisualStyle
  2
Facepattern
 70
    15
177
     2
291
     1
 71
     2
176
     1
 72
     2
176
     1
 73
     0
176
     1
 90
        0
176
     1
 40
0.6
176
     1
 41
30.0
176
     1
 63
     7
421
 16777215
176
     1
 74
     1
176
     1
 91
        4
176
     1
 64
     7
176
     1
 65
   257
176
     1
 75
     1
176
     1
175
     1
176
     1
 42
1.0
176
     1
 92
        8
176
     1
 66
     7
176
     1
 43
1.0
176
     1
 76
     1
176
     1
 77
     6
176
     1
 78
     2
176
     1
 67
     7
176
     1
 79
     5
176
     1
170
     0
176
     1
171
     0
176
     1
290
     0
176
     1
 93
        1
176
     1
 44
0.0
176
     1
173
     0
176
     1
  0
VISUALSTYLE
  5
2B
102
{ACAD_XDICTIONARY
360
54A
102
}
102
{ACAD_REACTORS
330
2A
102
}
330
2A
100
AcDbVisualStyle
  2
Flat
 70
     0
177
     2
291
     1
 71
     2
176
     1
 72
     1
176
     1
 73
     1
176
     1
 90
        2
176
     1
 40
0.6
176
     1
 41
30.0
176
     1
 63
     7
421
 16777215
176
     1
 74
     0
176
     1
 91
        0
176
     1
 64
     7
176
     1
 65
   257
176
     1
 75
     1
176
     1
175
     1
176
     1
 42
1.0
176
     1
 92
        8
176
     1
 66
     7
176
     1
 43
1.0
176
     1
 76
     1
176
     1
 77
     6
176
     1
 78
     2
176
     1
 67
     7
176
     1
 79
     5
176
     1
170
     0
176
     1
171
     0
176
     1
290
     0
176
     1
 93
       13
176
     1
 44
0.0
176
     1
173
     0
176
     1
  0
VISUALSTYLE
  5
2C
102
{ACAD_XDICTIONARY
360
54C
102
}
102
{ACAD_REACTORS
330
2A
102
}
330
2A
100
AcDbVisualStyle
  2
FlatWithEdges
 70
     1
177
     2
291
     1
 71
     2
176
     1
 72
     1
176
     1
 73
     1
176
     1
 90
        2
176
     1
 40
0.6
176
     1
 41
30.0
176
     1
 63
     7
421
 16777215
176
     1
 74
     1
176
     1
 91
        0
176
     1
 64
     7
176
     1
 65
   257
176
     1
 75
     1
176
     1
175
     1
176
     1
 42
1.0
176
     1
 92
        0
176
     1
 66
   257
176
     1
 43
1.0
176
     1
 76
     1
176
     1
 77
     6
176
     1
 78
     2
176
     1
 67
     7
176
     1
 79
     5
176
     1
170
     0
176
     1
171
     0
176
     1
290
     0
176
     1
 93
       13
176
     1
 44
0.0
176
     1
173
     0
176
     1
  0
VISUALSTYLE
  5
2D
102
{ACAD_XDICTIONARY
360
54E
102
}
102
{ACAD_REACTORS
330
2A
102
}
330
2A
100
AcDbVisualStyle
  2
Gouraud
 70
     2
177
     2
291
     1
 71
     2
176
     1
 72
     2
176
     1
 73
     1
176
     1
 90
        2
176
     1
 40
0.6
176
     1
 41
30.0
176
     1
 63
     7
421
 16777215
176
     1
 74
     0
176
     1
 91
        0
176
     1
 64
     7
176
     1
 65
   257
176
     1
 75
     1
176
     1
175
     1
176
     1
 42
1.0
176
     1
 92
        0
176
     1
 66
     7
176
     1
 43
1.0
176
     1
 76
     1
176
     1
 77
     6
176
     1
 78
     2
176
     1
 67
     7
176
     1
 79
     5
176
     1
170
     0
176
     1
171
     0
176
     1
290
     0
176
     1
 93
       13
176
     1
 44
0.0
176
     1
173
     0
176
     1
  0
VISUALSTYLE
  5
2E
102
{ACAD_XDICTIONARY
360
550
102
}
102
{ACAD_REACTORS
330
2A
102
}
330
2A
100
AcDbVisualStyle
  2
GouraudWithEdges
 70
     3
177
     2
291
     1
 71
     2
176
     1
 72
     2
176
     1
 73
     1
176
     1
 90
        2
176
     1
 40
0.6
176
     1
 41
30.0
176
     1
 63
     7
421
 16777215
176
     1
 74
     1
176
     1
 91
        0
176
     1
 64
     7
176
     1
 65
   257
176
     1
 75
     1
176
     1
175
     1
176
     1
 42
1.0
176
     1
 92
        0
176
     1
 66
   257
176
     1
 43
1.0
176
     1
 76
     1
176
     1
 77
     6
176
     1
 78
     2
176
     1
 67
     7
176
     1
 79
     5
176
     1
170
     0
176
     1
171
     0
176
     1
290
     0
176
     1
 93
       13
176
     1
 44
0.0
176
     1
173
     0
176
     1
  0
VISUALSTYLE
  5
31
102
{ACAD_XDICTIONARY
360
556
102
}
102
{ACAD_REACTORS
330
2A
102
}
330
2A
100
AcDbVisualStyle
  2
Hidden
 70
     6
177
     2
291
     0
 71
     1
176
     1
 72
     2
176
     1
 73
     2
176
     1
 90
        0
176
     1
 40
0.6
176
     1
 41
30.0
176
     1
 63
     7
421
 16777215
176
     1
 74
     2
176
     1
 91
        2
176
     1
 64
     7
176
     1
 65
   257
176
     1
 75
     2
176
     1
175
     1
176
     1
 42
40.0
176
     1
 92
        0
176
     1
 66
   257
176
     1
 43
1.0
176
     1
 76
     1
176
     1
 77
     6
176
     1
 78
     2
176
     1
 67
     7
176
     1
 79
     3
176
     1
170
     0
176
     1
171
     0
176
     1
290
     0
176
     1
 93
        1
176
     1
 44
0.0
176
     1
173
     0
176
     1
  0
VISUALSTYLE
  5
3B
102
{ACAD_XDICTIONARY
360
56A
102
}
102
{ACAD_REACTORS
330
2A
102
}
330
2A
100
AcDbVisualStyle
  2
JitterOff
 70
    20
177
     2
291
     1
 71
     2
176
     0
 72
     2
176
     0
 73
     0
176
     0
 90
        0
176
     0
 40
0.6
176
     0
 41
30.0
176
     0
 63
     7
421
 16777215
176
     0
 74
     1
176
     0
 91
        4
176
     0
 64
     7
176
     0
 65
   257
176
     0
 75
     1
176
     0
175
     1
176
     0
 42
1.0
176
     0
 92
       10
176
     2
 66
     7
176
     0
 43
1.0
176
     0
 76
     1
176
     0
 77
     6
176
     0
 78
     2
176
     0
 67
     7
176
     0
 79
     5
176
     0
170
     0
176
     0
171
     0
176
     0
290
     0
176
     0
 93
        1
176
     0
 44
0.0
176
     0
173
     0
176
     0
  0
VISUALSTYLE
  5
38
102
{ACAD_XDICTIONARY
360
564
102
}
102
{ACAD_REACTORS
330
2A
102
}
330
2A
100
AcDbVisualStyle
  2
Linepattern
 70
    14
177
     2
291
     1
 71
     2
176
     1
 72
     2
176
     1
 73
     0
176
     1
 90
        0
176
     1
 40
0.6
176
     1
 41
30.0
176
     1
 63
     7
421
 16777215
176
     1
 74
     1
176
     1
 91
        4
176
     1
 64
     7
176
     1
 65
   257
176
     1
 75
     7
176
     1
175
     7
176
     1
 42
1.0
176
     1
 92
        8
176
     1
 66
     7
176
     1
 43
1.0
176
     1
 76
     1
176
     1
 77
     6
176
     1
 78
     2
176
     1
 67
     7
176
     1
 79
     5
176
     1
170
     0
176
     1
171
     0
176
     1
290
     0
176
     1
 93
        1
176
     1
 44
0.0
176
     1
173
     0
176
     1
  0
VISUALSTYLE
  5
3C
102
{ACAD_XDICTIONARY
360
56C
102
}
102
{ACAD_REACTORS
330
2A
102
}
330
2A
100
AcDbVisualStyle
  2
OverhangOff
 70
    21
177
     2
291
     1
 71
     2
176
     0
 72
     2
176
     0
 73
     0
176
     0
 90
        0
176
     0
 40
0.6
176
     0
 41
30.0
176
     0
 63
     7
421
 16777215
176
     0
 74
     1
176
     0
 91
        4
176
     0
 64
     7
176
     0
 65
   257
176
     0
 75
     1
176
     0
175
     1
176
     0
 42
1.0
176
     0
 92
        9
176
     2
 66
     7
176
     0
 43
1.0
176
     0
 76
     1
176
     0
 77
     6
176
     0
 78
     2
176
     0
 67
     7
176
     0
 79
     5
176
     0
170
     0
176
     0
171
     0
176
     0
290
     0
176
     0
 93
        1
176
     0
 44
0.0
176
     0
173
     0
176
     0
  0
VISUALSTYLE
  5
33
102
{ACAD_XDICTIONARY
360
55A
102
}
102
{ACAD_REACTORS
330
2A
102
}
330
2A
100
AcDbVisualStyle
  2
Realistic
 70
     8
177
     2
291
     0
 71
     2
176
     1
 72
     3
176
     1
 73
     0
176
     1
 90
        2
176
     1
 40
0.6
176
     1
 41
30.0
176
     1
 63
     7
421
 16777215
176
     1
 74
     0
176
     1
 91
        0
176
     1
 64
     7
176
     1
 65
   257
176
     1
 75
     1
176
     1
175
     1
176
     1
 42
1.0
176
     1
 92
        8
176
     1
 66
   257
176
     1
 43
1.0
176
     1
 76
     1
176
     1
 77
     6
176
     1
 78
     2
176
     1
 67
     7
176
     1
 79
     3
176
     1
170
     0
176
     1
171
     0
176
     1
290
     0
176
     1
 93
       13
176
     1
 44
0.0
176
     1
173
     0
176
     1
  0
VISUALSTYLE
  5
42
102
{ACAD_XDICTIONARY
360
578
102
}
102
{ACAD_REACTORS
330
2A
102
}
330
2A
100
AcDbVisualStyle
  2
Shaded
 70
    27
177
     2
291
     0
 71
     2
176
     1
 72
     2
176
     1
 73
     1
176
     1
 90
        2
176
     1
 40
0.6
176
     1
 41
30.0
176
     1
 63
     7
421
 16777215
176
     1
 74
     0
176
     1
 91
        4
176
     1
 64
     7
176
     1
 65
   257
176
     1
 75
     1
176
     1
175
     1
176
     1
 42
1.0
176
     1
 92
        8
176
     1
 66
   257
176
     1
 43
1.0
176
     1
 76
     1
176
     1
 77
     6
176
     1
 78
     2
176
     1
 67
     8
425
  7895160
176
     1
 79
     3
176
     1
170
     0
176
     1
171
     0
176
     1
290
     0
176
     1
 93
        5
176
     1
 44
0.0
176
     1
173
     0
176
     1
  0
VISUALSTYLE
  5
41
102
{ACAD_XDICTIONARY
360
576
102
}
102
{ACAD_REACTORS
330
2A
102
}
330
2A
100
AcDbVisualStyle
  2
Shaded with edges
 70
    26
177
     2
291
     0
 71
     2
176
     1
 72
     2
176
     1
 73
     1
176
     1
 90
        2
176
     1
 40
0.6
176
     1
 41
30.0
176
     1
 63
     7
421
 16777215
176
     1
 74
     1
176
     1
 91
       10
176
     1
 64
     7
176
     1
 65
   257
176
     1
 75
     2
176
     1
175
     1
176
     1
 42
1.0
176
     1
 92
        8
176
     1
 66
   257
176
     1
 43
1.0
176
     1
 76
     1
176
     1
 77
     6
176
     1
 78
     2
176
     1
 67
     7
176
     1
 79
     3
176
     1
170
     0
176
     1
171
     0
176
     1
290
     0
176
     1
 93
        5
176
     1
 44
0.0
176
     1
173
     0
176
     1
  0
VISUALSTYLE
  5
3E
102
{ACAD_XDICTIONARY
360
570
102
}
102
{ACAD_REACTORS
330
2A
102
}
330
2A
100
AcDbVisualStyle
  2
Shades of Gray
 70
    23
177
     2
291
     0
 71
     2
176
     1
 72
     2
176
     1
 73
     3
176
     1
 90
        0
176
     1
 40
0.6
176
     1
 41
30.0
176
     1
 63
     7
421
 16777215
176
     1
 74
     2
176
     1
 91
        2
176
     1
 64
     7
176
     1
 65
     7
176
     1
 75
     1
176
     1
175
     1
176
     1
 42
40.0
176
     1
 92
        8
176
     1
 66
     7
176
     1
 43
1.0
176
     1
 76
     1
176
     1
 77
     6
176
     1
 78
     2
176
     1
 67
     7
176
     1
 79
     3
176
     1
170
     0
176
     1
171
     0
176
     1
290
     0
176
     1
 93
        1
176
     1
 44
0.0
176
     1
173
     0
176
     1
  0
VISUALSTYLE
  5
3F
102
{ACAD_XDICTIONARY
360
572
102
}
102
{ACAD_REACTORS
330
2A
102
}
330
2A
100
AcDbVisualStyle
  2
Sketchy
 70
    24
177
     2
291
     0
 71
     1
176
     1
 72
     2
176
     1
 73
     2
176
     1
 90
        0
176
     1
 40
0.6
176
     1
 41
30.0
176
     1
 63
     7
421
 16777215
176
     1
 74
     2
176
     1
 91
        2
176
     1
 64
     7
176
     1
 65
     7
176
     1
 75
     1
176
     1
175
     1
176
     1
 42
40.0
176
     1
 92
       11
176
     1
 66
     7
176
     1
 43
1.0
176
     1
 76
     1
176
     1
 77
     6
176
     1
 78
     2
176
     1
 67
     7
176
     1
 79
     6
176
     1
170
     0
176
     1
171
     0
176
     1
290
     0
176
     1
 93
        1
176
     1
 44
0.0
176
     1
173
     0
176
     1
  0
VISUALSTYLE
  5
37
102
{ACAD_XDICTIONARY
360
562
102
}
102
{ACAD_REACTORS
330
2A
102
}
330
2A
100
AcDbVisualStyle
  2
Thicken
 70
    13
177
     2
291
     1
 71
     2
176
     1
 72
     2
176
     1
 73
     0
176
     1
 90
        0
176
     1
 40
0.6
176
     1
 41
30.0
176
     1
 63
     7
421
 16777215
176
     1
 74
     1
176
     1
 91
        4
176
     1
 64
     7
176
     1
 65
   257
176
     1
 75
     1
176
     1
175
     1
176
     1
 42
1.0
176
     1
 92
       12
176
     1
 66
     7
176
     1
 43
1.0
176
     1
 76
     1
176
     1
 77
     6
176
     1
 78
     2
176
     1
 67
     7
176
     1
 79
     5
176
     1
170
     0
176
     1
171
     0
176
     1
290
     0
176
     1
 93
        1
176
     1
 44
0.0
176
     1
173
     0
176
     1
  0
VISUALSTYLE
  5
30
102
{ACAD_XDICTIONARY
360
554
102
}
102
{ACAD_REACTORS
330
2A
102
}
330
2A
100
AcDbVisualStyle
  2
Wireframe
 70
     5
177
     2
291
     0
 71
     0
176
     1
 72
     2
176
     1
 73
     0
176
     1
 90
        0
176
     1
 40
0.6
176
     1
 41
30.0
176
     1
 63
     7
421
 16777215
176
     1
 74
     1
176
     1
 91
        4
176
     1
 64
     7
176
     1
 65
   257
176
     1
 75
     1
176
     1
175
     1
176
     1
 42
1.0
176
     1
 92
        0
176
     1
 66
   257
176
     1
 43
1.0
176
     1
 76
     1
176
     1
 77
     6
176
     1
 78
     2
176
     1
 67
     7
176
     1
 79
     3
176
     1
170
     0
176
     1
171
     0
176
     1
290
     0
176
     1
 93
        1
176
     1
 44
0.0
176
     1
173
     0
176
     1
  0
VISUALSTYLE
  5
40
102
{ACAD_XDICTIONARY
360
574
102
}
102
{ACAD_REACTORS
330
2A
102
}
330
2A
100
AcDbVisualStyle
  2
X-Ray
 70
    25
177
     2
291
     0
 71
     2
176
     1
 72
     2
176
     1
 73
     1
176
     1
 90
        1
176
     1
 40
0.5
176
     1
 41
30.0
176
     1
 63
     7
421
 16777215
176
     1
 74
     1
176
     1
 91
        0
176
     1
 64
     7
176
     1
 65
   257
176
     1
 75
     1
176
     1
175
     1
176
     1
 42
1.0
176
     1
 92
        8
176
     1
 66
     7
176
     1
 43
1.0
176
     1
 76
     1
176
     1
 77
     6
176
     1
 78
     2
176
     1
 67
     7
176
     1
 79
     3
176
     1
170
     0
176
     1
171
     0
176
     1
290
     0
176
     1
 93
       13
176
     1
 44
0.0
176
     1
173
     0
176
     1
  0
DICTIONARYVAR
  5
4FA
102
{ACAD_REACTORS
330
4F9
102
}
330
4F9
100
DictionaryVariables
280
     0
  1
1:1
  0
DICTIONARYVAR
  5
596
102
{ACAD_REACTORS
330
4F9
102
}
330
4F9
100
DictionaryVariables
280
     0
  1
STANDARD
  0
DICTIONARYVAR
  5
595
102
{ACAD_REACTORS
330
4F9
102
}
330
4F9
100
DictionaryVariables
280
     0
  1
STANDARD
  0
DICTIONARYVAR
  5
598
102
{ACAD_REACTORS
330
4F9
102
}
330
4F9
100
DictionaryVariables
280
     0
  1
1
  0
DICTIONARYVAR
  5
599
102
{ACAD_REACTORS
330
4F9
102
}
330
4F9
100
DictionaryVariables
280
     0
  1
15
  0
DICTIONARYVAR
  5
597
102
{ACAD_REACTORS
330
4F9
102
}
330
4F9
100
DictionaryVariables
280
     0
  1
0
  0
DICTIONARYVAR
  5
4FB
102
{ACAD_REACTORS
330
4F9
102
}
330
4F9
100
DictionaryVariables
280
     0
  1
1
  0
DICTIONARY
  5
59C
330
584
100
AcDbDictionary
280
     1
281
     1
  3
ACAD_XREC_ROUNDTRIP
360
59D
  0
DICTIONARY
  5
59A
330
583
100
AcDbDictionary
280
     1
281
     1
  3
ACAD_ROUNDTRIP_2008_TABLESTYLE_CELLSTYLEMAP
360
59B
  0
DICTIONARY
  5
552
330
2F
100
AcDbDictionary
280
     1
281
     1
  3
ACAD_XREC_ROUNDTRIP
360
553
  0
DICTIONARY
  5
558
330
32
100
AcDbDictionary
280
     1
281
     1
  3
ACAD_XREC_ROUNDTRIP
360
559
  0
DICTIONARY
  5
560
330
36
100
AcDbDictionary
280
     1
281
     1
  3
ACAD_XREC_ROUNDTRIP
360
561
  0
DICTIONARY
  5
568
330
3A
100
AcDbDictionary
280
     1
281
     1
  3
ACAD_XREC_ROUNDTRIP
360
569
  0
DICTIONARY
  5
55C
330
34
100
AcDbDictionary
280
     1
281
     1
  3
ACAD_XREC_ROUNDTRIP
360
55D
  0
DICTIONARY
  5
55E
330
35
100
AcDbDictionary
280
     1
281
     1
  3
ACAD_XREC_ROUNDTRIP
360
55F
  0
DICTIONARY
  5
56E
330
3D
100
AcDbDictionary
280
     1
281
     1
  3
ACAD_XREC_ROUNDTRIP
360
56F
  0
DICTIONARY
  5
566
330
39
100
AcDbDictionary
280
     1
281
     1
  3
ACAD_XREC_ROUNDTRIP
360
567
  0
DICTIONARY
  5
54A
330
2B
100
AcDbDictionary
280
     1
281
     1
  3
ACAD_XREC_ROUNDTRIP
360
54B
  0
DICTIONARY
  5
54C
330
2C
100
AcDbDictionary
280
     1
281
     1
  3
ACAD_XREC_ROUNDTRIP
360
54D
  0
DICTIONARY
  5
54E
330
2D
100
AcDbDictionary
280
     1
281
     1
  3
ACAD_XREC_ROUNDTRIP
360
54F
  0
DICTIONARY
  5
550
330
2E
100
AcDbDictionary
280
     1
281
     1
  3
ACAD_XREC_ROUNDTRIP
360
551
  0
DICTIONARY
  5
556
330
31
100
AcDbDictionary
280
     1
281
     1
  3
ACAD_XREC_ROUNDTRIP
360
557
  0
DICTIONARY
  5
56A
330
3B
100
AcDbDictionary
280
     1
281
     1
  3
ACAD_XREC_ROUNDTRIP
360
56B
  0
DICTIONARY
  5
564
330
38
100
AcDbDictionary
280
     1
281
     1
  3
ACAD_XREC_ROUNDTRIP
360
565
  0
DICTIONARY
  5
56C
330
3C
100
AcDbDictionary
280
     1
281
     1
  3
ACAD_XREC_ROUNDTRIP
360
56D
  0
DICTIONARY
  5
55A
330
33
100
AcDbDictionary
280
     1
281
     1
  3
ACAD_XREC_ROUNDTRIP
360
55B
  0
DICTIONARY
  5
578
330
42
100
AcDbDictionary
280
     1
281
     1
  3
ACAD_XREC_ROUNDTRIP
360
579
  0
DICTIONARY
  5
576
330
41
100
AcDbDictionary
280
     1
281
     1
  3
ACAD_XREC_ROUNDTRIP
360
577
  0
DICTIONARY
  5
570
330
3E
100
AcDbDictionary
280
     1
281
     1
  3
ACAD_XREC_ROUNDTRIP
360
571
  0
DICTIONARY
  5
572
330
3F
100
AcDbDictionary
280
     1
281
     1
  3
ACAD_XREC_ROUNDTRIP
360
573
  0
DICTIONARY
  5
562
330
37
100
AcDbDictionary
280
     1
281
     1
  3
ACAD_XREC_ROUNDTRIP
360
563
  0
DICTIONARY
  5
554
330
30
100
AcDbDictionary
280
     1
281
     1
  3
ACAD_XREC_ROUNDTRIP
360
555
  0
DICTIONARY
  5
574
330
40
100
AcDbDictionary
280
     1
281
     1
  3
ACAD_XREC_ROUNDTRIP
360
575
  0
XRECORD
  5
59D
102
{ACAD_REACTORS
330
59C
102
}
330
59C
100
AcDbXrecord
280
     1
102
ACAD_ROUNDTRIP_2012_MLEADER_STYLE
298
     1
  0
CELLSTYLEMAP
  5
59B
102
{ACAD_REACTORS
330
59A
102
}
330
59A
100
AcDbCellStyleMap
 90
        3
300
CELLSTYLE
  1
TABLEFORMAT_BEGIN
 90
        5
170
     1
 91
        0
 92
    32768
 62
   257
 93
        1
300
CONTENTFORMAT
  1
CONTENTFORMAT_BEGIN
 90
        0
 91
        0
 92
      512
 93
        0
300

 40
0.0
140
1.0
 94
        5
 62
     0
340
11
144
0.25
309
CONTENTFORMAT_END
171
     0
 94
        0
309
TABLEFORMAT_END
  1
CELLSTYLE_BEGIN
 90
        1
 91
        1
300
_TITLE
309
CELLSTYLE_END
300
CELLSTYLE
  1
TABLEFORMAT_BEGIN
 90
        5
170
     1
 91
        0
 92
        0
 62
   257
 93
        1
300
CONTENTFORMAT
  1
CONTENTFORMAT_BEGIN
 90
        0
 91
        0
 92
      512
 93
        0
300

 40
0.0
140
1.0
 94
        5
 62
     0
340
11
144
0.18
309
CONTENTFORMAT_END
171
     0
 94
        0
309
TABLEFORMAT_END
  1
CELLSTYLE_BEGIN
 90
        2
 91
        1
300
_HEADER
309
CELLSTYLE_END
300
CELLSTYLE
  1
TABLEFORMAT_BEGIN
 90
        5
170
     1
 91
        0
 92
        0
 62
   257
 93
        1
300
CONTENTFORMAT
  1
CONTENTFORMAT_BEGIN
 90
        0
 91
        0
 92
      512
 93
        0
300

 40
0.0
140
1.0
 94
        2
 62
     0
340
11
144
0.18
309
CONTENTFORMAT_END
171
     0
 94
        0
309
TABLEFORMAT_END
  1
CELLSTYLE_BEGIN
 90
        3
 91
        2
300
_DATA
309
CELLSTYLE_END
  0
XRECORD
  5
553
102
{ACAD_REACTORS
330
552
102
}
330
552
100
AcDbXrecord
280
     1
102
RTVSPropertyOp33
 70
     1
102
RTVSPropertyOp34
 70
     1
102
RTVSPropertyOp35
 70
     1
102
RTVSPropertyOp36
 70
     1
102
RTVSPropertyOp37
 70
     1
102
RTVSPropertyOp38
 70
     1
102
RTVSPropertyOp39
 70
     1
102
RTVSPropertyOp40
 70
     1
102
RTVSPropertyOp41
 70
     1
102
RTVSPropertyOp42
 70
     1
102
RTVSPropertyOp43
 70
     1
102
RTVSPropertyOp44
 70
     1
102
RTVSPropertyOp45
 70
     1
102
RTVSPropertyOp46
 70
     1
102
RTVSPropertyOp47
 70
     1
102
RTVSPropertyOp48
 70
     1
102
RTVSPropertyOp49
 70
     1
102
RTVSPropertyOp50
 70
     1
102
RTVSPropertyOp51
 70
     0
102
RTVSPropertyOp52
 70
     0
102
RTVSPropertyOp53
 70
     1
102
RTVSPropertyOp54
 70
     1
102
RTVSPropertyOp55
 70
     1
102
RTVSPropertyOp56
 70
     1
102
RTVSPropertyOp57
 70
     1
102
RTVSPost2010Prop28
280
     1
102
RTVSPost2010PropOp28
 70
     1
102
RTVSPost2010Prop29
280
     1
102
RTVSPost2010PropOp29
 70
     1
102
RTVSPost2010Prop30
280
     0
102
RTVSPost2010PropOp30
 70
     1
102
RTVSPost2010Prop31
280
     0
102
RTVSPost2010PropOp31
 70
     1
102
RTVSPost2010Prop32
280
     0
102
RTVSPost2010PropOp32
 70
     1
102
RTVSPost2010Prop33
280
     0
102
RTVSPost2010PropOp33
 70
     1
102
RTVSPost2010Prop34
280
     0
102
RTVSPost2010PropOp34
 70
     1
102
RTVSPost2010Prop35
280
     0
102
RTVSPost2010PropOp35
 70
     1
102
RTVSPost2010Prop36
280
     0
102
RTVSPost2010PropOp36
 70
     1
102
RTVSPost2010Prop37
 90
       50
102
RTVSPost2010PropOp37
 70
     1
102
RTVSPost2010Prop38
140
0.0
102
RTVSPost2010PropOp38
 70
     1
102
RTVSPost2010Prop39
140
1.0
102
RTVSPost2010PropOp39
 70
     1
102
RTVSPost2010Prop40
 90
        0
102
RTVSPost2010PropOp40
 70
     1
102
RTVSPost2010Prop41ColorIndex
 90
       18
102
RTVSPost2010Prop41ColorRGB
 90
        0
102
RTVSPost2010PropOp41
 70
     1
102
RTVSPost2010Prop42
 90
       50
102
RTVSPost2010PropOp42
 70
     1
102
RTVSPost2010Prop43
 90
        3
102
RTVSPost2010PropOp43
 70
     1
102
RTVSPost2010Prop44ColorIndex
 90
        5
102
RTVSPost2010Prop44ColorRGB
 90
      255
102
RTVSPost2010PropOp44
 70
     1
102
RTVSPost2010Prop45
280
     0
102
RTVSPost2010PropOp45
 70
     1
102
RTVSPost2010Prop46
 90
       50
102
RTVSPost2010PropOp46
 70
     1
102
RTVSPost2010Prop47
 90
       50
102
RTVSPost2010PropOp47
 70
     1
102
RTVSPost2010Prop48
 90
       50
102
RTVSPost2010PropOp48
 70
     1
102
RTVSPost2010Prop49
280
     0
102
RTVSPost2010PropOp49
 70
     1
102
RTVSPost2010Prop50
 90
       50
102
RTVSPost2010PropOp50
 70
     1
102
RTVSPost2010Prop51ColorIndex
 90
      256
102
RTVSPost2010Prop51ColorRGB
 90
-16777216
102
RTVSPost2010PropOp51
 70
     0
102
RTVSPost2010Prop52
140
1.0
102
RTVSPost2010PropOp52
 70
     0
102
RTVSPost2010Prop53
 90
        2
102
RTVSPost2010PropOp53
 70
     1
102
RTVSPost2010Prop54
  1
strokes_ogs.tif
102
RTVSPost2010PropOp54
 70
     1
102
RTVSPost2010Prop55
280
     0
102
RTVSPost2010PropOp55
 70
     1
102
RTVSPost2010Prop56
140
1.0
102
RTVSPost2010PropOp56
 70
     1
102
RTVSPost2010Prop57
140
1.0
102
RTVSPost2010PropOp57
 70
     1
  0
XRECORD
  5
559
102
{ACAD_REACTORS
330
558
102
}
330
558
100
AcDbXrecord
280
     1
102
RTVSPropertyOp33
 70
     1
102
RTVSPropertyOp34
 70
     1
102
RTVSPropertyOp35
 70
     1
102
RTVSPropertyOp36
 70
     1
102
RTVSPropertyOp37
 70
     1
102
RTVSPropertyOp38
 70
     1
102
RTVSPropertyOp39
 70
     1
102
RTVSPropertyOp40
 70
     1
102
RTVSPropertyOp41
 70
     1
102
RTVSPropertyOp42
 70
     1
102
RTVSPropertyOp43
 70
     1
102
RTVSPropertyOp44
 70
     1
102
RTVSPropertyOp45
 70
     1
102
RTVSPropertyOp46
 70
     1
102
RTVSPropertyOp47
 70
     1
102
RTVSPropertyOp48
 70
     1
102
RTVSPropertyOp49
 70
     1
102
RTVSPropertyOp50
 70
     1
102
RTVSPropertyOp51
 70
     0
102
RTVSPropertyOp52
 70
     0
102
RTVSPropertyOp53
 70
     1
102
RTVSPropertyOp54
 70
     1
102
RTVSPropertyOp55
 70
     1
102
RTVSPropertyOp56
 70
     1
102
RTVSPropertyOp57
 70
     1
102
RTVSPost2010Prop28
280
     0
102
RTVSPost2010PropOp28
 70
     1
102
RTVSPost2010Prop29
280
     1
102
RTVSPost2010PropOp29
 70
     1
102
RTVSPost2010Prop30
280
     1
102
RTVSPost2010PropOp30
 70
     1
102
RTVSPost2010Prop31
280
     0
102
RTVSPost2010PropOp31
 70
     1
102
RTVSPost2010Prop32
280
     0
102
RTVSPost2010PropOp32
 70
     1
102
RTVSPost2010Prop33
280
     0
102
RTVSPost2010PropOp33
 70
     1
102
RTVSPost2010Prop34
280
     0
102
RTVSPost2010PropOp34
 70
     1
102
RTVSPost2010Prop35
280
     0
102
RTVSPost2010PropOp35
 70
     1
102
RTVSPost2010Prop36
280
     0
102
RTVSPost2010PropOp36
 70
     1
102
RTVSPost2010Prop37
 90
       50
102
RTVSPost2010PropOp37
 70
     1
102
RTVSPost2010Prop38
140
0.0
102
RTVSPost2010PropOp38
 70
     1
102
RTVSPost2010Prop39
140
1.0
102
RTVSPost2010PropOp39
 70
     1
102
RTVSPost2010Prop40
 90
        0
102
RTVSPost2010PropOp40
 70
     1
102
RTVSPost2010Prop41ColorIndex
 90
       18
102
RTVSPost2010Prop41ColorRGB
 90
        0
102
RTVSPost2010PropOp41
 70
     1
102
RTVSPost2010Prop42
 90
       50
102
RTVSPost2010PropOp42
 70
     1
102
RTVSPost2010Prop43
 90
        3
102
RTVSPost2010PropOp43
 70
     1
102
RTVSPost2010Prop44ColorIndex
 90
        5
102
RTVSPost2010Prop44ColorRGB
 90
      255
102
RTVSPost2010PropOp44
 70
     1
102
RTVSPost2010Prop45
280
     0
102
RTVSPost2010PropOp45
 70
     1
102
RTVSPost2010Prop46
 90
       50
102
RTVSPost2010PropOp46
 70
     1
102
RTVSPost2010Prop47
 90
       50
102
RTVSPost2010PropOp47
 70
     1
102
RTVSPost2010Prop48
 90
       50
102
RTVSPost2010PropOp48
 70
     1
102
RTVSPost2010Prop49
280
     0
102
RTVSPost2010PropOp49
 70
     1
102
RTVSPost2010Prop50
 90
       50
102
RTVSPost2010PropOp50
 70
     1
102
RTVSPost2010Prop51ColorIndex
 90
      256
102
RTVSPost2010Prop51ColorRGB
 90
-16777216
102
RTVSPost2010PropOp51
 70
     0
102
RTVSPost2010Prop52
140
1.0
102
RTVSPost2010PropOp52
 70
     0
102
RTVSPost2010Prop53
 90
        2
102
RTVSPost2010PropOp53
 70
     1
102
RTVSPost2010Prop54
  1
strokes_ogs.tif
102
RTVSPost2010PropOp54
 70
     1
102
RTVSPost2010Prop55
280
     0
102
RTVSPost2010PropOp55
 70
     1
102
RTVSPost2010Prop56
140
1.0
102
RTVSPost2010PropOp56
 70
     1
102
RTVSPost2010Prop57
140
1.0
102
RTVSPost2010PropOp57
 70
     1
  0
XRECORD
  5
561
102
{ACAD_REACTORS
330
560
102
}
330
560
100
AcDbXrecord
280
     1
102
RTVSPropertyOp33
 70
     1
102
RTVSPropertyOp34
 70
     1
102
RTVSPropertyOp35
 70
     1
102
RTVSPropertyOp36
 70
     1
102
RTVSPropertyOp37
 70
     1
102
RTVSPropertyOp38
 70
     1
102
RTVSPropertyOp39
 70
     1
102
RTVSPropertyOp40
 70
     1
102
RTVSPropertyOp41
 70
     1
102
RTVSPropertyOp42
 70
     1
102
RTVSPropertyOp43
 70
     1
102
RTVSPropertyOp44
 70
     1
102
RTVSPropertyOp45
 70
     1
102
RTVSPropertyOp46
 70
     1
102
RTVSPropertyOp47
 70
     1
102
RTVSPropertyOp48
 70
     1
102
RTVSPropertyOp49
 70
     1
102
RTVSPropertyOp50
 70
     1
102
RTVSPropertyOp51
 70
     0
102
RTVSPropertyOp52
 70
     0
102
RTVSPropertyOp53
 70
     1
102
RTVSPropertyOp54
 70
     1
102
RTVSPropertyOp55
 70
     1
102
RTVSPropertyOp56
 70
     1
102
RTVSPropertyOp57
 70
     1
102
RTVSPost2010Prop28
280
     0
102
RTVSPost2010PropOp28
 70
     1
102
RTVSPost2010Prop29
280
     1
102
RTVSPost2010PropOp29
 70
     1
102
RTVSPost2010Prop30
280
     1
102
RTVSPost2010PropOp30
 70
     1
102
RTVSPost2010Prop31
280
     0
102
RTVSPost2010PropOp31
 70
     1
102
RTVSPost2010Prop32
280
     0
102
RTVSPost2010PropOp32
 70
     1
102
RTVSPost2010Prop33
280
     0
102
RTVSPost2010PropOp33
 70
     1
102
RTVSPost2010Prop34
280
     0
102
RTVSPost2010PropOp34
 70
     1
102
RTVSPost2010Prop35
280
     0
102
RTVSPost2010PropOp35
 70
     1
102
RTVSPost2010Prop36
280
     0
102
RTVSPost2010PropOp36
 70
     1
102
RTVSPost2010Prop37
 90
       50
102
RTVSPost2010PropOp37
 70
     1
102
RTVSPost2010Prop38
140
0.0
102
RTVSPost2010PropOp38
 70
     1
102
RTVSPost2010Prop39
140
1.0
102
RTVSPost2010PropOp39
 70
     1
102
RTVSPost2010Prop40
 90
        0
102
RTVSPost2010PropOp40
 70
     1
102
RTVSPost2010Prop41ColorIndex
 90
       18
102
RTVSPost2010Prop41ColorRGB
 90
        0
102
RTVSPost2010PropOp41
 70
     1
102
RTVSPost2010Prop42
 90
       50
102
RTVSPost2010PropOp42
 70
     1
102
RTVSPost2010Prop43
 90
        3
102
RTVSPost2010PropOp43
 70
     1
102
RTVSPost2010Prop44ColorIndex
 90
        5
102
RTVSPost2010Prop44ColorRGB
 90
      255
102
RTVSPost2010PropOp44
 70
     1
102
RTVSPost2010Prop45
280
     0
102
RTVSPost2010PropOp45
 70
     1
102
RTVSPost2010Prop46
 90
       50
102
RTVSPost2010PropOp46
 70
     1
102
RTVSPost2010Prop47
 90
       50
102
RTVSPost2010PropOp47
 70
     1
102
RTVSPost2010Prop48
 90
       50
102
RTVSPost2010PropOp48
 70
     1
102
RTVSPost2010Prop49
280
     0
102
RTVSPost2010PropOp49
 70
     1
102
RTVSPost2010Prop50
 90
       50
102
RTVSPost2010PropOp50
 70
     1
102
RTVSPost2010Prop51ColorIndex
 90
      256
102
RTVSPost2010Prop51ColorRGB
 90
-16777216
102
RTVSPost2010PropOp51
 70
     0
102
RTVSPost2010Prop52
140
1.0
102
RTVSPost2010PropOp52
 70
     0
102
RTVSPost2010Prop53
 90
        2
102
RTVSPost2010PropOp53
 70
     1
102
RTVSPost2010Prop54
  1
strokes_ogs.tif
102
RTVSPost2010PropOp54
 70
     1
102
RTVSPost2010Prop55
280
     0
102
RTVSPost2010PropOp55
 70
     1
102
RTVSPost2010Prop56
140
1.0
102
RTVSPost2010PropOp56
 70
     1
102
RTVSPost2010Prop57
140
1.0
102
RTVSPost2010PropOp57
 70
     1
  0
XRECORD
  5
569
102
{ACAD_REACTORS
330
568
102
}
330
568
100
AcDbXrecord
280
     1
102
RTVSPropertyOp33
 70
     1
102
RTVSPropertyOp34
 70
     1
102
RTVSPropertyOp35
 70
     1
102
RTVSPropertyOp36
 70
     1
102
RTVSPropertyOp37
 70
     1
102
RTVSPropertyOp38
 70
     1
102
RTVSPropertyOp39
 70
     1
102
RTVSPropertyOp40
 70
     1
102
RTVSPropertyOp41
 70
     1
102
RTVSPropertyOp42
 70
     1
102
RTVSPropertyOp43
 70
     1
102
RTVSPropertyOp44
 70
     1
102
RTVSPropertyOp45
 70
     1
102
RTVSPropertyOp46
 70
     1
102
RTVSPropertyOp47
 70
     1
102
RTVSPropertyOp48
 70
     1
102
RTVSPropertyOp49
 70
     1
102
RTVSPropertyOp50
 70
     1
102
RTVSPropertyOp51
 70
     0
102
RTVSPropertyOp52
 70
     0
102
RTVSPropertyOp53
 70
     1
102
RTVSPropertyOp54
 70
     1
102
RTVSPropertyOp55
 70
     1
102
RTVSPropertyOp56
 70
     1
102
RTVSPropertyOp57
 70
     1
102
RTVSPost2010Prop28
280
     0
102
RTVSPost2010PropOp28
 70
     1
102
RTVSPost2010Prop29
280
     1
102
RTVSPost2010PropOp29
 70
     1
102
RTVSPost2010Prop30
280
     1
102
RTVSPost2010PropOp30
 70
     1
102
RTVSPost2010Prop31
280
     0
102
RTVSPost2010PropOp31
 70
     1
102
RTVSPost2010Prop32
280
     0
102
RTVSPost2010PropOp32
 70
     1
102
RTVSPost2010Prop33
280
     0
102
RTVSPost2010PropOp33
 70
     1
102
RTVSPost2010Prop34
280
     0
102
RTVSPost2010PropOp34
 70
     1
102
RTVSPost2010Prop35
280
     0
102
RTVSPost2010PropOp35
 70
     1
102
RTVSPost2010Prop36
280
     0
102
RTVSPost2010PropOp36
 70
     1
102
RTVSPost2010Prop37
 90
       50
102
RTVSPost2010PropOp37
 70
     1
102
RTVSPost2010Prop38
140
0.0
102
RTVSPost2010PropOp38
 70
     1
102
RTVSPost2010Prop39
140
1.0
102
RTVSPost2010PropOp39
 70
     1
102
RTVSPost2010Prop40
 90
        0
102
RTVSPost2010PropOp40
 70
     1
102
RTVSPost2010Prop41ColorIndex
 90
       18
102
RTVSPost2010Prop41ColorRGB
 90
        0
102
RTVSPost2010PropOp41
 70
     1
102
RTVSPost2010Prop42
 90
       50
102
RTVSPost2010PropOp42
 70
     1
102
RTVSPost2010Prop43
 90
        3
102
RTVSPost2010PropOp43
 70
     1
102
RTVSPost2010Prop44ColorIndex
 90
        5
102
RTVSPost2010Prop44ColorRGB
 90
      255
102
RTVSPost2010PropOp44
 70
     1
102
RTVSPost2010Prop45
280
     0
102
RTVSPost2010PropOp45
 70
     1
102
RTVSPost2010Prop46
 90
       50
102
RTVSPost2010PropOp46
 70
     1
102
RTVSPost2010Prop47
 90
       50
102
RTVSPost2010PropOp47
 70
     1
102
RTVSPost2010Prop48
 90
       50
102
RTVSPost2010PropOp48
 70
     1
102
RTVSPost2010Prop49
280
     0
102
RTVSPost2010PropOp49
 70
     1
102
RTVSPost2010Prop50
 90
       50
102
RTVSPost2010PropOp50
 70
     1
102
RTVSPost2010Prop51ColorIndex
 90
      256
102
RTVSPost2010Prop51ColorRGB
 90
-16777216
102
RTVSPost2010PropOp51
 70
     0
102
RTVSPost2010Prop52
140
1.0
102
RTVSPost2010PropOp52
 70
     0
102
RTVSPost2010Prop53
 90
        2
102
RTVSPost2010PropOp53
 70
     1
102
RTVSPost2010Prop54
  1
strokes_ogs.tif
102
RTVSPost2010PropOp54
 70
     1
102
RTVSPost2010Prop55
280
     0
102
RTVSPost2010PropOp55
 70
     1
102
RTVSPost2010Prop56
140
1.0
102
RTVSPost2010PropOp56
 70
     1
102
RTVSPost2010Prop57
140
1.0
102
RTVSPost2010PropOp57
 70
     1
  0
XRECORD
  5
55D
102
{ACAD_REACTORS
330
55C
102
}
330
55C
100
AcDbXrecord
280
     1
102
RTVSPropertyOp33
 70
     1
102
RTVSPropertyOp34
 70
     1
102
RTVSPropertyOp35
 70
     1
102
RTVSPropertyOp36
 70
     1
102
RTVSPropertyOp37
 70
     1
102
RTVSPropertyOp38
 70
     1
102
RTVSPropertyOp39
 70
     1
102
RTVSPropertyOp40
 70
     1
102
RTVSPropertyOp41
 70
     1
102
RTVSPropertyOp42
 70
     1
102
RTVSPropertyOp43
 70
     1
102
RTVSPropertyOp44
 70
     1
102
RTVSPropertyOp45
 70
     1
102
RTVSPropertyOp46
 70
     1
102
RTVSPropertyOp47
 70
     1
102
RTVSPropertyOp48
 70
     1
102
RTVSPropertyOp49
 70
     1
102
RTVSPropertyOp50
 70
     1
102
RTVSPropertyOp51
 70
     0
102
RTVSPropertyOp52
 70
     0
102
RTVSPropertyOp53
 70
     1
102
RTVSPropertyOp54
 70
     1
102
RTVSPropertyOp55
 70
     1
102
RTVSPropertyOp56
 70
     1
102
RTVSPropertyOp57
 70
     1
102
RTVSPost2010Prop28
280
     0
102
RTVSPost2010PropOp28
 70
     1
102
RTVSPost2010Prop29
280
     1
102
RTVSPost2010PropOp29
 70
     1
102
RTVSPost2010Prop30
280
     1
102
RTVSPost2010PropOp30
 70
     1
102
RTVSPost2010Prop31
280
     0
102
RTVSPost2010PropOp31
 70
     1
102
RTVSPost2010Prop32
280
     0
102
RTVSPost2010PropOp32
 70
     1
102
RTVSPost2010Prop33
280
     0
102
RTVSPost2010PropOp33
 70
     1
102
RTVSPost2010Prop34
280
     0
102
RTVSPost2010PropOp34
 70
     1
102
RTVSPost2010Prop35
280
     0
102
RTVSPost2010PropOp35
 70
     1
102
RTVSPost2010Prop36
280
     0
102
RTVSPost2010PropOp36
 70
     1
102
RTVSPost2010Prop37
 90
       50
102
RTVSPost2010PropOp37
 70
     1
102
RTVSPost2010Prop38
140
0.0
102
RTVSPost2010PropOp38
 70
     1
102
RTVSPost2010Prop39
140
1.0
102
RTVSPost2010PropOp39
 70
     1
102
RTVSPost2010Prop40
 90
        0
102
RTVSPost2010PropOp40
 70
     1
102
RTVSPost2010Prop41ColorIndex
 90
       18
102
RTVSPost2010Prop41ColorRGB
 90
        0
102
RTVSPost2010PropOp41
 70
     1
102
RTVSPost2010Prop42
 90
       50
102
RTVSPost2010PropOp42
 70
     1
102
RTVSPost2010Prop43
 90
        3
102
RTVSPost2010PropOp43
 70
     1
102
RTVSPost2010Prop44ColorIndex
 90
        5
102
RTVSPost2010Prop44ColorRGB
 90
      255
102
RTVSPost2010PropOp44
 70
     1
102
RTVSPost2010Prop45
280
     0
102
RTVSPost2010PropOp45
 70
     1
102
RTVSPost2010Prop46
 90
       50
102
RTVSPost2010PropOp46
 70
     1
102
RTVSPost2010Prop47
 90
       50
102
RTVSPost2010PropOp47
 70
     1
102
RTVSPost2010Prop48
 90
       50
102
RTVSPost2010PropOp48
 70
     1
102
RTVSPost2010Prop49
280
     0
102
RTVSPost2010PropOp49
 70
     1
102
RTVSPost2010Prop50
 90
       50
102
RTVSPost2010PropOp50
 70
     1
102
RTVSPost2010Prop51ColorIndex
 90
      256
102
RTVSPost2010Prop51ColorRGB
 90
-16777216
102
RTVSPost2010PropOp51
 70
     0
102
RTVSPost2010Prop52
140
1.0
102
RTVSPost2010PropOp52
 70
     0
102
RTVSPost2010Prop53
 90
        2
102
RTVSPost2010PropOp53
 70
     1
102
RTVSPost2010Prop54
  1
strokes_ogs.tif
102
RTVSPost2010PropOp54
 70
     1
102
RTVSPost2010Prop55
280
     0
102
RTVSPost2010PropOp55
 70
     1
102
RTVSPost2010Prop56
140
1.0
102
RTVSPost2010PropOp56
 70
     1
102
RTVSPost2010Prop57
140
1.0
102
RTVSPost2010PropOp57
 70
     1
  0
XRECORD
  5
55F
102
{ACAD_REACTORS
330
55E
102
}
330
55E
100
AcDbXrecord
280
     1
102
RTVSPropertyOp33
 70
     1
102
RTVSPropertyOp34
 70
     1
102
RTVSPropertyOp35
 70
     1
102
RTVSPropertyOp36
 70
     1
102
RTVSPropertyOp37
 70
     1
102
RTVSPropertyOp38
 70
     1
102
RTVSPropertyOp39
 70
     1
102
RTVSPropertyOp40
 70
     1
102
RTVSPropertyOp41
 70
     1
102
RTVSPropertyOp42
 70
     1
102
RTVSPropertyOp43
 70
     1
102
RTVSPropertyOp44
 70
     1
102
RTVSPropertyOp45
 70
     1
102
RTVSPropertyOp46
 70
     1
102
RTVSPropertyOp47
 70
     1
102
RTVSPropertyOp48
 70
     1
102
RTVSPropertyOp49
 70
     1
102
RTVSPropertyOp50
 70
     1
102
RTVSPropertyOp51
 70
     0
102
RTVSPropertyOp52
 70
     0
102
RTVSPropertyOp53
 70
     1
102
RTVSPropertyOp54
 70
     1
102
RTVSPropertyOp55
 70
     1
102
RTVSPropertyOp56
 70
     1
102
RTVSPropertyOp57
 70
     1
102
RTVSPost2010Prop28
280
     0
102
RTVSPost2010PropOp28
 70
     1
102
RTVSPost2010Prop29
280
     1
102
RTVSPost2010PropOp29
 70
     1
102
RTVSPost2010Prop30
280
     1
102
RTVSPost2010PropOp30
 70
     1
102
RTVSPost2010Prop31
280
     0
102
RTVSPost2010PropOp31
 70
     1
102
RTVSPost2010Prop32
280
     0
102
RTVSPost2010PropOp32
 70
     1
102
RTVSPost2010Prop33
280
     0
102
RTVSPost2010PropOp33
 70
     1
102
RTVSPost2010Prop34
280
     0
102
RTVSPost2010PropOp34
 70
     1
102
RTVSPost2010Prop35
280
     0
102
RTVSPost2010PropOp35
 70
     1
102
RTVSPost2010Prop36
280
     0
102
RTVSPost2010PropOp36
 70
     1
102
RTVSPost2010Prop37
 90
       50
102
RTVSPost2010PropOp37
 70
     1
102
RTVSPost2010Prop38
140
0.0
102
RTVSPost2010PropOp38
 70
     1
102
RTVSPost2010Prop39
140
1.0
102
RTVSPost2010PropOp39
 70
     1
102
RTVSPost2010Prop40
 90
        0
102
RTVSPost2010PropOp40
 70
     1
102
RTVSPost2010Prop41ColorIndex
 90
       18
102
RTVSPost2010Prop41ColorRGB
 90
        0
102
RTVSPost2010PropOp41
 70
     1
102
RTVSPost2010Prop42
 90
       50
102
RTVSPost2010PropOp42
 70
     1
102
RTVSPost2010Prop43
 90
        3
102
RTVSPost2010PropOp43
 70
     1
102
RTVSPost2010Prop44ColorIndex
 90
        5
102
RTVSPost2010Prop44ColorRGB
 90
      255
102
RTVSPost2010PropOp44
 70
     1
102
RTVSPost2010Prop45
280
     0
102
RTVSPost2010PropOp45
 70
     1
102
RTVSPost2010Prop46
 90
       50
102
RTVSPost2010PropOp46
 70
     1
102
RTVSPost2010Prop47
 90
       50
102
RTVSPost2010PropOp47
 70
     1
102
RTVSPost2010Prop48
 90
       50
102
RTVSPost2010PropOp48
 70
     1
102
RTVSPost2010Prop49
280
     0
102
RTVSPost2010PropOp49
 70
     1
102
RTVSPost2010Prop50
 90
       50
102
RTVSPost2010PropOp50
 70
     1
102
RTVSPost2010Prop51ColorIndex
 90
      256
102
RTVSPost2010Prop51ColorRGB
 90
-16777216
102
RTVSPost2010PropOp51
 70
     0
102
RTVSPost2010Prop52
140
1.0
102
RTVSPost2010PropOp52
 70
     0
102
RTVSPost2010Prop53
 90
        2
102
RTVSPost2010PropOp53
 70
     1
102
RTVSPost2010Prop54
  1
strokes_ogs.tif
102
RTVSPost2010PropOp54
 70
     1
102
RTVSPost2010Prop55
280
     0
102
RTVSPost2010PropOp55
 70
     1
102
RTVSPost2010Prop56
140
1.0
102
RTVSPost2010PropOp56
 70
     1
102
RTVSPost2010Prop57
140
1.0
102
RTVSPost2010PropOp57
 70
     1
  0
XRECORD
  5
56F
102
{ACAD_REACTORS
330
56E
102
}
330
56E
100
AcDbXrecord
280
     1
102
RTVSPropertyOp33
 70
     0
102
RTVSPropertyOp34
 70
     0
102
RTVSPropertyOp35
 70
     0
102
RTVSPropertyOp36
 70
     0
102
RTVSPropertyOp37
 70
     0
102
RTVSPropertyOp38
 70
     0
102
RTVSPropertyOp39
 70
     0
102
RTVSPropertyOp40
 70
     0
102
RTVSPropertyOp41
 70
     0
102
RTVSPropertyOp42
 70
     0
102
RTVSPropertyOp43
 70
     0
102
RTVSPropertyOp44
 70
     0
102
RTVSPropertyOp45
 70
     0
102
RTVSPropertyOp46
 70
     0
102
RTVSPropertyOp47
 70
     0
102
RTVSPropertyOp48
 70
     0
102
RTVSPropertyOp49
 70
     0
102
RTVSPropertyOp50
 70
     0
102
RTVSPropertyOp51
 70
     0
102
RTVSPropertyOp52
 70
     0
102
RTVSPropertyOp53
 70
     0
102
RTVSPropertyOp54
 70
     0
102
RTVSPropertyOp55
 70
     0
102
RTVSPropertyOp56
 70
     0
102
RTVSPropertyOp57
 70
     0
102
RTVSPost2010Prop28
280
     0
102
RTVSPost2010PropOp28
 70
     0
102
RTVSPost2010Prop29
280
     1
102
RTVSPost2010PropOp29
 70
     0
102
RTVSPost2010Prop30
280
     1
102
RTVSPost2010PropOp30
 70
     0
102
RTVSPost2010Prop31
280
     0
102
RTVSPost2010PropOp31
 70
     0
102
RTVSPost2010Prop32
280
     0
102
RTVSPost2010PropOp32
 70
     0
102
RTVSPost2010Prop33
280
     0
102
RTVSPost2010PropOp33
 70
     0
102
RTVSPost2010Prop34
280
     0
102
RTVSPost2010PropOp34
 70
     0
102
RTVSPost2010Prop35
280
     0
102
RTVSPost2010PropOp35
 70
     0
102
RTVSPost2010Prop36
280
     0
102
RTVSPost2010PropOp36
 70
     0
102
RTVSPost2010Prop37
 90
       50
102
RTVSPost2010PropOp37
 70
     0
102
RTVSPost2010Prop38
140
0.0
102
RTVSPost2010PropOp38
 70
     0
102
RTVSPost2010Prop39
140
1.0
102
RTVSPost2010PropOp39
 70
     0
102
RTVSPost2010Prop40
 90
        0
102
RTVSPost2010PropOp40
 70
     0
102
RTVSPost2010Prop41ColorIndex
 90
       18
102
RTVSPost2010Prop41ColorRGB
 90
        0
102
RTVSPost2010PropOp41
 70
     0
102
RTVSPost2010Prop42
 90
       50
102
RTVSPost2010PropOp42
 70
     0
102
RTVSPost2010Prop43
 90
        3
102
RTVSPost2010PropOp43
 70
     0
102
RTVSPost2010Prop44ColorIndex
 90
        5
102
RTVSPost2010Prop44ColorRGB
 90
      255
102
RTVSPost2010PropOp44
 70
     0
102
RTVSPost2010Prop45
280
     0
102
RTVSPost2010PropOp45
 70
     0
102
RTVSPost2010Prop46
 90
       50
102
RTVSPost2010PropOp46
 70
     0
102
RTVSPost2010Prop47
 90
       50
102
RTVSPost2010PropOp47
 70
     0
102
RTVSPost2010Prop48
 90
       50
102
RTVSPost2010PropOp48
 70
     0
102
RTVSPost2010Prop49
280
     0
102
RTVSPost2010PropOp49
 70
     0
102
RTVSPost2010Prop50
 90
       50
102
RTVSPost2010PropOp50
 70
     0
102
RTVSPost2010Prop51ColorIndex
 90
      256
102
RTVSPost2010Prop51ColorRGB
 90
-16777216
102
RTVSPost2010PropOp51
 70
     0
102
RTVSPost2010Prop52
140
1.0
102
RTVSPost2010PropOp52
 70
     0
102
RTVSPost2010Prop53
 90
        2
102
RTVSPost2010PropOp53
 70
     0
102
RTVSPost2010Prop54
  1
strokes_ogs.tif
102
RTVSPost2010PropOp54
 70
     0
102
RTVSPost2010Prop55
280
     0
102
RTVSPost2010PropOp55
 70
     0
102
RTVSPost2010Prop56
140
1.0
102
RTVSPost2010PropOp56
 70
     0
102
RTVSPost2010Prop57
140
1.0
102
RTVSPost2010PropOp57
 70
     0
  0
XRECORD
  5
567
102
{ACAD_REACTORS
330
566
102
}
330
566
100
AcDbXrecord
280
     1
102
RTVSPropertyOp33
 70
     1
102
RTVSPropertyOp34
 70
     1
102
RTVSPropertyOp35
 70
     1
102
RTVSPropertyOp36
 70
     1
102
RTVSPropertyOp37
 70
     1
102
RTVSPropertyOp38
 70
     1
102
RTVSPropertyOp39
 70
     1
102
RTVSPropertyOp40
 70
     1
102
RTVSPropertyOp41
 70
     1
102
RTVSPropertyOp42
 70
     1
102
RTVSPropertyOp43
 70
     1
102
RTVSPropertyOp44
 70
     1
102
RTVSPropertyOp45
 70
     1
102
RTVSPropertyOp46
 70
     1
102
RTVSPropertyOp47
 70
     1
102
RTVSPropertyOp48
 70
     1
102
RTVSPropertyOp49
 70
     1
102
RTVSPropertyOp50
 70
     1
102
RTVSPropertyOp51
 70
     0
102
RTVSPropertyOp52
 70
     0
102
RTVSPropertyOp53
 70
     1
102
RTVSPropertyOp54
 70
     1
102
RTVSPropertyOp55
 70
     1
102
RTVSPropertyOp56
 70
     1
102
RTVSPropertyOp57
 70
     1
102
RTVSPost2010Prop28
280
     0
102
RTVSPost2010PropOp28
 70
     1
102
RTVSPost2010Prop29
280
     1
102
RTVSPost2010PropOp29
 70
     1
102
RTVSPost2010Prop30
280
     1
102
RTVSPost2010PropOp30
 70
     1
102
RTVSPost2010Prop31
280
     0
102
RTVSPost2010PropOp31
 70
     1
102
RTVSPost2010Prop32
280
     0
102
RTVSPost2010PropOp32
 70
     1
102
RTVSPost2010Prop33
280
     0
102
RTVSPost2010PropOp33
 70
     1
102
RTVSPost2010Prop34
280
     0
102
RTVSPost2010PropOp34
 70
     1
102
RTVSPost2010Prop35
280
     0
102
RTVSPost2010PropOp35
 70
     1
102
RTVSPost2010Prop36
280
     0
102
RTVSPost2010PropOp36
 70
     1
102
RTVSPost2010Prop37
 90
       50
102
RTVSPost2010PropOp37
 70
     1
102
RTVSPost2010Prop38
140
0.0
102
RTVSPost2010PropOp38
 70
     1
102
RTVSPost2010Prop39
140
1.0
102
RTVSPost2010PropOp39
 70
     1
102
RTVSPost2010Prop40
 90
        0
102
RTVSPost2010PropOp40
 70
     1
102
RTVSPost2010Prop41ColorIndex
 90
       18
102
RTVSPost2010Prop41ColorRGB
 90
        0
102
RTVSPost2010PropOp41
 70
     1
102
RTVSPost2010Prop42
 90
       50
102
RTVSPost2010PropOp42
 70
     1
102
RTVSPost2010Prop43
 90
        3
102
RTVSPost2010PropOp43
 70
     1
102
RTVSPost2010Prop44ColorIndex
 90
        5
102
RTVSPost2010Prop44ColorRGB
 90
      255
102
RTVSPost2010PropOp44
 70
     1
102
RTVSPost2010Prop45
280
     0
102
RTVSPost2010PropOp45
 70
     1
102
RTVSPost2010Prop46
 90
       50
102
RTVSPost2010PropOp46
 70
     1
102
RTVSPost2010Prop47
 90
       50
102
RTVSPost2010PropOp47
 70
     1
102
RTVSPost2010Prop48
 90
       50
102
RTVSPost2010PropOp48
 70
     1
102
RTVSPost2010Prop49
280
     0
102
RTVSPost2010PropOp49
 70
     1
102
RTVSPost2010Prop50
 90
       50
102
RTVSPost2010PropOp50
 70
     1
102
RTVSPost2010Prop51ColorIndex
 90
      256
102
RTVSPost2010Prop51ColorRGB
 90
-16777216
102
RTVSPost2010PropOp51
 70
     0
102
RTVSPost2010Prop52
140
1.0
102
RTVSPost2010PropOp52
 70
     0
102
RTVSPost2010Prop53
 90
        2
102
RTVSPost2010PropOp53
 70
     1
102
RTVSPost2010Prop54
  1
strokes_ogs.tif
102
RTVSPost2010PropOp54
 70
     1
102
RTVSPost2010Prop55
280
     0
102
RTVSPost2010PropOp55
 70
     1
102
RTVSPost2010Prop56
140
1.0
102
RTVSPost2010PropOp56
 70
     1
102
RTVSPost2010Prop57
140
1.0
102
RTVSPost2010PropOp57
 70
     1
  0
XRECORD
  5
54B
102
{ACAD_REACTORS
330
54A
102
}
330
54A
100
AcDbXrecord
280
     1
102
RTVSPropertyOp33
 70
     1
102
RTVSPropertyOp34
 70
     1
102
RTVSPropertyOp35
 70
     1
102
RTVSPropertyOp36
 70
     1
102
RTVSPropertyOp37
 70
     1
102
RTVSPropertyOp38
 70
     1
102
RTVSPropertyOp39
 70
     1
102
RTVSPropertyOp40
 70
     1
102
RTVSPropertyOp41
 70
     1
102
RTVSPropertyOp42
 70
     1
102
RTVSPropertyOp43
 70
     1
102
RTVSPropertyOp44
 70
     1
102
RTVSPropertyOp45
 70
     1
102
RTVSPropertyOp46
 70
     1
102
RTVSPropertyOp47
 70
     1
102
RTVSPropertyOp48
 70
     1
102
RTVSPropertyOp49
 70
     1
102
RTVSPropertyOp50
 70
     1
102
RTVSPropertyOp51
 70
     0
102
RTVSPropertyOp52
 70
     0
102
RTVSPropertyOp53
 70
     1
102
RTVSPropertyOp54
 70
     1
102
RTVSPropertyOp55
 70
     1
102
RTVSPropertyOp56
 70
     1
102
RTVSPropertyOp57
 70
     1
102
RTVSPost2010Prop28
280
     0
102
RTVSPost2010PropOp28
 70
     1
102
RTVSPost2010Prop29
280
     1
102
RTVSPost2010PropOp29
 70
     1
102
RTVSPost2010Prop30
280
     1
102
RTVSPost2010PropOp30
 70
     1
102
RTVSPost2010Prop31
280
     0
102
RTVSPost2010PropOp31
 70
     1
102
RTVSPost2010Prop32
280
     0
102
RTVSPost2010PropOp32
 70
     1
102
RTVSPost2010Prop33
280
     0
102
RTVSPost2010PropOp33
 70
     1
102
RTVSPost2010Prop34
280
     0
102
RTVSPost2010PropOp34
 70
     1
102
RTVSPost2010Prop35
280
     0
102
RTVSPost2010PropOp35
 70
     1
102
RTVSPost2010Prop36
280
     0
102
RTVSPost2010PropOp36
 70
     1
102
RTVSPost2010Prop37
 90
       50
102
RTVSPost2010PropOp37
 70
     1
102
RTVSPost2010Prop38
140
0.0
102
RTVSPost2010PropOp38
 70
     1
102
RTVSPost2010Prop39
140
1.0
102
RTVSPost2010PropOp39
 70
     1
102
RTVSPost2010Prop40
 90
        0
102
RTVSPost2010PropOp40
 70
     1
102
RTVSPost2010Prop41ColorIndex
 90
       18
102
RTVSPost2010Prop41ColorRGB
 90
        0
102
RTVSPost2010PropOp41
 70
     1
102
RTVSPost2010Prop42
 90
       50
102
RTVSPost2010PropOp42
 70
     1
102
RTVSPost2010Prop43
 90
        3
102
RTVSPost2010PropOp43
 70
     1
102
RTVSPost2010Prop44ColorIndex
 90
        5
102
RTVSPost2010Prop44ColorRGB
 90
      255
102
RTVSPost2010PropOp44
 70
     1
102
RTVSPost2010Prop45
280
     0
102
RTVSPost2010PropOp45
 70
     1
102
RTVSPost2010Prop46
 90
       50
102
RTVSPost2010PropOp46
 70
     1
102
RTVSPost2010Prop47
 90
       50
102
RTVSPost2010PropOp47
 70
     1
102
RTVSPost2010Prop48
 90
       50
102
RTVSPost2010PropOp48
 70
     1
102
RTVSPost2010Prop49
280
     0
102
RTVSPost2010PropOp49
 70
     1
102
RTVSPost2010Prop50
 90
       50
102
RTVSPost2010PropOp50
 70
     1
102
RTVSPost2010Prop51ColorIndex
 90
      256
102
RTVSPost2010Prop51ColorRGB
 90
-16777216
102
RTVSPost2010PropOp51
 70
     0
102
RTVSPost2010Prop52
140
1.0
102
RTVSPost2010PropOp52
 70
     0
102
RTVSPost2010Prop53
 90
        2
102
RTVSPost2010PropOp53
 70
     1
102
RTVSPost2010Prop54
  1
strokes_ogs.tif
102
RTVSPost2010PropOp54
 70
     1
102
RTVSPost2010Prop55
280
     0
102
RTVSPost2010PropOp55
 70
     1
102
RTVSPost2010Prop56
140
1.0
102
RTVSPost2010PropOp56
 70
     1
102
RTVSPost2010Prop57
140
1.0
102
RTVSPost2010PropOp57
 70
     1
  0
XRECORD
  5
54D
102
{ACAD_REACTORS
330
54C
102
}
330
54C
100
AcDbXrecord
280
     1
102
RTVSPropertyOp33
 70
     1
102
RTVSPropertyOp34
 70
     1
102
RTVSPropertyOp35
 70
     1
102
RTVSPropertyOp36
 70
     1
102
RTVSPropertyOp37
 70
     1
102
RTVSPropertyOp38
 70
     1
102
RTVSPropertyOp39
 70
     1
102
RTVSPropertyOp40
 70
     1
102
RTVSPropertyOp41
 70
     1
102
RTVSPropertyOp42
 70
     1
102
RTVSPropertyOp43
 70
     1
102
RTVSPropertyOp44
 70
     1
102
RTVSPropertyOp45
 70
     1
102
RTVSPropertyOp46
 70
     1
102
RTVSPropertyOp47
 70
     1
102
RTVSPropertyOp48
 70
     1
102
RTVSPropertyOp49
 70
     1
102
RTVSPropertyOp50
 70
     1
102
RTVSPropertyOp51
 70
     0
102
RTVSPropertyOp52
 70
     0
102
RTVSPropertyOp53
 70
     1
102
RTVSPropertyOp54
 70
     1
102
RTVSPropertyOp55
 70
     1
102
RTVSPropertyOp56
 70
     1
102
RTVSPropertyOp57
 70
     1
102
RTVSPost2010Prop28
280
     0
102
RTVSPost2010PropOp28
 70
     1
102
RTVSPost2010Prop29
280
     1
102
RTVSPost2010PropOp29
 70
     1
102
RTVSPost2010Prop30
280
     1
102
RTVSPost2010PropOp30
 70
     1
102
RTVSPost2010Prop31
280
     0
102
RTVSPost2010PropOp31
 70
     1
102
RTVSPost2010Prop32
280
     0
102
RTVSPost2010PropOp32
 70
     1
102
RTVSPost2010Prop33
280
     0
102
RTVSPost2010PropOp33
 70
     1
102
RTVSPost2010Prop34
280
     0
102
RTVSPost2010PropOp34
 70
     1
102
RTVSPost2010Prop35
280
     0
102
RTVSPost2010PropOp35
 70
     1
102
RTVSPost2010Prop36
280
     0
102
RTVSPost2010PropOp36
 70
     1
102
RTVSPost2010Prop37
 90
       50
102
RTVSPost2010PropOp37
 70
     1
102
RTVSPost2010Prop38
140
0.0
102
RTVSPost2010PropOp38
 70
     1
102
RTVSPost2010Prop39
140
1.0
102
RTVSPost2010PropOp39
 70
     1
102
RTVSPost2010Prop40
 90
        0
102
RTVSPost2010PropOp40
 70
     1
102
RTVSPost2010Prop41ColorIndex
 90
       18
102
RTVSPost2010Prop41ColorRGB
 90
        0
102
RTVSPost2010PropOp41
 70
     1
102
RTVSPost2010Prop42
 90
       50
102
RTVSPost2010PropOp42
 70
     1
102
RTVSPost2010Prop43
 90
        3
102
RTVSPost2010PropOp43
 70
     1
102
RTVSPost2010Prop44ColorIndex
 90
        5
102
RTVSPost2010Prop44ColorRGB
 90
      255
102
RTVSPost2010PropOp44
 70
     1
102
RTVSPost2010Prop45
280
     0
102
RTVSPost2010PropOp45
 70
     1
102
RTVSPost2010Prop46
 90
       50
102
RTVSPost2010PropOp46
 70
     1
102
RTVSPost2010Prop47
 90
       50
102
RTVSPost2010PropOp47
 70
     1
102
RTVSPost2010Prop48
 90
       50
102
RTVSPost2010PropOp48
 70
     1
102
RTVSPost2010Prop49
280
     0
102
RTVSPost2010PropOp49
 70
     1
102
RTVSPost2010Prop50
 90
       50
102
RTVSPost2010PropOp50
 70
     1
102
RTVSPost2010Prop51ColorIndex
 90
      256
102
RTVSPost2010Prop51ColorRGB
 90
-16777216
102
RTVSPost2010PropOp51
 70
     0
102
RTVSPost2010Prop52
140
1.0
102
RTVSPost2010PropOp52
 70
     0
102
RTVSPost2010Prop53
 90
        2
102
RTVSPost2010PropOp53
 70
     1
102
RTVSPost2010Prop54
  1
strokes_ogs.tif
102
RTVSPost2010PropOp54
 70
     1
102
RTVSPost2010Prop55
280
     0
102
RTVSPost2010PropOp55
 70
     1
102
RTVSPost2010Prop56
140
1.0
102
RTVSPost2010PropOp56
 70
     1
102
RTVSPost2010Prop57
140
1.0
102
RTVSPost2010PropOp57
 70
     1
  0
XRECORD
  5
54F
102
{ACAD_REACTORS
330
54E
102
}
330
54E
100
AcDbXrecord
280
     1
102
RTVSPropertyOp33
 70
     1
102
RTVSPropertyOp34
 70
     1
102
RTVSPropertyOp35
 70
     1
102
RTVSPropertyOp36
 70
     1
102
RTVSPropertyOp37
 70
     1
102
RTVSPropertyOp38
 70
     1
102
RTVSPropertyOp39
 70
     1
102
RTVSPropertyOp40
 70
     1
102
RTVSPropertyOp41
 70
     1
102
RTVSPropertyOp42
 70
     1
102
RTVSPropertyOp43
 70
     1
102
RTVSPropertyOp44
 70
     1
102
RTVSPropertyOp45
 70
     1
102
RTVSPropertyOp46
 70
     1
102
RTVSPropertyOp47
 70
     1
102
RTVSPropertyOp48
 70
     1
102
RTVSPropertyOp49
 70
     1
102
RTVSPropertyOp50
 70
     1
102
RTVSPropertyOp51
 70
     0
102
RTVSPropertyOp52
 70
     0
102
RTVSPropertyOp53
 70
     1
102
RTVSPropertyOp54
 70
     1
102
RTVSPropertyOp55
 70
     1
102
RTVSPropertyOp56
 70
     1
102
RTVSPropertyOp57
 70
     1
102
RTVSPost2010Prop28
280
     0
102
RTVSPost2010PropOp28
 70
     1
102
RTVSPost2010Prop29
280
     1
102
RTVSPost2010PropOp29
 70
     1
102
RTVSPost2010Prop30
280
     1
102
RTVSPost2010PropOp30
 70
     1
102
RTVSPost2010Prop31
280
     0
102
RTVSPost2010PropOp31
 70
     1
102
RTVSPost2010Prop32
280
     0
102
RTVSPost2010PropOp32
 70
     1
102
RTVSPost2010Prop33
280
     0
102
RTVSPost2010PropOp33
 70
     1
102
RTVSPost2010Prop34
280
     0
102
RTVSPost2010PropOp34
 70
     1
102
RTVSPost2010Prop35
280
     0
102
RTVSPost2010PropOp35
 70
     1
102
RTVSPost2010Prop36
280
     0
102
RTVSPost2010PropOp36
 70
     1
102
RTVSPost2010Prop37
 90
       50
102
RTVSPost2010PropOp37
 70
     1
102
RTVSPost2010Prop38
140
0.0
102
RTVSPost2010PropOp38
 70
     1
102
RTVSPost2010Prop39
140
1.0
102
RTVSPost2010PropOp39
 70
     1
102
RTVSPost2010Prop40
 90
        0
102
RTVSPost2010PropOp40
 70
     1
102
RTVSPost2010Prop41ColorIndex
 90
       18
102
RTVSPost2010Prop41ColorRGB
 90
        0
102
RTVSPost2010PropOp41
 70
     1
102
RTVSPost2010Prop42
 90
       50
102
RTVSPost2010PropOp42
 70
     1
102
RTVSPost2010Prop43
 90
        3
102
RTVSPost2010PropOp43
 70
     1
102
RTVSPost2010Prop44ColorIndex
 90
        5
102
RTVSPost2010Prop44ColorRGB
 90
      255
102
RTVSPost2010PropOp44
 70
     1
102
RTVSPost2010Prop45
280
     0
102
RTVSPost2010PropOp45
 70
     1
102
RTVSPost2010Prop46
 90
       50
102
RTVSPost2010PropOp46
 70
     1
102
RTVSPost2010Prop47
 90
       50
102
RTVSPost2010PropOp47
 70
     1
102
RTVSPost2010Prop48
 90
       50
102
RTVSPost2010PropOp48
 70
     1
102
RTVSPost2010Prop49
280
     0
102
RTVSPost2010PropOp49
 70
     1
102
RTVSPost2010Prop50
 90
       50
102
RTVSPost2010PropOp50
 70
     1
102
RTVSPost2010Prop51ColorIndex
 90
      256
102
RTVSPost2010Prop51ColorRGB
 90
-16777216
102
RTVSPost2010PropOp51
 70
     0
102
RTVSPost2010Prop52
140
1.0
102
RTVSPost2010PropOp52
 70
     0
102
RTVSPost2010Prop53
 90
        2
102
RTVSPost2010PropOp53
 70
     1
102
RTVSPost2010Prop54
  1
strokes_ogs.tif
102
RTVSPost2010PropOp54
 70
     1
102
RTVSPost2010Prop55
280
     0
102
RTVSPost2010PropOp55
 70
     1
102
RTVSPost2010Prop56
140
1.0
102
RTVSPost2010PropOp56
 70
     1
102
RTVSPost2010Prop57
140
1.0
102
RTVSPost2010PropOp57
 70
     1
  0
XRECORD
  5
551
102
{ACAD_REACTORS
330
550
102
}
330
550
100
AcDbXrecord
280
     1
102
RTVSPropertyOp33
 70
     1
102
RTVSPropertyOp34
 70
     1
102
RTVSPropertyOp35
 70
     1
102
RTVSPropertyOp36
 70
     1
102
RTVSPropertyOp37
 70
     1
102
RTVSPropertyOp38
 70
     1
102
RTVSPropertyOp39
 70
     1
102
RTVSPropertyOp40
 70
     1
102
RTVSPropertyOp41
 70
     1
102
RTVSPropertyOp42
 70
     1
102
RTVSPropertyOp43
 70
     1
102
RTVSPropertyOp44
 70
     1
102
RTVSPropertyOp45
 70
     1
102
RTVSPropertyOp46
 70
     1
102
RTVSPropertyOp47
 70
     1
102
RTVSPropertyOp48
 70
     1
102
RTVSPropertyOp49
 70
     1
102
RTVSPropertyOp50
 70
     1
102
RTVSPropertyOp51
 70
     0
102
RTVSPropertyOp52
 70
     0
102
RTVSPropertyOp53
 70
     1
102
RTVSPropertyOp54
 70
     1
102
RTVSPropertyOp55
 70
     1
102
RTVSPropertyOp56
 70
     1
102
RTVSPropertyOp57
 70
     1
102
RTVSPost2010Prop28
280
     0
102
RTVSPost2010PropOp28
 70
     1
102
RTVSPost2010Prop29
280
     1
102
RTVSPost2010PropOp29
 70
     1
102
RTVSPost2010Prop30
280
     1
102
RTVSPost2010PropOp30
 70
     1
102
RTVSPost2010Prop31
280
     0
102
RTVSPost2010PropOp31
 70
     1
102
RTVSPost2010Prop32
280
     0
102
RTVSPost2010PropOp32
 70
     1
102
RTVSPost2010Prop33
280
     0
102
RTVSPost2010PropOp33
 70
     1
102
RTVSPost2010Prop34
280
     0
102
RTVSPost2010PropOp34
 70
     1
102
RTVSPost2010Prop35
280
     0
102
RTVSPost2010PropOp35
 70
     1
102
RTVSPost2010Prop36
280
     0
102
RTVSPost2010PropOp36
 70
     1
102
RTVSPost2010Prop37
 90
       50
102
RTVSPost2010PropOp37
 70
     1
102
RTVSPost2010Prop38
140
0.0
102
RTVSPost2010PropOp38
 70
     1
102
RTVSPost2010Prop39
140
1.0
102
RTVSPost2010PropOp39
 70
     1
102
RTVSPost2010Prop40
 90
        0
102
RTVSPost2010PropOp40
 70
     1
102
RTVSPost2010Prop41ColorIndex
 90
       18
102
RTVSPost2010Prop41ColorRGB
 90
        0
102
RTVSPost2010PropOp41
 70
     1
102
RTVSPost2010Prop42
 90
       50
102
RTVSPost2010PropOp42
 70
     1
102
RTVSPost2010Prop43
 90
        3
102
RTVSPost2010PropOp43
 70
     1
102
RTVSPost2010Prop44ColorIndex
 90
        5
102
RTVSPost2010Prop44ColorRGB
 90
      255
102
RTVSPost2010PropOp44
 70
     1
102
RTVSPost2010Prop45
280
     0
102
RTVSPost2010PropOp45
 70
     1
102
RTVSPost2010Prop46
 90
       50
102
RTVSPost2010PropOp46
 70
     1
102
RTVSPost2010Prop47
 90
       50
102
RTVSPost2010PropOp47
 70
     1
102
RTVSPost2010Prop48
 90
       50
102
RTVSPost2010PropOp48
 70
     1
102
RTVSPost2010Prop49
280
     0
102
RTVSPost2010PropOp49
 70
     1
102
RTVSPost2010Prop50
 90
       50
102
RTVSPost2010PropOp50
 70
     1
102
RTVSPost2010Prop51ColorIndex
 90
      256
102
RTVSPost2010Prop51ColorRGB
 90
-16777216
102
RTVSPost2010PropOp51
 70
     0
102
RTVSPost2010Prop52
140
1.0
102
RTVSPost2010PropOp52
 70
     0
102
RTVSPost2010Prop53
 90
        2
102
RTVSPost2010PropOp53
 70
     1
102
RTVSPost2010Prop54
  1
strokes_ogs.tif
102
RTVSPost2010PropOp54
 70
     1
102
RTVSPost2010Prop55
280
     0
102
RTVSPost2010PropOp55
 70
     1
102
RTVSPost2010Prop56
140
1.0
102
RTVSPost2010PropOp56
 70
     1
102
RTVSPost2010Prop57
140
1.0
102
RTVSPost2010PropOp57
 70
     1
  0
XRECORD
  5
557
102
{ACAD_REACTORS
330
556
102
}
330
556
100
AcDbXrecord
280
     1
102
RTVSPropertyOp33
 70
     1
102
RTVSPropertyOp34
 70
     1
102
RTVSPropertyOp35
 70
     1
102
RTVSPropertyOp36
 70
     1
102
RTVSPropertyOp37
 70
     1
102
RTVSPropertyOp38
 70
     1
102
RTVSPropertyOp39
 70
     1
102
RTVSPropertyOp40
 70
     1
102
RTVSPropertyOp41
 70
     1
102
RTVSPropertyOp42
 70
     1
102
RTVSPropertyOp43
 70
     1
102
RTVSPropertyOp44
 70
     1
102
RTVSPropertyOp45
 70
     1
102
RTVSPropertyOp46
 70
     1
102
RTVSPropertyOp47
 70
     1
102
RTVSPropertyOp48
 70
     1
102
RTVSPropertyOp49
 70
     1
102
RTVSPropertyOp50
 70
     1
102
RTVSPropertyOp51
 70
     0
102
RTVSPropertyOp52
 70
     0
102
RTVSPropertyOp53
 70
     1
102
RTVSPropertyOp54
 70
     1
102
RTVSPropertyOp55
 70
     1
102
RTVSPropertyOp56
 70
     1
102
RTVSPropertyOp57
 70
     1
102
RTVSPost2010Prop28
280
     0
102
RTVSPost2010PropOp28
 70
     1
102
RTVSPost2010Prop29
280
     1
102
RTVSPost2010PropOp29
 70
     1
102
RTVSPost2010Prop30
280
     1
102
RTVSPost2010PropOp30
 70
     1
102
RTVSPost2010Prop31
280
     0
102
RTVSPost2010PropOp31
 70
     1
102
RTVSPost2010Prop32
280
     0
102
RTVSPost2010PropOp32
 70
     1
102
RTVSPost2010Prop33
280
     0
102
RTVSPost2010PropOp33
 70
     1
102
RTVSPost2010Prop34
280
     0
102
RTVSPost2010PropOp34
 70
     1
102
RTVSPost2010Prop35
280
     0
102
RTVSPost2010PropOp35
 70
     1
102
RTVSPost2010Prop36
280
     0
102
RTVSPost2010PropOp36
 70
     1
102
RTVSPost2010Prop37
 90
       50
102
RTVSPost2010PropOp37
 70
     1
102
RTVSPost2010Prop38
140
0.0
102
RTVSPost2010PropOp38
 70
     1
102
RTVSPost2010Prop39
140
1.0
102
RTVSPost2010PropOp39
 70
     1
102
RTVSPost2010Prop40
 90
        0
102
RTVSPost2010PropOp40
 70
     1
102
RTVSPost2010Prop41ColorIndex
 90
       18
102
RTVSPost2010Prop41ColorRGB
 90
        0
102
RTVSPost2010PropOp41
 70
     1
102
RTVSPost2010Prop42
 90
       50
102
RTVSPost2010PropOp42
 70
     1
102
RTVSPost2010Prop43
 90
        3
102
RTVSPost2010PropOp43
 70
     1
102
RTVSPost2010Prop44ColorIndex
 90
        5
102
RTVSPost2010Prop44ColorRGB
 90
      255
102
RTVSPost2010PropOp44
 70
     1
102
RTVSPost2010Prop45
280
     0
102
RTVSPost2010PropOp45
 70
     1
102
RTVSPost2010Prop46
 90
       50
102
RTVSPost2010PropOp46
 70
     1
102
RTVSPost2010Prop47
 90
       50
102
RTVSPost2010PropOp47
 70
     1
102
RTVSPost2010Prop48
 90
       50
102
RTVSPost2010PropOp48
 70
     1
102
RTVSPost2010Prop49
280
     0
102
RTVSPost2010PropOp49
 70
     1
102
RTVSPost2010Prop50
 90
       50
102
RTVSPost2010PropOp50
 70
     1
102
RTVSPost2010Prop51ColorIndex
 90
      256
102
RTVSPost2010Prop51ColorRGB
 90
-16777216
102
RTVSPost2010PropOp51
 70
     0
102
RTVSPost2010Prop52
140
1.0
102
RTVSPost2010PropOp52
 70
     0
102
RTVSPost2010Prop53
 90
        2
102
RTVSPost2010PropOp53
 70
     1
102
RTVSPost2010Prop54
  1
strokes_ogs.tif
102
RTVSPost2010PropOp54
 70
     1
102
RTVSPost2010Prop55
280
     0
102
RTVSPost2010PropOp55
 70
     1
102
RTVSPost2010Prop56
140
1.0
102
RTVSPost2010PropOp56
 70
     1
102
RTVSPost2010Prop57
140
1.0
102
RTVSPost2010PropOp57
 70
     1
  0
XRECORD
  5
56B
102
{ACAD_REACTORS
330
56A
102
}
330
56A
100
AcDbXrecord
280
     1
102
RTVSPropertyOp33
 70
     0
102
RTVSPropertyOp34
 70
     0
102
RTVSPropertyOp35
 70
     0
102
RTVSPropertyOp36
 70
     0
102
RTVSPropertyOp37
 70
     0
102
RTVSPropertyOp38
 70
     0
102
RTVSPropertyOp39
 70
     0
102
RTVSPropertyOp40
 70
     0
102
RTVSPropertyOp41
 70
     0
102
RTVSPropertyOp42
 70
     0
102
RTVSPropertyOp43
 70
     0
102
RTVSPropertyOp44
 70
     0
102
RTVSPropertyOp45
 70
     0
102
RTVSPropertyOp46
 70
     0
102
RTVSPropertyOp47
 70
     0
102
RTVSPropertyOp48
 70
     0
102
RTVSPropertyOp49
 70
     0
102
RTVSPropertyOp50
 70
     0
102
RTVSPropertyOp51
 70
     0
102
RTVSPropertyOp52
 70
     0
102
RTVSPropertyOp53
 70
     0
102
RTVSPropertyOp54
 70
     0
102
RTVSPropertyOp55
 70
     0
102
RTVSPropertyOp56
 70
     0
102
RTVSPropertyOp57
 70
     0
102
RTVSPost2010Prop28
280
     0
102
RTVSPost2010PropOp28
 70
     0
102
RTVSPost2010Prop29
280
     1
102
RTVSPost2010PropOp29
 70
     0
102
RTVSPost2010Prop30
280
     1
102
RTVSPost2010PropOp30
 70
     0
102
RTVSPost2010Prop31
280
     0
102
RTVSPost2010PropOp31
 70
     0
102
RTVSPost2010Prop32
280
     0
102
RTVSPost2010PropOp32
 70
     0
102
RTVSPost2010Prop33
280
     0
102
RTVSPost2010PropOp33
 70
     0
102
RTVSPost2010Prop34
280
     0
102
RTVSPost2010PropOp34
 70
     0
102
RTVSPost2010Prop35
280
     0
102
RTVSPost2010PropOp35
 70
     0
102
RTVSPost2010Prop36
280
     0
102
RTVSPost2010PropOp36
 70
     0
102
RTVSPost2010Prop37
 90
       50
102
RTVSPost2010PropOp37
 70
     0
102
RTVSPost2010Prop38
140
0.0
102
RTVSPost2010PropOp38
 70
     0
102
RTVSPost2010Prop39
140
1.0
102
RTVSPost2010PropOp39
 70
     0
102
RTVSPost2010Prop40
 90
        0
102
RTVSPost2010PropOp40
 70
     0
102
RTVSPost2010Prop41ColorIndex
 90
       18
102
RTVSPost2010Prop41ColorRGB
 90
        0
102
RTVSPost2010PropOp41
 70
     0
102
RTVSPost2010Prop42
 90
       50
102
RTVSPost2010PropOp42
 70
     0
102
RTVSPost2010Prop43
 90
        3
102
RTVSPost2010PropOp43
 70
     0
102
RTVSPost2010Prop44ColorIndex
 90
        5
102
RTVSPost2010Prop44ColorRGB
 90
      255
102
RTVSPost2010PropOp44
 70
     0
102
RTVSPost2010Prop45
280
     0
102
RTVSPost2010PropOp45
 70
     0
102
RTVSPost2010Prop46
 90
       50
102
RTVSPost2010PropOp46
 70
     0
102
RTVSPost2010Prop47
 90
       50
102
RTVSPost2010PropOp47
 70
     0
102
RTVSPost2010Prop48
 90
       50
102
RTVSPost2010PropOp48
 70
     0
102
RTVSPost2010Prop49
280
     0
102
RTVSPost2010PropOp49
 70
     0
102
RTVSPost2010Prop50
 90
       50
102
RTVSPost2010PropOp50
 70
     0
102
RTVSPost2010Prop51ColorIndex
 90
      256
102
RTVSPost2010Prop51ColorRGB
 90
-16777216
102
RTVSPost2010PropOp51
 70
     0
102
RTVSPost2010Prop52
140
1.0
102
RTVSPost2010PropOp52
 70
     0
102
RTVSPost2010Prop53
 90
        2
102
RTVSPost2010PropOp53
 70
     0
102
RTVSPost2010Prop54
  1
strokes_ogs.tif
102
RTVSPost2010PropOp54
 70
     0
102
RTVSPost2010Prop55
280
     0
102
RTVSPost2010PropOp55
 70
     0
102
RTVSPost2010Prop56
140
1.0
102
RTVSPost2010PropOp56
 70
     0
102
RTVSPost2010Prop57
140
1.0
102
RTVSPost2010PropOp57
 70
     0
  0
XRECORD
  5
565
102
{ACAD_REACTORS
330
564
102
}
330
564
100
AcDbXrecord
280
     1
102
RTVSPropertyOp33
 70
     1
102
RTVSPropertyOp34
 70
     1
102
RTVSPropertyOp35
 70
     1
102
RTVSPropertyOp36
 70
     1
102
RTVSPropertyOp37
 70
     1
102
RTVSPropertyOp38
 70
     1
102
RTVSPropertyOp39
 70
     1
102
RTVSPropertyOp40
 70
     1
102
RTVSPropertyOp41
 70
     1
102
RTVSPropertyOp42
 70
     1
102
RTVSPropertyOp43
 70
     1
102
RTVSPropertyOp44
 70
     1
102
RTVSPropertyOp45
 70
     1
102
RTVSPropertyOp46
 70
     1
102
RTVSPropertyOp47
 70
     1
102
RTVSPropertyOp48
 70
     1
102
RTVSPropertyOp49
 70
     1
102
RTVSPropertyOp50
 70
     1
102
RTVSPropertyOp51
 70
     0
102
RTVSPropertyOp52
 70
     0
102
RTVSPropertyOp53
 70
     1
102
RTVSPropertyOp54
 70
     1
102
RTVSPropertyOp55
 70
     1
102
RTVSPropertyOp56
 70
     1
102
RTVSPropertyOp57
 70
     1
102
RTVSPost2010Prop28
280
     0
102
RTVSPost2010PropOp28
 70
     1
102
RTVSPost2010Prop29
280
     1
102
RTVSPost2010PropOp29
 70
     1
102
RTVSPost2010Prop30
280
     1
102
RTVSPost2010PropOp30
 70
     1
102
RTVSPost2010Prop31
280
     0
102
RTVSPost2010PropOp31
 70
     1
102
RTVSPost2010Prop32
280
     0
102
RTVSPost2010PropOp32
 70
     1
102
RTVSPost2010Prop33
280
     0
102
RTVSPost2010PropOp33
 70
     1
102
RTVSPost2010Prop34
280
     0
102
RTVSPost2010PropOp34
 70
     1
102
RTVSPost2010Prop35
280
     0
102
RTVSPost2010PropOp35
 70
     1
102
RTVSPost2010Prop36
280
     0
102
RTVSPost2010PropOp36
 70
     1
102
RTVSPost2010Prop37
 90
       50
102
RTVSPost2010PropOp37
 70
     1
102
RTVSPost2010Prop38
140
0.0
102
RTVSPost2010PropOp38
 70
     1
102
RTVSPost2010Prop39
140
1.0
102
RTVSPost2010PropOp39
 70
     1
102
RTVSPost2010Prop40
 90
        0
102
RTVSPost2010PropOp40
 70
     1
102
RTVSPost2010Prop41ColorIndex
 90
       18
102
RTVSPost2010Prop41ColorRGB
 90
        0
102
RTVSPost2010PropOp41
 70
     1
102
RTVSPost2010Prop42
 90
       50
102
RTVSPost2010PropOp42
 70
     1
102
RTVSPost2010Prop43
 90
        3
102
RTVSPost2010PropOp43
 70
     1
102
RTVSPost2010Prop44ColorIndex
 90
        5
102
RTVSPost2010Prop44ColorRGB
 90
      255
102
RTVSPost2010PropOp44
 70
     1
102
RTVSPost2010Prop45
280
     0
102
RTVSPost2010PropOp45
 70
     1
102
RTVSPost2010Prop46
 90
       50
102
RTVSPost2010PropOp46
 70
     1
102
RTVSPost2010Prop47
 90
       50
102
RTVSPost2010PropOp47
 70
     1
102
RTVSPost2010Prop48
 90
       50
102
RTVSPost2010PropOp48
 70
     1
102
RTVSPost2010Prop49
280
     0
102
RTVSPost2010PropOp49
 70
     1
102
RTVSPost2010Prop50
 90
       50
102
RTVSPost2010PropOp50
 70
     1
102
RTVSPost2010Prop51ColorIndex
 90
      256
102
RTVSPost2010Prop51ColorRGB
 90
-16777216
102
RTVSPost2010PropOp51
 70
     0
102
RTVSPost2010Prop52
140
1.0
102
RTVSPost2010PropOp52
 70
     0
102
RTVSPost2010Prop53
 90
        2
102
RTVSPost2010PropOp53
 70
     1
102
RTVSPost2010Prop54
  1
strokes_ogs.tif
102
RTVSPost2010PropOp54
 70
     1
102
RTVSPost2010Prop55
280
     0
102
RTVSPost2010PropOp55
 70
     1
102
RTVSPost2010Prop56
140
1.0
102
RTVSPost2010PropOp56
 70
     1
102
RTVSPost2010Prop57
140
1.0
102
RTVSPost2010PropOp57
 70
     1
  0
XRECORD
  5
56D
102
{ACAD_REACTORS
330
56C
102
}
330
56C
100
AcDbXrecord
280
     1
102
RTVSPropertyOp33
 70
     0
102
RTVSPropertyOp34
 70
     0
102
RTVSPropertyOp35
 70
     0
102
RTVSPropertyOp36
 70
     0
102
RTVSPropertyOp37
 70
     0
102
RTVSPropertyOp38
 70
     0
102
RTVSPropertyOp39
 70
     0
102
RTVSPropertyOp40
 70
     0
102
RTVSPropertyOp41
 70
     0
102
RTVSPropertyOp42
 70
     0
102
RTVSPropertyOp43
 70
     0
102
RTVSPropertyOp44
 70
     0
102
RTVSPropertyOp45
 70
     0
102
RTVSPropertyOp46
 70
     0
102
RTVSPropertyOp47
 70
     0
102
RTVSPropertyOp48
 70
     0
102
RTVSPropertyOp49
 70
     0
102
RTVSPropertyOp50
 70
     0
102
RTVSPropertyOp51
 70
     0
102
RTVSPropertyOp52
 70
     0
102
RTVSPropertyOp53
 70
     0
102
RTVSPropertyOp54
 70
     0
102
RTVSPropertyOp55
 70
     0
102
RTVSPropertyOp56
 70
     0
102
RTVSPropertyOp57
 70
     0
102
RTVSPost2010Prop28
280
     0
102
RTVSPost2010PropOp28
 70
     0
102
RTVSPost2010Prop29
280
     1
102
RTVSPost2010PropOp29
 70
     0
102
RTVSPost2010Prop30
280
     1
102
RTVSPost2010PropOp30
 70
     0
102
RTVSPost2010Prop31
280
     0
102
RTVSPost2010PropOp31
 70
     0
102
RTVSPost2010Prop32
280
     0
102
RTVSPost2010PropOp32
 70
     0
102
RTVSPost2010Prop33
280
     0
102
RTVSPost2010PropOp33
 70
     0
102
RTVSPost2010Prop34
280
     0
102
RTVSPost2010PropOp34
 70
     0
102
RTVSPost2010Prop35
280
     0
102
RTVSPost2010PropOp35
 70
     0
102
RTVSPost2010Prop36
280
     0
102
RTVSPost2010PropOp36
 70
     0
102
RTVSPost2010Prop37
 90
       50
102
RTVSPost2010PropOp37
 70
     0
102
RTVSPost2010Prop38
140
0.0
102
RTVSPost2010PropOp38
 70
     0
102
RTVSPost2010Prop39
140
1.0
102
RTVSPost2010PropOp39
 70
     0
102
RTVSPost2010Prop40
 90
        0
102
RTVSPost2010PropOp40
 70
     0
102
RTVSPost2010Prop41ColorIndex
 90
       18
102
RTVSPost2010Prop41ColorRGB
 90
        0
102
RTVSPost2010PropOp41
 70
     0
102
RTVSPost2010Prop42
 90
       50
102
RTVSPost2010PropOp42
 70
     0
102
RTVSPost2010Prop43
 90
        3
102
RTVSPost2010PropOp43
 70
     0
102
RTVSPost2010Prop44ColorIndex
 90
        5
102
RTVSPost2010Prop44ColorRGB
 90
      255
102
RTVSPost2010PropOp44
 70
     0
102
RTVSPost2010Prop45
280
     0
102
RTVSPost2010PropOp45
 70
     0
102
RTVSPost2010Prop46
 90
       50
102
RTVSPost2010PropOp46
 70
     0
102
RTVSPost2010Prop47
 90
       50
102
RTVSPost2010PropOp47
 70
     0
102
RTVSPost2010Prop48
 90
       50
102
RTVSPost2010PropOp48
 70
     0
102
RTVSPost2010Prop49
280
     0
102
RTVSPost2010PropOp49
 70
     0
102
RTVSPost2010Prop50
 90
       50
102
RTVSPost2010PropOp50
 70
     0
102
RTVSPost2010Prop51ColorIndex
 90
      256
102
RTVSPost2010Prop51ColorRGB
 90
-16777216
102
RTVSPost2010PropOp51
 70
     0
102
RTVSPost2010Prop52
140
1.0
102
RTVSPost2010PropOp52
 70
     0
102
RTVSPost2010Prop53
 90
        2
102
RTVSPost2010PropOp53
 70
     0
102
RTVSPost2010Prop54
  1
strokes_ogs.tif
102
RTVSPost2010PropOp54
 70
     0
102
RTVSPost2010Prop55
280
     0
102
RTVSPost2010PropOp55
 70
     0
102
RTVSPost2010Prop56
140
1.0
102
RTVSPost2010PropOp56
 70
     0
102
RTVSPost2010Prop57
140
1.0
102
RTVSPost2010PropOp57
 70
     0
  0
XRECORD
  5
55B
102
{ACAD_REACTORS
330
55A
102
}
330
55A
100
AcDbXrecord
280
     1
102
RTVSPropertyOp33
 70
     1
102
RTVSPropertyOp34
 70
     1
102
RTVSPropertyOp35
 70
     1
102
RTVSPropertyOp36
 70
     1
102
RTVSPropertyOp37
 70
     1
102
RTVSPropertyOp38
 70
     1
102
RTVSPropertyOp39
 70
     1
102
RTVSPropertyOp40
 70
     1
102
RTVSPropertyOp41
 70
     1
102
RTVSPropertyOp42
 70
     1
102
RTVSPropertyOp43
 70
     1
102
RTVSPropertyOp44
 70
     1
102
RTVSPropertyOp45
 70
     1
102
RTVSPropertyOp46
 70
     1
102
RTVSPropertyOp47
 70
     1
102
RTVSPropertyOp48
 70
     1
102
RTVSPropertyOp49
 70
     1
102
RTVSPropertyOp50
 70
     1
102
RTVSPropertyOp51
 70
     0
102
RTVSPropertyOp52
 70
     0
102
RTVSPropertyOp53
 70
     1
102
RTVSPropertyOp54
 70
     1
102
RTVSPropertyOp55
 70
     1
102
RTVSPropertyOp56
 70
     1
102
RTVSPropertyOp57
 70
     1
102
RTVSPost2010Prop28
280
     0
102
RTVSPost2010PropOp28
 70
     1
102
RTVSPost2010Prop29
280
     1
102
RTVSPost2010PropOp29
 70
     1
102
RTVSPost2010Prop30
280
     1
102
RTVSPost2010PropOp30
 70
     1
102
RTVSPost2010Prop31
280
     0
102
RTVSPost2010PropOp31
 70
     1
102
RTVSPost2010Prop32
280
     0
102
RTVSPost2010PropOp32
 70
     1
102
RTVSPost2010Prop33
280
     0
102
RTVSPost2010PropOp33
 70
     1
102
RTVSPost2010Prop34
280
     0
102
RTVSPost2010PropOp34
 70
     1
102
RTVSPost2010Prop35
280
     0
102
RTVSPost2010PropOp35
 70
     1
102
RTVSPost2010Prop36
280
     0
102
RTVSPost2010PropOp36
 70
     1
102
RTVSPost2010Prop37
 90
       50
102
RTVSPost2010PropOp37
 70
     1
102
RTVSPost2010Prop38
140
0.0
102
RTVSPost2010PropOp38
 70
     1
102
RTVSPost2010Prop39
140
1.0
102
RTVSPost2010PropOp39
 70
     1
102
RTVSPost2010Prop40
 90
        0
102
RTVSPost2010PropOp40
 70
     1
102
RTVSPost2010Prop41ColorIndex
 90
       18
102
RTVSPost2010Prop41ColorRGB
 90
        0
102
RTVSPost2010PropOp41
 70
     1
102
RTVSPost2010Prop42
 90
       50
102
RTVSPost2010PropOp42
 70
     1
102
RTVSPost2010Prop43
 90
        3
102
RTVSPost2010PropOp43
 70
     1
102
RTVSPost2010Prop44ColorIndex
 90
        5
102
RTVSPost2010Prop44ColorRGB
 90
      255
102
RTVSPost2010PropOp44
 70
     1
102
RTVSPost2010Prop45
280
     0
102
RTVSPost2010PropOp45
 70
     1
102
RTVSPost2010Prop46
 90
       50
102
RTVSPost2010PropOp46
 70
     1
102
RTVSPost2010Prop47
 90
       50
102
RTVSPost2010PropOp47
 70
     1
102
RTVSPost2010Prop48
 90
       50
102
RTVSPost2010PropOp48
 70
     1
102
RTVSPost2010Prop49
280
     0
102
RTVSPost2010PropOp49
 70
     1
102
RTVSPost2010Prop50
 90
       50
102
RTVSPost2010PropOp50
 70
     1
102
RTVSPost2010Prop51ColorIndex
 90
      256
102
RTVSPost2010Prop51ColorRGB
 90
-16777216
102
RTVSPost2010PropOp51
 70
     0
102
RTVSPost2010Prop52
140
1.0
102
RTVSPost2010PropOp52
 70
     0
102
RTVSPost2010Prop53
 90
        2
102
RTVSPost2010PropOp53
 70
     1
102
RTVSPost2010Prop54
  1
strokes_ogs.tif
102
RTVSPost2010PropOp54
 70
     1
102
RTVSPost2010Prop55
280
     0
102
RTVSPost2010PropOp55
 70
     1
102
RTVSPost2010Prop56
140
1.0
102
RTVSPost2010PropOp56
 70
     1
102
RTVSPost2010Prop57
140
1.0
102
RTVSPost2010PropOp57
 70
     1
  0
XRECORD
  5
579
102
{ACAD_REACTORS
330
578
102
}
330
578
100
AcDbXrecord
280
     1
102
RTVSPropertyOp33
 70
     1
102
RTVSPropertyOp34
 70
     1
102
RTVSPropertyOp35
 70
     1
102
RTVSPropertyOp36
 70
     1
102
RTVSPropertyOp37
 70
     1
102
RTVSPropertyOp38
 70
     1
102
RTVSPropertyOp39
 70
     1
102
RTVSPropertyOp40
 70
     1
102
RTVSPropertyOp41
 70
     1
102
RTVSPropertyOp42
 70
     1
102
RTVSPropertyOp43
 70
     1
102
RTVSPropertyOp44
 70
     1
102
RTVSPropertyOp45
 70
     1
102
RTVSPropertyOp46
 70
     1
102
RTVSPropertyOp47
 70
     1
102
RTVSPropertyOp48
 70
     1
102
RTVSPropertyOp49
 70
     1
102
RTVSPropertyOp50
 70
     1
102
RTVSPropertyOp51
 70
     0
102
RTVSPropertyOp52
 70
     0
102
RTVSPropertyOp53
 70
     1
102
RTVSPropertyOp54
 70
     1
102
RTVSPropertyOp55
 70
     1
102
RTVSPropertyOp56
 70
     1
102
RTVSPropertyOp57
 70
     1
102
RTVSPost2010Prop28
280
     0
102
RTVSPost2010PropOp28
 70
     1
102
RTVSPost2010Prop29
280
     1
102
RTVSPost2010PropOp29
 70
     1
102
RTVSPost2010Prop30
280
     1
102
RTVSPost2010PropOp30
 70
     1
102
RTVSPost2010Prop31
280
     0
102
RTVSPost2010PropOp31
 70
     1
102
RTVSPost2010Prop32
280
     0
102
RTVSPost2010PropOp32
 70
     1
102
RTVSPost2010Prop33
280
     0
102
RTVSPost2010PropOp33
 70
     1
102
RTVSPost2010Prop34
280
     0
102
RTVSPost2010PropOp34
 70
     1
102
RTVSPost2010Prop35
280
     0
102
RTVSPost2010PropOp35
 70
     1
102
RTVSPost2010Prop36
280
     0
102
RTVSPost2010PropOp36
 70
     1
102
RTVSPost2010Prop37
 90
       50
102
RTVSPost2010PropOp37
 70
     1
102
RTVSPost2010Prop38
140
0.0
102
RTVSPost2010PropOp38
 70
     1
102
RTVSPost2010Prop39
140
1.0
102
RTVSPost2010PropOp39
 70
     1
102
RTVSPost2010Prop40
 90
        0
102
RTVSPost2010PropOp40
 70
     1
102
RTVSPost2010Prop41ColorIndex
 90
       18
102
RTVSPost2010Prop41ColorRGB
 90
        0
102
RTVSPost2010PropOp41
 70
     1
102
RTVSPost2010Prop42
 90
       50
102
RTVSPost2010PropOp42
 70
     1
102
RTVSPost2010Prop43
 90
        3
102
RTVSPost2010PropOp43
 70
     1
102
RTVSPost2010Prop44ColorIndex
 90
        5
102
RTVSPost2010Prop44ColorRGB
 90
      255
102
RTVSPost2010PropOp44
 70
     1
102
RTVSPost2010Prop45
280
     0
102
RTVSPost2010PropOp45
 70
     1
102
RTVSPost2010Prop46
 90
       50
102
RTVSPost2010PropOp46
 70
     1
102
RTVSPost2010Prop47
 90
       50
102
RTVSPost2010PropOp47
 70
     1
102
RTVSPost2010Prop48
 90
       50
102
RTVSPost2010PropOp48
 70
     1
102
RTVSPost2010Prop49
280
     0
102
RTVSPost2010PropOp49
 70
     1
102
RTVSPost2010Prop50
 90
       50
102
RTVSPost2010PropOp50
 70
     1
102
RTVSPost2010Prop51ColorIndex
 90
      256
102
RTVSPost2010Prop51ColorRGB
 90
-16777216
102
RTVSPost2010PropOp51
 70
     0
102
RTVSPost2010Prop52
140
1.0
102
RTVSPost2010PropOp52
 70
     0
102
RTVSPost2010Prop53
 90
        2
102
RTVSPost2010PropOp53
 70
     1
102
RTVSPost2010Prop54
  1
strokes_ogs.tif
102
RTVSPost2010PropOp54
 70
     1
102
RTVSPost2010Prop55
280
     0
102
RTVSPost2010PropOp55
 70
     1
102
RTVSPost2010Prop56
140
1.0
102
RTVSPost2010PropOp56
 70
     1
102
RTVSPost2010Prop57
140
1.0
102
RTVSPost2010PropOp57
 70
     1
  0
XRECORD
  5
577
102
{ACAD_REACTORS
330
576
102
}
330
576
100
AcDbXrecord
280
     1
102
RTVSPropertyOp33
 70
     1
102
RTVSPropertyOp34
 70
     1
102
RTVSPropertyOp35
 70
     1
102
RTVSPropertyOp36
 70
     1
102
RTVSPropertyOp37
 70
     1
102
RTVSPropertyOp38
 70
     1
102
RTVSPropertyOp39
 70
     1
102
RTVSPropertyOp40
 70
     1
102
RTVSPropertyOp41
 70
     1
102
RTVSPropertyOp42
 70
     1
102
RTVSPropertyOp43
 70
     1
102
RTVSPropertyOp44
 70
     1
102
RTVSPropertyOp45
 70
     1
102
RTVSPropertyOp46
 70
     1
102
RTVSPropertyOp47
 70
     1
102
RTVSPropertyOp48
 70
     1
102
RTVSPropertyOp49
 70
     1
102
RTVSPropertyOp50
 70
     1
102
RTVSPropertyOp51
 70
     0
102
RTVSPropertyOp52
 70
     0
102
RTVSPropertyOp53
 70
     1
102
RTVSPropertyOp54
 70
     1
102
RTVSPropertyOp55
 70
     1
102
RTVSPropertyOp56
 70
     1
102
RTVSPropertyOp57
 70
     1
102
RTVSPost2010Prop28
280
     0
102
RTVSPost2010PropOp28
 70
     1
102
RTVSPost2010Prop29
280
     1
102
RTVSPost2010PropOp29
 70
     1
102
RTVSPost2010Prop30
280
     1
102
RTVSPost2010PropOp30
 70
     1
102
RTVSPost2010Prop31
280
     0
102
RTVSPost2010PropOp31
 70
     1
102
RTVSPost2010Prop32
280
     0
102
RTVSPost2010PropOp32
 70
     1
102
RTVSPost2010Prop33
280
     0
102
RTVSPost2010PropOp33
 70
     1
102
RTVSPost2010Prop34
280
     0
102
RTVSPost2010PropOp34
 70
     1
102
RTVSPost2010Prop35
280
     0
102
RTVSPost2010PropOp35
 70
     1
102
RTVSPost2010Prop36
280
     0
102
RTVSPost2010PropOp36
 70
     1
102
RTVSPost2010Prop37
 90
       50
102
RTVSPost2010PropOp37
 70
     1
102
RTVSPost2010Prop38
140
0.0
102
RTVSPost2010PropOp38
 70
     1
102
RTVSPost2010Prop39
140
1.0
102
RTVSPost2010PropOp39
 70
     1
102
RTVSPost2010Prop40
 90
        0
102
RTVSPost2010PropOp40
 70
     1
102
RTVSPost2010Prop41ColorIndex
 90
       18
102
RTVSPost2010Prop41ColorRGB
 90
        0
102
RTVSPost2010PropOp41
 70
     1
102
RTVSPost2010Prop42
 90
       50
102
RTVSPost2010PropOp42
 70
     1
102
RTVSPost2010Prop43
 90
        3
102
RTVSPost2010PropOp43
 70
     1
102
RTVSPost2010Prop44ColorIndex
 90
        5
102
RTVSPost2010Prop44ColorRGB
 90
      255
102
RTVSPost2010PropOp44
 70
     1
102
RTVSPost2010Prop45
280
     0
102
RTVSPost2010PropOp45
 70
     1
102
RTVSPost2010Prop46
 90
       50
102
RTVSPost2010PropOp46
 70
     1
102
RTVSPost2010Prop47
 90
       50
102
RTVSPost2010PropOp47
 70
     1
102
RTVSPost2010Prop48
 90
       50
102
RTVSPost2010PropOp48
 70
     1
102
RTVSPost2010Prop49
280
     0
102
RTVSPost2010PropOp49
 70
     1
102
RTVSPost2010Prop50
 90
       50
102
RTVSPost2010PropOp50
 70
     1
102
RTVSPost2010Prop51ColorIndex
 90
      256
102
RTVSPost2010Prop51ColorRGB
 90
-16777216
102
RTVSPost2010PropOp51
 70
     0
102
RTVSPost2010Prop52
140
1.0
102
RTVSPost2010PropOp52
 70
     0
102
RTVSPost2010Prop53
 90
        2
102
RTVSPost2010PropOp53
 70
     1
102
RTVSPost2010Prop54
  1
strokes_ogs.tif
102
RTVSPost2010PropOp54
 70
     1
102
RTVSPost2010Prop55
280
     0
102
RTVSPost2010PropOp55
 70
     1
102
RTVSPost2010Prop56
140
1.0
102
RTVSPost2010PropOp56
 70
     1
102
RTVSPost2010Prop57
140
1.0
102
RTVSPost2010PropOp57
 70
     1
  0
XRECORD
  5
571
102
{ACAD_REACTORS
330
570
102
}
330
570
100
AcDbXrecord
280
     1
102
RTVSPropertyOp33
 70
     1
102
RTVSPropertyOp34
 70
     1
102
RTVSPropertyOp35
 70
     1
102
RTVSPropertyOp36
 70
     1
102
RTVSPropertyOp37
 70
     1
102
RTVSPropertyOp38
 70
     1
102
RTVSPropertyOp39
 70
     1
102
RTVSPropertyOp40
 70
     1
102
RTVSPropertyOp41
 70
     1
102
RTVSPropertyOp42
 70
     1
102
RTVSPropertyOp43
 70
     1
102
RTVSPropertyOp44
 70
     1
102
RTVSPropertyOp45
 70
     1
102
RTVSPropertyOp46
 70
     1
102
RTVSPropertyOp47
 70
     1
102
RTVSPropertyOp48
 70
     1
102
RTVSPropertyOp49
 70
     1
102
RTVSPropertyOp50
 70
     1
102
RTVSPropertyOp51
 70
     0
102
RTVSPropertyOp52
 70
     0
102
RTVSPropertyOp53
 70
     1
102
RTVSPropertyOp54
 70
     1
102
RTVSPropertyOp55
 70
     1
102
RTVSPropertyOp56
 70
     1
102
RTVSPropertyOp57
 70
     1
102
RTVSPost2010Prop28
280
     0
102
RTVSPost2010PropOp28
 70
     1
102
RTVSPost2010Prop29
280
     1
102
RTVSPost2010PropOp29
 70
     1
102
RTVSPost2010Prop30
280
     1
102
RTVSPost2010PropOp30
 70
     1
102
RTVSPost2010Prop31
280
     0
102
RTVSPost2010PropOp31
 70
     1
102
RTVSPost2010Prop32
280
     0
102
RTVSPost2010PropOp32
 70
     1
102
RTVSPost2010Prop33
280
     0
102
RTVSPost2010PropOp33
 70
     1
102
RTVSPost2010Prop34
280
     0
102
RTVSPost2010PropOp34
 70
     1
102
RTVSPost2010Prop35
280
     0
102
RTVSPost2010PropOp35
 70
     1
102
RTVSPost2010Prop36
280
     0
102
RTVSPost2010PropOp36
 70
     1
102
RTVSPost2010Prop37
 90
       50
102
RTVSPost2010PropOp37
 70
     1
102
RTVSPost2010Prop38
140
0.0
102
RTVSPost2010PropOp38
 70
     1
102
RTVSPost2010Prop39
140
1.0
102
RTVSPost2010PropOp39
 70
     1
102
RTVSPost2010Prop40
 90
        0
102
RTVSPost2010PropOp40
 70
     1
102
RTVSPost2010Prop41ColorIndex
 90
       18
102
RTVSPost2010Prop41ColorRGB
 90
        0
102
RTVSPost2010PropOp41
 70
     1
102
RTVSPost2010Prop42
 90
       50
102
RTVSPost2010PropOp42
 70
     1
102
RTVSPost2010Prop43
 90
        3
102
RTVSPost2010PropOp43
 70
     1
102
RTVSPost2010Prop44ColorIndex
 90
        5
102
RTVSPost2010Prop44ColorRGB
 90
      255
102
RTVSPost2010PropOp44
 70
     1
102
RTVSPost2010Prop45
280
     0
102
RTVSPost2010PropOp45
 70
     1
102
RTVSPost2010Prop46
 90
       50
102
RTVSPost2010PropOp46
 70
     1
102
RTVSPost2010Prop47
 90
       50
102
RTVSPost2010PropOp47
 70
     1
102
RTVSPost2010Prop48
 90
       50
102
RTVSPost2010PropOp48
 70
     1
102
RTVSPost2010Prop49
280
     0
102
RTVSPost2010PropOp49
 70
     1
102
RTVSPost2010Prop50
 90
       50
102
RTVSPost2010PropOp50
 70
     1
102
RTVSPost2010Prop51ColorIndex
 90
      256
102
RTVSPost2010Prop51ColorRGB
 90
-16777216
102
RTVSPost2010PropOp51
 70
     0
102
RTVSPost2010Prop52
140
1.0
102
RTVSPost2010PropOp52
 70
     0
102
RTVSPost2010Prop53
 90
        2
102
RTVSPost2010PropOp53
 70
     1
102
RTVSPost2010Prop54
  1
strokes_ogs.tif
102
RTVSPost2010PropOp54
 70
     1
102
RTVSPost2010Prop55
280
     0
102
RTVSPost2010PropOp55
 70
     1
102
RTVSPost2010Prop56
140
1.0
102
RTVSPost2010PropOp56
 70
     1
102
RTVSPost2010Prop57
140
1.0
102
RTVSPost2010PropOp57
 70
     1
  0
XRECORD
  5
573
102
{ACAD_REACTORS
330
572
102
}
330
572
100
AcDbXrecord
280
     1
102
RTVSPropertyOp33
 70
     1
102
RTVSPropertyOp34
 70
     1
102
RTVSPropertyOp35
 70
     1
102
RTVSPropertyOp36
 70
     1
102
RTVSPropertyOp37
 70
     1
102
RTVSPropertyOp38
 70
     1
102
RTVSPropertyOp39
 70
     1
102
RTVSPropertyOp40
 70
     1
102
RTVSPropertyOp41
 70
     1
102
RTVSPropertyOp42
 70
     1
102
RTVSPropertyOp43
 70
     1
102
RTVSPropertyOp44
 70
     1
102
RTVSPropertyOp45
 70
     1
102
RTVSPropertyOp46
 70
     1
102
RTVSPropertyOp47
 70
     1
102
RTVSPropertyOp48
 70
     1
102
RTVSPropertyOp49
 70
     1
102
RTVSPropertyOp50
 70
     1
102
RTVSPropertyOp51
 70
     0
102
RTVSPropertyOp52
 70
     0
102
RTVSPropertyOp53
 70
     1
102
RTVSPropertyOp54
 70
     1
102
RTVSPropertyOp55
 70
     1
102
RTVSPropertyOp56
 70
     1
102
RTVSPropertyOp57
 70
     1
102
RTVSPost2010Prop28
280
     0
102
RTVSPost2010PropOp28
 70
     1
102
RTVSPost2010Prop29
280
     1
102
RTVSPost2010PropOp29
 70
     1
102
RTVSPost2010Prop30
280
     1
102
RTVSPost2010PropOp30
 70
     1
102
RTVSPost2010Prop31
280
     0
102
RTVSPost2010PropOp31
 70
     1
102
RTVSPost2010Prop32
280
     0
102
RTVSPost2010PropOp32
 70
     1
102
RTVSPost2010Prop33
280
     0
102
RTVSPost2010PropOp33
 70
     1
102
RTVSPost2010Prop34
280
     0
102
RTVSPost2010PropOp34
 70
     1
102
RTVSPost2010Prop35
280
     0
102
RTVSPost2010PropOp35
 70
     1
102
RTVSPost2010Prop36
280
     0
102
RTVSPost2010PropOp36
 70
     1
102
RTVSPost2010Prop37
 90
       50
102
RTVSPost2010PropOp37
 70
     1
102
RTVSPost2010Prop38
140
0.0
102
RTVSPost2010PropOp38
 70
     1
102
RTVSPost2010Prop39
140
1.0
102
RTVSPost2010PropOp39
 70
     1
102
RTVSPost2010Prop40
 90
        0
102
RTVSPost2010PropOp40
 70
     1
102
RTVSPost2010Prop41ColorIndex
 90
       18
102
RTVSPost2010Prop41ColorRGB
 90
        0
102
RTVSPost2010PropOp41
 70
     1
102
RTVSPost2010Prop42
 90
       50
102
RTVSPost2010PropOp42
 70
     1
102
RTVSPost2010Prop43
 90
        3
102
RTVSPost2010PropOp43
 70
     1
102
RTVSPost2010Prop44ColorIndex
 90
        5
102
RTVSPost2010Prop44ColorRGB
 90
      255
102
RTVSPost2010PropOp44
 70
     1
102
RTVSPost2010Prop45
280
     0
102
RTVSPost2010PropOp45
 70
     1
102
RTVSPost2010Prop46
 90
       50
102
RTVSPost2010PropOp46
 70
     1
102
RTVSPost2010Prop47
 90
       50
102
RTVSPost2010PropOp47
 70
     1
102
RTVSPost2010Prop48
 90
       50
102
RTVSPost2010PropOp48
 70
     1
102
RTVSPost2010Prop49
280
     0
102
RTVSPost2010PropOp49
 70
     1
102
RTVSPost2010Prop50
 90
       50
102
RTVSPost2010PropOp50
 70
     1
102
RTVSPost2010Prop51ColorIndex
 90
      256
102
RTVSPost2010Prop51ColorRGB
 90
-16777216
102
RTVSPost2010PropOp51
 70
     0
102
RTVSPost2010Prop52
140
1.0
102
RTVSPost2010PropOp52
 70
     0
102
RTVSPost2010Prop53
 90
        2
102
RTVSPost2010PropOp53
 70
     1
102
RTVSPost2010Prop54
  1
strokes_ogs.tif
102
RTVSPost2010PropOp54
 70
     1
102
RTVSPost2010Prop55
280
     0
102
RTVSPost2010PropOp55
 70
     1
102
RTVSPost2010Prop56
140
1.0
102
RTVSPost2010PropOp56
 70
     1
102
RTVSPost2010Prop57
140
1.0
102
RTVSPost2010PropOp57
 70
     1
  0
XRECORD
  5
563
102
{ACAD_REACTORS
330
562
102
}
330
562
100
AcDbXrecord
280
     1
102
RTVSPropertyOp33
 70
     1
102
RTVSPropertyOp34
 70
     1
102
RTVSPropertyOp35
 70
     1
102
RTVSPropertyOp36
 70
     1
102
RTVSPropertyOp37
 70
     1
102
RTVSPropertyOp38
 70
     1
102
RTVSPropertyOp39
 70
     1
102
RTVSPropertyOp40
 70
     1
102
RTVSPropertyOp41
 70
     1
102
RTVSPropertyOp42
 70
     1
102
RTVSPropertyOp43
 70
     1
102
RTVSPropertyOp44
 70
     1
102
RTVSPropertyOp45
 70
     1
102
RTVSPropertyOp46
 70
     1
102
RTVSPropertyOp47
 70
     1
102
RTVSPropertyOp48
 70
     1
102
RTVSPropertyOp49
 70
     1
102
RTVSPropertyOp50
 70
     1
102
RTVSPropertyOp51
 70
     0
102
RTVSPropertyOp52
 70
     0
102
RTVSPropertyOp53
 70
     1
102
RTVSPropertyOp54
 70
     1
102
RTVSPropertyOp55
 70
     1
102
RTVSPropertyOp56
 70
     1
102
RTVSPropertyOp57
 70
     1
102
RTVSPost2010Prop28
280
     0
102
RTVSPost2010PropOp28
 70
     1
102
RTVSPost2010Prop29
280
     1
102
RTVSPost2010PropOp29
 70
     1
102
RTVSPost2010Prop30
280
     1
102
RTVSPost2010PropOp30
 70
     1
102
RTVSPost2010Prop31
280
     0
102
RTVSPost2010PropOp31
 70
     1
102
RTVSPost2010Prop32
280
     0
102
RTVSPost2010PropOp32
 70
     1
102
RTVSPost2010Prop33
280
     0
102
RTVSPost2010PropOp33
 70
     1
102
RTVSPost2010Prop34
280
     0
102
RTVSPost2010PropOp34
 70
     1
102
RTVSPost2010Prop35
280
     0
102
RTVSPost2010PropOp35
 70
     1
102
RTVSPost2010Prop36
280
     0
102
RTVSPost2010PropOp36
 70
     1
102
RTVSPost2010Prop37
 90
       50
102
RTVSPost2010PropOp37
 70
     1
102
RTVSPost2010Prop38
140
0.0
102
RTVSPost2010PropOp38
 70
     1
102
RTVSPost2010Prop39
140
1.0
102
RTVSPost2010PropOp39
 70
     1
102
RTVSPost2010Prop40
 90
        0
102
RTVSPost2010PropOp40
 70
     1
102
RTVSPost2010Prop41ColorIndex
 90
       18
102
RTVSPost2010Prop41ColorRGB
 90
        0
102
RTVSPost2010PropOp41
 70
     1
102
RTVSPost2010Prop42
 90
       50
102
RTVSPost2010PropOp42
 70
     1
102
RTVSPost2010Prop43
 90
        3
102
RTVSPost2010PropOp43
 70
     1
102
RTVSPost2010Prop44ColorIndex
 90
        5
102
RTVSPost2010Prop44ColorRGB
 90
      255
102
RTVSPost2010PropOp44
 70
     1
102
RTVSPost2010Prop45
280
     0
102
RTVSPost2010PropOp45
 70
     1
102
RTVSPost2010Prop46
 90
       50
102
RTVSPost2010PropOp46
 70
     1
102
RTVSPost2010Prop47
 90
       50
102
RTVSPost2010PropOp47
 70
     1
102
RTVSPost2010Prop48
 90
       50
102
RTVSPost2010PropOp48
 70
     1
102
RTVSPost2010Prop49
280
     0
102
RTVSPost2010PropOp49
 70
     1
102
RTVSPost2010Prop50
 90
       50
102
RTVSPost2010PropOp50
 70
     1
102
RTVSPost2010Prop51ColorIndex
 90
      256
102
RTVSPost2010Prop51ColorRGB
 90
-16777216
102
RTVSPost2010PropOp51
 70
     0
102
RTVSPost2010Prop52
140
1.0
102
RTVSPost2010PropOp52
 70
     0
102
RTVSPost2010Prop53
 90
        2
102
RTVSPost2010PropOp53
 70
     1
102
RTVSPost2010Prop54
  1
strokes_ogs.tif
102
RTVSPost2010PropOp54
 70
     1
102
RTVSPost2010Prop55
280
     0
102
RTVSPost2010PropOp55
 70
     1
102
RTVSPost2010Prop56
140
1.0
102
RTVSPost2010PropOp56
 70
     1
102
RTVSPost2010Prop57
140
1.0
102
RTVSPost2010PropOp57
 70
     1
  0
XRECORD
  5
555
102
{ACAD_REACTORS
330
554
102
}
330
554
100
AcDbXrecord
280
     1
102
RTVSPropertyOp33
 70
     1
102
RTVSPropertyOp34
 70
     1
102
RTVSPropertyOp35
 70
     1
102
RTVSPropertyOp36
 70
     1
102
RTVSPropertyOp37
 70
     1
102
RTVSPropertyOp38
 70
     1
102
RTVSPropertyOp39
 70
     1
102
RTVSPropertyOp40
 70
     1
102
RTVSPropertyOp41
 70
     1
102
RTVSPropertyOp42
 70
     1
102
RTVSPropertyOp43
 70
     1
102
RTVSPropertyOp44
 70
     1
102
RTVSPropertyOp45
 70
     1
102
RTVSPropertyOp46
 70
     1
102
RTVSPropertyOp47
 70
     1
102
RTVSPropertyOp48
 70
     1
102
RTVSPropertyOp49
 70
     1
102
RTVSPropertyOp50
 70
     1
102
RTVSPropertyOp51
 70
     0
102
RTVSPropertyOp52
 70
     0
102
RTVSPropertyOp53
 70
     1
102
RTVSPropertyOp54
 70
     1
102
RTVSPropertyOp55
 70
     1
102
RTVSPropertyOp56
 70
     1
102
RTVSPropertyOp57
 70
     1
102
RTVSPost2010Prop28
280
     0
102
RTVSPost2010PropOp28
 70
     1
102
RTVSPost2010Prop29
280
     1
102
RTVSPost2010PropOp29
 70
     1
102
RTVSPost2010Prop30
280
     1
102
RTVSPost2010PropOp30
 70
     1
102
RTVSPost2010Prop31
280
     0
102
RTVSPost2010PropOp31
 70
     1
102
RTVSPost2010Prop32
280
     0
102
RTVSPost2010PropOp32
 70
     1
102
RTVSPost2010Prop33
280
     0
102
RTVSPost2010PropOp33
 70
     1
102
RTVSPost2010Prop34
280
     0
102
RTVSPost2010PropOp34
 70
     1
102
RTVSPost2010Prop35
280
     0
102
RTVSPost2010PropOp35
 70
     1
102
RTVSPost2010Prop36
280
     0
102
RTVSPost2010PropOp36
 70
     1
102
RTVSPost2010Prop37
 90
       50
102
RTVSPost2010PropOp37
 70
     1
102
RTVSPost2010Prop38
140
0.0
102
RTVSPost2010PropOp38
 70
     1
102
RTVSPost2010Prop39
140
1.0
102
RTVSPost2010PropOp39
 70
     1
102
RTVSPost2010Prop40
 90
        0
102
RTVSPost2010PropOp40
 70
     1
102
RTVSPost2010Prop41ColorIndex
 90
       18
102
RTVSPost2010Prop41ColorRGB
 90
        0
102
RTVSPost2010PropOp41
 70
     1
102
RTVSPost2010Prop42
 90
       50
102
RTVSPost2010PropOp42
 70
     1
102
RTVSPost2010Prop43
 90
        3
102
RTVSPost2010PropOp43
 70
     1
102
RTVSPost2010Prop44ColorIndex
 90
        5
102
RTVSPost2010Prop44ColorRGB
 90
      255
102
RTVSPost2010PropOp44
 70
     1
102
RTVSPost2010Prop45
280
     0
102
RTVSPost2010PropOp45
 70
     1
102
RTVSPost2010Prop46
 90
       50
102
RTVSPost2010PropOp46
 70
     1
102
RTVSPost2010Prop47
 90
       50
102
RTVSPost2010PropOp47
 70
     1
102
RTVSPost2010Prop48
 90
       50
102
RTVSPost2010PropOp48
 70
     1
102
RTVSPost2010Prop49
280
     0
102
RTVSPost2010PropOp49
 70
     1
102
RTVSPost2010Prop50
 90
       50
102
RTVSPost2010PropOp50
 70
     1
102
RTVSPost2010Prop51ColorIndex
 90
      256
102
RTVSPost2010Prop51ColorRGB
 90
-16777216
102
RTVSPost2010PropOp51
 70
     0
102
RTVSPost2010Prop52
140
1.0
102
RTVSPost2010PropOp52
 70
     0
102
RTVSPost2010Prop53
 90
        2
102
RTVSPost2010PropOp53
 70
     1
102
RTVSPost2010Prop54
  1
strokes_ogs.tif
102
RTVSPost2010PropOp54
 70
     1
102
RTVSPost2010Prop55
280
     0
102
RTVSPost2010PropOp55
 70
     1
102
RTVSPost2010Prop56
140
1.0
102
RTVSPost2010PropOp56
 70
     1
102
RTVSPost2010Prop57
140
1.0
102
RTVSPost2010PropOp57
 70
     1
  0
XRECORD
  5
575
102
{ACAD_REACTORS
330
574
102
}
330
574
100
AcDbXrecord
280
     1
102
RTVSPropertyOp33
 70
     1
102
RTVSPropertyOp34
 70
     1
102
RTVSPropertyOp35
 70
     1
102
RTVSPropertyOp36
 70
     1
102
RTVSPropertyOp37
 70
     1
102
RTVSPropertyOp38
 70
     1
102
RTVSPropertyOp39
 70
     1
102
RTVSPropertyOp40
 70
     1
102
RTVSPropertyOp41
 70
     1
102
RTVSPropertyOp42
 70
     1
102
RTVSPropertyOp43
 70
     1
102
RTVSPropertyOp44
 70
     1
102
RTVSPropertyOp45
 70
     1
102
RTVSPropertyOp46
 70
     1
102
RTVSPropertyOp47
 70
     1
102
RTVSPropertyOp48
 70
     1
102
RTVSPropertyOp49
 70
     1
102
RTVSPropertyOp50
 70
     1
102
RTVSPropertyOp51
 70
     0
102
RTVSPropertyOp52
 70
     0
102
RTVSPropertyOp53
 70
     1
102
RTVSPropertyOp54
 70
     1
102
RTVSPropertyOp55
 70
     1
102
RTVSPropertyOp56
 70
     1
102
RTVSPropertyOp57
 70
     1
102
RTVSPost2010Prop28
280
     0
102
RTVSPost2010PropOp28
 70
     1
102
RTVSPost2010Prop29
280
     1
102
RTVSPost2010PropOp29
 70
     1
102
RTVSPost2010Prop30
280
     1
102
RTVSPost2010PropOp30
 70
     1
102
RTVSPost2010Prop31
280
     0
102
RTVSPost2010PropOp31
 70
     1
102
RTVSPost2010Prop32
280
     0
102
RTVSPost2010PropOp32
 70
     1
102
RTVSPost2010Prop33
280
     0
102
RTVSPost2010PropOp33
 70
     1
102
RTVSPost2010Prop34
280
     0
102
RTVSPost2010PropOp34
 70
     1
102
RTVSPost2010Prop35
280
     0
102
RTVSPost2010PropOp35
 70
     1
102
RTVSPost2010Prop36
280
     0
102
RTVSPost2010PropOp36
 70
     1
102
RTVSPost2010Prop37
 90
       50
102
RTVSPost2010PropOp37
 70
     1
102
RTVSPost2010Prop38
140
0.0
102
RTVSPost2010PropOp38
 70
     1
102
RTVSPost2010Prop39
140
1.0
102
RTVSPost2010PropOp39
 70
     1
102
RTVSPost2010Prop40
 90
        0
102
RTVSPost2010PropOp40
 70
     1
102
RTVSPost2010Prop41ColorIndex
 90
       18
102
RTVSPost2010Prop41ColorRGB
 90
        0
102
RTVSPost2010PropOp41
 70
     1
102
RTVSPost2010Prop42
 90
       50
102
RTVSPost2010PropOp42
 70
     1
102
RTVSPost2010Prop43
 90
        3
102
RTVSPost2010PropOp43
 70
     1
102
RTVSPost2010Prop44ColorIndex
 90
        5
102
RTVSPost2010Prop44ColorRGB
 90
      255
102
RTVSPost2010PropOp44
 70
     1
102
RTVSPost2010Prop45
280
     0
102
RTVSPost2010PropOp45
 70
     1
102
RTVSPost2010Prop46
 90
       50
102
RTVSPost2010PropOp46
 70
     1
102
RTVSPost2010Prop47
 90
       50
102
RTVSPost2010PropOp47
 70
     1
102
RTVSPost2010Prop48
 90
       50
102
RTVSPost2010PropOp48
 70
     1
102
RTVSPost2010Prop49
280
     0
102
RTVSPost2010PropOp49
 70
     1
102
RTVSPost2010Prop50
 90
       50
102
RTVSPost2010PropOp50
 70
     1
102
RTVSPost2010Prop51ColorIndex
 90
      256
102
RTVSPost2010Prop51ColorRGB
 90
-16777216
102
RTVSPost2010PropOp51
 70
     0
102
RTVSPost2010Prop52
140
1.0
102
RTVSPost2010PropOp52
 70
     0
102
RTVSPost2010Prop53
 90
        2
102
RTVSPost2010PropOp53
 70
     1
102
RTVSPost2010Prop54
  1
strokes_ogs.tif
102
RTVSPost2010PropOp54
 70
     1
102
RTVSPost2010Prop55
280
     0
102
RTVSPost2010PropOp55
 70
     1
102
RTVSPost2010Prop56
140
1.0
102
RTVSPost2010PropOp56
 70
     1
102
RTVSPost2010Prop57
140
1.0
102
RTVSPost2010PropOp57
 70
     1
  0
ENDSEC
  0
EOF
