ISO-10303-21;
HEADER;
/* Generated by software containing ST-Developer
 * from STEP Tools, Inc. (www.steptools.com) 
 */
/* OPTION: using custom schema-name function */

FILE_DESCRIPTION(
/* description */ (''),
/* implementation_level */ '2;1');

FILE_NAME(
/* name */ 'PUM-049.stp',
/* time_stamp */ '2015-05-27T07:59:26-04:00',
/* author */ (''),
/* organization */ (''),
/* preprocessor_version */ 'ST-DEVELOPER v15',
/* originating_system */ 'SIEMENS PLM Software NX 8.5',
/* authorisation */ '');

FILE_SCHEMA (('CONFIG_CONTROL_DESIGN'));
ENDSEC;

DATA;
#10=SHAPE_REPRESENTATION_RELATIONSHIP('None',
'relationship between blank-None and blank-None',#92,#11);
#11=ADVANCED_BREP_SHAPE_REPRESENTATION('blank-None',(#93),#547);
#12=CC_DESIGN_APPROVAL(#24,(#82));
#13=CC_DESIGN_APPROVAL(#25,(#84));
#14=CC_DESIGN_APPROVAL(#26,(#31));
#15=APPROVAL_PERSON_ORGANIZATION(#69,#24,#18);
#16=APPROVAL_PERSON_ORGANIZATION(#70,#25,#19);
#17=APPROVAL_PERSON_ORGANIZATION(#71,#26,#20);
#18=APPROVAL_ROLE('approver');
#19=APPROVAL_ROLE('approver');
#20=APPROVAL_ROLE('approver');
#21=APPROVAL_DATE_TIME(#39,#24);
#22=APPROVAL_DATE_TIME(#40,#25);
#23=APPROVAL_DATE_TIME(#41,#26);
#24=APPROVAL(#27,' ');
#25=APPROVAL(#28,' ');
#26=APPROVAL(#29,' ');
#27=APPROVAL_STATUS('not_yet_approved');
#28=APPROVAL_STATUS('not_yet_approved');
#29=APPROVAL_STATUS('not_yet_approved');
#30=CC_DESIGN_SECURITY_CLASSIFICATION(#31,(#84));
#31=SECURITY_CLASSIFICATION(' ',' ',#32);
#32=SECURITY_CLASSIFICATION_LEVEL('confidential');
#33=CC_DESIGN_DATE_AND_TIME_ASSIGNMENT(#37,#35,(#82));
#34=CC_DESIGN_DATE_AND_TIME_ASSIGNMENT(#38,#36,(#31));
#35=DATE_TIME_ROLE('creation_date');
#36=DATE_TIME_ROLE('classification_date');
#37=DATE_AND_TIME(#52,#42);
#38=DATE_AND_TIME(#53,#43);
#39=DATE_AND_TIME(#54,#44);
#40=DATE_AND_TIME(#55,#45);
#41=DATE_AND_TIME(#56,#46);
#42=LOCAL_TIME(0,0,0.,#47);
#43=LOCAL_TIME(0,0,0.,#48);
#44=LOCAL_TIME(0,0,0.,#49);
#45=LOCAL_TIME(0,0,0.,#50);
#46=LOCAL_TIME(0,0,0.,#51);
#47=COORDINATED_UNIVERSAL_TIME_OFFSET(0,0,.BEHIND.);
#48=COORDINATED_UNIVERSAL_TIME_OFFSET(0,0,.BEHIND.);
#49=COORDINATED_UNIVERSAL_TIME_OFFSET(0,0,.BEHIND.);
#50=COORDINATED_UNIVERSAL_TIME_OFFSET(0,0,.BEHIND.);
#51=COORDINATED_UNIVERSAL_TIME_OFFSET(0,0,.BEHIND.);
#52=CALENDAR_DATE(0,1,1);
#53=CALENDAR_DATE(0,1,1);
#54=CALENDAR_DATE(0,1,1);
#55=CALENDAR_DATE(0,1,1);
#56=CALENDAR_DATE(0,1,1);
#57=CC_DESIGN_PERSON_AND_ORGANIZATION_ASSIGNMENT(#65,#61,(#82,#84));
#58=CC_DESIGN_PERSON_AND_ORGANIZATION_ASSIGNMENT(#66,#62,(#86));
#59=CC_DESIGN_PERSON_AND_ORGANIZATION_ASSIGNMENT(#67,#63,(#84));
#60=CC_DESIGN_PERSON_AND_ORGANIZATION_ASSIGNMENT(#68,#64,(#31));
#61=PERSON_AND_ORGANIZATION_ROLE('creator');
#62=PERSON_AND_ORGANIZATION_ROLE('design_owner');
#63=PERSON_AND_ORGANIZATION_ROLE('design_supplier');
#64=PERSON_AND_ORGANIZATION_ROLE('classification_officer');
#65=PERSON_AND_ORGANIZATION(#79,#72);
#66=PERSON_AND_ORGANIZATION(#79,#73);
#67=PERSON_AND_ORGANIZATION(#79,#74);
#68=PERSON_AND_ORGANIZATION(#79,#75);
#69=PERSON_AND_ORGANIZATION(#79,#76);
#70=PERSON_AND_ORGANIZATION(#79,#77);
#71=PERSON_AND_ORGANIZATION(#79,#78);
#72=ORGANIZATION(' ',' ',' ');
#73=ORGANIZATION(' ',' ',' ');
#74=ORGANIZATION(' ',' ',' ');
#75=ORGANIZATION(' ',' ',' ');
#76=ORGANIZATION(' ',' ',' ');
#77=ORGANIZATION(' ',' ',' ');
#78=ORGANIZATION(' ',' ',' ');
#79=PERSON(' ',' ',' ',(' '),$,$);
#80=SHAPE_DEFINITION_REPRESENTATION(#81,#92);
#81=PRODUCT_DEFINITION_SHAPE('','',#82);
#82=PRODUCT_DEFINITION(' ','',#84,#83);
#83=DESIGN_CONTEXT('',#91,'design');
#84=PRODUCT_DEFINITION_FORMATION_WITH_SPECIFIED_SOURCE(' ',' ',#86,
 .NOT_KNOWN.);
#85=PRODUCT_RELATED_PRODUCT_CATEGORY('detail','',(#86));
#86=PRODUCT('blank','blank',' ',(#89));
#87=PRODUCT_CATEGORY('part',' ');
#88=PRODUCT_CATEGORY(' ','');
#89=MECHANICAL_CONTEXT(' ',#91,'mechanical');
#90=APPLICATION_PROTOCOL_DEFINITION('international standard',
'config_control_design',2010,#91);
#91=APPLICATION_CONTEXT(
'configuration controlled 3D designs of mechanical parts and assemblie
s');
#92=SHAPE_REPRESENTATION('blank-None',(#366),#547);
#93=MANIFOLD_SOLID_BREP('',#94);
#94=CLOSED_SHELL('',(#116,#117,#118,#119,#120,#121,#122,#123,#124,#125,
#126,#127,#128,#129,#130,#131,#132));
#95=CONICAL_SURFACE('',#385,0.0903194334370603,10.6011548636521);
#96=CONICAL_SURFACE('',#390,0.323709806019895,62.8529950053495);
#97=FACE_BOUND('',#169,.T.);
#98=FACE_BOUND('',#170,.T.);
#99=FACE_BOUND('',#172,.T.);
#100=FACE_BOUND('',#173,.T.);
#101=FACE_BOUND('',#174,.T.);
#102=FACE_BOUND('',#175,.T.);
#103=FACE_BOUND('',#176,.T.);
#104=FACE_BOUND('',#177,.T.);
#105=FACE_BOUND('',#178,.T.);
#106=FACE_BOUND('',#179,.T.);
#107=CYLINDRICAL_SURFACE('',#377,0.525034662614847);
#108=CYLINDRICAL_SURFACE('',#387,0.114817922469562);
#109=CIRCLE('',#375,0.525034662614847);
#110=CIRCLE('',#376,0.525034662614847);
#111=CIRCLE('',#380,0.150083250636269);
#112=CIRCLE('',#382,0.0903194334370603);
#113=CIRCLE('',#384,0.114817922469562);
#114=CIRCLE('',#386,0.114817922469562);
#115=CIRCLE('',#388,0.323709806019895);
#116=ADVANCED_FACE('',(#146),#133,.F.);
#117=ADVANCED_FACE('',(#147),#134,.F.);
#118=ADVANCED_FACE('',(#148),#135,.F.);
#119=ADVANCED_FACE('',(#149),#136,.F.);
#120=ADVANCED_FACE('',(#150),#137,.F.);
#121=ADVANCED_FACE('',(#151),#138,.F.);
#122=ADVANCED_FACE('',(#152),#139,.F.);
#123=ADVANCED_FACE('',(#153),#140,.F.);
#124=ADVANCED_FACE('',(#154),#107,.F.);
#125=ADVANCED_FACE('',(#155),#141,.F.);
#126=ADVANCED_FACE('',(#156),#142,.T.);
#127=ADVANCED_FACE('',(#97,#98),#143,.T.);
#128=ADVANCED_FACE('',(#157),#144,.T.);
#129=ADVANCED_FACE('',(#99,#100),#95,.T.);
#130=ADVANCED_FACE('',(#101,#102),#108,.T.);
#131=ADVANCED_FACE('',(#103,#104),#145,.T.);
#132=ADVANCED_FACE('',(#105,#106),#96,.T.);
#133=PLANE('',#367);
#134=PLANE('',#368);
#135=PLANE('',#369);
#136=PLANE('',#370);
#137=PLANE('',#371);
#138=PLANE('',#372);
#139=PLANE('',#373);
#140=PLANE('',#374);
#141=PLANE('',#378);
#142=PLANE('',#379);
#143=PLANE('',#381);
#144=PLANE('',#383);
#145=PLANE('',#389);
#146=FACE_OUTER_BOUND('',#158,.T.);
#147=FACE_OUTER_BOUND('',#159,.T.);
#148=FACE_OUTER_BOUND('',#160,.T.);
#149=FACE_OUTER_BOUND('',#161,.T.);
#150=FACE_OUTER_BOUND('',#162,.T.);
#151=FACE_OUTER_BOUND('',#163,.T.);
#152=FACE_OUTER_BOUND('',#164,.T.);
#153=FACE_OUTER_BOUND('',#165,.T.);
#154=FACE_OUTER_BOUND('',#166,.T.);
#155=FACE_OUTER_BOUND('',#167,.T.);
#156=FACE_OUTER_BOUND('',#168,.T.);
#157=FACE_OUTER_BOUND('',#171,.T.);
#158=EDGE_LOOP('',(#180,#181,#182,#183));
#159=EDGE_LOOP('',(#184,#185,#186,#187));
#160=EDGE_LOOP('',(#188,#189,#190,#191));
#161=EDGE_LOOP('',(#192,#193,#194,#195));
#162=EDGE_LOOP('',(#196,#197,#198,#199));
#163=EDGE_LOOP('',(#200,#201,#202,#203));
#164=EDGE_LOOP('',(#204,#205,#206,#207));
#165=EDGE_LOOP('',(#208,#209,#210,#211));
#166=EDGE_LOOP('',(#212,#213,#214,#215));
#167=EDGE_LOOP('',(#216,#217,#218,#219,#220,#221,#222,#223,#224,#225));
#168=EDGE_LOOP('',(#226,#227,#228,#229,#230,#231,#232,#233,#234,#235));
#169=EDGE_LOOP('',(#236));
#170=EDGE_LOOP('',(#237,#238,#239,#240));
#171=EDGE_LOOP('',(#241));
#172=EDGE_LOOP('',(#242));
#173=EDGE_LOOP('',(#243));
#174=EDGE_LOOP('',(#244));
#175=EDGE_LOOP('',(#245));
#176=EDGE_LOOP('',(#246));
#177=EDGE_LOOP('',(#247));
#178=EDGE_LOOP('',(#248));
#179=EDGE_LOOP('',(#249));
#180=ORIENTED_EDGE('',*,*,#275,.T.);
#181=ORIENTED_EDGE('',*,*,#276,.F.);
#182=ORIENTED_EDGE('',*,*,#277,.F.);
#183=ORIENTED_EDGE('',*,*,#278,.T.);
#184=ORIENTED_EDGE('',*,*,#279,.T.);
#185=ORIENTED_EDGE('',*,*,#280,.F.);
#186=ORIENTED_EDGE('',*,*,#281,.F.);
#187=ORIENTED_EDGE('',*,*,#276,.T.);
#188=ORIENTED_EDGE('',*,*,#282,.T.);
#189=ORIENTED_EDGE('',*,*,#283,.F.);
#190=ORIENTED_EDGE('',*,*,#284,.F.);
#191=ORIENTED_EDGE('',*,*,#280,.T.);
#192=ORIENTED_EDGE('',*,*,#285,.T.);
#193=ORIENTED_EDGE('',*,*,#286,.T.);
#194=ORIENTED_EDGE('',*,*,#287,.F.);
#195=ORIENTED_EDGE('',*,*,#283,.T.);
#196=ORIENTED_EDGE('',*,*,#288,.F.);
#197=ORIENTED_EDGE('',*,*,#289,.T.);
#198=ORIENTED_EDGE('',*,*,#290,.T.);
#199=ORIENTED_EDGE('',*,*,#291,.F.);
#200=ORIENTED_EDGE('',*,*,#292,.T.);
#201=ORIENTED_EDGE('',*,*,#293,.F.);
#202=ORIENTED_EDGE('',*,*,#294,.F.);
#203=ORIENTED_EDGE('',*,*,#291,.T.);
#204=ORIENTED_EDGE('',*,*,#295,.T.);
#205=ORIENTED_EDGE('',*,*,#296,.F.);
#206=ORIENTED_EDGE('',*,*,#297,.F.);
#207=ORIENTED_EDGE('',*,*,#293,.T.);
#208=ORIENTED_EDGE('',*,*,#298,.T.);
#209=ORIENTED_EDGE('',*,*,#299,.F.);
#210=ORIENTED_EDGE('',*,*,#300,.F.);
#211=ORIENTED_EDGE('',*,*,#296,.T.);
#212=ORIENTED_EDGE('',*,*,#301,.T.);
#213=ORIENTED_EDGE('',*,*,#278,.F.);
#214=ORIENTED_EDGE('',*,*,#302,.F.);
#215=ORIENTED_EDGE('',*,*,#299,.T.);
#216=ORIENTED_EDGE('',*,*,#287,.T.);
#217=ORIENTED_EDGE('',*,*,#303,.T.);
#218=ORIENTED_EDGE('',*,*,#288,.T.);
#219=ORIENTED_EDGE('',*,*,#294,.T.);
#220=ORIENTED_EDGE('',*,*,#297,.T.);
#221=ORIENTED_EDGE('',*,*,#300,.T.);
#222=ORIENTED_EDGE('',*,*,#302,.T.);
#223=ORIENTED_EDGE('',*,*,#277,.T.);
#224=ORIENTED_EDGE('',*,*,#281,.T.);
#225=ORIENTED_EDGE('',*,*,#284,.T.);
#226=ORIENTED_EDGE('',*,*,#304,.F.);
#227=ORIENTED_EDGE('',*,*,#285,.F.);
#228=ORIENTED_EDGE('',*,*,#282,.F.);
#229=ORIENTED_EDGE('',*,*,#279,.F.);
#230=ORIENTED_EDGE('',*,*,#275,.F.);
#231=ORIENTED_EDGE('',*,*,#301,.F.);
#232=ORIENTED_EDGE('',*,*,#298,.F.);
#233=ORIENTED_EDGE('',*,*,#295,.F.);
#234=ORIENTED_EDGE('',*,*,#292,.F.);
#235=ORIENTED_EDGE('',*,*,#290,.F.);
#236=ORIENTED_EDGE('',*,*,#305,.F.);
#237=ORIENTED_EDGE('',*,*,#303,.F.);
#238=ORIENTED_EDGE('',*,*,#286,.F.);
#239=ORIENTED_EDGE('',*,*,#304,.T.);
#240=ORIENTED_EDGE('',*,*,#289,.F.);
#241=ORIENTED_EDGE('',*,*,#306,.T.);
#242=ORIENTED_EDGE('',*,*,#307,.T.);
#243=ORIENTED_EDGE('',*,*,#306,.F.);
#244=ORIENTED_EDGE('',*,*,#308,.T.);
#245=ORIENTED_EDGE('',*,*,#307,.F.);
#246=ORIENTED_EDGE('',*,*,#309,.T.);
#247=ORIENTED_EDGE('',*,*,#308,.F.);
#248=ORIENTED_EDGE('',*,*,#305,.T.);
#249=ORIENTED_EDGE('',*,*,#309,.F.);
#250=VERTEX_POINT('',#471);
#251=VERTEX_POINT('',#472);
#252=VERTEX_POINT('',#474);
#253=VERTEX_POINT('',#476);
#254=VERTEX_POINT('',#480);
#255=VERTEX_POINT('',#482);
#256=VERTEX_POINT('',#486);
#257=VERTEX_POINT('',#488);
#258=VERTEX_POINT('',#492);
#259=VERTEX_POINT('',#494);
#260=VERTEX_POINT('',#498);
#261=VERTEX_POINT('',#499);
#262=VERTEX_POINT('',#501);
#263=VERTEX_POINT('',#503);
#264=VERTEX_POINT('',#507);
#265=VERTEX_POINT('',#509);
#266=VERTEX_POINT('',#513);
#267=VERTEX_POINT('',#515);
#268=VERTEX_POINT('',#519);
#269=VERTEX_POINT('',#521);
#270=VERTEX_POINT('',#532);
#271=VERTEX_POINT('',#535);
#272=VERTEX_POINT('',#538);
#273=VERTEX_POINT('',#541);
#274=VERTEX_POINT('',#544);
#275=EDGE_CURVE('',#250,#251,#310,.T.);
#276=EDGE_CURVE('',#252,#251,#311,.T.);
#277=EDGE_CURVE('',#253,#252,#312,.T.);
#278=EDGE_CURVE('',#253,#250,#313,.T.);
#279=EDGE_CURVE('',#251,#254,#314,.T.);
#280=EDGE_CURVE('',#255,#254,#315,.T.);
#281=EDGE_CURVE('',#252,#255,#316,.T.);
#282=EDGE_CURVE('',#254,#256,#317,.T.);
#283=EDGE_CURVE('',#257,#256,#318,.T.);
#284=EDGE_CURVE('',#255,#257,#319,.T.);
#285=EDGE_CURVE('',#256,#258,#320,.T.);
#286=EDGE_CURVE('',#258,#259,#321,.T.);
#287=EDGE_CURVE('',#257,#259,#322,.T.);
#288=EDGE_CURVE('',#260,#261,#323,.T.);
#289=EDGE_CURVE('',#260,#262,#324,.T.);
#290=EDGE_CURVE('',#262,#263,#325,.T.);
#291=EDGE_CURVE('',#261,#263,#326,.T.);
#292=EDGE_CURVE('',#263,#264,#327,.T.);
#293=EDGE_CURVE('',#265,#264,#328,.T.);
#294=EDGE_CURVE('',#261,#265,#329,.T.);
#295=EDGE_CURVE('',#264,#266,#330,.T.);
#296=EDGE_CURVE('',#267,#266,#331,.T.);
#297=EDGE_CURVE('',#265,#267,#332,.T.);
#298=EDGE_CURVE('',#266,#268,#333,.T.);
#299=EDGE_CURVE('',#269,#268,#334,.T.);
#300=EDGE_CURVE('',#267,#269,#335,.T.);
#301=EDGE_CURVE('',#268,#250,#109,.T.);
#302=EDGE_CURVE('',#269,#253,#110,.T.);
#303=EDGE_CURVE('',#259,#260,#336,.T.);
#304=EDGE_CURVE('',#258,#262,#337,.T.);
#305=EDGE_CURVE('',#270,#270,#111,.T.);
#306=EDGE_CURVE('',#271,#271,#112,.T.);
#307=EDGE_CURVE('',#272,#272,#113,.T.);
#308=EDGE_CURVE('',#273,#273,#114,.T.);
#309=EDGE_CURVE('',#274,#274,#115,.T.);
#310=LINE('',#470,#338);
#311=LINE('',#473,#339);
#312=LINE('',#475,#340);
#313=LINE('',#477,#341);
#314=LINE('',#479,#342);
#315=LINE('',#481,#343);
#316=LINE('',#483,#344);
#317=LINE('',#485,#345);
#318=LINE('',#487,#346);
#319=LINE('',#489,#347);
#320=LINE('',#491,#348);
#321=LINE('',#493,#349);
#322=LINE('',#495,#350);
#323=LINE('',#497,#351);
#324=LINE('',#500,#352);
#325=LINE('',#502,#353);
#326=LINE('',#504,#354);
#327=LINE('',#506,#355);
#328=LINE('',#508,#356);
#329=LINE('',#510,#357);
#330=LINE('',#512,#358);
#331=LINE('',#514,#359);
#332=LINE('',#516,#360);
#333=LINE('',#518,#361);
#334=LINE('',#520,#362);
#335=LINE('',#522,#363);
#336=LINE('',#527,#364);
#337=LINE('',#529,#365);
#338=VECTOR('',#393,1.);
#339=VECTOR('',#394,1.);
#340=VECTOR('',#395,1.);
#341=VECTOR('',#396,1.);
#342=VECTOR('',#399,1.);
#343=VECTOR('',#400,1.);
#344=VECTOR('',#401,1.);
#345=VECTOR('',#404,1.);
#346=VECTOR('',#405,1.);
#347=VECTOR('',#406,1.);
#348=VECTOR('',#409,1.);
#349=VECTOR('',#410,1.);
#350=VECTOR('',#411,1.);
#351=VECTOR('',#414,1.);
#352=VECTOR('',#415,1.);
#353=VECTOR('',#416,1.);
#354=VECTOR('',#417,1.);
#355=VECTOR('',#420,1.);
#356=VECTOR('',#421,1.);
#357=VECTOR('',#422,1.);
#358=VECTOR('',#425,1.);
#359=VECTOR('',#426,1.);
#360=VECTOR('',#427,1.);
#361=VECTOR('',#430,1.);
#362=VECTOR('',#431,1.);
#363=VECTOR('',#432,1.);
#364=VECTOR('',#441,1.);
#365=VECTOR('',#444,1.);
#366=AXIS2_PLACEMENT_3D('',#469,#391,#392);
#367=AXIS2_PLACEMENT_3D('',#478,#397,#398);
#368=AXIS2_PLACEMENT_3D('',#484,#402,#403);
#369=AXIS2_PLACEMENT_3D('',#490,#407,#408);
#370=AXIS2_PLACEMENT_3D('',#496,#412,#413);
#371=AXIS2_PLACEMENT_3D('',#505,#418,#419);
#372=AXIS2_PLACEMENT_3D('',#511,#423,#424);
#373=AXIS2_PLACEMENT_3D('',#517,#428,#429);
#374=AXIS2_PLACEMENT_3D('',#523,#433,#434);
#375=AXIS2_PLACEMENT_3D('',#524,#435,#436);
#376=AXIS2_PLACEMENT_3D('',#525,#437,#438);
#377=AXIS2_PLACEMENT_3D('',#526,#439,#440);
#378=AXIS2_PLACEMENT_3D('',#528,#442,#443);
#379=AXIS2_PLACEMENT_3D('',#530,#445,#446);
#380=AXIS2_PLACEMENT_3D('',#531,#447,#448);
#381=AXIS2_PLACEMENT_3D('',#533,#449,#450);
#382=AXIS2_PLACEMENT_3D('',#534,#451,#452);
#383=AXIS2_PLACEMENT_3D('',#536,#453,#454);
#384=AXIS2_PLACEMENT_3D('',#537,#455,#456);
#385=AXIS2_PLACEMENT_3D('',#539,#457,#458);
#386=AXIS2_PLACEMENT_3D('',#540,#459,#460);
#387=AXIS2_PLACEMENT_3D('',#542,#461,#462);
#388=AXIS2_PLACEMENT_3D('',#543,#463,#464);
#389=AXIS2_PLACEMENT_3D('',#545,#465,#466);
#390=AXIS2_PLACEMENT_3D('',#546,#467,#468);
#391=DIRECTION('',(0.,0.,1.));
#392=DIRECTION('',(1.,0.,0.));
#393=DIRECTION('',(3.14057037291829E-016,0.,-1.));
#394=DIRECTION('',(0.,1.,0.));
#395=DIRECTION('',(3.14057037291829E-016,0.,-1.));
#396=DIRECTION('',(0.,1.,0.));
#397=DIRECTION('',(1.,0.,3.14057037291829E-016));
#398=DIRECTION('',(3.13984949151802E-016,0.,-1.));
#399=DIRECTION('',(0.469471562785891,0.,-0.882947592858927));
#400=DIRECTION('',(0.,1.,0.));
#401=DIRECTION('',(0.469471562785891,0.,-0.882947592858927));
#402=DIRECTION('',(0.882947592858927,0.,0.469471562785891));
#403=DIRECTION('',(0.469471562785891,0.,-0.882947592858927));
#404=DIRECTION('',(1.,0.,0.));
#405=DIRECTION('',(0.,1.,0.));
#406=DIRECTION('',(1.,0.,0.));
#407=DIRECTION('',(0.,0.,1.));
#408=DIRECTION('',(1.,0.,0.));
#409=DIRECTION('',(-3.96361874080753E-015,0.,-1.));
#410=DIRECTION('',(0.,-1.,0.));
#411=DIRECTION('',(-3.96361874080753E-015,0.,-1.));
#412=DIRECTION('',(1.,0.,-3.96361874080753E-015));
#413=DIRECTION('',(-3.96362630217251E-015,0.,-1.));
#414=DIRECTION('',(-3.04976892318992E-016,0.,1.));
#415=DIRECTION('',(0.,1.,0.));
#416=DIRECTION('',(-3.04976892318992E-016,0.,1.));
#417=DIRECTION('',(0.,1.,0.));
#418=DIRECTION('',(-1.,0.,-3.04976892318992E-016));
#419=DIRECTION('',(-3.04877650902924E-016,0.,1.));
#420=DIRECTION('',(1.,0.,0.));
#421=DIRECTION('',(0.,1.,0.));
#422=DIRECTION('',(1.,0.,0.));
#423=DIRECTION('',(0.,0.,1.));
#424=DIRECTION('',(1.,0.,0.));
#425=DIRECTION('',(0.469471562785891,0.,0.882947592858927));
#426=DIRECTION('',(0.,1.,0.));
#427=DIRECTION('',(0.469471562785891,0.,0.882947592858927));
#428=DIRECTION('',(-0.882947592858927,0.,0.469471562785891));
#429=DIRECTION('',(0.469471562785891,0.,0.882947592858927));
#430=DIRECTION('',(3.14057037291829E-016,0.,1.));
#431=DIRECTION('',(0.,1.,0.));
#432=DIRECTION('',(3.14057037291829E-016,0.,1.));
#433=DIRECTION('',(-1.,0.,3.14057037291829E-016));
#434=DIRECTION('',(3.13984949151802E-016,0.,1.));
#435=DIRECTION('',(0.,1.,0.));
#436=DIRECTION('',(1.,0.,0.));
#437=DIRECTION('',(0.,1.,0.));
#438=DIRECTION('',(1.,0.,0.));
#439=DIRECTION('',(0.,1.,0.));
#440=DIRECTION('',(0.,0.,1.));
#441=DIRECTION('',(1.,0.,0.));
#442=DIRECTION('',(0.,1.,0.));
#443=DIRECTION('',(0.,0.,1.));
#444=DIRECTION('',(1.,0.,0.));
#445=DIRECTION('',(0.,1.,0.));
#446=DIRECTION('',(0.,0.,1.));
#447=DIRECTION('',(0.,0.,-1.));
#448=DIRECTION('',(-1.,0.,0.));
#449=DIRECTION('',(0.,0.,1.));
#450=DIRECTION('',(1.,0.,0.));
#451=DIRECTION('',(0.,0.,-1.));
#452=DIRECTION('',(-1.,0.,0.));
#453=DIRECTION('',(0.,0.,-1.));
#454=DIRECTION('',(-1.,0.,0.));
#455=DIRECTION('',(0.,0.,-1.));
#456=DIRECTION('',(-1.,0.,0.));
#457=DIRECTION('',(0.,0.,1.));
#458=DIRECTION('',(1.,0.,2.10591488023529E-016));
#459=DIRECTION('',(0.,0.,-1.));
#460=DIRECTION('',(-1.,0.,0.));
#461=DIRECTION('',(0.,0.,-1.));
#462=DIRECTION('',(-1.,0.,0.));
#463=DIRECTION('',(0.,0.,-1.));
#464=DIRECTION('',(-1.,0.,0.));
#465=DIRECTION('',(0.,0.,-1.));
#466=DIRECTION('',(-1.,0.,0.));
#467=DIRECTION('',(0.,0.,-1.));
#468=DIRECTION('',(-1.,0.,5.3588782967141E-017));
#469=CARTESIAN_POINT('',(0.,0.,0.));
#470=CARTESIAN_POINT('',(-0.176835913568709,0.12,0.199708673538991));
#471=CARTESIAN_POINT('',(-0.176835913568709,0.12,0.199708673538991));
#472=CARTESIAN_POINT('',(-0.176835913568709,0.12,0.0909765138801329));
#473=CARTESIAN_POINT('',(-0.176835913568709,-0.12,0.0909765138801329));
#474=CARTESIAN_POINT('',(-0.176835913568709,-0.12,0.0909765138801329));
#475=CARTESIAN_POINT('',(-0.176835913568709,-0.12,0.199708673538991));
#476=CARTESIAN_POINT('',(-0.176835913568709,-0.12,0.199708673538991));
#477=CARTESIAN_POINT('',(-0.176835913568709,-0.12,0.199708673538991));
#478=CARTESIAN_POINT('',(-0.176835913568709,-0.12,0.199708673538991));
#479=CARTESIAN_POINT('',(-0.176835913568709,0.12,0.0909765138801329));
#480=CARTESIAN_POINT('',(-0.139278188545837,0.12,0.0203407064514188));
#481=CARTESIAN_POINT('',(-0.139278188545837,-0.12,0.0203407064514188));
#482=CARTESIAN_POINT('',(-0.139278188545837,-0.12,0.0203407064514188));
#483=CARTESIAN_POINT('',(-0.176835913568709,-0.12,0.0909765138801329));
#484=CARTESIAN_POINT('',(-0.176835913568709,-0.12,0.0909765138801329));
#485=CARTESIAN_POINT('',(-0.139278188545837,0.12,0.0203407064514188));
#486=CARTESIAN_POINT('',(-0.042224965127638,0.12,0.0203407064514188));
#487=CARTESIAN_POINT('',(-0.042224965127638,-0.12,0.0203407064514188));
#488=CARTESIAN_POINT('',(-0.042224965127638,-0.12,0.0203407064514188));
#489=CARTESIAN_POINT('',(-0.139278188545837,-0.12,0.0203407064514188));
#490=CARTESIAN_POINT('',(-0.139278188545837,-0.12,0.0203407064514188));
#491=CARTESIAN_POINT('',(-0.042224965127638,0.12,0.0203407064514188));
#492=CARTESIAN_POINT('',(-0.042224965127638,0.12,0.0203330730706951));
#493=CARTESIAN_POINT('',(-0.042224965127638,-0.12,0.0203330730706952));
#494=CARTESIAN_POINT('',(-0.042224965127638,-0.12,0.0203330730706951));
#495=CARTESIAN_POINT('',(-0.042224965127638,-0.12,0.0203407064514188));
#496=CARTESIAN_POINT('',(-0.042224965127638,-0.12,0.0203407064514188));
#497=CARTESIAN_POINT('',(0.0554277652381031,-0.12,-0.00765166016785767));
#498=CARTESIAN_POINT('',(0.0554277652381031,-0.12,0.0203330730706951));
#499=CARTESIAN_POINT('',(0.0554277652381031,-0.12,0.0203407064514188));
#500=CARTESIAN_POINT('',(0.0554277652381031,-0.12,0.0203330730706951));
#501=CARTESIAN_POINT('',(0.0554277652381031,0.12,0.0203330730706951));
#502=CARTESIAN_POINT('',(0.0554277652381031,0.12,-0.00765166016785767));
#503=CARTESIAN_POINT('',(0.0554277652381031,0.12,0.0203407064514188));
#504=CARTESIAN_POINT('',(0.0554277652381031,-0.12,0.0203407064514188));
#505=CARTESIAN_POINT('',(0.0554277652381031,-0.12,-0.00765166016785767));
#506=CARTESIAN_POINT('',(0.0554277652381031,0.12,0.0203407064514188));
#507=CARTESIAN_POINT('',(0.139278188545837,0.12,0.0203407064514188));
#508=CARTESIAN_POINT('',(0.139278188545837,-0.12,0.0203407064514188));
#509=CARTESIAN_POINT('',(0.139278188545837,-0.12,0.0203407064514188));
#510=CARTESIAN_POINT('',(0.0554277652381031,-0.12,0.0203407064514188));
#511=CARTESIAN_POINT('',(0.0554277652381031,-0.12,0.0203407064514188));
#512=CARTESIAN_POINT('',(0.139278188545837,0.12,0.0203407064514188));
#513=CARTESIAN_POINT('',(0.176835913568709,0.12,0.0909765138801329));
#514=CARTESIAN_POINT('',(0.176835913568709,-0.12,0.0909765138801329));
#515=CARTESIAN_POINT('',(0.176835913568709,-0.12,0.0909765138801329));
#516=CARTESIAN_POINT('',(0.139278188545837,-0.12,0.0203407064514188));
#517=CARTESIAN_POINT('',(0.139278188545837,-0.12,0.0203407064514188));
#518=CARTESIAN_POINT('',(0.176835913568709,0.12,0.0909765138801329));
#519=CARTESIAN_POINT('',(0.176835913568709,0.12,0.199708673538991));
#520=CARTESIAN_POINT('',(0.176835913568709,-0.12,0.199708673538991));
#521=CARTESIAN_POINT('',(0.176835913568709,-0.12,0.199708673538991));
#522=CARTESIAN_POINT('',(0.176835913568709,-0.12,0.0909765138801329));
#523=CARTESIAN_POINT('',(0.176835913568709,-0.12,0.0909765138801329));
#524=CARTESIAN_POINT('',(0.,0.12,0.694067305120768));
#525=CARTESIAN_POINT('',(0.,-0.12,0.694067305120768));
#526=CARTESIAN_POINT('',(0.,-0.12,0.694067305120768));
#527=CARTESIAN_POINT('',(0.,-0.12,0.0203330730706951));
#528=CARTESIAN_POINT('',(0.,-0.12,0.694067305120768));
#529=CARTESIAN_POINT('',(0.,0.12,0.0203330730706951));
#530=CARTESIAN_POINT('',(0.,0.12,0.694067305120768));
#531=CARTESIAN_POINT('',(0.00248949102391547,0.,0.0203330730706952));
#532=CARTESIAN_POINT('',(-0.147593759612354,0.,0.0203330730706952));
#533=CARTESIAN_POINT('',(-0.147593759612354,0.,0.0203330730706952));
#534=CARTESIAN_POINT('',(0.00248949102391547,0.,-0.35632933421671));
#535=CARTESIAN_POINT('',(-0.0878299424131448,0.,-0.35632933421671));
#536=CARTESIAN_POINT('',(0.00248949102391546,0.,-0.35632933421671));
#537=CARTESIAN_POINT('',(0.00248949102391547,0.,-0.2254374071002));
#538=CARTESIAN_POINT('',(-0.112328431445647,0.,-0.2254374071002));
#539=CARTESIAN_POINT('',(0.00248949102391547,0.,-0.35632933421671));
#540=CARTESIAN_POINT('',(0.00248949102391547,0.,-0.0686959418196772));
#541=CARTESIAN_POINT('',(-0.112328431445647,0.,-0.0686959418196772));
#542=CARTESIAN_POINT('',(0.00248949102391547,0.,-0.35632933421671));
#543=CARTESIAN_POINT('',(0.00248949102391547,0.,-0.0686959418196772));
#544=CARTESIAN_POINT('',(-0.321220314995979,0.,-0.0686959418196772));
#545=CARTESIAN_POINT('',(-0.112328431445647,0.,-0.0686959418196772));
#546=CARTESIAN_POINT('',(0.00248949102391547,0.,-0.0686959418196772));
#547=(
GEOMETRIC_REPRESENTATION_CONTEXT(3)
GLOBAL_UNCERTAINTY_ASSIGNED_CONTEXT((#548))
GLOBAL_UNIT_ASSIGNED_CONTEXT((#553,#550,#549))
REPRESENTATION_CONTEXT('PUM-049','TOP_LEVEL_ASSEMBLY_PART')
);
#548=UNCERTAINTY_MEASURE_WITH_UNIT(LENGTH_MEASURE(7.8740157480315E-007),
#553,'DISTANCE_ACCURACY_VALUE','Maximum Tolerance applied to model');
#549=(
NAMED_UNIT(*)
SI_UNIT($,.STERADIAN.)
SOLID_ANGLE_UNIT()
);
#550=(
CONVERSION_BASED_UNIT('DEGREE',#551)
NAMED_UNIT(#555)
PLANE_ANGLE_UNIT()
);
#551=PLANE_ANGLE_MEASURE_WITH_UNIT(PLANE_ANGLE_MEASURE(0.0174532925),#552);
#552=(
NAMED_UNIT(*)
PLANE_ANGLE_UNIT()
SI_UNIT($,.RADIAN.)
);
#553=(
CONVERSION_BASED_UNIT('INCH',#556)
LENGTH_UNIT()
NAMED_UNIT(#554)
);
#554=DIMENSIONAL_EXPONENTS(1.,0.,0.,0.,0.,0.,0.);
#555=DIMENSIONAL_EXPONENTS(0.,0.,0.,0.,0.,0.,0.);
#556=LENGTH_MEASURE_WITH_UNIT(LENGTH_MEASURE(25.4),#557);
#557=(
LENGTH_UNIT()
NAMED_UNIT(*)
SI_UNIT(.MILLI.,.METRE.)
);
ENDSEC;
END-ISO-10303-21;
