  0
SECTION
  2
HEADER
  9
$ACADVER
  1
AC1018
  9
$ACADMAINTVER
 70
     0
  9
$DWGCODEPAGE
  3
ANSI_1252
  9
$INSBASE
 10
0.0
 20
0.0
 30
0.0
  9
$EXTMIN
 10
-0.5
 20
-0.5
 30
-0.5
  9
$EXTMAX
 10
5.0
 20
5.0
 30
5.0
  9
$LIMMIN
 10
-0.5
 20
-0.5
  9
$LIMMAX
 10
5.0
 20
5.0
  9
$ORTHOMODE
 70
     0
  9
$REGENMODE
 70
     1
  9
$FILLMODE
 70
     1
  9
$QTEXTMODE
 70
     0
  9
$MIRRTEXT
 70
     1
  9
$LTSCALE
 40
1.0
  9
$ATTMODE
 70
     1
  9
$TEXTSIZE
 40
0.2
  9
$TRACEWID
 40
0.05
  9
$TEXTSTYLE
  7
Standard
  9
$CLAYER
  8
0
  9
$CELTYPE
  6
ByLayer
  9
$CECOLOR
 62
   256
  9
$CELTSCALE
 40
1.0
  9
$DISPSILH
 70
     0
  9
$DIMSCALE
 40
1.0
  9
$DIMASZ
 40
0.18
  9
$DIMEXO
 40
0.0625
  9
$DIMDLI
 40
0.38
  9
$DIMRND
 40
0.0
  9
$DIMDLE
 40
0.0
  9
$DIMEXE
 40
0.18
  9
$DIMTP
 40
0.0
  9
$DIMTM
 40
0.0
  9
$DIMTXT
 40
0.18
  9
$DIMCEN
 40
0.09
  9
$DIMTSZ
 40
0.0
  9
$DIMTOL
 70
     0
  9
$DIMLIM
 70
     0
  9
$DIMTIH
 70
     1
  9
$DIMTOH
 70
     1
  9
$DIMSE1
 70
     0
  9
$DIMSE2
 70
     0
  9
$DIMTAD
 70
     0
  9
$DIMZIN
 70
     0
  9
$DIMBLK
  1

  9
$DIMASO
 70
     1
  9
$DIMSHO
 70
     1
  9
$DIMPOST
  1

  9
$DIMAPOST
  1

  9
$DIMALT
 70
     0
  9
$DIMALTD
 70
     2
  9
$DIMALTF
 40
25.4
  9
$DIMLFAC
 40
1.0
  9
$DIMTOFL
 70
     0
  9
$DIMTVP
 40
0.0
  9
$DIMTIX
 70
     0
  9
$DIMSOXD
 70
     0
  9
$DIMSAH
 70
     0
  9
$DIMBLK1
  1

  9
$DIMBLK2
  1

  9
$DIMSTYLE
  2
Standard
  9
$DIMCLRD
 70
     0
  9
$DIMCLRE
 70
     0
  9
$DIMCLRT
 70
     0
  9
$DIMTFAC
 40
1.0
  9
$DIMGAP
 40
0.09
  9
$DIMJUST
 70
     0
  9
$DIMSD1
 70
     0
  9
$DIMSD2
 70
     0
  9
$DIMTOLJ
 70
     1
  9
$DIMTZIN
 70
     0
  9
$DIMALTZ
 70
     0
  9
$DIMALTTZ
 70
     0
  9
$DIMUPT
 70
     0
  9
$DIMDEC
 70
     4
  9
$DIMTDEC
 70
     4
  9
$DIMALTU
 70
     2
  9
$DIMALTTD
 70
     2
  9
$DIMTXSTY
  7
Standard
  9
$DIMAUNIT
 70
     0
  9
$DIMADEC
 70
     0
  9
$DIMALTRND
 40
0.0
  9
$DIMAZIN
 70
     0
  9
$DIMDSEP
 70
    46
  9
$DIMATFIT
 70
     3
  9
$DIMFRAC
 70
     0
  9
$DIMLDRBLK
  1

  9
$DIMLUNIT
 70
     2
  9
$DIMLWD
 70
    -2
  9
$DIMLWE
 70
    -2
  9
$DIMTMOVE
 70
     0
  9
$LUNITS
 70
     2
  9
$LUPREC
 70
     4
  9
$SKETCHINC
 40
0.1
  9
$FILLETRAD
 40
0.5
  9
$AUNITS
 70
     0
  9
$AUPREC
 70
     0
  9
$MENU
  1
.
  9
$ELEVATION
 40
0.0
  9
$PELEVATION
 40
0.0
  9
$THICKNESS
 40
0.0
  9
$LIMCHECK
 70
     0
  9
$CHAMFERA
 40
0.0
  9
$CHAMFERB
 40
0.0
  9
$CHAMFERC
 40
0.0
  9
$CHAMFERD
 40
0.0
  9
$SKPOLY
 70
     0
  9
$TDCREATE
 40
2458973.829193924
  9
$TDUCREATE
 40
2458974.037527257
  9
$TDUPDATE
 40
2458973.829203137
  9
$TDUUPDATE
 40
2458974.03753647
  9
$TDINDWG
 40
0.0000000116
  9
$TDUSRTIMER
 40
0.0000000116
  9
$USRTIMER
 70
     1
  9
$ANGBASE
 50
0.0
  9
$ANGDIR
 70
     0
  9
$PDMODE
 70
     0
  9
$PDSIZE
 40
0.0
  9
$PLINEWID
 40
0.0
  9
$SPLFRAME
 70
     0
  9
$SPLINETYPE
 70
     6
  9
$SPLINESEGS
 70
     8
  9
$HANDSEED
  5
24C
  9
$SURFTAB1
 70
     6
  9
$SURFTAB2
 70
     6
  9
$SURFTYPE
 70
     6
  9
$SURFU
 70
     6
  9
$SURFV
 70
     6
  9
$UCSBASE
  2

  9
$UCSNAME
  2

  9
$UCSORG
 10
0.0
 20
0.0
 30
0.0
  9
$UCSXDIR
 10
1.0
 20
0.0
 30
0.0
  9
$UCSYDIR
 10
0.0
 20
1.0
 30
0.0
  9
$UCSORTHOREF
  2

  9
$UCSORTHOVIEW
 70
     0
  9
$UCSORGTOP
 10
0.0
 20
0.0
 30
0.0
  9
$UCSORGBOTTOM
 10
0.0
 20
0.0
 30
0.0
  9
$UCSORGLEFT
 10
0.0
 20
0.0
 30
0.0
  9
$UCSORGRIGHT
 10
0.0
 20
0.0
 30
0.0
  9
$UCSORGFRONT
 10
0.0
 20
0.0
 30
0.0
  9
$UCSORGBACK
 10
0.0
 20
0.0
 30
0.0
  9
$PUCSBASE
  2

  9
$PUCSNAME
  2

  9
$PUCSORG
 10
0.0
 20
0.0
 30
0.0
  9
$PUCSXDIR
 10
1.0
 20
0.0
 30
0.0
  9
$PUCSYDIR
 10
0.0
 20
1.0
 30
0.0
  9
$PUCSORTHOREF
  2

  9
$PUCSORTHOVIEW
 70
     0
  9
$PUCSORGTOP
 10
0.0
 20
0.0
 30
0.0
  9
$PUCSORGBOTTOM
 10
0.0
 20
0.0
 30
0.0
  9
$PUCSORGLEFT
 10
0.0
 20
0.0
 30
0.0
  9
$PUCSORGRIGHT
 10
0.0
 20
0.0
 30
0.0
  9
$PUCSORGFRONT
 10
0.0
 20
0.0
 30
0.0
  9
$PUCSORGBACK
 10
0.0
 20
0.0
 30
0.0
  9
$USERI1
 70
     0
  9
$USERI2
 70
     0
  9
$USERI3
 70
     0
  9
$USERI4
 70
     0
  9
$USERI5
 70
     0
  9
$USERR1
 40
0.0
  9
$USERR2
 40
0.0
  9
$USERR3
 40
0.0
  9
$USERR4
 40
0.0
  9
$USERR5
 40
0.0
  9
$WORLDVIEW
 70
     1
  9
$SHADEDGE
 70
     3
  9
$SHADEDIF
 70
    70
  9
$TILEMODE
 70
     0
  9
$MAXACTVP
 70
    64
  9
$PINSBASE
 10
0.0
 20
0.0
 30
0.0
  9
$PLIMCHECK
 70
     0
  9
$PEXTMIN
 10
0.0
 20
0.0
 30
0.0
  9
$PEXTMAX
 10
11.0
 20
8.5
 30
0.0
  9
$PLIMMIN
 10
0.0
 20
0.0
  9
$PLIMMAX
 10
11.0
 20
8.5
  9
$UNITMODE
 70
     0
  9
$VISRETAIN
 70
     1
  9
$PLINEGEN
 70
     0
  9
$PSLTSCALE
 70
     1
  9
$TREEDEPTH
 70
  3020
  9
$CMLSTYLE
  2
Standard
  9
$CMLJUST
 70
     0
  9
$CMLSCALE
 40
1.0
  9
$PROXYGRAPHICS
 70
     1
  9
$MEASUREMENT
 70
     0
  9
$CELWEIGHT
370
    18
  9
$ENDCAPS
280
     0
  9
$JOINSTYLE
280
     0
  9
$LWDISPLAY
290
     0
  9
$INSUNITS
 70
     1
  9
$HYPERLINKBASE
  1

  9
$STYLESHEET
  1

  9
$XEDIT
290
     1
  9
$CEPSNTYPE
380
     0
  9
$PSTYLEMODE
290
     1
  9
$FINGERPRINTGUID
  2
{61D377CC-D380-49A2-A505-B49C5A97DD4D}
  9
$VERSIONGUID
  2
{FAEB1C32-E019-11D5-929B-00C0DF256EC4}
  9
$EXTNAMES
290
     1
  9
$PSVPSCALE
 40
0.0
  9
$OLESTARTUP
290
     0
  9
$SORTENTS
280
   127
  9
$INDEXCTL
280
     0
  9
$HIDETEXT
280
     1
  9
$XCLIPFRAME
290
     0
  9
$HALOGAP
280
     0
  9
$OBSCOLOR
 70
   257
  9
$OBSLTYPE
280
     0
  9
$INTERSECTIONDISPLAY
280
     0
  9
$INTERSECTIONCOLOR
 70
   257
  9
$DIMASSOC
280
     2
  9
$PROJECTNAME
  1

  0
ENDSEC
  0
SECTION
  2
CLASSES
  0
CLASS
  1
ACDBDICTIONARYWDFLT
  2
AcDbDictionaryWithDefault
  3
ObjectDBX Classes
 90
        0
 91
        3
280
     0
281
     0
  0
CLASS
  1
VISUALSTYLE
  2
AcDbVisualStyle
  3
ObjectDBX Classes
 90
     4095
 91
        3
280
     0
281
     0
  0
CLASS
  1
MATERIAL
  2
AcDbMaterial
  3
ObjectDBX Classes
 90
     1153
 91
        3
280
     0
281
     0
  0
CLASS
  1
SCALE
  2
AcDbScale
  3
ObjectDBX Classes
 90
     1153
 91
        3
280
     0
281
     0
  0
CLASS
  1
TABLESTYLE
  2
AcDbTableStyle
  3
ObjectDBX Classes
 90
     4095
 91
        3
280
     0
281
     0
  0
CLASS
  1
MLEADERSTYLE
  2
AcDbMLeaderStyle
  3
ACDB_MLEADERSTYLE_CLASS
 90
     4095
 91
        3
280
     0
281
     0
  0
CLASS
  1
SUN
  2
AcDbSun
  3
SCENEOE
 90
     1153
 91
        3
280
     0
281
     0
  0
CLASS
  1
DICTIONARYVAR
  2
AcDbDictionaryVar
  3
ObjectDBX Classes
 90
        0
 91
        3
280
     0
281
     0
  0
CLASS
  1
CELLSTYLEMAP
  2
AcDbCellStyleMap
  3
ObjectDBX Classes
 90
     1152
 91
        3
280
     0
281
     0
  0
ENDSEC
  0
SECTION
  2
TABLES
  0
TABLE
  2
VPORT
  5
8
102
{ACAD_XDICTIONARY
360
205
102
}
330
0
100
AcDbSymbolTable
 70
     1
  0
VPORT
  5
29
330
8
100
AcDbSymbolTableRecord
100
AcDbViewportTableRecord
  2
*Active
 70
     0
 10
0.0
 20
0.0
 11
1.0
 21
1.0
 12
10.429907
 22
4.5
 13
0.0
 23
0.0
 14
0.5
 24
0.5
 15
0.5
 25
0.5
 16
0.0
 26
0.0
 36
1.0
 17
0.0
 27
0.0
 37
0.0
 40
9.0
 41
1.972973
 42
50.0
 43
0.0
 44
0.0
 50
0.0
 51
0.0
 71
     0
 72
   100
 73
     1
 74
     3
 75
     0
 76
     0
 77
     0
 78
     0
281
     0
 65
     1
110
0.0
120
0.0
130
0.0
111
1.0
121
0.0
131
0.0
112
0.0
122
1.0
132
0.0
 79
     0
146
0.0
  0
ENDTAB
  0
TABLE
  2
LTYPE
  5
5
330
0
100
AcDbSymbolTable
 70
     6
  0
LTYPE
  5
14
330
5
100
AcDbSymbolTableRecord
100
AcDbLinetypeTableRecord
  2
ByBlock
 70
     0
  3

 72
    65
 73
     0
 40
0.0
  0
LTYPE
  5
15
330
5
100
AcDbSymbolTableRecord
100
AcDbLinetypeTableRecord
  2
ByLayer
 70
     0
  3

 72
    65
 73
     0
 40
0.0
  0
LTYPE
  5
16
330
5
100
AcDbSymbolTableRecord
100
AcDbLinetypeTableRecord
  2
Continuous
 70
     0
  3
Solid line
 72
    65
 73
     0
 40
0.0
  0
LTYPE
  5
70
330
5
100
AcDbSymbolTableRecord
100
AcDbLinetypeTableRecord
  2
CENTER
 70
     0
  3
____ _ ____ _ ____ _ ____
 72
    65
 73
     4
 40
47.4
 49
22.0
 74
     4
 75
     0
340
0
 46
0.0
 50
0.0
 44
0.0
 45
0.0
 49
-8.5
 74
     4
 75
     0
340
0
 46
0.0
 50
0.0
 44
0.0
 45
0.0
 49
8.5
 74
     4
 75
     0
340
0
 46
0.0
 50
0.0
 44
0.0
 45
0.0
 49
-8.5
 74
     4
 75
     0
340
0
 46
0.0
 50
0.0
 44
0.0
 45
0.0
  0
LTYPE
  5
71
330
5
100
AcDbSymbolTableRecord
100
AcDbLinetypeTableRecord
  2
DASHDOT
 70
     0
  3
_._._._._._._._._._._._._._._._.
 72
    65
 73
     4
 40
70.0
 49
31.0
 74
     4
 75
     0
340
0
 46
0.0
 50
0.0
 44
0.0
 45
0.0
 49
-13.0
 74
     4
 75
     0
340
0
 46
0.0
 50
0.0
 44
0.0
 45
0.0
 49
13.0
 74
     4
 75
     0
340
0
 46
0.0
 50
0.0
 44
0.0
 45
0.0
 49
-13.0
 74
     4
 75
     0
340
0
 46
0.0
 50
0.0
 44
0.0
 45
0.0
  0
LTYPE
  5
72
330
5
100
AcDbSymbolTableRecord
100
AcDbLinetypeTableRecord
  2
DASHED
 70
     0
  3
__ __ __ __ __ __ __ __ __
 72
    65
 73
     2
 40
25.72
 49
12.86
 74
     4
 75
     0
340
0
 46
0.0
 50
0.0
 44
0.0
 45
0.0
 49
-12.86
 74
     4
 75
     0
340
0
 46
0.0
 50
0.0
 44
0.0
 45
0.0
  0
LTYPE
  5
73
330
5
100
AcDbSymbolTableRecord
100
AcDbLinetypeTableRecord
  2
DOT
 70
     0
  3
.........................
 72
    65
 73
     2
 40
10.0
 49
0.0
 74
     4
 75
     0
340
0
 46
0.0
 50
0.0
 44
0.0
 45
0.0
 49
-10.0
 74
     4
 75
     0
340
0
 46
0.0
 50
0.0
 44
0.0
 45
0.0
  0
LTYPE
  5
74
330
5
100
AcDbSymbolTableRecord
100
AcDbLinetypeTableRecord
  2
PHANTOM
 70
     0
  3
____ _ _ ____ _ _ _____ _ _ ____
 72
    65
 73
     6
 40
50.5
 49
18.0
 74
     4
 75
     0
340
0
 46
0.0
 50
0.0
 44
0.0
 45
0.0
 49
-6.5
 74
     4
 75
     0
340
0
 46
0.0
 50
0.0
 44
0.0
 45
0.0
 49
6.5
 74
     4
 75
     0
340
0
 46
0.0
 50
0.0
 44
0.0
 45
0.0
 49
-6.5
 74
     4
 75
     0
340
0
 46
0.0
 50
0.0
 44
0.0
 45
0.0
 49
6.5
 74
     4
 75
     0
340
0
 46
0.0
 50
0.0
 44
0.0
 45
0.0
 49
-6.5
 74
     4
 75
     0
340
0
 46
0.0
 50
0.0
 44
0.0
 45
0.0
  0
ENDTAB
  0
TABLE
  2
LAYER
  5
2
330
0
100
AcDbSymbolTable
 70
     2
  0
LAYER
  5
10
330
2
100
AcDbSymbolTableRecord
100
AcDbLayerTableRecord
  2
0
 70
     0
 62
     7
  6
Continuous
370
    -3
390
F
  0
LAYER
  5
7A
330
2
100
AcDbSymbolTableRecord
100
AcDbLayerTableRecord
  2
1
 70
     0
 62
     7
420
 16777215
  6
Continuous
370
    -3
390
F
  0
ENDTAB
  0
TABLE
  2
STYLE
  5
3
330
0
100
AcDbSymbolTable
 70
     5
  0
STYLE
  5
11
330
3
100
AcDbSymbolTableRecord
100
AcDbTextStyleTableRecord
  2
Standard
 70
     0
 40
0.0
 41
1.0
 50
0.0
 71
     0
 42
0.2
  3
txt
  4

  0
STYLE
  5
1AA
330
3
100
AcDbSymbolTableRecord
100
AcDbTextStyleTableRecord
  2
blockfont
 70
     0
 40
0.0
 41
1.0
 50
0.0
 71
     0
 42
0.2
  3
simplex.shx
  4

  0
STYLE
  5
1AB
330
3
100
AcDbSymbolTableRecord
100
AcDbTextStyleTableRecord
  2
DWGDirectTextStyle
 70
     0
 40
0.0
 41
1.0
 50
0.0
 71
     0
 42
0.2
  3
simplex
  4

  0
STYLE
  5
1AD
330
3
100
AcDbSymbolTableRecord
100
AcDbTextStyleTableRecord
  2
blackfont
 70
     0
 40
0.0
 41
1.0
 50
0.0
 71
     0
 42
0.2
  3
simplex.shx
  4

  0
STYLE
  5
1B7
330
3
100
AcDbSymbolTableRecord
100
AcDbTextStyleTableRecord
  2
helios
 70
     0
 40
0.0
 41
1.0
 50
0.0
 71
     0
 42
0.2
  3
Monospac821 BT
  4

1001
ACAD
1000
Monospac821 BT
1071
        0
  0
ENDTAB
  0
TABLE
  2
VIEW
  5
6
330
0
100
AcDbSymbolTable
 70
     0
  0
ENDTAB
  0
TABLE
  2
UCS
  5
7
330
0
100
AcDbSymbolTable
 70
     0
  0
ENDTAB
  0
TABLE
  2
APPID
  5
9
330
0
100
AcDbSymbolTable
 70
     2
  0
APPID
  5
12
330
9
100
AcDbSymbolTableRecord
100
AcDbRegAppTableRecord
  2
ACAD
 70
     0
  0
APPID
  5
244
330
9
100
AcDbSymbolTableRecord
100
AcDbRegAppTableRecord
  2
ACAD_MLEADERVER
 70
     0
  0
ENDTAB
  0
TABLE
  2
DIMSTYLE
  5
A
330
0
100
AcDbSymbolTable
 70
     1
100
AcDbDimStyleTable
  0
DIMSTYLE
105
27
330
A
100
AcDbSymbolTableRecord
100
AcDbDimStyleTableRecord
  2
Standard
 70
     0
178
     0
340
11
  0
ENDTAB
  0
TABLE
  2
BLOCK_RECORD
  5
1
330
0
100
AcDbSymbolTable
 70
     0
  0
BLOCK_RECORD
  5
1F
330
1
100
AcDbSymbolTableRecord
100
AcDbBlockTableRecord
  2
*Model_Space
340
22
  0
BLOCK_RECORD
  5
75
330
1
100
AcDbSymbolTableRecord
100
AcDbBlockTableRecord
  2
*PAPER_SPACE
340
201
  0
ENDTAB
  0
ENDSEC
  0
SECTION
  2
BLOCKS
  0
BLOCK
  5
20
330
1F
100
AcDbEntity
  8
0
100
AcDbBlockBegin
  2
*Model_Space
 70
     0
 10
0.0
 20
0.0
 30
0.0
  3
*Model_Space
  1

  0
ENDBLK
  5
21
330
1F
100
AcDbEntity
  8
0
100
AcDbBlockEnd
  0
BLOCK
  5
76
330
75
100
AcDbEntity
 67
     1
  8
0
100
AcDbBlockBegin
  2
*PAPER_SPACE
 70
     0
 10
0.0
 20
0.0
 30
0.0
  3
*PAPER_SPACE
  1

  0
ENDBLK
  5
77
330
75
100
AcDbEntity
 67
     1
  8
0
100
AcDbBlockEnd
  0
ENDSEC
  0
SECTION
  2
ENTITIES
  0
VIEWPORT
  5
78
102
{ACAD_XDICTIONARY
360
203
102
}
330
75
100
AcDbEntity
 67
     1
  8
0
370
    18
100
AcDbViewport
 10
5.5
 20
4.25
 30
0.0
 40
11.0
 41
8.5
 68
     1
 69
     1
 12
5.5
 22
4.25
 13
0.0
 23
0.0
 14
1.0
 24
1.0
 15
1.0
 25
1.0
 16
0.0
 26
0.0
 36
1.0
 17
0.0
 27
0.0
 37
0.0
 42
44.345898
 43
0.0
 44
0.0
 45
8.5
 50
0.0
 51
0.0
 72
   100
 90
   557152
  1

281
     0
 71
     1
 74
     0
110
0.0
120
0.0
130
0.0
111
1.0
121
0.0
131
0.0
112
0.0
122
1.0
132
0.0
 79
     0
146
0.0
170
     0
  0
LINE
  5
79
330
75
100
AcDbEntity
 67
     1
  8
1
  6
Continuous
 62
     7
370
    18
100
AcDbLine
 10
0.0
 20
0.055
 30
0.0
 11
0.0
 21
-0.055
 31
0.0
  0
LINE
  5
7B
330
75
100
AcDbEntity
 67
     1
  8
1
  6
Continuous
 62
     7
370
    18
100
AcDbLine
 10
-0.055
 20
0.0
 30
0.0
 11
0.055
 21
0.0
 31
0.0
  0
LINE
  5
7C
330
75
100
AcDbEntity
 67
     1
  8
1
  6
Continuous
 62
     7
370
    18
100
AcDbLine
 10
11.0
 20
0.055
 30
0.0
 11
11.0
 21
-0.055
 31
0.0
  0
LINE
  5
7D
330
75
100
AcDbEntity
 67
     1
  8
1
  6
Continuous
 62
     7
370
    18
100
AcDbLine
 10
10.945001
 20
0.0
 30
0.0
 11
11.055
 21
0.0
 31
0.0
  0
LINE
  5
7E
330
75
100
AcDbEntity
 67
     1
  8
1
  6
Continuous
 62
     7
370
    18
100
AcDbLine
 10
0.0
 20
8.555
 30
0.0
 11
0.0
 21
8.445001
 31
0.0
  0
LINE
  5
7F
330
75
100
AcDbEntity
 67
     1
  8
1
  6
Continuous
 62
     7
370
    18
100
AcDbLine
 10
-0.055
 20
8.5
 30
0.0
 11
0.055
 21
8.5
 31
0.0
  0
LINE
  5
80
330
75
100
AcDbEntity
 67
     1
  8
1
  6
Continuous
 62
     7
370
    18
100
AcDbLine
 10
11.0
 20
8.555
 30
0.0
 11
11.0
 21
8.445001
 31
0.0
  0
LINE
  5
81
330
75
100
AcDbEntity
 67
     1
  8
1
  6
Continuous
 62
     7
370
    18
100
AcDbLine
 10
10.945001
 20
8.5
 30
0.0
 11
11.055
 21
8.5
 31
0.0
  0
LINE
  5
82
330
75
100
AcDbEntity
 67
     1
  8
1
  6
Continuous
 62
     7
370
    25
100
AcDbLine
 10
0.249736
 20
8.25
 30
0.0
 11
10.749737
 21
8.25
 31
0.0
  0
LINE
  5
83
330
75
100
AcDbEntity
 67
     1
  8
1
  6
Continuous
 62
     7
370
    25
100
AcDbLine
 10
0.249736
 20
0.25
 30
0.0
 11
10.749737
 21
0.25
 31
0.0
  0
LINE
  5
84
330
75
100
AcDbEntity
 67
     1
  8
1
  6
Continuous
 62
     7
370
    25
100
AcDbLine
 10
0.249736
 20
8.25
 30
0.0
 11
0.249736
 21
0.25
 31
0.0
  0
LINE
  5
85
330
75
100
AcDbEntity
 67
     1
  8
1
  6
Continuous
 62
     7
370
    25
100
AcDbLine
 10
10.753736
 20
8.25
 30
0.0
 11
10.753736
 21
0.25
 31
0.0
  0
LINE
  5
86
330
75
100
AcDbEntity
 67
     1
  8
1
  6
Continuous
 62
     7
370
    25
100
AcDbLine
 10
5.499736
 20
8.5
 30
0.0
 11
5.499736
 21
8.25
 31
0.0
  0
LINE
  5
87
330
75
100
AcDbEntity
 67
     1
  8
1
  6
Continuous
 62
     7
370
    25
100
AcDbLine
 10
5.499736
 20
0.25
 30
0.0
 11
5.499736
 21
0.0
 31
0.0
  0
LINE
  5
88
330
75
100
AcDbEntity
 67
     1
  8
1
  6
Continuous
 62
     7
370
    25
100
AcDbLine
 10
10.753736
 20
4.3
 30
0.0
 11
10.753736
 21
4.2
 31
0.0
  0
LINE
  5
89
330
75
100
AcDbEntity
 67
     1
  8
1
  6
Continuous
 62
     7
370
    25
100
AcDbLine
 10
11.0
 20
4.253736
 30
0.0
 11
10.878736
 21
4.375
 31
0.0
  0
LINE
  5
8A
330
75
100
AcDbEntity
 67
     1
  8
1
  6
Continuous
 62
     7
370
    25
100
AcDbLine
 10
10.878736
 20
4.375
 30
0.0
 11
10.878736
 21
4.3
 31
0.0
  0
LINE
  5
8B
330
75
100
AcDbEntity
 67
     1
  8
1
  6
Continuous
 62
     7
370
    25
100
AcDbLine
 10
10.878736
 20
4.125
 30
0.0
 11
11.0
 21
4.246264
 31
0.0
  0
LINE
  5
8C
330
75
100
AcDbEntity
 67
     1
  8
1
  6
Continuous
 62
     7
370
    25
100
AcDbLine
 10
10.753736
 20
4.2
 30
0.0
 11
10.878736
 21
4.2
 31
0.0
  0
LINE
  5
8D
330
75
100
AcDbEntity
 67
     1
  8
1
  6
Continuous
 62
     7
370
    25
100
AcDbLine
 10
10.753736
 20
4.3
 30
0.0
 11
10.878736
 21
4.3
 31
0.0
  0
LINE
  5
8E
330
75
100
AcDbEntity
 67
     1
  8
1
  6
Continuous
 62
     7
370
    25
100
AcDbLine
 10
10.878736
 20
4.2
 30
0.0
 11
10.878736
 21
4.125
 31
0.0
  0
LINE
  5
8F
330
75
100
AcDbEntity
 67
     1
  8
1
  6
Continuous
 62
     7
370
    25
100
AcDbLine
 10
0.0
 20
4.250264
 30
0.0
 11
0.124736
 21
4.375
 31
0.0
  0
LINE
  5
90
330
75
100
AcDbEntity
 67
     1
  8
1
  6
Continuous
 62
     7
370
    25
100
AcDbLine
 10
0.124736
 20
4.125
 30
0.0
 11
0.0
 21
4.249736
 31
0.0
  0
LINE
  5
91
330
75
100
AcDbEntity
 67
     1
  8
1
  6
Continuous
 62
     7
370
    25
100
AcDbLine
 10
0.249736
 20
4.3
 30
0.0
 11
0.124736
 21
4.3
 31
0.0
  0
LINE
  5
92
330
75
100
AcDbEntity
 67
     1
  8
1
  6
Continuous
 62
     7
370
    25
100
AcDbLine
 10
0.124736
 20
4.375
 30
0.0
 11
0.124736
 21
4.3
 31
0.0
  0
LINE
  5
93
330
75
100
AcDbEntity
 67
     1
  8
1
  6
Continuous
 62
     7
370
    25
100
AcDbLine
 10
0.124736
 20
4.2
 30
0.0
 11
0.124736
 21
4.125
 31
0.0
  0
LINE
  5
94
330
75
100
AcDbEntity
 67
     1
  8
1
  6
Continuous
 62
     7
370
    25
100
AcDbLine
 10
0.249736
 20
4.2
 30
0.0
 11
0.124736
 21
4.2
 31
0.0
  0
LINE
  5
95
330
75
100
AcDbEntity
 67
     1
  8
1
  6
Continuous
 62
     7
370
    25
100
AcDbLine
 10
0.249736
 20
4.3
 30
0.0
 11
0.249736
 21
4.2
 31
0.0
  0
LINE
  5
96
330
75
100
AcDbEntity
 67
     1
  8
1
  6
Continuous
 62
     7
370
    18
100
AcDbLine
 10
0.249736
 20
1.0625
 30
0.0
 11
0.249736
 21
0.8125
 31
0.0
  0
LINE
  5
97
330
75
100
AcDbEntity
 67
     1
  8
1
  6
Continuous
 62
     7
370
    18
100
AcDbLine
 10
0.249736
 20
0.8125
 30
0.0
 11
0.249736
 21
0.5625
 31
0.0
  0
LINE
  5
98
330
75
100
AcDbEntity
 67
     1
  8
1
  6
Continuous
 62
     7
370
    18
100
AcDbLine
 10
0.249736
 20
0.5625
 30
0.0
 11
0.249736
 21
0.25
 31
0.0
  0
LINE
  5
99
330
75
100
AcDbEntity
 67
     1
  8
1
  6
Continuous
 62
     7
370
    18
100
AcDbLine
 10
0.249736
 20
1.0625
 30
0.0
 11
0.566236
 21
1.0625
 31
0.0
  0
LINE
  5
9A
330
75
100
AcDbEntity
 67
     1
  8
1
  6
Continuous
 62
     7
370
    18
100
AcDbLine
 10
0.566236
 20
1.0625
 30
0.0
 11
1.128736
 21
1.0625
 31
0.0
  0
LINE
  5
9B
330
75
100
AcDbEntity
 67
     1
  8
1
  6
Continuous
 62
     7
370
    18
100
AcDbLine
 10
1.128736
 20
1.0625
 30
0.0
 11
1.503736
 21
1.0625
 31
0.0
  0
LINE
  5
9C
330
75
100
AcDbEntity
 67
     1
  8
1
  6
Continuous
 62
     7
370
    18
100
AcDbLine
 10
1.503736
 20
1.0625
 30
0.0
 11
1.878736
 21
1.0625
 31
0.0
  0
LINE
  5
9D
330
75
100
AcDbEntity
 67
     1
  8
1
  6
Continuous
 62
     7
370
    18
100
AcDbLine
 10
1.878736
 20
1.0625
 30
0.0
 11
2.253736
 21
1.0625
 31
0.0
  0
LINE
  5
9E
330
75
100
AcDbEntity
 67
     1
  8
1
  6
Continuous
 62
     7
370
    18
100
AcDbLine
 10
2.253736
 20
1.0625
 30
0.0
 11
5.503736
 21
1.0625
 31
0.0
  0
LINE
  5
9F
330
75
100
AcDbEntity
 67
     1
  8
1
  6
Continuous
 62
     7
370
    18
100
AcDbLine
 10
5.503736
 20
1.0625
 30
0.0
 11
6.378736
 21
1.0625
 31
0.0
  0
LINE
  5
A0
330
75
100
AcDbEntity
 67
     1
  8
1
  6
Continuous
 62
     7
370
    18
100
AcDbLine
 10
0.249736
 20
0.8125
 30
0.0
 11
0.566236
 21
0.8125
 31
0.0
  0
LINE
  5
A1
330
75
100
AcDbEntity
 67
     1
  8
1
  6
Continuous
 62
     7
370
    18
100
AcDbLine
 10
0.566236
 20
1.0625
 30
0.0
 11
0.566236
 21
0.8125
 31
0.0
  0
LINE
  5
A2
330
75
100
AcDbEntity
 67
     1
  8
1
  6
Continuous
 62
     7
370
    18
100
AcDbLine
 10
0.566236
 20
0.8125
 30
0.0
 11
1.128736
 21
0.8125
 31
0.0
  0
LINE
  5
A3
330
75
100
AcDbEntity
 67
     1
  8
1
  6
Continuous
 62
     7
370
    18
100
AcDbLine
 10
1.128736
 20
1.0625
 30
0.0
 11
1.128736
 21
0.8125
 31
0.0
  0
LINE
  5
A4
330
75
100
AcDbEntity
 67
     1
  8
1
  6
Continuous
 62
     7
370
    18
100
AcDbLine
 10
1.128736
 20
0.8125
 30
0.0
 11
1.503736
 21
0.8125
 31
0.0
  0
LINE
  5
A5
330
75
100
AcDbEntity
 67
     1
  8
1
  6
Continuous
 62
     7
370
    18
100
AcDbLine
 10
1.503736
 20
1.0625
 30
0.0
 11
1.503736
 21
0.8125
 31
0.0
  0
LINE
  5
A6
330
75
100
AcDbEntity
 67
     1
  8
1
  6
Continuous
 62
     7
370
    18
100
AcDbLine
 10
1.503736
 20
0.8125
 30
0.0
 11
1.878736
 21
0.8125
 31
0.0
  0
LINE
  5
A7
330
75
100
AcDbEntity
 67
     1
  8
1
  6
Continuous
 62
     7
370
    18
100
AcDbLine
 10
1.878736
 20
1.0625
 30
0.0
 11
1.878736
 21
0.8125
 31
0.0
  0
LINE
  5
A8
330
75
100
AcDbEntity
 67
     1
  8
1
  6
Continuous
 62
     7
370
    18
100
AcDbLine
 10
1.878736
 20
0.8125
 30
0.0
 11
2.253736
 21
0.8125
 31
0.0
  0
LINE
  5
A9
330
75
100
AcDbEntity
 67
     1
  8
1
  6
Continuous
 62
     7
370
    18
100
AcDbLine
 10
2.253736
 20
1.0625
 30
0.0
 11
2.253736
 21
0.8125
 31
0.0
  0
LINE
  5
AA
330
75
100
AcDbEntity
 67
     1
  8
1
  6
Continuous
 62
     7
370
    18
100
AcDbLine
 10
2.253736
 20
0.8125
 30
0.0
 11
5.503736
 21
0.8125
 31
0.0
  0
LINE
  5
AB
330
75
100
AcDbEntity
 67
     1
  8
1
  6
Continuous
 62
     7
370
    18
100
AcDbLine
 10
5.503736
 20
1.0625
 30
0.0
 11
5.503736
 21
0.8125
 31
0.0
  0
LINE
  5
AC
330
75
100
AcDbEntity
 67
     1
  8
1
  6
Continuous
 62
     7
370
    18
100
AcDbLine
 10
5.503736
 20
0.8125
 30
0.0
 11
6.378736
 21
0.8125
 31
0.0
  0
LINE
  5
AD
330
75
100
AcDbEntity
 67
     1
  8
1
  6
Continuous
 62
     7
370
    18
100
AcDbLine
 10
6.378736
 20
1.0625
 30
0.0
 11
6.378736
 21
0.8125
 31
0.0
  0
LINE
  5
AE
330
75
100
AcDbEntity
 67
     1
  8
1
  6
Continuous
 62
     7
370
    18
100
AcDbLine
 10
0.249736
 20
0.5625
 30
0.0
 11
0.566236
 21
0.5625
 31
0.0
  0
LINE
  5
AF
330
75
100
AcDbEntity
 67
     1
  8
1
  6
Continuous
 62
     7
370
    18
100
AcDbLine
 10
0.566236
 20
0.8125
 30
0.0
 11
0.566236
 21
0.5625
 31
0.0
  0
LINE
  5
B0
330
75
100
AcDbEntity
 67
     1
  8
1
  6
Continuous
 62
     7
370
    18
100
AcDbLine
 10
0.566236
 20
0.5625
 30
0.0
 11
1.128736
 21
0.5625
 31
0.0
  0
LINE
  5
B1
330
75
100
AcDbEntity
 67
     1
  8
1
  6
Continuous
 62
     7
370
    18
100
AcDbLine
 10
1.128736
 20
0.8125
 30
0.0
 11
1.128736
 21
0.5625
 31
0.0
  0
LINE
  5
B2
330
75
100
AcDbEntity
 67
     1
  8
1
  6
Continuous
 62
     7
370
    18
100
AcDbLine
 10
1.128736
 20
0.5625
 30
0.0
 11
1.503736
 21
0.5625
 31
0.0
  0
LINE
  5
B3
330
75
100
AcDbEntity
 67
     1
  8
1
  6
Continuous
 62
     7
370
    18
100
AcDbLine
 10
1.503736
 20
0.8125
 30
0.0
 11
1.503736
 21
0.5625
 31
0.0
  0
LINE
  5
B4
330
75
100
AcDbEntity
 67
     1
  8
1
  6
Continuous
 62
     7
370
    18
100
AcDbLine
 10
1.503736
 20
0.5625
 30
0.0
 11
1.878736
 21
0.5625
 31
0.0
  0
LINE
  5
B5
330
75
100
AcDbEntity
 67
     1
  8
1
  6
Continuous
 62
     7
370
    18
100
AcDbLine
 10
1.878736
 20
0.8125
 30
0.0
 11
1.878736
 21
0.5625
 31
0.0
  0
LINE
  5
B6
330
75
100
AcDbEntity
 67
     1
  8
1
  6
Continuous
 62
     7
370
    18
100
AcDbLine
 10
1.878736
 20
0.5625
 30
0.0
 11
2.253736
 21
0.5625
 31
0.0
  0
LINE
  5
B7
330
75
100
AcDbEntity
 67
     1
  8
1
  6
Continuous
 62
     7
370
    18
100
AcDbLine
 10
2.253736
 20
0.8125
 30
0.0
 11
2.253736
 21
0.5625
 31
0.0
  0
LINE
  5
B8
330
75
100
AcDbEntity
 67
     1
  8
1
  6
Continuous
 62
     7
370
    18
100
AcDbLine
 10
2.253736
 20
0.5625
 30
0.0
 11
5.503736
 21
0.5625
 31
0.0
  0
LINE
  5
B9
330
75
100
AcDbEntity
 67
     1
  8
1
  6
Continuous
 62
     7
370
    18
100
AcDbLine
 10
5.503736
 20
0.8125
 30
0.0
 11
5.503736
 21
0.5625
 31
0.0
  0
LINE
  5
BA
330
75
100
AcDbEntity
 67
     1
  8
1
  6
Continuous
 62
     7
370
    18
100
AcDbLine
 10
5.503736
 20
0.5625
 30
0.0
 11
6.378736
 21
0.5625
 31
0.0
  0
LINE
  5
BB
330
75
100
AcDbEntity
 67
     1
  8
1
  6
Continuous
 62
     7
370
    18
100
AcDbLine
 10
6.378736
 20
0.8125
 30
0.0
 11
6.378736
 21
0.5625
 31
0.0
  0
LINE
  5
BC
330
75
100
AcDbEntity
 67
     1
  8
1
  6
Continuous
 62
     7
370
    18
100
AcDbLine
 10
0.249736
 20
0.25
 30
0.0
 11
0.566236
 21
0.25
 31
0.0
  0
LINE
  5
BD
330
75
100
AcDbEntity
 67
     1
  8
1
  6
Continuous
 62
     7
370
    18
100
AcDbLine
 10
0.566236
 20
0.5625
 30
0.0
 11
0.566236
 21
0.25
 31
0.0
  0
LINE
  5
BE
330
75
100
AcDbEntity
 67
     1
  8
1
  6
Continuous
 62
     7
370
    18
100
AcDbLine
 10
0.566236
 20
0.25
 30
0.0
 11
1.128736
 21
0.25
 31
0.0
  0
LINE
  5
BF
330
75
100
AcDbEntity
 67
     1
  8
1
  6
Continuous
 62
     7
370
    18
100
AcDbLine
 10
1.128736
 20
0.5625
 30
0.0
 11
1.128736
 21
0.25
 31
0.0
  0
LINE
  5
C0
330
75
100
AcDbEntity
 67
     1
  8
1
  6
Continuous
 62
     7
370
    18
100
AcDbLine
 10
1.128736
 20
0.25
 30
0.0
 11
1.503736
 21
0.25
 31
0.0
  0
LINE
  5
C1
330
75
100
AcDbEntity
 67
     1
  8
1
  6
Continuous
 62
     7
370
    18
100
AcDbLine
 10
1.503736
 20
0.5625
 30
0.0
 11
1.503736
 21
0.25
 31
0.0
  0
LINE
  5
C2
330
75
100
AcDbEntity
 67
     1
  8
1
  6
Continuous
 62
     7
370
    18
100
AcDbLine
 10
1.503736
 20
0.25
 30
0.0
 11
1.878736
 21
0.25
 31
0.0
  0
LINE
  5
C3
330
75
100
AcDbEntity
 67
     1
  8
1
  6
Continuous
 62
     7
370
    18
100
AcDbLine
 10
1.878736
 20
0.5625
 30
0.0
 11
1.878736
 21
0.25
 31
0.0
  0
LINE
  5
C4
330
75
100
AcDbEntity
 67
     1
  8
1
  6
Continuous
 62
     7
370
    18
100
AcDbLine
 10
1.878736
 20
0.25
 30
0.0
 11
2.253736
 21
0.25
 31
0.0
  0
LINE
  5
C5
330
75
100
AcDbEntity
 67
     1
  8
1
  6
Continuous
 62
     7
370
    18
100
AcDbLine
 10
2.253736
 20
0.5625
 30
0.0
 11
2.253736
 21
0.25
 31
0.0
  0
LINE
  5
C6
330
75
100
AcDbEntity
 67
     1
  8
1
  6
Continuous
 62
     7
370
    18
100
AcDbLine
 10
2.253736
 20
0.25
 30
0.0
 11
5.503736
 21
0.25
 31
0.0
  0
LINE
  5
C7
330
75
100
AcDbEntity
 67
     1
  8
1
  6
Continuous
 62
     7
370
    18
100
AcDbLine
 10
5.503736
 20
0.5625
 30
0.0
 11
5.503736
 21
0.25
 31
0.0
  0
LINE
  5
C8
330
75
100
AcDbEntity
 67
     1
  8
1
  6
Continuous
 62
     7
370
    18
100
AcDbLine
 10
5.503736
 20
0.25
 30
0.0
 11
6.378736
 21
0.25
 31
0.0
  0
LINE
  5
C9
330
75
100
AcDbEntity
 67
     1
  8
1
  6
Continuous
 62
     7
370
    18
100
AcDbLine
 10
6.378736
 20
0.5625
 30
0.0
 11
6.378736
 21
0.25
 31
0.0
  0
LINE
  5
CA
330
75
100
AcDbEntity
 67
     1
  8
1
  6
Continuous
 62
     7
370
    18
100
AcDbLine
 10
6.94423
 20
1.125509
 30
0.0
 11
6.94423
 21
0.973244
 31
0.0
  0
LINE
  5
CB
330
75
100
AcDbEntity
 67
     1
  8
1
  6
Continuous
 62
     7
370
    18
100
AcDbLine
 10
6.739539
 20
1.162759
 30
0.0
 11
6.94423
 21
1.125509
 31
0.0
  0
LINE
  5
CC
330
75
100
AcDbEntity
 67
     1
  8
1
  6
Continuous
 62
     7
370
    13
100
AcDbLine
 10
7.29336
 20
1.196899
 30
0.0
 11
7.29336
 21
1.098551
 31
0.0
  0
LINE
  5
CD
330
75
100
AcDbEntity
 67
     1
  8
1
  6
Continuous
 62
     7
370
    13
100
AcDbLine
 10
7.29336
 20
1.065768
 30
0.0
 11
7.29336
 21
1.032985
 31
0.0
  0
LINE
  5
CE
330
75
100
AcDbEntity
 67
     1
  8
1
  6
Continuous
 62
     7
370
    13
100
AcDbLine
 10
7.29336
 20
1.000202
 30
0.0
 11
7.29336
 21
0.901853
 31
0.0
  0
LINE
  5
CF
330
75
100
AcDbEntity
 67
     1
  8
1
  6
Continuous
 62
     7
370
    18
100
AcDbLine
 10
6.739539
 20
0.935994
 30
0.0
 11
6.739539
 21
1.162759
 31
0.0
  0
LINE
  5
D0
330
75
100
AcDbEntity
 67
     1
  8
1
  6
Continuous
 62
     7
370
    18
100
AcDbLine
 10
6.94423
 20
0.973244
 30
0.0
 11
6.739539
 21
0.935994
 31
0.0
  0
LINE
  5
D1
330
75
100
AcDbEntity
 67
     1
  8
1
  6
Continuous
 62
     7
370
    13
100
AcDbLine
 10
6.705399
 20
1.049376
 30
0.0
 11
6.82798
 21
1.049376
 31
0.0
  0
LINE
  5
D2
330
75
100
AcDbEntity
 67
     1
  8
1
  6
Continuous
 62
     7
370
    13
100
AcDbLine
 10
6.86884
 20
1.049376
 30
0.0
 11
6.9097
 21
1.049376
 31
0.0
  0
LINE
  5
D3
330
75
100
AcDbEntity
 67
     1
  8
1
  6
Continuous
 62
     7
370
    13
100
AcDbLine
 10
6.95056
 20
1.049376
 30
0.0
 11
7.195721
 21
1.049376
 31
0.0
  0
LINE
  5
D4
330
75
100
AcDbEntity
 67
     1
  8
1
  6
Continuous
 62
     7
370
    13
100
AcDbLine
 10
7.236581
 20
1.049376
 30
0.0
 11
7.277442
 21
1.049376
 31
0.0
  0
LINE
  5
D5
330
75
100
AcDbEntity
 67
     1
  8
1
  6
Continuous
 62
     7
370
    13
100
AcDbLine
 10
7.318302
 20
1.049376
 30
0.0
 11
7.440882
 21
1.049376
 31
0.0
  0
LINE
  5
D6
330
75
100
AcDbEntity
 67
     1
  8
1
  6
Continuous
 62
     7
370
    18
100
AcDbLine
 10
6.378736
 20
2.84375
 30
0.0
 11
6.378736
 21
2.78125
 31
0.0
  0
LINE
  5
D7
330
75
100
AcDbEntity
 67
     1
  8
1
  6
Continuous
 62
     7
370
    18
100
AcDbLine
 10
6.378736
 20
2.78125
 30
0.0
 11
6.378736
 21
2.40625
 31
0.0
  0
LINE
  5
D8
330
75
100
AcDbEntity
 67
     1
  8
1
  6
Continuous
 62
     7
370
    18
100
AcDbLine
 10
6.378736
 20
2.40625
 30
0.0
 11
6.378736
 21
2.34375
 31
0.0
  0
LINE
  5
D9
330
75
100
AcDbEntity
 67
     1
  8
1
  6
Continuous
 62
     7
370
    18
100
AcDbLine
 10
6.378736
 20
2.34375
 30
0.0
 11
6.378736
 21
2.09375
 31
0.0
  0
LINE
  5
DA
330
75
100
AcDbEntity
 67
     1
  8
1
  6
Continuous
 62
     7
370
    18
100
AcDbLine
 10
6.378736
 20
2.09375
 30
0.0
 11
6.378736
 21
1.84375
 31
0.0
  0
LINE
  5
DB
330
75
100
AcDbEntity
 67
     1
  8
1
  6
Continuous
 62
     7
370
    18
100
AcDbLine
 10
6.378736
 20
1.84375
 30
0.0
 11
6.378736
 21
1.71875
 31
0.0
  0
LINE
  5
DC
330
75
100
AcDbEntity
 67
     1
  8
1
  6
Continuous
 62
     7
370
    18
100
AcDbLine
 10
6.378736
 20
1.71875
 30
0.0
 11
6.378736
 21
1.65625
 31
0.0
  0
LINE
  5
DD
330
75
100
AcDbEntity
 67
     1
  8
1
  6
Continuous
 62
     7
370
    18
100
AcDbLine
 10
6.378736
 20
1.65625
 30
0.0
 11
6.378736
 21
1.46875
 31
0.0
  0
LINE
  5
DE
330
75
100
AcDbEntity
 67
     1
  8
1
  6
Continuous
 62
     7
370
    18
100
AcDbLine
 10
6.378736
 20
1.46875
 30
0.0
 11
6.378736
 21
1.40625
 31
0.0
  0
LINE
  5
DF
330
75
100
AcDbEntity
 67
     1
  8
1
  6
Continuous
 62
     7
370
    18
100
AcDbLine
 10
6.378736
 20
1.40625
 30
0.0
 11
6.378736
 21
1.21875
 31
0.0
  0
LINE
  5
E0
330
75
100
AcDbEntity
 67
     1
  8
1
  6
Continuous
 62
     7
370
    18
100
AcDbLine
 10
6.378736
 20
1.21875
 30
0.0
 11
6.378736
 21
1.15625
 31
0.0
  0
LINE
  5
E1
330
75
100
AcDbEntity
 67
     1
  8
1
  6
Continuous
 62
     7
370
    18
100
AcDbLine
 10
6.378736
 20
1.15625
 30
0.0
 11
6.378736
 21
1.03125
 31
0.0
  0
LINE
  5
E2
330
75
100
AcDbEntity
 67
     1
  8
1
  6
Continuous
 62
     7
370
    18
100
AcDbLine
 10
6.378736
 20
1.03125
 30
0.0
 11
6.378736
 21
1.0
 31
0.0
  0
LINE
  5
E3
330
75
100
AcDbEntity
 67
     1
  8
1
  6
Continuous
 62
     7
370
    18
100
AcDbLine
 10
6.378736
 20
1.0
 30
0.0
 11
6.378736
 21
0.875
 31
0.0
  0
LINE
  5
E4
330
75
100
AcDbEntity
 67
     1
  8
1
  6
Continuous
 62
     7
370
    18
100
AcDbLine
 10
6.378736
 20
0.875
 30
0.0
 11
6.378736
 21
0.8125
 31
0.0
  0
LINE
  5
E5
330
75
100
AcDbEntity
 67
     1
  8
1
  6
Continuous
 62
     7
370
    18
100
AcDbLine
 10
6.378736
 20
0.8125
 30
0.0
 11
6.378736
 21
0.5625
 31
0.0
  0
LINE
  5
E6
330
75
100
AcDbEntity
 67
     1
  8
1
  6
Continuous
 62
     7
370
    18
100
AcDbLine
 10
6.378736
 20
0.5625
 30
0.0
 11
6.378736
 21
0.5
 31
0.0
  0
LINE
  5
E7
330
75
100
AcDbEntity
 67
     1
  8
1
  6
Continuous
 62
     7
370
    18
100
AcDbLine
 10
6.378736
 20
0.5
 30
0.0
 11
6.378736
 21
0.25
 31
0.0
  0
LINE
  5
E8
330
75
100
AcDbEntity
 67
     1
  8
1
  6
Continuous
 62
     7
370
    18
100
AcDbLine
 10
6.378736
 20
2.84375
 30
0.0
 11
6.816236
 21
2.84375
 31
0.0
  0
LINE
  5
E9
330
75
100
AcDbEntity
 67
     1
  8
1
  6
Continuous
 62
     7
370
    18
100
AcDbLine
 10
6.816236
 20
2.84375
 30
0.0
 11
7.628736
 21
2.84375
 31
0.0
  0
LINE
  5
EA
330
75
100
AcDbEntity
 67
     1
  8
1
  6
Continuous
 62
     7
370
    18
100
AcDbLine
 10
7.628736
 20
2.84375
 30
0.0
 11
8.066236
 21
2.84375
 31
0.0
  0
LINE
  5
EB
330
75
100
AcDbEntity
 67
     1
  8
1
  6
Continuous
 62
     7
370
    18
100
AcDbLine
 10
8.066236
 20
2.84375
 30
0.0
 11
8.878736
 21
2.84375
 31
0.0
  0
LINE
  5
EC
330
75
100
AcDbEntity
 67
     1
  8
1
  6
Continuous
 62
     7
370
    18
100
AcDbLine
 10
8.878736
 20
2.84375
 30
0.0
 11
10.378736
 21
2.84375
 31
0.0
  0
LINE
  5
ED
330
75
100
AcDbEntity
 67
     1
  8
1
  6
Continuous
 62
     7
370
    18
100
AcDbLine
 10
10.378736
 20
2.84375
 30
0.0
 11
10.753736
 21
2.84375
 31
0.0
  0
LINE
  5
EE
330
75
100
AcDbEntity
 67
     1
  8
1
  6
Continuous
 62
     7
370
    18
100
AcDbLine
 10
10.753736
 20
2.84375
 30
0.0
 11
10.753736
 21
2.78125
 31
0.0
  0
LINE
  5
EF
330
75
100
AcDbEntity
 67
     1
  8
1
  6
Continuous
 62
     7
370
    18
100
AcDbLine
 10
6.378736
 20
2.40625
 30
0.0
 11
6.816236
 21
2.40625
 31
0.0
  0
LINE
  5
F0
330
75
100
AcDbEntity
 67
     1
  8
1
  6
Continuous
 62
     7
370
    18
100
AcDbLine
 10
6.816236
 20
2.40625
 30
0.0
 11
7.628736
 21
2.40625
 31
0.0
  0
LINE
  5
F1
330
75
100
AcDbEntity
 67
     1
  8
1
  6
Continuous
 62
     7
370
    18
100
AcDbLine
 10
7.628736
 20
2.40625
 30
0.0
 11
8.066236
 21
2.40625
 31
0.0
  0
LINE
  5
F2
330
75
100
AcDbEntity
 67
     1
  8
1
  6
Continuous
 62
     7
370
    18
100
AcDbLine
 10
8.066236
 20
2.40625
 30
0.0
 11
8.878736
 21
2.40625
 31
0.0
  0
LINE
  5
F3
330
75
100
AcDbEntity
 67
     1
  8
1
  6
Continuous
 62
     7
370
    18
100
AcDbLine
 10
8.878736
 20
2.40625
 30
0.0
 11
10.378736
 21
2.40625
 31
0.0
  0
LINE
  5
F4
330
75
100
AcDbEntity
 67
     1
  8
1
  6
Continuous
 62
     7
370
    18
100
AcDbLine
 10
10.378736
 20
2.40625
 30
0.0
 11
10.753736
 21
2.40625
 31
0.0
  0
LINE
  5
F5
330
75
100
AcDbEntity
 67
     1
  8
1
  6
Continuous
 62
     7
370
    18
100
AcDbLine
 10
10.753736
 20
2.78125
 30
0.0
 11
10.753736
 21
2.40625
 31
0.0
  0
LINE
  5
F6
330
75
100
AcDbEntity
 67
     1
  8
1
  6
Continuous
 62
     7
370
    18
100
AcDbLine
 10
10.753736
 20
2.40625
 30
0.0
 11
10.753736
 21
2.34375
 31
0.0
  0
LINE
  5
F7
330
75
100
AcDbEntity
 67
     1
  8
1
  6
Continuous
 62
     7
370
    18
100
AcDbLine
 10
10.753736
 20
2.34375
 30
0.0
 11
10.753736
 21
2.09375
 31
0.0
  0
LINE
  5
F8
330
75
100
AcDbEntity
 67
     1
  8
1
  6
Continuous
 62
     7
370
    18
100
AcDbLine
 10
10.753736
 20
2.09375
 30
0.0
 11
10.753736
 21
1.84375
 31
0.0
  0
LINE
  5
F9
330
75
100
AcDbEntity
 67
     1
  8
1
  6
Continuous
 62
     7
370
    18
100
AcDbLine
 10
6.378736
 20
1.71875
 30
0.0
 11
6.816236
 21
1.71875
 31
0.0
  0
LINE
  5
FA
330
75
100
AcDbEntity
 67
     1
  8
1
  6
Continuous
 62
     7
370
    18
100
AcDbLine
 10
6.816236
 20
1.71875
 30
0.0
 11
7.628736
 21
1.71875
 31
0.0
  0
LINE
  5
FB
330
75
100
AcDbEntity
 67
     1
  8
1
  6
Continuous
 62
     7
370
    18
100
AcDbLine
 10
7.628736
 20
1.71875
 30
0.0
 11
8.066236
 21
1.71875
 31
0.0
  0
LINE
  5
FC
330
75
100
AcDbEntity
 67
     1
  8
1
  6
Continuous
 62
     7
370
    18
100
AcDbLine
 10
8.066236
 20
1.71875
 30
0.0
 11
8.878736
 21
1.71875
 31
0.0
  0
LINE
  5
FD
330
75
100
AcDbEntity
 67
     1
  8
1
  6
Continuous
 62
     7
370
    18
100
AcDbLine
 10
8.878736
 20
1.71875
 30
0.0
 11
10.378736
 21
1.71875
 31
0.0
  0
LINE
  5
FE
330
75
100
AcDbEntity
 67
     1
  8
1
  6
Continuous
 62
     7
370
    18
100
AcDbLine
 10
10.378736
 20
1.71875
 30
0.0
 11
10.753736
 21
1.71875
 31
0.0
  0
LINE
  5
FF
330
75
100
AcDbEntity
 67
     1
  8
1
  6
Continuous
 62
     7
370
    18
100
AcDbLine
 10
10.753736
 20
1.84375
 30
0.0
 11
10.753736
 21
1.71875
 31
0.0
  0
LINE
  5
100
330
75
100
AcDbEntity
 67
     1
  8
1
  6
Continuous
 62
     7
370
    18
100
AcDbLine
 10
8.878736
 20
1.71875
 30
0.0
 11
8.878736
 21
1.65625
 31
0.0
  0
LINE
  5
101
330
75
100
AcDbEntity
 67
     1
  8
1
  6
Continuous
 62
     7
370
    18
100
AcDbLine
 10
10.753736
 20
1.71875
 30
0.0
 11
10.753736
 21
1.65625
 31
0.0
  0
LINE
  5
102
330
75
100
AcDbEntity
 67
     1
  8
1
  6
Continuous
 62
     7
370
    18
100
AcDbLine
 10
6.378736
 20
1.46875
 30
0.0
 11
6.816236
 21
1.46875
 31
0.0
  0
LINE
  5
103
330
75
100
AcDbEntity
 67
     1
  8
1
  6
Continuous
 62
     7
370
    18
100
AcDbLine
 10
6.816236
 20
1.46875
 30
0.0
 11
7.628736
 21
1.46875
 31
0.0
  0
LINE
  5
104
330
75
100
AcDbEntity
 67
     1
  8
1
  6
Continuous
 62
     7
370
    18
100
AcDbLine
 10
7.628736
 20
1.46875
 30
0.0
 11
8.066236
 21
1.46875
 31
0.0
  0
LINE
  5
105
330
75
100
AcDbEntity
 67
     1
  8
1
  6
Continuous
 62
     7
370
    18
100
AcDbLine
 10
8.066236
 20
1.46875
 30
0.0
 11
8.878736
 21
1.46875
 31
0.0
  0
LINE
  5
106
330
75
100
AcDbEntity
 67
     1
  8
1
  6
Continuous
 62
     7
370
    18
100
AcDbLine
 10
8.878736
 20
1.65625
 30
0.0
 11
8.878736
 21
1.46875
 31
0.0
  0
LINE
  5
107
330
75
100
AcDbEntity
 67
     1
  8
1
  6
Continuous
 62
     7
370
    18
100
AcDbLine
 10
10.753736
 20
1.65625
 30
0.0
 11
10.753736
 21
1.46875
 31
0.0
  0
LINE
  5
108
330
75
100
AcDbEntity
 67
     1
  8
1
  6
Continuous
 62
     7
370
    18
100
AcDbLine
 10
8.878736
 20
1.46875
 30
0.0
 11
8.878736
 21
1.40625
 31
0.0
  0
LINE
  5
109
330
75
100
AcDbEntity
 67
     1
  8
1
  6
Continuous
 62
     7
370
    18
100
AcDbLine
 10
10.753736
 20
1.46875
 30
0.0
 11
10.753736
 21
1.40625
 31
0.0
  0
LINE
  5
10A
330
75
100
AcDbEntity
 67
     1
  8
1
  6
Continuous
 62
     7
370
    18
100
AcDbLine
 10
6.378736
 20
1.21875
 30
0.0
 11
6.816236
 21
1.21875
 31
0.0
  0
LINE
  5
10B
330
75
100
AcDbEntity
 67
     1
  8
1
  6
Continuous
 62
     7
370
    18
100
AcDbLine
 10
6.816236
 20
1.21875
 30
0.0
 11
7.628736
 21
1.21875
 31
0.0
  0
LINE
  5
10C
330
75
100
AcDbEntity
 67
     1
  8
1
  6
Continuous
 62
     7
370
    18
100
AcDbLine
 10
7.628736
 20
1.21875
 30
0.0
 11
8.066236
 21
1.21875
 31
0.0
  0
LINE
  5
10D
330
75
100
AcDbEntity
 67
     1
  8
1
  6
Continuous
 62
     7
370
    18
100
AcDbLine
 10
8.066236
 20
1.21875
 30
0.0
 11
8.878736
 21
1.21875
 31
0.0
  0
LINE
  5
10E
330
75
100
AcDbEntity
 67
     1
  8
1
  6
Continuous
 62
     7
370
    18
100
AcDbLine
 10
8.878736
 20
1.40625
 30
0.0
 11
8.878736
 21
1.21875
 31
0.0
  0
LINE
  5
10F
330
75
100
AcDbEntity
 67
     1
  8
1
  6
Continuous
 62
     7
370
    18
100
AcDbLine
 10
10.753736
 20
1.40625
 30
0.0
 11
10.753736
 21
1.21875
 31
0.0
  0
LINE
  5
110
330
75
100
AcDbEntity
 67
     1
  8
1
  6
Continuous
 62
     7
370
    18
100
AcDbLine
 10
8.878736
 20
1.21875
 30
0.0
 11
8.878736
 21
1.15625
 31
0.0
  0
LINE
  5
111
330
75
100
AcDbEntity
 67
     1
  8
1
  6
Continuous
 62
     7
370
    18
100
AcDbLine
 10
10.753736
 20
1.21875
 30
0.0
 11
10.753736
 21
1.15625
 31
0.0
  0
LINE
  5
112
330
75
100
AcDbEntity
 67
     1
  8
1
  6
Continuous
 62
     7
370
    18
100
AcDbLine
 10
8.878736
 20
1.15625
 30
0.0
 11
8.878736
 21
1.03125
 31
0.0
  0
LINE
  5
113
330
75
100
AcDbEntity
 67
     1
  8
1
  6
Continuous
 62
     7
370
    18
100
AcDbLine
 10
10.753736
 20
1.15625
 30
0.0
 11
10.753736
 21
1.03125
 31
0.0
  0
LINE
  5
114
330
75
100
AcDbEntity
 67
     1
  8
1
  6
Continuous
 62
     7
370
    18
100
AcDbLine
 10
8.878736
 20
1.03125
 30
0.0
 11
8.878736
 21
1.0
 31
0.0
  0
LINE
  5
115
330
75
100
AcDbEntity
 67
     1
  8
1
  6
Continuous
 62
     7
370
    18
100
AcDbLine
 10
10.753736
 20
1.03125
 30
0.0
 11
10.753736
 21
1.0
 31
0.0
  0
LINE
  5
116
330
75
100
AcDbEntity
 67
     1
  8
1
  6
Continuous
 62
     7
370
    18
100
AcDbLine
 10
6.378736
 20
0.875
 30
0.0
 11
6.816236
 21
0.875
 31
0.0
  0
LINE
  5
117
330
75
100
AcDbEntity
 67
     1
  8
1
  6
Continuous
 62
     7
370
    18
100
AcDbLine
 10
6.816236
 20
0.875
 30
0.0
 11
7.628736
 21
0.875
 31
0.0
  0
LINE
  5
118
330
75
100
AcDbEntity
 67
     1
  8
1
  6
Continuous
 62
     7
370
    18
100
AcDbLine
 10
7.628736
 20
0.875
 30
0.0
 11
8.066236
 21
0.875
 31
0.0
  0
LINE
  5
119
330
75
100
AcDbEntity
 67
     1
  8
1
  6
Continuous
 62
     7
370
    18
100
AcDbLine
 10
8.066236
 20
0.875
 30
0.0
 11
8.878736
 21
0.875
 31
0.0
  0
LINE
  5
11A
330
75
100
AcDbEntity
 67
     1
  8
1
  6
Continuous
 62
     7
370
    18
100
AcDbLine
 10
8.878736
 20
1.0
 30
0.0
 11
8.878736
 21
0.875
 31
0.0
  0
LINE
  5
11B
330
75
100
AcDbEntity
 67
     1
  8
1
  6
Continuous
 62
     7
370
    18
100
AcDbLine
 10
8.878736
 20
0.875
 30
0.0
 11
10.378736
 21
0.875
 31
0.0
  0
LINE
  5
11C
330
75
100
AcDbEntity
 67
     1
  8
1
  6
Continuous
 62
     7
370
    18
100
AcDbLine
 10
10.378736
 20
0.875
 30
0.0
 11
10.753736
 21
0.875
 31
0.0
  0
LINE
  5
11D
330
75
100
AcDbEntity
 67
     1
  8
1
  6
Continuous
 62
     7
370
    18
100
AcDbLine
 10
10.753736
 20
1.0
 30
0.0
 11
10.753736
 21
0.875
 31
0.0
  0
LINE
  5
11E
330
75
100
AcDbEntity
 67
     1
  8
1
  6
Continuous
 62
     7
370
    18
100
AcDbLine
 10
8.878736
 20
0.875
 30
0.0
 11
8.878736
 21
0.8125
 31
0.0
  0
LINE
  5
11F
330
75
100
AcDbEntity
 67
     1
  8
1
  6
Continuous
 62
     7
370
    18
100
AcDbLine
 10
10.753736
 20
0.875
 30
0.0
 11
10.753736
 21
0.8125
 31
0.0
  0
LINE
  5
120
330
75
100
AcDbEntity
 67
     1
  8
1
  6
Continuous
 62
     7
370
    18
100
AcDbLine
 10
6.378736
 20
0.5625
 30
0.0
 11
6.816236
 21
0.5625
 31
0.0
  0
LINE
  5
121
330
75
100
AcDbEntity
 67
     1
  8
1
  6
Continuous
 62
     7
370
    18
100
AcDbLine
 10
6.816236
 20
0.5625
 30
0.0
 11
7.628736
 21
0.5625
 31
0.0
  0
LINE
  5
122
330
75
100
AcDbEntity
 67
     1
  8
1
  6
Continuous
 62
     7
370
    18
100
AcDbLine
 10
7.628736
 20
0.5625
 30
0.0
 11
8.066236
 21
0.5625
 31
0.0
  0
LINE
  5
123
330
75
100
AcDbEntity
 67
     1
  8
1
  6
Continuous
 62
     7
370
    18
100
AcDbLine
 10
8.066236
 20
0.5625
 30
0.0
 11
8.878736
 21
0.5625
 31
0.0
  0
LINE
  5
124
330
75
100
AcDbEntity
 67
     1
  8
1
  6
Continuous
 62
     7
370
    18
100
AcDbLine
 10
8.878736
 20
0.8125
 30
0.0
 11
8.878736
 21
0.5625
 31
0.0
  0
LINE
  5
125
330
75
100
AcDbEntity
 67
     1
  8
1
  6
Continuous
 62
     7
370
    18
100
AcDbLine
 10
8.878736
 20
0.5625
 30
0.0
 11
10.378736
 21
0.5625
 31
0.0
  0
LINE
  5
126
330
75
100
AcDbEntity
 67
     1
  8
1
  6
Continuous
 62
     7
370
    18
100
AcDbLine
 10
10.378736
 20
0.5625
 30
0.0
 11
10.753736
 21
0.5625
 31
0.0
  0
LINE
  5
127
330
75
100
AcDbEntity
 67
     1
  8
1
  6
Continuous
 62
     7
370
    18
100
AcDbLine
 10
10.753736
 20
0.8125
 30
0.0
 11
10.753736
 21
0.5625
 31
0.0
  0
LINE
  5
128
330
75
100
AcDbEntity
 67
     1
  8
1
  6
Continuous
 62
     7
370
    18
100
AcDbLine
 10
6.816236
 20
0.5625
 30
0.0
 11
6.816236
 21
0.5
 31
0.0
  0
LINE
  5
129
330
75
100
AcDbEntity
 67
     1
  8
1
  6
Continuous
 62
     7
370
    18
100
AcDbLine
 10
7.628736
 20
0.5625
 30
0.0
 11
7.628736
 21
0.5
 31
0.0
  0
LINE
  5
12A
330
75
100
AcDbEntity
 67
     1
  8
1
  6
Continuous
 62
     7
370
    18
100
AcDbLine
 10
8.066236
 20
0.5625
 30
0.0
 11
8.066236
 21
0.5
 31
0.0
  0
LINE
  5
12B
330
75
100
AcDbEntity
 67
     1
  8
1
  6
Continuous
 62
     7
370
    18
100
AcDbLine
 10
8.878736
 20
0.5625
 30
0.0
 11
8.878736
 21
0.5
 31
0.0
  0
LINE
  5
12C
330
75
100
AcDbEntity
 67
     1
  8
1
  6
Continuous
 62
     7
370
    18
100
AcDbLine
 10
10.378736
 20
0.5625
 30
0.0
 11
10.378736
 21
0.5
 31
0.0
  0
LINE
  5
12D
330
75
100
AcDbEntity
 67
     1
  8
1
  6
Continuous
 62
     7
370
    18
100
AcDbLine
 10
10.753736
 20
0.5625
 30
0.0
 11
10.753736
 21
0.5
 31
0.0
  0
LINE
  5
12E
330
75
100
AcDbEntity
 67
     1
  8
1
  6
Continuous
 62
     7
370
    18
100
AcDbLine
 10
6.378736
 20
0.25
 30
0.0
 11
6.816236
 21
0.25
 31
0.0
  0
LINE
  5
12F
330
75
100
AcDbEntity
 67
     1
  8
1
  6
Continuous
 62
     7
370
    18
100
AcDbLine
 10
6.816236
 20
0.5
 30
0.0
 11
6.816236
 21
0.25
 31
0.0
  0
LINE
  5
130
330
75
100
AcDbEntity
 67
     1
  8
1
  6
Continuous
 62
     7
370
    18
100
AcDbLine
 10
6.816236
 20
0.25
 30
0.0
 11
7.628736
 21
0.25
 31
0.0
  0
LINE
  5
131
330
75
100
AcDbEntity
 67
     1
  8
1
  6
Continuous
 62
     7
370
    18
100
AcDbLine
 10
7.628736
 20
0.5
 30
0.0
 11
7.628736
 21
0.25
 31
0.0
  0
LINE
  5
132
330
75
100
AcDbEntity
 67
     1
  8
1
  6
Continuous
 62
     7
370
    18
100
AcDbLine
 10
7.628736
 20
0.25
 30
0.0
 11
8.066236
 21
0.25
 31
0.0
  0
LINE
  5
133
330
75
100
AcDbEntity
 67
     1
  8
1
  6
Continuous
 62
     7
370
    18
100
AcDbLine
 10
8.066236
 20
0.5
 30
0.0
 11
8.066236
 21
0.25
 31
0.0
  0
LINE
  5
134
330
75
100
AcDbEntity
 67
     1
  8
1
  6
Continuous
 62
     7
370
    18
100
AcDbLine
 10
8.066236
 20
0.25
 30
0.0
 11
8.878736
 21
0.25
 31
0.0
  0
LINE
  5
135
330
75
100
AcDbEntity
 67
     1
  8
1
  6
Continuous
 62
     7
370
    18
100
AcDbLine
 10
8.878736
 20
0.5
 30
0.0
 11
8.878736
 21
0.25
 31
0.0
  0
LINE
  5
136
330
75
100
AcDbEntity
 67
     1
  8
1
  6
Continuous
 62
     7
370
    18
100
AcDbLine
 10
8.878736
 20
0.25
 30
0.0
 11
10.378736
 21
0.25
 31
0.0
  0
LINE
  5
137
330
75
100
AcDbEntity
 67
     1
  8
1
  6
Continuous
 62
     7
370
    18
100
AcDbLine
 10
10.378736
 20
0.5
 30
0.0
 11
10.378736
 21
0.25
 31
0.0
  0
LINE
  5
138
330
75
100
AcDbEntity
 67
     1
  8
1
  6
Continuous
 62
     7
370
    18
100
AcDbLine
 10
10.378736
 20
0.25
 30
0.0
 11
10.753736
 21
0.25
 31
0.0
  0
LINE
  5
139
330
75
100
AcDbEntity
 67
     1
  8
1
  6
Continuous
 62
     7
370
    18
100
AcDbLine
 10
10.753736
 20
0.5
 30
0.0
 11
10.753736
 21
0.25
 31
0.0
  0
LINE
  5
13A
330
75
100
AcDbEntity
 67
     1
  8
1
  6
Continuous
 62
     7
370
    18
100
AcDbLine
 10
0.808654
 20
4.942532
 30
0.0
 11
0.808654
 21
4.762532
 31
0.0
  0
LINE
  5
13B
330
75
100
AcDbEntity
 67
     1
  8
1
  6
Continuous
 62
     7
370
    18
100
AcDbLine
 10
0.808654
 20
4.762532
 30
0.0
 11
0.808654
 21
4.582532
 31
0.0
  0
LINE
  5
13C
330
75
100
AcDbEntity
 67
     1
  8
1
  6
Continuous
 62
     7
370
    18
100
AcDbLine
 10
0.808654
 20
4.582532
 30
0.0
 11
0.808654
 21
4.402532
 31
0.0
  0
LINE
  5
13D
330
75
100
AcDbEntity
 67
     1
  8
1
  6
Continuous
 62
     7
370
    18
100
AcDbLine
 10
0.808654
 20
4.402532
 30
0.0
 11
0.808654
 21
4.222532
 31
0.0
  0
LINE
  5
13E
330
75
100
AcDbEntity
 67
     1
  8
1
  6
Continuous
 62
     7
370
    18
100
AcDbLine
 10
0.808654
 20
4.222532
 30
0.0
 11
0.808654
 21
3.772532
 31
0.0
  0
LINE
  5
13F
330
75
100
AcDbEntity
 67
     1
  8
1
  6
Continuous
 62
     7
370
    18
100
AcDbLine
 10
0.808654
 20
4.942532
 30
0.0
 11
1.183654
 21
4.942532
 31
0.0
  0
LINE
  5
140
330
75
100
AcDbEntity
 67
     1
  8
1
  6
Continuous
 62
     7
370
    18
100
AcDbLine
 10
1.183654
 20
4.942532
 30
0.0
 11
3.121154
 21
4.942532
 31
0.0
  0
LINE
  5
141
330
75
100
AcDbEntity
 67
     1
  8
1
  6
Continuous
 62
     7
370
    18
100
AcDbLine
 10
3.121154
 20
4.942532
 30
0.0
 11
9.683654
 21
4.942532
 31
0.0
  0
LINE
  5
142
330
75
100
AcDbEntity
 67
     1
  8
1
  6
Continuous
 62
     7
370
    18
100
AcDbLine
 10
0.808654
 20
4.762532
 30
0.0
 11
1.183654
 21
4.762532
 31
0.0
  0
LINE
  5
143
330
75
100
AcDbEntity
 67
     1
  8
1
  6
Continuous
 62
     7
370
    18
100
AcDbLine
 10
1.183654
 20
4.762532
 30
0.0
 11
3.121154
 21
4.762532
 31
0.0
  0
LINE
  5
144
330
75
100
AcDbEntity
 67
     1
  8
1
  6
Continuous
 62
     7
370
    18
100
AcDbLine
 10
3.121154
 20
4.762532
 30
0.0
 11
9.683654
 21
4.762532
 31
0.0
  0
LINE
  5
145
330
75
100
AcDbEntity
 67
     1
  8
1
  6
Continuous
 62
     7
370
    18
100
AcDbLine
 10
9.683654
 20
4.942532
 30
0.0
 11
9.683654
 21
4.762532
 31
0.0
  0
LINE
  5
146
330
75
100
AcDbEntity
 67
     1
  8
1
  6
Continuous
 62
     7
370
    18
100
AcDbLine
 10
0.808654
 20
4.582532
 30
0.0
 11
1.183654
 21
4.582532
 31
0.0
  0
LINE
  5
147
330
75
100
AcDbEntity
 67
     1
  8
1
  6
Continuous
 62
     7
370
    18
100
AcDbLine
 10
1.183654
 20
4.762532
 30
0.0
 11
1.183654
 21
4.582532
 31
0.0
  0
LINE
  5
148
330
75
100
AcDbEntity
 67
     1
  8
1
  6
Continuous
 62
     7
370
    18
100
AcDbLine
 10
1.183654
 20
4.582532
 30
0.0
 11
3.121154
 21
4.582532
 31
0.0
  0
LINE
  5
149
330
75
100
AcDbEntity
 67
     1
  8
1
  6
Continuous
 62
     7
370
    18
100
AcDbLine
 10
3.121154
 20
4.762532
 30
0.0
 11
3.121154
 21
4.582532
 31
0.0
  0
LINE
  5
14A
330
75
100
AcDbEntity
 67
     1
  8
1
  6
Continuous
 62
     7
370
    18
100
AcDbLine
 10
3.121154
 20
4.582532
 30
0.0
 11
9.683654
 21
4.582532
 31
0.0
  0
LINE
  5
14B
330
75
100
AcDbEntity
 67
     1
  8
1
  6
Continuous
 62
     7
370
    18
100
AcDbLine
 10
9.683654
 20
4.762532
 30
0.0
 11
9.683654
 21
4.582532
 31
0.0
  0
LINE
  5
14C
330
75
100
AcDbEntity
 67
     1
  8
1
  6
Continuous
 62
     7
370
    18
100
AcDbLine
 10
0.808654
 20
4.402532
 30
0.0
 11
1.183654
 21
4.402532
 31
0.0
  0
LINE
  5
14D
330
75
100
AcDbEntity
 67
     1
  8
1
  6
Continuous
 62
     7
370
    18
100
AcDbLine
 10
1.183654
 20
4.582532
 30
0.0
 11
1.183654
 21
4.402532
 31
0.0
  0
LINE
  5
14E
330
75
100
AcDbEntity
 67
     1
  8
1
  6
Continuous
 62
     7
370
    18
100
AcDbLine
 10
1.183654
 20
4.402532
 30
0.0
 11
3.121154
 21
4.402532
 31
0.0
  0
LINE
  5
14F
330
75
100
AcDbEntity
 67
     1
  8
1
  6
Continuous
 62
     7
370
    18
100
AcDbLine
 10
3.121154
 20
4.582532
 30
0.0
 11
3.121154
 21
4.402532
 31
0.0
  0
LINE
  5
150
330
75
100
AcDbEntity
 67
     1
  8
1
  6
Continuous
 62
     7
370
    18
100
AcDbLine
 10
3.121154
 20
4.402532
 30
0.0
 11
9.683654
 21
4.402532
 31
0.0
  0
LINE
  5
151
330
75
100
AcDbEntity
 67
     1
  8
1
  6
Continuous
 62
     7
370
    18
100
AcDbLine
 10
9.683654
 20
4.582532
 30
0.0
 11
9.683654
 21
4.402532
 31
0.0
  0
LINE
  5
152
330
75
100
AcDbEntity
 67
     1
  8
1
  6
Continuous
 62
     7
370
    18
100
AcDbLine
 10
0.808654
 20
4.222532
 30
0.0
 11
1.183654
 21
4.222532
 31
0.0
  0
LINE
  5
153
330
75
100
AcDbEntity
 67
     1
  8
1
  6
Continuous
 62
     7
370
    18
100
AcDbLine
 10
1.183654
 20
4.402532
 30
0.0
 11
1.183654
 21
4.222532
 31
0.0
  0
LINE
  5
154
330
75
100
AcDbEntity
 67
     1
  8
1
  6
Continuous
 62
     7
370
    18
100
AcDbLine
 10
1.183654
 20
4.222532
 30
0.0
 11
3.121154
 21
4.222532
 31
0.0
  0
LINE
  5
155
330
75
100
AcDbEntity
 67
     1
  8
1
  6
Continuous
 62
     7
370
    18
100
AcDbLine
 10
3.121154
 20
4.402532
 30
0.0
 11
3.121154
 21
4.222532
 31
0.0
  0
LINE
  5
156
330
75
100
AcDbEntity
 67
     1
  8
1
  6
Continuous
 62
     7
370
    18
100
AcDbLine
 10
3.121154
 20
4.222532
 30
0.0
 11
9.683654
 21
4.222532
 31
0.0
  0
LINE
  5
157
330
75
100
AcDbEntity
 67
     1
  8
1
  6
Continuous
 62
     7
370
    18
100
AcDbLine
 10
9.683654
 20
4.402532
 30
0.0
 11
9.683654
 21
4.222532
 31
0.0
  0
LINE
  5
158
330
75
100
AcDbEntity
 67
     1
  8
1
  6
Continuous
 62
     7
370
    18
100
AcDbLine
 10
0.808654
 20
3.772532
 30
0.0
 11
1.183654
 21
3.772532
 31
0.0
  0
LINE
  5
159
330
75
100
AcDbEntity
 67
     1
  8
1
  6
Continuous
 62
     7
370
    18
100
AcDbLine
 10
1.183654
 20
4.222532
 30
0.0
 11
1.183654
 21
3.772532
 31
0.0
  0
LINE
  5
15A
330
75
100
AcDbEntity
 67
     1
  8
1
  6
Continuous
 62
     7
370
    18
100
AcDbLine
 10
1.183654
 20
3.772532
 30
0.0
 11
3.121154
 21
3.772532
 31
0.0
  0
LINE
  5
15B
330
75
100
AcDbEntity
 67
     1
  8
1
  6
Continuous
 62
     7
370
    18
100
AcDbLine
 10
3.121154
 20
4.222532
 30
0.0
 11
3.121154
 21
3.772532
 31
0.0
  0
LINE
  5
15C
330
75
100
AcDbEntity
 67
     1
  8
1
  6
Continuous
 62
     7
370
    18
100
AcDbLine
 10
3.121154
 20
3.772532
 30
0.0
 11
9.683654
 21
3.772532
 31
0.0
  0
LINE
  5
15D
330
75
100
AcDbEntity
 67
     1
  8
1
  6
Continuous
 62
     7
370
    18
100
AcDbLine
 10
9.683654
 20
4.222532
 30
0.0
 11
9.683654
 21
3.772532
 31
0.0
  0
LINE
  5
15E
330
75
100
AcDbEntity
 67
     1
  8
1
  6
Continuous
 62
     7
370
    13
100
AcDbLine
 10
9.674894
 20
1.361734
 30
0.0
 11
9.641
 21
1.45318
 31
0.0
  0
LINE
  5
15F
330
75
100
AcDbEntity
 67
     1
  8
1
  6
Continuous
 62
     7
370
    13
100
AcDbLine
 10
10.308241
 20
1.151632
 30
0.0
 11
10.408241
 21
1.151632
 31
0.0
  0
LINE
  5
160
330
75
100
AcDbEntity
 67
     1
  8
1
  6
Continuous
 62
     7
370
    13
100
AcDbLine
 10
10.105246
 20
1.151632
 30
0.0
 11
10.2409
 21
1.151632
 31
0.0
  0
LINE
  5
161
330
75
100
AcDbEntity
 67
     1
  8
1
  6
Continuous
 62
     7
370
    13
100
AcDbLine
 10
9.22674
 20
1.151632
 30
0.0
 11
9.33147
 21
1.151632
 31
0.0
  0
LINE
  5
162
330
75
100
AcDbEntity
 67
     1
  8
1
  6
Continuous
 62
     7
370
    13
100
AcDbLine
 10
9.172404
 20
1.347734
 30
0.0
 11
9.172769
 21
1.347734
 31
0.0
  0
LINE
  5
163
330
75
100
AcDbEntity
 67
     1
  8
1
  6
Continuous
 62
     7
370
    13
100
AcDbLine
 10
10.167711
 20
1.222734
 30
0.0
 11
10.193711
 21
1.222734
 31
0.0
  0
LINE
  5
164
330
75
100
AcDbEntity
 67
     1
  8
1
  6
Continuous
 62
     7
370
    13
100
AcDbLine
 10
10.199149
 20
1.228734
 30
0.0
 11
10.199149
 21
1.457205
 31
0.0
  0
LINE
  5
165
330
75
100
AcDbEntity
 67
     1
  8
1
  6
Continuous
 62
     7
370
    13
100
AcDbLine
 10
9.14671
 20
1.481734
 30
0.0
 11
9.14671
 21
1.347734
 31
0.0
  0
LINE
  5
166
330
75
100
AcDbEntity
 67
     1
  8
1
  6
Continuous
 62
     7
370
    13
100
AcDbLine
 10
9.611404
 20
1.151632
 30
0.0
 11
9.611404
 21
1.249274
 31
0.0
  0
LINE
  5
167
330
75
100
AcDbEntity
 67
     1
  8
1
  6
Continuous
 62
     7
370
    13
100
AcDbLine
 10
9.438258
 20
1.202535
 30
0.0
 11
9.461452
 21
1.151632
 31
0.0
  0
LINE
  5
168
330
75
100
AcDbEntity
 67
     1
  8
1
  6
Continuous
 62
     7
370
    13
100
AcDbLine
 10
9.136711
 20
1.278344
 30
0.0
 11
9.251711
 21
1.278344
 31
0.0
  0
LINE
  5
169
330
75
100
AcDbEntity
 67
     1
  8
1
  6
Continuous
 62
     7
370
    13
100
AcDbLine
 10
9.906711
 20
1.391734
 30
0.0
 11
9.906711
 21
1.231734
 31
0.0
  0
LINE
  5
16A
330
75
100
AcDbEntity
 67
     1
  8
1
  6
Continuous
 62
     7
370
    13
100
AcDbLine
 10
10.061711
 20
1.457205
 30
0.0
 11
10.061711
 21
1.19167
 31
0.0
  0
LINE
  5
16B
330
75
100
AcDbEntity
 67
     1
  8
1
  6
Continuous
 62
     7
370
    13
100
AcDbLine
 10
9.376711
 20
1.271734
 30
0.0
 11
9.403607
 21
1.334568
 31
0.0
  0
LINE
  5
16C
330
75
100
AcDbEntity
 67
     1
  8
1
  6
Continuous
 62
     7
370
    13
100
AcDbLine
 10
10.484591
 20
1.150096
 30
0.0
 11
10.484591
 21
1.387229
 31
0.0
  0
LINE
  5
16D
330
75
100
AcDbEntity
 67
     1
  8
1
  6
Continuous
 62
     7
370
    13
100
AcDbLine
 10
10.408241
 20
1.457205
 30
0.0
 11
10.408241
 21
1.151632
 31
0.0
  0
LINE
  5
16E
330
75
100
AcDbEntity
 67
     1
  8
1
  6
Continuous
 62
     7
370
    13
100
AcDbLine
 10
9.33147
 20
1.151632
 30
0.0
 11
9.353258
 21
1.202535
 31
0.0
  0
LINE
  5
16F
330
75
100
AcDbEntity
 67
     1
  8
1
  6
Continuous
 62
     7
370
    13
100
AcDbLine
 10
10.421319
 20
1.457205
 30
0.0
 11
10.649521
 21
1.457205
 31
0.0
  0
LINE
  5
170
330
75
100
AcDbEntity
 67
     1
  8
1
  6
Continuous
 62
     7
370
    13
100
AcDbLine
 10
10.199149
 20
1.457205
 30
0.0
 11
10.284326
 21
1.457205
 31
0.0
  0
LINE
  5
171
330
75
100
AcDbEntity
 67
     1
  8
1
  6
Continuous
 62
     7
370
    13
100
AcDbLine
 10
9.611404
 20
1.249274
 30
0.0
 11
9.611404
 21
1.249843
 31
0.0
  0
LINE
  5
172
330
75
100
AcDbEntity
 67
     1
  8
1
  6
Continuous
 62
     7
370
    13
100
AcDbLine
 10
10.061711
 20
1.457205
 30
0.0
 11
10.162711
 21
1.457205
 31
0.0
  0
LINE
  5
173
330
75
100
AcDbEntity
 67
     1
  8
1
  6
Continuous
 62
     7
370
    13
100
AcDbLine
 10
10.308241
 20
1.457205
 30
0.0
 11
10.308241
 21
1.151632
 31
0.0
  0
LINE
  5
174
330
75
100
AcDbEntity
 67
     1
  8
1
  6
Continuous
 62
     7
370
    13
100
AcDbLine
 10
9.906711
 20
1.231734
 30
0.0
 11
9.931711
 21
1.231734
 31
0.0
  0
LINE
  5
175
330
75
100
AcDbEntity
 67
     1
  8
1
  6
Continuous
 62
     7
370
    13
100
AcDbLine
 10
9.940711
 20
1.381734
 30
0.0
 11
9.940711
 21
1.239734
 31
0.0
  0
LINE
  5
176
330
75
100
AcDbEntity
 67
     1
  8
1
  6
Continuous
 62
     7
370
    13
100
AcDbLine
 10
9.14671
 20
1.481734
 30
0.0
 11
9.172404
 21
1.481734
 31
0.0
  0
LINE
  5
177
330
75
100
AcDbEntity
 67
     1
  8
1
  6
Continuous
 62
     7
370
    13
100
AcDbLine
 10
10.421319
 20
1.457205
 30
0.0
 11
10.42059
 21
1.387229
 31
0.0
  0
LINE
  5
178
330
75
100
AcDbEntity
 67
     1
  8
1
  6
Continuous
 62
     7
370
    13
100
AcDbLine
 10
9.764325
 20
1.151632
 30
0.0
 11
9.764894
 21
1.151632
 31
0.0
  0
LINE
  5
179
330
75
100
AcDbEntity
 67
     1
  8
1
  6
Continuous
 62
     7
370
    13
100
AcDbLine
 10
9.14671
 20
1.347734
 30
0.0
 11
9.172404
 21
1.347734
 31
0.0
  0
LINE
  5
17A
330
75
100
AcDbEntity
 67
     1
  8
1
  6
Continuous
 62
     7
370
    13
100
AcDbLine
 10
9.796807
 20
1.45318
 30
0.0
 11
9.796807
 21
1.151632
 31
0.0
  0
LINE
  5
17B
330
75
100
AcDbEntity
 67
     1
  8
1
  6
Continuous
 62
     7
370
    13
100
AcDbLine
 10
9.521
 20
1.271734
 30
0.0
 11
9.451711
 21
1.451734
 31
0.0
  0
LINE
  5
17C
330
75
100
AcDbEntity
 67
     1
  8
1
  6
Continuous
 62
     7
370
    13
100
AcDbLine
 10
9.427794
 20
1.271734
 30
0.0
 11
9.376711
 21
1.271734
 31
0.0
  0
LINE
  5
17D
330
75
100
AcDbEntity
 67
     1
  8
1
  6
Continuous
 62
     7
370
    13
100
AcDbLine
 10
10.649521
 20
1.457205
 30
0.0
 11
10.649521
 21
1.387229
 31
0.0
  0
LINE
  5
17E
330
75
100
AcDbEntity
 67
     1
  8
1
  6
Continuous
 62
     7
370
    13
100
AcDbLine
 10
10.484591
 20
1.387229
 30
0.0
 11
10.42059
 21
1.387229
 31
0.0
  0
LINE
  5
17F
330
75
100
AcDbEntity
 67
     1
  8
1
  6
Continuous
 62
     7
370
    13
100
AcDbLine
 10
8.961711
 20
1.551375
 30
0.0
 11
8.961711
 21
1.151734
 31
0.0
  0
LINE
  5
180
330
75
100
AcDbEntity
 67
     1
  8
1
  6
Continuous
 62
     7
370
    13
100
AcDbLine
 10
10.580232
 20
1.387229
 30
0.0
 11
10.580232
 21
1.150096
 31
0.0
  0
LINE
  5
181
330
75
100
AcDbEntity
 67
     1
  8
1
  6
Continuous
 62
     7
370
    13
100
AcDbLine
 10
8.961711
 20
1.151734
 30
0.0
 11
9.136711
 21
1.151734
 31
0.0
  0
LINE
  5
182
330
75
100
AcDbEntity
 67
     1
  8
1
  6
Continuous
 62
     7
370
    13
100
AcDbLine
 10
9.641
 20
1.45318
 30
0.0
 11
9.521
 21
1.45318
 31
0.0
  0
LINE
  5
183
330
75
100
AcDbEntity
 67
     1
  8
1
  6
Continuous
 62
     7
370
    13
100
AcDbLine
 10
10.284326
 20
1.457205
 30
0.0
 11
10.284326
 21
1.19167
 31
0.0
  0
LINE
  5
184
330
75
100
AcDbEntity
 67
     1
  8
1
  6
Continuous
 62
     7
370
    13
100
AcDbLine
 10
9.188711
 20
1.474734
 30
0.0
 11
9.188711
 21
1.354734
 31
0.0
  0
LINE
  5
185
330
75
100
AcDbEntity
 67
     1
  8
1
  6
Continuous
 62
     7
370
    13
100
AcDbLine
 10
8.961711
 20
1.551375
 30
0.0
 11
9.258935
 21
1.551375
 31
0.0
  0
LINE
  5
186
330
75
100
AcDbEntity
 67
     1
  8
1
  6
Continuous
 62
     7
370
    13
100
AcDbLine
 10
9.906711
 20
1.391734
 30
0.0
 11
9.931711
 21
1.391734
 31
0.0
  0
LINE
  5
187
330
75
100
AcDbEntity
 67
     1
  8
1
  6
Continuous
 62
     7
370
    13
100
AcDbLine
 10
9.353258
 20
1.202535
 30
0.0
 11
9.438258
 21
1.202535
 31
0.0
  0
LINE
  5
188
330
75
100
AcDbEntity
 67
     1
  8
1
  6
Continuous
 62
     7
370
    13
100
AcDbLine
 10
9.136711
 20
1.278344
 30
0.0
 11
9.136711
 21
1.151734
 31
0.0
  0
LINE
  5
189
330
75
100
AcDbEntity
 67
     1
  8
1
  6
Continuous
 62
     7
370
    13
100
AcDbLine
 10
9.796807
 20
1.45742
 30
0.0
 11
9.796807
 21
1.45318
 31
0.0
  0
LINE
  5
18A
330
75
100
AcDbEntity
 67
     1
  8
1
  6
Continuous
 62
     7
370
    13
100
AcDbLine
 10
10.308241
 20
1.457205
 30
0.0
 11
10.408241
 21
1.457205
 31
0.0
  0
LINE
  5
18B
330
75
100
AcDbEntity
 67
     1
  8
1
  6
Continuous
 62
     7
370
    13
100
AcDbLine
 10
9.286711
 20
1.291734
 30
0.0
 11
9.22674
 21
1.151632
 31
0.0
  0
LINE
  5
18C
330
75
100
AcDbEntity
 67
     1
  8
1
  6
Continuous
 62
     7
370
    13
100
AcDbLine
 10
9.611404
 20
1.249843
 30
0.0
 11
9.656152
 21
1.151632
 31
0.0
  0
LINE
  5
18D
330
75
100
AcDbEntity
 67
     1
  8
1
  6
Continuous
 62
     7
370
    13
100
AcDbLine
 10
9.764894
 20
1.151632
 30
0.0
 11
9.764894
 21
1.45318
 31
0.0
  0
LINE
  5
18E
330
75
100
AcDbEntity
 67
     1
  8
1
  6
Continuous
 62
     7
370
    13
100
AcDbLine
 10
9.656152
 20
1.151632
 30
0.0
 11
9.764894
 21
1.151632
 31
0.0
  0
LINE
  5
18F
330
75
100
AcDbEntity
 67
     1
  8
1
  6
Continuous
 62
     7
370
    13
100
AcDbLine
 10
9.796807
 20
1.151632
 30
0.0
 11
9.99128
 21
1.151632
 31
0.0
  0
LINE
  5
190
330
75
100
AcDbEntity
 67
     1
  8
1
  6
Continuous
 62
     7
370
    13
100
AcDbLine
 10
9.674894
 20
1.45318
 30
0.0
 11
9.674894
 21
1.361734
 31
0.0
  0
LINE
  5
191
330
75
100
AcDbEntity
 67
     1
  8
1
  6
Continuous
 62
     7
370
    13
100
AcDbLine
 10
10.162711
 20
1.457205
 30
0.0
 11
10.162711
 21
1.228734
 31
0.0
  0
LINE
  5
192
330
75
100
AcDbEntity
 67
     1
  8
1
  6
Continuous
 62
     7
370
    13
100
AcDbLine
 10
9.461452
 20
1.151632
 30
0.0
 11
9.611404
 21
1.151632
 31
0.0
  0
LINE
  5
193
330
75
100
AcDbEntity
 67
     1
  8
1
  6
Continuous
 62
     7
370
    13
100
AcDbLine
 10
10.649521
 20
1.387229
 30
0.0
 11
10.580232
 21
1.387229
 31
0.0
  0
LINE
  5
194
330
75
100
AcDbEntity
 67
     1
  8
1
  6
Continuous
 62
     7
370
    13
100
AcDbLine
 10
10.484591
 20
1.150096
 30
0.0
 11
10.580232
 21
1.150096
 31
0.0
  0
LINE
  5
195
330
75
100
AcDbEntity
 67
     1
  8
1
  6
Continuous
 62
     7
370
    13
100
AcDbLine
 10
9.764894
 20
1.45318
 30
0.0
 11
9.674894
 21
1.45318
 31
0.0
  0
LINE
  5
196
330
75
100
AcDbEntity
 67
     1
  8
1
  6
Continuous
 62
     7
370
    13
100
AcDbLine
 10
10.03683
 20
1.425597
 30
0.0
 11
10.03683
 21
1.19167
 31
0.0
  0
LINE
  5
197
330
75
100
AcDbEntity
 67
     1
  8
1
  6
Continuous
 62
     7
370
    13
100
AcDbLine
 10
9.403607
 20
1.334568
 30
0.0
 11
9.427794
 21
1.271734
 31
0.0
  0
LINE
  5
198
330
75
100
AcDbEntity
 67
     1
  8
1
  6
Continuous
 62
     7
370
    13
100
AcDbLine
 10
9.796807
 20
1.45742
 30
0.0
 11
9.998806
 21
1.45742
 31
0.0
  0
LINE
  5
199
330
75
100
AcDbEntity
 67
     1
  8
1
  6
Continuous
 62
     7
370
    13
100
AcDbLine
 10
9.521
 20
1.45318
 30
0.0
 11
9.521
 21
1.271734
 31
0.0
  0
LINE
  5
19A
330
75
100
AcDbEntity
 67
     1
  8
1
  6
Continuous
 62
     7
370
    13
100
AcDbLine
 10
9.361711
 20
1.451734
 30
0.0
 11
9.451711
 21
1.451734
 31
0.0
  0
CIRCLE
  5
19B
330
75
100
AcDbEntity
 67
     1
  8
1
  6
Continuous
 62
     7
370
    18
100
AcDbCircle
 10
7.29336
 20
1.049376
 30
0.0
 40
0.0761323720216751
  0
CIRCLE
  5
19C
330
75
100
AcDbEntity
 67
     1
  8
1
  6
Continuous
 62
     7
370
    18
100
AcDbCircle
 10
7.29336
 20
1.049376
 30
0.0
 40
0.1133828535676003
  0
ARC
  5
19D
330
75
100
AcDbEntity
 67
     1
  8
1
  6
Continuous
 62
     7
370
    13
100
AcDbCircle
 10
9.998806
 20
1.418794
 30
0.0
 40
0.0386268198490143
100
AcDbArc
 50
10.144251
 51
90.0
  0
ARC
  5
19E
330
75
100
AcDbEntity
 67
     1
  8
1
  6
Continuous
 62
     7
370
    13
100
AcDbCircle
 10
10.105246
 20
1.195319
 30
0.0
 40
0.0436865910887718
100
AcDbArc
 50
184.790275
 51
270.0
  0
ARC
  5
19F
330
75
100
AcDbEntity
 67
     1
  8
1
  6
Continuous
 62
     7
370
    13
100
AcDbCircle
 10
9.232949
 20
1.421747
 30
0.0
 40
0.1322073191404343
100
AcDbArc
 50
13.110113
 51
78.664674
  0
ARC
  5
1A0
330
75
100
AcDbEntity
 67
     1
  8
1
  6
Continuous
 62
     7
370
    13
100
AcDbCircle
 10
9.172404
 20
1.459242
 30
0.0
 40
0.022492878139019
100
AcDbArc
 50
43.534433
 51
90.0
  0
ARC
  5
1A1
330
75
100
AcDbEntity
 67
     1
  8
1
  6
Continuous
 62
     7
370
    13
100
AcDbCircle
 10
10.19312
 20
1.228734
 30
0.0
 40
0.0060289953835309
100
AcDbArc
 50
275.621485
 51
0.0
  0
ARC
  5
1A2
330
75
100
AcDbEntity
 67
     1
  8
1
  6
Continuous
 62
     7
370
    13
100
AcDbCircle
 10
10.2409
 20
1.1952
 30
0.0
 40
0.0435684695839882
100
AcDbArc
 50
270.0
 51
355.352577
  0
ARC
  5
1A3
330
75
100
AcDbEntity
 67
     1
  8
1
  6
Continuous
 62
     7
370
    13
100
AcDbCircle
 10
9.932655
 20
1.239734
 30
0.0
 40
0.0080555556342006
100
AcDbArc
 50
263.267079
 51
0.0
  0
ARC
  5
1A4
330
75
100
AcDbEntity
 67
     1
  8
1
  6
Continuous
 62
     7
370
    13
100
AcDbCircle
 10
9.930655
 20
1.381734
 30
0.0
 40
0.0100555559620261
100
AcDbArc
 50
0.0
 51
83.974425
  0
ARC
  5
1A5
330
75
100
AcDbEntity
 67
     1
  8
1
  6
Continuous
 62
     7
370
    13
100
AcDbCircle
 10
10.167711
 20
1.227818
 30
0.0
 40
0.005083333235234
100
AcDbArc
 50
169.611142
 51
270.0
  0
ARC
  5
1A6
330
75
100
AcDbEntity
 67
     1
  8
1
  6
Continuous
 62
     7
370
    13
100
AcDbCircle
 10
9.251711
 20
1.330782
 30
0.0
 40
0.0524377785623074
100
AcDbArc
 50
270.0
 51
311.871153
  0
ARC
  5
1A7
330
75
100
AcDbEntity
 67
     1
  8
1
  6
Continuous
 62
     7
370
    13
100
AcDbCircle
 10
9.99128
 20
1.197561
 30
0.0
 40
0.0459290370345116
100
AcDbArc
 50
270.0
 51
352.6312
  0
ARC
  5
1A8
330
75
100
AcDbEntity
 67
     1
  8
1
  6
Continuous
 62
     7
370
    13
100
AcDbCircle
 10
9.172769
 20
1.369389
 30
0.0
 40
0.0216544419527054
100
AcDbArc
 50
270.0
 51
317.410529
  0
MTEXT
  5
1A9
330
75
100
AcDbEntity
 67
     1
  8
1
  6
Continuous
 62
     7
370
    13
100
AcDbMText
 10
0.611398
 20
8.063328
 30
0.0
 40
0.071316
 41
0.0
 71
     7
 72
     5
  1
\W1.2052;THIS COPY IS PROVIDED ON A RESTRICTED BASIS AND IS NOT TO BE USED IN ANY WAY DETRIMENTAL TO THE INTERESTS OF PANDUIT CORP.
  7
blockfont
 73
     2
 44
0.903614
  0
MTEXT
  5
1AC
330
75
100
AcDbEntity
 67
     1
  8
1
  6
Continuous
 62
     7
370
    13
100
AcDbMText
 10
10.812994
 20
2.13168
 30
0.0
 40
0.15
 41
0.0
 71
     7
 72
     5
  1
\W0.8942;A
  7
blackfont
 73
     2
 44
1.204819
  0
MTEXT
  5
1AE
330
75
100
AcDbEntity
 67
     1
  8
1
  6
Continuous
 62
     7
370
    13
100
AcDbMText
 10
10.813775
 20
6.13168
 30
0.0
 40
0.15
 41
0.0
 71
     7
 72
     5
  1
\W0.7733;B
  7
blackfont
 73
     2
 44
1.204819
  0
MTEXT
  5
1AF
330
75
100
AcDbEntity
 67
     1
  8
1
  6
Continuous
 62
     7
370
    13
100
AcDbMText
 10
0.058994
 20
2.13168
 30
0.0
 40
0.15
 41
0.0
 71
     7
 72
     5
  1
\W0.8942;A
  7
blackfont
 73
     2
 44
1.204819
  0
MTEXT
  5
1B0
330
75
100
AcDbEntity
 67
     1
  8
1
  6
Continuous
 62
     7
370
    13
100
AcDbMText
 10
0.059775
 20
6.13168
 30
0.0
 40
0.15
 41
0.0
 71
     7
 72
     5
  1
\W0.7733;B
  7
blackfont
 73
     2
 44
1.204819
  0
MTEXT
  5
1B1
330
75
100
AcDbEntity
 67
     1
  8
1
  6
Continuous
 62
     7
370
    13
100
AcDbMText
 10
8.102204
 20
8.257028
 30
0.0
 40
0.15
 41
0.0
 71
     7
 72
     5
  1
\W0.4798;1
  7
blackfont
 73
     2
 44
1.204819
  0
MTEXT
  5
1B2
330
75
100
AcDbEntity
 67
     1
  8
1
  6
Continuous
 62
     7
370
    13
100
AcDbMText
 10
2.810798
 20
8.257028
 30
0.0
 40
0.15
 41
0.0
 71
     7
 72
     5
  1
\W0.9672;2
  7
blackfont
 73
     2
 44
1.204819
  0
MTEXT
  5
1B3
330
75
100
AcDbEntity
 67
     1
  8
1
  6
Continuous
 62
     7
370
    13
100
AcDbMText
 10
2.810798
 20
0.007028
 30
0.0
 40
0.15
 41
0.0
 71
     7
 72
     5
  1
\W0.9672;2
  7
blackfont
 73
     2
 44
1.204819
  0
MTEXT
  5
1B4
330
75
100
AcDbEntity
 67
     1
  8
1
  6
Continuous
 62
     7
370
    13
100
AcDbMText
 10
8.102204
 20
0.007028
 30
0.0
 40
0.15
 41
0.0
 71
     7
 72
     5
  1
\W0.4798;1
  7
blackfont
 73
     2
 44
1.204819
  0
MTEXT
  5
1B5
330
75
100
AcDbEntity
 67
     1
  8
1
  6
Continuous
 62
     7
370
    13
100
AcDbMText
 10
0.213407
 20
0.252427
 30
0.0
 40
0.05
 41
0.0
 71
     7
 72
     5
  1
\W1.1361;A-SIZE CUSTOMER
  7
blockfont
 11
1.171455364582524E-15
 21
1.0
 31
0.0
 73
     2
 44
0.903614
  0
MTEXT
  5
1B6
330
75
100
AcDbEntity
 67
     1
  8
1
  6
Continuous
 62
     7
370
    13
100
AcDbMText
 10
0.332851
 20
0.878474
 30
0.0
 40
0.08
 41
0.0
 71
     7
 72
     5
  1
\fMonospac821 BT|b0|i0;\W0.7640;00B
  7
helios
 73
     2
 44
0.903614
  0
MTEXT
  5
1B8
330
75
100
AcDbEntity
 67
     1
  8
1
  6
Continuous
 62
     7
370
    13
100
AcDbMText
 10
0.681726
 20
0.878474
 30
0.0
 40
0.08
 41
0.0
 71
     7
 72
     5
  1
\fMonospac821 BT|b0|i0;\W0.8179;5-3-20
  7
helios
 73
     2
 44
0.903614
  0
MTEXT
  5
1B9
330
75
100
AcDbEntity
 67
     1
  8
1
  6
Continuous
 62
     7
370
    13
100
AcDbMText
 10
1.242351
 20
0.878474
 30
0.0
 40
0.08
 41
0.0
 71
     7
 72
     5
  1
\fMonospac821 BT|b0|i0;\W0.7562;BJN
  7
helios
 73
     2
 44
0.903614
  0
MTEXT
  5
1BA
330
75
100
AcDbEntity
 67
     1
  8
1
  6
Continuous
 62
     7
370
    13
100
AcDbMText
 10
1.607976
 20
0.878474
 30
0.0
 40
0.08
 41
0.0
 71
     7
 72
     5
  1
\fMonospac821 BT|b0|i0;\W0.8456;SGO
  7
helios
 73
     2
 44
0.903614
  0
MTEXT
  5
1BB
330
75
100
AcDbEntity
 67
     1
  8
1
  6
Continuous
 62
     7
370
    13
100
AcDbMText
 10
1.970476
 20
0.878474
 30
0.0
 40
0.08
 41
0.0
 71
     7
 72
     5
  1
\fMonospac821 BT|b0|i0;\W0.9662;TAM
  7
helios
 73
     2
 44
0.903614
  0
MTEXT
  5
1BC
330
75
100
AcDbEntity
 67
     1
  8
1
  6
Continuous
 62
     7
370
    13
100
AcDbMText
 10
2.297976
 20
0.878474
 30
0.0
 40
0.08
 41
0.0
 71
     7
 72
     5
  1
\fMonospac821 BT|b0|i0;\W0.8569;PART NUMBER FOR 60W POWER SUPPLY PUT IN TABLE
  7
helios
 73
     2
 44
0.903614
  0
MTEXT
  5
1BD
330
75
100
AcDbEntity
 67
     1
  8
1
  6
Continuous
 62
     7
370
    13
100
AcDbMText
 10
5.655649
 20
0.885852
 30
0.0
 40
0.07
 41
0.0
 71
     7
 72
     5
  1
\fMonospac821 BT|b0|i0;\W0.8690;00240NAP-DC
  7
helios
 73
     2
 44
0.903614
  0
MTEXT
  5
1BE
330
75
100
AcDbEntity
 67
     1
  8
1
  6
Continuous
 62
     7
370
    13
100
AcDbMText
 10
0.327226
 20
0.628474
 30
0.0
 40
0.08
 41
0.0
 71
     7
 72
     5
  1
\fMonospac821 BT|b0|i0;\W0.8223;00A
  7
helios
 73
     2
 44
0.903614
  0
MTEXT
  5
1BF
330
75
100
AcDbEntity
 67
     1
  8
1
  6
Continuous
 62
     7
370
    13
100
AcDbMText
 10
0.689851
 20
0.628474
 30
0.0
 40
0.08
 41
0.0
 71
     7
 72
     5
  1
\fMonospac821 BT|b0|i0;\W0.7810;9-3-19
  7
helios
 73
     2
 44
0.903614
  0
MTEXT
  5
1C0
330
75
100
AcDbEntity
 67
     1
  8
1
  6
Continuous
 62
     7
370
    13
100
AcDbMText
 10
1.242351
 20
0.628474
 30
0.0
 40
0.08
 41
0.0
 71
     7
 72
     5
  1
\fMonospac821 BT|b0|i0;\W0.7562;BJN
  7
helios
 73
     2
 44
0.903614
  0
MTEXT
  5
1C1
330
75
100
AcDbEntity
 67
     1
  8
1
  6
Continuous
 62
     7
370
    13
100
AcDbMText
 10
1.607976
 20
0.628474
 30
0.0
 40
0.08
 41
0.0
 71
     7
 72
     5
  1
\fMonospac821 BT|b0|i0;\W0.8456;SGO
  7
helios
 73
     2
 44
0.903614
  0
MTEXT
  5
1C2
330
75
100
AcDbEntity
 67
     1
  8
1
  6
Continuous
 62
     7
370
    13
100
AcDbMText
 10
1.972976
 20
0.628474
 30
0.0
 40
0.08
 41
0.0
 71
     7
 72
     5
  1
\fMonospac821 BT|b0|i0;\W0.9390;AMN
  7
helios
 73
     2
 44
0.903614
  0
MTEXT
  5
1C3
330
75
100
AcDbEntity
 67
     1
  8
1
  6
Continuous
 62
     7
370
    13
100
AcDbMText
 10
2.297976
 20
0.628474
 30
0.0
 40
0.08
 41
0.0
 71
     7
 72
     5
  1
\fMonospac821 BT|b0|i0;\W0.8434;RELEASED TO PRODUCTION
  7
helios
 73
     2
 44
0.903614
  0
MTEXT
  5
1C4
330
75
100
AcDbEntity
 67
     1
  8
1
  6
Continuous
 62
     7
370
    13
100
AcDbMText
 10
5.655649
 20
0.635852
 30
0.0
 40
0.07
 41
0.0
 71
     7
 72
     5
  1
\fMonospac821 BT|b0|i0;\W0.8690;00240NAP-DC
  7
helios
 73
     2
 44
0.903614
  0
MTEXT
  5
1C5
330
75
100
AcDbEntity
 67
     1
  8
1
  6
Continuous
 62
     7
370
    13
100
AcDbMText
 10
0.293602
 20
0.347906
 30
0.0
 40
0.075
 41
0.0
 71
     7
 72
     5
  1
\W1.1228;REV
  7
blockfont
 73
     2
 44
0.903614
  0
MTEXT
  5
1C6
330
75
100
AcDbEntity
 67
     1
  8
1
  6
Continuous
 62
     7
370
    13
100
AcDbMText
 10
0.692086
 20
0.347906
 30
0.0
 40
0.075
 41
0.0
 71
     7
 72
     5
  1
\W1.1339;DATE
  7
blockfont
 73
     2
 44
0.903614
  0
MTEXT
  5
1C7
330
75
100
AcDbEntity
 67
     1
  8
1
  6
Continuous
 62
     7
370
    13
100
AcDbMText
 10
1.242281
 20
0.347906
 30
0.0
 40
0.075
 41
0.0
 71
     7
 72
     5
  1
\W0.9854;BY
  7
blockfont
 73
     2
 44
0.903614
  0
MTEXT
  5
1C8
330
75
100
AcDbEntity
 67
     1
  8
1
  6
Continuous
 62
     7
370
    13
100
AcDbMText
 10
1.576852
 20
0.347906
 30
0.0
 40
0.075
 41
0.0
 71
     7
 72
     5
  1
\W0.9620;CHK
  7
blockfont
 73
     2
 44
0.903614
  0
MTEXT
  5
1C9
330
75
100
AcDbEntity
 67
     1
  8
1
  6
Continuous
 62
     7
370
    13
100
AcDbMText
 10
1.951852
 20
0.347906
 30
0.0
 40
0.075
 41
0.0
 71
     7
 72
     5
  1
\W1.0524;APR
  7
blockfont
 73
     2
 44
0.903614
  0
MTEXT
  5
1CA
330
75
100
AcDbEntity
 67
     1
  8
1
  6
Continuous
 62
     7
370
    13
100
AcDbMText
 10
3.437398
 20
0.347906
 30
0.0
 40
0.075
 41
0.0
 71
     7
 72
     5
  1
\W1.2370;DESCRIPTION
  7
blockfont
 73
     2
 44
0.903614
  0
MTEXT
  5
1CB
330
75
100
AcDbEntity
 67
     1
  8
1
  6
Continuous
 62
     7
370
    13
100
AcDbMText
 10
5.826851
 20
0.347906
 30
0.0
 40
0.075
 41
0.0
 71
     7
 72
     5
  1
\W1.0204;ECN
  7
blockfont
 73
     2
 44
0.903614
  0
MTEXT
  5
1CC
330
75
100
AcDbEntity
 67
     1
  8
1
  6
Continuous
 62
     7
370
    13
100
AcDbMText
 10
6.400856
 20
2.772633
 30
0.0
 40
0.04
 41
0.0
 71
     7
 72
     5
  1
\W1.0830;PART NUMBER
  7
blockfont
 73
     2
 44
0.903614
  0
MTEXT
  5
1CD
330
75
100
AcDbEntity
 67
     1
  8
1
  6
Continuous
 62
     7
370
    13
100
AcDbMText
 10
7.997624
 20
2.483076
 30
0.0
 40
0.15
 41
0.0
 71
     7
 72
     5
  1
\fMonospac821 BT|b0|i0;\W0.8085;POEXKIT1-NP
  7
helios
 73
     2
 44
0.903614
  0
MTEXT
  5
1CE
330
75
100
AcDbEntity
 67
     1
  8
1
  6
Continuous
 62
     7
370
    13
100
AcDbMText
 10
6.400856
 20
2.335133
 30
0.0
 40
0.04
 41
0.0
 71
     7
 72
     5
  1
\W1.4454;TITLE
  7
blockfont
 73
     2
 44
0.903614
  0
MTEXT
  5
1CF
330
75
100
AcDbEntity
 67
     1
  8
1
  6
Continuous
 62
     7
370
    13
100
AcDbMText
 10
6.664658
 20
2.095271
 30
0.0
 40
0.125
 41
0.0
 71
     7
 72
     5
  1
\fMonospac821 BT|b0|i0;\W0.8397;PoE EXTENDER KIT 1-PORT RCVR NO POWER CORD
  7
helios
 73
     2
 44
0.903614
  0
MTEXT
  5
1D0
330
75
100
AcDbEntity
 67
     1
  8
1
  6
Continuous
 62
     7
370
    13
100
AcDbMText
 10
7.973252
 20
1.907771
 30
0.0
 40
0.125
 41
0.0
 71
     7
 72
     5
  1
\fMonospac821 BT|b0|i0;\W0.9246;CUSTOMER DWG
  7
helios
 73
     2
 44
0.903614
  0
MTEXT
  5
1D1
330
75
100
AcDbEntity
 67
     1
  8
1
  6
Continuous
 62
     7
370
    13
100
AcDbMText
 10
7.963462
 20
1.726796
 30
0.0
 40
0.07
 41
0.0
 71
     7
 72
     5
  1
\W1.1242;CUSTOMER DRAWING
  7
blockfont
 73
     2
 44
0.903614
  0
MTEXT
  5
1D2
330
75
100
AcDbEntity
 67
     1
  8
1
  6
Continuous
 62
     7
370
    13
100
AcDbMText
 10
6.400856
 20
1.647633
 30
0.0
 40
0.04
 41
0.0
 71
     7
 72
     5
  1
\W1.2467;ITEM REVISION NAME
  7
blockfont
 73
     2
 44
0.903614
  0
MTEXT
  5
1D3
330
75
100
AcDbEntity
 67
     1
  8
1
  6
Continuous
 62
     7
370
    13
100
AcDbMText
 10
7.312351
 20
1.503474
 30
0.0
 40
0.08
 41
0.0
 71
     7
 72
     5
  1
\fMonospac821 BT|b0|i0;\W0.8425;00240NAP/00
  7
helios
 73
     2
 44
0.903614
  0
MTEXT
  5
1D4
330
75
100
AcDbEntity
 67
     1
  8
1
  6
Continuous
 62
     7
370
    13
100
AcDbMText
 10
6.400856
 20
1.397633
 30
0.0
 40
0.04
 41
0.0
 71
     7
 72
     5
  1
\W1.2064;DATASET FILE NAME
  7
blockfont
 73
     2
 44
0.903614
  0
MTEXT
  5
1D5
330
75
100
AcDbEntity
 67
     1
  8
1
  6
Continuous
 62
     7
370
    13
100
AcDbMText
 10
7.184226
 20
1.253474
 30
0.0
 40
0.08
 41
0.0
 71
     7
 72
     5
  1
\fMonospac821 BT|b0|i0;\W0.8643;00240NAP_DC/00A
  7
helios
 73
     2
 44
0.903614
  0
MTEXT
  5
1D6
330
75
100
AcDbEntity
 67
     1
  8
1
  6
Continuous
 62
     7
370
    13
100
AcDbMText
 10
7.900666
 20
1.0452
 30
0.0
 40
0.06
 41
0.0
 71
     7
 72
     5
  1
\W1.2073;THIRD ANGLE
  7
blockfont
 73
     2
 44
0.903614
  0
MTEXT
  5
1D7
330
75
100
AcDbEntity
 67
     1
  8
1
  6
Continuous
 62
     7
370
    13
100
AcDbMText
 10
7.933479
 20
0.9552
 30
0.0
 40
0.06
 41
0.0
 71
     7
 72
     5
  1
\W1.1864;PROJECTION
  7
blockfont
 73
     2
 44
0.903614
  0
MTEXT
  5
1D8
330
75
100
AcDbEntity
 67
     1
  8
1
  6
Continuous
 62
     7
370
    13
100
AcDbMText
 10
6.400856
 20
0.803883
 30
0.0
 40
0.04
 41
0.0
 71
     7
 72
     5
  1
\W1.2255;MATERIAL
  7
blockfont
 73
     2
 44
0.903614
  0
MTEXT
  5
1D9
330
75
100
AcDbEntity
 67
     1
  8
1
  6
Continuous
 62
     7
370
    13
100
AcDbMText
 10
8.900856
 20
0.803883
 30
0.0
 40
0.04
 41
0.0
 71
     7
 72
     5
  1
\W1.1105;DRAWING NUMBER
  7
blockfont
 73
     2
 44
0.903614
  0
MTEXT
  5
1DA
330
75
100
AcDbEntity
 67
     1
  8
1
  6
Continuous
 62
     7
370
    13
100
AcDbMText
 10
7.295303
 20
0.617488
 30
0.0
 40
0.09
 41
0.0
 71
     7
 72
     5
  1
\W1.0837;SEE BOM
  7
blockfont
 73
     2
 44
0.903614
  0
MTEXT
  5
1DB
330
75
100
AcDbEntity
 67
     1
  8
1
  6
Continuous
 62
     7
370
    13
100
AcDbMText
 10
9.080674
 20
0.59026
 30
0.0
 40
0.125
 41
0.0
 71
     7
 72
     5
  1
\W1.0692;00240NAP-DC
  7
blockfont
 73
     2
 44
0.903614
  0
MTEXT
  5
1DC
330
75
100
AcDbEntity
 67
     1
  8
1
  6
Continuous
 62
     7
370
    13
100
AcDbMText
 10
6.400856
 20
0.491383
 30
0.0
 40
0.04
 41
0.0
 71
     7
 72
     5
  1
\W1.0558;DRAWN BY
  7
blockfont
 73
     2
 44
0.903614
  0
MTEXT
  5
1DD
330
75
100
AcDbEntity
 67
     1
  8
1
  6
Continuous
 62
     7
370
    13
100
AcDbMText
 10
6.838356
 20
0.491383
 30
0.0
 40
0.04
 41
0.0
 71
     7
 72
     5
  1
\W1.1339;DATE
  7
blockfont
 73
     2
 44
0.903614
  0
MTEXT
  5
1DE
330
75
100
AcDbEntity
 67
     1
  8
1
  6
Continuous
 62
     7
370
    13
100
AcDbMText
 10
7.650856
 20
0.491383
 30
0.0
 40
0.04
 41
0.0
 71
     7
 72
     5
  1
\W0.9620;CHK
  7
blockfont
 73
     2
 44
0.903614
  0
MTEXT
  5
1DF
330
75
100
AcDbEntity
 67
     1
  8
1
  6
Continuous
 62
     7
370
    13
100
AcDbMText
 10
8.088356
 20
0.491383
 30
0.0
 40
0.04
 41
0.0
 71
     7
 72
     5
  1
\W1.1182;SCALE
  7
blockfont
 73
     2
 44
0.903614
  0
MTEXT
  5
1E0
330
75
100
AcDbEntity
 67
     1
  8
1
  6
Continuous
 62
     7
370
    13
100
AcDbMText
 10
10.483356
 20
0.500133
 30
0.0
 40
0.04
 41
0.0
 71
     7
 72
     5
  1
\W1.3552;SIZE
  7
blockfont
 73
     2
 44
0.903614
  0
MTEXT
  5
1E1
330
75
100
AcDbEntity
 67
     1
  8
1
  6
Continuous
 62
     7
370
    13
100
AcDbMText
 10
6.523601
 20
0.315974
 30
0.0
 40
0.08
 41
0.0
 71
     7
 72
     5
  1
\fMonospac821 BT|b0|i0;\W0.7562;BJN
  7
helios
 73
     2
 44
0.903614
  0
MTEXT
  5
1E2
330
75
100
AcDbEntity
 67
     1
  8
1
  6
Continuous
 62
     7
370
    13
100
AcDbMText
 10
7.023601
 20
0.315974
 30
0.0
 40
0.08
 41
0.0
 71
     7
 72
     5
  1
\fMonospac821 BT|b0|i0;\W0.7352;10-16-18
  7
helios
 73
     2
 44
0.903614
  0
MTEXT
  5
1E3
330
75
100
AcDbEntity
 67
     1
  8
1
  6
Continuous
 62
     7
370
    13
100
AcDbMText
 10
7.764226
 20
0.315974
 30
0.0
 40
0.08
 41
0.0
 71
     7
 72
     5
  1
\fMonospac821 BT|b0|i0;\W0.8456;SGO
  7
helios
 73
     2
 44
0.903614
  0
MTEXT
  5
1E4
330
75
100
AcDbEntity
 67
     1
  8
1
  6
Continuous
 62
     7
370
    13
100
AcDbMText
 10
8.363602
 20
0.315974
 30
0.0
 40
0.08
 41
0.0
 71
     7
 72
     5
  1
\fMonospac821 BT|b0|i0;\W0.8201;NONE
  7
helios
 73
     2
 44
0.903614
  0
MTEXT
  5
1E5
330
75
100
AcDbEntity
 67
     1
  8
1
  6
Continuous
 62
     7
370
    13
100
AcDbMText
 10
9.323602
 20
0.315974
 30
0.0
 40
0.08
 41
0.0
 71
     7
 72
     5
  1
\fMonospac821 BT|b0|i0;\W0.7448;SHEET 1 OF 1
  7
helios
 73
     2
 44
0.903614
  0
MTEXT
  5
1E6
330
75
100
AcDbEntity
 67
     1
  8
1
  6
Continuous
 62
     7
370
    13
100
AcDbMText
 10
10.500359
 20
0.258313
 30
0.0
 40
0.15
 41
0.0
 71
     7
 72
     5
  1
\W0.9548;A
  7
blockfont
 73
     2
 44
0.903614
  0
MTEXT
  5
1E7
330
75
100
AcDbEntity
 67
     1
  8
1
  6
Continuous
 62
     7
370
    13
100
AcDbMText
 10
6.019408
 20
7.624923
 30
0.0
 40
0.09
 41
0.0
 71
     7
 72
     5
  1
\W1.1849;NOTES:
  7
blockfont
 73
     2
 44
0.903614
  0
MTEXT
  5
1E8
330
75
100
AcDbEntity
 67
     1
  8
1
  6
Continuous
 62
     7
370
    13
100
AcDbMText
 10
6.019408
 20
7.489923
 30
0.0
 40
0.09
 41
0.0
 71
     7
 72
     5
  1
\W1.2166;1. VISIT OUR ON-LINE CATALOG AT WWW.PANDUIT.COM
  7
blockfont
 73
     2
 44
0.903614
  0
MTEXT
  5
1E9
330
75
100
AcDbEntity
 67
     1
  8
1
  6
Continuous
 62
     7
370
    13
100
AcDbMText
 10
6.019408
 20
7.354923
 30
0.0
 40
0.09
 41
0.0
 71
     7
 72
     5
  1
\W1.1854;   FOR A LIST OF CURRENT PARTS APPLICABLE FOR
  7
blockfont
 73
     2
 44
0.903614
  0
MTEXT
  5
1EA
330
75
100
AcDbEntity
 67
     1
  8
1
  6
Continuous
 62
     7
370
    13
100
AcDbMText
 10
6.019408
 20
7.219923
 30
0.0
 40
0.09
 41
0.0
 71
     7
 72
     5
  1
\W1.2141;   USE WITH THIS PRODUCT.
  7
blockfont
 73
     2
 44
0.903614
  0
MTEXT
  5
1EB
330
75
100
AcDbEntity
 67
     1
  8
1
  6
Continuous
 62
     7
370
    13
100
AcDbMText
 10
6.019408
 20
7.084923
 30
0.0
 40
0.09
 41
0.0
 71
     7
 72
     5
  1
\W1.3029;2. DIMENSIONS IN [] ARE METRIC.
  7
blockfont
 73
     2
 44
0.903614
  0
MTEXT
  5
1EC
330
75
100
AcDbEntity
 67
     1
  8
1
  6
Continuous
 62
     7
370
    13
100
AcDbMText
 10
6.019408
 20
6.949924
 30
0.0
 40
0.09
 41
0.0
 71
     7
 72
     5
  1
\W1.1747;3. ALL MATERIALS AND COMPONENTS USED MEET THE
  7
blockfont
 73
     2
 44
0.903614
  0
MTEXT
  5
1ED
330
75
100
AcDbEntity
 67
     1
  8
1
  6
Continuous
 62
     7
370
    13
100
AcDbMText
 10
6.019408
 20
6.814923
 30
0.0
 40
0.09
 41
0.0
 71
     7
 72
     5
  1
\W1.2034;   MATERIAL RESTRICTIONS OF RoHS (EUROPEAN
  7
blockfont
 73
     2
 44
0.903614
  0
MTEXT
  5
1EE
330
75
100
AcDbEntity
 67
     1
  8
1
  6
Continuous
 62
     7
370
    13
100
AcDbMText
 10
6.019408
 20
6.679924
 30
0.0
 40
0.09
 41
0.0
 71
     7
 72
     5
  1
\W1.2231;   DIRECTIVE 2011/65/EU ON THE RESTRICTION OF
  7
blockfont
 73
     2
 44
0.903614
  0
MTEXT
  5
1EF
330
75
100
AcDbEntity
 67
     1
  8
1
  6
Continuous
 62
     7
370
    13
100
AcDbMText
 10
6.019408
 20
6.544923
 30
0.0
 40
0.09
 41
0.0
 71
     7
 72
     5
  1
\W1.1262;   HAZARDOUS SUBSTANCES) AS PROPOSED BY THE
  7
blockfont
 73
     2
 44
0.903614
  0
MTEXT
  5
1F0
330
75
100
AcDbEntity
 67
     1
  8
1
  6
Continuous
 62
     7
370
    13
100
AcDbMText
 10
6.019408
 20
6.409924
 30
0.0
 40
0.09
 41
0.0
 71
     7
 72
     5
  1
\W1.1914;   RoHS TECHNICAL ADAPTATION COMMITEE.
  7
blockfont
 73
     2
 44
0.903614
  0
MTEXT
  5
1F1
330
75
100
AcDbEntity
 67
     1
  8
1
  6
Continuous
 62
     7
370
    13
100
AcDbMText
 10
6.019408
 20
6.274923
 30
0.0
 40
0.09
 41
0.0
 71
     7
 72
     5
  1
\W1.2359;4. WEIGHT: 27.4oz/EACH [777.3g/EACH]
  7
blockfont
 73
     2
 44
0.903614
  0
MTEXT
  5
1F2
330
75
100
AcDbEntity
 67
     1
  8
1
  6
Continuous
 62
     7
370
    13
100
AcDbMText
 10
4.078815
 20
4.78252
 30
0.0
 40
0.09
 41
0.0
 71
     7
 72
     5
  1
\W1.2011;POEXKIT1-NP CONSISTS OF:
  7
blockfont
 73
     2
 44
0.903614
  0
MTEXT
  5
1F3
330
75
100
AcDbEntity
 67
     1
  8
1
  6
Continuous
 62
     7
370
    13
100
AcDbMText
 10
0.858395
 20
4.60252
 30
0.0
 40
0.09
 41
0.0
 71
     7
 72
     5
  1
\W1.1228;QTY
  7
blockfont
 73
     2
 44
0.903614
  0
MTEXT
  5
1F4
330
75
100
AcDbEntity
 67
     1
  8
1
  6
Continuous
 62
     7
370
    13
100
AcDbMText
 10
1.233249
 20
4.60252
 30
0.0
 40
0.09
 41
0.0
 71
     7
 72
     5
  1
\W1.1315;PANDUIT PART NUMBER
  7
blockfont
 73
     2
 44
0.903614
  0
MTEXT
  5
1F5
330
75
100
AcDbEntity
 67
     1
  8
1
  6
Continuous
 62
     7
370
    13
100
AcDbMText
 10
3.170924
 20
4.60252
 30
0.0
 40
0.09
 41
0.0
 71
     7
 72
     5
  1
\W1.2370;DESCRIPTION
  7
blockfont
 73
     2
 44
0.903614
  0
MTEXT
  5
1F6
330
75
100
AcDbEntity
 67
     1
  8
1
  6
Continuous
 62
     7
370
    13
100
AcDbMText
 10
0.858424
 20
4.42252
 30
0.0
 40
0.09
 41
0.0
 71
     7
 72
     5
  1
\W1.3143;1
  7
blockfont
 73
     2
 44
0.903614
  0
MTEXT
  5
1F7
330
75
100
AcDbEntity
 67
     1
  8
1
  6
Continuous
 62
     7
370
    13
100
AcDbMText
 10
1.233424
 20
4.42252
 30
0.0
 40
0.09
 41
0.0
 71
     7
 72
     5
  1
\W1.1797;POEXTX1
  7
blockfont
 73
     2
 44
0.903614
  0
MTEXT
  5
1F8
330
75
100
AcDbEntity
 67
     1
  8
1
  6
Continuous
 62
     7
370
    13
100
AcDbMText
 10
3.170924
 20
4.42252
 30
0.0
 40
0.09
 41
0.0
 71
     7
 72
     5
  1
\W1.1783;PoE EXTENDER 1-PORT TRANSMITTER
  7
blockfont
 73
     2
 44
0.903614
  0
MTEXT
  5
1F9
330
75
100
AcDbEntity
 67
     1
  8
1
  6
Continuous
 62
     7
370
    13
100
AcDbMText
 10
0.858424
 20
4.24252
 30
0.0
 40
0.09
 41
0.0
 71
     7
 72
     5
  1
\W1.3143;1
  7
blockfont
 73
     2
 44
0.903614
  0
MTEXT
  5
1FA
330
75
100
AcDbEntity
 67
     1
  8
1
  6
Continuous
 62
     7
370
    13
100
AcDbMText
 10
1.233424
 20
4.24252
 30
0.0
 40
0.09
 41
0.0
 71
     7
 72
     5
  1
\W1.1541;POEXRX1
  7
blockfont
 73
     2
 44
0.903614
  0
MTEXT
  5
1FB
330
75
100
AcDbEntity
 67
     1
  8
1
  6
Continuous
 62
     7
370
    13
100
AcDbMText
 10
3.170924
 20
4.24252
 30
0.0
 40
0.09
 41
0.0
 71
     7
 72
     5
  1
\W1.1780;PoE EXTENDER 1-PORT RECEIVER
  7
blockfont
 73
     2
 44
0.903614
  0
MTEXT
  5
1FC
330
75
100
AcDbEntity
 67
     1
  8
1
  6
Continuous
 62
     7
370
    13
100
AcDbMText
 10
0.858424
 20
3.92752
 30
0.0
 40
0.09
 41
0.0
 71
     7
 72
     5
  1
\W1.3143;1
  7
blockfont
 73
     2
 44
0.903614
  0
MTEXT
  5
1FD
330
75
100
AcDbEntity
 67
     1
  8
1
  6
Continuous
 62
     7
370
    13
100
AcDbMText
 10
1.233424
 20
3.92752
 30
0.0
 40
0.09
 41
0.0
 71
     7
 72
     5
  1
\W1.0510;POWER-60W
  7
blockfont
 73
     2
 44
0.903614
  0
MTEXT
  5
1FE
330
75
100
AcDbEntity
 67
     1
  8
1
  6
Continuous
 62
     7
370
    13
100
AcDbMText
 10
3.170924
 20
4.06252
 30
0.0
 40
0.09
 41
0.0
 71
     7
 72
     5
  1
\W1.1293;60 WATT AC-DC POWER SUPPLY.
  7
blockfont
 73
     2
 44
0.903614
  0
MTEXT
  5
1FF
330
75
100
AcDbEntity
 67
     1
  8
1
  6
Continuous
 62
     7
370
    13
100
AcDbMText
 10
3.170924
 20
3.92752
 30
0.0
 40
0.09
 41
0.0
 71
     7
 72
     5
  1
\W1.2124;IN: 100-264VAC 50/60HZ, IEC60320 C14 MALE INLET
  7
blockfont
 73
     2
 44
0.903614
  0
MTEXT
  5
200
330
75
100
AcDbEntity
 67
     1
  8
1
  6
Continuous
 62
     7
370
    13
100
AcDbMText
 10
3.170924
 20
3.79252
 30
0.0
 40
0.09
 41
0.0
 71
     7
 72
     5
  1
\W1.1907;OUT: 55VDC+/-5% 1.1A MAX, CORD WITH 2.1x5.5MM PLUG
  7
blockfont
 73
     2
 44
0.903614
  0
ENDSEC
  0
SECTION
  2
OBJECTS
  0
DICTIONARY
  5
C
330
0
100
AcDbDictionary
281
     1
  3
ACAD_DETAILVIEWSTYLE
350
24A
  3
ACAD_GROUP
350
D
  3
ACAD_LAYOUT
350
1A
  3
ACAD_MATERIAL
350
43
  3
ACAD_MLEADERSTYLE
350
6B
  3
ACAD_MLINESTYLE
350
17
  3
ACAD_PLOTSETTINGS
350
19
  3
ACAD_PLOTSTYLENAME
350
E
  3
ACAD_SCALELIST
350
47
  3
ACAD_SECTIONVIEWSTYLE
350
24B
  3
ACAD_TABLESTYLE
350
69
  3
ACAD_VISUALSTYLE
350
2A
  3
ACDB_RECOMPOSE_DATA
350
247
  3
AcDbVariableDictionary
350
207
  0
DICTIONARY
  5
205
330
8
100
AcDbDictionary
280
     1
281
     1
  3
ACAD_XREC_ROUNDTRIP
360
206
  0
DICTIONARY
  5
203
330
78
100
AcDbDictionary
280
     1
281
     1
  3
ACAD_XREC_ROUNDTRIP
360
204
  0
DICTIONARY
  5
24A
102
{ACAD_REACTORS
330
C
102
}
330
C
100
AcDbDictionary
281
     1
  0
DICTIONARY
  5
D
102
{ACAD_REACTORS
330
C
102
}
330
C
100
AcDbDictionary
281
     1
  0
DICTIONARY
  5
1A
102
{ACAD_REACTORS
330
C
102
}
330
C
100
AcDbDictionary
281
     1
  3
Model
350
22
  3
SHEET 1
350
201
  0
DICTIONARY
  5
43
102
{ACAD_REACTORS
330
C
102
}
330
C
100
AcDbDictionary
281
     1
  3
ByBlock
350
45
  3
ByLayer
350
44
  3
Global
350
46
  0
DICTIONARY
  5
6B
102
{ACAD_REACTORS
330
C
102
}
330
C
100
AcDbDictionary
281
     1
  3
Standard
350
6C
  0
DICTIONARY
  5
17
102
{ACAD_REACTORS
330
C
102
}
330
C
100
AcDbDictionary
281
     1
  3
Standard
350
18
  0
DICTIONARY
  5
19
102
{ACAD_REACTORS
330
C
102
}
330
C
100
AcDbDictionary
281
     1
  0
ACDBDICTIONARYWDFLT
  5
E
102
{ACAD_REACTORS
330
C
102
}
330
C
100
AcDbDictionary
281
     1
  3
Normal
350
F
100
AcDbDictionaryWithDefault
340
F
  0
DICTIONARY
  5
47
102
{ACAD_REACTORS
330
C
102
}
330
C
100
AcDbDictionary
281
     1
  3
A0
350
48
  3
A1
350
49
  3
A2
350
4A
  3
A3
350
4B
  3
A4
350
4C
  3
A5
350
4D
  3
A6
350
4E
  3
A7
350
4F
  3
A8
350
50
  3
A9
350
51
  3
B0
350
52
  3
B1
350
53
  3
B2
350
54
  3
B3
350
55
  3
B4
350
56
  3
B5
350
57
  3
B6
350
58
  3
B7
350
59
  3
B8
350
5A
  3
B9
350
5B
  3
C0
350
5C
  3
C1
350
5D
  3
C2
350
5E
  3
C3
350
5F
  3
C4
350
60
  3
C5
350
61
  3
C6
350
62
  3
C7
350
63
  3
C8
350
64
  3
C9
350
65
  3
D0
350
66
  3
D1
350
67
  3
D2
350
68
  0
DICTIONARY
  5
24B
102
{ACAD_REACTORS
330
C
102
}
330
C
100
AcDbDictionary
281
     1
  0
DICTIONARY
  5
69
102
{ACAD_REACTORS
330
C
102
}
330
C
100
AcDbDictionary
281
     1
  3
Standard
350
6A
  0
DICTIONARY
  5
2A
102
{ACAD_REACTORS
330
C
102
}
330
C
100
AcDbDictionary
281
     1
  3
2dWireframe
350
2F
  3
Basic
350
32
  3
Brighten
350
36
  3
ColorChange
350
3A
  3
Conceptual
350
34
  3
Dim
350
35
  3
EdgeColorOff
350
3D
  3
Facepattern
350
39
  3
Flat
350
2B
  3
FlatWithEdges
350
2C
  3
Gouraud
350
2D
  3
GouraudWithEdges
350
2E
  3
Hidden
350
31
  3
JitterOff
350
3B
  3
Linepattern
350
38
  3
OverhangOff
350
3C
  3
Realistic
350
33
  3
Shaded
350
42
  3
Shaded with edges
350
41
  3
Shades of Gray
350
3E
  3
Sketchy
350
3F
  3
Thicken
350
37
  3
Wireframe
350
30
  3
X-Ray
350
40
  0
XRECORD
  5
247
102
{ACAD_REACTORS
330
C
102
}
330
C
100
AcDbXrecord
280
     1
 90
        1
330
6A
  0
DICTIONARY
  5
207
102
{ACAD_REACTORS
330
C
102
}
330
C
100
AcDbDictionary
281
     1
  3
CANNOSCALE
350
208
  3
CMLEADERSTYLE
350
249
  3
CTABLESTYLE
350
248
  3
MSLTSCALE
350
209
  3
XCLIPFRAME
350
20A
  0
XRECORD
  5
206
102
{ACAD_REACTORS
330
205
102
}
330
205
100
AcDbXrecord
280
     1
102
VTR_0.000_0.000_1.000_1.000_VISUALSTYLE
340
2F
102
VTR_0.000_0.000_1.000_1.000_GRIDDISPLAY
 70
     3
102
VTR_0.000_0.000_1.000_1.000_GRIDMAJOR
 70
     5
102
VTR_0.000_0.000_1.000_1.000_DEFAULTLIGHTING
280
     1
102
VTR_0.000_0.000_1.000_1.000_DEFAULTLIGHTINGTYPE
 70
     1
102
VTR_0.000_0.000_1.000_1.000_BRIGHTNESS
141
0.0
102
VTR_0.000_0.000_1.000_1.000_CONTRAST
142
0.0
  0
XRECORD
  5
204
102
{ACAD_REACTORS
330
203
102
}
330
203
100
AcDbXrecord
280
     1
102
VISUALSTYLE
340
2F
102
GRIDDISPLAY
 70
     2
102
GRIDMAJOR
 70
     5
102
DEFAULTLIGHTING
280
     1
102
DEFAULTLIGHTINGTYPE
 70
     1
102
BRIGHTNESS
141
0.0
102
CONTRAST
142
0.0
102
SUNID
360
0
  0
LAYOUT
  5
22
102
{ACAD_REACTORS
330
1A
102
}
330
1A
100
AcDbPlotSettings
  1

  2
none_device
  4
Letter_(8.50_x_11.00_Inches)
  6

 40
6.35
 41
6.35
 42
6.350005
 43
6.350005
 44
215.9
 45
279.4
 46
0.0
 47
0.0
 48
0.0
 49
0.0
140
0.0
141
0.0
142
1.0
143
1.0
 70
  1712
 72
     0
 73
     0
 74
     0
  7

 75
     0
 76
     0
 77
     2
 78
   300
147
1.0
148
0.0
149
0.0
100
AcDbLayout
  1
Model
 70
     1
 71
     0
 10
-0.5
 20
-0.5
 11
5.0
 21
5.0
 12
0.0
 22
0.0
 32
0.0
 14
-0.5
 24
-0.5
 34
-0.5
 15
5.0
 25
5.0
 35
5.0
146
0.0
 13
0.0
 23
0.0
 33
0.0
 16
1.0
 26
0.0
 36
0.0
 17
0.0
 27
1.0
 37
0.0
 76
     0
330
1F
331
29
  0
LAYOUT
  5
201
102
{ACAD_REACTORS
330
1A
102
}
330
1A
100
AcDbPlotSettings
  1

  2
none_device
  4
ISO_B4_(250.00_x_354.00_MM)
  6

 40
7.5
 41
20.0
 42
7.5
 43
20.0
 44
250.0
 45
354.0
 46
0.0
 47
6.861111
 48
0.0
 49
0.0
140
13.0
141
10.5
142
1.0
143
0.972766
 70
   692
 72
     0
 73
     1
 74
     1
  7

 75
     0
 76
     0
 77
     2
 78
   300
147
1.027997
148
12.7
149
12.7
100
AcDbLayout
  1
SHEET 1
 70
     1
 71
     1
 10
0.0
 20
0.0
 11
11.0
 21
8.5
 12
0.0
 22
0.0
 32
0.0
 14
0.0
 24
0.0
 34
0.0
 15
11.0
 25
8.5
 35
0.0
146
0.0
 13
0.0
 23
0.0
 33
0.0
 16
1.0
 26
0.0
 36
0.0
 17
0.0
 27
1.0
 37
0.0
 76
     0
330
75
331
78
  0
MATERIAL
  5
45
102
{ACAD_REACTORS
330
43
102
}
102
{ACAD_XDICTIONARY
360
23D
102
}
330
43
100
AcDbMaterial
  1
ByBlock
  0
MATERIAL
  5
44
102
{ACAD_REACTORS
330
43
102
}
102
{ACAD_XDICTIONARY
360
23B
102
}
330
43
100
AcDbMaterial
  1
ByLayer
  0
MATERIAL
  5
46
102
{ACAD_REACTORS
330
43
102
}
102
{ACAD_XDICTIONARY
360
23F
102
}
330
43
100
AcDbMaterial
  1
Global
  0
MLEADERSTYLE
  5
6C
102
{ACAD_REACTORS
330
6B
102
}
102
{ACAD_XDICTIONARY
360
245
102
}
330
6B
100
AcDbMLeaderStyle
170
     2
171
     1
172
     0
 90
        2
 40
0.0
 41
0.0
173
     1
 91
-1056964608
340
14
 92
       -2
290
     1
 42
0.09
291
     1
 43
0.36
  3
Standard
341
0
 44
0.18
300

342
11
174
     1
178
     6
175
     1
176
     0
 93
-1056964608
 45
0.18
292
     0
297
     0
 46
0.18
343
0
 94
-1056964608
 47
1.0
 49
1.0
140
1.0
293
     1
141
0.0
294
     1
177
     0
142
1.0
295
     0
296
     0
143
0.125
1001
ACAD_MLEADERVER
1070
     2
  0
MLINESTYLE
  5
18
102
{ACAD_REACTORS
330
17
102
}
330
17
100
AcDbMlineStyle
  2
Standard
 70
     0
  3

 62
   256
 51
90.0
 52
90.0
 71
     2
 49
0.5
 62
   256
  6
BYLAYER
 49
-0.5
 62
   256
  6
BYLAYER
  0
ACDBPLACEHOLDER
  5
F
102
{ACAD_REACTORS
330
E
102
}
330
E
  0
SCALE
  5
48
102
{ACAD_REACTORS
330
47
102
}
330
47
100
AcDbScale
 70
     0
300
1:1
140
1.0
141
1.0
290
     1
  0
SCALE
  5
49
102
{ACAD_REACTORS
330
47
102
}
330
47
100
AcDbScale
 70
     0
300
1:2
140
1.0
141
2.0
290
     0
  0
SCALE
  5
4A
102
{ACAD_REACTORS
330
47
102
}
330
47
100
AcDbScale
 70
     0
300
1:4
140
1.0
141
4.0
290
     0
  0
SCALE
  5
4B
102
{ACAD_REACTORS
330
47
102
}
330
47
100
AcDbScale
 70
     0
300
1:5
140
1.0
141
5.0
290
     0
  0
SCALE
  5
4C
102
{ACAD_REACTORS
330
47
102
}
330
47
100
AcDbScale
 70
     0
300
1:8
140
1.0
141
8.0
290
     0
  0
SCALE
  5
4D
102
{ACAD_REACTORS
330
47
102
}
330
47
100
AcDbScale
 70
     0
300
1:10
140
1.0
141
10.0
290
     0
  0
SCALE
  5
4E
102
{ACAD_REACTORS
330
47
102
}
330
47
100
AcDbScale
 70
     0
300
1:16
140
1.0
141
16.0
290
     0
  0
SCALE
  5
4F
102
{ACAD_REACTORS
330
47
102
}
330
47
100
AcDbScale
 70
     0
300
1:20
140
1.0
141
20.0
290
     0
  0
SCALE
  5
50
102
{ACAD_REACTORS
330
47
102
}
330
47
100
AcDbScale
 70
     0
300
1:30
140
1.0
141
30.0
290
     0
  0
SCALE
  5
51
102
{ACAD_REACTORS
330
47
102
}
330
47
100
AcDbScale
 70
     0
300
1:40
140
1.0
141
40.0
290
     0
  0
SCALE
  5
52
102
{ACAD_REACTORS
330
47
102
}
330
47
100
AcDbScale
 70
     0
300
1:50
140
1.0
141
50.0
290
     0
  0
SCALE
  5
53
102
{ACAD_REACTORS
330
47
102
}
330
47
100
AcDbScale
 70
     0
300
1:100
140
1.0
141
100.0
290
     0
  0
SCALE
  5
54
102
{ACAD_REACTORS
330
47
102
}
330
47
100
AcDbScale
 70
     0
300
2:1
140
2.0
141
1.0
290
     0
  0
SCALE
  5
55
102
{ACAD_REACTORS
330
47
102
}
330
47
100
AcDbScale
 70
     0
300
4:1
140
4.0
141
1.0
290
     0
  0
SCALE
  5
56
102
{ACAD_REACTORS
330
47
102
}
330
47
100
AcDbScale
 70
     0
300
8:1
140
8.0
141
1.0
290
     0
  0
SCALE
  5
57
102
{ACAD_REACTORS
330
47
102
}
330
47
100
AcDbScale
 70
     0
300
10:1
140
10.0
141
1.0
290
     0
  0
SCALE
  5
58
102
{ACAD_REACTORS
330
47
102
}
330
47
100
AcDbScale
 70
     0
300
100:1
140
100.0
141
1.0
290
     0
  0
SCALE
  5
59
102
{ACAD_REACTORS
330
47
102
}
330
47
100
AcDbScale
 70
     0
300
1/128" = 1'-0"
140
0.007812
141
12.0
290
     0
  0
SCALE
  5
5A
102
{ACAD_REACTORS
330
47
102
}
330
47
100
AcDbScale
 70
     0
300
1/64" = 1'-0"
140
0.015625
141
12.0
290
     0
  0
SCALE
  5
5B
102
{ACAD_REACTORS
330
47
102
}
330
47
100
AcDbScale
 70
     0
300
1/32" = 1'-0"
140
0.03125
141
12.0
290
     0
  0
SCALE
  5
5C
102
{ACAD_REACTORS
330
47
102
}
330
47
100
AcDbScale
 70
     0
300
1/16" = 1'-0"
140
0.0625
141
12.0
290
     0
  0
SCALE
  5
5D
102
{ACAD_REACTORS
330
47
102
}
330
47
100
AcDbScale
 70
     0
300
3/32" = 1'-0"
140
0.09375
141
12.0
290
     0
  0
SCALE
  5
5E
102
{ACAD_REACTORS
330
47
102
}
330
47
100
AcDbScale
 70
     0
300
1/8" = 1'-0"
140
0.125
141
12.0
290
     0
  0
SCALE
  5
5F
102
{ACAD_REACTORS
330
47
102
}
330
47
100
AcDbScale
 70
     0
300
3/16" = 1'-0"
140
0.1875
141
12.0
290
     0
  0
SCALE
  5
60
102
{ACAD_REACTORS
330
47
102
}
330
47
100
AcDbScale
 70
     0
300
1/4" = 1'-0"
140
0.25
141
12.0
290
     0
  0
SCALE
  5
61
102
{ACAD_REACTORS
330
47
102
}
330
47
100
AcDbScale
 70
     0
300
3/8" = 1'-0"
140
0.375
141
12.0
290
     0
  0
SCALE
  5
62
102
{ACAD_REACTORS
330
47
102
}
330
47
100
AcDbScale
 70
     0
300
1/2" = 1'-0"
140
0.5
141
12.0
290
     0
  0
SCALE
  5
63
102
{ACAD_REACTORS
330
47
102
}
330
47
100
AcDbScale
 70
     0
300
3/4" = 1'-0"
140
0.75
141
12.0
290
     0
  0
SCALE
  5
64
102
{ACAD_REACTORS
330
47
102
}
330
47
100
AcDbScale
 70
     0
300
1" = 1'-0"
140
1.0
141
12.0
290
     0
  0
SCALE
  5
65
102
{ACAD_REACTORS
330
47
102
}
330
47
100
AcDbScale
 70
     0
300
1-1/2" = 1'-0"
140
1.5
141
12.0
290
     0
  0
SCALE
  5
66
102
{ACAD_REACTORS
330
47
102
}
330
47
100
AcDbScale
 70
     0
300
3" = 1'-0"
140
3.0
141
12.0
290
     0
  0
SCALE
  5
67
102
{ACAD_REACTORS
330
47
102
}
330
47
100
AcDbScale
 70
     0
300
6" = 1'-0"
140
6.0
141
12.0
290
     0
  0
SCALE
  5
68
102
{ACAD_REACTORS
330
47
102
}
330
47
100
AcDbScale
 70
     0
300
1'-0" = 1'-0"
140
12.0
141
12.0
290
     0
  0
TABLESTYLE
  5
6A
102
{ACAD_REACTORS
330
69
102
}
102
{ACAD_XDICTIONARY
360
241
102
}
330
69
100
AcDbTableStyle
  3
Standard
 70
     0
 71
     0
 40
0.06
 41
0.06
280
     0
281
     0
  7
Standard
140
0.18
170
     2
 62
     0
 63
   257
283
     0
274
    -2
284
     1
 64
     0
275
    -2
285
     1
 65
     0
276
    -2
286
     1
 66
     0
277
    -2
287
     1
 67
     0
278
    -2
288
     1
 68
     0
279
    -2
289
     1
 69
     0
  7
Standard
140
0.25
170
     5
 62
     0
 63
   257
283
     0
274
    -2
284
     1
 64
     0
275
    -2
285
     1
 65
     0
276
    -2
286
     1
 66
     0
277
    -2
287
     1
 67
     0
278
    -2
288
     1
 68
     0
279
    -2
289
     1
 69
     0
  7
Standard
140
0.18
170
     5
 62
     0
 63
   257
283
     0
274
    -2
284
     1
 64
     0
275
    -2
285
     1
 65
     0
276
    -2
286
     1
 66
     0
277
    -2
287
     1
 67
     0
278
    -2
288
     1
 68
     0
279
    -2
289
     1
 69
     0
  0
VISUALSTYLE
  5
2F
102
{ACAD_REACTORS
330
2A
102
}
102
{ACAD_XDICTIONARY
360
213
102
}
330
2A
100
AcDbVisualStyle
  2
2dWireframe
 70
     4
 71
     0
 72
     2
 73
     0
 90
        0
 40
0.6
 41
30.0
 62
     5
 63
     7
421
 16777215
 74
     1
 91
        4
 64
     7
 65
   257
 75
     1
175
     1
 42
1.0
 92
        0
 66
   257
 43
1.0
 76
     1
 77
     6
 78
     2
 67
     7
 79
     5
170
     0
171
     0
290
     0
174
     0
 93
        1
 44
0.0
173
     0
291
     0
 45
0.0
1001
ACAD
1000
AcDbSavedByObjectVersion
1070
     0
  0
VISUALSTYLE
  5
32
102
{ACAD_REACTORS
330
2A
102
}
102
{ACAD_XDICTIONARY
360
219
102
}
330
2A
100
AcDbVisualStyle
  2
Basic
 70
     7
 71
     1
 72
     0
 73
     1
 90
        0
 40
0.6
 41
30.0
 62
     5
 63
     7
421
 16777215
 74
     0
 91
        4
 64
     7
 65
   257
 75
     1
175
     1
 42
1.0
 92
        8
 66
     7
 43
1.0
 76
     1
 77
     6
 78
     2
 67
     7
 79
     5
170
     0
171
     0
290
     0
174
     0
 93
        1
 44
0.0
173
     0
291
     1
 45
0.0
1001
ACAD
1000
AcDbSavedByObjectVersion
1070
     0
  0
VISUALSTYLE
  5
36
102
{ACAD_REACTORS
330
2A
102
}
102
{ACAD_XDICTIONARY
360
221
102
}
330
2A
100
AcDbVisualStyle
  2
Brighten
 70
    12
 71
     2
 72
     2
 73
     0
 90
        0
 40
0.6
 41
30.0
 62
     5
 63
     7
421
 16777215
 74
     1
 91
        4
 64
     7
 65
   257
 75
     1
175
     1
 42
1.0
 92
        8
 66
     7
 43
1.0
 76
     1
 77
     6
 78
     2
 67
     7
 79
     5
170
     0
171
     0
290
     0
174
     0
 93
        1
 44
50.0
173
     0
291
     1
 45
0.0
1001
ACAD
1000
AcDbSavedByObjectVersion
1070
     0
  0
VISUALSTYLE
  5
3A
102
{ACAD_REACTORS
330
2A
102
}
102
{ACAD_XDICTIONARY
360
229
102
}
330
2A
100
AcDbVisualStyle
  2
ColorChange
 70
    16
 71
     2
 72
     2
 73
     3
 90
        0
 40
0.6
 41
30.0
 62
     5
 63
     8
421
  8421504
 74
     1
 91
        4
 64
     7
 65
   257
 75
     1
175
     1
 42
1.0
 92
        8
 66
     8
424
  8421504
 43
1.0
 76
     1
 77
     6
 78
     2
 67
     7
 79
     5
170
     0
171
     0
290
     0
174
     0
 93
        1
 44
0.0
173
     0
291
     1
 45
0.0
1001
ACAD
1000
AcDbSavedByObjectVersion
1070
     0
  0
VISUALSTYLE
  5
34
102
{ACAD_REACTORS
330
2A
102
}
102
{ACAD_XDICTIONARY
360
21D
102
}
330
2A
100
AcDbVisualStyle
  2
Conceptual
 70
     9
 71
     3
 72
     2
 73
     0
 90
        0
 40
0.6
 41
30.0
 62
     5
 63
     7
421
 16777215
 74
     2
 91
        2
 64
     7
 65
   257
 75
     1
175
     1
 42
179.0
 92
        8
 66
     7
 43
1.0
 76
     1
 77
     6
 78
     2
 67
     7
 79
     3
170
     0
171
     0
290
     0
174
     0
 93
        1
 44
0.0
173
     0
291
     0
 45
0.0
1001
ACAD
1000
AcDbSavedByObjectVersion
1070
     0
  0
VISUALSTYLE
  5
35
102
{ACAD_REACTORS
330
2A
102
}
102
{ACAD_XDICTIONARY
360
21F
102
}
330
2A
100
AcDbVisualStyle
  2
Dim
 70
    11
 71
     2
 72
     2
 73
     0
 90
        0
 40
0.6
 41
30.0
 62
     5
 63
     7
421
 16777215
 74
     1
 91
        4
 64
     7
 65
   257
 75
     1
175
     1
 42
1.0
 92
        8
 66
     7
 43
1.0
 76
     1
 77
     6
 78
     2
 67
     7
 79
     5
170
     0
171
     0
290
     0
174
     0
 93
        1
 44
-50.0
173
     0
291
     1
 45
0.0
1001
ACAD
1000
AcDbSavedByObjectVersion
1070
     0
  0
VISUALSTYLE
  5
3D
102
{ACAD_REACTORS
330
2A
102
}
102
{ACAD_XDICTIONARY
360
22F
102
}
330
2A
100
AcDbVisualStyle
  2
EdgeColorOff
 70
    22
 71
     2
 72
     2
 73
     0
 90
        0
 40
0.6
 41
30.0
 62
     5
 63
     7
421
 16777215
 74
     1
 91
        4
 64
     7
 65
   257
 75
     1
175
     1
 42
1.0
 92
        8
 66
     7
 43
1.0
 76
     1
 77
     6
 78
     2
 67
     7
 79
     5
170
     0
171
     0
290
     0
174
     0
 93
        1
 44
0.0
173
     0
291
     1
 45
0.0
1001
ACAD
1000
AcDbSavedByObjectVersion
1070
     0
  0
VISUALSTYLE
  5
39
102
{ACAD_REACTORS
330
2A
102
}
102
{ACAD_XDICTIONARY
360
227
102
}
330
2A
100
AcDbVisualStyle
  2
Facepattern
 70
    15
 71
     2
 72
     2
 73
     0
 90
        0
 40
0.6
 41
30.0
 62
     5
 63
     7
421
 16777215
 74
     1
 91
        4
 64
     7
 65
   257
 75
     1
175
     1
 42
1.0
 92
        8
 66
     7
 43
1.0
 76
     1
 77
     6
 78
     2
 67
     7
 79
     5
170
     0
171
     0
290
     0
174
     0
 93
        1
 44
0.0
173
     0
291
     1
 45
0.0
1001
ACAD
1000
AcDbSavedByObjectVersion
1070
     0
  0
VISUALSTYLE
  5
2B
102
{ACAD_REACTORS
330
2A
102
}
102
{ACAD_XDICTIONARY
360
20B
102
}
330
2A
100
AcDbVisualStyle
  2
Flat
 70
     0
 71
     2
 72
     1
 73
     1
 90
        2
 40
0.6
 41
30.0
 62
     5
 63
     7
421
 16777215
 74
     0
 91
        0
 64
     7
 65
   257
 75
     1
175
     1
 42
1.0
 92
        8
 66
     7
 43
1.0
 76
     1
 77
     6
 78
     2
 67
     7
 79
     5
170
     0
171
     0
290
     0
174
     0
 93
       13
 44
0.0
173
     0
291
     1
 45
0.0
1001
ACAD
1000
AcDbSavedByObjectVersion
1070
     0
  0
VISUALSTYLE
  5
2C
102
{ACAD_REACTORS
330
2A
102
}
102
{ACAD_XDICTIONARY
360
20D
102
}
330
2A
100
AcDbVisualStyle
  2
FlatWithEdges
 70
     1
 71
     2
 72
     1
 73
     1
 90
        2
 40
0.6
 41
30.0
 62
     5
 63
     7
421
 16777215
 74
     1
 91
        0
 64
     7
 65
   257
 75
     1
175
     1
 42
1.0
 92
        0
 66
   257
 43
1.0
 76
     1
 77
     6
 78
     2
 67
     7
 79
     5
170
     0
171
     0
290
     0
174
     0
 93
       13
 44
0.0
173
     0
291
     1
 45
0.0
1001
ACAD
1000
AcDbSavedByObjectVersion
1070
     0
  0
VISUALSTYLE
  5
2D
102
{ACAD_REACTORS
330
2A
102
}
102
{ACAD_XDICTIONARY
360
20F
102
}
330
2A
100
AcDbVisualStyle
  2
Gouraud
 70
     2
 71
     2
 72
     2
 73
     1
 90
        2
 40
0.6
 41
30.0
 62
     5
 63
     7
421
 16777215
 74
     0
 91
        0
 64
     7
 65
   257
 75
     1
175
     1
 42
1.0
 92
        0
 66
     7
 43
1.0
 76
     1
 77
     6
 78
     2
 67
     7
 79
     5
170
     0
171
     0
290
     0
174
     0
 93
       13
 44
0.0
173
     0
291
     1
 45
0.0
1001
ACAD
1000
AcDbSavedByObjectVersion
1070
     0
  0
VISUALSTYLE
  5
2E
102
{ACAD_REACTORS
330
2A
102
}
102
{ACAD_XDICTIONARY
360
211
102
}
330
2A
100
AcDbVisualStyle
  2
GouraudWithEdges
 70
     3
 71
     2
 72
     2
 73
     1
 90
        2
 40
0.6
 41
30.0
 62
     5
 63
     7
421
 16777215
 74
     1
 91
        0
 64
     7
 65
   257
 75
     1
175
     1
 42
1.0
 92
        0
 66
   257
 43
1.0
 76
     1
 77
     6
 78
     2
 67
     7
 79
     5
170
     0
171
     0
290
     0
174
     0
 93
       13
 44
0.0
173
     0
291
     1
 45
0.0
1001
ACAD
1000
AcDbSavedByObjectVersion
1070
     0
  0
VISUALSTYLE
  5
31
102
{ACAD_REACTORS
330
2A
102
}
102
{ACAD_XDICTIONARY
360
217
102
}
330
2A
100
AcDbVisualStyle
  2
Hidden
 70
     6
 71
     1
 72
     2
 73
     2
 90
        0
 40
0.6
 41
30.0
 62
     5
 63
     7
421
 16777215
 74
     2
 91
        2
 64
     7
 65
   257
 75
     2
175
     1
 42
40.0
 92
        0
 66
   257
 43
1.0
 76
     1
 77
     6
 78
     2
 67
     7
 79
     3
170
     0
171
     0
290
     0
174
     0
 93
        1
 44
0.0
173
     0
291
     0
 45
0.0
1001
ACAD
1000
AcDbSavedByObjectVersion
1070
     0
  0
VISUALSTYLE
  5
3B
102
{ACAD_REACTORS
330
2A
102
}
102
{ACAD_XDICTIONARY
360
22B
102
}
330
2A
100
AcDbVisualStyle
  2
JitterOff
 70
    20
 71
     2
 72
     2
 73
     0
 90
        0
 40
0.6
 41
30.0
 62
     5
 63
     7
421
 16777215
 74
     1
 91
        4
 64
     7
 65
   257
 75
     1
175
     1
 42
1.0
 92
       10
 66
     7
 43
1.0
 76
     1
 77
     6
 78
     2
 67
     7
 79
     5
170
     0
171
     0
290
     0
174
     0
 93
        1
 44
0.0
173
     0
291
     1
 45
0.0
1001
ACAD
1000
AcDbSavedByObjectVersion
1070
     0
  0
VISUALSTYLE
  5
38
102
{ACAD_REACTORS
330
2A
102
}
102
{ACAD_XDICTIONARY
360
225
102
}
330
2A
100
AcDbVisualStyle
  2
Linepattern
 70
    14
 71
     2
 72
     2
 73
     0
 90
        0
 40
0.6
 41
30.0
 62
     5
 63
     7
421
 16777215
 74
     1
 91
        4
 64
     7
 65
   257
 75
     7
175
     7
 42
1.0
 92
        8
 66
     7
 43
1.0
 76
     1
 77
     6
 78
     2
 67
     7
 79
     5
170
     0
171
     0
290
     0
174
     0
 93
        1
 44
0.0
173
     0
291
     1
 45
0.0
1001
ACAD
1000
AcDbSavedByObjectVersion
1070
     0
  0
VISUALSTYLE
  5
3C
102
{ACAD_REACTORS
330
2A
102
}
102
{ACAD_XDICTIONARY
360
22D
102
}
330
2A
100
AcDbVisualStyle
  2
OverhangOff
 70
    21
 71
     2
 72
     2
 73
     0
 90
        0
 40
0.6
 41
30.0
 62
     5
 63
     7
421
 16777215
 74
     1
 91
        4
 64
     7
 65
   257
 75
     1
175
     1
 42
1.0
 92
        9
 66
     7
 43
1.0
 76
     1
 77
     6
 78
     2
 67
     7
 79
     5
170
     0
171
     0
290
     0
174
     0
 93
        1
 44
0.0
173
     0
291
     1
 45
0.0
1001
ACAD
1000
AcDbSavedByObjectVersion
1070
     0
  0
VISUALSTYLE
  5
33
102
{ACAD_REACTORS
330
2A
102
}
102
{ACAD_XDICTIONARY
360
21B
102
}
330
2A
100
AcDbVisualStyle
  2
Realistic
 70
     8
 71
     2
 72
     3
 73
     0
 90
        2
 40
0.6
 41
30.0
 62
     5
 63
     7
421
 16777215
 74
     0
 91
        0
 64
     7
 65
   257
 75
     1
175
     1
 42
1.0
 92
        8
 66
   257
 43
1.0
 76
     1
 77
     6
 78
     2
 67
     7
 79
     3
170
     0
171
     0
290
     0
174
     0
 93
       13
 44
0.0
173
     0
291
     0
 45
0.0
1001
ACAD
1000
AcDbSavedByObjectVersion
1070
     0
  0
VISUALSTYLE
  5
42
102
{ACAD_REACTORS
330
2A
102
}
102
{ACAD_XDICTIONARY
360
239
102
}
330
2A
100
AcDbVisualStyle
  2
Shaded
 70
    27
 71
     2
 72
     2
 73
     1
 90
        2
 40
0.6
 41
30.0
 62
     5
 63
     7
421
 16777215
 74
     0
 91
        4
 64
     7
 65
   257
 75
     1
175
     1
 42
1.0
 92
        8
 66
   257
 43
1.0
 76
     1
 77
     6
 78
     2
 67
     8
425
  7895160
 79
     3
170
     0
171
     0
290
     0
174
     0
 93
        5
 44
0.0
173
     0
291
     0
 45
0.0
1001
ACAD
1000
AcDbSavedByObjectVersion
1070
     0
  0
VISUALSTYLE
  5
41
102
{ACAD_REACTORS
330
2A
102
}
102
{ACAD_XDICTIONARY
360
237
102
}
330
2A
100
AcDbVisualStyle
  2
Shaded with edges
 70
    26
 71
     2
 72
     2
 73
     1
 90
        2
 40
0.6
 41
30.0
 62
     5
 63
     7
421
 16777215
 74
     1
 91
       10
 64
     7
 65
   257
 75
     2
175
     1
 42
1.0
 92
        8
 66
   257
 43
1.0
 76
     1
 77
     6
 78
     2
 67
     7
 79
     3
170
     0
171
     0
290
     0
174
     0
 93
        5
 44
0.0
173
     0
291
     0
 45
0.0
1001
ACAD
1000
AcDbSavedByObjectVersion
1070
     0
  0
VISUALSTYLE
  5
3E
102
{ACAD_REACTORS
330
2A
102
}
102
{ACAD_XDICTIONARY
360
231
102
}
330
2A
100
AcDbVisualStyle
  2
Shades of Gray
 70
    23
 71
     2
 72
     2
 73
     3
 90
        0
 40
0.6
 41
30.0
 62
     5
 63
     7
421
 16777215
 74
     2
 91
        2
 64
     7
 65
     7
 75
     1
175
     1
 42
40.0
 92
        8
 66
     7
 43
1.0
 76
     1
 77
     6
 78
     2
 67
     7
 79
     3
170
     0
171
     0
290
     0
174
     0
 93
        1
 44
0.0
173
     0
291
     0
 45
0.0
1001
ACAD
1000
AcDbSavedByObjectVersion
1070
     0
  0
VISUALSTYLE
  5
3F
102
{ACAD_REACTORS
330
2A
102
}
102
{ACAD_XDICTIONARY
360
233
102
}
330
2A
100
AcDbVisualStyle
  2
Sketchy
 70
    24
 71
     1
 72
     2
 73
     2
 90
        0
 40
0.6
 41
30.0
 62
     5
 63
     7
421
 16777215
 74
     2
 91
        2
 64
     7
 65
     7
 75
     1
175
     1
 42
40.0
 92
       11
 66
     7
 43
1.0
 76
     1
 77
     6
 78
     2
 67
     7
 79
     6
170
     0
171
     0
290
     0
174
     0
 93
        1
 44
0.0
173
     0
291
     0
 45
0.0
1001
ACAD
1000
AcDbSavedByObjectVersion
1070
     0
  0
VISUALSTYLE
  5
37
102
{ACAD_REACTORS
330
2A
102
}
102
{ACAD_XDICTIONARY
360
223
102
}
330
2A
100
AcDbVisualStyle
  2
Thicken
 70
    13
 71
     2
 72
     2
 73
     0
 90
        0
 40
0.6
 41
30.0
 62
     5
 63
     7
421
 16777215
 74
     1
 91
        4
 64
     7
 65
   257
 75
     1
175
     1
 42
1.0
 92
       12
 66
     7
 43
1.0
 76
     1
 77
     6
 78
     2
 67
     7
 79
     5
170
     0
171
     0
290
     0
174
     0
 93
        1
 44
0.0
173
     0
291
     1
 45
0.0
1001
ACAD
1000
AcDbSavedByObjectVersion
1070
     0
  0
VISUALSTYLE
  5
30
102
{ACAD_REACTORS
330
2A
102
}
102
{ACAD_XDICTIONARY
360
215
102
}
330
2A
100
AcDbVisualStyle
  2
Wireframe
 70
     5
 71
     0
 72
     2
 73
     0
 90
        0
 40
0.6
 41
30.0
 62
     5
 63
     7
421
 16777215
 74
     1
 91
        4
 64
     7
 65
   257
 75
     1
175
     1
 42
1.0
 92
        0
 66
   257
 43
1.0
 76
     1
 77
     6
 78
     2
 67
     7
 79
     3
170
     0
171
     0
290
     0
174
     0
 93
        1
 44
0.0
173
     0
291
     0
 45
0.0
1001
ACAD
1000
AcDbSavedByObjectVersion
1070
     0
  0
VISUALSTYLE
  5
40
102
{ACAD_REACTORS
330
2A
102
}
102
{ACAD_XDICTIONARY
360
235
102
}
330
2A
100
AcDbVisualStyle
  2
X-Ray
 70
    25
 71
     2
 72
     2
 73
     1
 90
        1
 40
0.5
 41
30.0
 62
     5
 63
     7
421
 16777215
 74
     1
 91
        0
 64
     7
 65
   257
 75
     1
175
     1
 42
1.0
 92
        8
 66
     7
 43
1.0
 76
     1
 77
     6
 78
     2
 67
     7
 79
     3
170
     0
171
     0
290
     0
174
     0
 93
       13
 44
0.0
173
     0
291
     0
 45
0.0
1001
ACAD
1000
AcDbSavedByObjectVersion
1070
     0
  0
DICTIONARYVAR
  5
208
102
{ACAD_REACTORS
330
207
102
}
330
207
100
DictionaryVariables
280
     0
  1
1:1
  0
DICTIONARYVAR
  5
249
102
{ACAD_REACTORS
330
207
102
}
330
207
100
DictionaryVariables
280
     0
  1
Standard
  0
DICTIONARYVAR
  5
248
102
{ACAD_REACTORS
330
207
102
}
330
207
100
DictionaryVariables
280
     0
  1
Standard
  0
DICTIONARYVAR
  5
209
102
{ACAD_REACTORS
330
207
102
}
330
207
100
DictionaryVariables
280
     0
  1
1
  0
DICTIONARYVAR
  5
20A
102
{ACAD_REACTORS
330
207
102
}
330
207
100
DictionaryVariables
280
     0
  1
2
  0
DICTIONARY
  5
23D
330
45
100
AcDbDictionary
280
     1
281
     1
  3
ACAD_XREC_ROUNDTRIP
360
23E
  0
DICTIONARY
  5
23B
330
44
100
AcDbDictionary
280
     1
281
     1
  3
ACAD_XREC_ROUNDTRIP
360
23C
  0
DICTIONARY
  5
23F
330
46
100
AcDbDictionary
280
     1
281
     1
  3
ACAD_XREC_ROUNDTRIP
360
240
  0
DICTIONARY
  5
245
330
6C
100
AcDbDictionary
280
     1
281
     1
  3
ACAD_XREC_ROUNDTRIP
360
246
  0
DICTIONARY
  5
241
330
6A
100
AcDbDictionary
280
     1
281
     1
  3
ACAD_ROUNDTRIP_2008_TABLESTYLE_CELLSTYLEMAP
360
243
  3
ACAD_XREC_ROUNDTRIP
360
242
  0
DICTIONARY
  5
213
330
2F
100
AcDbDictionary
280
     1
281
     1
  3
ACAD_XREC_ROUNDTRIP
360
214
  0
DICTIONARY
  5
219
330
32
100
AcDbDictionary
280
     1
281
     1
  3
ACAD_XREC_ROUNDTRIP
360
21A
  0
DICTIONARY
  5
221
330
36
100
AcDbDictionary
280
     1
281
     1
  3
ACAD_XREC_ROUNDTRIP
360
222
  0
DICTIONARY
  5
229
330
3A
100
AcDbDictionary
280
     1
281
     1
  3
ACAD_XREC_ROUNDTRIP
360
22A
  0
DICTIONARY
  5
21D
330
34
100
AcDbDictionary
280
     1
281
     1
  3
ACAD_XREC_ROUNDTRIP
360
21E
  0
DICTIONARY
  5
21F
330
35
100
AcDbDictionary
280
     1
281
     1
  3
ACAD_XREC_ROUNDTRIP
360
220
  0
DICTIONARY
  5
22F
330
3D
100
AcDbDictionary
280
     1
281
     1
  3
ACAD_XREC_ROUNDTRIP
360
230
  0
DICTIONARY
  5
227
330
39
100
AcDbDictionary
280
     1
281
     1
  3
ACAD_XREC_ROUNDTRIP
360
228
  0
DICTIONARY
  5
20B
330
2B
100
AcDbDictionary
280
     1
281
     1
  3
ACAD_XREC_ROUNDTRIP
360
20C
  0
DICTIONARY
  5
20D
330
2C
100
AcDbDictionary
280
     1
281
     1
  3
ACAD_XREC_ROUNDTRIP
360
20E
  0
DICTIONARY
  5
20F
330
2D
100
AcDbDictionary
280
     1
281
     1
  3
ACAD_XREC_ROUNDTRIP
360
210
  0
DICTIONARY
  5
211
330
2E
100
AcDbDictionary
280
     1
281
     1
  3
ACAD_XREC_ROUNDTRIP
360
212
  0
DICTIONARY
  5
217
330
31
100
AcDbDictionary
280
     1
281
     1
  3
ACAD_XREC_ROUNDTRIP
360
218
  0
DICTIONARY
  5
22B
330
3B
100
AcDbDictionary
280
     1
281
     1
  3
ACAD_XREC_ROUNDTRIP
360
22C
  0
DICTIONARY
  5
225
330
38
100
AcDbDictionary
280
     1
281
     1
  3
ACAD_XREC_ROUNDTRIP
360
226
  0
DICTIONARY
  5
22D
330
3C
100
AcDbDictionary
280
     1
281
     1
  3
ACAD_XREC_ROUNDTRIP
360
22E
  0
DICTIONARY
  5
21B
330
33
100
AcDbDictionary
280
     1
281
     1
  3
ACAD_XREC_ROUNDTRIP
360
21C
  0
DICTIONARY
  5
239
330
42
100
AcDbDictionary
280
     1
281
     1
  3
ACAD_XREC_ROUNDTRIP
360
23A
  0
DICTIONARY
  5
237
330
41
100
AcDbDictionary
280
     1
281
     1
  3
ACAD_XREC_ROUNDTRIP
360
238
  0
DICTIONARY
  5
231
330
3E
100
AcDbDictionary
280
     1
281
     1
  3
ACAD_XREC_ROUNDTRIP
360
232
  0
DICTIONARY
  5
233
330
3F
100
AcDbDictionary
280
     1
281
     1
  3
ACAD_XREC_ROUNDTRIP
360
234
  0
DICTIONARY
  5
223
330
37
100
AcDbDictionary
280
     1
281
     1
  3
ACAD_XREC_ROUNDTRIP
360
224
  0
DICTIONARY
  5
215
330
30
100
AcDbDictionary
280
     1
281
     1
  3
ACAD_XREC_ROUNDTRIP
360
216
  0
DICTIONARY
  5
235
330
40
100
AcDbDictionary
280
     1
281
     1
  3
ACAD_XREC_ROUNDTRIP
360
236
  0
XRECORD
  5
23E
102
{ACAD_REACTORS
330
23D
102
}
330
23D
100
AcDbXrecord
280
     1
102
MATERIAL
148
0.0
149
0.0
149
0.0
 93
        0
 94
      127
282
     0
 72
     1
 77
     1
171
     1
175
     1
179
     1
273
     0
  0
XRECORD
  5
23C
102
{ACAD_REACTORS
330
23B
102
}
330
23B
100
AcDbXrecord
280
     1
102
MATERIAL
148
0.0
149
0.0
149
0.0
 93
        0
 94
      127
282
     0
 72
     1
 77
     1
171
     1
175
     1
179
     1
273
     0
  0
XRECORD
  5
240
102
{ACAD_REACTORS
330
23F
102
}
330
23F
100
AcDbXrecord
280
     1
102
MATERIAL
148
0.0
149
0.0
149
0.0
 93
        0
 94
      127
282
     0
 72
     1
 77
     1
171
     1
175
     1
179
     1
273
     0
  0
XRECORD
  5
246
102
{ACAD_REACTORS
330
245
102
}
330
245
100
AcDbXrecord
280
     1
102
ACAD_ROUNDTRIP_2010_MLEADER_STYLE
  0
CELLSTYLEMAP
  5
243
102
{ACAD_REACTORS
330
241
102
}
330
241
100
AcDbCellStyleMap
 90
        3
300
CELLSTYLE
  1
TABLEFORMAT_BEGIN
 90
        5
170
     1
 91
        0
 92
    32768
 62
   257
 93
        1
300
CONTENTFORMAT
  1
CONTENTFORMAT_BEGIN
 90
        0
 91
        0
 92
        4
 93
        0
300

 40
0.0
140
1.0
 94
        5
 62
     0
340
11
144
0.25
309
CONTENTFORMAT_END
171
     1
301
MARGIN
  1
CELLMARGIN_BEGIN
 40
0.06
 40
0.06
 40
0.06
 40
0.06
 40
0.06
 40
0.06
309
CELLMARGIN_END
 94
        6
 95
        1
302
GRIDFORMAT
  1
GRIDFORMAT_BEGIN
 90
        0
 91
        1
 62
     0
 92
       -2
340
14
 93
        0
 40
0.045
309
GRIDFORMAT_END
 95
        2
302
GRIDFORMAT
  1
GRIDFORMAT_BEGIN
 90
        0
 91
        1
 62
     0
 92
       -2
340
14
 93
        0
 40
0.045
309
GRIDFORMAT_END
 95
        4
302
GRIDFORMAT
  1
GRIDFORMAT_BEGIN
 90
        0
 91
        1
 62
     0
 92
       -2
340
14
 93
        0
 40
0.045
309
GRIDFORMAT_END
 95
        8
302
GRIDFORMAT
  1
GRIDFORMAT_BEGIN
 90
        0
 91
        1
 62
     0
 92
       -2
340
14
 93
        0
 40
0.045
309
GRIDFORMAT_END
 95
       16
302
GRIDFORMAT
  1
GRIDFORMAT_BEGIN
 90
        0
 91
        1
 62
     0
 92
       -2
340
14
 93
        0
 40
0.045
309
GRIDFORMAT_END
 95
       32
302
GRIDFORMAT
  1
GRIDFORMAT_BEGIN
 90
        0
 91
        1
 62
     0
 92
       -2
340
14
 93
        0
 40
0.045
309
GRIDFORMAT_END
309
TABLEFORMAT_END
  1
CELLSTYLE_BEGIN
 90
        1
 91
        1
300
_TITLE
309
CELLSTYLE_END
300
CELLSTYLE
  1
TABLEFORMAT_BEGIN
 90
        5
170
     1
 91
        0
 92
        0
 62
   257
 93
        1
300
CONTENTFORMAT
  1
CONTENTFORMAT_BEGIN
 90
        0
 91
        0
 92
        4
 93
        0
300

 40
0.0
140
1.0
 94
        5
 62
     0
340
11
144
0.18
309
CONTENTFORMAT_END
171
     1
301
MARGIN
  1
CELLMARGIN_BEGIN
 40
0.06
 40
0.06
 40
0.06
 40
0.06
 40
0.06
 40
0.06
309
CELLMARGIN_END
 94
        6
 95
        1
302
GRIDFORMAT
  1
GRIDFORMAT_BEGIN
 90
        0
 91
        1
 62
     0
 92
       -2
340
14
 93
        0
 40
0.045
309
GRIDFORMAT_END
 95
        2
302
GRIDFORMAT
  1
GRIDFORMAT_BEGIN
 90
        0
 91
        1
 62
     0
 92
       -2
340
14
 93
        0
 40
0.045
309
GRIDFORMAT_END
 95
        4
302
GRIDFORMAT
  1
GRIDFORMAT_BEGIN
 90
        0
 91
        1
 62
     0
 92
       -2
340
14
 93
        0
 40
0.045
309
GRIDFORMAT_END
 95
        8
302
GRIDFORMAT
  1
GRIDFORMAT_BEGIN
 90
        0
 91
        1
 62
     0
 92
       -2
340
14
 93
        0
 40
0.045
309
GRIDFORMAT_END
 95
       16
302
GRIDFORMAT
  1
GRIDFORMAT_BEGIN
 90
        0
 91
        1
 62
     0
 92
       -2
340
14
 93
        0
 40
0.045
309
GRIDFORMAT_END
 95
       32
302
GRIDFORMAT
  1
GRIDFORMAT_BEGIN
 90
        0
 91
        1
 62
     0
 92
       -2
340
14
 93
        0
 40
0.045
309
GRIDFORMAT_END
309
TABLEFORMAT_END
  1
CELLSTYLE_BEGIN
 90
        2
 91
        1
300
_HEADER
309
CELLSTYLE_END
300
CELLSTYLE
  1
TABLEFORMAT_BEGIN
 90
        5
170
     1
 91
        0
 92
        0
 62
   257
 93
        1
300
CONTENTFORMAT
  1
CONTENTFORMAT_BEGIN
 90
        0
 91
        0
 92
        4
 93
        0
300

 40
0.0
140
1.0
 94
        2
 62
     0
340
11
144
0.18
309
CONTENTFORMAT_END
171
     1
301
MARGIN
  1
CELLMARGIN_BEGIN
 40
0.06
 40
0.06
 40
0.06
 40
0.06
 40
0.06
 40
0.06
309
CELLMARGIN_END
 94
        6
 95
        1
302
GRIDFORMAT
  1
GRIDFORMAT_BEGIN
 90
        0
 91
        1
 62
     0
 92
       -2
340
14
 93
        0
 40
0.045
309
GRIDFORMAT_END
 95
        2
302
GRIDFORMAT
  1
GRIDFORMAT_BEGIN
 90
        0
 91
        1
 62
     0
 92
       -2
340
14
 93
        0
 40
0.045
309
GRIDFORMAT_END
 95
        4
302
GRIDFORMAT
  1
GRIDFORMAT_BEGIN
 90
        0
 91
        1
 62
     0
 92
       -2
340
14
 93
        0
 40
0.045
309
GRIDFORMAT_END
 95
        8
302
GRIDFORMAT
  1
GRIDFORMAT_BEGIN
 90
        0
 91
        1
 62
     0
 92
       -2
340
14
 93
        0
 40
0.045
309
GRIDFORMAT_END
 95
       16
302
GRIDFORMAT
  1
GRIDFORMAT_BEGIN
 90
        0
 91
        1
 62
     0
 92
       -2
340
14
 93
        0
 40
0.045
309
GRIDFORMAT_END
 95
       32
302
GRIDFORMAT
  1
GRIDFORMAT_BEGIN
 90
        0
 91
        1
 62
     0
 92
       -2
340
14
 93
        0
 40
0.045
309
GRIDFORMAT_END
309
TABLEFORMAT_END
  1
CELLSTYLE_BEGIN
 90
        3
 91
        2
300
_DATA
309
CELLSTYLE_END
  0
XRECORD
  5
242
102
{ACAD_REACTORS
330
241
102
}
330
241
100
AcDbXrecord
280
     1
102
ACAD_ROUNDTRIP_PRE2007_TABLESTYLE
 90
        4
 91
        0
  1

 92
        4
 93
        0
  2

 94
        4
 95
        0
  3

  0
XRECORD
  5
214
102
{ACAD_REACTORS
330
213
102
}
330
213
100
AcDbXrecord
280
     1
102
RTVSPropertyOp0
 70
     1
102
RTVSPropertyOp1
 70
     1
102
RTVSPropertyOp2
 70
     1
102
RTVSPropertyOp3
 70
     1
102
RTVSPropertyOp4
 70
     1
102
RTVSPropertyOp5
 70
     1
102
RTVSPropertyOp6
 70
     1
102
RTVSPropertyOp7
 70
     1
102
RTVSPropertyOp8
 70
     1
102
RTVSPropertyOp9
 70
     1
102
RTVSPropertyOp10
 70
     1
102
RTVSPropertyOp11
 70
     1
102
RTVSPropertyOp12
 70
     1
102
RTVSPropertyOp13
 70
     1
102
RTVSPropertyOp14
 70
     1
102
RTVSPropertyOp15
 70
     1
102
RTVSPropertyOp16
 70
     1
102
RTVSPropertyOp17
 70
     1
102
RTVSPropertyOp18
 70
     1
102
RTVSPropertyOp19
 70
     1
102
RTVSPropertyOp20
 70
     1
102
RTVSPropertyOp21
 70
     1
102
RTVSPropertyOp22
 70
     1
102
RTVSPropertyOp23
 70
     1
102
RTVSPropertyOp24
 70
     1
102
RTVSPropertyOp25
 70
     1
102
RTVSPropertyOp26
 70
     1
102
RTVSPropertyOp27
 70
     1
102
RTVSPropertyOp28
 70
     1
102
RTVSPropertyOp29
 70
     1
102
RTVSPropertyOp30
 70
     1
102
RTVSPropertyOp31
 70
     1
102
RTVSPropertyOp32
 70
     1
102
RTVSPropertyOp33
 70
     1
102
RTVSPropertyOp34
 70
     1
102
RTVSPropertyOp35
 70
     1
102
RTVSPropertyOp36
 70
     1
102
RTVSPropertyOp37
 70
     1
102
RTVSPropertyOp38
 70
     1
102
RTVSPropertyOp39
 70
     1
102
RTVSPropertyOp40
 70
     1
102
RTVSPropertyOp41
 70
     1
102
RTVSPropertyOp42
 70
     1
102
RTVSPropertyOp43
 70
     1
102
RTVSPropertyOp44
 70
     1
102
RTVSPropertyOp45
 70
     1
102
RTVSPropertyOp46
 70
     1
102
RTVSPropertyOp47
 70
     1
102
RTVSPropertyOp48
 70
     1
102
RTVSPropertyOp49
 70
     1
102
RTVSPropertyOp50
 70
     1
102
RTVSPropertyOp51
 70
     0
102
RTVSPropertyOp52
 70
     0
102
RTVSPropertyOp53
 70
     1
102
RTVSPropertyOp54
 70
     1
102
RTVSPropertyOp55
 70
     1
102
RTVSPropertyOp56
 70
     1
102
RTVSPropertyOp57
 70
     1
102
RTVSPost2010Prop28
280
     1
102
RTVSPost2010PropOp28
 70
     1
102
RTVSPost2010Prop29
280
     1
102
RTVSPost2010PropOp29
 70
     1
102
RTVSPost2010Prop30
280
     0
102
RTVSPost2010PropOp30
 70
     1
102
RTVSPost2010Prop31
280
     0
102
RTVSPost2010PropOp31
 70
     1
102
RTVSPost2010Prop32
280
     0
102
RTVSPost2010PropOp32
 70
     1
102
RTVSPost2010Prop33
280
     0
102
RTVSPost2010PropOp33
 70
     1
102
RTVSPost2010Prop34
280
     0
102
RTVSPost2010PropOp34
 70
     1
102
RTVSPost2010Prop35
280
     0
102
RTVSPost2010PropOp35
 70
     1
102
RTVSPost2010Prop36
280
     0
102
RTVSPost2010PropOp36
 70
     1
102
RTVSPost2010Prop37
 90
       50
102
RTVSPost2010PropOp37
 70
     1
102
RTVSPost2010Prop38
140
0.0
102
RTVSPost2010PropOp38
 70
     1
102
RTVSPost2010Prop39
140
1.0
102
RTVSPost2010PropOp39
 70
     1
102
RTVSPost2010Prop40
 90
        0
102
RTVSPost2010PropOp40
 70
     1
102
RTVSPost2010Prop41ColorIndex
 90
       18
102
RTVSPost2010Prop41ColorRGB
 90
        0
102
RTVSPost2010PropOp41
 70
     1
102
RTVSPost2010Prop42
 90
       50
102
RTVSPost2010PropOp42
 70
     1
102
RTVSPost2010Prop43
 90
        3
102
RTVSPost2010PropOp43
 70
     1
102
RTVSPost2010Prop44ColorIndex
 90
        5
102
RTVSPost2010Prop44ColorRGB
 90
      255
102
RTVSPost2010PropOp44
 70
     1
102
RTVSPost2010Prop45
280
     0
102
RTVSPost2010PropOp45
 70
     1
102
RTVSPost2010Prop46
 90
       50
102
RTVSPost2010PropOp46
 70
     1
102
RTVSPost2010Prop47
 90
       50
102
RTVSPost2010PropOp47
 70
     1
102
RTVSPost2010Prop48
 90
       50
102
RTVSPost2010PropOp48
 70
     1
102
RTVSPost2010Prop49
280
     0
102
RTVSPost2010PropOp49
 70
     1
102
RTVSPost2010Prop50
 90
       50
102
RTVSPost2010PropOp50
 70
     1
102
RTVSPost2010Prop51ColorIndex
 90
      256
102
RTVSPost2010Prop51ColorRGB
 90
-16777216
102
RTVSPost2010PropOp51
 70
     0
102
RTVSPost2010Prop52
140
1.0
102
RTVSPost2010PropOp52
 70
     0
102
RTVSPost2010Prop53
 90
        2
102
RTVSPost2010PropOp53
 70
     1
102
RTVSPost2010Prop54
  1
strokes_ogs.tif
102
RTVSPost2010PropOp54
 70
     1
102
RTVSPost2010Prop55
280
     0
102
RTVSPost2010PropOp55
 70
     1
102
RTVSPost2010Prop56
140
1.0
102
RTVSPost2010PropOp56
 70
     1
102
RTVSPost2010Prop57
140
1.0
102
RTVSPost2010PropOp57
 70
     1
  0
XRECORD
  5
21A
102
{ACAD_REACTORS
330
219
102
}
330
219
100
AcDbXrecord
280
     1
102
RTVSPropertyOp0
 70
     1
102
RTVSPropertyOp1
 70
     1
102
RTVSPropertyOp2
 70
     1
102
RTVSPropertyOp3
 70
     1
102
RTVSPropertyOp4
 70
     1
102
RTVSPropertyOp5
 70
     1
102
RTVSPropertyOp6
 70
     1
102
RTVSPropertyOp7
 70
     1
102
RTVSPropertyOp8
 70
     1
102
RTVSPropertyOp9
 70
     1
102
RTVSPropertyOp10
 70
     1
102
RTVSPropertyOp11
 70
     1
102
RTVSPropertyOp12
 70
     1
102
RTVSPropertyOp13
 70
     1
102
RTVSPropertyOp14
 70
     1
102
RTVSPropertyOp15
 70
     1
102
RTVSPropertyOp16
 70
     1
102
RTVSPropertyOp17
 70
     1
102
RTVSPropertyOp18
 70
     1
102
RTVSPropertyOp19
 70
     1
102
RTVSPropertyOp20
 70
     1
102
RTVSPropertyOp21
 70
     1
102
RTVSPropertyOp22
 70
     1
102
RTVSPropertyOp23
 70
     1
102
RTVSPropertyOp24
 70
     1
102
RTVSPropertyOp25
 70
     1
102
RTVSPropertyOp26
 70
     1
102
RTVSPropertyOp27
 70
     1
102
RTVSPropertyOp28
 70
     1
102
RTVSPropertyOp29
 70
     1
102
RTVSPropertyOp30
 70
     1
102
RTVSPropertyOp31
 70
     1
102
RTVSPropertyOp32
 70
     1
102
RTVSPropertyOp33
 70
     1
102
RTVSPropertyOp34
 70
     1
102
RTVSPropertyOp35
 70
     1
102
RTVSPropertyOp36
 70
     1
102
RTVSPropertyOp37
 70
     1
102
RTVSPropertyOp38
 70
     1
102
RTVSPropertyOp39
 70
     1
102
RTVSPropertyOp40
 70
     1
102
RTVSPropertyOp41
 70
     1
102
RTVSPropertyOp42
 70
     1
102
RTVSPropertyOp43
 70
     1
102
RTVSPropertyOp44
 70
     1
102
RTVSPropertyOp45
 70
     1
102
RTVSPropertyOp46
 70
     1
102
RTVSPropertyOp47
 70
     1
102
RTVSPropertyOp48
 70
     1
102
RTVSPropertyOp49
 70
     1
102
RTVSPropertyOp50
 70
     1
102
RTVSPropertyOp51
 70
     0
102
RTVSPropertyOp52
 70
     0
102
RTVSPropertyOp53
 70
     1
102
RTVSPropertyOp54
 70
     1
102
RTVSPropertyOp55
 70
     1
102
RTVSPropertyOp56
 70
     1
102
RTVSPropertyOp57
 70
     1
102
RTVSPost2010Prop28
280
     0
102
RTVSPost2010PropOp28
 70
     1
102
RTVSPost2010Prop29
280
     1
102
RTVSPost2010PropOp29
 70
     1
102
RTVSPost2010Prop30
280
     1
102
RTVSPost2010PropOp30
 70
     1
102
RTVSPost2010Prop31
280
     0
102
RTVSPost2010PropOp31
 70
     1
102
RTVSPost2010Prop32
280
     0
102
RTVSPost2010PropOp32
 70
     1
102
RTVSPost2010Prop33
280
     0
102
RTVSPost2010PropOp33
 70
     1
102
RTVSPost2010Prop34
280
     0
102
RTVSPost2010PropOp34
 70
     1
102
RTVSPost2010Prop35
280
     0
102
RTVSPost2010PropOp35
 70
     1
102
RTVSPost2010Prop36
280
     0
102
RTVSPost2010PropOp36
 70
     1
102
RTVSPost2010Prop37
 90
       50
102
RTVSPost2010PropOp37
 70
     1
102
RTVSPost2010Prop38
140
0.0
102
RTVSPost2010PropOp38
 70
     1
102
RTVSPost2010Prop39
140
1.0
102
RTVSPost2010PropOp39
 70
     1
102
RTVSPost2010Prop40
 90
        0
102
RTVSPost2010PropOp40
 70
     1
102
RTVSPost2010Prop41ColorIndex
 90
       18
102
RTVSPost2010Prop41ColorRGB
 90
        0
102
RTVSPost2010PropOp41
 70
     1
102
RTVSPost2010Prop42
 90
       50
102
RTVSPost2010PropOp42
 70
     1
102
RTVSPost2010Prop43
 90
        3
102
RTVSPost2010PropOp43
 70
     1
102
RTVSPost2010Prop44ColorIndex
 90
        5
102
RTVSPost2010Prop44ColorRGB
 90
      255
102
RTVSPost2010PropOp44
 70
     1
102
RTVSPost2010Prop45
280
     0
102
RTVSPost2010PropOp45
 70
     1
102
RTVSPost2010Prop46
 90
       50
102
RTVSPost2010PropOp46
 70
     1
102
RTVSPost2010Prop47
 90
       50
102
RTVSPost2010PropOp47
 70
     1
102
RTVSPost2010Prop48
 90
       50
102
RTVSPost2010PropOp48
 70
     1
102
RTVSPost2010Prop49
280
     0
102
RTVSPost2010PropOp49
 70
     1
102
RTVSPost2010Prop50
 90
       50
102
RTVSPost2010PropOp50
 70
     1
102
RTVSPost2010Prop51ColorIndex
 90
      256
102
RTVSPost2010Prop51ColorRGB
 90
-16777216
102
RTVSPost2010PropOp51
 70
     0
102
RTVSPost2010Prop52
140
1.0
102
RTVSPost2010PropOp52
 70
     0
102
RTVSPost2010Prop53
 90
        2
102
RTVSPost2010PropOp53
 70
     1
102
RTVSPost2010Prop54
  1
strokes_ogs.tif
102
RTVSPost2010PropOp54
 70
     1
102
RTVSPost2010Prop55
280
     0
102
RTVSPost2010PropOp55
 70
     1
102
RTVSPost2010Prop56
140
1.0
102
RTVSPost2010PropOp56
 70
     1
102
RTVSPost2010Prop57
140
1.0
102
RTVSPost2010PropOp57
 70
     1
  0
XRECORD
  5
222
102
{ACAD_REACTORS
330
221
102
}
330
221
100
AcDbXrecord
280
     1
102
RTVSPropertyOp0
 70
     1
102
RTVSPropertyOp1
 70
     1
102
RTVSPropertyOp2
 70
     1
102
RTVSPropertyOp3
 70
     1
102
RTVSPropertyOp4
 70
     1
102
RTVSPropertyOp5
 70
     1
102
RTVSPropertyOp6
 70
     1
102
RTVSPropertyOp7
 70
     1
102
RTVSPropertyOp8
 70
     1
102
RTVSPropertyOp9
 70
     1
102
RTVSPropertyOp10
 70
     1
102
RTVSPropertyOp11
 70
     1
102
RTVSPropertyOp12
 70
     1
102
RTVSPropertyOp13
 70
     1
102
RTVSPropertyOp14
 70
     1
102
RTVSPropertyOp15
 70
     1
102
RTVSPropertyOp16
 70
     1
102
RTVSPropertyOp17
 70
     1
102
RTVSPropertyOp18
 70
     1
102
RTVSPropertyOp19
 70
     1
102
RTVSPropertyOp20
 70
     1
102
RTVSPropertyOp21
 70
     1
102
RTVSPropertyOp22
 70
     1
102
RTVSPropertyOp23
 70
     1
102
RTVSPropertyOp24
 70
     1
102
RTVSPropertyOp25
 70
     1
102
RTVSPropertyOp26
 70
     1
102
RTVSPropertyOp27
 70
     1
102
RTVSPropertyOp28
 70
     1
102
RTVSPropertyOp29
 70
     1
102
RTVSPropertyOp30
 70
     1
102
RTVSPropertyOp31
 70
     1
102
RTVSPropertyOp32
 70
     1
102
RTVSPropertyOp33
 70
     1
102
RTVSPropertyOp34
 70
     1
102
RTVSPropertyOp35
 70
     1
102
RTVSPropertyOp36
 70
     1
102
RTVSPropertyOp37
 70
     1
102
RTVSPropertyOp38
 70
     1
102
RTVSPropertyOp39
 70
     1
102
RTVSPropertyOp40
 70
     1
102
RTVSPropertyOp41
 70
     1
102
RTVSPropertyOp42
 70
     1
102
RTVSPropertyOp43
 70
     1
102
RTVSPropertyOp44
 70
     1
102
RTVSPropertyOp45
 70
     1
102
RTVSPropertyOp46
 70
     1
102
RTVSPropertyOp47
 70
     1
102
RTVSPropertyOp48
 70
     1
102
RTVSPropertyOp49
 70
     1
102
RTVSPropertyOp50
 70
     1
102
RTVSPropertyOp51
 70
     0
102
RTVSPropertyOp52
 70
     0
102
RTVSPropertyOp53
 70
     1
102
RTVSPropertyOp54
 70
     1
102
RTVSPropertyOp55
 70
     1
102
RTVSPropertyOp56
 70
     1
102
RTVSPropertyOp57
 70
     1
102
RTVSPost2010Prop28
280
     0
102
RTVSPost2010PropOp28
 70
     1
102
RTVSPost2010Prop29
280
     1
102
RTVSPost2010PropOp29
 70
     1
102
RTVSPost2010Prop30
280
     1
102
RTVSPost2010PropOp30
 70
     1
102
RTVSPost2010Prop31
280
     0
102
RTVSPost2010PropOp31
 70
     1
102
RTVSPost2010Prop32
280
     0
102
RTVSPost2010PropOp32
 70
     1
102
RTVSPost2010Prop33
280
     0
102
RTVSPost2010PropOp33
 70
     1
102
RTVSPost2010Prop34
280
     0
102
RTVSPost2010PropOp34
 70
     1
102
RTVSPost2010Prop35
280
     0
102
RTVSPost2010PropOp35
 70
     1
102
RTVSPost2010Prop36
280
     0
102
RTVSPost2010PropOp36
 70
     1
102
RTVSPost2010Prop37
 90
       50
102
RTVSPost2010PropOp37
 70
     1
102
RTVSPost2010Prop38
140
0.0
102
RTVSPost2010PropOp38
 70
     1
102
RTVSPost2010Prop39
140
1.0
102
RTVSPost2010PropOp39
 70
     1
102
RTVSPost2010Prop40
 90
        0
102
RTVSPost2010PropOp40
 70
     1
102
RTVSPost2010Prop41ColorIndex
 90
       18
102
RTVSPost2010Prop41ColorRGB
 90
        0
102
RTVSPost2010PropOp41
 70
     1
102
RTVSPost2010Prop42
 90
       50
102
RTVSPost2010PropOp42
 70
     1
102
RTVSPost2010Prop43
 90
        3
102
RTVSPost2010PropOp43
 70
     1
102
RTVSPost2010Prop44ColorIndex
 90
        5
102
RTVSPost2010Prop44ColorRGB
 90
      255
102
RTVSPost2010PropOp44
 70
     1
102
RTVSPost2010Prop45
280
     0
102
RTVSPost2010PropOp45
 70
     1
102
RTVSPost2010Prop46
 90
       50
102
RTVSPost2010PropOp46
 70
     1
102
RTVSPost2010Prop47
 90
       50
102
RTVSPost2010PropOp47
 70
     1
102
RTVSPost2010Prop48
 90
       50
102
RTVSPost2010PropOp48
 70
     1
102
RTVSPost2010Prop49
280
     0
102
RTVSPost2010PropOp49
 70
     1
102
RTVSPost2010Prop50
 90
       50
102
RTVSPost2010PropOp50
 70
     1
102
RTVSPost2010Prop51ColorIndex
 90
      256
102
RTVSPost2010Prop51ColorRGB
 90
-16777216
102
RTVSPost2010PropOp51
 70
     0
102
RTVSPost2010Prop52
140
1.0
102
RTVSPost2010PropOp52
 70
     0
102
RTVSPost2010Prop53
 90
        2
102
RTVSPost2010PropOp53
 70
     1
102
RTVSPost2010Prop54
  1
strokes_ogs.tif
102
RTVSPost2010PropOp54
 70
     1
102
RTVSPost2010Prop55
280
     0
102
RTVSPost2010PropOp55
 70
     1
102
RTVSPost2010Prop56
140
1.0
102
RTVSPost2010PropOp56
 70
     1
102
RTVSPost2010Prop57
140
1.0
102
RTVSPost2010PropOp57
 70
     1
  0
XRECORD
  5
22A
102
{ACAD_REACTORS
330
229
102
}
330
229
100
AcDbXrecord
280
     1
102
RTVSPropertyOp0
 70
     1
102
RTVSPropertyOp1
 70
     1
102
RTVSPropertyOp2
 70
     1
102
RTVSPropertyOp3
 70
     1
102
RTVSPropertyOp4
 70
     1
102
RTVSPropertyOp5
 70
     1
102
RTVSPropertyOp6
 70
     1
102
RTVSPropertyOp7
 70
     1
102
RTVSPropertyOp8
 70
     1
102
RTVSPropertyOp9
 70
     1
102
RTVSPropertyOp10
 70
     1
102
RTVSPropertyOp11
 70
     1
102
RTVSPropertyOp12
 70
     1
102
RTVSPropertyOp13
 70
     1
102
RTVSPropertyOp14
 70
     1
102
RTVSPropertyOp15
 70
     1
102
RTVSPropertyOp16
 70
     1
102
RTVSPropertyOp17
 70
     1
102
RTVSPropertyOp18
 70
     1
102
RTVSPropertyOp19
 70
     1
102
RTVSPropertyOp20
 70
     1
102
RTVSPropertyOp21
 70
     1
102
RTVSPropertyOp22
 70
     1
102
RTVSPropertyOp23
 70
     1
102
RTVSPropertyOp24
 70
     1
102
RTVSPropertyOp25
 70
     1
102
RTVSPropertyOp26
 70
     1
102
RTVSPropertyOp27
 70
     1
102
RTVSPropertyOp28
 70
     1
102
RTVSPropertyOp29
 70
     1
102
RTVSPropertyOp30
 70
     1
102
RTVSPropertyOp31
 70
     1
102
RTVSPropertyOp32
 70
     1
102
RTVSPropertyOp33
 70
     1
102
RTVSPropertyOp34
 70
     1
102
RTVSPropertyOp35
 70
     1
102
RTVSPropertyOp36
 70
     1
102
RTVSPropertyOp37
 70
     1
102
RTVSPropertyOp38
 70
     1
102
RTVSPropertyOp39
 70
     1
102
RTVSPropertyOp40
 70
     1
102
RTVSPropertyOp41
 70
     1
102
RTVSPropertyOp42
 70
     1
102
RTVSPropertyOp43
 70
     1
102
RTVSPropertyOp44
 70
     1
102
RTVSPropertyOp45
 70
     1
102
RTVSPropertyOp46
 70
     1
102
RTVSPropertyOp47
 70
     1
102
RTVSPropertyOp48
 70
     1
102
RTVSPropertyOp49
 70
     1
102
RTVSPropertyOp50
 70
     1
102
RTVSPropertyOp51
 70
     0
102
RTVSPropertyOp52
 70
     0
102
RTVSPropertyOp53
 70
     1
102
RTVSPropertyOp54
 70
     1
102
RTVSPropertyOp55
 70
     1
102
RTVSPropertyOp56
 70
     1
102
RTVSPropertyOp57
 70
     1
102
RTVSPost2010Prop28
280
     0
102
RTVSPost2010PropOp28
 70
     1
102
RTVSPost2010Prop29
280
     1
102
RTVSPost2010PropOp29
 70
     1
102
RTVSPost2010Prop30
280
     1
102
RTVSPost2010PropOp30
 70
     1
102
RTVSPost2010Prop31
280
     0
102
RTVSPost2010PropOp31
 70
     1
102
RTVSPost2010Prop32
280
     0
102
RTVSPost2010PropOp32
 70
     1
102
RTVSPost2010Prop33
280
     0
102
RTVSPost2010PropOp33
 70
     1
102
RTVSPost2010Prop34
280
     0
102
RTVSPost2010PropOp34
 70
     1
102
RTVSPost2010Prop35
280
     0
102
RTVSPost2010PropOp35
 70
     1
102
RTVSPost2010Prop36
280
     0
102
RTVSPost2010PropOp36
 70
     1
102
RTVSPost2010Prop37
 90
       50
102
RTVSPost2010PropOp37
 70
     1
102
RTVSPost2010Prop38
140
0.0
102
RTVSPost2010PropOp38
 70
     1
102
RTVSPost2010Prop39
140
1.0
102
RTVSPost2010PropOp39
 70
     1
102
RTVSPost2010Prop40
 90
        0
102
RTVSPost2010PropOp40
 70
     1
102
RTVSPost2010Prop41ColorIndex
 90
       18
102
RTVSPost2010Prop41ColorRGB
 90
        0
102
RTVSPost2010PropOp41
 70
     1
102
RTVSPost2010Prop42
 90
       50
102
RTVSPost2010PropOp42
 70
     1
102
RTVSPost2010Prop43
 90
        3
102
RTVSPost2010PropOp43
 70
     1
102
RTVSPost2010Prop44ColorIndex
 90
        5
102
RTVSPost2010Prop44ColorRGB
 90
      255
102
RTVSPost2010PropOp44
 70
     1
102
RTVSPost2010Prop45
280
     0
102
RTVSPost2010PropOp45
 70
     1
102
RTVSPost2010Prop46
 90
       50
102
RTVSPost2010PropOp46
 70
     1
102
RTVSPost2010Prop47
 90
       50
102
RTVSPost2010PropOp47
 70
     1
102
RTVSPost2010Prop48
 90
       50
102
RTVSPost2010PropOp48
 70
     1
102
RTVSPost2010Prop49
280
     0
102
RTVSPost2010PropOp49
 70
     1
102
RTVSPost2010Prop50
 90
       50
102
RTVSPost2010PropOp50
 70
     1
102
RTVSPost2010Prop51ColorIndex
 90
      256
102
RTVSPost2010Prop51ColorRGB
 90
-16777216
102
RTVSPost2010PropOp51
 70
     0
102
RTVSPost2010Prop52
140
1.0
102
RTVSPost2010PropOp52
 70
     0
102
RTVSPost2010Prop53
 90
        2
102
RTVSPost2010PropOp53
 70
     1
102
RTVSPost2010Prop54
  1
strokes_ogs.tif
102
RTVSPost2010PropOp54
 70
     1
102
RTVSPost2010Prop55
280
     0
102
RTVSPost2010PropOp55
 70
     1
102
RTVSPost2010Prop56
140
1.0
102
RTVSPost2010PropOp56
 70
     1
102
RTVSPost2010Prop57
140
1.0
102
RTVSPost2010PropOp57
 70
     1
  0
XRECORD
  5
21E
102
{ACAD_REACTORS
330
21D
102
}
330
21D
100
AcDbXrecord
280
     1
102
RTVSPropertyOp0
 70
     1
102
RTVSPropertyOp1
 70
     1
102
RTVSPropertyOp2
 70
     1
102
RTVSPropertyOp3
 70
     1
102
RTVSPropertyOp4
 70
     1
102
RTVSPropertyOp5
 70
     1
102
RTVSPropertyOp6
 70
     1
102
RTVSPropertyOp7
 70
     1
102
RTVSPropertyOp8
 70
     1
102
RTVSPropertyOp9
 70
     1
102
RTVSPropertyOp10
 70
     1
102
RTVSPropertyOp11
 70
     1
102
RTVSPropertyOp12
 70
     1
102
RTVSPropertyOp13
 70
     1
102
RTVSPropertyOp14
 70
     1
102
RTVSPropertyOp15
 70
     1
102
RTVSPropertyOp16
 70
     1
102
RTVSPropertyOp17
 70
     1
102
RTVSPropertyOp18
 70
     1
102
RTVSPropertyOp19
 70
     1
102
RTVSPropertyOp20
 70
     1
102
RTVSPropertyOp21
 70
     1
102
RTVSPropertyOp22
 70
     1
102
RTVSPropertyOp23
 70
     1
102
RTVSPropertyOp24
 70
     1
102
RTVSPropertyOp25
 70
     1
102
RTVSPropertyOp26
 70
     1
102
RTVSPropertyOp27
 70
     1
102
RTVSPropertyOp28
 70
     1
102
RTVSPropertyOp29
 70
     1
102
RTVSPropertyOp30
 70
     1
102
RTVSPropertyOp31
 70
     1
102
RTVSPropertyOp32
 70
     1
102
RTVSPropertyOp33
 70
     1
102
RTVSPropertyOp34
 70
     1
102
RTVSPropertyOp35
 70
     1
102
RTVSPropertyOp36
 70
     1
102
RTVSPropertyOp37
 70
     1
102
RTVSPropertyOp38
 70
     1
102
RTVSPropertyOp39
 70
     1
102
RTVSPropertyOp40
 70
     1
102
RTVSPropertyOp41
 70
     1
102
RTVSPropertyOp42
 70
     1
102
RTVSPropertyOp43
 70
     1
102
RTVSPropertyOp44
 70
     1
102
RTVSPropertyOp45
 70
     1
102
RTVSPropertyOp46
 70
     1
102
RTVSPropertyOp47
 70
     1
102
RTVSPropertyOp48
 70
     1
102
RTVSPropertyOp49
 70
     1
102
RTVSPropertyOp50
 70
     1
102
RTVSPropertyOp51
 70
     0
102
RTVSPropertyOp52
 70
     0
102
RTVSPropertyOp53
 70
     1
102
RTVSPropertyOp54
 70
     1
102
RTVSPropertyOp55
 70
     1
102
RTVSPropertyOp56
 70
     1
102
RTVSPropertyOp57
 70
     1
102
RTVSPost2010Prop28
280
     0
102
RTVSPost2010PropOp28
 70
     1
102
RTVSPost2010Prop29
280
     1
102
RTVSPost2010PropOp29
 70
     1
102
RTVSPost2010Prop30
280
     1
102
RTVSPost2010PropOp30
 70
     1
102
RTVSPost2010Prop31
280
     0
102
RTVSPost2010PropOp31
 70
     1
102
RTVSPost2010Prop32
280
     0
102
RTVSPost2010PropOp32
 70
     1
102
RTVSPost2010Prop33
280
     0
102
RTVSPost2010PropOp33
 70
     1
102
RTVSPost2010Prop34
280
     0
102
RTVSPost2010PropOp34
 70
     1
102
RTVSPost2010Prop35
280
     0
102
RTVSPost2010PropOp35
 70
     1
102
RTVSPost2010Prop36
280
     0
102
RTVSPost2010PropOp36
 70
     1
102
RTVSPost2010Prop37
 90
       50
102
RTVSPost2010PropOp37
 70
     1
102
RTVSPost2010Prop38
140
0.0
102
RTVSPost2010PropOp38
 70
     1
102
RTVSPost2010Prop39
140
1.0
102
RTVSPost2010PropOp39
 70
     1
102
RTVSPost2010Prop40
 90
        0
102
RTVSPost2010PropOp40
 70
     1
102
RTVSPost2010Prop41ColorIndex
 90
       18
102
RTVSPost2010Prop41ColorRGB
 90
        0
102
RTVSPost2010PropOp41
 70
     1
102
RTVSPost2010Prop42
 90
       50
102
RTVSPost2010PropOp42
 70
     1
102
RTVSPost2010Prop43
 90
        3
102
RTVSPost2010PropOp43
 70
     1
102
RTVSPost2010Prop44ColorIndex
 90
        5
102
RTVSPost2010Prop44ColorRGB
 90
      255
102
RTVSPost2010PropOp44
 70
     1
102
RTVSPost2010Prop45
280
     0
102
RTVSPost2010PropOp45
 70
     1
102
RTVSPost2010Prop46
 90
       50
102
RTVSPost2010PropOp46
 70
     1
102
RTVSPost2010Prop47
 90
       50
102
RTVSPost2010PropOp47
 70
     1
102
RTVSPost2010Prop48
 90
       50
102
RTVSPost2010PropOp48
 70
     1
102
RTVSPost2010Prop49
280
     0
102
RTVSPost2010PropOp49
 70
     1
102
RTVSPost2010Prop50
 90
       50
102
RTVSPost2010PropOp50
 70
     1
102
RTVSPost2010Prop51ColorIndex
 90
      256
102
RTVSPost2010Prop51ColorRGB
 90
-16777216
102
RTVSPost2010PropOp51
 70
     0
102
RTVSPost2010Prop52
140
1.0
102
RTVSPost2010PropOp52
 70
     0
102
RTVSPost2010Prop53
 90
        2
102
RTVSPost2010PropOp53
 70
     1
102
RTVSPost2010Prop54
  1
strokes_ogs.tif
102
RTVSPost2010PropOp54
 70
     1
102
RTVSPost2010Prop55
280
     0
102
RTVSPost2010PropOp55
 70
     1
102
RTVSPost2010Prop56
140
1.0
102
RTVSPost2010PropOp56
 70
     1
102
RTVSPost2010Prop57
140
1.0
102
RTVSPost2010PropOp57
 70
     1
  0
XRECORD
  5
220
102
{ACAD_REACTORS
330
21F
102
}
330
21F
100
AcDbXrecord
280
     1
102
RTVSPropertyOp0
 70
     1
102
RTVSPropertyOp1
 70
     1
102
RTVSPropertyOp2
 70
     1
102
RTVSPropertyOp3
 70
     1
102
RTVSPropertyOp4
 70
     1
102
RTVSPropertyOp5
 70
     1
102
RTVSPropertyOp6
 70
     1
102
RTVSPropertyOp7
 70
     1
102
RTVSPropertyOp8
 70
     1
102
RTVSPropertyOp9
 70
     1
102
RTVSPropertyOp10
 70
     1
102
RTVSPropertyOp11
 70
     1
102
RTVSPropertyOp12
 70
     1
102
RTVSPropertyOp13
 70
     1
102
RTVSPropertyOp14
 70
     1
102
RTVSPropertyOp15
 70
     1
102
RTVSPropertyOp16
 70
     1
102
RTVSPropertyOp17
 70
     1
102
RTVSPropertyOp18
 70
     1
102
RTVSPropertyOp19
 70
     1
102
RTVSPropertyOp20
 70
     1
102
RTVSPropertyOp21
 70
     1
102
RTVSPropertyOp22
 70
     1
102
RTVSPropertyOp23
 70
     1
102
RTVSPropertyOp24
 70
     1
102
RTVSPropertyOp25
 70
     1
102
RTVSPropertyOp26
 70
     1
102
RTVSPropertyOp27
 70
     1
102
RTVSPropertyOp28
 70
     1
102
RTVSPropertyOp29
 70
     1
102
RTVSPropertyOp30
 70
     1
102
RTVSPropertyOp31
 70
     1
102
RTVSPropertyOp32
 70
     1
102
RTVSPropertyOp33
 70
     1
102
RTVSPropertyOp34
 70
     1
102
RTVSPropertyOp35
 70
     1
102
RTVSPropertyOp36
 70
     1
102
RTVSPropertyOp37
 70
     1
102
RTVSPropertyOp38
 70
     1
102
RTVSPropertyOp39
 70
     1
102
RTVSPropertyOp40
 70
     1
102
RTVSPropertyOp41
 70
     1
102
RTVSPropertyOp42
 70
     1
102
RTVSPropertyOp43
 70
     1
102
RTVSPropertyOp44
 70
     1
102
RTVSPropertyOp45
 70
     1
102
RTVSPropertyOp46
 70
     1
102
RTVSPropertyOp47
 70
     1
102
RTVSPropertyOp48
 70
     1
102
RTVSPropertyOp49
 70
     1
102
RTVSPropertyOp50
 70
     1
102
RTVSPropertyOp51
 70
     0
102
RTVSPropertyOp52
 70
     0
102
RTVSPropertyOp53
 70
     1
102
RTVSPropertyOp54
 70
     1
102
RTVSPropertyOp55
 70
     1
102
RTVSPropertyOp56
 70
     1
102
RTVSPropertyOp57
 70
     1
102
RTVSPost2010Prop28
280
     0
102
RTVSPost2010PropOp28
 70
     1
102
RTVSPost2010Prop29
280
     1
102
RTVSPost2010PropOp29
 70
     1
102
RTVSPost2010Prop30
280
     1
102
RTVSPost2010PropOp30
 70
     1
102
RTVSPost2010Prop31
280
     0
102
RTVSPost2010PropOp31
 70
     1
102
RTVSPost2010Prop32
280
     0
102
RTVSPost2010PropOp32
 70
     1
102
RTVSPost2010Prop33
280
     0
102
RTVSPost2010PropOp33
 70
     1
102
RTVSPost2010Prop34
280
     0
102
RTVSPost2010PropOp34
 70
     1
102
RTVSPost2010Prop35
280
     0
102
RTVSPost2010PropOp35
 70
     1
102
RTVSPost2010Prop36
280
     0
102
RTVSPost2010PropOp36
 70
     1
102
RTVSPost2010Prop37
 90
       50
102
RTVSPost2010PropOp37
 70
     1
102
RTVSPost2010Prop38
140
0.0
102
RTVSPost2010PropOp38
 70
     1
102
RTVSPost2010Prop39
140
1.0
102
RTVSPost2010PropOp39
 70
     1
102
RTVSPost2010Prop40
 90
        0
102
RTVSPost2010PropOp40
 70
     1
102
RTVSPost2010Prop41ColorIndex
 90
       18
102
RTVSPost2010Prop41ColorRGB
 90
        0
102
RTVSPost2010PropOp41
 70
     1
102
RTVSPost2010Prop42
 90
       50
102
RTVSPost2010PropOp42
 70
     1
102
RTVSPost2010Prop43
 90
        3
102
RTVSPost2010PropOp43
 70
     1
102
RTVSPost2010Prop44ColorIndex
 90
        5
102
RTVSPost2010Prop44ColorRGB
 90
      255
102
RTVSPost2010PropOp44
 70
     1
102
RTVSPost2010Prop45
280
     0
102
RTVSPost2010PropOp45
 70
     1
102
RTVSPost2010Prop46
 90
       50
102
RTVSPost2010PropOp46
 70
     1
102
RTVSPost2010Prop47
 90
       50
102
RTVSPost2010PropOp47
 70
     1
102
RTVSPost2010Prop48
 90
       50
102
RTVSPost2010PropOp48
 70
     1
102
RTVSPost2010Prop49
280
     0
102
RTVSPost2010PropOp49
 70
     1
102
RTVSPost2010Prop50
 90
       50
102
RTVSPost2010PropOp50
 70
     1
102
RTVSPost2010Prop51ColorIndex
 90
      256
102
RTVSPost2010Prop51ColorRGB
 90
-16777216
102
RTVSPost2010PropOp51
 70
     0
102
RTVSPost2010Prop52
140
1.0
102
RTVSPost2010PropOp52
 70
     0
102
RTVSPost2010Prop53
 90
        2
102
RTVSPost2010PropOp53
 70
     1
102
RTVSPost2010Prop54
  1
strokes_ogs.tif
102
RTVSPost2010PropOp54
 70
     1
102
RTVSPost2010Prop55
280
     0
102
RTVSPost2010PropOp55
 70
     1
102
RTVSPost2010Prop56
140
1.0
102
RTVSPost2010PropOp56
 70
     1
102
RTVSPost2010Prop57
140
1.0
102
RTVSPost2010PropOp57
 70
     1
  0
XRECORD
  5
230
102
{ACAD_REACTORS
330
22F
102
}
330
22F
100
AcDbXrecord
280
     1
102
RTVSPropertyOp0
 70
     0
102
RTVSPropertyOp1
 70
     0
102
RTVSPropertyOp2
 70
     0
102
RTVSPropertyOp3
 70
     0
102
RTVSPropertyOp4
 70
     0
102
RTVSPropertyOp5
 70
     0
102
RTVSPropertyOp6
 70
     0
102
RTVSPropertyOp7
 70
     0
102
RTVSPropertyOp8
 70
     0
102
RTVSPropertyOp9
 70
     0
102
RTVSPropertyOp10
 70
     0
102
RTVSPropertyOp11
 70
     0
102
RTVSPropertyOp12
 70
     0
102
RTVSPropertyOp13
 70
     0
102
RTVSPropertyOp14
 70
     2
102
RTVSPropertyOp15
 70
     0
102
RTVSPropertyOp16
 70
     0
102
RTVSPropertyOp17
 70
     0
102
RTVSPropertyOp18
 70
     0
102
RTVSPropertyOp19
 70
     0
102
RTVSPropertyOp20
 70
     0
102
RTVSPropertyOp21
 70
     0
102
RTVSPropertyOp22
 70
     0
102
RTVSPropertyOp23
 70
     0
102
RTVSPropertyOp24
 70
     0
102
RTVSPropertyOp25
 70
     0
102
RTVSPropertyOp26
 70
     0
102
RTVSPropertyOp27
 70
     0
102
RTVSPropertyOp28
 70
     0
102
RTVSPropertyOp29
 70
     0
102
RTVSPropertyOp30
 70
     0
102
RTVSPropertyOp31
 70
     0
102
RTVSPropertyOp32
 70
     0
102
RTVSPropertyOp33
 70
     0
102
RTVSPropertyOp34
 70
     0
102
RTVSPropertyOp35
 70
     0
102
RTVSPropertyOp36
 70
     0
102
RTVSPropertyOp37
 70
     0
102
RTVSPropertyOp38
 70
     0
102
RTVSPropertyOp39
 70
     0
102
RTVSPropertyOp40
 70
     0
102
RTVSPropertyOp41
 70
     0
102
RTVSPropertyOp42
 70
     0
102
RTVSPropertyOp43
 70
     0
102
RTVSPropertyOp44
 70
     0
102
RTVSPropertyOp45
 70
     0
102
RTVSPropertyOp46
 70
     0
102
RTVSPropertyOp47
 70
     0
102
RTVSPropertyOp48
 70
     0
102
RTVSPropertyOp49
 70
     0
102
RTVSPropertyOp50
 70
     0
102
RTVSPropertyOp51
 70
     0
102
RTVSPropertyOp52
 70
     0
102
RTVSPropertyOp53
 70
     0
102
RTVSPropertyOp54
 70
     0
102
RTVSPropertyOp55
 70
     0
102
RTVSPropertyOp56
 70
     0
102
RTVSPropertyOp57
 70
     0
102
RTVSPost2010Prop28
280
     0
102
RTVSPost2010PropOp28
 70
     0
102
RTVSPost2010Prop29
280
     1
102
RTVSPost2010PropOp29
 70
     0
102
RTVSPost2010Prop30
280
     1
102
RTVSPost2010PropOp30
 70
     0
102
RTVSPost2010Prop31
280
     0
102
RTVSPost2010PropOp31
 70
     0
102
RTVSPost2010Prop32
280
     0
102
RTVSPost2010PropOp32
 70
     0
102
RTVSPost2010Prop33
280
     0
102
RTVSPost2010PropOp33
 70
     0
102
RTVSPost2010Prop34
280
     0
102
RTVSPost2010PropOp34
 70
     0
102
RTVSPost2010Prop35
280
     0
102
RTVSPost2010PropOp35
 70
     0
102
RTVSPost2010Prop36
280
     0
102
RTVSPost2010PropOp36
 70
     0
102
RTVSPost2010Prop37
 90
       50
102
RTVSPost2010PropOp37
 70
     0
102
RTVSPost2010Prop38
140
0.0
102
RTVSPost2010PropOp38
 70
     0
102
RTVSPost2010Prop39
140
1.0
102
RTVSPost2010PropOp39
 70
     0
102
RTVSPost2010Prop40
 90
        0
102
RTVSPost2010PropOp40
 70
     0
102
RTVSPost2010Prop41ColorIndex
 90
       18
102
RTVSPost2010Prop41ColorRGB
 90
        0
102
RTVSPost2010PropOp41
 70
     0
102
RTVSPost2010Prop42
 90
       50
102
RTVSPost2010PropOp42
 70
     0
102
RTVSPost2010Prop43
 90
        3
102
RTVSPost2010PropOp43
 70
     0
102
RTVSPost2010Prop44ColorIndex
 90
        5
102
RTVSPost2010Prop44ColorRGB
 90
      255
102
RTVSPost2010PropOp44
 70
     0
102
RTVSPost2010Prop45
280
     0
102
RTVSPost2010PropOp45
 70
     0
102
RTVSPost2010Prop46
 90
       50
102
RTVSPost2010PropOp46
 70
     0
102
RTVSPost2010Prop47
 90
       50
102
RTVSPost2010PropOp47
 70
     0
102
RTVSPost2010Prop48
 90
       50
102
RTVSPost2010PropOp48
 70
     0
102
RTVSPost2010Prop49
280
     0
102
RTVSPost2010PropOp49
 70
     0
102
RTVSPost2010Prop50
 90
       50
102
RTVSPost2010PropOp50
 70
     0
102
RTVSPost2010Prop51ColorIndex
 90
      256
102
RTVSPost2010Prop51ColorRGB
 90
-16777216
102
RTVSPost2010PropOp51
 70
     0
102
RTVSPost2010Prop52
140
1.0
102
RTVSPost2010PropOp52
 70
     0
102
RTVSPost2010Prop53
 90
        2
102
RTVSPost2010PropOp53
 70
     0
102
RTVSPost2010Prop54
  1
strokes_ogs.tif
102
RTVSPost2010PropOp54
 70
     0
102
RTVSPost2010Prop55
280
     0
102
RTVSPost2010PropOp55
 70
     0
102
RTVSPost2010Prop56
140
1.0
102
RTVSPost2010PropOp56
 70
     0
102
RTVSPost2010Prop57
140
1.0
102
RTVSPost2010PropOp57
 70
     0
  0
XRECORD
  5
228
102
{ACAD_REACTORS
330
227
102
}
330
227
100
AcDbXrecord
280
     1
102
RTVSPropertyOp0
 70
     1
102
RTVSPropertyOp1
 70
     1
102
RTVSPropertyOp2
 70
     1
102
RTVSPropertyOp3
 70
     1
102
RTVSPropertyOp4
 70
     1
102
RTVSPropertyOp5
 70
     1
102
RTVSPropertyOp6
 70
     1
102
RTVSPropertyOp7
 70
     1
102
RTVSPropertyOp8
 70
     1
102
RTVSPropertyOp9
 70
     1
102
RTVSPropertyOp10
 70
     1
102
RTVSPropertyOp11
 70
     1
102
RTVSPropertyOp12
 70
     1
102
RTVSPropertyOp13
 70
     1
102
RTVSPropertyOp14
 70
     1
102
RTVSPropertyOp15
 70
     1
102
RTVSPropertyOp16
 70
     1
102
RTVSPropertyOp17
 70
     1
102
RTVSPropertyOp18
 70
     1
102
RTVSPropertyOp19
 70
     1
102
RTVSPropertyOp20
 70
     1
102
RTVSPropertyOp21
 70
     1
102
RTVSPropertyOp22
 70
     1
102
RTVSPropertyOp23
 70
     1
102
RTVSPropertyOp24
 70
     1
102
RTVSPropertyOp25
 70
     1
102
RTVSPropertyOp26
 70
     1
102
RTVSPropertyOp27
 70
     1
102
RTVSPropertyOp28
 70
     1
102
RTVSPropertyOp29
 70
     1
102
RTVSPropertyOp30
 70
     1
102
RTVSPropertyOp31
 70
     1
102
RTVSPropertyOp32
 70
     1
102
RTVSPropertyOp33
 70
     1
102
RTVSPropertyOp34
 70
     1
102
RTVSPropertyOp35
 70
     1
102
RTVSPropertyOp36
 70
     1
102
RTVSPropertyOp37
 70
     1
102
RTVSPropertyOp38
 70
     1
102
RTVSPropertyOp39
 70
     1
102
RTVSPropertyOp40
 70
     1
102
RTVSPropertyOp41
 70
     1
102
RTVSPropertyOp42
 70
     1
102
RTVSPropertyOp43
 70
     1
102
RTVSPropertyOp44
 70
     1
102
RTVSPropertyOp45
 70
     1
102
RTVSPropertyOp46
 70
     1
102
RTVSPropertyOp47
 70
     1
102
RTVSPropertyOp48
 70
     1
102
RTVSPropertyOp49
 70
     1
102
RTVSPropertyOp50
 70
     1
102
RTVSPropertyOp51
 70
     0
102
RTVSPropertyOp52
 70
     0
102
RTVSPropertyOp53
 70
     1
102
RTVSPropertyOp54
 70
     1
102
RTVSPropertyOp55
 70
     1
102
RTVSPropertyOp56
 70
     1
102
RTVSPropertyOp57
 70
     1
102
RTVSPost2010Prop28
280
     0
102
RTVSPost2010PropOp28
 70
     1
102
RTVSPost2010Prop29
280
     1
102
RTVSPost2010PropOp29
 70
     1
102
RTVSPost2010Prop30
280
     1
102
RTVSPost2010PropOp30
 70
     1
102
RTVSPost2010Prop31
280
     0
102
RTVSPost2010PropOp31
 70
     1
102
RTVSPost2010Prop32
280
     0
102
RTVSPost2010PropOp32
 70
     1
102
RTVSPost2010Prop33
280
     0
102
RTVSPost2010PropOp33
 70
     1
102
RTVSPost2010Prop34
280
     0
102
RTVSPost2010PropOp34
 70
     1
102
RTVSPost2010Prop35
280
     0
102
RTVSPost2010PropOp35
 70
     1
102
RTVSPost2010Prop36
280
     0
102
RTVSPost2010PropOp36
 70
     1
102
RTVSPost2010Prop37
 90
       50
102
RTVSPost2010PropOp37
 70
     1
102
RTVSPost2010Prop38
140
0.0
102
RTVSPost2010PropOp38
 70
     1
102
RTVSPost2010Prop39
140
1.0
102
RTVSPost2010PropOp39
 70
     1
102
RTVSPost2010Prop40
 90
        0
102
RTVSPost2010PropOp40
 70
     1
102
RTVSPost2010Prop41ColorIndex
 90
       18
102
RTVSPost2010Prop41ColorRGB
 90
        0
102
RTVSPost2010PropOp41
 70
     1
102
RTVSPost2010Prop42
 90
       50
102
RTVSPost2010PropOp42
 70
     1
102
RTVSPost2010Prop43
 90
        3
102
RTVSPost2010PropOp43
 70
     1
102
RTVSPost2010Prop44ColorIndex
 90
        5
102
RTVSPost2010Prop44ColorRGB
 90
      255
102
RTVSPost2010PropOp44
 70
     1
102
RTVSPost2010Prop45
280
     0
102
RTVSPost2010PropOp45
 70
     1
102
RTVSPost2010Prop46
 90
       50
102
RTVSPost2010PropOp46
 70
     1
102
RTVSPost2010Prop47
 90
       50
102
RTVSPost2010PropOp47
 70
     1
102
RTVSPost2010Prop48
 90
       50
102
RTVSPost2010PropOp48
 70
     1
102
RTVSPost2010Prop49
280
     0
102
RTVSPost2010PropOp49
 70
     1
102
RTVSPost2010Prop50
 90
       50
102
RTVSPost2010PropOp50
 70
     1
102
RTVSPost2010Prop51ColorIndex
 90
      256
102
RTVSPost2010Prop51ColorRGB
 90
-16777216
102
RTVSPost2010PropOp51
 70
     0
102
RTVSPost2010Prop52
140
1.0
102
RTVSPost2010PropOp52
 70
     0
102
RTVSPost2010Prop53
 90
        2
102
RTVSPost2010PropOp53
 70
     1
102
RTVSPost2010Prop54
  1
strokes_ogs.tif
102
RTVSPost2010PropOp54
 70
     1
102
RTVSPost2010Prop55
280
     0
102
RTVSPost2010PropOp55
 70
     1
102
RTVSPost2010Prop56
140
1.0
102
RTVSPost2010PropOp56
 70
     1
102
RTVSPost2010Prop57
140
1.0
102
RTVSPost2010PropOp57
 70
     1
  0
XRECORD
  5
20C
102
{ACAD_REACTORS
330
20B
102
}
330
20B
100
AcDbXrecord
280
     1
102
RTVSPropertyOp0
 70
     1
102
RTVSPropertyOp1
 70
     1
102
RTVSPropertyOp2
 70
     1
102
RTVSPropertyOp3
 70
     1
102
RTVSPropertyOp4
 70
     1
102
RTVSPropertyOp5
 70
     1
102
RTVSPropertyOp6
 70
     1
102
RTVSPropertyOp7
 70
     1
102
RTVSPropertyOp8
 70
     1
102
RTVSPropertyOp9
 70
     1
102
RTVSPropertyOp10
 70
     1
102
RTVSPropertyOp11
 70
     1
102
RTVSPropertyOp12
 70
     1
102
RTVSPropertyOp13
 70
     1
102
RTVSPropertyOp14
 70
     1
102
RTVSPropertyOp15
 70
     1
102
RTVSPropertyOp16
 70
     1
102
RTVSPropertyOp17
 70
     1
102
RTVSPropertyOp18
 70
     1
102
RTVSPropertyOp19
 70
     1
102
RTVSPropertyOp20
 70
     1
102
RTVSPropertyOp21
 70
     1
102
RTVSPropertyOp22
 70
     1
102
RTVSPropertyOp23
 70
     1
102
RTVSPropertyOp24
 70
     1
102
RTVSPropertyOp25
 70
     1
102
RTVSPropertyOp26
 70
     1
102
RTVSPropertyOp27
 70
     1
102
RTVSPropertyOp28
 70
     1
102
RTVSPropertyOp29
 70
     1
102
RTVSPropertyOp30
 70
     1
102
RTVSPropertyOp31
 70
     1
102
RTVSPropertyOp32
 70
     1
102
RTVSPropertyOp33
 70
     1
102
RTVSPropertyOp34
 70
     1
102
RTVSPropertyOp35
 70
     1
102
RTVSPropertyOp36
 70
     1
102
RTVSPropertyOp37
 70
     1
102
RTVSPropertyOp38
 70
     1
102
RTVSPropertyOp39
 70
     1
102
RTVSPropertyOp40
 70
     1
102
RTVSPropertyOp41
 70
     1
102
RTVSPropertyOp42
 70
     1
102
RTVSPropertyOp43
 70
     1
102
RTVSPropertyOp44
 70
     1
102
RTVSPropertyOp45
 70
     1
102
RTVSPropertyOp46
 70
     1
102
RTVSPropertyOp47
 70
     1
102
RTVSPropertyOp48
 70
     1
102
RTVSPropertyOp49
 70
     1
102
RTVSPropertyOp50
 70
     1
102
RTVSPropertyOp51
 70
     0
102
RTVSPropertyOp52
 70
     0
102
RTVSPropertyOp53
 70
     1
102
RTVSPropertyOp54
 70
     1
102
RTVSPropertyOp55
 70
     1
102
RTVSPropertyOp56
 70
     1
102
RTVSPropertyOp57
 70
     1
102
RTVSPost2010Prop28
280
     0
102
RTVSPost2010PropOp28
 70
     1
102
RTVSPost2010Prop29
280
     1
102
RTVSPost2010PropOp29
 70
     1
102
RTVSPost2010Prop30
280
     1
102
RTVSPost2010PropOp30
 70
     1
102
RTVSPost2010Prop31
280
     0
102
RTVSPost2010PropOp31
 70
     1
102
RTVSPost2010Prop32
280
     0
102
RTVSPost2010PropOp32
 70
     1
102
RTVSPost2010Prop33
280
     0
102
RTVSPost2010PropOp33
 70
     1
102
RTVSPost2010Prop34
280
     0
102
RTVSPost2010PropOp34
 70
     1
102
RTVSPost2010Prop35
280
     0
102
RTVSPost2010PropOp35
 70
     1
102
RTVSPost2010Prop36
280
     0
102
RTVSPost2010PropOp36
 70
     1
102
RTVSPost2010Prop37
 90
       50
102
RTVSPost2010PropOp37
 70
     1
102
RTVSPost2010Prop38
140
0.0
102
RTVSPost2010PropOp38
 70
     1
102
RTVSPost2010Prop39
140
1.0
102
RTVSPost2010PropOp39
 70
     1
102
RTVSPost2010Prop40
 90
        0
102
RTVSPost2010PropOp40
 70
     1
102
RTVSPost2010Prop41ColorIndex
 90
       18
102
RTVSPost2010Prop41ColorRGB
 90
        0
102
RTVSPost2010PropOp41
 70
     1
102
RTVSPost2010Prop42
 90
       50
102
RTVSPost2010PropOp42
 70
     1
102
RTVSPost2010Prop43
 90
        3
102
RTVSPost2010PropOp43
 70
     1
102
RTVSPost2010Prop44ColorIndex
 90
        5
102
RTVSPost2010Prop44ColorRGB
 90
      255
102
RTVSPost2010PropOp44
 70
     1
102
RTVSPost2010Prop45
280
     0
102
RTVSPost2010PropOp45
 70
     1
102
RTVSPost2010Prop46
 90
       50
102
RTVSPost2010PropOp46
 70
     1
102
RTVSPost2010Prop47
 90
       50
102
RTVSPost2010PropOp47
 70
     1
102
RTVSPost2010Prop48
 90
       50
102
RTVSPost2010PropOp48
 70
     1
102
RTVSPost2010Prop49
280
     0
102
RTVSPost2010PropOp49
 70
     1
102
RTVSPost2010Prop50
 90
       50
102
RTVSPost2010PropOp50
 70
     1
102
RTVSPost2010Prop51ColorIndex
 90
      256
102
RTVSPost2010Prop51ColorRGB
 90
-16777216
102
RTVSPost2010PropOp51
 70
     0
102
RTVSPost2010Prop52
140
1.0
102
RTVSPost2010PropOp52
 70
     0
102
RTVSPost2010Prop53
 90
        2
102
RTVSPost2010PropOp53
 70
     1
102
RTVSPost2010Prop54
  1
strokes_ogs.tif
102
RTVSPost2010PropOp54
 70
     1
102
RTVSPost2010Prop55
280
     0
102
RTVSPost2010PropOp55
 70
     1
102
RTVSPost2010Prop56
140
1.0
102
RTVSPost2010PropOp56
 70
     1
102
RTVSPost2010Prop57
140
1.0
102
RTVSPost2010PropOp57
 70
     1
  0
XRECORD
  5
20E
102
{ACAD_REACTORS
330
20D
102
}
330
20D
100
AcDbXrecord
280
     1
102
RTVSPropertyOp0
 70
     1
102
RTVSPropertyOp1
 70
     1
102
RTVSPropertyOp2
 70
     1
102
RTVSPropertyOp3
 70
     1
102
RTVSPropertyOp4
 70
     1
102
RTVSPropertyOp5
 70
     1
102
RTVSPropertyOp6
 70
     1
102
RTVSPropertyOp7
 70
     1
102
RTVSPropertyOp8
 70
     1
102
RTVSPropertyOp9
 70
     1
102
RTVSPropertyOp10
 70
     1
102
RTVSPropertyOp11
 70
     1
102
RTVSPropertyOp12
 70
     1
102
RTVSPropertyOp13
 70
     1
102
RTVSPropertyOp14
 70
     1
102
RTVSPropertyOp15
 70
     1
102
RTVSPropertyOp16
 70
     1
102
RTVSPropertyOp17
 70
     1
102
RTVSPropertyOp18
 70
     1
102
RTVSPropertyOp19
 70
     1
102
RTVSPropertyOp20
 70
     1
102
RTVSPropertyOp21
 70
     1
102
RTVSPropertyOp22
 70
     1
102
RTVSPropertyOp23
 70
     1
102
RTVSPropertyOp24
 70
     1
102
RTVSPropertyOp25
 70
     1
102
RTVSPropertyOp26
 70
     1
102
RTVSPropertyOp27
 70
     1
102
RTVSPropertyOp28
 70
     1
102
RTVSPropertyOp29
 70
     1
102
RTVSPropertyOp30
 70
     1
102
RTVSPropertyOp31
 70
     1
102
RTVSPropertyOp32
 70
     1
102
RTVSPropertyOp33
 70
     1
102
RTVSPropertyOp34
 70
     1
102
RTVSPropertyOp35
 70
     1
102
RTVSPropertyOp36
 70
     1
102
RTVSPropertyOp37
 70
     1
102
RTVSPropertyOp38
 70
     1
102
RTVSPropertyOp39
 70
     1
102
RTVSPropertyOp40
 70
     1
102
RTVSPropertyOp41
 70
     1
102
RTVSPropertyOp42
 70
     1
102
RTVSPropertyOp43
 70
     1
102
RTVSPropertyOp44
 70
     1
102
RTVSPropertyOp45
 70
     1
102
RTVSPropertyOp46
 70
     1
102
RTVSPropertyOp47
 70
     1
102
RTVSPropertyOp48
 70
     1
102
RTVSPropertyOp49
 70
     1
102
RTVSPropertyOp50
 70
     1
102
RTVSPropertyOp51
 70
     0
102
RTVSPropertyOp52
 70
     0
102
RTVSPropertyOp53
 70
     1
102
RTVSPropertyOp54
 70
     1
102
RTVSPropertyOp55
 70
     1
102
RTVSPropertyOp56
 70
     1
102
RTVSPropertyOp57
 70
     1
102
RTVSPost2010Prop28
280
     0
102
RTVSPost2010PropOp28
 70
     1
102
RTVSPost2010Prop29
280
     1
102
RTVSPost2010PropOp29
 70
     1
102
RTVSPost2010Prop30
280
     1
102
RTVSPost2010PropOp30
 70
     1
102
RTVSPost2010Prop31
280
     0
102
RTVSPost2010PropOp31
 70
     1
102
RTVSPost2010Prop32
280
     0
102
RTVSPost2010PropOp32
 70
     1
102
RTVSPost2010Prop33
280
     0
102
RTVSPost2010PropOp33
 70
     1
102
RTVSPost2010Prop34
280
     0
102
RTVSPost2010PropOp34
 70
     1
102
RTVSPost2010Prop35
280
     0
102
RTVSPost2010PropOp35
 70
     1
102
RTVSPost2010Prop36
280
     0
102
RTVSPost2010PropOp36
 70
     1
102
RTVSPost2010Prop37
 90
       50
102
RTVSPost2010PropOp37
 70
     1
102
RTVSPost2010Prop38
140
0.0
102
RTVSPost2010PropOp38
 70
     1
102
RTVSPost2010Prop39
140
1.0
102
RTVSPost2010PropOp39
 70
     1
102
RTVSPost2010Prop40
 90
        0
102
RTVSPost2010PropOp40
 70
     1
102
RTVSPost2010Prop41ColorIndex
 90
       18
102
RTVSPost2010Prop41ColorRGB
 90
        0
102
RTVSPost2010PropOp41
 70
     1
102
RTVSPost2010Prop42
 90
       50
102
RTVSPost2010PropOp42
 70
     1
102
RTVSPost2010Prop43
 90
        3
102
RTVSPost2010PropOp43
 70
     1
102
RTVSPost2010Prop44ColorIndex
 90
        5
102
RTVSPost2010Prop44ColorRGB
 90
      255
102
RTVSPost2010PropOp44
 70
     1
102
RTVSPost2010Prop45
280
     0
102
RTVSPost2010PropOp45
 70
     1
102
RTVSPost2010Prop46
 90
       50
102
RTVSPost2010PropOp46
 70
     1
102
RTVSPost2010Prop47
 90
       50
102
RTVSPost2010PropOp47
 70
     1
102
RTVSPost2010Prop48
 90
       50
102
RTVSPost2010PropOp48
 70
     1
102
RTVSPost2010Prop49
280
     0
102
RTVSPost2010PropOp49
 70
     1
102
RTVSPost2010Prop50
 90
       50
102
RTVSPost2010PropOp50
 70
     1
102
RTVSPost2010Prop51ColorIndex
 90
      256
102
RTVSPost2010Prop51ColorRGB
 90
-16777216
102
RTVSPost2010PropOp51
 70
     0
102
RTVSPost2010Prop52
140
1.0
102
RTVSPost2010PropOp52
 70
     0
102
RTVSPost2010Prop53
 90
        2
102
RTVSPost2010PropOp53
 70
     1
102
RTVSPost2010Prop54
  1
strokes_ogs.tif
102
RTVSPost2010PropOp54
 70
     1
102
RTVSPost2010Prop55
280
     0
102
RTVSPost2010PropOp55
 70
     1
102
RTVSPost2010Prop56
140
1.0
102
RTVSPost2010PropOp56
 70
     1
102
RTVSPost2010Prop57
140
1.0
102
RTVSPost2010PropOp57
 70
     1
  0
XRECORD
  5
210
102
{ACAD_REACTORS
330
20F
102
}
330
20F
100
AcDbXrecord
280
     1
102
RTVSPropertyOp0
 70
     1
102
RTVSPropertyOp1
 70
     1
102
RTVSPropertyOp2
 70
     1
102
RTVSPropertyOp3
 70
     1
102
RTVSPropertyOp4
 70
     1
102
RTVSPropertyOp5
 70
     1
102
RTVSPropertyOp6
 70
     1
102
RTVSPropertyOp7
 70
     1
102
RTVSPropertyOp8
 70
     1
102
RTVSPropertyOp9
 70
     1
102
RTVSPropertyOp10
 70
     1
102
RTVSPropertyOp11
 70
     1
102
RTVSPropertyOp12
 70
     1
102
RTVSPropertyOp13
 70
     1
102
RTVSPropertyOp14
 70
     1
102
RTVSPropertyOp15
 70
     1
102
RTVSPropertyOp16
 70
     1
102
RTVSPropertyOp17
 70
     1
102
RTVSPropertyOp18
 70
     1
102
RTVSPropertyOp19
 70
     1
102
RTVSPropertyOp20
 70
     1
102
RTVSPropertyOp21
 70
     1
102
RTVSPropertyOp22
 70
     1
102
RTVSPropertyOp23
 70
     1
102
RTVSPropertyOp24
 70
     1
102
RTVSPropertyOp25
 70
     1
102
RTVSPropertyOp26
 70
     1
102
RTVSPropertyOp27
 70
     1
102
RTVSPropertyOp28
 70
     1
102
RTVSPropertyOp29
 70
     1
102
RTVSPropertyOp30
 70
     1
102
RTVSPropertyOp31
 70
     1
102
RTVSPropertyOp32
 70
     1
102
RTVSPropertyOp33
 70
     1
102
RTVSPropertyOp34
 70
     1
102
RTVSPropertyOp35
 70
     1
102
RTVSPropertyOp36
 70
     1
102
RTVSPropertyOp37
 70
     1
102
RTVSPropertyOp38
 70
     1
102
RTVSPropertyOp39
 70
     1
102
RTVSPropertyOp40
 70
     1
102
RTVSPropertyOp41
 70
     1
102
RTVSPropertyOp42
 70
     1
102
RTVSPropertyOp43
 70
     1
102
RTVSPropertyOp44
 70
     1
102
RTVSPropertyOp45
 70
     1
102
RTVSPropertyOp46
 70
     1
102
RTVSPropertyOp47
 70
     1
102
RTVSPropertyOp48
 70
     1
102
RTVSPropertyOp49
 70
     1
102
RTVSPropertyOp50
 70
     1
102
RTVSPropertyOp51
 70
     0
102
RTVSPropertyOp52
 70
     0
102
RTVSPropertyOp53
 70
     1
102
RTVSPropertyOp54
 70
     1
102
RTVSPropertyOp55
 70
     1
102
RTVSPropertyOp56
 70
     1
102
RTVSPropertyOp57
 70
     1
102
RTVSPost2010Prop28
280
     0
102
RTVSPost2010PropOp28
 70
     1
102
RTVSPost2010Prop29
280
     1
102
RTVSPost2010PropOp29
 70
     1
102
RTVSPost2010Prop30
280
     1
102
RTVSPost2010PropOp30
 70
     1
102
RTVSPost2010Prop31
280
     0
102
RTVSPost2010PropOp31
 70
     1
102
RTVSPost2010Prop32
280
     0
102
RTVSPost2010PropOp32
 70
     1
102
RTVSPost2010Prop33
280
     0
102
RTVSPost2010PropOp33
 70
     1
102
RTVSPost2010Prop34
280
     0
102
RTVSPost2010PropOp34
 70
     1
102
RTVSPost2010Prop35
280
     0
102
RTVSPost2010PropOp35
 70
     1
102
RTVSPost2010Prop36
280
     0
102
RTVSPost2010PropOp36
 70
     1
102
RTVSPost2010Prop37
 90
       50
102
RTVSPost2010PropOp37
 70
     1
102
RTVSPost2010Prop38
140
0.0
102
RTVSPost2010PropOp38
 70
     1
102
RTVSPost2010Prop39
140
1.0
102
RTVSPost2010PropOp39
 70
     1
102
RTVSPost2010Prop40
 90
        0
102
RTVSPost2010PropOp40
 70
     1
102
RTVSPost2010Prop41ColorIndex
 90
       18
102
RTVSPost2010Prop41ColorRGB
 90
        0
102
RTVSPost2010PropOp41
 70
     1
102
RTVSPost2010Prop42
 90
       50
102
RTVSPost2010PropOp42
 70
     1
102
RTVSPost2010Prop43
 90
        3
102
RTVSPost2010PropOp43
 70
     1
102
RTVSPost2010Prop44ColorIndex
 90
        5
102
RTVSPost2010Prop44ColorRGB
 90
      255
102
RTVSPost2010PropOp44
 70
     1
102
RTVSPost2010Prop45
280
     0
102
RTVSPost2010PropOp45
 70
     1
102
RTVSPost2010Prop46
 90
       50
102
RTVSPost2010PropOp46
 70
     1
102
RTVSPost2010Prop47
 90
       50
102
RTVSPost2010PropOp47
 70
     1
102
RTVSPost2010Prop48
 90
       50
102
RTVSPost2010PropOp48
 70
     1
102
RTVSPost2010Prop49
280
     0
102
RTVSPost2010PropOp49
 70
     1
102
RTVSPost2010Prop50
 90
       50
102
RTVSPost2010PropOp50
 70
     1
102
RTVSPost2010Prop51ColorIndex
 90
      256
102
RTVSPost2010Prop51ColorRGB
 90
-16777216
102
RTVSPost2010PropOp51
 70
     0
102
RTVSPost2010Prop52
140
1.0
102
RTVSPost2010PropOp52
 70
     0
102
RTVSPost2010Prop53
 90
        2
102
RTVSPost2010PropOp53
 70
     1
102
RTVSPost2010Prop54
  1
strokes_ogs.tif
102
RTVSPost2010PropOp54
 70
     1
102
RTVSPost2010Prop55
280
     0
102
RTVSPost2010PropOp55
 70
     1
102
RTVSPost2010Prop56
140
1.0
102
RTVSPost2010PropOp56
 70
     1
102
RTVSPost2010Prop57
140
1.0
102
RTVSPost2010PropOp57
 70
     1
  0
XRECORD
  5
212
102
{ACAD_REACTORS
330
211
102
}
330
211
100
AcDbXrecord
280
     1
102
RTVSPropertyOp0
 70
     1
102
RTVSPropertyOp1
 70
     1
102
RTVSPropertyOp2
 70
     1
102
RTVSPropertyOp3
 70
     1
102
RTVSPropertyOp4
 70
     1
102
RTVSPropertyOp5
 70
     1
102
RTVSPropertyOp6
 70
     1
102
RTVSPropertyOp7
 70
     1
102
RTVSPropertyOp8
 70
     1
102
RTVSPropertyOp9
 70
     1
102
RTVSPropertyOp10
 70
     1
102
RTVSPropertyOp11
 70
     1
102
RTVSPropertyOp12
 70
     1
102
RTVSPropertyOp13
 70
     1
102
RTVSPropertyOp14
 70
     1
102
RTVSPropertyOp15
 70
     1
102
RTVSPropertyOp16
 70
     1
102
RTVSPropertyOp17
 70
     1
102
RTVSPropertyOp18
 70
     1
102
RTVSPropertyOp19
 70
     1
102
RTVSPropertyOp20
 70
     1
102
RTVSPropertyOp21
 70
     1
102
RTVSPropertyOp22
 70
     1
102
RTVSPropertyOp23
 70
     1
102
RTVSPropertyOp24
 70
     1
102
RTVSPropertyOp25
 70
     1
102
RTVSPropertyOp26
 70
     1
102
RTVSPropertyOp27
 70
     1
102
RTVSPropertyOp28
 70
     1
102
RTVSPropertyOp29
 70
     1
102
RTVSPropertyOp30
 70
     1
102
RTVSPropertyOp31
 70
     1
102
RTVSPropertyOp32
 70
     1
102
RTVSPropertyOp33
 70
     1
102
RTVSPropertyOp34
 70
     1
102
RTVSPropertyOp35
 70
     1
102
RTVSPropertyOp36
 70
     1
102
RTVSPropertyOp37
 70
     1
102
RTVSPropertyOp38
 70
     1
102
RTVSPropertyOp39
 70
     1
102
RTVSPropertyOp40
 70
     1
102
RTVSPropertyOp41
 70
     1
102
RTVSPropertyOp42
 70
     1
102
RTVSPropertyOp43
 70
     1
102
RTVSPropertyOp44
 70
     1
102
RTVSPropertyOp45
 70
     1
102
RTVSPropertyOp46
 70
     1
102
RTVSPropertyOp47
 70
     1
102
RTVSPropertyOp48
 70
     1
102
RTVSPropertyOp49
 70
     1
102
RTVSPropertyOp50
 70
     1
102
RTVSPropertyOp51
 70
     0
102
RTVSPropertyOp52
 70
     0
102
RTVSPropertyOp53
 70
     1
102
RTVSPropertyOp54
 70
     1
102
RTVSPropertyOp55
 70
     1
102
RTVSPropertyOp56
 70
     1
102
RTVSPropertyOp57
 70
     1
102
RTVSPost2010Prop28
280
     0
102
RTVSPost2010PropOp28
 70
     1
102
RTVSPost2010Prop29
280
     1
102
RTVSPost2010PropOp29
 70
     1
102
RTVSPost2010Prop30
280
     1
102
RTVSPost2010PropOp30
 70
     1
102
RTVSPost2010Prop31
280
     0
102
RTVSPost2010PropOp31
 70
     1
102
RTVSPost2010Prop32
280
     0
102
RTVSPost2010PropOp32
 70
     1
102
RTVSPost2010Prop33
280
     0
102
RTVSPost2010PropOp33
 70
     1
102
RTVSPost2010Prop34
280
     0
102
RTVSPost2010PropOp34
 70
     1
102
RTVSPost2010Prop35
280
     0
102
RTVSPost2010PropOp35
 70
     1
102
RTVSPost2010Prop36
280
     0
102
RTVSPost2010PropOp36
 70
     1
102
RTVSPost2010Prop37
 90
       50
102
RTVSPost2010PropOp37
 70
     1
102
RTVSPost2010Prop38
140
0.0
102
RTVSPost2010PropOp38
 70
     1
102
RTVSPost2010Prop39
140
1.0
102
RTVSPost2010PropOp39
 70
     1
102
RTVSPost2010Prop40
 90
        0
102
RTVSPost2010PropOp40
 70
     1
102
RTVSPost2010Prop41ColorIndex
 90
       18
102
RTVSPost2010Prop41ColorRGB
 90
        0
102
RTVSPost2010PropOp41
 70
     1
102
RTVSPost2010Prop42
 90
       50
102
RTVSPost2010PropOp42
 70
     1
102
RTVSPost2010Prop43
 90
        3
102
RTVSPost2010PropOp43
 70
     1
102
RTVSPost2010Prop44ColorIndex
 90
        5
102
RTVSPost2010Prop44ColorRGB
 90
      255
102
RTVSPost2010PropOp44
 70
     1
102
RTVSPost2010Prop45
280
     0
102
RTVSPost2010PropOp45
 70
     1
102
RTVSPost2010Prop46
 90
       50
102
RTVSPost2010PropOp46
 70
     1
102
RTVSPost2010Prop47
 90
       50
102
RTVSPost2010PropOp47
 70
     1
102
RTVSPost2010Prop48
 90
       50
102
RTVSPost2010PropOp48
 70
     1
102
RTVSPost2010Prop49
280
     0
102
RTVSPost2010PropOp49
 70
     1
102
RTVSPost2010Prop50
 90
       50
102
RTVSPost2010PropOp50
 70
     1
102
RTVSPost2010Prop51ColorIndex
 90
      256
102
RTVSPost2010Prop51ColorRGB
 90
-16777216
102
RTVSPost2010PropOp51
 70
     0
102
RTVSPost2010Prop52
140
1.0
102
RTVSPost2010PropOp52
 70
     0
102
RTVSPost2010Prop53
 90
        2
102
RTVSPost2010PropOp53
 70
     1
102
RTVSPost2010Prop54
  1
strokes_ogs.tif
102
RTVSPost2010PropOp54
 70
     1
102
RTVSPost2010Prop55
280
     0
102
RTVSPost2010PropOp55
 70
     1
102
RTVSPost2010Prop56
140
1.0
102
RTVSPost2010PropOp56
 70
     1
102
RTVSPost2010Prop57
140
1.0
102
RTVSPost2010PropOp57
 70
     1
  0
XRECORD
  5
218
102
{ACAD_REACTORS
330
217
102
}
330
217
100
AcDbXrecord
280
     1
102
RTVSPropertyOp0
 70
     1
102
RTVSPropertyOp1
 70
     1
102
RTVSPropertyOp2
 70
     1
102
RTVSPropertyOp3
 70
     1
102
RTVSPropertyOp4
 70
     1
102
RTVSPropertyOp5
 70
     1
102
RTVSPropertyOp6
 70
     1
102
RTVSPropertyOp7
 70
     1
102
RTVSPropertyOp8
 70
     1
102
RTVSPropertyOp9
 70
     1
102
RTVSPropertyOp10
 70
     1
102
RTVSPropertyOp11
 70
     1
102
RTVSPropertyOp12
 70
     1
102
RTVSPropertyOp13
 70
     1
102
RTVSPropertyOp14
 70
     1
102
RTVSPropertyOp15
 70
     1
102
RTVSPropertyOp16
 70
     1
102
RTVSPropertyOp17
 70
     1
102
RTVSPropertyOp18
 70
     1
102
RTVSPropertyOp19
 70
     1
102
RTVSPropertyOp20
 70
     1
102
RTVSPropertyOp21
 70
     1
102
RTVSPropertyOp22
 70
     1
102
RTVSPropertyOp23
 70
     1
102
RTVSPropertyOp24
 70
     1
102
RTVSPropertyOp25
 70
     1
102
RTVSPropertyOp26
 70
     1
102
RTVSPropertyOp27
 70
     1
102
RTVSPropertyOp28
 70
     1
102
RTVSPropertyOp29
 70
     1
102
RTVSPropertyOp30
 70
     1
102
RTVSPropertyOp31
 70
     1
102
RTVSPropertyOp32
 70
     1
102
RTVSPropertyOp33
 70
     1
102
RTVSPropertyOp34
 70
     1
102
RTVSPropertyOp35
 70
     1
102
RTVSPropertyOp36
 70
     1
102
RTVSPropertyOp37
 70
     1
102
RTVSPropertyOp38
 70
     1
102
RTVSPropertyOp39
 70
     1
102
RTVSPropertyOp40
 70
     1
102
RTVSPropertyOp41
 70
     1
102
RTVSPropertyOp42
 70
     1
102
RTVSPropertyOp43
 70
     1
102
RTVSPropertyOp44
 70
     1
102
RTVSPropertyOp45
 70
     1
102
RTVSPropertyOp46
 70
     1
102
RTVSPropertyOp47
 70
     1
102
RTVSPropertyOp48
 70
     1
102
RTVSPropertyOp49
 70
     1
102
RTVSPropertyOp50
 70
     1
102
RTVSPropertyOp51
 70
     0
102
RTVSPropertyOp52
 70
     0
102
RTVSPropertyOp53
 70
     1
102
RTVSPropertyOp54
 70
     1
102
RTVSPropertyOp55
 70
     1
102
RTVSPropertyOp56
 70
     1
102
RTVSPropertyOp57
 70
     1
102
RTVSPost2010Prop28
280
     0
102
RTVSPost2010PropOp28
 70
     1
102
RTVSPost2010Prop29
280
     1
102
RTVSPost2010PropOp29
 70
     1
102
RTVSPost2010Prop30
280
     1
102
RTVSPost2010PropOp30
 70
     1
102
RTVSPost2010Prop31
280
     0
102
RTVSPost2010PropOp31
 70
     1
102
RTVSPost2010Prop32
280
     0
102
RTVSPost2010PropOp32
 70
     1
102
RTVSPost2010Prop33
280
     0
102
RTVSPost2010PropOp33
 70
     1
102
RTVSPost2010Prop34
280
     0
102
RTVSPost2010PropOp34
 70
     1
102
RTVSPost2010Prop35
280
     0
102
RTVSPost2010PropOp35
 70
     1
102
RTVSPost2010Prop36
280
     0
102
RTVSPost2010PropOp36
 70
     1
102
RTVSPost2010Prop37
 90
       50
102
RTVSPost2010PropOp37
 70
     1
102
RTVSPost2010Prop38
140
0.0
102
RTVSPost2010PropOp38
 70
     1
102
RTVSPost2010Prop39
140
1.0
102
RTVSPost2010PropOp39
 70
     1
102
RTVSPost2010Prop40
 90
        0
102
RTVSPost2010PropOp40
 70
     1
102
RTVSPost2010Prop41ColorIndex
 90
       18
102
RTVSPost2010Prop41ColorRGB
 90
        0
102
RTVSPost2010PropOp41
 70
     1
102
RTVSPost2010Prop42
 90
       50
102
RTVSPost2010PropOp42
 70
     1
102
RTVSPost2010Prop43
 90
        3
102
RTVSPost2010PropOp43
 70
     1
102
RTVSPost2010Prop44ColorIndex
 90
        5
102
RTVSPost2010Prop44ColorRGB
 90
      255
102
RTVSPost2010PropOp44
 70
     1
102
RTVSPost2010Prop45
280
     0
102
RTVSPost2010PropOp45
 70
     1
102
RTVSPost2010Prop46
 90
       50
102
RTVSPost2010PropOp46
 70
     1
102
RTVSPost2010Prop47
 90
       50
102
RTVSPost2010PropOp47
 70
     1
102
RTVSPost2010Prop48
 90
       50
102
RTVSPost2010PropOp48
 70
     1
102
RTVSPost2010Prop49
280
     0
102
RTVSPost2010PropOp49
 70
     1
102
RTVSPost2010Prop50
 90
       50
102
RTVSPost2010PropOp50
 70
     1
102
RTVSPost2010Prop51ColorIndex
 90
      256
102
RTVSPost2010Prop51ColorRGB
 90
-16777216
102
RTVSPost2010PropOp51
 70
     0
102
RTVSPost2010Prop52
140
1.0
102
RTVSPost2010PropOp52
 70
     0
102
RTVSPost2010Prop53
 90
        2
102
RTVSPost2010PropOp53
 70
     1
102
RTVSPost2010Prop54
  1
strokes_ogs.tif
102
RTVSPost2010PropOp54
 70
     1
102
RTVSPost2010Prop55
280
     0
102
RTVSPost2010PropOp55
 70
     1
102
RTVSPost2010Prop56
140
1.0
102
RTVSPost2010PropOp56
 70
     1
102
RTVSPost2010Prop57
140
1.0
102
RTVSPost2010PropOp57
 70
     1
  0
XRECORD
  5
22C
102
{ACAD_REACTORS
330
22B
102
}
330
22B
100
AcDbXrecord
280
     1
102
RTVSPropertyOp0
 70
     0
102
RTVSPropertyOp1
 70
     0
102
RTVSPropertyOp2
 70
     0
102
RTVSPropertyOp3
 70
     0
102
RTVSPropertyOp4
 70
     0
102
RTVSPropertyOp5
 70
     0
102
RTVSPropertyOp6
 70
     0
102
RTVSPropertyOp7
 70
     0
102
RTVSPropertyOp8
 70
     0
102
RTVSPropertyOp9
 70
     0
102
RTVSPropertyOp10
 70
     0
102
RTVSPropertyOp11
 70
     0
102
RTVSPropertyOp12
 70
     0
102
RTVSPropertyOp13
 70
     0
102
RTVSPropertyOp14
 70
     2
102
RTVSPropertyOp15
 70
     0
102
RTVSPropertyOp16
 70
     0
102
RTVSPropertyOp17
 70
     0
102
RTVSPropertyOp18
 70
     0
102
RTVSPropertyOp19
 70
     0
102
RTVSPropertyOp20
 70
     0
102
RTVSPropertyOp21
 70
     0
102
RTVSPropertyOp22
 70
     0
102
RTVSPropertyOp23
 70
     0
102
RTVSPropertyOp24
 70
     0
102
RTVSPropertyOp25
 70
     0
102
RTVSPropertyOp26
 70
     0
102
RTVSPropertyOp27
 70
     0
102
RTVSPropertyOp28
 70
     0
102
RTVSPropertyOp29
 70
     0
102
RTVSPropertyOp30
 70
     0
102
RTVSPropertyOp31
 70
     0
102
RTVSPropertyOp32
 70
     0
102
RTVSPropertyOp33
 70
     0
102
RTVSPropertyOp34
 70
     0
102
RTVSPropertyOp35
 70
     0
102
RTVSPropertyOp36
 70
     0
102
RTVSPropertyOp37
 70
     0
102
RTVSPropertyOp38
 70
     0
102
RTVSPropertyOp39
 70
     0
102
RTVSPropertyOp40
 70
     0
102
RTVSPropertyOp41
 70
     0
102
RTVSPropertyOp42
 70
     0
102
RTVSPropertyOp43
 70
     0
102
RTVSPropertyOp44
 70
     0
102
RTVSPropertyOp45
 70
     0
102
RTVSPropertyOp46
 70
     0
102
RTVSPropertyOp47
 70
     0
102
RTVSPropertyOp48
 70
     0
102
RTVSPropertyOp49
 70
     0
102
RTVSPropertyOp50
 70
     0
102
RTVSPropertyOp51
 70
     0
102
RTVSPropertyOp52
 70
     0
102
RTVSPropertyOp53
 70
     0
102
RTVSPropertyOp54
 70
     0
102
RTVSPropertyOp55
 70
     0
102
RTVSPropertyOp56
 70
     0
102
RTVSPropertyOp57
 70
     0
102
RTVSPost2010Prop28
280
     0
102
RTVSPost2010PropOp28
 70
     0
102
RTVSPost2010Prop29
280
     1
102
RTVSPost2010PropOp29
 70
     0
102
RTVSPost2010Prop30
280
     1
102
RTVSPost2010PropOp30
 70
     0
102
RTVSPost2010Prop31
280
     0
102
RTVSPost2010PropOp31
 70
     0
102
RTVSPost2010Prop32
280
     0
102
RTVSPost2010PropOp32
 70
     0
102
RTVSPost2010Prop33
280
     0
102
RTVSPost2010PropOp33
 70
     0
102
RTVSPost2010Prop34
280
     0
102
RTVSPost2010PropOp34
 70
     0
102
RTVSPost2010Prop35
280
     0
102
RTVSPost2010PropOp35
 70
     0
102
RTVSPost2010Prop36
280
     0
102
RTVSPost2010PropOp36
 70
     0
102
RTVSPost2010Prop37
 90
       50
102
RTVSPost2010PropOp37
 70
     0
102
RTVSPost2010Prop38
140
0.0
102
RTVSPost2010PropOp38
 70
     0
102
RTVSPost2010Prop39
140
1.0
102
RTVSPost2010PropOp39
 70
     0
102
RTVSPost2010Prop40
 90
        0
102
RTVSPost2010PropOp40
 70
     0
102
RTVSPost2010Prop41ColorIndex
 90
       18
102
RTVSPost2010Prop41ColorRGB
 90
        0
102
RTVSPost2010PropOp41
 70
     0
102
RTVSPost2010Prop42
 90
       50
102
RTVSPost2010PropOp42
 70
     0
102
RTVSPost2010Prop43
 90
        3
102
RTVSPost2010PropOp43
 70
     0
102
RTVSPost2010Prop44ColorIndex
 90
        5
102
RTVSPost2010Prop44ColorRGB
 90
      255
102
RTVSPost2010PropOp44
 70
     0
102
RTVSPost2010Prop45
280
     0
102
RTVSPost2010PropOp45
 70
     0
102
RTVSPost2010Prop46
 90
       50
102
RTVSPost2010PropOp46
 70
     0
102
RTVSPost2010Prop47
 90
       50
102
RTVSPost2010PropOp47
 70
     0
102
RTVSPost2010Prop48
 90
       50
102
RTVSPost2010PropOp48
 70
     0
102
RTVSPost2010Prop49
280
     0
102
RTVSPost2010PropOp49
 70
     0
102
RTVSPost2010Prop50
 90
       50
102
RTVSPost2010PropOp50
 70
     0
102
RTVSPost2010Prop51ColorIndex
 90
      256
102
RTVSPost2010Prop51ColorRGB
 90
-16777216
102
RTVSPost2010PropOp51
 70
     0
102
RTVSPost2010Prop52
140
1.0
102
RTVSPost2010PropOp52
 70
     0
102
RTVSPost2010Prop53
 90
        2
102
RTVSPost2010PropOp53
 70
     0
102
RTVSPost2010Prop54
  1
strokes_ogs.tif
102
RTVSPost2010PropOp54
 70
     0
102
RTVSPost2010Prop55
280
     0
102
RTVSPost2010PropOp55
 70
     0
102
RTVSPost2010Prop56
140
1.0
102
RTVSPost2010PropOp56
 70
     0
102
RTVSPost2010Prop57
140
1.0
102
RTVSPost2010PropOp57
 70
     0
  0
XRECORD
  5
226
102
{ACAD_REACTORS
330
225
102
}
330
225
100
AcDbXrecord
280
     1
102
RTVSPropertyOp0
 70
     1
102
RTVSPropertyOp1
 70
     1
102
RTVSPropertyOp2
 70
     1
102
RTVSPropertyOp3
 70
     1
102
RTVSPropertyOp4
 70
     1
102
RTVSPropertyOp5
 70
     1
102
RTVSPropertyOp6
 70
     1
102
RTVSPropertyOp7
 70
     1
102
RTVSPropertyOp8
 70
     1
102
RTVSPropertyOp9
 70
     1
102
RTVSPropertyOp10
 70
     1
102
RTVSPropertyOp11
 70
     1
102
RTVSPropertyOp12
 70
     1
102
RTVSPropertyOp13
 70
     1
102
RTVSPropertyOp14
 70
     1
102
RTVSPropertyOp15
 70
     1
102
RTVSPropertyOp16
 70
     1
102
RTVSPropertyOp17
 70
     1
102
RTVSPropertyOp18
 70
     1
102
RTVSPropertyOp19
 70
     1
102
RTVSPropertyOp20
 70
     1
102
RTVSPropertyOp21
 70
     1
102
RTVSPropertyOp22
 70
     1
102
RTVSPropertyOp23
 70
     1
102
RTVSPropertyOp24
 70
     1
102
RTVSPropertyOp25
 70
     1
102
RTVSPropertyOp26
 70
     1
102
RTVSPropertyOp27
 70
     1
102
RTVSPropertyOp28
 70
     1
102
RTVSPropertyOp29
 70
     1
102
RTVSPropertyOp30
 70
     1
102
RTVSPropertyOp31
 70
     1
102
RTVSPropertyOp32
 70
     1
102
RTVSPropertyOp33
 70
     1
102
RTVSPropertyOp34
 70
     1
102
RTVSPropertyOp35
 70
     1
102
RTVSPropertyOp36
 70
     1
102
RTVSPropertyOp37
 70
     1
102
RTVSPropertyOp38
 70
     1
102
RTVSPropertyOp39
 70
     1
102
RTVSPropertyOp40
 70
     1
102
RTVSPropertyOp41
 70
     1
102
RTVSPropertyOp42
 70
     1
102
RTVSPropertyOp43
 70
     1
102
RTVSPropertyOp44
 70
     1
102
RTVSPropertyOp45
 70
     1
102
RTVSPropertyOp46
 70
     1
102
RTVSPropertyOp47
 70
     1
102
RTVSPropertyOp48
 70
     1
102
RTVSPropertyOp49
 70
     1
102
RTVSPropertyOp50
 70
     1
102
RTVSPropertyOp51
 70
     0
102
RTVSPropertyOp52
 70
     0
102
RTVSPropertyOp53
 70
     1
102
RTVSPropertyOp54
 70
     1
102
RTVSPropertyOp55
 70
     1
102
RTVSPropertyOp56
 70
     1
102
RTVSPropertyOp57
 70
     1
102
RTVSPost2010Prop28
280
     0
102
RTVSPost2010PropOp28
 70
     1
102
RTVSPost2010Prop29
280
     1
102
RTVSPost2010PropOp29
 70
     1
102
RTVSPost2010Prop30
280
     1
102
RTVSPost2010PropOp30
 70
     1
102
RTVSPost2010Prop31
280
     0
102
RTVSPost2010PropOp31
 70
     1
102
RTVSPost2010Prop32
280
     0
102
RTVSPost2010PropOp32
 70
     1
102
RTVSPost2010Prop33
280
     0
102
RTVSPost2010PropOp33
 70
     1
102
RTVSPost2010Prop34
280
     0
102
RTVSPost2010PropOp34
 70
     1
102
RTVSPost2010Prop35
280
     0
102
RTVSPost2010PropOp35
 70
     1
102
RTVSPost2010Prop36
280
     0
102
RTVSPost2010PropOp36
 70
     1
102
RTVSPost2010Prop37
 90
       50
102
RTVSPost2010PropOp37
 70
     1
102
RTVSPost2010Prop38
140
0.0
102
RTVSPost2010PropOp38
 70
     1
102
RTVSPost2010Prop39
140
1.0
102
RTVSPost2010PropOp39
 70
     1
102
RTVSPost2010Prop40
 90
        0
102
RTVSPost2010PropOp40
 70
     1
102
RTVSPost2010Prop41ColorIndex
 90
       18
102
RTVSPost2010Prop41ColorRGB
 90
        0
102
RTVSPost2010PropOp41
 70
     1
102
RTVSPost2010Prop42
 90
       50
102
RTVSPost2010PropOp42
 70
     1
102
RTVSPost2010Prop43
 90
        3
102
RTVSPost2010PropOp43
 70
     1
102
RTVSPost2010Prop44ColorIndex
 90
        5
102
RTVSPost2010Prop44ColorRGB
 90
      255
102
RTVSPost2010PropOp44
 70
     1
102
RTVSPost2010Prop45
280
     0
102
RTVSPost2010PropOp45
 70
     1
102
RTVSPost2010Prop46
 90
       50
102
RTVSPost2010PropOp46
 70
     1
102
RTVSPost2010Prop47
 90
       50
102
RTVSPost2010PropOp47
 70
     1
102
RTVSPost2010Prop48
 90
       50
102
RTVSPost2010PropOp48
 70
     1
102
RTVSPost2010Prop49
280
     0
102
RTVSPost2010PropOp49
 70
     1
102
RTVSPost2010Prop50
 90
       50
102
RTVSPost2010PropOp50
 70
     1
102
RTVSPost2010Prop51ColorIndex
 90
      256
102
RTVSPost2010Prop51ColorRGB
 90
-16777216
102
RTVSPost2010PropOp51
 70
     0
102
RTVSPost2010Prop52
140
1.0
102
RTVSPost2010PropOp52
 70
     0
102
RTVSPost2010Prop53
 90
        2
102
RTVSPost2010PropOp53
 70
     1
102
RTVSPost2010Prop54
  1
strokes_ogs.tif
102
RTVSPost2010PropOp54
 70
     1
102
RTVSPost2010Prop55
280
     0
102
RTVSPost2010PropOp55
 70
     1
102
RTVSPost2010Prop56
140
1.0
102
RTVSPost2010PropOp56
 70
     1
102
RTVSPost2010Prop57
140
1.0
102
RTVSPost2010PropOp57
 70
     1
  0
XRECORD
  5
22E
102
{ACAD_REACTORS
330
22D
102
}
330
22D
100
AcDbXrecord
280
     1
102
RTVSPropertyOp0
 70
     0
102
RTVSPropertyOp1
 70
     0
102
RTVSPropertyOp2
 70
     0
102
RTVSPropertyOp3
 70
     0
102
RTVSPropertyOp4
 70
     0
102
RTVSPropertyOp5
 70
     0
102
RTVSPropertyOp6
 70
     0
102
RTVSPropertyOp7
 70
     0
102
RTVSPropertyOp8
 70
     0
102
RTVSPropertyOp9
 70
     0
102
RTVSPropertyOp10
 70
     0
102
RTVSPropertyOp11
 70
     0
102
RTVSPropertyOp12
 70
     0
102
RTVSPropertyOp13
 70
     0
102
RTVSPropertyOp14
 70
     2
102
RTVSPropertyOp15
 70
     0
102
RTVSPropertyOp16
 70
     0
102
RTVSPropertyOp17
 70
     0
102
RTVSPropertyOp18
 70
     0
102
RTVSPropertyOp19
 70
     0
102
RTVSPropertyOp20
 70
     0
102
RTVSPropertyOp21
 70
     0
102
RTVSPropertyOp22
 70
     0
102
RTVSPropertyOp23
 70
     0
102
RTVSPropertyOp24
 70
     0
102
RTVSPropertyOp25
 70
     0
102
RTVSPropertyOp26
 70
     0
102
RTVSPropertyOp27
 70
     0
102
RTVSPropertyOp28
 70
     0
102
RTVSPropertyOp29
 70
     0
102
RTVSPropertyOp30
 70
     0
102
RTVSPropertyOp31
 70
     0
102
RTVSPropertyOp32
 70
     0
102
RTVSPropertyOp33
 70
     0
102
RTVSPropertyOp34
 70
     0
102
RTVSPropertyOp35
 70
     0
102
RTVSPropertyOp36
 70
     0
102
RTVSPropertyOp37
 70
     0
102
RTVSPropertyOp38
 70
     0
102
RTVSPropertyOp39
 70
     0
102
RTVSPropertyOp40
 70
     0
102
RTVSPropertyOp41
 70
     0
102
RTVSPropertyOp42
 70
     0
102
RTVSPropertyOp43
 70
     0
102
RTVSPropertyOp44
 70
     0
102
RTVSPropertyOp45
 70
     0
102
RTVSPropertyOp46
 70
     0
102
RTVSPropertyOp47
 70
     0
102
RTVSPropertyOp48
 70
     0
102
RTVSPropertyOp49
 70
     0
102
RTVSPropertyOp50
 70
     0
102
RTVSPropertyOp51
 70
     0
102
RTVSPropertyOp52
 70
     0
102
RTVSPropertyOp53
 70
     0
102
RTVSPropertyOp54
 70
     0
102
RTVSPropertyOp55
 70
     0
102
RTVSPropertyOp56
 70
     0
102
RTVSPropertyOp57
 70
     0
102
RTVSPost2010Prop28
280
     0
102
RTVSPost2010PropOp28
 70
     0
102
RTVSPost2010Prop29
280
     1
102
RTVSPost2010PropOp29
 70
     0
102
RTVSPost2010Prop30
280
     1
102
RTVSPost2010PropOp30
 70
     0
102
RTVSPost2010Prop31
280
     0
102
RTVSPost2010PropOp31
 70
     0
102
RTVSPost2010Prop32
280
     0
102
RTVSPost2010PropOp32
 70
     0
102
RTVSPost2010Prop33
280
     0
102
RTVSPost2010PropOp33
 70
     0
102
RTVSPost2010Prop34
280
     0
102
RTVSPost2010PropOp34
 70
     0
102
RTVSPost2010Prop35
280
     0
102
RTVSPost2010PropOp35
 70
     0
102
RTVSPost2010Prop36
280
     0
102
RTVSPost2010PropOp36
 70
     0
102
RTVSPost2010Prop37
 90
       50
102
RTVSPost2010PropOp37
 70
     0
102
RTVSPost2010Prop38
140
0.0
102
RTVSPost2010PropOp38
 70
     0
102
RTVSPost2010Prop39
140
1.0
102
RTVSPost2010PropOp39
 70
     0
102
RTVSPost2010Prop40
 90
        0
102
RTVSPost2010PropOp40
 70
     0
102
RTVSPost2010Prop41ColorIndex
 90
       18
102
RTVSPost2010Prop41ColorRGB
 90
        0
102
RTVSPost2010PropOp41
 70
     0
102
RTVSPost2010Prop42
 90
       50
102
RTVSPost2010PropOp42
 70
     0
102
RTVSPost2010Prop43
 90
        3
102
RTVSPost2010PropOp43
 70
     0
102
RTVSPost2010Prop44ColorIndex
 90
        5
102
RTVSPost2010Prop44ColorRGB
 90
      255
102
RTVSPost2010PropOp44
 70
     0
102
RTVSPost2010Prop45
280
     0
102
RTVSPost2010PropOp45
 70
     0
102
RTVSPost2010Prop46
 90
       50
102
RTVSPost2010PropOp46
 70
     0
102
RTVSPost2010Prop47
 90
       50
102
RTVSPost2010PropOp47
 70
     0
102
RTVSPost2010Prop48
 90
       50
102
RTVSPost2010PropOp48
 70
     0
102
RTVSPost2010Prop49
280
     0
102
RTVSPost2010PropOp49
 70
     0
102
RTVSPost2010Prop50
 90
       50
102
RTVSPost2010PropOp50
 70
     0
102
RTVSPost2010Prop51ColorIndex
 90
      256
102
RTVSPost2010Prop51ColorRGB
 90
-16777216
102
RTVSPost2010PropOp51
 70
     0
102
RTVSPost2010Prop52
140
1.0
102
RTVSPost2010PropOp52
 70
     0
102
RTVSPost2010Prop53
 90
        2
102
RTVSPost2010PropOp53
 70
     0
102
RTVSPost2010Prop54
  1
strokes_ogs.tif
102
RTVSPost2010PropOp54
 70
     0
102
RTVSPost2010Prop55
280
     0
102
RTVSPost2010PropOp55
 70
     0
102
RTVSPost2010Prop56
140
1.0
102
RTVSPost2010PropOp56
 70
     0
102
RTVSPost2010Prop57
140
1.0
102
RTVSPost2010PropOp57
 70
     0
  0
XRECORD
  5
21C
102
{ACAD_REACTORS
330
21B
102
}
330
21B
100
AcDbXrecord
280
     1
102
RTVSPropertyOp0
 70
     1
102
RTVSPropertyOp1
 70
     1
102
RTVSPropertyOp2
 70
     1
102
RTVSPropertyOp3
 70
     1
102
RTVSPropertyOp4
 70
     1
102
RTVSPropertyOp5
 70
     1
102
RTVSPropertyOp6
 70
     1
102
RTVSPropertyOp7
 70
     1
102
RTVSPropertyOp8
 70
     1
102
RTVSPropertyOp9
 70
     1
102
RTVSPropertyOp10
 70
     1
102
RTVSPropertyOp11
 70
     1
102
RTVSPropertyOp12
 70
     1
102
RTVSPropertyOp13
 70
     1
102
RTVSPropertyOp14
 70
     1
102
RTVSPropertyOp15
 70
     1
102
RTVSPropertyOp16
 70
     1
102
RTVSPropertyOp17
 70
     1
102
RTVSPropertyOp18
 70
     1
102
RTVSPropertyOp19
 70
     1
102
RTVSPropertyOp20
 70
     1
102
RTVSPropertyOp21
 70
     1
102
RTVSPropertyOp22
 70
     1
102
RTVSPropertyOp23
 70
     1
102
RTVSPropertyOp24
 70
     1
102
RTVSPropertyOp25
 70
     1
102
RTVSPropertyOp26
 70
     1
102
RTVSPropertyOp27
 70
     1
102
RTVSPropertyOp28
 70
     1
102
RTVSPropertyOp29
 70
     1
102
RTVSPropertyOp30
 70
     1
102
RTVSPropertyOp31
 70
     1
102
RTVSPropertyOp32
 70
     1
102
RTVSPropertyOp33
 70
     1
102
RTVSPropertyOp34
 70
     1
102
RTVSPropertyOp35
 70
     1
102
RTVSPropertyOp36
 70
     1
102
RTVSPropertyOp37
 70
     1
102
RTVSPropertyOp38
 70
     1
102
RTVSPropertyOp39
 70
     1
102
RTVSPropertyOp40
 70
     1
102
RTVSPropertyOp41
 70
     1
102
RTVSPropertyOp42
 70
     1
102
RTVSPropertyOp43
 70
     1
102
RTVSPropertyOp44
 70
     1
102
RTVSPropertyOp45
 70
     1
102
RTVSPropertyOp46
 70
     1
102
RTVSPropertyOp47
 70
     1
102
RTVSPropertyOp48
 70
     1
102
RTVSPropertyOp49
 70
     1
102
RTVSPropertyOp50
 70
     1
102
RTVSPropertyOp51
 70
     0
102
RTVSPropertyOp52
 70
     0
102
RTVSPropertyOp53
 70
     1
102
RTVSPropertyOp54
 70
     1
102
RTVSPropertyOp55
 70
     1
102
RTVSPropertyOp56
 70
     1
102
RTVSPropertyOp57
 70
     1
102
RTVSPost2010Prop28
280
     0
102
RTVSPost2010PropOp28
 70
     1
102
RTVSPost2010Prop29
280
     1
102
RTVSPost2010PropOp29
 70
     1
102
RTVSPost2010Prop30
280
     1
102
RTVSPost2010PropOp30
 70
     1
102
RTVSPost2010Prop31
280
     0
102
RTVSPost2010PropOp31
 70
     1
102
RTVSPost2010Prop32
280
     0
102
RTVSPost2010PropOp32
 70
     1
102
RTVSPost2010Prop33
280
     0
102
RTVSPost2010PropOp33
 70
     1
102
RTVSPost2010Prop34
280
     0
102
RTVSPost2010PropOp34
 70
     1
102
RTVSPost2010Prop35
280
     0
102
RTVSPost2010PropOp35
 70
     1
102
RTVSPost2010Prop36
280
     0
102
RTVSPost2010PropOp36
 70
     1
102
RTVSPost2010Prop37
 90
       50
102
RTVSPost2010PropOp37
 70
     1
102
RTVSPost2010Prop38
140
0.0
102
RTVSPost2010PropOp38
 70
     1
102
RTVSPost2010Prop39
140
1.0
102
RTVSPost2010PropOp39
 70
     1
102
RTVSPost2010Prop40
 90
        0
102
RTVSPost2010PropOp40
 70
     1
102
RTVSPost2010Prop41ColorIndex
 90
       18
102
RTVSPost2010Prop41ColorRGB
 90
        0
102
RTVSPost2010PropOp41
 70
     1
102
RTVSPost2010Prop42
 90
       50
102
RTVSPost2010PropOp42
 70
     1
102
RTVSPost2010Prop43
 90
        3
102
RTVSPost2010PropOp43
 70
     1
102
RTVSPost2010Prop44ColorIndex
 90
        5
102
RTVSPost2010Prop44ColorRGB
 90
      255
102
RTVSPost2010PropOp44
 70
     1
102
RTVSPost2010Prop45
280
     0
102
RTVSPost2010PropOp45
 70
     1
102
RTVSPost2010Prop46
 90
       50
102
RTVSPost2010PropOp46
 70
     1
102
RTVSPost2010Prop47
 90
       50
102
RTVSPost2010PropOp47
 70
     1
102
RTVSPost2010Prop48
 90
       50
102
RTVSPost2010PropOp48
 70
     1
102
RTVSPost2010Prop49
280
     0
102
RTVSPost2010PropOp49
 70
     1
102
RTVSPost2010Prop50
 90
       50
102
RTVSPost2010PropOp50
 70
     1
102
RTVSPost2010Prop51ColorIndex
 90
      256
102
RTVSPost2010Prop51ColorRGB
 90
-16777216
102
RTVSPost2010PropOp51
 70
     0
102
RTVSPost2010Prop52
140
1.0
102
RTVSPost2010PropOp52
 70
     0
102
RTVSPost2010Prop53
 90
        2
102
RTVSPost2010PropOp53
 70
     1
102
RTVSPost2010Prop54
  1
strokes_ogs.tif
102
RTVSPost2010PropOp54
 70
     1
102
RTVSPost2010Prop55
280
     0
102
RTVSPost2010PropOp55
 70
     1
102
RTVSPost2010Prop56
140
1.0
102
RTVSPost2010PropOp56
 70
     1
102
RTVSPost2010Prop57
140
1.0
102
RTVSPost2010PropOp57
 70
     1
  0
XRECORD
  5
23A
102
{ACAD_REACTORS
330
239
102
}
330
239
100
AcDbXrecord
280
     1
102
RTVSPropertyOp0
 70
     1
102
RTVSPropertyOp1
 70
     1
102
RTVSPropertyOp2
 70
     1
102
RTVSPropertyOp3
 70
     1
102
RTVSPropertyOp4
 70
     1
102
RTVSPropertyOp5
 70
     1
102
RTVSPropertyOp6
 70
     1
102
RTVSPropertyOp7
 70
     1
102
RTVSPropertyOp8
 70
     1
102
RTVSPropertyOp9
 70
     1
102
RTVSPropertyOp10
 70
     1
102
RTVSPropertyOp11
 70
     1
102
RTVSPropertyOp12
 70
     1
102
RTVSPropertyOp13
 70
     1
102
RTVSPropertyOp14
 70
     1
102
RTVSPropertyOp15
 70
     1
102
RTVSPropertyOp16
 70
     1
102
RTVSPropertyOp17
 70
     1
102
RTVSPropertyOp18
 70
     1
102
RTVSPropertyOp19
 70
     1
102
RTVSPropertyOp20
 70
     1
102
RTVSPropertyOp21
 70
     1
102
RTVSPropertyOp22
 70
     1
102
RTVSPropertyOp23
 70
     1
102
RTVSPropertyOp24
 70
     1
102
RTVSPropertyOp25
 70
     1
102
RTVSPropertyOp26
 70
     1
102
RTVSPropertyOp27
 70
     1
102
RTVSPropertyOp28
 70
     1
102
RTVSPropertyOp29
 70
     1
102
RTVSPropertyOp30
 70
     1
102
RTVSPropertyOp31
 70
     1
102
RTVSPropertyOp32
 70
     1
102
RTVSPropertyOp33
 70
     1
102
RTVSPropertyOp34
 70
     1
102
RTVSPropertyOp35
 70
     1
102
RTVSPropertyOp36
 70
     1
102
RTVSPropertyOp37
 70
     1
102
RTVSPropertyOp38
 70
     1
102
RTVSPropertyOp39
 70
     1
102
RTVSPropertyOp40
 70
     1
102
RTVSPropertyOp41
 70
     1
102
RTVSPropertyOp42
 70
     1
102
RTVSPropertyOp43
 70
     1
102
RTVSPropertyOp44
 70
     1
102
RTVSPropertyOp45
 70
     1
102
RTVSPropertyOp46
 70
     1
102
RTVSPropertyOp47
 70
     1
102
RTVSPropertyOp48
 70
     1
102
RTVSPropertyOp49
 70
     1
102
RTVSPropertyOp50
 70
     1
102
RTVSPropertyOp51
 70
     0
102
RTVSPropertyOp52
 70
     0
102
RTVSPropertyOp53
 70
     1
102
RTVSPropertyOp54
 70
     1
102
RTVSPropertyOp55
 70
     1
102
RTVSPropertyOp56
 70
     1
102
RTVSPropertyOp57
 70
     1
102
RTVSPost2010Prop28
280
     0
102
RTVSPost2010PropOp28
 70
     1
102
RTVSPost2010Prop29
280
     1
102
RTVSPost2010PropOp29
 70
     1
102
RTVSPost2010Prop30
280
     1
102
RTVSPost2010PropOp30
 70
     1
102
RTVSPost2010Prop31
280
     0
102
RTVSPost2010PropOp31
 70
     1
102
RTVSPost2010Prop32
280
     0
102
RTVSPost2010PropOp32
 70
     1
102
RTVSPost2010Prop33
280
     0
102
RTVSPost2010PropOp33
 70
     1
102
RTVSPost2010Prop34
280
     0
102
RTVSPost2010PropOp34
 70
     1
102
RTVSPost2010Prop35
280
     0
102
RTVSPost2010PropOp35
 70
     1
102
RTVSPost2010Prop36
280
     0
102
RTVSPost2010PropOp36
 70
     1
102
RTVSPost2010Prop37
 90
       50
102
RTVSPost2010PropOp37
 70
     1
102
RTVSPost2010Prop38
140
0.0
102
RTVSPost2010PropOp38
 70
     1
102
RTVSPost2010Prop39
140
1.0
102
RTVSPost2010PropOp39
 70
     1
102
RTVSPost2010Prop40
 90
        0
102
RTVSPost2010PropOp40
 70
     1
102
RTVSPost2010Prop41ColorIndex
 90
       18
102
RTVSPost2010Prop41ColorRGB
 90
        0
102
RTVSPost2010PropOp41
 70
     1
102
RTVSPost2010Prop42
 90
       50
102
RTVSPost2010PropOp42
 70
     1
102
RTVSPost2010Prop43
 90
        3
102
RTVSPost2010PropOp43
 70
     1
102
RTVSPost2010Prop44ColorIndex
 90
        5
102
RTVSPost2010Prop44ColorRGB
 90
      255
102
RTVSPost2010PropOp44
 70
     1
102
RTVSPost2010Prop45
280
     0
102
RTVSPost2010PropOp45
 70
     1
102
RTVSPost2010Prop46
 90
       50
102
RTVSPost2010PropOp46
 70
     1
102
RTVSPost2010Prop47
 90
       50
102
RTVSPost2010PropOp47
 70
     1
102
RTVSPost2010Prop48
 90
       50
102
RTVSPost2010PropOp48
 70
     1
102
RTVSPost2010Prop49
280
     0
102
RTVSPost2010PropOp49
 70
     1
102
RTVSPost2010Prop50
 90
       50
102
RTVSPost2010PropOp50
 70
     1
102
RTVSPost2010Prop51ColorIndex
 90
      256
102
RTVSPost2010Prop51ColorRGB
 90
-16777216
102
RTVSPost2010PropOp51
 70
     0
102
RTVSPost2010Prop52
140
1.0
102
RTVSPost2010PropOp52
 70
     0
102
RTVSPost2010Prop53
 90
        2
102
RTVSPost2010PropOp53
 70
     1
102
RTVSPost2010Prop54
  1
strokes_ogs.tif
102
RTVSPost2010PropOp54
 70
     1
102
RTVSPost2010Prop55
280
     0
102
RTVSPost2010PropOp55
 70
     1
102
RTVSPost2010Prop56
140
1.0
102
RTVSPost2010PropOp56
 70
     1
102
RTVSPost2010Prop57
140
1.0
102
RTVSPost2010PropOp57
 70
     1
  0
XRECORD
  5
238
102
{ACAD_REACTORS
330
237
102
}
330
237
100
AcDbXrecord
280
     1
102
RTVSPropertyOp0
 70
     1
102
RTVSPropertyOp1
 70
     1
102
RTVSPropertyOp2
 70
     1
102
RTVSPropertyOp3
 70
     1
102
RTVSPropertyOp4
 70
     1
102
RTVSPropertyOp5
 70
     1
102
RTVSPropertyOp6
 70
     1
102
RTVSPropertyOp7
 70
     1
102
RTVSPropertyOp8
 70
     1
102
RTVSPropertyOp9
 70
     1
102
RTVSPropertyOp10
 70
     1
102
RTVSPropertyOp11
 70
     1
102
RTVSPropertyOp12
 70
     1
102
RTVSPropertyOp13
 70
     1
102
RTVSPropertyOp14
 70
     1
102
RTVSPropertyOp15
 70
     1
102
RTVSPropertyOp16
 70
     1
102
RTVSPropertyOp17
 70
     1
102
RTVSPropertyOp18
 70
     1
102
RTVSPropertyOp19
 70
     1
102
RTVSPropertyOp20
 70
     1
102
RTVSPropertyOp21
 70
     1
102
RTVSPropertyOp22
 70
     1
102
RTVSPropertyOp23
 70
     1
102
RTVSPropertyOp24
 70
     1
102
RTVSPropertyOp25
 70
     1
102
RTVSPropertyOp26
 70
     1
102
RTVSPropertyOp27
 70
     1
102
RTVSPropertyOp28
 70
     1
102
RTVSPropertyOp29
 70
     1
102
RTVSPropertyOp30
 70
     1
102
RTVSPropertyOp31
 70
     1
102
RTVSPropertyOp32
 70
     1
102
RTVSPropertyOp33
 70
     1
102
RTVSPropertyOp34
 70
     1
102
RTVSPropertyOp35
 70
     1
102
RTVSPropertyOp36
 70
     1
102
RTVSPropertyOp37
 70
     1
102
RTVSPropertyOp38
 70
     1
102
RTVSPropertyOp39
 70
     1
102
RTVSPropertyOp40
 70
     1
102
RTVSPropertyOp41
 70
     1
102
RTVSPropertyOp42
 70
     1
102
RTVSPropertyOp43
 70
     1
102
RTVSPropertyOp44
 70
     1
102
RTVSPropertyOp45
 70
     1
102
RTVSPropertyOp46
 70
     1
102
RTVSPropertyOp47
 70
     1
102
RTVSPropertyOp48
 70
     1
102
RTVSPropertyOp49
 70
     1
102
RTVSPropertyOp50
 70
     1
102
RTVSPropertyOp51
 70
     0
102
RTVSPropertyOp52
 70
     0
102
RTVSPropertyOp53
 70
     1
102
RTVSPropertyOp54
 70
     1
102
RTVSPropertyOp55
 70
     1
102
RTVSPropertyOp56
 70
     1
102
RTVSPropertyOp57
 70
     1
102
RTVSPost2010Prop28
280
     0
102
RTVSPost2010PropOp28
 70
     1
102
RTVSPost2010Prop29
280
     1
102
RTVSPost2010PropOp29
 70
     1
102
RTVSPost2010Prop30
280
     1
102
RTVSPost2010PropOp30
 70
     1
102
RTVSPost2010Prop31
280
     0
102
RTVSPost2010PropOp31
 70
     1
102
RTVSPost2010Prop32
280
     0
102
RTVSPost2010PropOp32
 70
     1
102
RTVSPost2010Prop33
280
     0
102
RTVSPost2010PropOp33
 70
     1
102
RTVSPost2010Prop34
280
     0
102
RTVSPost2010PropOp34
 70
     1
102
RTVSPost2010Prop35
280
     0
102
RTVSPost2010PropOp35
 70
     1
102
RTVSPost2010Prop36
280
     0
102
RTVSPost2010PropOp36
 70
     1
102
RTVSPost2010Prop37
 90
       50
102
RTVSPost2010PropOp37
 70
     1
102
RTVSPost2010Prop38
140
0.0
102
RTVSPost2010PropOp38
 70
     1
102
RTVSPost2010Prop39
140
1.0
102
RTVSPost2010PropOp39
 70
     1
102
RTVSPost2010Prop40
 90
        0
102
RTVSPost2010PropOp40
 70
     1
102
RTVSPost2010Prop41ColorIndex
 90
       18
102
RTVSPost2010Prop41ColorRGB
 90
        0
102
RTVSPost2010PropOp41
 70
     1
102
RTVSPost2010Prop42
 90
       50
102
RTVSPost2010PropOp42
 70
     1
102
RTVSPost2010Prop43
 90
        3
102
RTVSPost2010PropOp43
 70
     1
102
RTVSPost2010Prop44ColorIndex
 90
        5
102
RTVSPost2010Prop44ColorRGB
 90
      255
102
RTVSPost2010PropOp44
 70
     1
102
RTVSPost2010Prop45
280
     0
102
RTVSPost2010PropOp45
 70
     1
102
RTVSPost2010Prop46
 90
       50
102
RTVSPost2010PropOp46
 70
     1
102
RTVSPost2010Prop47
 90
       50
102
RTVSPost2010PropOp47
 70
     1
102
RTVSPost2010Prop48
 90
       50
102
RTVSPost2010PropOp48
 70
     1
102
RTVSPost2010Prop49
280
     0
102
RTVSPost2010PropOp49
 70
     1
102
RTVSPost2010Prop50
 90
       50
102
RTVSPost2010PropOp50
 70
     1
102
RTVSPost2010Prop51ColorIndex
 90
      256
102
RTVSPost2010Prop51ColorRGB
 90
-16777216
102
RTVSPost2010PropOp51
 70
     0
102
RTVSPost2010Prop52
140
1.0
102
RTVSPost2010PropOp52
 70
     0
102
RTVSPost2010Prop53
 90
        2
102
RTVSPost2010PropOp53
 70
     1
102
RTVSPost2010Prop54
  1
strokes_ogs.tif
102
RTVSPost2010PropOp54
 70
     1
102
RTVSPost2010Prop55
280
     0
102
RTVSPost2010PropOp55
 70
     1
102
RTVSPost2010Prop56
140
1.0
102
RTVSPost2010PropOp56
 70
     1
102
RTVSPost2010Prop57
140
1.0
102
RTVSPost2010PropOp57
 70
     1
  0
XRECORD
  5
232
102
{ACAD_REACTORS
330
231
102
}
330
231
100
AcDbXrecord
280
     1
102
RTVSPropertyOp0
 70
     1
102
RTVSPropertyOp1
 70
     1
102
RTVSPropertyOp2
 70
     1
102
RTVSPropertyOp3
 70
     1
102
RTVSPropertyOp4
 70
     1
102
RTVSPropertyOp5
 70
     1
102
RTVSPropertyOp6
 70
     1
102
RTVSPropertyOp7
 70
     1
102
RTVSPropertyOp8
 70
     1
102
RTVSPropertyOp9
 70
     1
102
RTVSPropertyOp10
 70
     1
102
RTVSPropertyOp11
 70
     1
102
RTVSPropertyOp12
 70
     1
102
RTVSPropertyOp13
 70
     1
102
RTVSPropertyOp14
 70
     1
102
RTVSPropertyOp15
 70
     1
102
RTVSPropertyOp16
 70
     1
102
RTVSPropertyOp17
 70
     1
102
RTVSPropertyOp18
 70
     1
102
RTVSPropertyOp19
 70
     1
102
RTVSPropertyOp20
 70
     1
102
RTVSPropertyOp21
 70
     1
102
RTVSPropertyOp22
 70
     1
102
RTVSPropertyOp23
 70
     1
102
RTVSPropertyOp24
 70
     1
102
RTVSPropertyOp25
 70
     1
102
RTVSPropertyOp26
 70
     1
102
RTVSPropertyOp27
 70
     1
102
RTVSPropertyOp28
 70
     1
102
RTVSPropertyOp29
 70
     1
102
RTVSPropertyOp30
 70
     1
102
RTVSPropertyOp31
 70
     1
102
RTVSPropertyOp32
 70
     1
102
RTVSPropertyOp33
 70
     1
102
RTVSPropertyOp34
 70
     1
102
RTVSPropertyOp35
 70
     1
102
RTVSPropertyOp36
 70
     1
102
RTVSPropertyOp37
 70
     1
102
RTVSPropertyOp38
 70
     1
102
RTVSPropertyOp39
 70
     1
102
RTVSPropertyOp40
 70
     1
102
RTVSPropertyOp41
 70
     1
102
RTVSPropertyOp42
 70
     1
102
RTVSPropertyOp43
 70
     1
102
RTVSPropertyOp44
 70
     1
102
RTVSPropertyOp45
 70
     1
102
RTVSPropertyOp46
 70
     1
102
RTVSPropertyOp47
 70
     1
102
RTVSPropertyOp48
 70
     1
102
RTVSPropertyOp49
 70
     1
102
RTVSPropertyOp50
 70
     1
102
RTVSPropertyOp51
 70
     0
102
RTVSPropertyOp52
 70
     0
102
RTVSPropertyOp53
 70
     1
102
RTVSPropertyOp54
 70
     1
102
RTVSPropertyOp55
 70
     1
102
RTVSPropertyOp56
 70
     1
102
RTVSPropertyOp57
 70
     1
102
RTVSPost2010Prop28
280
     0
102
RTVSPost2010PropOp28
 70
     1
102
RTVSPost2010Prop29
280
     1
102
RTVSPost2010PropOp29
 70
     1
102
RTVSPost2010Prop30
280
     1
102
RTVSPost2010PropOp30
 70
     1
102
RTVSPost2010Prop31
280
     0
102
RTVSPost2010PropOp31
 70
     1
102
RTVSPost2010Prop32
280
     0
102
RTVSPost2010PropOp32
 70
     1
102
RTVSPost2010Prop33
280
     0
102
RTVSPost2010PropOp33
 70
     1
102
RTVSPost2010Prop34
280
     0
102
RTVSPost2010PropOp34
 70
     1
102
RTVSPost2010Prop35
280
     0
102
RTVSPost2010PropOp35
 70
     1
102
RTVSPost2010Prop36
280
     0
102
RTVSPost2010PropOp36
 70
     1
102
RTVSPost2010Prop37
 90
       50
102
RTVSPost2010PropOp37
 70
     1
102
RTVSPost2010Prop38
140
0.0
102
RTVSPost2010PropOp38
 70
     1
102
RTVSPost2010Prop39
140
1.0
102
RTVSPost2010PropOp39
 70
     1
102
RTVSPost2010Prop40
 90
        0
102
RTVSPost2010PropOp40
 70
     1
102
RTVSPost2010Prop41ColorIndex
 90
       18
102
RTVSPost2010Prop41ColorRGB
 90
        0
102
RTVSPost2010PropOp41
 70
     1
102
RTVSPost2010Prop42
 90
       50
102
RTVSPost2010PropOp42
 70
     1
102
RTVSPost2010Prop43
 90
        3
102
RTVSPost2010PropOp43
 70
     1
102
RTVSPost2010Prop44ColorIndex
 90
        5
102
RTVSPost2010Prop44ColorRGB
 90
      255
102
RTVSPost2010PropOp44
 70
     1
102
RTVSPost2010Prop45
280
     0
102
RTVSPost2010PropOp45
 70
     1
102
RTVSPost2010Prop46
 90
       50
102
RTVSPost2010PropOp46
 70
     1
102
RTVSPost2010Prop47
 90
       50
102
RTVSPost2010PropOp47
 70
     1
102
RTVSPost2010Prop48
 90
       50
102
RTVSPost2010PropOp48
 70
     1
102
RTVSPost2010Prop49
280
     0
102
RTVSPost2010PropOp49
 70
     1
102
RTVSPost2010Prop50
 90
       50
102
RTVSPost2010PropOp50
 70
     1
102
RTVSPost2010Prop51ColorIndex
 90
      256
102
RTVSPost2010Prop51ColorRGB
 90
-16777216
102
RTVSPost2010PropOp51
 70
     0
102
RTVSPost2010Prop52
140
1.0
102
RTVSPost2010PropOp52
 70
     0
102
RTVSPost2010Prop53
 90
        2
102
RTVSPost2010PropOp53
 70
     1
102
RTVSPost2010Prop54
  1
strokes_ogs.tif
102
RTVSPost2010PropOp54
 70
     1
102
RTVSPost2010Prop55
280
     0
102
RTVSPost2010PropOp55
 70
     1
102
RTVSPost2010Prop56
140
1.0
102
RTVSPost2010PropOp56
 70
     1
102
RTVSPost2010Prop57
140
1.0
102
RTVSPost2010PropOp57
 70
     1
  0
XRECORD
  5
234
102
{ACAD_REACTORS
330
233
102
}
330
233
100
AcDbXrecord
280
     1
102
RTVSPropertyOp0
 70
     1
102
RTVSPropertyOp1
 70
     1
102
RTVSPropertyOp2
 70
     1
102
RTVSPropertyOp3
 70
     1
102
RTVSPropertyOp4
 70
     1
102
RTVSPropertyOp5
 70
     1
102
RTVSPropertyOp6
 70
     1
102
RTVSPropertyOp7
 70
     1
102
RTVSPropertyOp8
 70
     1
102
RTVSPropertyOp9
 70
     1
102
RTVSPropertyOp10
 70
     1
102
RTVSPropertyOp11
 70
     1
102
RTVSPropertyOp12
 70
     1
102
RTVSPropertyOp13
 70
     1
102
RTVSPropertyOp14
 70
     1
102
RTVSPropertyOp15
 70
     1
102
RTVSPropertyOp16
 70
     1
102
RTVSPropertyOp17
 70
     1
102
RTVSPropertyOp18
 70
     1
102
RTVSPropertyOp19
 70
     1
102
RTVSPropertyOp20
 70
     1
102
RTVSPropertyOp21
 70
     1
102
RTVSPropertyOp22
 70
     1
102
RTVSPropertyOp23
 70
     1
102
RTVSPropertyOp24
 70
     1
102
RTVSPropertyOp25
 70
     1
102
RTVSPropertyOp26
 70
     1
102
RTVSPropertyOp27
 70
     1
102
RTVSPropertyOp28
 70
     1
102
RTVSPropertyOp29
 70
     1
102
RTVSPropertyOp30
 70
     1
102
RTVSPropertyOp31
 70
     1
102
RTVSPropertyOp32
 70
     1
102
RTVSPropertyOp33
 70
     1
102
RTVSPropertyOp34
 70
     1
102
RTVSPropertyOp35
 70
     1
102
RTVSPropertyOp36
 70
     1
102
RTVSPropertyOp37
 70
     1
102
RTVSPropertyOp38
 70
     1
102
RTVSPropertyOp39
 70
     1
102
RTVSPropertyOp40
 70
     1
102
RTVSPropertyOp41
 70
     1
102
RTVSPropertyOp42
 70
     1
102
RTVSPropertyOp43
 70
     1
102
RTVSPropertyOp44
 70
     1
102
RTVSPropertyOp45
 70
     1
102
RTVSPropertyOp46
 70
     1
102
RTVSPropertyOp47
 70
     1
102
RTVSPropertyOp48
 70
     1
102
RTVSPropertyOp49
 70
     1
102
RTVSPropertyOp50
 70
     1
102
RTVSPropertyOp51
 70
     0
102
RTVSPropertyOp52
 70
     0
102
RTVSPropertyOp53
 70
     1
102
RTVSPropertyOp54
 70
     1
102
RTVSPropertyOp55
 70
     1
102
RTVSPropertyOp56
 70
     1
102
RTVSPropertyOp57
 70
     1
102
RTVSPost2010Prop28
280
     0
102
RTVSPost2010PropOp28
 70
     1
102
RTVSPost2010Prop29
280
     1
102
RTVSPost2010PropOp29
 70
     1
102
RTVSPost2010Prop30
280
     1
102
RTVSPost2010PropOp30
 70
     1
102
RTVSPost2010Prop31
280
     0
102
RTVSPost2010PropOp31
 70
     1
102
RTVSPost2010Prop32
280
     0
102
RTVSPost2010PropOp32
 70
     1
102
RTVSPost2010Prop33
280
     0
102
RTVSPost2010PropOp33
 70
     1
102
RTVSPost2010Prop34
280
     0
102
RTVSPost2010PropOp34
 70
     1
102
RTVSPost2010Prop35
280
     0
102
RTVSPost2010PropOp35
 70
     1
102
RTVSPost2010Prop36
280
     0
102
RTVSPost2010PropOp36
 70
     1
102
RTVSPost2010Prop37
 90
       50
102
RTVSPost2010PropOp37
 70
     1
102
RTVSPost2010Prop38
140
0.0
102
RTVSPost2010PropOp38
 70
     1
102
RTVSPost2010Prop39
140
1.0
102
RTVSPost2010PropOp39
 70
     1
102
RTVSPost2010Prop40
 90
        0
102
RTVSPost2010PropOp40
 70
     1
102
RTVSPost2010Prop41ColorIndex
 90
       18
102
RTVSPost2010Prop41ColorRGB
 90
        0
102
RTVSPost2010PropOp41
 70
     1
102
RTVSPost2010Prop42
 90
       50
102
RTVSPost2010PropOp42
 70
     1
102
RTVSPost2010Prop43
 90
        3
102
RTVSPost2010PropOp43
 70
     1
102
RTVSPost2010Prop44ColorIndex
 90
        5
102
RTVSPost2010Prop44ColorRGB
 90
      255
102
RTVSPost2010PropOp44
 70
     1
102
RTVSPost2010Prop45
280
     0
102
RTVSPost2010PropOp45
 70
     1
102
RTVSPost2010Prop46
 90
       50
102
RTVSPost2010PropOp46
 70
     1
102
RTVSPost2010Prop47
 90
       50
102
RTVSPost2010PropOp47
 70
     1
102
RTVSPost2010Prop48
 90
       50
102
RTVSPost2010PropOp48
 70
     1
102
RTVSPost2010Prop49
280
     0
102
RTVSPost2010PropOp49
 70
     1
102
RTVSPost2010Prop50
 90
       50
102
RTVSPost2010PropOp50
 70
     1
102
RTVSPost2010Prop51ColorIndex
 90
      256
102
RTVSPost2010Prop51ColorRGB
 90
-16777216
102
RTVSPost2010PropOp51
 70
     0
102
RTVSPost2010Prop52
140
1.0
102
RTVSPost2010PropOp52
 70
     0
102
RTVSPost2010Prop53
 90
        2
102
RTVSPost2010PropOp53
 70
     1
102
RTVSPost2010Prop54
  1
strokes_ogs.tif
102
RTVSPost2010PropOp54
 70
     1
102
RTVSPost2010Prop55
280
     0
102
RTVSPost2010PropOp55
 70
     1
102
RTVSPost2010Prop56
140
1.0
102
RTVSPost2010PropOp56
 70
     1
102
RTVSPost2010Prop57
140
1.0
102
RTVSPost2010PropOp57
 70
     1
  0
XRECORD
  5
224
102
{ACAD_REACTORS
330
223
102
}
330
223
100
AcDbXrecord
280
     1
102
RTVSPropertyOp0
 70
     1
102
RTVSPropertyOp1
 70
     1
102
RTVSPropertyOp2
 70
     1
102
RTVSPropertyOp3
 70
     1
102
RTVSPropertyOp4
 70
     1
102
RTVSPropertyOp5
 70
     1
102
RTVSPropertyOp6
 70
     1
102
RTVSPropertyOp7
 70
     1
102
RTVSPropertyOp8
 70
     1
102
RTVSPropertyOp9
 70
     1
102
RTVSPropertyOp10
 70
     1
102
RTVSPropertyOp11
 70
     1
102
RTVSPropertyOp12
 70
     1
102
RTVSPropertyOp13
 70
     1
102
RTVSPropertyOp14
 70
     1
102
RTVSPropertyOp15
 70
     1
102
RTVSPropertyOp16
 70
     1
102
RTVSPropertyOp17
 70
     1
102
RTVSPropertyOp18
 70
     1
102
RTVSPropertyOp19
 70
     1
102
RTVSPropertyOp20
 70
     1
102
RTVSPropertyOp21
 70
     1
102
RTVSPropertyOp22
 70
     1
102
RTVSPropertyOp23
 70
     1
102
RTVSPropertyOp24
 70
     1
102
RTVSPropertyOp25
 70
     1
102
RTVSPropertyOp26
 70
     1
102
RTVSPropertyOp27
 70
     1
102
RTVSPropertyOp28
 70
     1
102
RTVSPropertyOp29
 70
     1
102
RTVSPropertyOp30
 70
     1
102
RTVSPropertyOp31
 70
     1
102
RTVSPropertyOp32
 70
     1
102
RTVSPropertyOp33
 70
     1
102
RTVSPropertyOp34
 70
     1
102
RTVSPropertyOp35
 70
     1
102
RTVSPropertyOp36
 70
     1
102
RTVSPropertyOp37
 70
     1
102
RTVSPropertyOp38
 70
     1
102
RTVSPropertyOp39
 70
     1
102
RTVSPropertyOp40
 70
     1
102
RTVSPropertyOp41
 70
     1
102
RTVSPropertyOp42
 70
     1
102
RTVSPropertyOp43
 70
     1
102
RTVSPropertyOp44
 70
     1
102
RTVSPropertyOp45
 70
     1
102
RTVSPropertyOp46
 70
     1
102
RTVSPropertyOp47
 70
     1
102
RTVSPropertyOp48
 70
     1
102
RTVSPropertyOp49
 70
     1
102
RTVSPropertyOp50
 70
     1
102
RTVSPropertyOp51
 70
     0
102
RTVSPropertyOp52
 70
     0
102
RTVSPropertyOp53
 70
     1
102
RTVSPropertyOp54
 70
     1
102
RTVSPropertyOp55
 70
     1
102
RTVSPropertyOp56
 70
     1
102
RTVSPropertyOp57
 70
     1
102
RTVSPost2010Prop28
280
     0
102
RTVSPost2010PropOp28
 70
     1
102
RTVSPost2010Prop29
280
     1
102
RTVSPost2010PropOp29
 70
     1
102
RTVSPost2010Prop30
280
     1
102
RTVSPost2010PropOp30
 70
     1
102
RTVSPost2010Prop31
280
     0
102
RTVSPost2010PropOp31
 70
     1
102
RTVSPost2010Prop32
280
     0
102
RTVSPost2010PropOp32
 70
     1
102
RTVSPost2010Prop33
280
     0
102
RTVSPost2010PropOp33
 70
     1
102
RTVSPost2010Prop34
280
     0
102
RTVSPost2010PropOp34
 70
     1
102
RTVSPost2010Prop35
280
     0
102
RTVSPost2010PropOp35
 70
     1
102
RTVSPost2010Prop36
280
     0
102
RTVSPost2010PropOp36
 70
     1
102
RTVSPost2010Prop37
 90
       50
102
RTVSPost2010PropOp37
 70
     1
102
RTVSPost2010Prop38
140
0.0
102
RTVSPost2010PropOp38
 70
     1
102
RTVSPost2010Prop39
140
1.0
102
RTVSPost2010PropOp39
 70
     1
102
RTVSPost2010Prop40
 90
        0
102
RTVSPost2010PropOp40
 70
     1
102
RTVSPost2010Prop41ColorIndex
 90
       18
102
RTVSPost2010Prop41ColorRGB
 90
        0
102
RTVSPost2010PropOp41
 70
     1
102
RTVSPost2010Prop42
 90
       50
102
RTVSPost2010PropOp42
 70
     1
102
RTVSPost2010Prop43
 90
        3
102
RTVSPost2010PropOp43
 70
     1
102
RTVSPost2010Prop44ColorIndex
 90
        5
102
RTVSPost2010Prop44ColorRGB
 90
      255
102
RTVSPost2010PropOp44
 70
     1
102
RTVSPost2010Prop45
280
     0
102
RTVSPost2010PropOp45
 70
     1
102
RTVSPost2010Prop46
 90
       50
102
RTVSPost2010PropOp46
 70
     1
102
RTVSPost2010Prop47
 90
       50
102
RTVSPost2010PropOp47
 70
     1
102
RTVSPost2010Prop48
 90
       50
102
RTVSPost2010PropOp48
 70
     1
102
RTVSPost2010Prop49
280
     0
102
RTVSPost2010PropOp49
 70
     1
102
RTVSPost2010Prop50
 90
       50
102
RTVSPost2010PropOp50
 70
     1
102
RTVSPost2010Prop51ColorIndex
 90
      256
102
RTVSPost2010Prop51ColorRGB
 90
-16777216
102
RTVSPost2010PropOp51
 70
     0
102
RTVSPost2010Prop52
140
1.0
102
RTVSPost2010PropOp52
 70
     0
102
RTVSPost2010Prop53
 90
        2
102
RTVSPost2010PropOp53
 70
     1
102
RTVSPost2010Prop54
  1
strokes_ogs.tif
102
RTVSPost2010PropOp54
 70
     1
102
RTVSPost2010Prop55
280
     0
102
RTVSPost2010PropOp55
 70
     1
102
RTVSPost2010Prop56
140
1.0
102
RTVSPost2010PropOp56
 70
     1
102
RTVSPost2010Prop57
140
1.0
102
RTVSPost2010PropOp57
 70
     1
  0
XRECORD
  5
216
102
{ACAD_REACTORS
330
215
102
}
330
215
100
AcDbXrecord
280
     1
102
RTVSPropertyOp0
 70
     1
102
RTVSPropertyOp1
 70
     1
102
RTVSPropertyOp2
 70
     1
102
RTVSPropertyOp3
 70
     1
102
RTVSPropertyOp4
 70
     1
102
RTVSPropertyOp5
 70
     1
102
RTVSPropertyOp6
 70
     1
102
RTVSPropertyOp7
 70
     1
102
RTVSPropertyOp8
 70
     1
102
RTVSPropertyOp9
 70
     1
102
RTVSPropertyOp10
 70
     1
102
RTVSPropertyOp11
 70
     1
102
RTVSPropertyOp12
 70
     1
102
RTVSPropertyOp13
 70
     1
102
RTVSPropertyOp14
 70
     1
102
RTVSPropertyOp15
 70
     1
102
RTVSPropertyOp16
 70
     1
102
RTVSPropertyOp17
 70
     1
102
RTVSPropertyOp18
 70
     1
102
RTVSPropertyOp19
 70
     1
102
RTVSPropertyOp20
 70
     1
102
RTVSPropertyOp21
 70
     1
102
RTVSPropertyOp22
 70
     1
102
RTVSPropertyOp23
 70
     1
102
RTVSPropertyOp24
 70
     1
102
RTVSPropertyOp25
 70
     1
102
RTVSPropertyOp26
 70
     1
102
RTVSPropertyOp27
 70
     1
102
RTVSPropertyOp28
 70
     1
102
RTVSPropertyOp29
 70
     1
102
RTVSPropertyOp30
 70
     1
102
RTVSPropertyOp31
 70
     1
102
RTVSPropertyOp32
 70
     1
102
RTVSPropertyOp33
 70
     1
102
RTVSPropertyOp34
 70
     1
102
RTVSPropertyOp35
 70
     1
102
RTVSPropertyOp36
 70
     1
102
RTVSPropertyOp37
 70
     1
102
RTVSPropertyOp38
 70
     1
102
RTVSPropertyOp39
 70
     1
102
RTVSPropertyOp40
 70
     1
102
RTVSPropertyOp41
 70
     1
102
RTVSPropertyOp42
 70
     1
102
RTVSPropertyOp43
 70
     1
102
RTVSPropertyOp44
 70
     1
102
RTVSPropertyOp45
 70
     1
102
RTVSPropertyOp46
 70
     1
102
RTVSPropertyOp47
 70
     1
102
RTVSPropertyOp48
 70
     1
102
RTVSPropertyOp49
 70
     1
102
RTVSPropertyOp50
 70
     1
102
RTVSPropertyOp51
 70
     0
102
RTVSPropertyOp52
 70
     0
102
RTVSPropertyOp53
 70
     1
102
RTVSPropertyOp54
 70
     1
102
RTVSPropertyOp55
 70
     1
102
RTVSPropertyOp56
 70
     1
102
RTVSPropertyOp57
 70
     1
102
RTVSPost2010Prop28
280
     0
102
RTVSPost2010PropOp28
 70
     1
102
RTVSPost2010Prop29
280
     1
102
RTVSPost2010PropOp29
 70
     1
102
RTVSPost2010Prop30
280
     1
102
RTVSPost2010PropOp30
 70
     1
102
RTVSPost2010Prop31
280
     0
102
RTVSPost2010PropOp31
 70
     1
102
RTVSPost2010Prop32
280
     0
102
RTVSPost2010PropOp32
 70
     1
102
RTVSPost2010Prop33
280
     0
102
RTVSPost2010PropOp33
 70
     1
102
RTVSPost2010Prop34
280
     0
102
RTVSPost2010PropOp34
 70
     1
102
RTVSPost2010Prop35
280
     0
102
RTVSPost2010PropOp35
 70
     1
102
RTVSPost2010Prop36
280
     0
102
RTVSPost2010PropOp36
 70
     1
102
RTVSPost2010Prop37
 90
       50
102
RTVSPost2010PropOp37
 70
     1
102
RTVSPost2010Prop38
140
0.0
102
RTVSPost2010PropOp38
 70
     1
102
RTVSPost2010Prop39
140
1.0
102
RTVSPost2010PropOp39
 70
     1
102
RTVSPost2010Prop40
 90
        0
102
RTVSPost2010PropOp40
 70
     1
102
RTVSPost2010Prop41ColorIndex
 90
       18
102
RTVSPost2010Prop41ColorRGB
 90
        0
102
RTVSPost2010PropOp41
 70
     1
102
RTVSPost2010Prop42
 90
       50
102
RTVSPost2010PropOp42
 70
     1
102
RTVSPost2010Prop43
 90
        3
102
RTVSPost2010PropOp43
 70
     1
102
RTVSPost2010Prop44ColorIndex
 90
        5
102
RTVSPost2010Prop44ColorRGB
 90
      255
102
RTVSPost2010PropOp44
 70
     1
102
RTVSPost2010Prop45
280
     0
102
RTVSPost2010PropOp45
 70
     1
102
RTVSPost2010Prop46
 90
       50
102
RTVSPost2010PropOp46
 70
     1
102
RTVSPost2010Prop47
 90
       50
102
RTVSPost2010PropOp47
 70
     1
102
RTVSPost2010Prop48
 90
       50
102
RTVSPost2010PropOp48
 70
     1
102
RTVSPost2010Prop49
280
     0
102
RTVSPost2010PropOp49
 70
     1
102
RTVSPost2010Prop50
 90
       50
102
RTVSPost2010PropOp50
 70
     1
102
RTVSPost2010Prop51ColorIndex
 90
      256
102
RTVSPost2010Prop51ColorRGB
 90
-16777216
102
RTVSPost2010PropOp51
 70
     0
102
RTVSPost2010Prop52
140
1.0
102
RTVSPost2010PropOp52
 70
     0
102
RTVSPost2010Prop53
 90
        2
102
RTVSPost2010PropOp53
 70
     1
102
RTVSPost2010Prop54
  1
strokes_ogs.tif
102
RTVSPost2010PropOp54
 70
     1
102
RTVSPost2010Prop55
280
     0
102
RTVSPost2010PropOp55
 70
     1
102
RTVSPost2010Prop56
140
1.0
102
RTVSPost2010PropOp56
 70
     1
102
RTVSPost2010Prop57
140
1.0
102
RTVSPost2010PropOp57
 70
     1
  0
XRECORD
  5
236
102
{ACAD_REACTORS
330
235
102
}
330
235
100
AcDbXrecord
280
     1
102
RTVSPropertyOp0
 70
     1
102
RTVSPropertyOp1
 70
     1
102
RTVSPropertyOp2
 70
     1
102
RTVSPropertyOp3
 70
     1
102
RTVSPropertyOp4
 70
     1
102
RTVSPropertyOp5
 70
     1
102
RTVSPropertyOp6
 70
     1
102
RTVSPropertyOp7
 70
     1
102
RTVSPropertyOp8
 70
     1
102
RTVSPropertyOp9
 70
     1
102
RTVSPropertyOp10
 70
     1
102
RTVSPropertyOp11
 70
     1
102
RTVSPropertyOp12
 70
     1
102
RTVSPropertyOp13
 70
     1
102
RTVSPropertyOp14
 70
     1
102
RTVSPropertyOp15
 70
     1
102
RTVSPropertyOp16
 70
     1
102
RTVSPropertyOp17
 70
     1
102
RTVSPropertyOp18
 70
     1
102
RTVSPropertyOp19
 70
     1
102
RTVSPropertyOp20
 70
     1
102
RTVSPropertyOp21
 70
     1
102
RTVSPropertyOp22
 70
     1
102
RTVSPropertyOp23
 70
     1
102
RTVSPropertyOp24
 70
     1
102
RTVSPropertyOp25
 70
     1
102
RTVSPropertyOp26
 70
     1
102
RTVSPropertyOp27
 70
     1
102
RTVSPropertyOp28
 70
     1
102
RTVSPropertyOp29
 70
     1
102
RTVSPropertyOp30
 70
     1
102
RTVSPropertyOp31
 70
     1
102
RTVSPropertyOp32
 70
     1
102
RTVSPropertyOp33
 70
     1
102
RTVSPropertyOp34
 70
     1
102
RTVSPropertyOp35
 70
     1
102
RTVSPropertyOp36
 70
     1
102
RTVSPropertyOp37
 70
     1
102
RTVSPropertyOp38
 70
     1
102
RTVSPropertyOp39
 70
     1
102
RTVSPropertyOp40
 70
     1
102
RTVSPropertyOp41
 70
     1
102
RTVSPropertyOp42
 70
     1
102
RTVSPropertyOp43
 70
     1
102
RTVSPropertyOp44
 70
     1
102
RTVSPropertyOp45
 70
     1
102
RTVSPropertyOp46
 70
     1
102
RTVSPropertyOp47
 70
     1
102
RTVSPropertyOp48
 70
     1
102
RTVSPropertyOp49
 70
     1
102
RTVSPropertyOp50
 70
     1
102
RTVSPropertyOp51
 70
     0
102
RTVSPropertyOp52
 70
     0
102
RTVSPropertyOp53
 70
     1
102
RTVSPropertyOp54
 70
     1
102
RTVSPropertyOp55
 70
     1
102
RTVSPropertyOp56
 70
     1
102
RTVSPropertyOp57
 70
     1
102
RTVSPost2010Prop28
280
     0
102
RTVSPost2010PropOp28
 70
     1
102
RTVSPost2010Prop29
280
     1
102
RTVSPost2010PropOp29
 70
     1
102
RTVSPost2010Prop30
280
     1
102
RTVSPost2010PropOp30
 70
     1
102
RTVSPost2010Prop31
280
     0
102
RTVSPost2010PropOp31
 70
     1
102
RTVSPost2010Prop32
280
     0
102
RTVSPost2010PropOp32
 70
     1
102
RTVSPost2010Prop33
280
     0
102
RTVSPost2010PropOp33
 70
     1
102
RTVSPost2010Prop34
280
     0
102
RTVSPost2010PropOp34
 70
     1
102
RTVSPost2010Prop35
280
     0
102
RTVSPost2010PropOp35
 70
     1
102
RTVSPost2010Prop36
280
     0
102
RTVSPost2010PropOp36
 70
     1
102
RTVSPost2010Prop37
 90
       50
102
RTVSPost2010PropOp37
 70
     1
102
RTVSPost2010Prop38
140
0.0
102
RTVSPost2010PropOp38
 70
     1
102
RTVSPost2010Prop39
140
1.0
102
RTVSPost2010PropOp39
 70
     1
102
RTVSPost2010Prop40
 90
        0
102
RTVSPost2010PropOp40
 70
     1
102
RTVSPost2010Prop41ColorIndex
 90
       18
102
RTVSPost2010Prop41ColorRGB
 90
        0
102
RTVSPost2010PropOp41
 70
     1
102
RTVSPost2010Prop42
 90
       50
102
RTVSPost2010PropOp42
 70
     1
102
RTVSPost2010Prop43
 90
        3
102
RTVSPost2010PropOp43
 70
     1
102
RTVSPost2010Prop44ColorIndex
 90
        5
102
RTVSPost2010Prop44ColorRGB
 90
      255
102
RTVSPost2010PropOp44
 70
     1
102
RTVSPost2010Prop45
280
     0
102
RTVSPost2010PropOp45
 70
     1
102
RTVSPost2010Prop46
 90
       50
102
RTVSPost2010PropOp46
 70
     1
102
RTVSPost2010Prop47
 90
       50
102
RTVSPost2010PropOp47
 70
     1
102
RTVSPost2010Prop48
 90
       50
102
RTVSPost2010PropOp48
 70
     1
102
RTVSPost2010Prop49
280
     0
102
RTVSPost2010PropOp49
 70
     1
102
RTVSPost2010Prop50
 90
       50
102
RTVSPost2010PropOp50
 70
     1
102
RTVSPost2010Prop51ColorIndex
 90
      256
102
RTVSPost2010Prop51ColorRGB
 90
-16777216
102
RTVSPost2010PropOp51
 70
     0
102
RTVSPost2010Prop52
140
1.0
102
RTVSPost2010PropOp52
 70
     0
102
RTVSPost2010Prop53
 90
        2
102
RTVSPost2010PropOp53
 70
     1
102
RTVSPost2010Prop54
  1
strokes_ogs.tif
102
RTVSPost2010PropOp54
 70
     1
102
RTVSPost2010Prop55
280
     0
102
RTVSPost2010PropOp55
 70
     1
102
RTVSPost2010Prop56
140
1.0
102
RTVSPost2010PropOp56
 70
     1
102
RTVSPost2010Prop57
140
1.0
102
RTVSPost2010PropOp57
 70
     1
  0
ENDSEC
  0
EOF
