  0
SECTION
  2
HEADER
  9
$ACADVER
  1
AC1015
  9
$ACADMAINTVER
 70
    20
  9
$DWGCODEPAGE
  3
ANSI_1252
  9
$INSBASE
 10
0.0
 20
0.0
 30
0.0
  9
$EXTMIN
 10
0.0
 20
0.0
 30
0.0
  9
$EXTMAX
 10
4750.952636
 20
3108.144532000001
 30
0.0
  9
$LIMMIN
 10
-0.5
 20
-0.5
  9
$LIMMAX
 10
5.0
 20
5.0
  9
$ORTHOMODE
 70
     0
  9
$REGENMODE
 70
     1
  9
$FILLMODE
 70
     1
  9
$QTEXTMODE
 70
     0
  9
$MIRRTEXT
 70
     1
  9
$LTSCALE
 40
1.0
  9
$ATTMODE
 70
     1
  9
$TEXTSIZE
 40
0.2
  9
$TRACEWID
 40
0.05
  9
$TEXTSTYLE
  7
Standard
  9
$CLAYER
  8
0
  9
$CELTYPE
  6
ByLayer
  9
$CECOLOR
 62
   256
  9
$CELTSCALE
 40
1.0
  9
$DISPSILH
 70
     0
  9
$DIMSCALE
 40
1.0
  9
$DIMASZ
 40
0.18
  9
$DIMEXO
 40
0.0625
  9
$DIMDLI
 40
0.38
  9
$DIMRND
 40
0.0
  9
$DIMDLE
 40
0.0
  9
$DIMEXE
 40
0.18
  9
$DIMTP
 40
0.0
  9
$DIMTM
 40
0.0
  9
$DIMTXT
 40
0.18
  9
$DIMCEN
 40
0.09
  9
$DIMTSZ
 40
0.0
  9
$DIMTOL
 70
     0
  9
$DIMLIM
 70
     0
  9
$DIMTIH
 70
     1
  9
$DIMTOH
 70
     1
  9
$DIMSE1
 70
     0
  9
$DIMSE2
 70
     0
  9
$DIMTAD
 70
     0
  9
$DIMZIN
 70
     0
  9
$DIMBLK
  1

  9
$DIMASO
 70
     1
  9
$DIMSHO
 70
     1
  9
$DIMPOST
  1

  9
$DIMAPOST
  1

  9
$DIMALT
 70
     0
  9
$DIMALTD
 70
     2
  9
$DIMALTF
 40
25.4
  9
$DIMLFAC
 40
1.0
  9
$DIMTOFL
 70
     0
  9
$DIMTVP
 40
0.0
  9
$DIMTIX
 70
     0
  9
$DIMSOXD
 70
     0
  9
$DIMSAH
 70
     0
  9
$DIMBLK1
  1

  9
$DIMBLK2
  1

  9
$DIMSTYLE
  2
Standard
  9
$DIMCLRD
 70
     0
  9
$DIMCLRE
 70
     0
  9
$DIMCLRT
 70
     0
  9
$DIMTFAC
 40
1.0
  9
$DIMGAP
 40
0.09
  9
$DIMJUST
 70
     0
  9
$DIMSD1
 70
     0
  9
$DIMSD2
 70
     0
  9
$DIMTOLJ
 70
     1
  9
$DIMTZIN
 70
     0
  9
$DIMALTZ
 70
     0
  9
$DIMALTTZ
 70
     0
  9
$DIMUPT
 70
     0
  9
$DIMDEC
 70
     4
  9
$DIMTDEC
 70
     4
  9
$DIMALTU
 70
     2
  9
$DIMALTTD
 70
     2
  9
$DIMTXSTY
  7
Standard
  9
$DIMAUNIT
 70
     0
  9
$DIMADEC
 70
     0
  9
$DIMALTRND
 40
0.0
  9
$DIMAZIN
 70
     0
  9
$DIMDSEP
 70
    46
  9
$DIMATFIT
 70
     3
  9
$DIMFRAC
 70
     0
  9
$DIMLDRBLK
  1

  9
$DIMLUNIT
 70
     2
  9
$DIMLWD
 70
    -2
  9
$DIMLWE
 70
    -2
  9
$DIMTMOVE
 70
     0
  9
$LUNITS
 70
     2
  9
$LUPREC
 70
     4
  9
$SKETCHINC
 40
0.1
  9
$FILLETRAD
 40
0.5
  9
$AUNITS
 70
     0
  9
$AUPREC
 70
     0
  9
$MENU
  1
.
  9
$ELEVATION
 40
0.0
  9
$PELEVATION
 40
0.0
  9
$THICKNESS
 40
0.0
  9
$LIMCHECK
 70
     0
  9
$CHAMFERA
 40
0.0
  9
$CHAMFERB
 40
0.0
  9
$CHAMFERC
 40
0.0
  9
$CHAMFERD
 40
0.0
  9
$SKPOLY
 70
     0
  9
$TDCREATE
 40
2458967.341504630
  9
$TDUCREATE
 40
2458967.549845810
  9
$TDUPDATE
 40
2458967.344351852
  9
$TDUUPDATE
 40
2458967.552685185
  9
$TDINDWG
 40
0.0023495486
  9
$TDUSRTIMER
 40
0.0023495486
  9
$USRTIMER
 70
     1
  9
$ANGBASE
 50
0.0
  9
$ANGDIR
 70
     0
  9
$PDMODE
 70
     0
  9
$PDSIZE
 40
0.0
  9
$PLINEWID
 40
0.0
  9
$SPLFRAME
 70
     0
  9
$SPLINETYPE
 70
     6
  9
$SPLINESEGS
 70
     8
  9
$HANDSEED
  5
3CE
  9
$SURFTAB1
 70
     6
  9
$SURFTAB2
 70
     6
  9
$SURFTYPE
 70
     6
  9
$SURFU
 70
     6
  9
$SURFV
 70
     6
  9
$UCSBASE
  2

  9
$UCSNAME
  2

  9
$UCSORG
 10
0.0
 20
0.0
 30
0.0
  9
$UCSXDIR
 10
1.0
 20
0.0
 30
0.0
  9
$UCSYDIR
 10
0.0
 20
1.0
 30
0.0
  9
$UCSORTHOREF
  2

  9
$UCSORTHOVIEW
 70
     0
  9
$UCSORGTOP
 10
0.0
 20
0.0
 30
0.0
  9
$UCSORGBOTTOM
 10
0.0
 20
0.0
 30
0.0
  9
$UCSORGLEFT
 10
0.0
 20
0.0
 30
0.0
  9
$UCSORGRIGHT
 10
0.0
 20
0.0
 30
0.0
  9
$UCSORGFRONT
 10
0.0
 20
0.0
 30
0.0
  9
$UCSORGBACK
 10
0.0
 20
0.0
 30
0.0
  9
$PUCSBASE
  2

  9
$PUCSNAME
  2

  9
$PUCSORG
 10
0.0
 20
0.0
 30
0.0
  9
$PUCSXDIR
 10
1.0
 20
0.0
 30
0.0
  9
$PUCSYDIR
 10
0.0
 20
1.0
 30
0.0
  9
$PUCSORTHOREF
  2

  9
$PUCSORTHOVIEW
 70
     0
  9
$PUCSORGTOP
 10
0.0
 20
0.0
 30
0.0
  9
$PUCSORGBOTTOM
 10
0.0
 20
0.0
 30
0.0
  9
$PUCSORGLEFT
 10
0.0
 20
0.0
 30
0.0
  9
$PUCSORGRIGHT
 10
0.0
 20
0.0
 30
0.0
  9
$PUCSORGFRONT
 10
0.0
 20
0.0
 30
0.0
  9
$PUCSORGBACK
 10
0.0
 20
0.0
 30
0.0
  9
$USERI1
 70
     0
  9
$USERI2
 70
     0
  9
$USERI3
 70
     0
  9
$USERI4
 70
     0
  9
$USERI5
 70
     0
  9
$USERR1
 40
0.0
  9
$USERR2
 40
0.0
  9
$USERR3
 40
0.0
  9
$USERR4
 40
0.0
  9
$USERR5
 40
0.0
  9
$WORLDVIEW
 70
     1
  9
$SHADEDGE
 70
     3
  9
$SHADEDIF
 70
    70
  9
$TILEMODE
 70
     1
  9
$MAXACTVP
 70
    64
  9
$PINSBASE
 10
0.0
 20
0.0
 30
0.0
  9
$PLIMCHECK
 70
     0
  9
$PEXTMIN
 10
-0.5
 20
-0.5
 30
-0.5
  9
$PEXTMAX
 10
5.0
 20
5.0
 30
5.0
  9
$PLIMMIN
 10
-0.5
 20
-0.5
  9
$PLIMMAX
 10
5.0
 20
5.0
  9
$UNITMODE
 70
     0
  9
$VISRETAIN
 70
     1
  9
$PLINEGEN
 70
     0
  9
$PSLTSCALE
 70
     1
  9
$TREEDEPTH
 70
  3020
  9
$CMLSTYLE
  2
Standard
  9
$CMLJUST
 70
     0
  9
$CMLSCALE
 40
1.0
  9
$PROXYGRAPHICS
 70
     1
  9
$MEASUREMENT
 70
     1
  9
$CELWEIGHT
370
    70
  9
$ENDCAPS
280
     0
  9
$JOINSTYLE
280
     0
  9
$LWDISPLAY
290
     1
  9
$INSUNITS
 70
     4
  9
$HYPERLINKBASE
  1

  9
$STYLESHEET
  1

  9
$XEDIT
290
     1
  9
$CEPSNTYPE
380
     0
  9
$PSTYLEMODE
290
     1
  9
$FINGERPRINTGUID
  2
{8F2D1F91-67DD-4FC2-9BAD-9CC622C98EA4}
  9
$VERSIONGUID
  2
{0F0A3100-6CD9-8A42-9E7D-1282432EE47F}
  9
$EXTNAMES
290
     1
  9
$PSVPSCALE
 40
0.0
  9
$OLESTARTUP
290
     0
  0
ENDSEC
  0
SECTION
  2
CLASSES
  0
CLASS
  1
ACDBDICTIONARYWDFLT
  2
AcDbDictionaryWithDefault
  3
ObjectDBX Classes
 90
        0
280
     0
281
     0
  0
CLASS
  1
VISUALSTYLE
  2
AcDbVisualStyle
  3
ObjectDBX Classes
 90
     4095
280
     0
281
     0
  0
CLASS
  1
MATERIAL
  2
AcDbMaterial
  3
ObjectDBX Classes
 90
     1153
280
     0
281
     0
  0
CLASS
  1
SCALE
  2
AcDbScale
  3
ObjectDBX Classes
 90
     1153
280
     0
281
     0
  0
CLASS
  1
TABLESTYLE
  2
AcDbTableStyle
  3
ObjectDBX Classes
 90
     4095
280
     0
281
     0
  0
CLASS
  1
MLEADERSTYLE
  2
AcDbMLeaderStyle
  3
ACDB_MLEADERSTYLE_CLASS
 90
     4095
280
     0
281
     0
  0
CLASS
  1
SUN
  2
AcDbSun
  3
SCENEOE
 90
    33921
280
     0
281
     0
  0
CLASS
  1
DICTIONARYVAR
  2
AcDbDictionaryVar
  3
ObjectDBX Classes
 90
        0
280
     0
281
     0
  0
CLASS
  1
CELLSTYLEMAP
  2
AcDbCellStyleMap
  3
ObjectDBX Classes
 90
     1152
280
     0
281
     0
  0
CLASS
  1
ACDBSECTIONVIEWSTYLE
  2
AcDbSectionViewStyle
  3
ObjectDBX Classes
 90
     1025
280
     0
281
     0
  0
CLASS
  1
ACDBDETAILVIEWSTYLE
  2
AcDbDetailViewStyle
  3
ObjectDBX Classes
 90
     1025
280
     0
281
     0
  0
CLASS
  1
RAPIDRTRENDERSETTINGS
  2
AcDbRapidRTRenderSettings
  3
ObjectDBX Classes
 90
     1024
280
     0
281
     0
  0
CLASS
  1
SOLID_BACKGROUND
  2
AcDbSolidBackground
  3
SCENEOE
 90
     4095
280
     0
281
     0
  0
CLASS
  1
NPOCOLLECTION
  2
AcDbImpNonPersistentObjectsCollection
  3
ObjectDBX Classes
 90
     1153
280
     0
281
     0
  0
CLASS
  1
DIMASSOC
  2
AcDbDimAssoc
  3
"AcDbDimAssoc|Product Desc:     AcDim ARX App For Dimension|Company:          Autodesk, Inc.|WEB Address:      www.autodesk.com"
 90
        0
280
     0
281
     0
  0
CLASS
  1
MENTALRAYRENDERSETTINGS
  2
AcDbMentalRayRenderSettings
  3
SCENEOE
 90
     1024
280
     0
281
     0
  0
CLASS
  1
ACDBPLACEHOLDER
  2
AcDbPlaceHolder
  3
ObjectDBX Classes
 90
        0
280
     0
281
     0
  0
CLASS
  1
LAYOUT
  2
AcDbLayout
  3
ObjectDBX Classes
 90
        0
280
     0
281
     0
  0
ENDSEC
  0
SECTION
  2
TABLES
  0
TABLE
  2
VPORT
  5
8
330
0
100
AcDbSymbolTable
 70
    16
  0
VPORT
  5
29
330
8
100
AcDbSymbolTableRecord
100
AcDbViewportTableRecord
  2
*Active
 70
     0
 10
0.0
 20
0.0
 11
1.0
 21
1.0
 12
-0.000000359375008
 22
0.000000375000127
 13
0.0
 23
0.0
 14
0.5
 24
0.5
 15
0.5
 25
0.5
 16
-0.0000000000040927
 26
0.0
 36
17468.35005139228
 17
2375.476318359375
 27
1554.072265625
 37
0.0
 40
3130.914821611722
 41
2.345965770171149
 42
50.0
 43
771.895436
 44
-771.895436
 50
0.0
 51
0.0
 71
     0
 72
   100
 73
     1
 74
     3
 75
     0
 76
     0
 77
     0
 78
     0
281
     0
 65
     1
110
0.0
120
0.0
130
0.0
111
1.0
121
0.0
131
0.0
112
0.0
122
1.0
132
0.0
 79
     0
146
0.0
1001
ACAD_NAV_VCDISPLAY
1070
     3
  0
VPORT
  5
229
330
8
100
AcDbSymbolTableRecord
100
AcDbViewportTableRecord
  2
L1
 70
     0
 10
0.0
 20
0.0
 11
1.0
 21
1.0
 12
0.0
 22
0.0
 13
0.0
 23
0.0
 14
0.5
 24
0.5
 15
0.5
 25
0.5
 16
0.7188730927569434
 26
-0.5850486126764433
 36
0.3754192287502549
 17
0.0
 27
0.0
 37
0.0
 40
1562.346334
 41
0.011365
 42
50.0
 43
771.895436
 44
-771.895436
 50
0.0
 51
0.0
 71
     0
 72
   100
 73
     1
 74
     3
 75
     0
 76
     0
 77
     0
 78
     0
281
     0
 65
     1
110
0.0
120
0.0
130
0.0
111
1.0
121
0.0
131
0.0
112
0.0
122
1.0
132
0.0
 79
     0
146
0.0
  0
VPORT
  5
22A
330
8
100
AcDbSymbolTableRecord
100
AcDbViewportTableRecord
  2
L2
 70
     0
 10
0.0
 20
0.0
 11
0.5
 21
1.0
 12
0.0
 22
0.0
 13
0.0
 23
0.0
 14
0.5
 24
0.5
 15
0.5
 25
0.5
 16
0.0
 26
-1.0
 36
0.0
 17
0.0
 27
0.0
 37
0.0
 40
1506.137435
 41
0.01179
 42
50.0
 43
777.6737019999999
 44
-777.6737019999999
 50
0.0
 51
0.0
 71
     0
 72
   100
 73
     1
 74
     3
 75
     0
 76
     0
 77
     0
 78
     0
281
     0
 65
     1
110
0.0
120
0.0
130
0.0
111
1.0
121
0.0
131
0.0
112
0.0
122
1.0
132
0.0
 79
     0
146
0.0
  0
VPORT
  5
22B
330
8
100
AcDbSymbolTableRecord
100
AcDbViewportTableRecord
  2
L2
 70
     0
 10
0.5
 20
0.0
 11
1.0
 21
1.0
 12
0.0
 22
0.0
 13
0.0
 23
0.0
 14
0.5
 24
0.5
 15
0.5
 25
0.5
 16
1.0
 26
0.0
 36
0.0
 17
0.0
 27
0.0
 37
0.0
 40
1506.137435
 41
0.01179
 42
50.0
 43
761.4373229999999
 44
-761.4373229999999
 50
0.0
 51
0.0
 71
     0
 72
   100
 73
     1
 74
     3
 75
     0
 76
     0
 77
     0
 78
     0
281
     0
 65
     1
110
0.0
120
0.0
130
0.0
111
1.0
121
0.0
131
0.0
112
0.0
122
1.0
132
0.0
 79
     0
146
0.0
  0
VPORT
  5
22C
330
8
100
AcDbSymbolTableRecord
100
AcDbViewportTableRecord
  2
L3
 70
     0
 10
0.0
 20
0.5
 11
1.0
 21
1.0
 12
0.0
 22
0.0
 13
0.0
 23
0.0
 14
0.5
 24
0.5
 15
0.5
 25
0.5
 16
0.0
 26
0.0
 36
1.0
 17
0.0
 27
0.0
 37
0.0
 40
225.160417
 41
0.078863
 42
50.0
 43
753.068718
 44
-753.068718
 50
0.0
 51
0.0
 71
     0
 72
   100
 73
     1
 74
     3
 75
     0
 76
     0
 77
     0
 78
     0
281
     0
 65
     1
110
0.0
120
0.0
130
0.0
111
1.0
121
0.0
131
0.0
112
0.0
122
1.0
132
0.0
 79
     0
146
0.0
  0
VPORT
  5
22D
330
8
100
AcDbSymbolTableRecord
100
AcDbViewportTableRecord
  2
L3
 70
     0
 10
0.0
 20
0.0
 11
1.0
 21
0.5
 12
0.0
 22
0.0
 13
0.0
 23
0.0
 14
0.5
 24
0.5
 15
0.5
 25
0.5
 16
0.0
 26
-1.0
 36
0.0
 17
0.0
 27
0.0
 37
0.0
 40
1506.137435
 41
0.01179
 42
50.0
 43
777.6737019999999
 44
-777.6737019999999
 50
0.0
 51
0.0
 71
     0
 72
   100
 73
     1
 74
     3
 75
     0
 76
     0
 77
     0
 78
     0
281
     0
 65
     1
110
0.0
120
0.0
130
0.0
111
1.0
121
0.0
131
0.0
112
0.0
122
1.0
132
0.0
 79
     0
146
0.0
  0
VPORT
  5
22E
330
8
100
AcDbSymbolTableRecord
100
AcDbViewportTableRecord
  2
L4
 70
     0
 10
0.0
 20
0.5
 11
0.5
 21
1.0
 12
0.0
 22
0.0
 13
0.0
 23
0.0
 14
0.5
 24
0.5
 15
0.5
 25
0.5
 16
0.0
 26
0.0
 36
1.0
 17
0.0
 27
0.0
 37
0.0
 40
225.160417
 41
0.078863
 42
50.0
 43
753.068718
 44
-753.068718
 50
0.0
 51
0.0
 71
     0
 72
   100
 73
     1
 74
     3
 75
     0
 76
     0
 77
     0
 78
     0
281
     0
 65
     1
110
0.0
120
0.0
130
0.0
111
1.0
121
0.0
131
0.0
112
0.0
122
1.0
132
0.0
 79
     0
146
0.0
  0
VPORT
  5
22F
330
8
100
AcDbSymbolTableRecord
100
AcDbViewportTableRecord
  2
L4
 70
     0
 10
0.0
 20
0.0
 11
0.5
 21
0.5
 12
0.0
 22
0.0
 13
0.0
 23
0.0
 14
0.5
 24
0.5
 15
0.5
 25
0.5
 16
0.0
 26
-1.0
 36
0.0
 17
0.0
 27
0.0
 37
0.0
 40
1506.137435
 41
0.01179
 42
50.0
 43
777.6737019999999
 44
-777.6737019999999
 50
0.0
 51
0.0
 71
     0
 72
   100
 73
     1
 74
     3
 75
     0
 76
     0
 77
     0
 78
     0
281
     0
 65
     1
110
0.0
120
0.0
130
0.0
111
1.0
121
0.0
131
0.0
112
0.0
122
1.0
132
0.0
 79
     0
146
0.0
  0
VPORT
  5
230
330
8
100
AcDbSymbolTableRecord
100
AcDbViewportTableRecord
  2
L4
 70
     0
 10
0.5
 20
0.0
 11
1.0
 21
0.5
 12
0.0
 22
0.0
 13
0.0
 23
0.0
 14
0.5
 24
0.5
 15
0.5
 25
0.5
 16
1.0
 26
0.0
 36
0.0
 17
0.0
 27
0.0
 37
0.0
 40
1506.137435
 41
0.01179
 42
50.0
 43
761.4373229999999
 44
-761.4373229999999
 50
0.0
 51
0.0
 71
     0
 72
   100
 73
     1
 74
     3
 75
     0
 76
     0
 77
     0
 78
     0
281
     0
 65
     1
110
0.0
120
0.0
130
0.0
111
1.0
121
0.0
131
0.0
112
0.0
122
1.0
132
0.0
 79
     0
146
0.0
  0
VPORT
  5
231
330
8
100
AcDbSymbolTableRecord
100
AcDbViewportTableRecord
  2
L4
 70
     0
 10
0.5
 20
0.5
 11
1.0
 21
1.0
 12
0.0
 22
0.0
 13
0.0
 23
0.0
 14
0.5
 24
0.5
 15
0.5
 25
0.5
 16
0.5773502691896259
 26
-0.5773502691896259
 36
0.5773502691896259
 17
0.0
 27
0.0
 37
0.0
 40
1480.136444
 41
0.011997
 42
50.0
 43
771.1800849999999
 44
-771.1800849999999
 50
0.0
 51
0.0
 71
     0
 72
   100
 73
     1
 74
     3
 75
     0
 76
     0
 77
     0
 78
     0
281
     0
 65
     1
110
0.0
120
0.0
130
0.0
111
1.0
121
0.0
131
0.0
112
0.0
122
1.0
132
0.0
 79
     0
146
0.0
  0
VPORT
  5
232
330
8
100
AcDbSymbolTableRecord
100
AcDbViewportTableRecord
  2
L6
 70
     0
 10
0.0
 20
0.5
 11
0.333333
 21
1.0
 12
0.0
 22
0.0
 13
0.0
 23
0.0
 14
0.5
 24
0.5
 15
0.5
 25
0.5
 16
0.7188730927569434
 26
-0.5850486126764433
 36
0.3754192287502549
 17
0.0
 27
0.0
 37
0.0
 40
1562.346334
 41
0.011365
 42
50.0
 43
771.895436
 44
-771.895436
 50
0.0
 51
0.0
 71
     0
 72
   100
 73
     1
 74
     3
 75
     0
 76
     0
 77
     0
 78
     0
281
     0
 65
     1
110
0.0
120
0.0
130
0.0
111
1.0
121
0.0
131
0.0
112
0.0
122
1.0
132
0.0
 79
     0
146
0.0
  0
VPORT
  5
233
330
8
100
AcDbSymbolTableRecord
100
AcDbViewportTableRecord
  2
L6
 70
     0
 10
0.0
 20
0.0
 11
0.333333
 21
0.5
 12
0.0
 22
0.0
 13
0.0
 23
0.0
 14
0.5
 24
0.5
 15
0.5
 25
0.5
 16
-1.0
 26
0.0
 36
0.0
 17
0.0
 27
0.0
 37
0.0
 40
1506.137435
 41
0.01179
 42
50.0
 43
761.4373229999999
 44
-761.4373229999999
 50
0.0
 51
0.0
 71
     0
 72
   100
 73
     1
 74
     3
 75
     0
 76
     0
 77
     0
 78
     0
281
     0
 65
     1
110
0.0
120
0.0
130
0.0
111
1.0
121
0.0
131
0.0
112
0.0
122
1.0
132
0.0
 79
     0
146
0.0
  0
VPORT
  5
234
330
8
100
AcDbSymbolTableRecord
100
AcDbViewportTableRecord
  2
L6
 70
     0
 10
0.333333
 20
0.5
 11
0.666667
 21
1.0
 12
0.0
 22
0.0
 13
0.0
 23
0.0
 14
0.5
 24
0.5
 15
0.5
 25
0.5
 16
0.0
 26
0.0
 36
1.0
 17
0.0
 27
0.0
 37
0.0
 40
225.160417
 41
0.078863
 42
50.0
 43
753.068718
 44
-753.068718
 50
0.0
 51
0.0
 71
     0
 72
   100
 73
     1
 74
     3
 75
     0
 76
     0
 77
     0
 78
     0
281
     0
 65
     1
110
0.0
120
0.0
130
0.0
111
1.0
121
0.0
131
0.0
112
0.0
122
1.0
132
0.0
 79
     0
146
0.0
  0
VPORT
  5
235
330
8
100
AcDbSymbolTableRecord
100
AcDbViewportTableRecord
  2
L6
 70
     0
 10
0.333333
 20
0.0
 11
0.666667
 21
0.5
 12
0.0
 22
0.0
 13
0.0
 23
0.0
 14
0.5
 24
0.5
 15
0.5
 25
0.5
 16
0.0
 26
-1.0
 36
0.0
 17
0.0
 27
0.0
 37
0.0
 40
1506.137435
 41
0.01179
 42
50.0
 43
777.6737019999999
 44
-777.6737019999999
 50
0.0
 51
0.0
 71
     0
 72
   100
 73
     1
 74
     3
 75
     0
 76
     0
 77
     0
 78
     0
281
     0
 65
     1
110
0.0
120
0.0
130
0.0
111
1.0
121
0.0
131
0.0
112
0.0
122
1.0
132
0.0
 79
     0
146
0.0
  0
VPORT
  5
236
330
8
100
AcDbSymbolTableRecord
100
AcDbViewportTableRecord
  2
L6
 70
     0
 10
0.666667
 20
0.5
 11
1.0
 21
1.0
 12
0.0
 22
0.0
 13
0.0
 23
0.0
 14
0.5
 24
0.5
 15
0.5
 25
0.5
 16
0.5773502691896259
 26
-0.5773502691896259
 36
0.5773502691896259
 17
0.0
 27
0.0
 37
0.0
 40
1480.136444
 41
0.011997
 42
50.0
 43
771.1800849999999
 44
-771.1800849999999
 50
0.0
 51
0.0
 71
     0
 72
   100
 73
     1
 74
     3
 75
     0
 76
     0
 77
     0
 78
     0
281
     0
 65
     1
110
0.0
120
0.0
130
0.0
111
1.0
121
0.0
131
0.0
112
0.0
122
1.0
132
0.0
 79
     0
146
0.0
  0
VPORT
  5
237
330
8
100
AcDbSymbolTableRecord
100
AcDbViewportTableRecord
  2
L6
 70
     0
 10
0.666667
 20
0.0
 11
1.0
 21
0.5
 12
0.0
 22
0.0
 13
0.0
 23
0.0
 14
0.5
 24
0.5
 15
0.5
 25
0.5
 16
1.0
 26
0.0
 36
0.0
 17
0.0
 27
0.0
 37
0.0
 40
1506.137435
 41
0.01179
 42
50.0
 43
761.4373229999999
 44
-761.4373229999999
 50
0.0
 51
0.0
 71
     0
 72
   100
 73
     1
 74
     3
 75
     0
 76
     0
 77
     0
 78
     0
281
     0
 65
     1
110
0.0
120
0.0
130
0.0
111
1.0
121
0.0
131
0.0
112
0.0
122
1.0
132
0.0
 79
     0
146
0.0
  0
ENDTAB
  0
TABLE
  2
LTYPE
  5
5
330
0
100
AcDbSymbolTable
 70
     6
  0
LTYPE
  5
14
330
5
100
AcDbSymbolTableRecord
100
AcDbLinetypeTableRecord
  2
ByBlock
 70
     0
  3

 72
    65
 73
     0
 40
0.0
  0
LTYPE
  5
15
330
5
100
AcDbSymbolTableRecord
100
AcDbLinetypeTableRecord
  2
ByLayer
 70
     0
  3

 72
    65
 73
     0
 40
0.0
  0
LTYPE
  5
16
330
5
100
AcDbSymbolTableRecord
100
AcDbLinetypeTableRecord
  2
Continuous
 70
     0
  3
Solid line
 72
    65
 73
     0
 40
0.0
  0
LTYPE
  5
6E
330
5
100
AcDbSymbolTableRecord
100
AcDbLinetypeTableRecord
  2
CENTER
 70
     0
  3
____ _ ____ _ ____ _ ____
 72
    65
 73
     4
 40
47.4
 49
22.0
 74
     4
 75
     0
340
0
 46
0.0
 50
0.0
 44
0.0
 45
0.0
 49
-8.5
 74
     4
 75
     0
340
0
 46
0.0
 50
0.0
 44
0.0
 45
0.0
 49
8.5
 74
     4
 75
     0
340
0
 46
0.0
 50
0.0
 44
0.0
 45
0.0
 49
-8.5
 74
     4
 75
     0
340
0
 46
0.0
 50
0.0
 44
0.0
 45
0.0
  0
LTYPE
  5
6F
330
5
100
AcDbSymbolTableRecord
100
AcDbLinetypeTableRecord
  2
DASHDOT
 70
     0
  3
_._._._._._._._._._._._._._._._.
 72
    65
 73
     4
 40
70.0
 49
31.0
 74
     4
 75
     0
340
0
 46
0.0
 50
0.0
 44
0.0
 45
0.0
 49
-13.0
 74
     4
 75
     0
340
0
 46
0.0
 50
0.0
 44
0.0
 45
0.0
 49
13.0
 74
     4
 75
     0
340
0
 46
0.0
 50
0.0
 44
0.0
 45
0.0
 49
-13.0
 74
     4
 75
     0
340
0
 46
0.0
 50
0.0
 44
0.0
 45
0.0
  0
LTYPE
  5
70
330
5
100
AcDbSymbolTableRecord
100
AcDbLinetypeTableRecord
  2
DASHED
 70
     0
  3
__ __ __ __ __ __ __ __ __
 72
    65
 73
     2
 40
25.72
 49
12.86
 74
     4
 75
     0
340
0
 46
0.0
 50
0.0
 44
0.0
 45
0.0
 49
-12.86
 74
     4
 75
     0
340
0
 46
0.0
 50
0.0
 44
0.0
 45
0.0
  0
LTYPE
  5
71
330
5
100
AcDbSymbolTableRecord
100
AcDbLinetypeTableRecord
  2
DOT
 70
     0
  3
.........................
 72
    65
 73
     2
 40
10.0
 49
0.0
 74
     4
 75
     0
340
0
 46
0.0
 50
0.0
 44
0.0
 45
0.0
 49
-10.0
 74
     4
 75
     0
340
0
 46
0.0
 50
0.0
 44
0.0
 45
0.0
  0
LTYPE
  5
72
330
5
100
AcDbSymbolTableRecord
100
AcDbLinetypeTableRecord
  2
PHANTOM
 70
     0
  3
____ _ _ ____ _ _ _____ _ _ ____
 72
    65
 73
     6
 40
50.5
 49
18.0
 74
     4
 75
     0
340
0
 46
0.0
 50
0.0
 44
0.0
 45
0.0
 49
-6.5
 74
     4
 75
     0
340
0
 46
0.0
 50
0.0
 44
0.0
 45
0.0
 49
6.5
 74
     4
 75
     0
340
0
 46
0.0
 50
0.0
 44
0.0
 45
0.0
 49
-6.5
 74
     4
 75
     0
340
0
 46
0.0
 50
0.0
 44
0.0
 45
0.0
 49
6.5
 74
     4
 75
     0
340
0
 46
0.0
 50
0.0
 44
0.0
 45
0.0
 49
-6.5
 74
     4
 75
     0
340
0
 46
0.0
 50
0.0
 44
0.0
 45
0.0
  0
ENDTAB
  0
TABLE
  2
LAYER
  5
2
330
0
100
AcDbSymbolTable
 70
     4
  0
LAYER
  5
10
102
{ACAD_XDICTIONARY
360
2C7
102
}
330
2
100
AcDbSymbolTableRecord
100
AcDbLayerTableRecord
  2
0
 70
     0
 62
     7
  6
Continuous
370
    -3
390
F
  0
LAYER
  5
74
102
{ACAD_XDICTIONARY
360
2C9
102
}
330
2
100
AcDbSymbolTableRecord
100
AcDbLayerTableRecord
  2
61
 70
     0
 62
     7
  6
Continuous
370
    -3
390
F
  0
LAYER
  5
76
102
{ACAD_XDICTIONARY
360
2CB
102
}
330
2
100
AcDbSymbolTableRecord
100
AcDbLayerTableRecord
  2
Trimetric
 70
     0
 62
     7
  6
Continuous
370
    -3
390
F
  0
LAYER
  5
293
330
2
100
AcDbSymbolTableRecord
100
AcDbLayerTableRecord
  2
Defpoints
 70
     0
 62
     7
  6
Continuous
290
     0
370
    -3
390
F
  0
ENDTAB
  0
TABLE
  2
STYLE
  5
3
330
0
100
AcDbSymbolTable
 70
     1
  0
STYLE
  5
11
330
3
100
AcDbSymbolTableRecord
100
AcDbTextStyleTableRecord
  2
Standard
 70
     0
 40
0.0
 41
1.0
 50
0.0
 71
     0
 42
0.2
  3
txt
  4

  0
ENDTAB
  0
TABLE
  2
VIEW
  5
6
330
0
100
AcDbSymbolTable
 70
     8
  0
VIEW
  5
221
330
6
100
AcDbSymbolTableRecord
100
AcDbViewTableRecord
  2
Top
 70
     0
 40
225.160417
 10
0.0
 20
0.0
 41
388.14375
 11
0.0
 21
0.0
 31
1.0
 12
0.0
 22
0.0
 32
0.0
 42
50.0
 43
753.068718
 44
-753.068718
 50
0.0
 71
     0
281
     0
 72
     0
  0
VIEW
  5
222
330
6
100
AcDbSymbolTableRecord
100
AcDbViewTableRecord
  2
Front
 70
     0
 40
1506.137435
 10
0.0
 20
0.0
 41
388.14375
 11
0.0
 21
-1.0
 31
0.0
 12
0.0
 22
0.0
 32
0.0
 42
50.0
 43
777.6737019999999
 44
-777.6737019999999
 50
0.0
 71
     0
281
     0
 72
     0
  0
VIEW
  5
223
330
6
100
AcDbSymbolTableRecord
100
AcDbViewTableRecord
  2
Right
 70
     0
 40
1506.137435
 10
0.0
 20
0.0
 41
225.160417
 11
1.0
 21
0.0
 31
0.0
 12
0.0
 22
0.0
 32
0.0
 42
50.0
 43
761.4373229999999
 44
-761.4373229999999
 50
0.0
 71
     0
281
     0
 72
     0
  0
VIEW
  5
224
330
6
100
AcDbSymbolTableRecord
100
AcDbViewTableRecord
  2
Back
 70
     0
 40
1506.137435
 10
0.0
 20
0.0
 41
388.14375
 11
0.0
 21
1.0
 31
0.0
 12
0.0
 22
0.0
 32
0.0
 42
50.0
 43
777.6737019999999
 44
-777.6737019999999
 50
0.0
 71
     0
281
     0
 72
     0
  0
VIEW
  5
225
330
6
100
AcDbSymbolTableRecord
100
AcDbViewTableRecord
  2
Bottom
 70
     0
 40
225.160417
 10
0.0
 20
0.0
 41
388.14375
 11
0.0
 21
0.0
 31
-1.0
 12
0.0
 22
0.0
 32
0.0
 42
50.0
 43
753.068718
 44
-753.068718
 50
180.0
 71
     0
281
     0
 72
     0
  0
VIEW
  5
226
330
6
100
AcDbSymbolTableRecord
100
AcDbViewTableRecord
  2
Left
 70
     0
 40
1506.137435
 10
0.0
 20
0.0
 41
225.160417
 11
-1.0
 21
0.0
 31
0.0
 12
0.0
 22
0.0
 32
0.0
 42
50.0
 43
761.4373229999999
 44
-761.4373229999999
 50
0.0
 71
     0
281
     0
 72
     0
  0
VIEW
  5
227
330
6
100
AcDbSymbolTableRecord
100
AcDbViewTableRecord
  2
Isometric
 70
     0
 40
1480.136444
 10
0.0
 20
0.0
 41
433.6715349999999
 11
0.5773502691896259
 21
-0.5773502691896259
 31
0.5773502691896259
 12
0.0
 22
0.0
 32
0.0
 42
50.0
 43
771.1800849999999
 44
-771.1800849999999
 50
0.0
 71
     0
281
     0
 72
     0
  0
VIEW
  5
228
330
6
100
AcDbSymbolTableRecord
100
AcDbViewTableRecord
  2
Trimetric
 70
     0
 40
1562.346334
 10
0.0
 20
0.0
 41
419.639188
 11
0.7188730927569434
 21
-0.5850486126764433
 31
0.3754192287502549
 12
0.0
 22
0.0
 32
0.0
 42
50.0
 43
771.895436
 44
-771.895436
 50
0.0
 71
     0
281
     0
 72
     0
  0
ENDTAB
  0
TABLE
  2
UCS
  5
7
330
0
100
AcDbSymbolTable
 70
     0
  0
ENDTAB
  0
TABLE
  2
APPID
  5
9
330
0
100
AcDbSymbolTable
 70
     3
  0
APPID
  5
12
330
9
100
AcDbSymbolTableRecord
100
AcDbRegAppTableRecord
  2
ACAD
 70
     0
  0
APPID
  5
277
330
9
100
AcDbSymbolTableRecord
100
AcDbRegAppTableRecord
  2
ACAD_MLEADERVER
 70
     0
  0
APPID
  5
2CD
330
9
100
AcDbSymbolTableRecord
100
AcDbRegAppTableRecord
  2
ACAD_NAV_VCDISPLAY
 70
     0
  0
ENDTAB
  0
TABLE
  2
DIMSTYLE
  5
A
330
0
100
AcDbSymbolTable
 70
     1
100
AcDbDimStyleTable
 71
     1
340
27
  0
DIMSTYLE
105
27
330
A
100
AcDbSymbolTableRecord
100
AcDbDimStyleTableRecord
  2
Standard
 70
     0
340
11
  0
ENDTAB
  0
TABLE
  2
BLOCK_RECORD
  5
1
330
0
100
AcDbSymbolTable
 70
     3
  0
BLOCK_RECORD
  5
1F
330
1
100
AcDbSymbolTableRecord
100
AcDbBlockTableRecord
  2
*Model_Space
340
22
  0
BLOCK_RECORD
  5
1B
330
1
100
AcDbSymbolTableRecord
100
AcDbBlockTableRecord
  2
*Paper_Space
340
1E
  0
BLOCK_RECORD
  5
23
330
1
100
AcDbSymbolTableRecord
100
AcDbBlockTableRecord
  2
*Paper_Space0
340
26
  0
BLOCK_RECORD
  5
294
330
1
100
AcDbSymbolTableRecord
100
AcDbBlockTableRecord
  2
*D1
340
0
  0
BLOCK_RECORD
  5
2AE
330
1
100
AcDbSymbolTableRecord
100
AcDbBlockTableRecord
  2
*D2
340
0
  0
ENDTAB
  0
ENDSEC
  0
SECTION
  2
BLOCKS
  0
BLOCK
  5
20
330
1F
100
AcDbEntity
  8
0
100
AcDbBlockBegin
  2
*Model_Space
 70
     0
 10
0.0
 20
0.0
 30
0.0
  3
*Model_Space
  1

  0
ENDBLK
  5
21
330
1F
100
AcDbEntity
  8
0
100
AcDbBlockEnd
  0
BLOCK
  5
1C
330
1B
100
AcDbEntity
 67
     1
  8
0
100
AcDbBlockBegin
  2
*Paper_Space
 70
     0
 10
0.0
 20
0.0
 30
0.0
  3
*Paper_Space
  1

  0
ENDBLK
  5
1D
330
1B
100
AcDbEntity
 67
     1
  8
0
100
AcDbBlockEnd
  0
BLOCK
  5
24
330
23
100
AcDbEntity
 67
     1
  8
0
100
AcDbBlockBegin
  2
*Paper_Space0
 70
     0
 10
0.0
 20
0.0
 30
0.0
  3
*Paper_Space0
  1

  0
ENDBLK
  5
25
330
23
100
AcDbEntity
 67
     1
  8
0
100
AcDbBlockEnd
  0
BLOCK
  5
295
330
294
100
AcDbEntity
  8
0
370
    70
100
AcDbBlockBegin
  2
*D1
 70
     1
 10
0.0
 20
0.0
 30
0.0
  3
*D1
  1

  0
LINE
  5
2A2
330
294
100
AcDbEntity
  8
0
 62
     0
370
    -2
100
AcDbLine
 10
542.098511
 20
410.8388979999999
 30
0.0
 11
542.098511
 21
401.1777657264486
 31
0.0
  0
LINE
  5
2A3
330
294
100
AcDbEntity
  8
0
 62
     0
370
    -2
100
AcDbLine
 10
543.848511
 20
410.8388979999999
 30
0.0
 11
543.848511
 21
401.1777657264486
 31
0.0
  0
LINE
  5
2A4
330
294
100
AcDbEntity
  8
0
 62
     0
370
    -2
100
AcDbLine
 10
542.2785109999999
 20
401.3577657264486
 30
0.0
 11
542.4935109999999
 21
401.3577657264486
 31
0.0
  0
LINE
  5
2A5
330
294
100
AcDbEntity
  8
0
 62
     0
370
    -2
100
AcDbLine
 10
543.668511
 20
401.3577657264486
 30
0.0
 11
543.453511
 21
401.3577657264486
 31
0.0
  0
SOLID
  5
2A6
330
294
100
AcDbEntity
  8
0
 62
     0
370
    70
100
AcDbTrace
 10
542.2785109999999
 20
401.3877657264486
 30
0.0
 11
542.2785109999999
 21
401.3277657264486
 31
0.0
 12
542.098511
 22
401.3577657264486
 32
0.0
 13
542.098511
 23
401.3577657264486
 33
0.0
  0
SOLID
  5
2A7
330
294
100
AcDbEntity
  8
0
 62
     0
370
    70
100
AcDbTrace
 10
543.668511
 20
401.3877657264486
 30
0.0
 11
543.668511
 21
401.3277657264486
 31
0.0
 12
543.848511
 22
401.3577657264486
 32
0.0
 13
543.848511
 23
401.3577657264486
 33
0.0
  0
MTEXT
  5
2A8
330
294
100
AcDbEntity
  8
0
 62
     0
370
    70
100
AcDbMText
 10
542.973511
 20
401.3577657264486
 30
0.0
 40
0.18
 41
0.0
 71
     5
 72
     1
  1
\A1;1.7500
 73
     1
 44
1.0
1001
ACAD
1000
MTEXTBEGIN
1070
    73
1070
     1
1070
    44
1040
1.0
1070
    74
1070
     0
1000
MTEXTEND
  0
POINT
  5
2A9
330
294
100
AcDbEntity
  8
Defpoints
 62
     0
370
    70
100
AcDbPoint
 10
542.098511
 20
410.9013979999999
 30
0.0
  0
POINT
  5
2AA
330
294
100
AcDbEntity
  8
Defpoints
 62
     0
370
    70
100
AcDbPoint
 10
543.848511
 20
410.9013979999999
 30
0.0
  0
POINT
  5
2AB
330
294
100
AcDbEntity
  8
Defpoints
 62
     0
370
    70
100
AcDbPoint
 10
543.848511
 20
401.3577657264486
 30
0.0
  0
ENDBLK
  5
296
330
294
100
AcDbEntity
  8
0
370
    70
100
AcDbBlockEnd
  0
BLOCK
  5
2AF
330
2AE
100
AcDbEntity
  8
0
370
    70
100
AcDbBlockBegin
  2
*D2
 70
     1
 10
0.0
 20
0.0
 30
0.0
  3
*D2
  1

  0
LINE
  5
2BC
330
2AE
100
AcDbEntity
  8
0
 62
     0
370
    -2
100
AcDbLine
 10
2088.394288
 20
2256.168127991609
 30
0.0
 11
2088.394288
 21
2259.957104879262
 31
0.0
  0
LINE
  5
2BD
330
2AE
100
AcDbEntity
  8
0
 62
     0
370
    -2
100
AcDbLine
 10
2095.394233539701
 20
2256.168127991609
 30
0.0
 11
2095.394233539701
 21
2259.957104879262
 31
0.0
  0
LINE
  5
2BE
330
2AE
100
AcDbEntity
  8
0
 62
     0
370
    -2
100
AcDbLine
 10
2088.574288
 20
2259.777104879262
 30
0.0
 11
2091.35426076985
 21
2259.777104879262
 31
0.0
  0
LINE
  5
2BF
330
2AE
100
AcDbEntity
  8
0
 62
     0
370
    -2
100
AcDbLine
 10
2095.214233539701
 20
2259.777104879262
 30
0.0
 11
2092.43426076985
 21
2259.777104879262
 31
0.0
  0
SOLID
  5
2C0
330
2AE
100
AcDbEntity
  8
0
 62
     0
370
    70
100
AcDbTrace
 10
2088.574288
 20
2259.807104879262
 30
0.0
 11
2088.574288
 21
2259.747104879262
 31
0.0
 12
2088.394288
 22
2259.777104879262
 32
0.0
 13
2088.394288
 23
2259.777104879262
 33
0.0
  0
SOLID
  5
2C1
330
2AE
100
AcDbEntity
  8
0
 62
     0
370
    70
100
AcDbTrace
 10
2095.214233539701
 20
2259.807104879262
 30
0.0
 11
2095.214233539701
 21
2259.747104879262
 31
0.0
 12
2095.394233539701
 22
2259.777104879262
 32
0.0
 13
2095.394233539701
 23
2259.777104879262
 33
0.0
  0
MTEXT
  5
2C2
330
2AE
100
AcDbEntity
  8
0
 62
     0
370
    70
100
AcDbMText
 10
2091.89426076985
 20
2259.777104879262
 30
0.0
 40
0.18
 41
0.0
 71
     5
 72
     1
  1
\A1;6.9999
 73
     1
 44
1.0
1001
ACAD
1000
MTEXTBEGIN
1070
    73
1070
     1
1070
    44
1040
1.0
1070
    74
1070
     0
1000
MTEXTEND
  0
POINT
  5
2C3
330
2AE
100
AcDbEntity
  8
Defpoints
 62
     0
370
    70
100
AcDbPoint
 10
2088.394288
 20
2256.105627991609
 30
0.0
  0
POINT
  5
2C4
330
2AE
100
AcDbEntity
  8
Defpoints
 62
     0
370
    70
100
AcDbPoint
 10
2095.394233539701
 20
2256.105627991609
 30
0.0
  0
POINT
  5
2C5
330
2AE
100
AcDbEntity
  8
Defpoints
 62
     0
370
    70
100
AcDbPoint
 10
2095.394233539701
 20
2259.777104879262
 30
0.0
  0
ENDBLK
  5
2B0
330
2AE
100
AcDbEntity
  8
0
370
    70
100
AcDbBlockEnd
  0
ENDSEC
  0
SECTION
  2
ENTITIES
  0
POINT
  5
73
330
1F
100
AcDbEntity
  8
61
  6
Continuous
 62
    23
370
    70
100
AcDbPoint
 10
0.0
 20
0.0
 30
0.0
  0
LINE
  5
79
330
1F
100
AcDbEntity
  8
Trimetric
  6
Continuous
 62
    21
370
    18
100
AcDbLine
 10
2095.394288
 20
1150.105592
 30
0.0
 11
2095.394288
 21
1643.605592
 31
0.0
  0
LINE
  5
7A
330
1F
100
AcDbEntity
  8
Trimetric
  6
Continuous
 62
    21
370
    18
100
AcDbLine
 10
2088.394288
 20
1643.605592
 30
0.0
 11
2088.394288
 21
1150.105592
 31
0.0
  0
LINE
  5
7B
330
1F
100
AcDbEntity
  8
Trimetric
  6
Continuous
 62
    21
370
    18
100
AcDbLine
 10
2094.343752
 20
1643.605592
 30
0.0
 11
2094.343752
 21
1636.741332
 31
0.0
  0
LINE
  5
7C
330
1F
100
AcDbEntity
  8
Trimetric
  6
Continuous
 62
    21
370
    18
100
AcDbLine
 10
2089.444824
 20
1636.741332
 30
0.0
 11
2089.444824
 21
1643.605592
 31
0.0
  0
LINE
  5
7D
330
1F
100
AcDbEntity
  8
Trimetric
  6
Continuous
 62
    21
370
    18
100
AcDbLine
 10
2089.444824
 20
1618.605591999999
 30
0.0
 11
2089.444824
 21
1634.469848
 31
0.0
  0
LINE
  5
7E
330
1F
100
AcDbEntity
  8
Trimetric
  6
Continuous
 62
    21
370
    18
100
AcDbLine
 10
2094.343752
 20
1634.469848
 30
0.0
 11
2094.343752
 21
1618.605591999999
 31
0.0
  0
LINE
  5
7F
330
1F
100
AcDbEntity
  8
Trimetric
  6
Continuous
 62
    21
370
    18
100
AcDbLine
 10
2090.644044
 20
1150.105592
 30
0.0
 11
2090.644044
 21
1137.605592
 31
0.0
  0
LINE
  5
80
330
1F
100
AcDbEntity
  8
Trimetric
  6
Continuous
 62
    21
370
    18
100
AcDbLine
 10
2093.144044
 20
1137.605592
 30
0.0
 11
2090.644044
 21
1137.605592
 31
0.0
  0
LINE
  5
81
330
1F
100
AcDbEntity
  8
Trimetric
  6
Continuous
 62
    21
370
    18
100
AcDbLine
 10
2093.144044
 20
1137.605592
 30
0.0
 11
2093.144044
 21
1150.105592
 31
0.0
  0
LINE
  5
82
330
1F
100
AcDbEntity
  8
Trimetric
  6
Continuous
 62
    21
370
    18
100
AcDbLine
 10
2089.444824
 20
1643.605592
 30
0.0
 11
2094.343752
 21
1643.605592
 31
0.0
  0
LINE
  5
83
330
1F
100
AcDbEntity
  8
Trimetric
  6
Continuous
 62
    21
370
    18
100
AcDbLine
 10
2175.394044
 20
751.605592
 30
0.0
 11
2175.394044
 21
1643.605592
 31
0.0
  0
LINE
  5
84
330
1F
100
AcDbEntity
  8
Trimetric
  6
Continuous
 62
    21
370
    18
100
AcDbLine
 10
2168.394044
 20
1643.605592
 30
0.0
 11
2168.394044
 21
751.605592
 31
0.0
  0
LINE
  5
85
330
1F
100
AcDbEntity
  8
Trimetric
  6
Continuous
 62
    21
370
    18
100
AcDbLine
 10
2174.343504
 20
1643.605592
 30
0.0
 11
2174.343504
 21
1636.741332
 31
0.0
  0
LINE
  5
86
330
1F
100
AcDbEntity
  8
Trimetric
  6
Continuous
 62
    21
370
    18
100
AcDbLine
 10
2169.44458
 20
1636.741332
 30
0.0
 11
2169.44458
 21
1643.605592
 31
0.0
  0
LINE
  5
87
330
1F
100
AcDbEntity
  8
Trimetric
  6
Continuous
 62
    21
370
    18
100
AcDbLine
 10
2169.44458
 20
1618.605591999999
 30
0.0
 11
2169.44458
 21
1634.469848
 31
0.0
  0
LINE
  5
88
330
1F
100
AcDbEntity
  8
Trimetric
  6
Continuous
 62
    21
370
    18
100
AcDbLine
 10
2174.343504
 20
1634.469848
 30
0.0
 11
2174.343504
 21
1618.605591999999
 31
0.0
  0
LINE
  5
89
330
1F
100
AcDbEntity
  8
Trimetric
  6
Continuous
 62
    21
370
    18
100
AcDbLine
 10
2173.144288
 20
739.105528
 30
0.0
 11
2170.644288
 21
739.105528
 31
0.0
  0
LINE
  5
8A
330
1F
100
AcDbEntity
  8
Trimetric
  6
Continuous
 62
    21
370
    18
100
AcDbLine
 10
2170.644288
 20
751.605592
 30
0.0
 11
2170.644288
 21
739.105528
 31
0.0
  0
LINE
  5
8B
330
1F
100
AcDbEntity
  8
Trimetric
  6
Continuous
 62
    21
370
    18
100
AcDbLine
 10
2173.144288
 20
739.105528
 30
0.0
 11
2173.144288
 21
751.605592
 31
0.0
  0
LINE
  5
8C
330
1F
100
AcDbEntity
  8
Trimetric
  6
Continuous
 62
    21
370
    18
100
AcDbLine
 10
2169.44458
 20
1643.605592
 30
0.0
 11
2174.343504
 21
1643.605592
 31
0.0
  0
LINE
  5
8D
330
1F
100
AcDbEntity
  8
Trimetric
  6
Continuous
 62
   253
370
    18
100
AcDbLine
 10
2194.394288
 20
1659.605592
 30
0.0
 11
2194.394288
 21
1647.605592
 31
0.0
  0
LINE
  5
8E
330
1F
100
AcDbEntity
  8
Trimetric
  6
Continuous
 62
   253
370
    18
100
AcDbLine
 10
2194.394288
 20
1647.605592
 30
0.0
 11
2179.894288
 21
1628.605592
 31
0.0
  0
LINE
  5
8F
330
1F
100
AcDbEntity
  8
Trimetric
  6
Continuous
 62
   253
370
    18
100
AcDbLine
 10
2179.894288
 20
1628.605592
 30
0.0
 11
2175.394044
 21
1628.605592
 31
0.0
  0
LINE
  5
90
330
1F
100
AcDbEntity
  8
Trimetric
  6
Continuous
 62
   253
370
    18
100
AcDbLine
 10
2168.394044
 20
1628.605592
 30
0.0
 11
2163.894288
 21
1628.605592
 31
0.0
  0
LINE
  5
91
330
1F
100
AcDbEntity
  8
Trimetric
  6
Continuous
 62
   253
370
    18
100
AcDbLine
 10
2163.894288
 20
1628.605592
 30
0.0
 11
2149.394288
 21
1647.605592
 31
0.0
  0
LINE
  5
92
330
1F
100
AcDbEntity
  8
Trimetric
  6
Continuous
 62
   253
370
    18
100
AcDbLine
 10
2149.394288
 20
1647.605592
 30
0.0
 11
2149.394288
 21
1659.605592
 31
0.0
  0
LINE
  5
93
330
1F
100
AcDbEntity
  8
Trimetric
  6
Continuous
 62
   253
370
    18
100
AcDbLine
 10
2149.394288
 20
1659.605592
 30
0.0
 11
2163.894288
 21
1678.605712
 31
0.0
  0
LINE
  5
94
330
1F
100
AcDbEntity
  8
Trimetric
  6
Continuous
 62
   253
370
    18
100
AcDbLine
 10
2163.894288
 20
1678.605712
 30
0.0
 11
2168.394532
 21
1678.605712
 31
0.0
  0
LINE
  5
95
330
1F
100
AcDbEntity
  8
Trimetric
  6
Continuous
 62
   253
370
    18
100
AcDbLine
 10
2175.394044
 20
1678.605712
 30
0.0
 11
2179.894288
 21
1678.605712
 31
0.0
  0
LINE
  5
96
330
1F
100
AcDbEntity
  8
Trimetric
  6
Continuous
 62
   253
370
    18
100
AcDbLine
 10
2167.644288
 20
1649.355712
 30
0.0
 11
2176.144288
 21
1649.355712
 31
0.0
  0
LINE
  5
97
330
1F
100
AcDbEntity
  8
Trimetric
  6
Continuous
 62
   253
370
    18
100
AcDbLine
 10
2176.144288
 20
1649.355712
 30
0.0
 11
2176.144288
 21
1657.855592
 31
0.0
  0
LINE
  5
98
330
1F
100
AcDbEntity
  8
Trimetric
  6
Continuous
 62
   253
370
    18
100
AcDbLine
 10
2176.144288
 20
1657.855592
 30
0.0
 11
2167.644288
 21
1657.855592
 31
0.0
  0
LINE
  5
99
330
1F
100
AcDbEntity
  8
Trimetric
  6
Continuous
 62
   253
370
    18
100
AcDbLine
 10
2167.644288
 20
1657.855592
 30
0.0
 11
2167.644288
 21
1649.355712
 31
0.0
  0
LINE
  5
9A
330
1F
100
AcDbEntity
  8
Trimetric
  6
Continuous
 62
   253
370
    18
100
AcDbLine
 10
2179.894288
 20
1678.605712
 30
0.0
 11
2194.394288
 21
1659.605592
 31
0.0
  0
LINE
  5
9B
330
1F
100
AcDbEntity
  8
Trimetric
  6
Continuous
 62
   253
370
    18
100
AcDbLine
 10
2114.394044
 20
1659.605592
 30
0.0
 11
2114.394044
 21
1647.605592
 31
0.0
  0
LINE
  5
9C
330
1F
100
AcDbEntity
  8
Trimetric
  6
Continuous
 62
   253
370
    18
100
AcDbLine
 10
2114.394044
 20
1647.605592
 30
0.0
 11
2099.894044
 21
1628.605592
 31
0.0
  0
LINE
  5
9D
330
1F
100
AcDbEntity
  8
Trimetric
  6
Continuous
 62
   253
370
    18
100
AcDbLine
 10
2099.894044
 20
1628.605592
 30
0.0
 11
2095.3938
 21
1628.605592
 31
0.0
  0
LINE
  5
9E
330
1F
100
AcDbEntity
  8
Trimetric
  6
Continuous
 62
   253
370
    18
100
AcDbLine
 10
2088.394288
 20
1628.605592
 30
0.0
 11
2083.894044
 21
1628.605592
 31
0.0
  0
LINE
  5
9F
330
1F
100
AcDbEntity
  8
Trimetric
  6
Continuous
 62
   253
370
    18
100
AcDbLine
 10
2083.894044
 20
1628.605592
 30
0.0
 11
2069.394044
 21
1647.605592
 31
0.0
  0
LINE
  5
A0
330
1F
100
AcDbEntity
  8
Trimetric
  6
Continuous
 62
   253
370
    18
100
AcDbLine
 10
2069.394044
 20
1647.605592
 30
0.0
 11
2069.394044
 21
1659.605592
 31
0.0
  0
LINE
  5
A1
330
1F
100
AcDbEntity
  8
Trimetric
  6
Continuous
 62
   253
370
    18
100
AcDbLine
 10
2069.394044
 20
1659.605592
 30
0.0
 11
2083.894044
 21
1678.605712
 31
0.0
  0
LINE
  5
A2
330
1F
100
AcDbEntity
  8
Trimetric
  6
Continuous
 62
   253
370
    18
100
AcDbLine
 10
2083.894044
 20
1678.605712
 30
0.0
 11
2088.394288
 21
1678.605712
 31
0.0
  0
LINE
  5
A3
330
1F
100
AcDbEntity
  8
Trimetric
  6
Continuous
 62
   253
370
    18
100
AcDbLine
 10
2095.394288
 20
1678.605712
 30
0.0
 11
2099.894044
 21
1678.605712
 31
0.0
  0
LINE
  5
A4
330
1F
100
AcDbEntity
  8
Trimetric
  6
Continuous
 62
   253
370
    18
100
AcDbLine
 10
2087.644044000001
 20
1649.355712
 30
0.0
 11
2096.144044
 21
1649.355712
 31
0.0
  0
LINE
  5
A5
330
1F
100
AcDbEntity
  8
Trimetric
  6
Continuous
 62
   253
370
    18
100
AcDbLine
 10
2096.144044
 20
1649.355712
 30
0.0
 11
2096.144044
 21
1657.855592
 31
0.0
  0
LINE
  5
A6
330
1F
100
AcDbEntity
  8
Trimetric
  6
Continuous
 62
   253
370
    18
100
AcDbLine
 10
2096.144044
 20
1657.855592
 30
0.0
 11
2087.644044000001
 21
1657.855592
 31
0.0
  0
LINE
  5
A7
330
1F
100
AcDbEntity
  8
Trimetric
  6
Continuous
 62
   253
370
    18
100
AcDbLine
 10
2087.644044000001
 20
1657.855592
 30
0.0
 11
2087.644044000001
 21
1649.355712
 31
0.0
  0
LINE
  5
A8
330
1F
100
AcDbEntity
  8
Trimetric
  6
Continuous
 62
   253
370
    18
100
AcDbLine
 10
2099.894044
 20
1678.605712
 30
0.0
 11
2114.394044
 21
1659.605592
 31
0.0
  0
LINE
  5
A9
330
1F
100
AcDbEntity
  8
Trimetric
  6
Continuous
 62
   211
370
    18
100
AcDbLine
 10
2088.394288
 20
2256.105712
 30
0.0
 11
2088.394288
 21
1663.605592
 31
0.0
  0
LINE
  5
AA
330
1F
100
AcDbEntity
  8
Trimetric
  6
Continuous
 62
   211
370
    18
100
AcDbLine
 10
2095.394288
 20
1663.605592
 30
0.0
 11
2095.394288
 21
2256.105712
 31
0.0
  0
LINE
  5
AB
330
1F
100
AcDbEntity
  8
Trimetric
  6
Continuous
 62
   211
370
    18
100
AcDbLine
 10
2089.444824
 20
1663.605592
 30
0.0
 11
2089.444824
 21
1670.469972
 31
0.0
  0
LINE
  5
AC
330
1F
100
AcDbEntity
  8
Trimetric
  6
Continuous
 62
   211
370
    18
100
AcDbLine
 10
2094.343752
 20
1670.469972
 30
0.0
 11
2094.343752
 21
1663.605592
 31
0.0
  0
LINE
  5
AD
330
1F
100
AcDbEntity
  8
Trimetric
  6
Continuous
 62
   211
370
    18
100
AcDbLine
 10
2094.343752
 20
1688.605592
 30
0.0
 11
2094.343752
 21
1672.741332
 31
0.0
  0
LINE
  5
AE
330
1F
100
AcDbEntity
  8
Trimetric
  6
Continuous
 62
   211
370
    18
100
AcDbLine
 10
2089.444824
 20
1672.741332
 30
0.0
 11
2089.444824
 21
1688.605592
 31
0.0
  0
LINE
  5
AF
330
1F
100
AcDbEntity
  8
Trimetric
  6
Continuous
 62
   211
370
    18
100
AcDbLine
 10
2090.644044
 20
2268.605712
 30
0.0
 11
2090.644044
 21
2256.105712
 31
0.0
  0
LINE
  5
B0
330
1F
100
AcDbEntity
  8
Trimetric
  6
Continuous
 62
   211
370
    18
100
AcDbLine
 10
2090.644044
 20
2268.605712
 30
0.0
 11
2093.144044
 21
2268.605712
 31
0.0
  0
LINE
  5
B1
330
1F
100
AcDbEntity
  8
Trimetric
  6
Continuous
 62
   211
370
    18
100
AcDbLine
 10
2093.144044
 20
2256.105712
 30
0.0
 11
2093.144044
 21
2268.605712
 31
0.0
  0
LINE
  5
B2
330
1F
100
AcDbEntity
  8
Trimetric
  6
Continuous
 62
   211
370
    18
100
AcDbLine
 10
2094.343752
 20
1663.605592
 30
0.0
 11
2089.444824
 21
1663.605592
 31
0.0
  0
LINE
  5
B3
330
1F
100
AcDbEntity
  8
Trimetric
  6
Continuous
 62
   211
370
    18
100
AcDbLine
 10
2168.394044
 20
2654.605712
 30
0.0
 11
2168.394044
 21
1663.605592
 31
0.0
  0
LINE
  5
B4
330
1F
100
AcDbEntity
  8
Trimetric
  6
Continuous
 62
   211
370
    18
100
AcDbLine
 10
2175.394044
 20
1663.605592
 30
0.0
 11
2175.394044
 21
2654.605712
 31
0.0
  0
LINE
  5
B5
330
1F
100
AcDbEntity
  8
Trimetric
  6
Continuous
 62
   211
370
    18
100
AcDbLine
 10
2169.44458
 20
1663.605592
 30
0.0
 11
2169.44458
 21
1670.469972
 31
0.0
  0
LINE
  5
B6
330
1F
100
AcDbEntity
  8
Trimetric
  6
Continuous
 62
   211
370
    18
100
AcDbLine
 10
2174.343504
 20
1670.469972
 30
0.0
 11
2174.343504
 21
1663.605592
 31
0.0
  0
LINE
  5
B7
330
1F
100
AcDbEntity
  8
Trimetric
  6
Continuous
 62
   211
370
    18
100
AcDbLine
 10
2174.343504
 20
1688.605592
 30
0.0
 11
2174.343504
 21
1672.741332
 31
0.0
  0
LINE
  5
B8
330
1F
100
AcDbEntity
  8
Trimetric
  6
Continuous
 62
   211
370
    18
100
AcDbLine
 10
2169.44458
 20
1672.741332
 30
0.0
 11
2169.44458
 21
1688.605592
 31
0.0
  0
LINE
  5
B9
330
1F
100
AcDbEntity
  8
Trimetric
  6
Continuous
 62
   211
370
    18
100
AcDbLine
 10
2170.644288
 20
2667.105468
 30
0.0
 11
2170.644288
 21
2654.605712
 31
0.0
  0
LINE
  5
BA
330
1F
100
AcDbEntity
  8
Trimetric
  6
Continuous
 62
   211
370
    18
100
AcDbLine
 10
2170.644288
 20
2667.105468
 30
0.0
 11
2173.144288
 21
2667.105468
 31
0.0
  0
LINE
  5
BB
330
1F
100
AcDbEntity
  8
Trimetric
  6
Continuous
 62
   211
370
    18
100
AcDbLine
 10
2173.144288
 20
2654.605712
 30
0.0
 11
2173.144288
 21
2667.105468
 31
0.0
  0
LINE
  5
BC
330
1F
100
AcDbEntity
  8
Trimetric
  6
Continuous
 62
   211
370
    18
100
AcDbLine
 10
2174.343504
 20
1663.605592
 30
0.0
 11
2169.44458
 21
1663.605592
 31
0.0
  0
LINE
  5
BD
330
1F
100
AcDbEntity
  8
Trimetric
  6
Continuous
 62
    21
370
    18
100
AcDbLine
 10
858.381776
 20
1150.105592
 30
0.0
 11
858.381776
 21
1618.605591999999
 31
0.0
  0
LINE
  5
BE
330
1F
100
AcDbEntity
  8
Trimetric
  6
Continuous
 62
    21
370
    18
100
AcDbLine
 10
851.3817119999998
 20
1618.605591999999
 30
0.0
 11
851.3817119999998
 21
1150.105592
 31
0.0
  0
LINE
  5
BF
330
1F
100
AcDbEntity
  8
Trimetric
  6
Continuous
 62
    21
370
    18
100
AcDbLine
 10
852.381776
 20
1618.605591999999
 30
0.0
 11
852.381776
 21
1628.605592
 31
0.0
  0
LINE
  5
C0
330
1F
100
AcDbEntity
  8
Trimetric
  6
Continuous
 62
    21
370
    18
100
AcDbLine
 10
857.3817119999999
 20
1636.741332
 30
0.0
 11
857.3817119999999
 21
1643.605592
 31
0.0
  0
LINE
  5
C1
330
1F
100
AcDbEntity
  8
Trimetric
  6
Continuous
 62
    21
370
    18
100
AcDbLine
 10
857.3817119999999
 20
1618.605591999999
 30
0.0
 11
857.3817119999999
 21
1634.469848
 31
0.0
  0
LINE
  5
C2
330
1F
100
AcDbEntity
  8
Trimetric
  6
Continuous
 62
    21
370
    18
100
AcDbLine
 10
858.1509399999999
 20
1137.605592
 30
0.0
 11
851.6126080000001
 21
1137.605592
 31
0.0
  0
LINE
  5
C3
330
1F
100
AcDbEntity
  8
Trimetric
  6
Continuous
 62
    21
370
    18
100
AcDbLine
 10
858.1509399999999
 20
1150.105592
 30
0.0
 11
858.1509399999999
 21
1137.605592
 31
0.0
  0
LINE
  5
C4
330
1F
100
AcDbEntity
  8
Trimetric
  6
Continuous
 62
    21
370
    18
100
AcDbLine
 10
858.381776
 20
751.605592
 30
0.0
 11
858.381776
 21
1150.114012
 31
0.0
  0
LINE
  5
C5
330
1F
100
AcDbEntity
  8
Trimetric
  6
Continuous
 62
    21
370
    18
100
AcDbLine
 10
851.3817119999998
 20
1137.610228
 30
0.0
 11
851.3817119999998
 21
751.605592
 31
0.0
  0
LINE
  5
C6
330
1F
100
AcDbEntity
  8
Trimetric
  6
Continuous
 62
    21
370
    18
100
AcDbLine
 10
858.1509399999999
 20
751.605592
 30
0.0
 11
858.1509399999999
 21
739.105528
 31
0.0
  0
LINE
  5
C7
330
1F
100
AcDbEntity
  8
Trimetric
  6
Continuous
 62
    21
370
    18
100
AcDbLine
 10
858.1509399999999
 20
739.105528
 30
0.0
 11
851.6126080000001
 21
739.105528
 31
0.0
  0
LINE
  5
C8
330
1F
100
AcDbEntity
  8
Trimetric
  6
Continuous
 62
   253
370
    18
100
AcDbLine
 10
852.381776
 20
1647.605592
 30
0.0
 11
850.78174
 21
1647.605592
 31
0.0
  0
LINE
  5
C9
330
1F
100
AcDbEntity
  8
Trimetric
  6
Continuous
 62
   253
370
    18
100
AcDbLine
 10
852.381776
 20
1628.605592
 30
0.0
 11
852.381776
 21
1647.605592
 31
0.0
  0
LINE
  5
CA
330
1F
100
AcDbEntity
  8
Trimetric
  6
Continuous
 62
   253
370
    18
100
AcDbLine
 10
852.381776
 20
1628.605592
 30
0.0
 11
850.78174
 21
1628.605592
 31
0.0
  0
LINE
  5
CB
330
1F
100
AcDbEntity
  8
Trimetric
  6
Continuous
 62
   253
370
    18
100
AcDbLine
 10
850.78174
 20
1628.605592
 30
0.0
 11
850.78174
 21
1647.605592
 31
0.0
  0
LINE
  5
CC
330
1F
100
AcDbEntity
  8
Trimetric
  6
Continuous
 62
   253
370
    18
100
AcDbLine
 10
852.381776
 20
1659.605592
 30
0.0
 11
850.78174
 21
1659.605592
 31
0.0
  0
LINE
  5
CD
330
1F
100
AcDbEntity
  8
Trimetric
  6
Continuous
 62
   253
370
    18
100
AcDbLine
 10
852.381776
 20
1647.605592
 30
0.0
 11
852.381776
 21
1659.605592
 31
0.0
  0
LINE
  5
CE
330
1F
100
AcDbEntity
  8
Trimetric
  6
Continuous
 62
   253
370
    18
100
AcDbLine
 10
850.78174
 20
1647.605592
 30
0.0
 11
850.78174
 21
1659.605592
 31
0.0
  0
LINE
  5
CF
330
1F
100
AcDbEntity
  8
Trimetric
  6
Continuous
 62
   253
370
    18
100
AcDbLine
 10
852.381776
 20
1678.605712
 30
0.0
 11
850.78174
 21
1678.605712
 31
0.0
  0
LINE
  5
D0
330
1F
100
AcDbEntity
  8
Trimetric
  6
Continuous
 62
   253
370
    18
100
AcDbLine
 10
852.381776
 20
1659.605592
 30
0.0
 11
852.381776
 21
1678.605712
 31
0.0
  0
LINE
  5
D1
330
1F
100
AcDbEntity
  8
Trimetric
  6
Continuous
 62
   253
370
    18
100
AcDbLine
 10
850.78174
 20
1659.605592
 30
0.0
 11
850.78174
 21
1678.605712
 31
0.0
  0
LINE
  5
D2
330
1F
100
AcDbEntity
  8
Trimetric
  6
Continuous
 62
   211
370
    18
100
AcDbLine
 10
851.3817119999998
 20
2256.105712
 30
0.0
 11
851.3817119999998
 21
1688.605592
 31
0.0
  0
LINE
  5
D3
330
1F
100
AcDbEntity
  8
Trimetric
  6
Continuous
 62
   211
370
    18
100
AcDbLine
 10
858.381776
 20
1688.605592
 30
0.0
 11
858.381776
 21
2256.105712
 31
0.0
  0
LINE
  5
D4
330
1F
100
AcDbEntity
  8
Trimetric
  6
Continuous
 62
   211
370
    18
100
AcDbLine
 10
857.3817119999999
 20
1663.605592
 30
0.0
 11
857.3817119999999
 21
1670.469972
 31
0.0
  0
LINE
  5
D5
330
1F
100
AcDbEntity
  8
Trimetric
  6
Continuous
 62
   211
370
    18
100
AcDbLine
 10
852.381776
 20
1678.605712
 30
0.0
 11
852.381776
 21
1688.605592
 31
0.0
  0
LINE
  5
D6
330
1F
100
AcDbEntity
  8
Trimetric
  6
Continuous
 62
   211
370
    18
100
AcDbLine
 10
857.3817119999999
 20
1672.741332
 30
0.0
 11
857.3817119999999
 21
1688.605592
 31
0.0
  0
LINE
  5
D7
330
1F
100
AcDbEntity
  8
Trimetric
  6
Continuous
 62
   211
370
    18
100
AcDbLine
 10
851.6126080000001
 20
2268.605712
 30
0.0
 11
858.1509399999999
 21
2268.605712
 31
0.0
  0
LINE
  5
D8
330
1F
100
AcDbEntity
  8
Trimetric
  6
Continuous
 62
   211
370
    18
100
AcDbLine
 10
858.1509399999999
 20
2268.605712
 30
0.0
 11
858.1509399999999
 21
2256.105712
 31
0.0
  0
LINE
  5
D9
330
1F
100
AcDbEntity
  8
Trimetric
  6
Continuous
 62
   223
370
    18
100
AcDbLine
 10
850.78174
 20
1645.705568
 30
0.0
 11
847.7815559999999
 21
1645.705568
 31
0.0
  0
LINE
  5
DA
330
1F
100
AcDbEntity
  8
Trimetric
  6
Continuous
 62
   223
370
    18
100
AcDbLine
 10
847.7815559999999
 20
1661.505616
 30
0.0
 11
850.78174
 21
1661.505616
 31
0.0
  0
LINE
  5
DB
330
1F
100
AcDbEntity
  8
Trimetric
  6
Continuous
 62
   223
370
    18
100
AcDbLine
 10
847.7815559999999
 20
1658.505616
 30
0.0
 11
847.7815559999999
 21
1648.705568
 31
0.0
  0
LINE
  5
DC
330
1F
100
AcDbEntity
  8
Trimetric
  6
Continuous
 62
   223
370
    18
100
AcDbLine
 10
850.78174
 20
1658.505616
 30
0.0
 11
850.78174
 21
1648.705568
 31
0.0
  0
LINE
  5
DD
330
1F
100
AcDbEntity
  8
Trimetric
  6
Continuous
 62
   211
370
    18
100
AcDbLine
 10
851.3817119999998
 20
2654.605712
 30
0.0
 11
851.3817119999998
 21
2268.598144
 31
0.0
  0
LINE
  5
DE
330
1F
100
AcDbEntity
  8
Trimetric
  6
Continuous
 62
   211
370
    18
100
AcDbLine
 10
858.381776
 20
2256.100584
 30
0.0
 11
858.381776
 21
2654.605712
 31
0.0
  0
LINE
  5
DF
330
1F
100
AcDbEntity
  8
Trimetric
  6
Continuous
 62
   211
370
    18
100
AcDbLine
 10
851.6126080000001
 20
2667.105468
 30
0.0
 11
858.1509399999999
 21
2667.105468
 31
0.0
  0
LINE
  5
E0
330
1F
100
AcDbEntity
  8
Trimetric
  6
Continuous
 62
   211
370
    18
100
AcDbLine
 10
858.1509399999999
 20
2667.105468
 30
0.0
 11
858.1509399999999
 21
2654.605712
 31
0.0
  0
LINE
  5
E1
330
1F
100
AcDbEntity
  8
Trimetric
  6
Continuous
 62
    21
370
    18
100
AcDbLine
 10
3420.533204
 20
751.605592
 30
0.0
 11
3420.533204
 21
1618.605591999999
 31
0.0
  0
LINE
  5
E2
330
1F
100
AcDbEntity
  8
Trimetric
  6
Continuous
 62
    21
370
    18
100
AcDbLine
 10
3413.53296
 20
1618.605591999999
 30
0.0
 11
3413.53296
 21
751.605592
 31
0.0
  0
LINE
  5
E3
330
1F
100
AcDbEntity
  8
Trimetric
  6
Continuous
 62
    21
370
    18
100
AcDbLine
 10
3414.532960000001
 20
1643.605592
 30
0.0
 11
3414.532960000001
 21
1636.741332
 31
0.0
  0
LINE
  5
E4
330
1F
100
AcDbEntity
  8
Trimetric
  6
Continuous
 62
    21
370
    18
100
AcDbLine
 10
3419.53296
 20
1628.605592
 30
0.0
 11
3419.53296
 21
1618.605591999999
 31
0.0
  0
LINE
  5
E5
330
1F
100
AcDbEntity
  8
Trimetric
  6
Continuous
 62
    21
370
    18
100
AcDbLine
 10
3414.532960000001
 20
1634.469848
 30
0.0
 11
3414.532960000001
 21
1618.605591999999
 31
0.0
  0
LINE
  5
E6
330
1F
100
AcDbEntity
  8
Trimetric
  6
Continuous
 62
    21
370
    18
100
AcDbLine
 10
3420.302248
 20
739.105528
 30
0.0
 11
3413.763672
 21
739.105528
 31
0.0
  0
LINE
  5
E7
330
1F
100
AcDbEntity
  8
Trimetric
  6
Continuous
 62
    21
370
    18
100
AcDbLine
 10
3413.763672
 20
739.105528
 30
0.0
 11
3413.763672
 21
751.605592
 31
0.0
  0
LINE
  5
E8
330
1F
100
AcDbEntity
  8
Trimetric
  6
Continuous
 62
   253
370
    18
100
AcDbLine
 10
3419.53296
 20
1628.605592
 30
0.0
 11
3421.133056
 21
1628.605592
 31
0.0
  0
LINE
  5
E9
330
1F
100
AcDbEntity
  8
Trimetric
  6
Continuous
 62
   253
370
    18
100
AcDbLine
 10
3419.53296
 20
1647.605592
 30
0.0
 11
3419.53296
 21
1628.605592
 31
0.0
  0
LINE
  5
EA
330
1F
100
AcDbEntity
  8
Trimetric
  6
Continuous
 62
   253
370
    18
100
AcDbLine
 10
3419.53296
 20
1647.605592
 30
0.0
 11
3421.133056
 21
1647.605592
 31
0.0
  0
LINE
  5
EB
330
1F
100
AcDbEntity
  8
Trimetric
  6
Continuous
 62
   253
370
    18
100
AcDbLine
 10
3421.133056
 20
1647.605592
 30
0.0
 11
3421.133056
 21
1628.605592
 31
0.0
  0
LINE
  5
EC
330
1F
100
AcDbEntity
  8
Trimetric
  6
Continuous
 62
   253
370
    18
100
AcDbLine
 10
3419.53296
 20
1659.605592
 30
0.0
 11
3419.53296
 21
1647.605592
 31
0.0
  0
LINE
  5
ED
330
1F
100
AcDbEntity
  8
Trimetric
  6
Continuous
 62
   253
370
    18
100
AcDbLine
 10
3419.53296
 20
1659.605592
 30
0.0
 11
3421.133056
 21
1659.605592
 31
0.0
  0
LINE
  5
EE
330
1F
100
AcDbEntity
  8
Trimetric
  6
Continuous
 62
   253
370
    18
100
AcDbLine
 10
3421.133056
 20
1659.605592
 30
0.0
 11
3421.133056
 21
1647.605592
 31
0.0
  0
LINE
  5
EF
330
1F
100
AcDbEntity
  8
Trimetric
  6
Continuous
 62
   253
370
    18
100
AcDbLine
 10
3419.53296
 20
1678.605712
 30
0.0
 11
3421.133056
 21
1678.605712
 31
0.0
  0
LINE
  5
F0
330
1F
100
AcDbEntity
  8
Trimetric
  6
Continuous
 62
   253
370
    18
100
AcDbLine
 10
3421.133056
 20
1678.605712
 30
0.0
 11
3421.133056
 21
1659.605592
 31
0.0
  0
LINE
  5
F1
330
1F
100
AcDbEntity
  8
Trimetric
  6
Continuous
 62
   253
370
    18
100
AcDbLine
 10
3419.53296
 20
1678.605712
 30
0.0
 11
3419.53296
 21
1659.605592
 31
0.0
  0
LINE
  5
F2
330
1F
100
AcDbEntity
  8
Trimetric
  6
Continuous
 62
   223
370
    18
100
AcDbLine
 10
3421.133056
 20
1661.505616
 30
0.0
 11
3424.133056
 21
1661.505616
 31
0.0
  0
LINE
  5
F3
330
1F
100
AcDbEntity
  8
Trimetric
  6
Continuous
 62
   223
370
    18
100
AcDbLine
 10
3421.133056
 20
1648.705568
 30
0.0
 11
3421.133056
 21
1658.505616
 31
0.0
  0
LINE
  5
F4
330
1F
100
AcDbEntity
  8
Trimetric
  6
Continuous
 62
   223
370
    18
100
AcDbLine
 10
3424.133056
 20
1648.705568
 30
0.0
 11
3424.133056
 21
1658.505616
 31
0.0
  0
LINE
  5
F5
330
1F
100
AcDbEntity
  8
Trimetric
  6
Continuous
 62
   223
370
    18
100
AcDbLine
 10
3424.133056
 20
1645.705568
 30
0.0
 11
3421.133056
 21
1645.705568
 31
0.0
  0
LINE
  5
F6
330
1F
100
AcDbEntity
  8
Trimetric
  6
Continuous
 62
   211
370
    18
100
AcDbLine
 10
3413.53296
 20
2654.605712
 30
0.0
 11
3413.53296
 21
1688.605592
 31
0.0
  0
LINE
  5
F7
330
1F
100
AcDbEntity
  8
Trimetric
  6
Continuous
 62
   211
370
    18
100
AcDbLine
 10
3420.533204
 20
1688.605592
 30
0.0
 11
3420.533204
 21
2654.605712
 31
0.0
  0
LINE
  5
F8
330
1F
100
AcDbEntity
  8
Trimetric
  6
Continuous
 62
   211
370
    18
100
AcDbLine
 10
3419.53296
 20
1688.605592
 30
0.0
 11
3419.53296
 21
1678.605712
 31
0.0
  0
LINE
  5
F9
330
1F
100
AcDbEntity
  8
Trimetric
  6
Continuous
 62
   211
370
    18
100
AcDbLine
 10
3414.532960000001
 20
1670.469972
 30
0.0
 11
3414.532960000001
 21
1663.605592
 31
0.0
  0
LINE
  5
FA
330
1F
100
AcDbEntity
  8
Trimetric
  6
Continuous
 62
   211
370
    18
100
AcDbLine
 10
3414.532960000001
 20
1688.605592
 30
0.0
 11
3414.532960000001
 21
1672.741332
 31
0.0
  0
LINE
  5
FB
330
1F
100
AcDbEntity
  8
Trimetric
  6
Continuous
 62
   211
370
    18
100
AcDbLine
 10
3413.763672
 20
2654.605712
 30
0.0
 11
3413.763672
 21
2667.105468
 31
0.0
  0
LINE
  5
FC
330
1F
100
AcDbEntity
  8
Trimetric
  6
Continuous
 62
   211
370
    18
100
AcDbLine
 10
3413.763672
 20
2667.105468
 30
0.0
 11
3420.302248
 21
2667.105468
 31
0.0
  0
LINE
  5
FD
330
1F
100
AcDbEntity
  8
Trimetric
  6
Continuous
 62
   253
370
    18
100
AcDbLine
 10
2194.394288
 20
3101.125488
 30
0.0
 11
2194.394288
 21
3102.725096
 31
0.0
  0
LINE
  5
FE
330
1F
100
AcDbEntity
  8
Trimetric
  6
Continuous
 62
   253
370
    18
100
AcDbLine
 10
2179.894288
 20
3101.125488
 30
0.0
 11
2179.894288
 21
3102.725096
 31
0.0
  0
LINE
  5
FF
330
1F
100
AcDbEntity
  8
Trimetric
  6
Continuous
 62
   253
370
    18
100
AcDbLine
 10
2179.894288
 20
3101.125488
 30
0.0
 11
2194.394288
 21
3101.125488
 31
0.0
  0
LINE
  5
100
330
1F
100
AcDbEntity
  8
Trimetric
  6
Continuous
 62
   253
370
    18
100
AcDbLine
 10
2179.894288
 20
3102.725096
 30
0.0
 11
2194.394288
 21
3102.725096
 31
0.0
  0
LINE
  5
101
330
1F
100
AcDbEntity
  8
Trimetric
  6
Continuous
 62
   253
370
    18
100
AcDbLine
 10
2163.894288
 20
3101.125488
 30
0.0
 11
2169.445068
 21
3101.125488
 31
0.0
  0
LINE
  5
102
330
1F
100
AcDbEntity
  8
Trimetric
  6
Continuous
 62
   253
370
    18
100
AcDbLine
 10
2174.343504
 20
3101.125488
 30
0.0
 11
2179.894288
 21
3101.125488
 31
0.0
  0
LINE
  5
103
330
1F
100
AcDbEntity
  8
Trimetric
  6
Continuous
 62
   253
370
    18
100
AcDbLine
 10
2163.894288
 20
3102.725096
 30
0.0
 11
2170.644288
 21
3102.725096
 31
0.0
  0
LINE
  5
104
330
1F
100
AcDbEntity
  8
Trimetric
  6
Continuous
 62
   253
370
    18
100
AcDbLine
 10
2173.1438
 20
3102.725096
 30
0.0
 11
2179.894288
 21
3102.725096
 31
0.0
  0
LINE
  5
105
330
1F
100
AcDbEntity
  8
Trimetric
  6
Continuous
 62
   253
370
    18
100
AcDbLine
 10
2163.894288
 20
3101.125488
 30
0.0
 11
2163.894288
 21
3102.725096
 31
0.0
  0
LINE
  5
106
330
1F
100
AcDbEntity
  8
Trimetric
  6
Continuous
 62
   253
370
    18
100
AcDbLine
 10
2149.394288
 20
3101.125488
 30
0.0
 11
2149.394288
 21
3102.725096
 31
0.0
  0
LINE
  5
107
330
1F
100
AcDbEntity
  8
Trimetric
  6
Continuous
 62
   253
370
    18
100
AcDbLine
 10
2149.394288
 20
3101.125488
 30
0.0
 11
2163.894288
 21
3101.125488
 31
0.0
  0
LINE
  5
108
330
1F
100
AcDbEntity
  8
Trimetric
  6
Continuous
 62
   253
370
    18
100
AcDbLine
 10
2149.394288
 20
3102.725096
 30
0.0
 11
2163.894288
 21
3102.725096
 31
0.0
  0
LINE
  5
109
330
1F
100
AcDbEntity
  8
Trimetric
  6
Continuous
 62
   253
370
    18
100
AcDbLine
 10
2083.894044
 20
3101.125488
 30
0.0
 11
2083.894044
 21
3102.725096
 31
0.0
  0
LINE
  5
10A
330
1F
100
AcDbEntity
  8
Trimetric
  6
Continuous
 62
   253
370
    18
100
AcDbLine
 10
2069.394044
 20
3101.125488
 30
0.0
 11
2069.394044
 21
3102.725096
 31
0.0
  0
LINE
  5
10B
330
1F
100
AcDbEntity
  8
Trimetric
  6
Continuous
 62
   253
370
    18
100
AcDbLine
 10
2069.394044
 20
3101.125488
 30
0.0
 11
2083.894044
 21
3101.125488
 31
0.0
  0
LINE
  5
10C
330
1F
100
AcDbEntity
  8
Trimetric
  6
Continuous
 62
   253
370
    18
100
AcDbLine
 10
2069.394044
 20
3102.725096
 30
0.0
 11
2083.894044
 21
3102.725096
 31
0.0
  0
LINE
  5
10D
330
1F
100
AcDbEntity
  8
Trimetric
  6
Continuous
 62
   253
370
    18
100
AcDbLine
 10
2114.394044
 20
3101.125488
 30
0.0
 11
2114.394044
 21
3102.725096
 31
0.0
  0
LINE
  5
10E
330
1F
100
AcDbEntity
  8
Trimetric
  6
Continuous
 62
   253
370
    18
100
AcDbLine
 10
2099.894044
 20
3101.125488
 30
0.0
 11
2099.894044
 21
3102.725096
 31
0.0
  0
LINE
  5
10F
330
1F
100
AcDbEntity
  8
Trimetric
  6
Continuous
 62
   253
370
    18
100
AcDbLine
 10
2099.894044
 20
3101.125488
 30
0.0
 11
2114.394044
 21
3101.125488
 31
0.0
  0
LINE
  5
110
330
1F
100
AcDbEntity
  8
Trimetric
  6
Continuous
 62
   253
370
    18
100
AcDbLine
 10
2099.894044
 20
3102.725096
 30
0.0
 11
2114.394044
 21
3102.725096
 31
0.0
  0
LINE
  5
111
330
1F
100
AcDbEntity
  8
Trimetric
  6
Continuous
 62
   253
370
    18
100
AcDbLine
 10
2083.894044
 20
3101.125488
 30
0.0
 11
2089.444824
 21
3101.125488
 31
0.0
  0
LINE
  5
112
330
1F
100
AcDbEntity
  8
Trimetric
  6
Continuous
 62
   253
370
    18
100
AcDbLine
 10
2094.34326
 20
3101.125488
 30
0.0
 11
2099.894044
 21
3101.125488
 31
0.0
  0
LINE
  5
113
330
1F
100
AcDbEntity
  8
Trimetric
  6
Continuous
 62
   253
370
    18
100
AcDbLine
 10
2083.894044
 20
3102.725096
 30
0.0
 11
2090.644532
 21
3102.725096
 31
0.0
  0
LINE
  5
114
330
1F
100
AcDbEntity
  8
Trimetric
  6
Continuous
 62
   253
370
    18
100
AcDbLine
 10
2093.144044
 20
3102.725096
 30
0.0
 11
2099.894044
 21
3102.725096
 31
0.0
  0
LINE
  5
115
330
1F
100
AcDbEntity
  8
Trimetric
  6
Continuous
 62
   211
370
    18
100
AcDbLine
 10
2093.144044
 20
3108.144532000001
 30
0.0
 11
2090.644044
 21
3108.144532000001
 31
0.0
  0
LINE
  5
116
330
1F
100
AcDbEntity
  8
Trimetric
  6
Continuous
 62
   211
370
    18
100
AcDbLine
 10
2090.644044
 20
3101.894288
 30
0.0
 11
2090.644044
 21
3095.3562
 31
0.0
  0
LINE
  5
117
330
1F
100
AcDbEntity
  8
Trimetric
  6
Continuous
 62
   211
370
    18
100
AcDbLine
 10
2090.644044
 20
3095.3562
 30
0.0
 11
2093.144044
 21
3095.3562
 31
0.0
  0
LINE
  5
118
330
1F
100
AcDbEntity
  8
Trimetric
  6
Continuous
 62
   211
370
    18
100
AcDbLine
 10
2093.144044
 20
3095.3562
 30
0.0
 11
2093.144044
 21
3101.894288
 31
0.0
  0
LINE
  5
119
330
1F
100
AcDbEntity
  8
Trimetric
  6
Continuous
 62
   223
370
    18
100
AcDbLine
 10
2194.394288
 20
3105.725584
 30
0.0
 11
2194.394288
 21
3102.725096
 31
0.0
  0
LINE
  5
11A
330
1F
100
AcDbEntity
  8
Trimetric
  6
Continuous
 62
   223
370
    18
100
AcDbLine
 10
2191.394044
 20
3105.725584
 30
0.0
 11
2173.144044
 21
3105.725584
 31
0.0
  0
LINE
  5
11B
330
1F
100
AcDbEntity
  8
Trimetric
  6
Continuous
 62
   223
370
    18
100
AcDbLine
 10
2170.644288
 20
3105.725584
 30
0.0
 11
2152.394044
 21
3105.725584
 31
0.0
  0
LINE
  5
11C
330
1F
100
AcDbEntity
  8
Trimetric
  6
Continuous
 62
   223
370
    18
100
AcDbLine
 10
2149.394288
 20
3102.725096
 30
0.0
 11
2149.394288
 21
3105.725584
 31
0.0
  0
LINE
  5
11D
330
1F
100
AcDbEntity
  8
Trimetric
  6
Continuous
 62
   223
370
    18
100
AcDbLine
 10
2111.394044
 20
3105.725584
 30
0.0
 11
2093.144044
 21
3105.725584
 31
0.0
  0
LINE
  5
11E
330
1F
100
AcDbEntity
  8
Trimetric
  6
Continuous
 62
   223
370
    18
100
AcDbLine
 10
2090.644288
 20
3105.725584
 30
0.0
 11
2072.394288
 21
3105.725584
 31
0.0
  0
LINE
  5
11F
330
1F
100
AcDbEntity
  8
Trimetric
  6
Continuous
 62
   223
370
    18
100
AcDbLine
 10
2069.394044
 20
3102.725096
 30
0.0
 11
2069.394044
 21
3105.725584
 31
0.0
  0
LINE
  5
120
330
1F
100
AcDbEntity
  8
Trimetric
  6
Continuous
 62
   223
370
    18
100
AcDbLine
 10
2114.394044
 20
3105.725584
 30
0.0
 11
2114.394044
 21
3102.725096
 31
0.0
  0
LINE
  5
121
330
1F
100
AcDbEntity
  8
Trimetric
  6
Continuous
 62
   211
370
    18
100
AcDbLine
 10
2173.144288
 20
3108.144532000001
 30
0.0
 11
2170.644288
 21
3108.144532000001
 31
0.0
  0
LINE
  5
122
330
1F
100
AcDbEntity
  8
Trimetric
  6
Continuous
 62
   211
370
    18
100
AcDbLine
 10
2173.144288
 20
3095.3562
 30
0.0
 11
2173.144288
 21
3101.894288
 31
0.0
  0
LINE
  5
123
330
1F
100
AcDbEntity
  8
Trimetric
  6
Continuous
 62
   211
370
    18
100
AcDbLine
 10
2170.644288
 20
3095.3562
 30
0.0
 11
2173.144288
 21
3095.3562
 31
0.0
  0
LINE
  5
124
330
1F
100
AcDbEntity
  8
Trimetric
  6
Continuous
 62
   211
370
    18
100
AcDbLine
 10
2170.644288
 20
3101.894288
 30
0.0
 11
2170.644288
 21
3095.3562
 31
0.0
  0
LINE
  5
125
330
1F
100
AcDbEntity
  8
Trimetric
  6
Continuous
 62
    21
370
    18
100
AcDbLine
 10
2093.144044
 20
188.821596
 30
0.0
 11
2090.644044
 21
188.821596
 31
0.0
  0
LINE
  5
126
330
1F
100
AcDbEntity
  8
Trimetric
  6
Continuous
 62
    21
370
    18
100
AcDbLine
 10
2093.144044
 20
182.283264
 30
0.0
 11
2093.144044
 21
188.821596
 31
0.0
  0
LINE
  5
127
330
1F
100
AcDbEntity
  8
Trimetric
  6
Continuous
 62
    21
370
    18
100
AcDbLine
 10
2090.644044
 20
188.821596
 30
0.0
 11
2090.644044
 21
182.283264
 31
0.0
  0
LINE
  5
128
330
1F
100
AcDbEntity
  8
Trimetric
  6
Continuous
 62
    21
370
    18
100
AcDbLine
 10
2090.644044
 20
176.033248
 30
0.0
 11
2093.144044
 21
176.033248
 31
0.0
  0
LINE
  5
129
330
1F
100
AcDbEntity
  8
Trimetric
  6
Continuous
 62
    21
370
    18
100
AcDbLine
 10
2170.644288
 20
176.033248
 30
0.0
 11
2173.144288
 21
176.033248
 31
0.0
  0
LINE
  5
12A
330
1F
100
AcDbEntity
  8
Trimetric
  6
Continuous
 62
    21
370
    18
100
AcDbLine
 10
2173.144288
 20
182.283264
 30
0.0
 11
2173.144288
 21
188.821596
 31
0.0
  0
LINE
  5
12B
330
1F
100
AcDbEntity
  8
Trimetric
  6
Continuous
 62
    21
370
    18
100
AcDbLine
 10
2170.644288
 20
188.821596
 30
0.0
 11
2170.644288
 21
182.283264
 31
0.0
  0
LINE
  5
12C
330
1F
100
AcDbEntity
  8
Trimetric
  6
Continuous
 62
    21
370
    18
100
AcDbLine
 10
2173.144288
 20
188.821596
 30
0.0
 11
2170.644288
 21
188.821596
 31
0.0
  0
LINE
  5
12D
330
1F
100
AcDbEntity
  8
Trimetric
  6
Continuous
 62
   253
370
    18
100
AcDbLine
 10
2163.894288
 20
183.052444
 30
0.0
 11
2163.894288
 21
181.45244
 31
0.0
  0
LINE
  5
12E
330
1F
100
AcDbEntity
  8
Trimetric
  6
Continuous
 62
   253
370
    18
100
AcDbLine
 10
2179.894288
 20
183.052444
 30
0.0
 11
2174.343504
 21
183.052444
 31
0.0
  0
LINE
  5
12F
330
1F
100
AcDbEntity
  8
Trimetric
  6
Continuous
 62
   253
370
    18
100
AcDbLine
 10
2169.445068
 20
183.052444
 30
0.0
 11
2163.894288
 21
183.052444
 31
0.0
  0
LINE
  5
130
330
1F
100
AcDbEntity
  8
Trimetric
  6
Continuous
 62
   253
370
    18
100
AcDbLine
 10
2179.894288
 20
181.45244
 30
0.0
 11
2173.144288
 21
181.45244
 31
0.0
  0
LINE
  5
131
330
1F
100
AcDbEntity
  8
Trimetric
  6
Continuous
 62
   253
370
    18
100
AcDbLine
 10
2170.644288
 20
181.45244
 30
0.0
 11
2163.894288
 21
181.45244
 31
0.0
  0
LINE
  5
132
330
1F
100
AcDbEntity
  8
Trimetric
  6
Continuous
 62
   253
370
    18
100
AcDbLine
 10
2179.894288
 20
183.052444
 30
0.0
 11
2179.894288
 21
181.45244
 31
0.0
  0
LINE
  5
133
330
1F
100
AcDbEntity
  8
Trimetric
  6
Continuous
 62
   253
370
    18
100
AcDbLine
 10
2194.394288
 20
183.052444
 30
0.0
 11
2179.894288
 21
183.052444
 31
0.0
  0
LINE
  5
134
330
1F
100
AcDbEntity
  8
Trimetric
  6
Continuous
 62
   253
370
    18
100
AcDbLine
 10
2194.394288
 20
183.052444
 30
0.0
 11
2194.394288
 21
181.45244
 31
0.0
  0
LINE
  5
135
330
1F
100
AcDbEntity
  8
Trimetric
  6
Continuous
 62
   253
370
    18
100
AcDbLine
 10
2194.394288
 20
181.45244
 30
0.0
 11
2179.894288
 21
181.45244
 31
0.0
  0
LINE
  5
136
330
1F
100
AcDbEntity
  8
Trimetric
  6
Continuous
 62
   253
370
    18
100
AcDbLine
 10
2149.394288
 20
183.052444
 30
0.0
 11
2149.394288
 21
181.45244
 31
0.0
  0
LINE
  5
137
330
1F
100
AcDbEntity
  8
Trimetric
  6
Continuous
 62
   253
370
    18
100
AcDbLine
 10
2163.894288
 20
183.052444
 30
0.0
 11
2149.394288
 21
183.052444
 31
0.0
  0
LINE
  5
138
330
1F
100
AcDbEntity
  8
Trimetric
  6
Continuous
 62
   253
370
    18
100
AcDbLine
 10
2163.894288
 20
181.45244
 30
0.0
 11
2149.394288
 21
181.45244
 31
0.0
  0
LINE
  5
139
330
1F
100
AcDbEntity
  8
Trimetric
  6
Continuous
 62
   253
370
    18
100
AcDbLine
 10
2099.894044
 20
183.052444
 30
0.0
 11
2099.894044
 21
181.45244
 31
0.0
  0
LINE
  5
13A
330
1F
100
AcDbEntity
  8
Trimetric
  6
Continuous
 62
   253
370
    18
100
AcDbLine
 10
2114.394044
 20
183.052444
 30
0.0
 11
2099.894044
 21
183.052444
 31
0.0
  0
LINE
  5
13B
330
1F
100
AcDbEntity
  8
Trimetric
  6
Continuous
 62
   253
370
    18
100
AcDbLine
 10
2114.394044
 20
183.052444
 30
0.0
 11
2114.394044
 21
181.45244
 31
0.0
  0
LINE
  5
13C
330
1F
100
AcDbEntity
  8
Trimetric
  6
Continuous
 62
   253
370
    18
100
AcDbLine
 10
2114.394044
 20
181.45244
 30
0.0
 11
2099.894044
 21
181.45244
 31
0.0
  0
LINE
  5
13D
330
1F
100
AcDbEntity
  8
Trimetric
  6
Continuous
 62
   253
370
    18
100
AcDbLine
 10
2083.894044
 20
183.052444
 30
0.0
 11
2083.894044
 21
181.45244
 31
0.0
  0
LINE
  5
13E
330
1F
100
AcDbEntity
  8
Trimetric
  6
Continuous
 62
   253
370
    18
100
AcDbLine
 10
2099.894044
 20
183.052444
 30
0.0
 11
2094.34326
 21
183.052444
 31
0.0
  0
LINE
  5
13F
330
1F
100
AcDbEntity
  8
Trimetric
  6
Continuous
 62
   253
370
    18
100
AcDbLine
 10
2089.444824
 20
183.052444
 30
0.0
 11
2083.894044
 21
183.052444
 31
0.0
  0
LINE
  5
140
330
1F
100
AcDbEntity
  8
Trimetric
  6
Continuous
 62
   253
370
    18
100
AcDbLine
 10
2099.894044
 20
181.45244
 30
0.0
 11
2093.144044
 21
181.45244
 31
0.0
  0
LINE
  5
141
330
1F
100
AcDbEntity
  8
Trimetric
  6
Continuous
 62
   253
370
    18
100
AcDbLine
 10
2090.644532
 20
181.45244
 30
0.0
 11
2083.894044
 21
181.45244
 31
0.0
  0
LINE
  5
142
330
1F
100
AcDbEntity
  8
Trimetric
  6
Continuous
 62
   253
370
    18
100
AcDbLine
 10
2069.394044
 20
183.052444
 30
0.0
 11
2069.394044
 21
181.45244
 31
0.0
  0
LINE
  5
143
330
1F
100
AcDbEntity
  8
Trimetric
  6
Continuous
 62
   253
370
    18
100
AcDbLine
 10
2083.894044
 20
183.052444
 30
0.0
 11
2069.394044
 21
183.052444
 31
0.0
  0
LINE
  5
144
330
1F
100
AcDbEntity
  8
Trimetric
  6
Continuous
 62
   253
370
    18
100
AcDbLine
 10
2083.894044
 20
181.45244
 30
0.0
 11
2069.394044
 21
181.45244
 31
0.0
  0
LINE
  5
145
330
1F
100
AcDbEntity
  8
Trimetric
  6
Continuous
 62
   223
370
    18
100
AcDbLine
 10
2152.394044
 20
178.452224
 30
0.0
 11
2170.644288
 21
178.452224
 31
0.0
  0
LINE
  5
146
330
1F
100
AcDbEntity
  8
Trimetric
  6
Continuous
 62
   223
370
    18
100
AcDbLine
 10
2173.144044
 20
178.452224
 30
0.0
 11
2191.394044
 21
178.452224
 31
0.0
  0
LINE
  5
147
330
1F
100
AcDbEntity
  8
Trimetric
  6
Continuous
 62
   223
370
    18
100
AcDbLine
 10
2149.394288
 20
178.452224
 30
0.0
 11
2149.394288
 21
181.45244
 31
0.0
  0
LINE
  5
148
330
1F
100
AcDbEntity
  8
Trimetric
  6
Continuous
 62
   223
370
    18
100
AcDbLine
 10
2194.394288
 20
181.45244
 30
0.0
 11
2194.394288
 21
178.452224
 31
0.0
  0
LINE
  5
149
330
1F
100
AcDbEntity
  8
Trimetric
  6
Continuous
 62
   223
370
    18
100
AcDbLine
 10
2072.394288
 20
178.452224
 30
0.0
 11
2090.644288
 21
178.452224
 31
0.0
  0
LINE
  5
14A
330
1F
100
AcDbEntity
  8
Trimetric
  6
Continuous
 62
   223
370
    18
100
AcDbLine
 10
2093.144044
 20
178.452224
 30
0.0
 11
2111.394044
 21
178.452224
 31
0.0
  0
LINE
  5
14B
330
1F
100
AcDbEntity
  8
Trimetric
  6
Continuous
 62
   223
370
    18
100
AcDbLine
 10
2069.394044
 20
178.452224
 30
0.0
 11
2069.394044
 21
181.45244
 31
0.0
  0
LINE
  5
14C
330
1F
100
AcDbEntity
  8
Trimetric
  6
Continuous
 62
   223
370
    18
100
AcDbLine
 10
2114.394044
 20
181.45244
 30
0.0
 11
2114.394044
 21
178.452224
 31
0.0
  0
LINE
  5
14D
330
1F
100
AcDbEntity
  8
Trimetric
  6
Continuous
 62
    21
370
    18
100
AcDbLine
 10
4729.702636
 20
1137.605592
 30
0.0
 11
4727.202636
 21
1137.605592
 31
0.0
  0
LINE
  5
14E
330
1F
100
AcDbEntity
  8
Trimetric
  6
Continuous
 62
    21
370
    18
100
AcDbLine
 10
4731.952147999999
 20
1150.105592
 30
0.0
 11
4731.952147999999
 21
1628.600096
 31
0.0
  0
LINE
  5
14F
330
1F
100
AcDbEntity
  8
Trimetric
  6
Continuous
 62
    21
370
    18
100
AcDbLine
 10
4724.952636
 20
1628.600096
 30
0.0
 11
4724.952636
 21
1150.105592
 31
0.0
  0
LINE
  5
150
330
1F
100
AcDbEntity
  8
Trimetric
  6
Continuous
 62
    21
370
    18
100
AcDbLine
 10
4726.002927999999
 20
1628.605592
 30
0.0
 11
4726.002927999999
 21
1618.605591999999
 31
0.0
  0
LINE
  5
151
330
1F
100
AcDbEntity
  8
Trimetric
  6
Continuous
 62
    21
370
    18
100
AcDbLine
 10
4730.901856
 20
1618.605591999999
 30
0.0
 11
4730.901856
 21
1628.605592
 31
0.0
  0
LINE
  5
152
330
1F
100
AcDbEntity
  8
Trimetric
  6
Continuous
 62
    21
370
    18
100
AcDbLine
 10
4649.702147999999
 20
739.105528
 30
0.0
 11
4647.202147999999
 21
739.105528
 31
0.0
  0
LINE
  5
153
330
1F
100
AcDbEntity
  8
Trimetric
  6
Continuous
 62
    21
370
    18
100
AcDbLine
 10
4651.952635999999
 20
751.605592
 30
0.0
 11
4651.952635999999
 21
1628.594972
 31
0.0
  0
LINE
  5
154
330
1F
100
AcDbEntity
  8
Trimetric
  6
Continuous
 62
    21
370
    18
100
AcDbLine
 10
4644.952147999999
 20
1628.594972
 30
0.0
 11
4644.952147999999
 21
751.605592
 31
0.0
  0
LINE
  5
155
330
1F
100
AcDbEntity
  8
Trimetric
  6
Continuous
 62
    21
370
    18
100
AcDbLine
 10
4646.002928
 20
1628.605592
 30
0.0
 11
4646.002928
 21
1618.605591999999
 31
0.0
  0
LINE
  5
156
330
1F
100
AcDbEntity
  8
Trimetric
  6
Continuous
 62
    21
370
    18
100
AcDbLine
 10
4650.901856
 20
1618.605591999999
 30
0.0
 11
4650.901856
 21
1628.605592
 31
0.0
  0
LINE
  5
157
330
1F
100
AcDbEntity
  8
Trimetric
  6
Continuous
 62
   253
370
    18
100
AcDbLine
 10
4656.452636
 20
1678.605712
 30
0.0
 11
4640.452636
 21
1678.605712
 31
0.0
  0
LINE
  5
158
330
1F
100
AcDbEntity
  8
Trimetric
  6
Continuous
 62
   253
370
    18
100
AcDbLine
 10
4670.952147999999
 20
1659.605592
 30
0.0
 11
4656.452636
 21
1678.605712
 31
0.0
  0
LINE
  5
159
330
1F
100
AcDbEntity
  8
Trimetric
  6
Continuous
 62
   253
370
    18
100
AcDbLine
 10
4656.452636
 20
1628.605592
 30
0.0
 11
4670.952147999999
 21
1647.605592
 31
0.0
  0
LINE
  5
15A
330
1F
100
AcDbEntity
  8
Trimetric
  6
Continuous
 62
   253
370
    18
100
AcDbLine
 10
4640.452636
 20
1628.605592
 30
0.0
 11
4656.452636
 21
1628.605592
 31
0.0
  0
LINE
  5
15B
330
1F
100
AcDbEntity
  8
Trimetric
  6
Continuous
 62
   253
370
    18
100
AcDbLine
 10
4625.952147999999
 20
1647.605592
 30
0.0
 11
4640.452636
 21
1628.605592
 31
0.0
  0
LINE
  5
15C
330
1F
100
AcDbEntity
  8
Trimetric
  6
Continuous
 62
   253
370
    18
100
AcDbLine
 10
4640.452636
 20
1678.605712
 30
0.0
 11
4625.952147999999
 21
1659.605592
 31
0.0
  0
LINE
  5
15D
330
1F
100
AcDbEntity
  8
Trimetric
  6
Continuous
 62
   253
370
    18
100
AcDbLine
 10
4736.452636
 20
1678.605712
 30
0.0
 11
4720.452636
 21
1678.605712
 31
0.0
  0
LINE
  5
15E
330
1F
100
AcDbEntity
  8
Trimetric
  6
Continuous
 62
   253
370
    18
100
AcDbLine
 10
4750.952636
 20
1659.605592
 30
0.0
 11
4736.452636
 21
1678.605712
 31
0.0
  0
LINE
  5
15F
330
1F
100
AcDbEntity
  8
Trimetric
  6
Continuous
 62
   253
370
    18
100
AcDbLine
 10
4736.452636
 20
1628.605592
 30
0.0
 11
4750.952636
 21
1647.605592
 31
0.0
  0
LINE
  5
160
330
1F
100
AcDbEntity
  8
Trimetric
  6
Continuous
 62
   253
370
    18
100
AcDbLine
 10
4720.452636
 20
1628.605592
 30
0.0
 11
4736.452636
 21
1628.605592
 31
0.0
  0
LINE
  5
161
330
1F
100
AcDbEntity
  8
Trimetric
  6
Continuous
 62
   253
370
    18
100
AcDbLine
 10
4705.952636
 20
1647.605592
 30
0.0
 11
4720.452636
 21
1628.605592
 31
0.0
  0
LINE
  5
162
330
1F
100
AcDbEntity
  8
Trimetric
  6
Continuous
 62
   253
370
    18
100
AcDbLine
 10
4720.452636
 20
1678.605712
 30
0.0
 11
4705.952636
 21
1659.605592
 31
0.0
  0
LINE
  5
163
330
1F
100
AcDbEntity
  8
Trimetric
  6
Continuous
 62
   211
370
    18
100
AcDbLine
 10
4727.202636
 20
2268.605712
 30
0.0
 11
4729.702636
 21
2268.605712
 31
0.0
  0
LINE
  5
164
330
1F
100
AcDbEntity
  8
Trimetric
  6
Continuous
 62
   211
370
    18
100
AcDbLine
 10
4724.952636
 20
2256.105712
 30
0.0
 11
4724.952636
 21
1678.612428
 31
0.0
  0
LINE
  5
165
330
1F
100
AcDbEntity
  8
Trimetric
  6
Continuous
 62
   211
370
    18
100
AcDbLine
 10
4731.952147999999
 20
1678.612428
 30
0.0
 11
4731.952147999999
 21
2256.105712
 31
0.0
  0
LINE
  5
166
330
1F
100
AcDbEntity
  8
Trimetric
  6
Continuous
 62
   211
370
    18
100
AcDbLine
 10
4730.901856
 20
1678.605712
 30
0.0
 11
4730.901856
 21
1688.605592
 31
0.0
  0
LINE
  5
167
330
1F
100
AcDbEntity
  8
Trimetric
  6
Continuous
 62
   211
370
    18
100
AcDbLine
 10
4726.002927999999
 20
1688.605592
 30
0.0
 11
4726.002927999999
 21
1678.605712
 31
0.0
  0
LINE
  5
168
330
1F
100
AcDbEntity
  8
Trimetric
  6
Continuous
 62
   223
370
    18
100
AcDbLine
 10
4652.702147999999
 20
1657.855592
 30
0.0
 11
4644.202636
 21
1657.855592
 31
0.0
  0
LINE
  5
169
330
1F
100
AcDbEntity
  8
Trimetric
  6
Continuous
 62
   223
370
    18
100
AcDbLine
 10
4644.202636
 20
1657.855592
 30
0.0
 11
4644.202636
 21
1649.355712
 31
0.0
  0
LINE
  5
16A
330
1F
100
AcDbEntity
  8
Trimetric
  6
Continuous
 62
   223
370
    18
100
AcDbLine
 10
4644.202636
 20
1649.355712
 30
0.0
 11
4652.702147999999
 21
1649.355712
 31
0.0
  0
LINE
  5
16B
330
1F
100
AcDbEntity
  8
Trimetric
  6
Continuous
 62
   223
370
    18
100
AcDbLine
 10
4652.702147999999
 20
1649.355712
 30
0.0
 11
4652.702147999999
 21
1657.855592
 31
0.0
  0
LINE
  5
16C
330
1F
100
AcDbEntity
  8
Trimetric
  6
Continuous
 62
   223
370
    18
100
AcDbLine
 10
4670.952147999999
 20
1658.505616
 30
0.0
 11
4670.952147999999
 21
1648.705568
 31
0.0
  0
LINE
  5
16D
330
1F
100
AcDbEntity
  8
Trimetric
  6
Continuous
 62
   223
370
    18
100
AcDbLine
 10
4667.952636
 20
1645.705568
 30
0.0
 11
4628.952147999999
 21
1645.705568
 31
0.0
  0
LINE
  5
16E
330
1F
100
AcDbEntity
  8
Trimetric
  6
Continuous
 62
   223
370
    18
100
AcDbLine
 10
4625.952147999999
 20
1648.705568
 30
0.0
 11
4625.952147999999
 21
1658.505616
 31
0.0
  0
LINE
  5
16F
330
1F
100
AcDbEntity
  8
Trimetric
  6
Continuous
 62
   223
370
    18
100
AcDbLine
 10
4628.952147999999
 20
1661.505616
 30
0.0
 11
4667.952636
 21
1661.505616
 31
0.0
  0
LINE
  5
170
330
1F
100
AcDbEntity
  8
Trimetric
  6
Continuous
 62
   223
370
    18
100
AcDbLine
 10
4732.702635999999
 20
1657.855592
 30
0.0
 11
4724.202147999999
 21
1657.855592
 31
0.0
  0
LINE
  5
171
330
1F
100
AcDbEntity
  8
Trimetric
  6
Continuous
 62
   223
370
    18
100
AcDbLine
 10
4724.202147999999
 20
1657.855592
 30
0.0
 11
4724.202147999999
 21
1649.355712
 31
0.0
  0
LINE
  5
172
330
1F
100
AcDbEntity
  8
Trimetric
  6
Continuous
 62
   223
370
    18
100
AcDbLine
 10
4724.202147999999
 20
1649.355712
 30
0.0
 11
4732.702635999999
 21
1649.355712
 31
0.0
  0
LINE
  5
173
330
1F
100
AcDbEntity
  8
Trimetric
  6
Continuous
 62
   223
370
    18
100
AcDbLine
 10
4732.702635999999
 20
1649.355712
 30
0.0
 11
4732.702635999999
 21
1657.855592
 31
0.0
  0
LINE
  5
174
330
1F
100
AcDbEntity
  8
Trimetric
  6
Continuous
 62
   223
370
    18
100
AcDbLine
 10
4750.952636
 20
1658.505616
 30
0.0
 11
4750.952636
 21
1648.705568
 31
0.0
  0
LINE
  5
175
330
1F
100
AcDbEntity
  8
Trimetric
  6
Continuous
 62
   223
370
    18
100
AcDbLine
 10
4747.952147999999
 20
1645.705568
 30
0.0
 11
4708.952636
 21
1645.705568
 31
0.0
  0
LINE
  5
176
330
1F
100
AcDbEntity
  8
Trimetric
  6
Continuous
 62
   223
370
    18
100
AcDbLine
 10
4705.952636
 20
1648.705568
 30
0.0
 11
4705.952636
 21
1658.505616
 31
0.0
  0
LINE
  5
177
330
1F
100
AcDbEntity
  8
Trimetric
  6
Continuous
 62
   223
370
    18
100
AcDbLine
 10
4708.952636
 20
1661.505616
 30
0.0
 11
4747.952147999999
 21
1661.505616
 31
0.0
  0
LINE
  5
178
330
1F
100
AcDbEntity
  8
Trimetric
  6
Continuous
 62
   211
370
    18
100
AcDbLine
 10
4647.202147999999
 20
2667.105468
 30
0.0
 11
4649.702147999999
 21
2667.105468
 31
0.0
  0
LINE
  5
179
330
1F
100
AcDbEntity
  8
Trimetric
  6
Continuous
 62
   211
370
    18
100
AcDbLine
 10
4644.952147999999
 20
2654.605712
 30
0.0
 11
4644.952147999999
 21
1678.609984
 31
0.0
  0
LINE
  5
17A
330
1F
100
AcDbEntity
  8
Trimetric
  6
Continuous
 62
   211
370
    18
100
AcDbLine
 10
4651.952635999999
 20
1678.609984
 30
0.0
 11
4651.952635999999
 21
2654.605712
 31
0.0
  0
LINE
  5
17B
330
1F
100
AcDbEntity
  8
Trimetric
  6
Continuous
 62
   211
370
    18
100
AcDbLine
 10
4650.901856
 20
1678.605712
 30
0.0
 11
4650.901856
 21
1688.605592
 31
0.0
  0
LINE
  5
17C
330
1F
100
AcDbEntity
  8
Trimetric
  6
Continuous
 62
   211
370
    18
100
AcDbLine
 10
4646.002928
 20
1688.605592
 30
0.0
 11
4646.002928
 21
1678.605712
 31
0.0
  0
ARC
  5
17D
330
1F
100
AcDbEntity
  8
Trimetric
  6
Continuous
 62
    21
370
    18
100
AcDbCircle
 10
2091.894044
 20
1635.605592
 30
0.0
 40
2.700000047683715
100
AcDbArc
 50
204.876256
 51
335.123744
  0
ARC
  5
17E
330
1F
100
AcDbEntity
  8
Trimetric
  6
Continuous
 62
    21
370
    18
100
AcDbCircle
 10
2091.894044
 20
1635.605592
 30
0.0
 40
2.700000047683715
100
AcDbArc
 50
24.876256
 51
155.123744
  0
ARC
  5
17F
330
1F
100
AcDbEntity
  8
Trimetric
  6
Continuous
 62
    21
370
    18
100
AcDbCircle
 10
2171.894288
 20
1635.605592
 30
0.0
 40
2.700000047683715
100
AcDbArc
 50
24.876256
 51
155.123744
  0
ARC
  5
180
330
1F
100
AcDbEntity
  8
Trimetric
  6
Continuous
 62
    21
370
    18
100
AcDbCircle
 10
2171.894288
 20
1635.605592
 30
0.0
 40
2.700000047683715
100
AcDbArc
 50
204.876256
 51
335.123744
  0
CIRCLE
  5
181
330
1F
100
AcDbEntity
  8
Trimetric
  6
Continuous
 62
   253
370
    18
100
AcDbCircle
 10
2156.894044
 20
1653.605592
 30
0.0
 40
1.75
  0
CIRCLE
  5
182
330
1F
100
AcDbEntity
  8
Trimetric
  6
Continuous
 62
   253
370
    18
100
AcDbCircle
 10
2186.894044
 20
1653.605592
 30
0.0
 40
1.75
  0
CIRCLE
  5
183
330
1F
100
AcDbEntity
  8
Trimetric
  6
Continuous
 62
   253
370
    18
100
AcDbCircle
 10
2171.894288
 20
1635.605592
 30
0.0
 40
2.109999895095825
  0
CIRCLE
  5
184
330
1F
100
AcDbEntity
  8
Trimetric
  6
Continuous
 62
   253
370
    18
100
AcDbCircle
 10
2171.894288
 20
1671.605592
 30
0.0
 40
2.109999895095825
  0
CIRCLE
  5
185
330
1F
100
AcDbEntity
  8
Trimetric
  6
Continuous
 62
   253
370
    18
100
AcDbCircle
 10
2076.894288
 20
1653.605592
 30
0.0
 40
1.75
  0
CIRCLE
  5
186
330
1F
100
AcDbEntity
  8
Trimetric
  6
Continuous
 62
   253
370
    18
100
AcDbCircle
 10
2106.894288
 20
1653.605592
 30
0.0
 40
1.75
  0
CIRCLE
  5
187
330
1F
100
AcDbEntity
  8
Trimetric
  6
Continuous
 62
   253
370
    18
100
AcDbCircle
 10
2091.894044
 20
1635.605592
 30
0.0
 40
2.109999895095825
  0
CIRCLE
  5
188
330
1F
100
AcDbEntity
  8
Trimetric
  6
Continuous
 62
   253
370
    18
100
AcDbCircle
 10
2091.894044
 20
1671.605592
 30
0.0
 40
2.109999895095825
  0
ARC
  5
189
330
1F
100
AcDbEntity
  8
Trimetric
  6
Continuous
 62
   211
370
    18
100
AcDbCircle
 10
2091.894044
 20
1671.605592
 30
0.0
 40
2.700000047683715
100
AcDbArc
 50
204.876256
 51
335.123744
  0
ARC
  5
18A
330
1F
100
AcDbEntity
  8
Trimetric
  6
Continuous
 62
   211
370
    18
100
AcDbCircle
 10
2091.894044
 20
1671.605592
 30
0.0
 40
2.700000047683715
100
AcDbArc
 50
24.876256
 51
155.123744
  0
ARC
  5
18B
330
1F
100
AcDbEntity
  8
Trimetric
  6
Continuous
 62
   211
370
    18
100
AcDbCircle
 10
2171.894288
 20
1671.605592
 30
0.0
 40
2.700000047683715
100
AcDbArc
 50
24.876256
 51
155.123744
  0
ARC
  5
18C
330
1F
100
AcDbEntity
  8
Trimetric
  6
Continuous
 62
   211
370
    18
100
AcDbCircle
 10
2171.894288
 20
1671.605592
 30
0.0
 40
2.700000047683715
100
AcDbArc
 50
204.876256
 51
335.123744
  0
ARC
  5
18D
330
1F
100
AcDbEntity
  8
Trimetric
  6
Continuous
 62
    21
370
    18
100
AcDbCircle
 10
851.6126080000001
 20
1143.855592
 30
0.0
 40
6.25000047683716
100
AcDbArc
 50
90.0
 51
270.0
  0
ARC
  5
18E
330
1F
100
AcDbEntity
  8
Trimetric
  6
Continuous
 62
    21
370
    18
100
AcDbCircle
 10
851.6126080000001
 20
745.355592
 30
0.0
 40
6.25000047683716
100
AcDbArc
 50
90.0
 51
270.0
  0
ARC
  5
18F
330
1F
100
AcDbEntity
  8
Trimetric
  6
Continuous
 62
   211
370
    18
100
AcDbCircle
 10
851.6126080000001
 20
2262.355468
 30
0.0
 40
6.25000047683716
100
AcDbArc
 50
90.0
 51
270.0
  0
ARC
  5
190
330
1F
100
AcDbEntity
  8
Trimetric
  6
Continuous
 62
   211
370
    18
100
AcDbCircle
 10
851.6126080000001
 20
2660.855712
 30
0.0
 40
6.25000047683716
100
AcDbArc
 50
90.0
 51
270.0
  0
ARC
  5
191
330
1F
100
AcDbEntity
  8
Trimetric
  6
Continuous
 62
    21
370
    18
100
AcDbCircle
 10
3420.302248
 20
1143.855592
 30
0.0
 40
6.25000047683716
100
AcDbArc
 50
272.117812
 51
87.882188
  0
ARC
  5
192
330
1F
100
AcDbEntity
  8
Trimetric
  6
Continuous
 62
    21
370
    18
100
AcDbCircle
 10
3420.302248
 20
745.355592
 30
0.0
 40
6.25000047683716
100
AcDbArc
 50
270.0
 51
90.0
  0
ARC
  5
193
330
1F
100
AcDbEntity
  8
Trimetric
  6
Continuous
 62
   211
370
    18
100
AcDbCircle
 10
3420.302248
 20
2262.355468
 30
0.0
 40
6.25000047683716
100
AcDbArc
 50
272.117812
 51
87.882188
  0
ARC
  5
194
330
1F
100
AcDbEntity
  8
Trimetric
  6
Continuous
 62
   211
370
    18
100
AcDbCircle
 10
3420.302248
 20
2660.855712
 30
0.0
 40
6.25000047683716
100
AcDbArc
 50
270.0
 51
90.0
  0
ARC
  5
195
330
1F
100
AcDbEntity
  8
Trimetric
  6
Continuous
 62
   211
370
    18
100
AcDbCircle
 10
2091.894044
 20
3098.625488
 30
0.0
 40
3.5
100
AcDbArc
 50
110.924833
 51
249.0751669999999
  0
ARC
  5
196
330
1F
100
AcDbEntity
  8
Trimetric
  6
Continuous
 62
   211
370
    18
100
AcDbCircle
 10
2091.894044
 20
3098.625488
 30
0.0
 40
3.5
100
AcDbArc
 50
249.0751669999999
 51
290.924833
  0
ARC
  5
197
330
1F
100
AcDbEntity
  8
Trimetric
  6
Continuous
 62
   211
370
    18
100
AcDbCircle
 10
2091.894044
 20
3098.625488
 30
0.0
 40
3.5
100
AcDbArc
 50
290.924833
 51
69.07516700000001
  0
ARC
  5
198
330
1F
100
AcDbEntity
  8
Trimetric
  6
Continuous
 62
   211
370
    18
100
AcDbCircle
 10
2171.894288
 20
3098.625488
 30
0.0
 40
3.5
100
AcDbArc
 50
290.924833
 51
69.07516700000001
  0
ARC
  5
199
330
1F
100
AcDbEntity
  8
Trimetric
  6
Continuous
 62
   211
370
    18
100
AcDbCircle
 10
2171.894288
 20
3098.625488
 30
0.0
 40
3.5
100
AcDbArc
 50
249.0751669999999
 51
290.924833
  0
ARC
  5
19A
330
1F
100
AcDbEntity
  8
Trimetric
  6
Continuous
 62
   211
370
    18
100
AcDbCircle
 10
2171.894288
 20
3098.625488
 30
0.0
 40
3.5
100
AcDbArc
 50
110.924833
 51
249.0751669999999
  0
ARC
  5
19B
330
1F
100
AcDbEntity
  8
Trimetric
  6
Continuous
 62
    21
370
    18
100
AcDbCircle
 10
2091.894044
 20
185.552444
 30
0.0
 40
3.5
100
AcDbArc
 50
110.924833
 51
249.0751669999999
  0
ARC
  5
19C
330
1F
100
AcDbEntity
  8
Trimetric
  6
Continuous
 62
    21
370
    18
100
AcDbCircle
 10
2091.894044
 20
185.552444
 30
0.0
 40
3.5
100
AcDbArc
 50
290.924833
 51
69.07516700000001
  0
ARC
  5
19D
330
1F
100
AcDbEntity
  8
Trimetric
  6
Continuous
 62
    21
370
    18
100
AcDbCircle
 10
2091.894044
 20
185.552444
 30
0.0
 40
3.5
100
AcDbArc
 50
69.07516700000001
 51
110.924833
  0
ARC
  5
19E
330
1F
100
AcDbEntity
  8
Trimetric
  6
Continuous
 62
    21
370
    18
100
AcDbCircle
 10
2171.894288
 20
185.552444
 30
0.0
 40
3.5
100
AcDbArc
 50
69.07516700000001
 51
110.924833
  0
ARC
  5
19F
330
1F
100
AcDbEntity
  8
Trimetric
  6
Continuous
 62
    21
370
    18
100
AcDbCircle
 10
2171.894288
 20
185.552444
 30
0.0
 40
3.5
100
AcDbArc
 50
290.924833
 51
69.07516700000001
  0
ARC
  5
1A0
330
1F
100
AcDbEntity
  8
Trimetric
  6
Continuous
 62
    21
370
    18
100
AcDbCircle
 10
2171.894288
 20
185.552444
 30
0.0
 40
3.5
100
AcDbArc
 50
110.924833
 51
249.0751669999999
  0
CIRCLE
  5
1A1
330
1F
100
AcDbEntity
  8
Trimetric
  6
Continuous
 62
   253
370
    18
100
AcDbCircle
 10
4648.452636
 20
1635.605592
 30
0.0
 40
2.109999895095825
  0
CIRCLE
  5
1A2
330
1F
100
AcDbEntity
  8
Trimetric
  6
Continuous
 62
   253
370
    18
100
AcDbCircle
 10
4648.452636
 20
1671.605592
 30
0.0
 40
2.109999895095825
  0
CIRCLE
  5
1A3
330
1F
100
AcDbEntity
  8
Trimetric
  6
Continuous
 62
   253
370
    18
100
AcDbCircle
 10
4728.452636
 20
1635.605592
 30
0.0
 40
2.109999895095825
  0
CIRCLE
  5
1A4
330
1F
100
AcDbEntity
  8
Trimetric
  6
Continuous
 62
   253
370
    18
100
AcDbCircle
 10
4728.452636
 20
1671.605592
 30
0.0
 40
2.109999895095825
  0
ARC
  5
1A5
330
1F
100
AcDbEntity
  8
Trimetric
  6
Continuous
 62
   223
370
    18
100
AcDbCircle
 10
4667.952636
 20
1658.505616
 30
0.0
 40
3.0
100
AcDbArc
 50
0.0
 51
90.0
  0
ARC
  5
1A6
330
1F
100
AcDbEntity
  8
Trimetric
  6
Continuous
 62
   223
370
    18
100
AcDbCircle
 10
4628.952147999999
 20
1648.705568
 30
0.0
 40
3.0
100
AcDbArc
 50
180.0
 51
270.0
  0
ARC
  5
1A7
330
1F
100
AcDbEntity
  8
Trimetric
  6
Continuous
 62
   223
370
    18
100
AcDbCircle
 10
4628.952147999999
 20
1658.505616
 30
0.0
 40
3.0
100
AcDbArc
 50
90.0
 51
180.0
  0
CIRCLE
  5
1A8
330
1F
100
AcDbEntity
  8
Trimetric
  6
Continuous
 62
   223
370
    18
100
AcDbCircle
 10
4663.452148
 20
1653.605592
 30
0.0
 40
3.135640859603881
  0
CIRCLE
  5
1A9
330
1F
100
AcDbEntity
  8
Trimetric
  6
Continuous
 62
   223
370
    18
100
AcDbCircle
 10
4633.452636
 20
1653.605592
 30
0.0
 40
3.135640859603881
  0
ARC
  5
1AA
330
1F
100
AcDbEntity
  8
Trimetric
  6
Continuous
 62
   223
370
    18
100
AcDbCircle
 10
4667.952636
 20
1648.705568
 30
0.0
 40
3.0
100
AcDbArc
 50
270.0
 51
0.0
  0
CIRCLE
  5
1AB
330
1F
100
AcDbEntity
  8
Trimetric
  6
Continuous
 62
   223
370
    18
100
AcDbCircle
 10
4663.452148
 20
1653.605592
 30
0.0
 40
1.75
  0
CIRCLE
  5
1AC
330
1F
100
AcDbEntity
  8
Trimetric
  6
Continuous
 62
   223
370
    18
100
AcDbCircle
 10
4633.452636
 20
1653.605592
 30
0.0
 40
1.75
  0
ARC
  5
1AD
330
1F
100
AcDbEntity
  8
Trimetric
  6
Continuous
 62
   223
370
    18
100
AcDbCircle
 10
4747.952147999999
 20
1658.505616
 30
0.0
 40
3.0
100
AcDbArc
 50
0.0
 51
90.0
  0
ARC
  5
1AE
330
1F
100
AcDbEntity
  8
Trimetric
  6
Continuous
 62
   223
370
    18
100
AcDbCircle
 10
4708.952636
 20
1648.705568
 30
0.0
 40
3.0
100
AcDbArc
 50
180.0
 51
270.0
  0
ARC
  5
1AF
330
1F
100
AcDbEntity
  8
Trimetric
  6
Continuous
 62
   223
370
    18
100
AcDbCircle
 10
4708.952636
 20
1658.505616
 30
0.0
 40
3.0
100
AcDbArc
 50
90.0
 51
180.0
  0
CIRCLE
  5
1B0
330
1F
100
AcDbEntity
  8
Trimetric
  6
Continuous
 62
   223
370
    18
100
AcDbCircle
 10
4743.452635999999
 20
1653.605592
 30
0.0
 40
3.135640859603881
  0
CIRCLE
  5
1B1
330
1F
100
AcDbEntity
  8
Trimetric
  6
Continuous
 62
   223
370
    18
100
AcDbCircle
 10
4713.452148
 20
1653.605592
 30
0.0
 40
3.135640859603881
  0
ARC
  5
1B2
330
1F
100
AcDbEntity
  8
Trimetric
  6
Continuous
 62
   223
370
    18
100
AcDbCircle
 10
4747.952147999999
 20
1648.705568
 30
0.0
 40
3.0
100
AcDbArc
 50
270.0
 51
0.0
  0
CIRCLE
  5
1B3
330
1F
100
AcDbEntity
  8
Trimetric
  6
Continuous
 62
   223
370
    18
100
AcDbCircle
 10
4743.452635999999
 20
1653.605592
 30
0.0
 40
1.75
  0
CIRCLE
  5
1B4
330
1F
100
AcDbEntity
  8
Trimetric
  6
Continuous
 62
   223
370
    18
100
AcDbCircle
 10
4713.452148
 20
1653.605592
 30
0.0
 40
1.75
  0
SPLINE
  5
1B9
330
1F
100
AcDbEntity
  8
Trimetric
  6
Continuous
 62
    21
370
    18
100
AcDbSpline
210
0.0
220
0.0
230
1.0
 70
    24
 71
     1
 72
     4
 73
     2
 74
     0
 42
0.000000001
 43
0.0000000001
 40
0.0
 40
0.0
 40
1.0
 40
1.0
 10
2094.343672308256
 20
1643.605609746184
 30
0.0
 10
2095.394233539701
 20
1643.605609746184
 30
0.0
  0
SPLINE
  5
1BA
330
1F
100
AcDbEntity
  8
Trimetric
  6
Continuous
 62
    21
370
    18
100
AcDbSpline
210
0.0
220
0.0
230
1.0
 70
    24
 71
     1
 72
     4
 73
     2
 74
     0
 42
0.000000001
 43
0.0000000001
 40
0.0
 40
0.0
 40
1.0
 40
1.0
 10
2088.394185139216
 20
1643.605609746184
 30
0.0
 10
2089.44474637066
 20
1643.605609746184
 30
0.0
  0
SPLINE
  5
1BB
330
1F
100
AcDbEntity
  8
Trimetric
  6
Continuous
 62
    21
370
    18
100
AcDbSpline
210
0.0
220
0.0
230
1.0
 70
    24
 71
     1
 72
     5
 73
     3
 74
     0
 42
0.000000001
 43
0.0000000001
 40
0.0
 40
0.0
 40
0.3174345991561182
 40
1.0
 40
1.0
 10
2094.343672308256
 20
1618.605625875411
 30
0.0
 10
2092.78858371696
 20
1618.605625875411
 30
0.0
 10
2089.44474637066
 20
1618.605625875411
 30
0.0
  0
SPLINE
  5
1BC
330
1F
100
AcDbEntity
  8
Trimetric
  6
Continuous
 62
    21
370
    18
100
AcDbSpline
210
0.0
220
0.0
230
1.0
 70
    24
 71
     1
 72
     4
 73
     2
 74
     0
 42
0.000000001
 43
0.0000000001
 40
0.0
 40
0.0
 40
1.0
 40
1.0
 10
2090.644135731855
 20
1150.105587486061
 30
0.0
 10
2093.144117582473
 20
1150.105587486061
 30
0.0
  0
SPLINE
  5
1BD
330
1F
100
AcDbEntity
  8
Trimetric
  6
Continuous
 62
    21
370
    18
100
AcDbSpline
210
0.0
220
0.0
230
1.0
 70
    24
 71
     1
 72
     4
 73
     2
 74
     0
 42
0.000000001
 43
0.0000000001
 40
0.0
 40
0.0
 40
1.0
 40
1.0
 10
2090.644135731855
 20
1150.105587486061
 30
0.0
 10
2088.394185139216
 20
1150.105587486061
 30
0.0
  0
SPLINE
  5
1BE
330
1F
100
AcDbEntity
  8
Trimetric
  6
Continuous
 62
    21
370
    18
100
AcDbSpline
210
0.0
220
0.0
230
1.0
 70
    24
 71
     1
 72
     4
 73
     2
 74
     0
 42
0.000000001
 43
0.0000000001
 40
0.0
 40
0.0
 40
1.0
 40
1.0
 10
2095.394233539701
 20
1150.105587486061
 30
0.0
 10
2093.144117582473
 20
1150.105587486061
 30
0.0
  0
SPLINE
  5
1BF
330
1F
100
AcDbEntity
  8
Trimetric
  6
Continuous
 62
    21
370
    18
100
AcDbSpline
210
0.0
220
0.0
230
1.0
 70
     8
 71
     1
 72
    59
 73
    57
 74
     0
 42
0.000000001
 43
0.0000000001
 40
0.0
 40
0.0
 40
0.029771558224651
 40
0.0598736659329076
 40
0.0749757038197886
 40
0.0902237994720507
 40
0.0978108059788281
 40
0.1055304261352936
 40
0.1131599372127778
 40
0.117041277431397
 40
0.1208331409599399
 40
0.1515698319774154
 40
0.1824786689540746
 40
0.2134293279040868
 40
0.2445487111458043
 40
0.2759100813655637
 40
0.3074669213815757
 40
0.3392997163354455
 40
0.3714339749549354
 40
0.3734904016830171
 40
0.3754766812303587
 40
0.3775331079584404
 40
0.3795193875057819
 40
0.3876047865659551
 40
0.4037484875876198
 40
0.419880473518678
 40
0.4359927095169431
 40
0.468184511273643
 40
0.5002806605048979
 40
0.5323062810267195
 40
0.5643571359088698
 40
0.596459407379426
 40
0.6285620662941955
 40
0.6365850766070791
 40
0.6446164540702483
 40
0.6486671449551862
 40
0.6546522258572269
 40
0.6567171028628191
 40
0.6587033824101606
 40
0.6606984093775075
 40
0.6767489251863318
 40
0.6927514790922679
 40
0.7243776908923305
 40
0.7557390611120899
 40
0.7868584443538073
 40
0.8177409527371827
 40
0.8484268574130787
 40
0.8789404997645375
 40
0.9093920394368851
 40
0.9397159571424106
 40
0.9472740556564438
 40
0.9548973693147027
 40
0.9586576114695471
 40
0.9624560296503956
 40
0.9662162718052396
 40
0.9700048537550387
 40
0.9850090615052819
 40
1.0
 40
1.0
 10
2089.44474637066
 20
1636.741325672948
 30
0.0
 10
2089.416138296831
 20
1636.677660306333
 30
0.0
 10
2089.389018504299
 20
1636.61250665842
 30
0.0
 10
2089.375954701798
 20
1636.579599105287
 30
0.0
 10
2089.363221628476
 20
1636.546195458388
 30
0.0
 10
2089.357103138697
 20
1636.529493634938
 30
0.0
 10
2089.350984648918
 20
1636.512461082311
 30
0.0
 10
2089.345031523728
 20
1636.495593894273
 30
0.0
 10
2089.342054961133
 20
1636.486994935665
 30
0.0
 10
2089.339243763126
 20
1636.478561341646
 30
0.0
 10
2089.316754179075
 20
1636.410100401961
 30
0.0
 10
2089.2960836055
 20
1636.340647274745
 30
0.0
 10
2089.277397406986
 20
1636.270532689173
 30
0.0
 10
2089.260364854359
 20
1636.199591280659
 30
0.0
 10
2089.245151312207
 20
1636.127657684614
 30
0.0
 10
2089.231756780529
 20
1636.054897265625
 30
0.0
 10
2089.220346623915
 20
1635.981144659104
 30
0.0
 10
2089.210920842365
 20
1635.906399865053
 30
0.0
 10
2089.210424748598
 20
1635.901604291982
 30
0.0
 10
2089.209928654833
 20
1635.896974083502
 30
0.0
 10
2089.209432561067
 20
1635.892178510432
 30
0.0
 10
2089.208936467302
 20
1635.887548301951
 30
0.0
 10
2089.206952092238
 20
1635.868696738849
 30
0.0
 10
2089.203644800466
 20
1635.830993612646
 30
0.0
 10
2089.200668237871
 20
1635.793290486443
 30
0.0
 10
2089.19835313363
 20
1635.75558736024
 30
0.0
 10
2089.195211206447
 20
1635.680181107833
 30
0.0
 10
2089.194219018915
 20
1635.604940220015
 30
0.0
 10
2089.195211206447
 20
1635.529864696786
 30
0.0
 10
2089.19835313363
 20
1635.454789173556
 30
0.0
 10
2089.203644800466
 20
1635.379713650327
 30
0.0
 10
2089.210920842365
 20
1635.304803491686
 30
0.0
 10
2089.213070582017
 20
1635.286117293173
 30
0.0
 10
2089.215385686257
 20
1635.267431094661
 30
0.0
 10
2089.216543238377
 20
1635.258005313109
 30
0.0
 10
2089.218527613441
 20
1635.244114687666
 30
0.0
 10
2089.219189071795
 20
1635.239319114597
 30
0.0
 10
2089.219685165561
 20
1635.234688906115
 30
0.0
 10
2089.220346623915
 20
1635.230058697635
 30
0.0
 10
2089.225969019928
 20
1635.192851665197
 30
0.0
 10
2089.231922145118
 20
1635.155809997348
 30
0.0
 10
2089.245316676795
 20
1635.082884213771
 30
0.0
 10
2089.260530218947
 20
1635.010950617725
 30
0.0
 10
2089.277562771575
 20
1634.940009209211
 30
0.0
 10
2089.296248970088
 20
1634.870059988229
 30
0.0
 10
2089.316754179075
 20
1634.801102954778
 30
0.0
 10
2089.339078398538
 20
1634.733138108859
 30
0.0
 10
2089.362890899297
 20
1634.665834721294
 30
0.0
 10
2089.388522410533
 20
1634.599523521261
 30
0.0
 10
2089.395302358665
 20
1634.583152426989
 30
0.0
 10
2089.402082306799
 20
1634.566615968127
 30
0.0
 10
2089.40555496316
 20
1634.558513103286
 30
0.0
 10
2089.408862254932
 20
1634.550244873855
 30
0.0
 10
2089.412334911292
 20
1634.542142009013
 30
0.0
 10
2089.415972932243
 20
1634.534039144171
 30
0.0
 10
2089.430028922274
 20
1634.501793049392
 30
0.0
 10
2089.44474637066
 20
1634.46987768379
 30
0.0
  0
SPLINE
  5
1C0
330
1F
100
AcDbEntity
  8
Trimetric
  6
Continuous
 62
    21
370
    18
100
AcDbSpline
210
0.0
220
0.0
230
1.0
 70
     8
 71
     1
 72
    57
 73
    55
 74
     0
 42
0.000000001
 43
0.0000000001
 40
0.0
 40
0.0
 40
0.0298369478838298
 40
0.0599401026279415
 40
0.0675372032289445
 40
0.0751083901969869
 40
0.0789725215460745
 40
0.0827454434142048
 40
0.0904233249242509
 40
0.1056641179169499
 40
0.1209669752012559
 40
0.1516157400301946
 40
0.1823904651545121
 40
0.21327404771827
 40
0.2443945133795429
 40
0.2757569744358445
 40
0.3073149120873872
 40
0.3232483829115954
 40
0.3392192819267286
 40
0.3553005506665372
 40
0.3593513824458815
 40
0.3633322121665175
 40
0.3673830439458618
 40
0.3714258840923929
 40
0.4036067481801999
 40
0.4357052538903104
 40
0.4677572235912161
 40
0.4997849678453526
 40
0.5318117023082078
 40
0.5638636720091134
 40
0.595967060086838
 40
0.6280708356222526
 40
0.6361642041173875
 40
0.644195860934423
 40
0.6461909572944112
 40
0.6482474555507906
 40
0.6522376482707673
 40
0.6562884800501116
 40
0.6602786727700883
 40
0.6763193591698468
 40
0.6922528299940549
 40
0.7238801418425936
 40
0.75531161705989
 40
0.7865006751998798
 40
0.8175387740668135
 40
0.8484486861396376
 40
0.8791645050908778
 40
0.8830459803134115
 40
0.8906757567667204
 40
0.8945572319892541
 40
0.9022107737244919
 40
0.9097980441286656
 40
0.9250216883146451
 40
0.9401242514928217
 40
0.9702274062369333
 40
1.0
 40
1.0
 10
2094.343672308256
 20
1634.46987768379
 30
0.0
 10
2094.372280382086
 20
1634.533708414994
 30
0.0
 10
2094.399400174618
 20
1634.598862062907
 30
0.0
 10
2094.406014758163
 20
1634.615398521768
 30
0.0
 10
2094.412463977118
 20
1634.631934980629
 30
0.0
 10
2094.41577126889
 20
1634.640368574648
 30
0.0
 10
2094.418913196074
 20
1634.648636804078
 30
0.0
 10
2094.425197050441
 20
1634.665503992117
 30
0.0
 10
2094.437434029998
 20
1634.699073003605
 30
0.0
 10
2094.44917491579
 20
1634.73297274427
 30
0.0
 10
2094.471499135252
 20
1634.801268319366
 30
0.0
 10
2094.492169708829
 20
1634.870390717406
 30
0.0
 10
2094.510855907341
 20
1634.940339938388
 30
0.0
 10
2094.527888459968
 20
1635.011281346902
 30
0.0
 10
2094.543102002121
 20
1635.083214942948
 30
0.0
 10
2094.556496533798
 20
1635.155975361936
 30
0.0
 10
2094.562449658988
 20
1635.192851665197
 30
0.0
 10
2094.567906690413
 20
1635.229893333045
 30
0.0
 10
2094.572867628071
 20
1635.267265730072
 30
0.0
 10
2094.574025180191
 20
1635.276691511623
 30
0.0
 10
2094.575182732311
 20
1635.285951928585
 30
0.0
 10
2094.576340284431
 20
1635.295377710135
 30
0.0
 10
2094.577332471963
 20
1635.304803491686
 30
0.0
 10
2094.58477387845
 20
1635.379879014915
 30
0.0
 10
2094.589900180698
 20
1635.454954538145
 30
0.0
 10
2094.593042107881
 20
1635.530030061374
 30
0.0
 10
2094.594199660001
 20
1635.605105584603
 30
0.0
 10
2094.59320747247
 20
1635.680181107833
 30
0.0
 10
2094.590065545286
 20
1635.755256631062
 30
0.0
 10
2094.58477387845
 20
1635.830332154291
 30
0.0
 10
2094.577497836552
 20
1635.905242312932
 30
0.0
 10
2094.575348096899
 20
1635.924093876034
 30
0.0
 10
2094.573032992659
 20
1635.942780074547
 30
0.0
 10
2094.572371534304
 20
1635.947410283028
 30
0.0
 10
2094.571875440539
 20
1635.952205856098
 30
0.0
 10
2094.57055252383
 20
1635.96146627306
 30
0.0
 10
2094.56939497171
 20
1635.970892054611
 30
0.0
 10
2094.568072055001
 20
1635.980152471573
 30
0.0
 10
2094.562615023577
 20
1636.01735950401
 30
0.0
 10
2094.556661898387
 20
1636.05423580727
 30
0.0
 10
2094.543267366709
 20
1636.127161590848
 30
0.0
 10
2094.528053824557
 20
1636.199260551482
 30
0.0
 10
2094.51102127193
 20
1636.270367324585
 30
0.0
 10
2094.492169708829
 20
1636.340647274745
 30
0.0
 10
2094.471499135252
 20
1636.410100401961
 30
0.0
 10
2094.44917491579
 20
1636.478561341646
 30
0.0
 10
2094.446198353195
 20
1636.487160300253
 30
0.0
 10
2094.440245228005
 20
1636.504027488292
 30
0.0
 10
2094.43726866541
 20
1636.5126264469
 30
0.0
 10
2094.431150175631
 20
1636.529493634938
 30
0.0
 10
2094.425031685853
 20
1636.546195458388
 30
0.0
 10
2094.412463977118
 20
1636.579599105287
 30
0.0
 10
2094.399400174618
 20
1636.61250665842
 30
0.0
 10
2094.372280382086
 20
1636.677660306333
 30
0.0
 10
2094.343672308256
 20
1636.741325672948
 30
0.0
  0
SPLINE
  5
1C1
330
1F
100
AcDbEntity
  8
Trimetric
  6
Continuous
 62
    21
370
    18
100
AcDbSpline
210
0.0
220
0.0
230
1.0
 70
    24
 71
     1
 72
     4
 73
     2
 74
     0
 42
0.000000001
 43
0.0000000001
 40
0.0
 40
0.0
 40
1.0
 40
1.0
 10
2174.343587621813
 20
1643.605609746184
 30
0.0
 10
2175.394148853258
 20
1643.605609746184
 30
0.0
  0
SPLINE
  5
1C2
330
1F
100
AcDbEntity
  8
Trimetric
  6
Continuous
 62
    21
370
    18
100
AcDbSpline
210
0.0
220
0.0
230
1.0
 70
    24
 71
     1
 72
     4
 73
     2
 74
     0
 42
0.000000001
 43
0.0000000001
 40
0.0
 40
0.0
 40
1.0
 40
1.0
 10
2168.394100452773
 20
1643.605609746184
 30
0.0
 10
2169.444661684218
 20
1643.605609746184
 30
0.0
  0
SPLINE
  5
1C3
330
1F
100
AcDbEntity
  8
Trimetric
  6
Continuous
 62
    21
370
    18
100
AcDbSpline
210
0.0
220
0.0
230
1.0
 70
    24
 71
     1
 72
     5
 73
     3
 74
     0
 42
0.000000001
 43
0.0000000001
 40
0.0
 40
0.0
 40
0.3174345991561182
 40
1.0
 40
1.0
 10
2174.343587621813
 20
1618.605625875411
 30
0.0
 10
2172.788499030517
 20
1618.605625875411
 30
0.0
 10
2169.444661684218
 20
1618.605625875411
 30
0.0
  0
SPLINE
  5
1C4
330
1F
100
AcDbEntity
  8
Trimetric
  6
Continuous
 62
    21
370
    18
100
AcDbSpline
210
0.0
220
0.0
230
1.0
 70
    24
 71
     1
 72
     4
 73
     2
 74
     0
 42
0.000000001
 43
0.0000000001
 40
0.0
 40
0.0
 40
1.0
 40
1.0
 10
2170.644216410001
 20
751.60561969009
 30
0.0
 10
2173.144198260619
 20
751.60561969009
 30
0.0
  0
SPLINE
  5
1C5
330
1F
100
AcDbEntity
  8
Trimetric
  6
Continuous
 62
    21
370
    18
100
AcDbSpline
210
0.0
220
0.0
230
1.0
 70
    24
 71
     1
 72
     4
 73
     2
 74
     0
 42
0.000000001
 43
0.0000000001
 40
0.0
 40
0.0
 40
1.0
 40
1.0
 10
2170.644216410001
 20
751.60561969009
 30
0.0
 10
2168.394100452773
 20
751.60561969009
 30
0.0
  0
SPLINE
  5
1C6
330
1F
100
AcDbEntity
  8
Trimetric
  6
Continuous
 62
    21
370
    18
100
AcDbSpline
210
0.0
220
0.0
230
1.0
 70
    24
 71
     1
 72
     4
 73
     2
 74
     0
 42
0.000000001
 43
0.0000000001
 40
0.0
 40
0.0
 40
1.0
 40
1.0
 10
2175.394148853258
 20
751.60561969009
 30
0.0
 10
2173.144198260619
 20
751.60561969009
 30
0.0
  0
SPLINE
  5
1C7
330
1F
100
AcDbEntity
  8
Trimetric
  6
Continuous
 62
    21
370
    18
100
AcDbSpline
210
0.0
220
0.0
230
1.0
 70
     8
 71
     1
 72
    60
 73
    58
 74
     0
 42
0.000000001
 43
0.0000000001
 40
0.0
 40
0.0
 40
0.0297724116390128
 40
0.0598753822369726
 40
0.0749778530301842
 40
0.0902014040905257
 40
0.0977886280820672
 40
0.1055084695247233
 40
0.1131381993053832
 40
0.1170196507842683
 40
0.1208345156745983
 40
0.1515501467319147
 40
0.1824598697235141
 40
0.2134296556010963
 40
0.2445499308931522
 40
0.2759122000999095
 40
0.3074572503776272
 40
0.3392909578320851
 40
0.3714261375937471
 40
0.3734826232701745
 40
0.3754689597550629
 40
0.3775338959512314
 40
0.3795202324361198
 40
0.3835562733830477
 40
0.3875990887988334
 40
0.3956776400657253
 40
0.4037497219595811
 40
0.419876772196531
 40
0.4359939469018589
 40
0.4681866714502294
 40
0.5002837407312347
 40
0.5323112890661758
 40
0.5643630626996947
 40
0.59646137205775
 40
0.6285718471313155
 40
0.6365950874271976
 40
0.644626695113213
 40
0.6486775021129257
 40
0.6526583074821448
 40
0.654653391637787
 40
0.6567183278339554
 40
0.6607084961452401
 40
0.6767490844213734
 40
0.6927520970473145
 40
0.7243792154261712
 40
0.7557414846329285
 40
0.7868617599249843
 40
0.8177634335094181
 40
0.8484502178098052
 40
0.8789427964765238
 40
0.9094188089649717
 40
0.9397435959184781
 40
0.94727520376019
 40
0.9548987359439728
 40
0.9586590858877556
 40
0.9624843703670112
 40
0.9700050702545768
 40
0.9850380326770359
 40
1.0
 40
1.0
 10
2169.444661684218
 20
1636.741325672948
 30
0.0
 10
2169.416053610388
 20
1636.677660306333
 30
0.0
 10
2169.388933817856
 20
1636.61250665842
 30
0.0
 10
2169.375870015355
 20
1636.579599105287
 30
0.0
 10
2169.363302306621
 20
1636.546195458388
 30
0.0
 10
2169.357183816843
 20
1636.529493634938
 30
0.0
 10
2169.351065327064
 20
1636.512461082311
 30
0.0
 10
2169.345112201874
 20
1636.495593894273
 30
0.0
 10
2169.342135639279
 20
1636.486994935665
 30
0.0
 10
2169.339159076685
 20
1636.478561341646
 30
0.0
 10
2169.316834857221
 20
1636.410100401961
 30
0.0
 10
2169.296164283645
 20
1636.340647274745
 30
0.0
 10
2169.277312720544
 20
1636.270532689173
 30
0.0
 10
2169.260280167917
 20
1636.199591280659
 30
0.0
 10
2169.245066625764
 20
1636.127657684614
 30
0.0
 10
2169.231837458676
 20
1636.054897265625
 30
0.0
 10
2169.220427302062
 20
1635.981144659104
 30
0.0
 10
2169.211001520511
 20
1635.906399865053
 30
0.0
 10
2169.210505426744
 20
1635.901604291982
 30
0.0
 10
2169.210009332979
 20
1635.896974083502
 30
0.0
 10
2169.209347874625
 20
1635.892178510432
 30
0.0
 10
2169.208851780859
 20
1635.887548301951
 30
0.0
 10
2169.208024957916
 20
1635.8781225204
 30
0.0
 10
2169.207032770384
 20
1635.868696738849
 30
0.0
 10
2169.20521375991
 20
1635.849845175747
 30
0.0
 10
2169.203560114024
 20
1635.830993612646
 30
0.0
 10
2169.200748916017
 20
1635.793290486443
 30
0.0
 10
2169.198268447187
 20
1635.75558736024
 30
0.0
 10
2169.195126520004
 20
1635.680181107833
 30
0.0
 10
2169.194134332473
 20
1635.604940220015
 30
0.0
 10
2169.195291884593
 20
1635.529864696786
 30
0.0
 10
2169.198433811776
 20
1635.454789173556
 30
0.0
 10
2169.203560114024
 20
1635.379713650327
 30
0.0
 10
2169.211001520511
 20
1635.304803491686
 30
0.0
 10
2169.213151260163
 20
1635.286117293173
 30
0.0
 10
2169.215466364403
 20
1635.267431094661
 30
0.0
 10
2169.216623916524
 20
1635.258005313109
 30
0.0
 10
2169.217781468644
 20
1635.248744896147
 30
0.0
 10
2169.218442926998
 20
1635.244114687666
 30
0.0
 10
2169.219104385353
 20
1635.239319114597
 30
0.0
 10
2169.220427302062
 20
1635.230058697635
 30
0.0
 10
2169.225884333485
 20
1635.192851665197
 30
0.0
 10
2169.231837458676
 20
1635.155809997348
 30
0.0
 10
2169.245231990354
 20
1635.082884213771
 30
0.0
 10
2169.260445532505
 20
1635.010950617725
 30
0.0
 10
2169.277478085132
 20
1634.940009209211
 30
0.0
 10
2169.296329648234
 20
1634.870059988229
 30
0.0
 10
2169.316834857221
 20
1634.801102954778
 30
0.0
 10
2169.338993712095
 20
1634.733138108859
 30
0.0
 10
2169.362971577444
 20
1634.665834721294
 30
0.0
 10
2169.388603088679
 20
1634.599523521261
 30
0.0
 10
2169.395217672223
 20
1634.583152426989
 30
0.0
 10
2169.401997620356
 20
1634.566615968127
 30
0.0
 10
2169.405470276717
 20
1634.558513103286
 30
0.0
 10
2169.408942933078
 20
1634.550244873855
 30
0.0
 10
2169.415888245799
 20
1634.534039144171
 30
0.0
 10
2169.43010960042
 20
1634.501793049392
 30
0.0
 10
2169.444661684218
 20
1634.46987768379
 30
0.0
  0
SPLINE
  5
1C8
330
1F
100
AcDbEntity
  8
Trimetric
  6
Continuous
 62
    21
370
    18
100
AcDbSpline
210
0.0
220
0.0
230
1.0
 70
     8
 71
     1
 72
    59
 73
    57
 74
     0
 42
0.000000001
 43
0.0000000001
 40
0.0
 40
0.0
 40
0.0298648300243558
 40
0.0599669403980505
 40
0.0675637774324211
 40
0.075134701732854
 40
0.0789735093032926
 40
0.0827463002772352
 40
0.0866102975677997
 40
0.0904250534443253
 40
0.1056896187517706
 40
0.1209919451332002
 40
0.1516396466628409
 40
0.1823931696589277
 40
0.2132939601953127
 40
0.2444133461925446
 40
0.2757747191892455
 40
0.3073188680337439
 40
0.3232517860771651
 40
0.3392221310130131
 40
0.3472720717194309
 40
0.3553124271351611
 40
0.3593631183787738
 40
0.3633438099922635
 40
0.3673865098803172
 40
0.3714372011239299
 40
0.4036100680779592
 40
0.4357123423910609
 40
0.4677632001112043
 40
0.4997888234687846
 40
0.531814446826365
 40
0.5638653045465082
 40
0.5959626966613801
 40
0.6280722541441142
 40
0.6361653418555671
 40
0.6441967200298872
 40
0.646182999753107
 40
0.6482478769415367
 40
0.6502341566647565
 40
0.6522291838087562
 40
0.6562890763012436
 40
0.6602791305892428
 40
0.6763192604885785
 40
0.6922521785319998
 40
0.7238657270219484
 40
0.7552961117853318
 40
0.7864840878815981
 40
0.8175211099420465
 40
0.8484299496555768
 40
0.8791666433946804
 40
0.8830254869686593
 40
0.8906549987217108
 40
0.8945363392840091
 40
0.9021896154944991
 40
0.9250242895413705
 40
0.9401263287654851
 40
0.9702284391391799
 40
1.0
 40
1.0
 10
2174.343587621813
 20
1634.46987768379
 30
0.0
 10
2174.372361060232
 20
1634.533708414994
 30
0.0
 10
2174.399480852764
 20
1634.598862062907
 30
0.0
 10
2174.406095436308
 20
1634.615398521768
 30
0.0
 10
2174.412544655265
 20
1634.631934980629
 30
0.0
 10
2174.415686582448
 20
1634.640368574648
 30
0.0
 10
2174.418828509632
 20
1634.648636804078
 30
0.0
 10
2174.422135801404
 20
1634.657070398098
 30
0.0
 10
2174.425112363999
 20
1634.665503992117
 30
0.0
 10
2174.437514708145
 20
1634.699073003605
 30
0.0
 10
2174.449255593936
 20
1634.73297274427
 30
0.0
 10
2174.471579813399
 20
1634.801268319366
 30
0.0
 10
2174.492085022386
 20
1634.870390717406
 30
0.0
 10
2174.510936585488
 20
1634.940339938388
 30
0.0
 10
2174.527969138114
 20
1635.011281346902
 30
0.0
 10
2174.543182680267
 20
1635.083214942948
 30
0.0
 10
2174.556411847356
 20
1635.155975361936
 30
0.0
 10
2174.562364972545
 20
1635.192851665197
 30
0.0
 10
2174.56782200397
 20
1635.229893333045
 30
0.0
 10
2174.570467837387
 20
1635.248579531558
 30
0.0
 10
2174.572948306217
 20
1635.267265730072
 30
0.0
 10
2174.574105858338
 20
1635.276691511623
 30
0.0
 10
2174.575263410457
 20
1635.285951928585
 30
0.0
 10
2174.576255597989
 20
1635.295377710135
 30
0.0
 10
2174.577413150109
 20
1635.304803491686
 30
0.0
 10
2174.584689192008
 20
1635.379879014915
 30
0.0
 10
2174.589980858844
 20
1635.454954538145
 30
0.0
 10
2174.593122786028
 20
1635.530030061374
 30
0.0
 10
2174.594114973559
 20
1635.605105584603
 30
0.0
 10
2174.593122786028
 20
1635.680181107833
 30
0.0
 10
2174.589980858844
 20
1635.755256631062
 30
0.0
 10
2174.584854556597
 20
1635.830332154291
 30
0.0
 10
2174.577413150109
 20
1635.905242312932
 30
0.0
 10
2174.575263410457
 20
1635.924093876034
 30
0.0
 10
2174.572948306217
 20
1635.942780074547
 30
0.0
 10
2174.572452212451
 20
1635.947410283028
 30
0.0
 10
2174.571790754097
 20
1635.952205856098
 30
0.0
 10
2174.571294660331
 20
1635.956836064579
 30
0.0
 10
2174.570633201977
 20
1635.96146627306
 30
0.0
 10
2174.569310285267
 20
1635.970892054611
 30
0.0
 10
2174.567987368559
 20
1635.980152471573
 30
0.0
 10
2174.562530337134
 20
1636.01735950401
 30
0.0
 10
2174.556577211944
 20
1636.05423580727
 30
0.0
 10
2174.543348044855
 20
1636.127161590848
 30
0.0
 10
2174.528134502704
 20
1636.199260551482
 30
0.0
 10
2174.511101950077
 20
1636.270367324585
 30
0.0
 10
2174.492250386975
 20
1636.340647274745
 30
0.0
 10
2174.471579813399
 20
1636.410100401961
 30
0.0
 10
2174.449090229348
 20
1636.478561341646
 30
0.0
 10
2174.446279031341
 20
1636.487160300253
 30
0.0
 10
2174.440325906151
 20
1636.504027488292
 30
0.0
 10
2174.437349343556
 20
1636.5126264469
 30
0.0
 10
2174.431230853778
 20
1636.529493634938
 30
0.0
 10
2174.412379290675
 20
1636.579599105287
 30
0.0
 10
2174.399315488176
 20
1636.61250665842
 30
0.0
 10
2174.372195695644
 20
1636.677660306333
 30
0.0
 10
2174.343587621813
 20
1636.741325672948
 30
0.0
  0
SPLINE
  5
1C9
330
1F
100
AcDbEntity
  8
Trimetric
  6
Continuous
 62
   211
370
    18
100
AcDbSpline
210
0.0
220
0.0
230
1.0
 70
    24
 71
     1
 72
     4
 73
     2
 74
     0
 42
0.000000001
 43
0.0000000001
 40
0.0
 40
0.0
 40
1.0
 40
1.0
 10
2089.44474637066
 20
1663.605629915721
 30
0.0
 10
2088.394185139216
 20
1663.605629915721
 30
0.0
  0
SPLINE
  5
1CA
330
1F
100
AcDbEntity
  8
Trimetric
  6
Continuous
 62
   211
370
    18
100
AcDbSpline
210
0.0
220
0.0
230
1.0
 70
    24
 71
     1
 72
     4
 73
     2
 74
     0
 42
0.000000001
 43
0.0000000001
 40
0.0
 40
0.0
 40
1.0
 40
1.0
 10
2095.394233539701
 20
1663.605629915721
 30
0.0
 10
2094.343672308256
 20
1663.605629915721
 30
0.0
  0
SPLINE
  5
1CB
330
1F
100
AcDbEntity
  8
Trimetric
  6
Continuous
 62
   211
370
    18
100
AcDbSpline
210
0.0
220
0.0
230
1.0
 70
    24
 71
     1
 72
     5
 73
     3
 74
     0
 42
0.000000001
 43
0.0000000001
 40
0.0
 40
0.0
 40
0.3174345991561182
 40
1.0
 40
1.0
 10
2089.44474637066
 20
1688.605613786494
 30
0.0
 10
2090.999834961956
 20
1688.605613786494
 30
0.0
 10
2094.343672308256
 20
1688.605613786494
 30
0.0
  0
SPLINE
  5
1CC
330
1F
100
AcDbEntity
  8
Trimetric
  6
Continuous
 62
   211
370
    18
100
AcDbSpline
210
0.0
220
0.0
230
1.0
 70
    24
 71
     1
 72
     4
 73
     2
 74
     0
 42
0.000000001
 43
0.0000000001
 40
0.0
 40
0.0
 40
1.0
 40
1.0
 10
2093.144117582473
 20
2256.105627991609
 30
0.0
 10
2090.644135731855
 20
2256.105627991609
 30
0.0
  0
SPLINE
  5
1CD
330
1F
100
AcDbEntity
  8
Trimetric
  6
Continuous
 62
   211
370
    18
100
AcDbSpline
210
0.0
220
0.0
230
1.0
 70
    24
 71
     1
 72
     4
 73
     2
 74
     0
 42
0.000000001
 43
0.0000000001
 40
0.0
 40
0.0
 40
1.0
 40
1.0
 10
2093.144117582473
 20
2256.105627991609
 30
0.0
 10
2095.394233539701
 20
2256.105627991609
 30
0.0
  0
SPLINE
  5
1CE
330
1F
100
AcDbEntity
  8
Trimetric
  6
Continuous
 62
   211
370
    18
100
AcDbSpline
210
0.0
220
0.0
230
1.0
 70
    24
 71
     1
 72
     4
 73
     2
 74
     0
 42
0.000000001
 43
0.0000000001
 40
0.0
 40
0.0
 40
1.0
 40
1.0
 10
2088.394185139216
 20
2256.105627991609
 30
0.0
 10
2090.644135731855
 20
2256.105627991609
 30
0.0
  0
SPLINE
  5
1CF
330
1F
100
AcDbEntity
  8
Trimetric
  6
Continuous
 62
   211
370
    18
100
AcDbSpline
210
0.0
220
0.0
230
1.0
 70
     8
 71
     1
 72
    60
 73
    58
 74
     0
 42
0.000000001
 43
0.0000000001
 40
0.0
 40
0.0
 40
0.0297723910414838
 40
0.059875340813223
 40
0.0749778011580508
 40
0.0902013416862414
 40
0.0977885604286929
 40
0.10550839653051
 40
0.113138121032673
 40
0.1170195698262429
 40
0.1208344320773244
 40
0.1515500418845618
 40
0.1824597434918029
 40
0.2134295079434733
 40
0.244549761705504
 40
0.2758430023160868
 40
0.3074574323505667
 40
0.3392911177814237
 40
0.3714262753109163
 40
0.3734126104215921
 40
0.3754690946752754
 40
0.3774641774506531
 40
0.3795206617043363
 40
0.3835566998589989
 40
0.3875995124778326
 40
0.3956780581557183
 40
0.4037501344650435
 40
0.4198771735447722
 40
0.4359943370997108
 40
0.4681870393761006
 40
0.5002840864513027
 40
0.5323116126285373
 40
0.5643633640875898
 40
0.5964616512389838
 40
0.6285721040974716
 40
0.6365953388426133
 40
0.6446269409720995
 40
0.6486777451693313
 40
0.6526585477844989
 40
0.6546536305598766
 40
0.6567185653274547
 40
0.6607087308782102
 40
0.6767493080569395
 40
0.6927523096114724
 40
0.7243794061096533
 40
0.755741653618966
 40
0.7868619073809966
 40
0.8177635595866409
 40
0.8484503226569058
 40
0.8789428802278603
 40
0.9094188716320051
 40
0.9397436376058308
 40
0.9472752402369302
 40
0.9548987671465038
 40
0.9624194618310028
 40
0.9662447436638016
 40
0.9700050910060507
 40
0.9850380430282148
 40
1.0
 40
1.0
 10
2094.343672308256
 20
1670.469913988956
 30
0.0
 10
2094.372280382086
 20
1670.533579355571
 30
0.0
 10
2094.399400174618
 20
1670.598733003483
 30
0.0
 10
2094.412463977118
 20
1670.631640556617
 30
0.0
 10
2094.425031685853
 20
1670.665044203517
 30
0.0
 10
2094.431150175631
 20
1670.681746026967
 30
0.0
 10
2094.43726866541
 20
1670.698778579593
 30
0.0
 10
2094.443221790599
 20
1670.715645767632
 30
0.0
 10
2094.446198353195
 20
1670.72424472624
 30
0.0
 10
2094.44917491579
 20
1670.732678320259
 30
0.0
 10
2094.471499135252
 20
1670.801139259943
 30
0.0
 10
2094.492169708829
 20
1670.870592387161
 30
0.0
 10
2094.51102127193
 20
1670.940706972731
 30
0.0
 10
2094.528053824557
 20
1671.011648381245
 30
0.0
 10
2094.543267366709
 20
1671.083416612702
 30
0.0
 10
2094.556496533798
 20
1671.15634239628
 30
0.0
 10
2094.567906690413
 20
1671.2300950028
 30
0.0
 10
2094.577332471963
 20
1671.304839796852
 30
0.0
 10
2094.577828565729
 20
1671.309470005333
 30
0.0
 10
2094.578324659495
 20
1671.314265578403
 30
0.0
 10
2094.578986117849
 20
1671.318895786884
 30
0.0
 10
2094.579482211615
 20
1671.323691359954
 30
0.0
 10
2094.580309034558
 20
1671.333117141505
 30
0.0
 10
2094.58130122209
 20
1671.342542923055
 30
0.0
 10
2094.583120232565
 20
1671.361394486157
 30
0.0
 10
2094.58477387845
 20
1671.380246049259
 30
0.0
 10
2094.587585076457
 20
1671.417949175462
 30
0.0
 10
2094.590065545286
 20
1671.455652301665
 30
0.0
 10
2094.59320747247
 20
1671.531058554072
 30
0.0
 10
2094.594199660001
 20
1671.60629944189
 30
0.0
 10
2094.593042107881
 20
1671.681374965119
 30
0.0
 10
2094.589900180698
 20
1671.756450488348
 30
0.0
 10
2094.58477387845
 20
1671.831526011578
 30
0.0
 10
2094.577332471963
 20
1671.906436170218
 30
0.0
 10
2094.575182732311
 20
1671.925122368731
 30
0.0
 10
2094.572867628071
 20
1671.943808567245
 30
0.0
 10
2094.571710075951
 20
1671.953234348795
 30
0.0
 10
2094.57055252383
 20
1671.962494765757
 30
0.0
 10
2094.569891065475
 20
1671.967124974239
 30
0.0
 10
2094.569229607121
 20
1671.971920547308
 30
0.0
 10
2094.567906690413
 20
1671.981180964271
 30
0.0
 10
2094.562449658988
 20
1672.018387996708
 30
0.0
 10
2094.556496533798
 20
1672.055429664557
 30
0.0
 10
2094.543102002121
 20
1672.128355448134
 30
0.0
 10
2094.527888459968
 20
1672.20028904418
 30
0.0
 10
2094.510855907341
 20
1672.271230452694
 30
0.0
 10
2094.49200434424
 20
1672.341179673676
 30
0.0
 10
2094.471499135252
 20
1672.410136707127
 30
0.0
 10
2094.449340280378
 20
1672.478101553046
 30
0.0
 10
2094.42536241503
 20
1672.545404940611
 30
0.0
 10
2094.399730903795
 20
1672.611716140644
 30
0.0
 10
2094.393116320251
 20
1672.628087234916
 30
0.0
 10
2094.386336372117
 20
1672.644623693777
 30
0.0
 10
2094.379391059396
 20
1672.660829423461
 30
0.0
 10
2094.375918403036
 20
1672.669097652892
 30
0.0
 10
2094.372445746675
 20
1672.677200517733
 30
0.0
 10
2094.358224392054
 20
1672.709446612513
 30
0.0
 10
2094.343672308256
 20
1672.741361978114
 30
0.0
  0
SPLINE
  5
1D0
330
1F
100
AcDbEntity
  8
Trimetric
  6
Continuous
 62
   211
370
    18
100
AcDbSpline
210
0.0
220
0.0
230
1.0
 70
     8
 71
     1
 72
    57
 73
    55
 74
     0
 42
0.000000001
 43
0.0000000001
 40
0.0
 40
0.0
 40
0.029864826416615
 40
0.0599669331539049
 40
0.0675637692705599
 40
0.0752004497775423
 40
0.0827460308139038
 40
0.0866100276376884
 40
0.0904247830533827
 40
0.105689346516833
 40
0.1209916710497061
 40
0.1516393688770333
 40
0.1823928881580231
 40
0.213293674961521
 40
0.2444130571994587
 40
0.2757744264076329
 40
0.3073185714415249
 40
0.3232514875602127
 40
0.3392218305668059
 40
0.3472717703007722
 40
0.3553121247452088
 40
0.3593628154994886
 40
0.3633435066321015
 40
0.3673862060317877
 40
0.3714368967860676
 40
0.4036097598535398
 40
0.4357120302886123
 40
0.4677628841369377
 40
0.4997885036257483
 40
0.5318141231145589
 40
0.5638649769628841
 40
0.5959623652003165
 40
0.6280719188041416
 40
0.644188015592026
 40
0.6462528925310137
 40
0.6482479194340095
 40
0.6502341989172822
 40
0.6522292258202781
 40
0.6562891178223209
 40
0.6602791716283124
 40
0.6763192995899631
 40
0.6922522157086508
 40
0.7238657603796094
 40
0.7552961413461296
 40
0.7864841136748158
 40
0.8175211319859199
 40
0.8484299679655906
 40
0.8791666579916304
 40
0.883025501099452
 40
0.8906550119308406
 40
0.894536352024264
 40
0.9021896273102207
 40
0.9250242985986105
 40
0.9401263359983635
 40
0.9702284427356534
 40
1.0
 40
1.0
 10
2089.44474637066
 20
1672.741361978114
 30
0.0
 10
2089.415972932243
 20
1672.677531246911
 30
0.0
 10
2089.38885313971
 20
1672.612377598998
 30
0.0
 10
2089.382238556165
 20
1672.595841140137
 30
0.0
 10
2089.375789337209
 20
1672.579139316687
 30
0.0
 10
2089.369505482842
 20
1672.562602857826
 30
0.0
 10
2089.36619819107
 20
1672.554169263807
 30
0.0
 10
2089.363221628476
 20
1672.545735669788
 30
0.0
 10
2089.350819284329
 20
1672.5121666583
 30
0.0
 10
2089.339078398538
 20
1672.478266917635
 30
0.0
 10
2089.316754179075
 20
1672.409971342538
 30
0.0
 10
2089.296248970088
 20
1672.340848944499
 30
0.0
 10
2089.277397406986
 20
1672.270899723516
 30
0.0
 10
2089.260364854359
 20
1672.199958315002
 30
0.0
 10
2089.245151312207
 20
1672.128024718957
 30
0.0
 10
2089.231922145118
 20
1672.055264299968
 30
0.0
 10
2089.225969019928
 20
1672.018387996708
 30
0.0
 10
2089.220511988504
 20
1671.981346328859
 30
0.0
 10
2089.217866155086
 20
1671.962660130346
 30
0.0
 10
2089.215385686257
 20
1671.943973931833
 30
0.0
 10
2089.214228134137
 20
1671.934548150282
 30
0.0
 10
2089.213070582017
 20
1671.92528773332
 30
0.0
 10
2089.212078394485
 20
1671.915861951769
 30
0.0
 10
2089.210920842365
 20
1671.906436170218
 30
0.0
 10
2089.203644800466
 20
1671.831360646989
 30
0.0
 10
2089.19835313363
 20
1671.75628512376
 30
0.0
 10
2089.195211206447
 20
1671.68120960053
 30
0.0
 10
2089.194219018915
 20
1671.606134077301
 30
0.0
 10
2089.195211206447
 20
1671.531058554072
 30
0.0
 10
2089.19835313363
 20
1671.455983030843
 30
0.0
 10
2089.203479435877
 20
1671.380907507613
 30
0.0
 10
2089.210920842365
 20
1671.305997348972
 30
0.0
 10
2089.215220321668
 20
1671.268459587358
 30
0.0
 10
2089.215881780023
 20
1671.263664014288
 30
0.0
 10
2089.216543238377
 20
1671.259033805807
 30
0.0
 10
2089.217039332143
 20
1671.254403597326
 30
0.0
 10
2089.217700790498
 20
1671.249773388845
 30
0.0
 10
2089.219023707206
 20
1671.240347607294
 30
0.0
 10
2089.220346623915
 20
1671.231087190332
 30
0.0
 10
2089.225803655339
 20
1671.193880157894
 30
0.0
 10
2089.231756780529
 20
1671.157003854634
 30
0.0
 10
2089.244985947618
 20
1671.084078071057
 30
0.0
 10
2089.260199489771
 20
1671.011979110422
 30
0.0
 10
2089.277232042397
 20
1670.94087233732
 30
0.0
 10
2089.2960836055
 20
1670.870592387161
 30
0.0
 10
2089.316754179075
 20
1670.801139259943
 30
0.0
 10
2089.339243763126
 20
1670.732678320259
 30
0.0
 10
2089.342054961133
 20
1670.724079361651
 30
0.0
 10
2089.348008086323
 20
1670.707212173612
 30
0.0
 10
2089.350984648918
 20
1670.698613215005
 30
0.0
 10
2089.357103138697
 20
1670.681746026967
 30
0.0
 10
2089.375954701798
 20
1670.631640556617
 30
0.0
 10
2089.389018504299
 20
1670.598733003483
 30
0.0
 10
2089.416138296831
 20
1670.533579355571
 30
0.0
 10
2089.44474637066
 20
1670.469913988956
 30
0.0
  0
SPLINE
  5
1D1
330
1F
100
AcDbEntity
  8
Trimetric
  6
Continuous
 62
   211
370
    18
100
AcDbSpline
210
0.0
220
0.0
230
1.0
 70
    24
 71
     1
 72
     4
 73
     2
 74
     0
 42
0.000000001
 43
0.0000000001
 40
0.0
 40
0.0
 40
1.0
 40
1.0
 10
2169.444661684218
 20
1663.605629915721
 30
0.0
 10
2168.394100452773
 20
1663.605629915721
 30
0.0
  0
SPLINE
  5
1D2
330
1F
100
AcDbEntity
  8
Trimetric
  6
Continuous
 62
   211
370
    18
100
AcDbSpline
210
0.0
220
0.0
230
1.0
 70
    24
 71
     1
 72
     4
 73
     2
 74
     0
 42
0.000000001
 43
0.0000000001
 40
0.0
 40
0.0
 40
1.0
 40
1.0
 10
2175.394148853258
 20
1663.605629915721
 30
0.0
 10
2174.343587621813
 20
1663.605629915721
 30
0.0
  0
SPLINE
  5
1D3
330
1F
100
AcDbEntity
  8
Trimetric
  6
Continuous
 62
   211
370
    18
100
AcDbSpline
210
0.0
220
0.0
230
1.0
 70
    24
 71
     1
 72
     5
 73
     3
 74
     0
 42
0.000000001
 43
0.0000000001
 40
0.0
 40
0.0
 40
0.3174345991561182
 40
1.0
 40
1.0
 10
2169.444661684218
 20
1688.605613786494
 30
0.0
 10
2170.999750275514
 20
1688.605613786494
 30
0.0
 10
2174.343587621813
 20
1688.605613786494
 30
0.0
  0
SPLINE
  5
1D4
330
1F
100
AcDbEntity
  8
Trimetric
  6
Continuous
 62
   211
370
    18
100
AcDbSpline
210
0.0
220
0.0
230
1.0
 70
    24
 71
     1
 72
     4
 73
     2
 74
     0
 42
0.000000001
 43
0.0000000001
 40
0.0
 40
0.0
 40
1.0
 40
1.0
 10
2173.144198260619
 20
2654.605678469874
 30
0.0
 10
2170.644216410001
 20
2654.605678469874
 30
0.0
  0
SPLINE
  5
1D5
330
1F
100
AcDbEntity
  8
Trimetric
  6
Continuous
 62
   211
370
    18
100
AcDbSpline
210
0.0
220
0.0
230
1.0
 70
    24
 71
     1
 72
     4
 73
     2
 74
     0
 42
0.000000001
 43
0.0000000001
 40
0.0
 40
0.0
 40
1.0
 40
1.0
 10
2173.144198260619
 20
2654.605678469874
 30
0.0
 10
2175.394148853258
 20
2654.605678469874
 30
0.0
  0
SPLINE
  5
1D6
330
1F
100
AcDbEntity
  8
Trimetric
  6
Continuous
 62
   211
370
    18
100
AcDbSpline
210
0.0
220
0.0
230
1.0
 70
    24
 71
     1
 72
     4
 73
     2
 74
     0
 42
0.000000001
 43
0.0000000001
 40
0.0
 40
0.0
 40
1.0
 40
1.0
 10
2168.394100452773
 20
2654.605678469874
 30
0.0
 10
2170.644216410001
 20
2654.605678469874
 30
0.0
  0
SPLINE
  5
1D7
330
1F
100
AcDbEntity
  8
Trimetric
  6
Continuous
 62
   211
370
    18
100
AcDbSpline
210
0.0
220
0.0
230
1.0
 70
     8
 71
     1
 72
    59
 73
    57
 74
     0
 42
0.000000001
 43
0.0000000001
 40
0.0
 40
0.0
 40
0.0297716466829009
 40
0.0598738438315471
 40
0.0749759265901084
 40
0.0978106664621897
 40
0.1055303095554489
 40
0.1131598433019917
 40
0.1170411950529788
 40
0.1208330698480336
 40
0.1515698521913939
 40
0.1824787810054235
 40
0.2134295319170692
 40
0.2445490076217394
 40
0.275841465850007
 40
0.3074677716189282
 40
0.3393006611554634
 40
0.3714350152533376
 40
0.3734213007023794
 40
0.3754777335405851
 40
0.3774640189896268
 40
0.3795204518278325
 40
0.3876058749116139
 40
0.4037496238999833
 40
0.4198816577629377
 40
0.4359939416344174
 40
0.4681858390404758
 40
0.5002820836368831
 40
0.5323077993143003
 40
0.564358749427023
 40
0.596461116280922
 40
0.6285638705801859
 40
0.6365869047313061
 40
0.6446183060575727
 40
0.6486782102534581
 40
0.6526589133420342
 40
0.6546539462370721
 40
0.6567188293778958
 40
0.6587051148269376
 40
0.6607001477219754
 40
0.6767507112206293
 40
0.6927533126738891
 40
0.7243796184428102
 40
0.755741081844522
 40
0.7868605575491922
 40
0.8177431576917097
 40
0.8484291535425924
 40
0.8789428865572062
 40
0.9093945167081876
 40
0.9397440263434123
 40
0.9472754406720993
 40
0.9548987769810024
 40
0.958659030308404
 40
0.9623920615269051
 40
0.9662172477213871
 40
0.9700058409279476
 40
0.9850384171016667
 40
1.0
 40
1.0
 10
2174.343587621813
 20
1670.469913988956
 30
0.0
 10
2174.372195695644
 20
1670.533579355571
 30
0.0
 10
2174.399315488176
 20
1670.598733003483
 30
0.0
 10
2174.412379290675
 20
1670.631640556617
 30
0.0
 10
2174.431230853778
 20
1670.681746026967
 30
0.0
 10
2174.437349343556
 20
1670.698778579593
 30
0.0
 10
2174.443302468746
 20
1670.715645767632
 30
0.0
 10
2174.446279031341
 20
1670.72424472624
 30
0.0
 10
2174.449090229348
 20
1670.732678320259
 30
0.0
 10
2174.471579813399
 20
1670.801139259943
 30
0.0
 10
2174.492250386975
 20
1670.870592387161
 30
0.0
 10
2174.510936585488
 20
1670.940706972731
 30
0.0
 10
2174.527969138114
 20
1671.011648381245
 30
0.0
 10
2174.543182680267
 20
1671.083416612702
 30
0.0
 10
2174.556577211944
 20
1671.15634239628
 30
0.0
 10
2174.567987368559
 20
1671.2300950028
 30
0.0
 10
2174.577413150109
 20
1671.304839796852
 30
0.0
 10
2174.577909243875
 20
1671.309470005333
 30
0.0
 10
2174.578405337642
 20
1671.314265578403
 30
0.0
 10
2174.578901431407
 20
1671.318895786884
 30
0.0
 10
2174.579397525173
 20
1671.323691359954
 30
0.0
 10
2174.581381900236
 20
1671.342542923055
 30
0.0
 10
2174.584689192008
 20
1671.380246049259
 30
0.0
 10
2174.587665754603
 20
1671.417949175462
 30
0.0
 10
2174.589980858844
 20
1671.455652301665
 30
0.0
 10
2174.593122786028
 20
1671.531058554072
 30
0.0
 10
2174.594114973559
 20
1671.60629944189
 30
0.0
 10
2174.593122786028
 20
1671.681374965119
 30
0.0
 10
2174.589980858844
 20
1671.756450488348
 30
0.0
 10
2174.584689192008
 20
1671.831526011578
 30
0.0
 10
2174.577413150109
 20
1671.906436170218
 30
0.0
 10
2174.575263410457
 20
1671.925122368731
 30
0.0
 10
2174.572948306217
 20
1671.943808567245
 30
0.0
 10
2174.571625389508
 20
1671.953234348795
 30
0.0
 10
2174.570467837387
 20
1671.962494765757
 30
0.0
 10
2174.569806379033
 20
1671.967124974239
 30
0.0
 10
2174.569144920679
 20
1671.971920547308
 30
0.0
 10
2174.568648826913
 20
1671.976550755789
 30
0.0
 10
2174.567987368559
 20
1671.981180964271
 30
0.0
 10
2174.562364972545
 20
1672.018387996708
 30
0.0
 10
2174.556411847356
 20
1672.055429664557
 30
0.0
 10
2174.543017315679
 20
1672.128355448134
 30
0.0
 10
2174.527803773526
 20
1672.20028904418
 30
0.0
 10
2174.510771220899
 20
1672.271230452694
 30
0.0
 10
2174.492085022386
 20
1672.341179673676
 30
0.0
 10
2174.471579813399
 20
1672.410136707127
 30
0.0
 10
2174.449255593936
 20
1672.478101553046
 30
0.0
 10
2174.425443093176
 20
1672.545404940611
 30
0.0
 10
2174.399646217353
 20
1672.611716140644
 30
0.0
 10
2174.393031633809
 20
1672.628087234916
 30
0.0
 10
2174.386251685675
 20
1672.644623693777
 30
0.0
 10
2174.382779029315
 20
1672.652726558619
 30
0.0
 10
2174.379471737542
 20
1672.660829423461
 30
0.0
 10
2174.375999081181
 20
1672.669097652892
 30
0.0
 10
2174.372361060232
 20
1672.677200517733
 30
0.0
 10
2174.358139705612
 20
1672.709446612513
 30
0.0
 10
2174.343587621813
 20
1672.741361978114
 30
0.0
  0
SPLINE
  5
1D8
330
1F
100
AcDbEntity
  8
Trimetric
  6
Continuous
 62
   211
370
    18
100
AcDbSpline
210
0.0
220
0.0
230
1.0
 70
     8
 71
     1
 72
    57
 73
    55
 74
     0
 42
0.000000001
 43
0.0000000001
 40
0.0
 40
0.0
 40
0.0298369514281894
 40
0.0599401097482836
 40
0.0675372112517535
 40
0.0751741585374692
 40
0.0789727092892042
 40
0.0827456316055234
 40
0.0904235140276325
 40
0.1056643088307999
 40
0.120967167932947
 40
0.1516159364026818
 40
0.1823906651827583
 40
0.2132742514152066
 40
0.2443947207733094
 40
0.2757571855551877
 40
0.307315126955528
 40
0.3232485996724885
 40
0.3392195005848201
 40
0.3553007712349379
 40
0.3593516034954845
 40
0.3633324336890071
 40
0.3673832659495536
 40
0.3714261065763375
 40
0.4036069744869402
 40
0.4357054840100629
 40
0.4677574575184529
 40
0.4997852055771957
 40
0.5318119438445374
 40
0.5638639173529271
 40
0.595967309244244
 40
0.6280710885932967
 40
0.6361644580498507
 40
0.6441961158209743
 40
0.6462610648940856
 40
0.6482474137657692
 40
0.6522376069597446
 40
0.6562884392202911
 40
0.6602786324142665
 40
0.6763193207195135
 40
0.6922527934364739
 40
0.7238801090420512
 40
0.7553115879931226
 40
0.7865006498380906
 40
0.8175387523920697
 40
0.8484486681367119
 40
0.8791644907367137
 40
0.8830459664203313
 40
0.8906757437799889
 40
0.8945572194636065
 40
0.9022107621080159
 40
0.9097980334134888
 40
0.9250216794078998
 40
0.9401242443801242
 40
0.9702274027002184
 40
1.0
 40
1.0
 10
2169.444661684218
 20
1672.741361978114
 30
0.0
 10
2169.416053610388
 20
1672.677531246911
 30
0.0
 10
2169.388933817856
 20
1672.612377598998
 30
0.0
 10
2169.382319234312
 20
1672.595841140137
 30
0.0
 10
2169.375870015355
 20
1672.579139316687
 30
0.0
 10
2169.372562723584
 20
1672.570871087257
 30
0.0
 10
2169.3694207964
 20
1672.562602857826
 30
0.0
 10
2169.363136942033
 20
1672.545735669788
 30
0.0
 10
2169.350899962475
 20
1672.5121666583
 30
0.0
 10
2169.339159076685
 20
1672.478266917635
 30
0.0
 10
2169.316834857221
 20
1672.409971342538
 30
0.0
 10
2169.296164283645
 20
1672.340848944499
 30
0.0
 10
2169.277478085132
 20
1672.270899723516
 30
0.0
 10
2169.260445532505
 20
1672.199958315002
 30
0.0
 10
2169.245231990354
 20
1672.128024718957
 30
0.0
 10
2169.231837458676
 20
1672.055264299968
 30
0.0
 10
2169.225884333485
 20
1672.018387996708
 30
0.0
 10
2169.220427302062
 20
1671.981346328859
 30
0.0
 10
2169.215466364403
 20
1671.943973931833
 30
0.0
 10
2169.214308812283
 20
1671.934548150282
 30
0.0
 10
2169.213151260163
 20
1671.92528773332
 30
0.0
 10
2169.211993708042
 20
1671.915861951769
 30
0.0
 10
2169.211001520511
 20
1671.906436170218
 30
0.0
 10
2169.203560114024
 20
1671.831360646989
 30
0.0
 10
2169.198433811776
 20
1671.75628512376
 30
0.0
 10
2169.195291884593
 20
1671.68120960053
 30
0.0
 10
2169.194134332473
 20
1671.606134077301
 30
0.0
 10
2169.195126520004
 20
1671.531058554072
 30
0.0
 10
2169.198268447187
 20
1671.455983030843
 30
0.0
 10
2169.203560114024
 20
1671.380907507613
 30
0.0
 10
2169.210836155922
 20
1671.305997348972
 30
0.0
 10
2169.212985895574
 20
1671.287145785871
 30
0.0
 10
2169.215300999815
 20
1671.268459587358
 30
0.0
 10
2169.215962458169
 20
1671.263664014288
 30
0.0
 10
2169.216458551935
 20
1671.259033805807
 30
0.0
 10
2169.217781468644
 20
1671.249773388845
 30
0.0
 10
2169.218939020764
 20
1671.240347607294
 30
0.0
 10
2169.220261937473
 20
1671.231087190332
 30
0.0
 10
2169.225718968898
 20
1671.193880157894
 30
0.0
 10
2169.231672094087
 20
1671.157003854634
 30
0.0
 10
2169.245066625764
 20
1671.084078071057
 30
0.0
 10
2169.260280167917
 20
1671.011979110422
 30
0.0
 10
2169.277312720544
 20
1670.94087233732
 30
0.0
 10
2169.296164283645
 20
1670.870592387161
 30
0.0
 10
2169.316834857221
 20
1670.801139259943
 30
0.0
 10
2169.339159076685
 20
1670.732678320259
 30
0.0
 10
2169.342135639279
 20
1670.724079361651
 30
0.0
 10
2169.348088764469
 20
1670.707212173612
 30
0.0
 10
2169.351065327064
 20
1670.698613215005
 30
0.0
 10
2169.357183816843
 20
1670.681746026967
 30
0.0
 10
2169.363302306621
 20
1670.665044203517
 30
0.0
 10
2169.375870015355
 20
1670.631640556617
 30
0.0
 10
2169.388933817856
 20
1670.598733003483
 30
0.0
 10
2169.416053610388
 20
1670.533579355571
 30
0.0
 10
2169.444661684218
 20
1670.469913988956
 30
0.0
  0
SPLINE
  5
1D9
330
1F
100
AcDbEntity
  8
Trimetric
  6
Continuous
 62
    21
370
    18
100
AcDbSpline
210
0.0
220
0.0
230
1.0
 70
    24
 71
     1
 72
     4
 73
     2
 74
     0
 42
0.000000001
 43
0.0000000001
 40
0.0
 40
0.0
 40
1.0
 40
1.0
 10
851.3817342024998
 20
1618.605625875411
 30
0.0
 10
852.3817765521236
 20
1618.605625875411
 30
0.0
  0
SPLINE
  5
1DA
330
1F
100
AcDbEntity
  8
Trimetric
  6
Continuous
 62
    21
370
    18
100
AcDbSpline
210
0.0
220
0.0
230
1.0
 70
    24
 71
     1
 72
     5
 73
     3
 74
     0
 42
0.000000001
 43
0.0000000001
 40
0.0
 40
0.0
 40
0.683473343034793
 40
1.0
 40
1.0
 10
852.3817765521236
 20
1643.605609746184
 30
0.0
 10
855.7991184580602
 20
1643.605609746184
 30
0.0
 10
857.3817402533604
 20
1643.605609746184
 30
0.0
  0
SPLINE
  5
1DB
330
1F
100
AcDbEntity
  8
Trimetric
  6
Continuous
 62
    21
370
    18
100
AcDbSpline
210
0.0
220
0.0
230
1.0
 70
     8
 71
     1
 72
    61
 73
    59
 74
     0
 42
0.000000001
 43
0.0000000001
 40
0.0
 40
0.0
 40
0.0296036801102713
 40
0.0596338144068716
 40
0.0747249176545007
 40
0.0899853937494934
 40
0.0975900491761889
 40
0.1053259177442155
 40
0.1129713352182933
 40
0.1168599410352073
 40
0.1206826497722462
 40
0.1515168764910888
 40
0.1825470426062615
 40
0.2136356624500756
 40
0.2448687533563225
 40
0.2763085005719783
 40
0.3079110817617707
 40
0.3397501456369594
 40
0.371855465825878
 40
0.3739071798667057
 40
0.3758938404518118
 40
0.3779455544926395
 40
0.3799275533726467
 40
0.3839656884205121
 40
0.3960544099322778
 40
0.4041059019123895
 40
0.4201881923742887
 40
0.4362471515761678
 40
0.4683168781449382
 40
0.5002799912050254
 40
0.5321728747677936
 40
0.5641023023551738
 40
0.5961052901703471
 40
0.6281406156152995
 40
0.6361519491289053
 40
0.6441731296827541
 40
0.6482263554866323
 40
0.6522047952192157
 40
0.6541967258814512
 40
0.656258035831006
 40
0.6582558401278701
 40
0.6602477707901057
 40
0.6762872100860444
 40
0.6923014458827334
 40
0.7239800594643837
 40
0.7554198066800394
 40
0.7866528975862864
 40
0.8176641578554713
 40
0.8484831206444487
 40
0.8790952653950123
 40
0.9096357702323293
 40
0.9399739418367504
 40
0.9475138520481092
 40
0.955118588568207
 40
0.9588630617015292
 40
0.96267219520613
 40
0.9664306412227528
 40
0.9701751143560752
 40
0.9851446051605705
 40
1.0
 40
1.0
 10
857.3817402533604
 20
1636.741325672948
 30
0.0
 10
857.3533802264135
 20
1636.677660306333
 30
0.0
 10
857.3259297047044
 20
1636.61250665842
 30
0.0
 10
857.3125351730267
 20
1636.579599105287
 30
0.0
 10
857.2993060059379
 20
1636.546195458388
 30
0.0
 10
857.2928567869819
 20
1636.529493634938
 30
0.0
 10
857.2864075680264
 20
1636.512461082311
 30
0.0
 10
857.2801237136593
 20
1636.495593894273
 30
0.0
 10
857.2769817864756
 20
1636.486994935665
 30
0.0
 10
857.2738398592919
 20
1636.478561341646
 30
0.0
 10
857.2496966293547
 20
1636.410100401961
 30
0.0
 10
857.2270416807151
 20
1636.340647274745
 30
0.0
 10
857.2060403779616
 20
1636.270532689173
 30
0.0
 10
857.186692721094
 20
1636.199591280659
 30
0.0
 10
857.1692467569956
 20
1636.127657684614
 30
0.0
 10
857.153702485666
 20
1636.054897265625
 30
0.0
 10
857.1403079539887
 20
1635.981144659104
 30
0.0
 10
857.1290631619632
 20
1635.906399865053
 30
0.0
 10
857.1284843859027
 20
1635.901604291982
 30
0.0
 10
857.1278229275483
 20
1635.896974083502
 30
0.0
 10
857.1272441514883
 20
1635.892178510432
 30
0.0
 10
857.1266653754282
 20
1635.887548301951
 30
0.0
 10
857.1254251410136
 20
1635.8781225204
 30
0.0
 10
857.1222005315357
 20
1635.849845175747
 30
0.0
 10
857.1202161564723
 20
1635.830993612646
 30
0.0
 10
857.1167435001116
 20
1635.793290486443
 30
0.0
 10
857.1139323021052
 20
1635.75558736024
 30
0.0
 10
857.1101289165671
 20
1635.680181107833
 30
0.0
 10
857.1088886821527
 20
1635.604940220015
 30
0.0
 10
857.1101289165671
 20
1635.529864696786
 30
0.0
 10
857.1139323021052
 20
1635.454789173556
 30
0.0
 10
857.1202988387668
 20
1635.379713650327
 30
0.0
 10
857.1290631619632
 20
1635.304803491686
 30
0.0
 10
857.1316263130864
 20
1635.286117293173
 30
0.0
 10
857.1343548287986
 20
1635.267431094661
 30
0.0
 10
857.1358431100959
 20
1635.258005313109
 30
0.0
 10
857.1372487090993
 20
1635.248744896147
 30
0.0
 10
857.1379928497478
 20
1635.244114687666
 30
0.0
 10
857.1387369903968
 20
1635.239319114597
 30
0.0
 10
857.1395638133401
 20
1635.234688906115
 30
0.0
 10
857.1403079539887
 20
1635.230058697635
 30
0.0
 10
857.1467571729444
 20
1635.192851665197
 30
0.0
 10
857.1537851679604
 20
1635.155809997348
 30
0.0
 10
857.1694121215839
 20
1635.082884213771
 30
0.0
 10
857.1868580856827
 20
1635.010950617725
 30
0.0
 10
857.2062057425501
 20
1634.940009209211
 30
0.0
 10
857.2271243630092
 20
1634.870059988229
 30
0.0
 10
857.2496966293547
 20
1634.801102954778
 30
0.0
 10
857.2736744947032
 20
1634.733138108859
 30
0.0
 10
857.2989752767607
 20
1634.665834721294
 30
0.0
 10
857.3255162932326
 20
1634.599523521261
 30
0.0
 10
857.3323789236599
 20
1634.583152426989
 30
0.0
 10
857.3392415540878
 20
1634.566615968127
 30
0.0
 10
857.3427142104483
 20
1634.558513103286
 30
0.0
 10
857.3461868668092
 20
1634.550244873855
 30
0.0
 10
857.3497422054643
 20
1634.542142009013
 30
0.0
 10
857.3532148618252
 20
1634.534039144171
 30
0.0
 10
857.3674362164457
 20
1634.501793049392
 30
0.0
 10
857.3817402533604
 20
1634.46987768379
 30
0.0
  0
SPLINE
  5
1DC
330
1F
100
AcDbEntity
  8
Trimetric
  6
Continuous
 62
    21
370
    18
100
AcDbSpline
210
0.0
220
0.0
230
1.0
 70
    24
 71
     1
 72
     4
 73
     2
 74
     0
 42
0.000000001
 43
0.0000000001
 40
0.0
 40
0.0
 40
1.0
 40
1.0
 10
858.3817826029843
 20
1618.605625875411
 30
0.0
 10
857.3817402533604
 20
1618.605625875411
 30
0.0
  0
SPLINE
  5
1DD
330
1F
100
AcDbEntity
  8
Trimetric
  6
Continuous
 62
    21
370
    18
100
AcDbSpline
210
0.0
220
0.0
230
1.0
 70
    24
 71
     1
 72
     4
 73
     2
 74
     0
 42
0.000000001
 43
0.0000000001
 40
0.0
 40
0.0
 40
1.0
 40
1.0
 10
858.1509336372835
 20
1150.105587486061
 30
0.0
 10
858.3817826029843
 20
1150.105587486061
 30
0.0
  0
SPLINE
  5
1DE
330
1F
100
AcDbEntity
  8
Trimetric
  6
Continuous
 62
    21
370
    18
100
AcDbSpline
210
0.0
220
0.0
230
1.0
 70
    24
 71
     1
 72
     6
 73
     4
 74
     0
 42
0.000000001
 43
0.0000000001
 40
0.0
 40
0.0
 40
0.1456789498975695
 40
0.6278231619413744
 40
1.0
 40
1.0
 10
858.1509336372835
 20
1150.105587486061
 30
0.0
 10
857.1984336068853
 20
1150.105587486061
 30
0.0
 10
854.0460057719027
 20
1150.105587486061
 30
0.0
 10
851.6125831682003
 20
1150.105587486061
 30
0.0
  0
SPLINE
  5
1DF
330
1F
100
AcDbEntity
  8
Trimetric
  6
Continuous
 62
    21
370
    18
100
AcDbSpline
210
0.0
220
0.0
230
1.0
 70
    24
 71
     1
 72
     4
 73
     2
 74
     0
 42
0.000000001
 43
0.0000000001
 40
0.0
 40
0.0
 40
1.0
 40
1.0
 10
858.1509336372835
 20
751.60561969009
 30
0.0
 10
858.3817826029843
 20
751.60561969009
 30
0.0
  0
SPLINE
  5
1E0
330
1F
100
AcDbEntity
  8
Trimetric
  6
Continuous
 62
    21
370
    18
100
AcDbSpline
210
0.0
220
0.0
230
1.0
 70
    24
 71
     1
 72
     6
 73
     4
 74
     0
 42
0.000000001
 43
0.0000000001
 40
0.0
 40
0.0
 40
0.1456789498975695
 40
0.6278231619413744
 40
1.0
 40
1.0
 10
858.1509336372835
 20
751.60561969009
 30
0.0
 10
857.1984336068853
 20
751.60561969009
 30
0.0
 10
854.0460057719027
 20
751.60561969009
 30
0.0
 10
851.6125831682003
 20
751.60561969009
 30
0.0
  0
SPLINE
  5
1E1
330
1F
100
AcDbEntity
  8
Trimetric
  6
Continuous
 62
   211
370
    18
100
AcDbSpline
210
0.0
220
0.0
230
1.0
 70
    24
 71
     1
 72
     4
 73
     2
 74
     0
 42
0.000000001
 43
0.0000000001
 40
0.0
 40
0.0
 40
1.0
 40
1.0
 10
852.3817765521236
 20
1688.605613786494
 30
0.0
 10
851.3817342024998
 20
1688.605613786494
 30
0.0
  0
SPLINE
  5
1E2
330
1F
100
AcDbEntity
  8
Trimetric
  6
Continuous
 62
   211
370
    18
100
AcDbSpline
210
0.0
220
0.0
230
1.0
 70
    24
 71
     1
 72
     4
 73
     2
 74
     0
 42
0.000000001
 43
0.0000000001
 40
0.0
 40
0.0
 40
1.0
 40
1.0
 10
857.3817402533604
 20
1688.605613786494
 30
0.0
 10
858.3817826029843
 20
1688.605613786494
 30
0.0
  0
SPLINE
  5
1E3
330
1F
100
AcDbEntity
  8
Trimetric
  6
Continuous
 62
   211
370
    18
100
AcDbSpline
210
0.0
220
0.0
230
1.0
 70
     8
 71
     1
 72
    56
 73
    54
 74
     0
 42
0.000000001
 43
0.0000000001
 40
0.0
 40
0.0
 40
0.0296679285532182
 40
0.0597117904253451
 40
0.0673031536176678
 40
0.0749464118543024
 40
0.0825114087204364
 40
0.0902070134205555
 40
0.1054693457064879
 40
0.1208260580368257
 40
0.1515824417142517
 40
0.1824682424473774
 40
0.2134896601339452
 40
0.2447228284062824
 40
0.2761626534999275
 40
0.307765312971058
 40
0.3237105856845205
 40
0.3396808619371567
 40
0.3477179613781081
 40
0.3557496110788194
 40
0.3597975182227569
 40
0.363770849235105
 40
0.3718566022514068
 40
0.4039617714652123
 40
0.4359648385535529
 40
0.4678943452318877
 40
0.4997873077950892
 40
0.5316802703582903
 40
0.5636080193936368
 40
0.5956081380618747
 40
0.6276435428600965
 40
0.6357292958763983
 40
0.643750496299154
 40
0.645806719091449
 40
0.6497905902841645
 40
0.6517772557903385
 40
0.6558304916342809
 40
0.6598200862271839
 40
0.6758595652536991
 40
0.6918048379671617
 40
0.7234688873405727
 40
0.7549852552575473
 40
0.7862861932562603
 40
0.8174522557271973
 40
0.8484824987058045
 40
0.8793168018027285
 40
0.8832054172519338
 40
0.8908508536641328
 40
0.894739469113338
 40
0.9024097090878724
 40
0.910014383351719
 40
0.9252748972477533
 40
0.9403660378768782
 40
0.970396246559779
 40
1.0
 40
1.0
 10
857.3817402533604
 20
1672.741361978114
 30
0.0
 10
857.3533802264135
 20
1672.677531246911
 30
0.0
 10
857.32584702241
 20
1672.612377598998
 30
0.0
 10
857.3190670742768
 20
1672.595841140137
 30
0.0
 10
857.3123698084385
 20
1672.579139316687
 30
0.0
 10
857.3057552248938
 20
1672.562602857826
 30
0.0
 10
857.2991406413491
 20
1672.545735669788
 30
0.0
 10
857.2863248857318
 20
1672.5121666583
 30
0.0
 10
857.2737571769977
 20
1672.478266917635
 30
0.0
 10
857.2496966293547
 20
1672.409971342538
 30
0.0
 10
857.2271243630092
 20
1672.340848944499
 30
0.0
 10
857.2061230602555
 20
1672.270899723516
 30
0.0
 10
857.1867754033883
 20
1672.199958315002
 30
0.0
 10
857.1693294392899
 20
1672.128024718957
 30
0.0
 10
857.1537851679604
 20
1672.055264299968
 30
0.0
 10
857.1467571729444
 20
1672.018387996708
 30
0.0
 10
857.1403079539887
 20
1671.981346328859
 30
0.0
 10
857.1373313913936
 20
1671.962660130346
 30
0.0
 10
857.1344375110927
 20
1671.943973931833
 30
0.0
 10
857.1330319120896
 20
1671.934548150282
 30
0.0
 10
857.1317089953806
 20
1671.92528773332
 30
0.0
 10
857.1290631619632
 20
1671.906436170218
 30
0.0
 10
857.1202988387668
 20
1671.831360646989
 30
0.0
 10
857.1139323021052
 20
1671.75628512376
 30
0.0
 10
857.1101289165671
 20
1671.68120960053
 30
0.0
 10
857.1088886821527
 20
1671.606134077301
 30
0.0
 10
857.1101289165671
 20
1671.531058554072
 30
0.0
 10
857.1138496198107
 20
1671.455983030843
 30
0.0
 10
857.1201334741781
 20
1671.380907507613
 30
0.0
 10
857.1288977973743
 20
1671.305997348972
 30
0.0
 10
857.1315436307925
 20
1671.287145785871
 30
0.0
 10
857.1342721465043
 20
1671.268459587358
 30
0.0
 10
857.1349336048587
 20
1671.263664014288
 30
0.0
 10
857.1364218861562
 20
1671.254403597326
 30
0.0
 10
857.1370833445108
 20
1671.249773388845
 30
0.0
 10
857.1385716258083
 20
1671.240347607294
 30
0.0
 10
857.1401425894
 20
1671.231087190332
 30
0.0
 10
857.1465918083559
 20
1671.193880157894
 30
0.0
 10
857.1536198033721
 20
1671.157003854634
 30
0.0
 10
857.1690813924067
 20
1671.084078071057
 30
0.0
 10
857.1866100387996
 20
1671.011979110422
 30
0.0
 10
857.2059576956673
 20
1670.94087233732
 30
0.0
 10
857.2270416807151
 20
1670.870592387161
 30
0.0
 10
857.2496966293547
 20
1670.801139259943
 30
0.0
 10
857.2738398592919
 20
1670.732678320259
 30
0.0
 10
857.2769817864756
 20
1670.724079361651
 30
0.0
 10
857.2832656408428
 20
1670.707212173612
 30
0.0
 10
857.2864075680264
 20
1670.698613215005
 30
0.0
 10
857.2928567869819
 20
1670.681746026967
 30
0.0
 10
857.2993060059379
 20
1670.665044203517
 30
0.0
 10
857.3125351730267
 20
1670.631640556617
 30
0.0
 10
857.3259297047044
 20
1670.598733003483
 30
0.0
 10
857.3533802264135
 20
1670.533579355571
 30
0.0
 10
857.3817402533604
 20
1670.469913988956
 30
0.0
  0
SPLINE
  5
1E4
330
1F
100
AcDbEntity
  8
Trimetric
  6
Continuous
 62
   211
370
    18
100
AcDbSpline
210
0.0
220
0.0
230
1.0
 70
    24
 71
     1
 72
     4
 73
     2
 74
     0
 42
0.000000001
 43
0.0000000001
 40
0.0
 40
0.0
 40
1.0
 40
1.0
 10
858.3817826029843
 20
2256.105627991609
 30
0.0
 10
858.1509336372835
 20
2256.105627991609
 30
0.0
  0
SPLINE
  5
1E5
330
1F
100
AcDbEntity
  8
Trimetric
  6
Continuous
 62
   211
370
    18
100
AcDbSpline
210
0.0
220
0.0
230
1.0
 70
    24
 71
     1
 72
     6
 73
     4
 74
     0
 42
0.000000001
 43
0.0000000001
 40
0.0
 40
0.0
 40
0.1456789498975695
 40
0.6278231619413744
 40
1.0
 40
1.0
 10
851.6125831682003
 20
2256.105627991609
 30
0.0
 10
852.5650831985982
 20
2256.105627991609
 30
0.0
 10
855.7175110335812
 20
2256.105627991609
 30
0.0
 10
858.1509336372835
 20
2256.105627991609
 30
0.0
  0
SPLINE
  5
1E6
330
1F
100
AcDbEntity
  8
Trimetric
  6
Continuous
 62
   211
370
    18
100
AcDbSpline
210
0.0
220
0.0
230
1.0
 70
    24
 71
     1
 72
     5
 73
     3
 74
     0
 42
0.000000001
 43
0.0000000001
 40
0.0
 40
0.0
 40
0.683473343034793
 40
1.0
 40
1.0
 10
857.3817402533604
 20
1663.605629915721
 30
0.0
 10
853.9643983474235
 20
1663.605629915721
 30
0.0
 10
852.3817765521236
 20
1663.605629915721
 30
0.0
  0
SPLINE
  5
1E7
330
1F
100
AcDbEntity
  8
Trimetric
  6
Continuous
 62
   223
370
    18
100
AcDbSpline
210
0.0
220
0.0
230
1.0
 70
    24
 71
     1
 72
     5
 73
     3
 74
     0
 42
0.000000001
 43
0.0000000001
 40
0.0
 40
0.0
 40
0.1339984566199978
 40
1.0
 40
1.0
 10
847.7815817438532
 20
1645.705574656953
 30
0.0
 10
847.7815817438532
 20
1646.107575971866
 30
0.0
 10
847.7815817438532
 20
1648.705619023531
 30
0.0
  0
SPLINE
  5
1E8
330
1F
100
AcDbEntity
  8
Trimetric
  6
Continuous
 62
   223
370
    18
100
AcDbSpline
210
0.0
220
0.0
230
1.0
 70
    24
 71
     1
 72
     5
 73
     3
 74
     0
 42
0.000000001
 43
0.0000000001
 40
0.0
 40
0.0
 40
0.5
 40
1.0
 40
1.0
 10
847.7815817438532
 20
1658.505620638375
 30
0.0
 10
847.7815817438532
 20
1660.005642821663
 30
0.0
 10
847.7815817438532
 20
1661.505665004952
 30
0.0
  0
SPLINE
  5
1E9
330
1F
100
AcDbEntity
  8
Trimetric
  6
Continuous
 62
   211
370
    18
100
AcDbSpline
210
0.0
220
0.0
230
1.0
 70
    24
 71
     1
 72
     4
 73
     2
 74
     0
 42
0.000000001
 43
0.0000000001
 40
0.0
 40
0.0
 40
1.0
 40
1.0
 10
858.3817826029843
 20
2654.605678469874
 30
0.0
 10
858.1509336372835
 20
2654.605678469874
 30
0.0
  0
SPLINE
  5
1EA
330
1F
100
AcDbEntity
  8
Trimetric
  6
Continuous
 62
   211
370
    18
100
AcDbSpline
210
0.0
220
0.0
230
1.0
 70
    24
 71
     1
 72
     6
 73
     4
 74
     0
 42
0.000000001
 43
0.0000000001
 40
0.0
 40
0.0
 40
0.1456789498975695
 40
0.6278231619413744
 40
1.0
 40
1.0
 10
851.6125831682003
 20
2654.605678469874
 30
0.0
 10
852.5650831985982
 20
2654.605678469874
 30
0.0
 10
855.7175110335812
 20
2654.605678469874
 30
0.0
 10
858.1509336372835
 20
2654.605678469874
 30
0.0
  0
SPLINE
  5
1EB
330
1F
100
AcDbEntity
  8
Trimetric
  6
Continuous
 62
    21
370
    18
100
AcDbSpline
210
0.0
220
0.0
230
1.0
 70
    24
 71
     1
 72
     5
 73
     3
 74
     0
 42
0.000000001
 43
0.0000000001
 40
0.0
 40
0.0
 40
0.3165101203862945
 40
1.0
 40
1.0
 10
3414.533023034922
 20
1643.605609746184
 30
0.0
 10
3416.115562147927
 20
1643.605609746184
 30
0.0
 10
3419.532986736158
 20
1643.605609746184
 30
0.0
  0
SPLINE
  5
1EC
330
1F
100
AcDbEntity
  8
Trimetric
  6
Continuous
 62
    21
370
    18
100
AcDbSpline
210
0.0
220
0.0
230
1.0
 70
    24
 71
     1
 72
     4
 73
     2
 74
     0
 42
0.000000001
 43
0.0000000001
 40
0.0
 40
0.0
 40
1.0
 40
1.0
 10
3419.532986736158
 20
1618.605625875411
 30
0.0
 10
3420.533111768076
 20
1618.605625875411
 30
0.0
  0
SPLINE
  5
1ED
330
1F
100
AcDbEntity
  8
Trimetric
  6
Continuous
 62
    21
370
    18
100
AcDbSpline
210
0.0
220
0.0
230
1.0
 70
    24
 71
     1
 72
     4
 73
     2
 74
     0
 42
0.000000001
 43
0.0000000001
 40
0.0
 40
0.0
 40
1.0
 40
1.0
 10
3414.533023034922
 20
1618.605625875411
 30
0.0
 10
3413.532898003003
 20
1618.605625875411
 30
0.0
  0
SPLINE
  5
1EE
330
1F
100
AcDbEntity
  8
Trimetric
  6
Continuous
 62
    21
370
    18
100
AcDbSpline
210
0.0
220
0.0
230
1.0
 70
     8
 71
     1
 72
    58
 73
    56
 74
     0
 42
0.000000001
 43
0.0000000001
 40
0.0
 40
0.0
 40
0.029682407786563
 40
0.0597128211537478
 40
0.0672778695824927
 40
0.0748962073883884
 40
0.0787440359648614
 40
0.0825265601792339
 40
0.0863743887557069
 40
0.0901731819665115
 40
0.1054481795422484
 40
0.1208049965431099
 40
0.1515732773985601
 40
0.1824484046947475
 40
0.2134903045404764
 40
0.244705277961255
 40
0.2761536134749694
 40
0.3077564883481239
 40
0.3236953321747757
 40
0.3396779150747425
 40
0.3557522235175186
 40
0.3597951275816979
 40
0.3637684856760561
 40
0.3718542938044148
 40
0.4039516131857515
 40
0.4359639732713366
 40
0.4678902208057126
 40
0.4997840001751614
 40
0.5316777795446102
 40
0.5636040270789862
 40
0.5956043638583085
 40
0.6276482251677827
 40
0.6357340332961413
 40
0.6437502894060266
 40
0.6457369684532058
 40
0.6477932052606045
 40
0.6497798843077836
 40
0.6517912435440745
 40
0.655834147608254
 40
0.6598297933332456
 40
0.6758575350939764
 40
0.6917963789206282
 40
0.7234679468777954
 40
0.7549845296086354
 40
0.7863041955627841
 40
0.8174403591524505
 40
0.8484926674380714
 40
0.879327180699944
 40
0.8831922799760498
 40
0.8870401085525227
 40
0.8908389017633274
 40
0.8947522056500224
 40
0.9023976941731039
 40
0.9252886210394159
 40
0.9403535245477636
 40
0.9704387598499922
 40
1.0
 40
1.0
 10
3414.533023034922
 20
1634.46987768379
 30
0.0
 10
3414.561465744162
 20
1634.533708414994
 30
0.0
 10
3414.588916265871
 20
1634.598862062907
 30
0.0
 10
3414.595530849416
 20
1634.615398521768
 30
0.0
 10
3414.602476162138
 20
1634.631934980629
 30
0.0
 10
3414.60578345391
 20
1634.640368574648
 30
0.0
 10
3414.609090745682
 20
1634.648636804078
 30
0.0
 10
3414.612398037454
 20
1634.657070398098
 30
0.0
 10
3414.615374600049
 20
1634.665503992117
 30
0.0
 10
3414.628273037961
 20
1634.699073003605
 30
0.0
 10
3414.640840746695
 20
1634.73297274427
 30
0.0
 10
3414.664983976633
 20
1634.801268319366
 30
0.0
 10
3414.687473560684
 20
1634.870390717406
 30
0.0
 10
3414.708640228026
 20
1634.940339938388
 30
0.0
 10
3414.727822520305
 20
1635.011281346902
 30
0.0
 10
3414.745351166697
 20
1635.083214942948
 30
0.0
 10
3414.760895438027
 20
1635.155975361936
 30
0.0
 10
3414.767840750748
 20
1635.192851665197
 30
0.0
 10
3414.774455334293
 20
1635.229893333045
 30
0.0
 10
3414.780408459483
 20
1635.267265730072
 30
0.0
 10
3414.781731376192
 20
1635.276691511623
 30
0.0
 10
3414.783054292901
 20
1635.285951928585
 30
0.0
 10
3414.785700126318
 20
1635.304803491686
 30
0.0
 10
3414.794299084926
 20
1635.379879014915
 30
0.0
 10
3414.800913668471
 20
1635.454954538145
 30
0.0
 10
3414.804551689421
 20
1635.530030061374
 30
0.0
 10
3414.80587460613
 20
1635.605105584603
 30
0.0
 10
3414.804551689421
 20
1635.680181107833
 30
0.0
 10
3414.800913668471
 20
1635.755256631062
 30
0.0
 10
3414.794629814103
 20
1635.830332154291
 30
0.0
 10
3414.785700126318
 20
1635.905242312932
 30
0.0
 10
3414.783054292901
 20
1635.924093876034
 30
0.0
 10
3414.780408459483
 20
1635.942780074547
 30
0.0
 10
3414.779747001129
 20
1635.947410283028
 30
0.0
 10
3414.779085542774
 20
1635.952205856098
 30
0.0
 10
3414.778424084419
 20
1635.956836064579
 30
0.0
 10
3414.777431896887
 20
1635.96146627306
 30
0.0
 10
3414.776108980179
 20
1635.970892054611
 30
0.0
 10
3414.774455334293
 20
1635.980152471573
 30
0.0
 10
3414.768171479926
 20
1636.01735950401
 30
0.0
 10
3414.761226167204
 20
1636.05423580727
 30
0.0
 10
3414.745681895875
 20
1636.127161590848
 30
0.0
 10
3414.728153249482
 20
1636.199260551482
 30
0.0
 10
3414.708640228026
 20
1636.270367324585
 30
0.0
 10
3414.687804289861
 20
1636.340647274745
 30
0.0
 10
3414.664983976633
 20
1636.410100401961
 30
0.0
 10
3414.640840746695
 20
1636.478561341646
 30
0.0
 10
3414.6378641841
 20
1636.487160300253
 30
0.0
 10
3414.634556892328
 20
1636.495593894273
 30
0.0
 10
3414.631580329734
 20
1636.504027488292
 30
0.0
 10
3414.628273037961
 20
1636.5126264469
 30
0.0
 10
3414.621989183594
 20
1636.529493634938
 30
0.0
 10
3414.602145432961
 20
1636.579599105287
 30
0.0
 10
3414.588916265871
 20
1636.61250665842
 30
0.0
 10
3414.561135014985
 20
1636.677660306333
 30
0.0
 10
3414.533023034922
 20
1636.741325672948
 30
0.0
  0
SPLINE
  5
1EF
330
1F
100
AcDbEntity
  8
Trimetric
  6
Continuous
 62
    21
370
    18
100
AcDbSpline
210
0.0
220
0.0
230
1.0
 70
    24
 71
     1
 72
     4
 73
     2
 74
     0
 42
0.000000001
 43
0.0000000001
 40
0.0
 40
0.0
 40
1.0
 40
1.0
 10
3413.532898003003
 20
751.60561969009
 30
0.0
 10
3413.763746968703
 20
751.60561969009
 30
0.0
  0
SPLINE
  5
1F0
330
1F
100
AcDbEntity
  8
Trimetric
  6
Continuous
 62
    21
370
    18
100
AcDbSpline
210
0.0
220
0.0
230
1.0
 70
    24
 71
     1
 72
     6
 73
     4
 74
     0
 42
0.000000001
 43
0.0000000001
 40
0.0
 40
0.0
 40
0.1456752655538695
 40
0.6278199291856348
 40
1.0
 40
1.0
 10
3420.302262802375
 20
751.60561969009
 30
0.0
 10
3419.349762771977
 20
751.60561969009
 30
0.0
 10
3416.197252254701
 20
751.60561969009
 30
0.0
 10
3413.763746968703
 20
751.60561969009
 30
0.0
  0
SPLINE
  5
1F1
330
1F
100
AcDbEntity
  8
Trimetric
  6
Continuous
 62
   223
370
    18
100
AcDbSpline
210
0.0
220
0.0
230
1.0
 70
    24
 71
     1
 72
     5
 73
     3
 74
     0
 42
0.000000001
 43
0.0000000001
 40
0.0
 40
0.0
 40
0.1339984566199978
 40
1.0
 40
1.0
 10
3424.133098862134
 20
1661.505665004952
 30
0.0
 10
3424.133098862134
 20
1661.103663690038
 30
0.0
 10
3424.133098862134
 20
1658.505620638375
 30
0.0
  0
SPLINE
  5
1F2
330
1F
100
AcDbEntity
  8
Trimetric
  6
Continuous
 62
   223
370
    18
100
AcDbSpline
210
0.0
220
0.0
230
1.0
 70
    24
 71
     1
 72
     5
 73
     3
 74
     0
 42
0.000000001
 43
0.0000000001
 40
0.0
 40
0.0
 40
0.5
 40
1.0
 40
1.0
 10
3424.133098862134
 20
1648.705619023531
 30
0.0
 10
3424.133098862134
 20
1647.205596840242
 30
0.0
 10
3424.133098862134
 20
1645.705574656953
 30
0.0
  0
SPLINE
  5
1F3
330
1F
100
AcDbEntity
  8
Trimetric
  6
Continuous
 62
   211
370
    18
100
AcDbSpline
210
0.0
220
0.0
230
1.0
 70
    24
 71
     1
 72
     4
 73
     2
 74
     0
 42
0.000000001
 43
0.0000000001
 40
0.0
 40
0.0
 40
1.0
 40
1.0
 10
3420.533111768076
 20
1688.605613786494
 30
0.0
 10
3419.532986736158
 20
1688.605613786494
 30
0.0
  0
SPLINE
  5
1F4
330
1F
100
AcDbEntity
  8
Trimetric
  6
Continuous
 62
   211
370
    18
100
AcDbSpline
210
0.0
220
0.0
230
1.0
 70
    24
 71
     1
 72
     5
 73
     3
 74
     0
 42
0.000000001
 43
0.0000000001
 40
0.0
 40
0.0
 40
0.3165101203862945
 40
1.0
 40
1.0
 10
3419.532986736158
 20
1663.605629915721
 30
0.0
 10
3417.950447623152
 20
1663.605629915721
 30
0.0
 10
3414.533023034922
 20
1663.605629915721
 30
0.0
  0
SPLINE
  5
1F5
330
1F
100
AcDbEntity
  8
Trimetric
  6
Continuous
 62
   211
370
    18
100
AcDbSpline
210
0.0
220
0.0
230
1.0
 70
     8
 71
     1
 72
    58
 73
    56
 74
     0
 42
0.000000001
 43
0.0000000001
 40
0.0
 40
0.0
 40
0.0295610963397382
 40
0.0596461852825524
 40
0.0747110155027759
 40
0.0976018310087273
 40
0.1053131413824423
 40
0.1091609512399014
 40
0.1129597259702406
 40
0.1168730108193957
 40
0.1515061488070866
 40
0.1825583060286519
 40
0.2136269823840076
 40
0.2448787662638305
 40
0.2762256770128422
 40
0.3078970908933636
 40
0.3397489218937792
 40
0.3718543842497965
 40
0.3738410536321291
 40
0.3758972804362949
 40
0.37786899350015
 40
0.3799252203043159
 40
0.3839681047004731
 40
0.3879938685171267
 40
0.3960613119052246
 40
0.4041128395385318
 40
0.4201889112218755
 40
0.436253316891576
 40
0.4683197239247879
 40
0.5002835766278472
 40
0.5321772008396307
 40
0.5641104006904546
 40
0.5961105817937283
 40
0.6281379628998165
 40
0.6441703971242158
 40
0.6482351877370584
 40
0.6541951958840561
 40
0.6562752776254877
 40
0.6602486163901529
 40
0.6763002718589856
 40
0.6923080692125489
 40
0.7239794830930703
 40
0.7554276656161258
 40
0.7866424871815112
 40
0.8176842360138197
 40
0.8484924277882349
 40
0.8790814111655691
 40
0.9096468377436186
 40
0.9399721110853976
 40
0.9475257013566924
 40
0.9551440021007051
 40
0.9588613838258561
 40
0.9626340946138876
 40
0.9664166004269404
 40
0.9701893112149718
 40
0.9851588683065831
 40
1.0
 40
1.0
 10
3414.533023034922
 20
1670.469913988956
 30
0.0
 10
3414.561135014985
 20
1670.533579355571
 30
0.0
 10
3414.588916265871
 20
1670.598733003483
 30
0.0
 10
3414.602145432961
 20
1670.631640556617
 30
0.0
 10
3414.621989183594
 20
1670.681746026967
 30
0.0
 10
3414.628273037961
 20
1670.698778579593
 30
0.0
 10
3414.631580329734
 20
1670.707212173612
 30
0.0
 10
3414.634556892328
 20
1670.715645767632
 30
0.0
 10
3414.6378641841
 20
1670.72424472624
 30
0.0
 10
3414.664983976633
 20
1670.801139259943
 30
0.0
 10
3414.687804289861
 20
1670.870592387161
 30
0.0
 10
3414.708640228026
 20
1670.940706972731
 30
0.0
 10
3414.728153249482
 20
1671.011648381245
 30
0.0
 10
3414.745351166697
 20
1671.083416612702
 30
0.0
 10
3414.760895438027
 20
1671.15634239628
 30
0.0
 10
3414.774455334293
 20
1671.2300950028
 30
0.0
 10
3414.785700126318
 20
1671.304839796852
 30
0.0
 10
3414.786361584673
 20
1671.309470005333
 30
0.0
 10
3414.787023043027
 20
1671.314265578403
 30
0.0
 10
3414.787353772204
 20
1671.318895786884
 30
0.0
 10
3414.78801523056
 20
1671.323691359954
 30
0.0
 10
3414.789338147267
 20
1671.333117141505
 30
0.0
 10
3414.790330334799
 20
1671.342542923055
 30
0.0
 10
3414.79264543904
 20
1671.361394486157
 30
0.0
 10
3414.794629814103
 20
1671.380246049259
 30
0.0
 10
3414.797937105876
 20
1671.417949175462
 30
0.0
 10
3414.800913668471
 20
1671.455652301665
 30
0.0
 10
3414.804551689421
 20
1671.531058554072
 30
0.0
 10
3414.80587460613
 20
1671.60629944189
 30
0.0
 10
3414.804551689421
 20
1671.681374965119
 30
0.0
 10
3414.800582939294
 20
1671.756450488348
 30
0.0
 10
3414.794299084926
 20
1671.831526011578
 30
0.0
 10
3414.785700126318
 20
1671.906436170218
 30
0.0
 10
3414.780408459483
 20
1671.943808567245
 30
0.0
 10
3414.778754813597
 20
1671.953234348795
 30
0.0
 10
3414.776770438533
 20
1671.967124974239
 30
0.0
 10
3414.775778251002
 20
1671.971920547308
 30
0.0
 10
3414.774455334293
 20
1671.981180964271
 30
0.0
 10
3414.767840750748
 20
1672.018387996708
 30
0.0
 10
3414.760895438027
 20
1672.055429664557
 30
0.0
 10
3414.745351166697
 20
1672.128355448134
 30
0.0
 10
3414.727822520305
 20
1672.20028904418
 30
0.0
 10
3414.708640228026
 20
1672.271230452694
 30
0.0
 10
3414.687473560684
 20
1672.341179673676
 30
0.0
 10
3414.664983976633
 20
1672.410136707127
 30
0.0
 10
3414.641171475873
 20
1672.478101553046
 30
0.0
 10
3414.615705329227
 20
1672.545404940611
 30
0.0
 10
3414.589246995048
 20
1672.611716140644
 30
0.0
 10
3414.582301682327
 20
1672.628087234916
 30
0.0
 10
3414.575356369605
 20
1672.644623693777
 30
0.0
 10
3414.572049077833
 20
1672.652726558619
 30
0.0
 10
3414.568411056884
 20
1672.660829423461
 30
0.0
 10
3414.565103765112
 20
1672.669097652892
 30
0.0
 10
3414.561465744162
 20
1672.677200517733
 30
0.0
 10
3414.547244389542
 20
1672.709446612513
 30
0.0
 10
3414.533023034922
 20
1672.741361978114
 30
0.0
  0
SPLINE
  5
1F6
330
1F
100
AcDbEntity
  8
Trimetric
  6
Continuous
 62
   211
370
    18
100
AcDbSpline
210
0.0
220
0.0
230
1.0
 70
    24
 71
     1
 72
     4
 73
     2
 74
     0
 42
0.000000001
 43
0.0000000001
 40
0.0
 40
0.0
 40
1.0
 40
1.0
 10
3413.532898003003
 20
1688.605613786494
 30
0.0
 10
3414.533023034922
 20
1688.605613786494
 30
0.0
  0
SPLINE
  5
1F7
330
1F
100
AcDbEntity
  8
Trimetric
  6
Continuous
 62
   211
370
    18
100
AcDbSpline
210
0.0
220
0.0
230
1.0
 70
    24
 71
     1
 72
     4
 73
     2
 74
     0
 42
0.000000001
 43
0.0000000001
 40
0.0
 40
0.0
 40
1.0
 40
1.0
 10
3413.763746968703
 20
2654.605678469874
 30
0.0
 10
3413.532898003003
 20
2654.605678469874
 30
0.0
  0
SPLINE
  5
1F8
330
1F
100
AcDbEntity
  8
Trimetric
  6
Continuous
 62
   211
370
    18
100
AcDbSpline
210
0.0
220
0.0
230
1.0
 70
    24
 71
     1
 72
     6
 73
     4
 74
     0
 42
0.000000001
 43
0.0000000001
 40
0.0
 40
0.0
 40
0.1456752655538695
 40
0.6278199291856348
 40
1.0
 40
1.0
 10
3413.763746968703
 20
2654.605678469874
 30
0.0
 10
3414.716246999102
 20
2654.605678469874
 30
0.0
 10
3417.868757516379
 20
2654.605678469874
 30
0.0
 10
3420.302262802375
 20
2654.605678469874
 30
0.0
  0
SPLINE
  5
1F9
330
1F
100
AcDbEntity
  8
Trimetric
  6
Continuous
 62
   211
370
    18
100
AcDbSpline
210
0.0
220
0.0
230
1.0
 70
    24
 71
     1
 72
     6
 73
     4
 74
     0
 42
0.000000001
 43
0.0000000001
 40
0.0
 40
0.0
 40
0.3826859985183617
 40
0.9238543761244576
 40
1.0
 40
1.0
 10
2090.644135731855
 20
3101.894401078113
 30
0.0
 10
2090.644135731855
 20
3104.286234487779
 30
0.0
 10
2090.644135731855
 20
3107.668601783226
 30
0.0
 10
2090.644135731855
 20
3108.144521069247
 30
0.0
  0
SPLINE
  5
1FA
330
1F
100
AcDbEntity
  8
Trimetric
  6
Continuous
 62
   211
370
    18
100
AcDbSpline
210
0.0
220
0.0
230
1.0
 70
    24
 71
     1
 72
     5
 73
     3
 74
     0
 42
0.000000001
 43
0.0000000001
 40
0.0
 40
0.0
 40
0.2928881363107207
 40
1.0
 40
1.0
 10
2093.144117582473
 20
3108.144521069247
 30
0.0
 10
2093.144117582473
 20
3106.313935073325
 30
0.0
 10
2093.144117582473
 20
3101.894401078113
 30
0.0
  0
SPLINE
  5
1FB
330
1F
100
AcDbEntity
  8
Trimetric
  6
Continuous
 62
   223
370
    18
100
AcDbSpline
210
0.0
220
0.0
230
1.0
 70
    24
 71
     1
 72
     5
 73
     3
 74
     0
 42
0.000000001
 43
0.0000000001
 40
0.0
 40
0.0
 40
0.5
 40
1.0
 40
1.0
 10
2191.394164988888
 20
3105.725567867048
 30
0.0
 10
2192.894187172177
 20
3105.725567867048
 30
0.0
 10
2194.394209355466
 20
3105.725567867048
 30
0.0
  0
SPLINE
  5
1FC
330
1F
100
AcDbEntity
  8
Trimetric
  6
Continuous
 62
   223
370
    18
100
AcDbSpline
210
0.0
220
0.0
230
1.0
 70
    24
 71
     1
 72
     5
 73
     3
 74
     0
 42
0.000000001
 43
0.0000000001
 40
0.0
 40
0.0
 40
0.1339507193649744
 40
1.0
 40
1.0
 10
2149.394205315155
 20
3105.725567867048
 30
0.0
 10
2149.79604126548
 20
3105.725567867048
 30
0.0
 10
2152.394084317144
 20
3105.725567867048
 30
0.0
  0
SPLINE
  5
1FD
330
1F
100
AcDbEntity
  8
Trimetric
  6
Continuous
 62
   223
370
    18
100
AcDbSpline
210
0.0
220
0.0
230
1.0
 70
    24
 71
     1
 72
     5
 73
     3
 74
     0
 42
0.000000001
 43
0.0000000001
 40
0.0
 40
0.0
 40
0.1339984566199978
 40
1.0
 40
1.0
 10
2069.394124637009
 20
3105.725567867048
 30
0.0
 10
2069.796125951921
 20
3105.725567867048
 30
0.0
 10
2072.394169003587
 20
3105.725567867048
 30
0.0
  0
SPLINE
  5
1FE
330
1F
100
AcDbEntity
  8
Trimetric
  6
Continuous
 62
   223
370
    18
100
AcDbSpline
210
0.0
220
0.0
230
1.0
 70
    24
 71
     1
 72
     5
 73
     3
 74
     0
 42
0.000000001
 43
0.0000000001
 40
0.0
 40
0.0
 40
0.5
 40
1.0
 40
1.0
 10
2111.394084310741
 20
3105.725567867048
 30
0.0
 10
2112.89410649403
 20
3105.725567867048
 30
0.0
 10
2114.394128677319
 20
3105.725567867048
 30
0.0
  0
SPLINE
  5
1FF
330
1F
100
AcDbEntity
  8
Trimetric
  6
Continuous
 62
   211
370
    18
100
AcDbSpline
210
0.0
220
0.0
230
1.0
 70
    24
 71
     1
 72
     5
 73
     3
 74
     0
 42
0.000000001
 43
0.0000000001
 40
0.0
 40
0.0
 40
0.2928881363107207
 40
1.0
 40
1.0
 10
2173.144198260619
 20
3108.144521069247
 30
0.0
 10
2173.144198260619
 20
3106.313935073325
 30
0.0
 10
2173.144198260619
 20
3101.894401078113
 30
0.0
  0
SPLINE
  5
200
330
1F
100
AcDbEntity
  8
Trimetric
  6
Continuous
 62
   211
370
    18
100
AcDbSpline
210
0.0
220
0.0
230
1.0
 70
    24
 71
     1
 72
     6
 73
     4
 74
     0
 42
0.000000001
 43
0.0000000001
 40
0.0
 40
0.0
 40
0.3826859985183617
 40
0.9238543761244576
 40
1.0
 40
1.0
 10
2170.644216410001
 20
3101.894401078113
 30
0.0
 10
2170.644216410001
 20
3104.286234487779
 30
0.0
 10
2170.644216410001
 20
3107.668601783226
 30
0.0
 10
2170.644216410001
 20
3108.144521069247
 30
0.0
  0
SPLINE
  5
201
330
1F
100
AcDbEntity
  8
Trimetric
  6
Continuous
 62
    21
370
    18
100
AcDbSpline
210
0.0
220
0.0
230
1.0
 70
    24
 71
     1
 72
     6
 73
     4
 74
     0
 42
0.000000001
 43
0.0000000001
 40
0.0
 40
0.0
 40
0.3826824049238829
 40
0.9238795752125755
 40
1.0
 40
1.0
 10
2093.144117582473
 20
182.2832670479111
 30
0.0
 10
2093.144117582473
 20
179.8914956499648
 30
0.0
 10
2093.144117582473
 20
176.5090043310774
 30
0.0
 10
2093.144117582473
 20
176.0332504096441
 30
0.0
  0
SPLINE
  5
202
330
1F
100
AcDbEntity
  8
Trimetric
  6
Continuous
 62
    21
370
    18
100
AcDbSpline
210
0.0
220
0.0
230
1.0
 70
    24
 71
     1
 72
     5
 73
     3
 74
     0
 42
0.000000001
 43
0.0000000001
 40
0.0
 40
0.0
 40
0.2928929796304442
 40
1.0
 40
1.0
 10
2090.644135731855
 20
176.0332504096441
 30
0.0
 10
2090.644135731855
 20
177.863836405566
 30
0.0
 10
2090.644135731855
 20
182.2832670479111
 30
0.0
  0
SPLINE
  5
203
330
1F
100
AcDbEntity
  8
Trimetric
  6
Continuous
 62
    21
370
    18
100
AcDbSpline
210
0.0
220
0.0
230
1.0
 70
    24
 71
     1
 72
     5
 73
     3
 74
     0
 42
0.000000001
 43
0.0000000001
 40
0.0
 40
0.0
 40
0.2928929796304442
 40
1.0
 40
1.0
 10
2170.644216410001
 20
176.0332504096441
 30
0.0
 10
2170.644216410001
 20
177.863836405566
 30
0.0
 10
2170.644216410001
 20
182.2832670479111
 30
0.0
  0
SPLINE
  5
204
330
1F
100
AcDbEntity
  8
Trimetric
  6
Continuous
 62
    21
370
    18
100
AcDbSpline
210
0.0
220
0.0
230
1.0
 70
    24
 71
     1
 72
     6
 73
     4
 74
     0
 42
0.000000001
 43
0.0000000001
 40
0.0
 40
0.0
 40
0.3826824049238829
 40
0.9238795752125755
 40
1.0
 40
1.0
 10
2173.144198260619
 20
182.2832670479111
 30
0.0
 10
2173.144198260619
 20
179.8914956499648
 30
0.0
 10
2173.144198260619
 20
176.5090043310774
 30
0.0
 10
2173.144198260619
 20
176.0332504096441
 30
0.0
  0
SPLINE
  5
205
330
1F
100
AcDbEntity
  8
Trimetric
  6
Continuous
 62
   223
370
    18
100
AcDbSpline
210
0.0
220
0.0
230
1.0
 70
    24
 71
     1
 72
     5
 73
     3
 74
     0
 42
0.000000001
 43
0.0000000001
 40
0.0
 40
0.0
 40
0.4999724381235874
 40
1.0
 40
1.0
 10
2152.394084317144
 20
178.4522242824168
 30
0.0
 10
2150.894227498444
 20
178.4522242824168
 30
0.0
 10
2149.394205315155
 20
178.4522242824168
 30
0.0
  0
SPLINE
  5
206
330
1F
100
AcDbEntity
  8
Trimetric
  6
Continuous
 62
   223
370
    18
100
AcDbSpline
210
0.0
220
0.0
230
1.0
 70
    24
 71
     1
 72
     5
 73
     3
 74
     0
 42
0.000000001
 43
0.0000000001
 40
0.0
 40
0.0
 40
0.1339984566199978
 40
1.0
 40
1.0
 10
2194.394209355466
 20
178.4522242824168
 30
0.0
 10
2193.992208040552
 20
178.4522242824168
 30
0.0
 10
2191.394164988888
 20
178.4522242824168
 30
0.0
  0
SPLINE
  5
207
330
1F
100
AcDbEntity
  8
Trimetric
  6
Continuous
 62
   223
370
    18
100
AcDbSpline
210
0.0
220
0.0
230
1.0
 70
    24
 71
     1
 72
     5
 73
     3
 74
     0
 42
0.000000001
 43
0.0000000001
 40
0.0
 40
0.0
 40
0.5
 40
1.0
 40
1.0
 10
2072.394169003587
 20
178.4522242824168
 30
0.0
 10
2070.894146820298
 20
178.4522242824168
 30
0.0
 10
2069.394124637009
 20
178.4522242824168
 30
0.0
  0
SPLINE
  5
208
330
1F
100
AcDbEntity
  8
Trimetric
  6
Continuous
 62
   223
370
    18
100
AcDbSpline
210
0.0
220
0.0
230
1.0
 70
    24
 71
     1
 72
     5
 73
     3
 74
     0
 42
0.000000001
 43
0.0000000001
 40
0.0
 40
0.0
 40
0.1339433359056333
 40
1.0
 40
1.0
 10
2114.394128677319
 20
178.4522242824168
 30
0.0
 10
2113.992292726995
 20
178.4522242824168
 30
0.0
 10
2111.394084310741
 20
178.4522242824168
 30
0.0
  0
SPLINE
  5
209
330
1F
100
AcDbEntity
  8
Trimetric
  6
Continuous
 62
    21
370
    18
100
AcDbSpline
210
0.0
220
0.0
230
1.0
 70
    24
 71
     1
 72
     8
 73
     6
 74
     0
 42
0.000000001
 43
0.0000000001
 40
0.0
 40
0.0
 40
0.0380603382700207
 40
0.3086565110695127
 40
0.6913434889304872
 40
0.9619396617299791
 40
1.0
 40
1.0
 10
4727.202419094507
 20
1137.605595550674
 30
0.0
 10
4727.202419094507
 20
1138.081349472108
 30
0.0
 10
4727.202419094507
 20
1141.463799449848
 30
0.0
 10
4727.202419094507
 20
1146.247383586887
 30
0.0
 10
4727.202419094507
 20
1149.629833564628
 30
0.0
 10
4727.202419094507
 20
1150.105587486061
 30
0.0
  0
SPLINE
  5
20A
330
1F
100
AcDbEntity
  8
Trimetric
  6
Continuous
 62
    21
370
    18
100
AcDbSpline
210
0.0
220
0.0
230
1.0
 70
    24
 71
     1
 72
     8
 73
     6
 74
     0
 42
0.000000001
 43
0.0000000001
 40
0.0
 40
0.0
 40
0.0380603382700207
 40
0.3086565110695127
 40
0.6913434889304872
 40
0.9619396617299791
 40
1.0
 40
1.0
 10
4729.702400945128
 20
1150.105587486061
 30
0.0
 10
4729.702400945128
 20
1149.629833564628
 30
0.0
 10
4729.702400945128
 20
1146.247383586887
 30
0.0
 10
4729.702400945128
 20
1141.463799449848
 30
0.0
 10
4729.702400945128
 20
1138.081349472108
 30
0.0
 10
4729.702400945128
 20
1137.605595550674
 30
0.0
  0
SPLINE
  5
20B
330
1F
100
AcDbEntity
  8
Trimetric
  6
Continuous
 62
    21
370
    18
100
AcDbSpline
210
0.0
220
0.0
230
1.0
 70
    24
 71
     1
 72
     5
 73
     3
 74
     0
 42
0.000000001
 43
0.0000000001
 40
0.0
 40
0.0
 40
0.3174238844258422
 40
1.0
 40
1.0
 10
4726.002864368723
 20
1618.605625875411
 30
0.0
 10
4727.55795296002
 20
1618.605625875411
 30
0.0
 10
4730.901955670907
 20
1618.605625875411
 30
0.0
  0
SPLINE
  5
20C
330
1F
100
AcDbEntity
  8
Trimetric
  6
Continuous
 62
    21
370
    18
100
AcDbSpline
210
0.0
220
0.0
230
1.0
 70
    24
 71
     1
 72
     4
 73
     2
 74
     0
 42
0.000000001
 43
0.0000000001
 40
0.0
 40
0.0
 40
1.0
 40
1.0
 10
4731.952351537763
 20
1150.105587486061
 30
0.0
 10
4729.702400945128
 20
1150.105587486061
 30
0.0
  0
SPLINE
  5
20D
330
1F
100
AcDbEntity
  8
Trimetric
  6
Continuous
 62
    21
370
    18
100
AcDbSpline
210
0.0
220
0.0
230
1.0
 70
    24
 71
     1
 72
     4
 73
     2
 74
     0
 42
0.000000001
 43
0.0000000001
 40
0.0
 40
0.0
 40
1.0
 40
1.0
 10
4727.202419094507
 20
1150.105587486061
 30
0.0
 10
4729.702400945128
 20
1150.105587486061
 30
0.0
  0
SPLINE
  5
20E
330
1F
100
AcDbEntity
  8
Trimetric
  6
Continuous
 62
    21
370
    18
100
AcDbSpline
210
0.0
220
0.0
230
1.0
 70
    24
 71
     1
 72
     4
 73
     2
 74
     0
 42
0.000000001
 43
0.0000000001
 40
0.0
 40
0.0
 40
1.0
 40
1.0
 10
4727.202419094507
 20
1150.105587486061
 30
0.0
 10
4724.952468501868
 20
1150.105587486061
 30
0.0
  0
SPLINE
  5
20F
330
1F
100
AcDbEntity
  8
Trimetric
  6
Continuous
 62
    21
370
    18
100
AcDbSpline
210
0.0
220
0.0
230
1.0
 70
    24
 71
     1
 72
     8
 73
     6
 74
     0
 42
0.000000001
 43
0.0000000001
 40
0.0
 40
0.0
 40
0.0380600865182363
 40
0.3086610839914805
 40
0.5
 40
0.8535539945231574
 40
1.0
 40
1.0
 10
4649.70232026698
 20
751.60561969009
 30
0.0
 10
4649.70232026698
 20
751.1298657686567
 30
0.0
 10
4649.70232026698
 20
747.747333108622
 30
0.0
 10
4649.70232026698
 20
745.3555823812497
 30
0.0
 10
4649.70232026698
 20
740.9361310683307
 30
0.0
 10
4649.70232026698
 20
739.1055450724087
 30
0.0
  0
SPLINE
  5
210
330
1F
100
AcDbEntity
  8
Trimetric
  6
Continuous
 62
    21
370
    18
100
AcDbSpline
210
0.0
220
0.0
230
1.0
 70
    24
 71
     1
 72
     8
 73
     6
 74
     0
 42
0.000000001
 43
0.0000000001
 40
0.0
 40
0.0
 40
0.0380600865182363
 40
0.3086610839914805
 40
0.5
 40
0.8535539945231574
 40
1.0
 40
1.0
 10
4647.202338416364
 20
739.1055450724087
 30
0.0
 10
4647.202338416364
 20
739.5812989938423
 30
0.0
 10
4647.202338416364
 20
742.9638316538768
 30
0.0
 10
4647.202338416364
 20
745.3555823812497
 30
0.0
 10
4647.202338416364
 20
749.7750336941679
 30
0.0
 10
4647.202338416364
 20
751.60561969009
 30
0.0
  0
SPLINE
  5
211
330
1F
100
AcDbEntity
  8
Trimetric
  6
Continuous
 62
    21
370
    18
100
AcDbSpline
210
0.0
220
0.0
230
1.0
 70
    24
 71
     1
 72
     5
 73
     3
 74
     0
 42
0.000000001
 43
0.0000000001
 40
0.0
 40
0.0
 40
0.3174453146097758
 40
1.0
 40
1.0
 10
4646.003114419755
 20
1618.605625875411
 30
0.0
 10
4647.558203011053
 20
1618.605625875411
 30
0.0
 10
4650.901874992764
 20
1618.605625875411
 30
0.0
  0
SPLINE
  5
212
330
1F
100
AcDbEntity
  8
Trimetric
  6
Continuous
 62
    21
370
    18
100
AcDbSpline
210
0.0
220
0.0
230
1.0
 70
    24
 71
     1
 72
     4
 73
     2
 74
     0
 42
0.000000001
 43
0.0000000001
 40
0.0
 40
0.0
 40
1.0
 40
1.0
 10
4651.952601588796
 20
751.60561969009
 30
0.0
 10
4649.70232026698
 20
751.60561969009
 30
0.0
  0
SPLINE
  5
213
330
1F
100
AcDbEntity
  8
Trimetric
  6
Continuous
 62
    21
370
    18
100
AcDbSpline
210
0.0
220
0.0
230
1.0
 70
    24
 71
     1
 72
     4
 73
     2
 74
     0
 42
0.000000001
 43
0.0000000001
 40
0.0
 40
0.0
 40
1.0
 40
1.0
 10
4647.202338416364
 20
751.60561969009
 30
0.0
 10
4649.70232026698
 20
751.60561969009
 30
0.0
  0
SPLINE
  5
214
330
1F
100
AcDbEntity
  8
Trimetric
  6
Continuous
 62
    21
370
    18
100
AcDbSpline
210
0.0
220
0.0
230
1.0
 70
    24
 71
     1
 72
     4
 73
     2
 74
     0
 42
0.000000001
 43
0.0000000001
 40
0.0
 40
0.0
 40
1.0
 40
1.0
 10
4647.202338416364
 20
751.60561969009
 30
0.0
 10
4644.952387823724
 20
751.60561969009
 30
0.0
  0
SPLINE
  5
215
330
1F
100
AcDbEntity
  8
Trimetric
  6
Continuous
 62
   211
370
    18
100
AcDbSpline
210
0.0
220
0.0
230
1.0
 70
    24
 71
     1
 72
     8
 73
     6
 74
     0
 42
0.000000001
 43
0.0000000001
 40
0.0
 40
0.0
 40
0.0380600865182363
 40
0.3086610839914805
 40
0.6913389160085196
 40
0.9619399134817635
 40
1.0
 40
1.0
 10
4727.202419094507
 20
2256.105627991609
 30
0.0
 10
4727.202419094507
 20
2256.581381913041
 30
0.0
 10
4727.202419094507
 20
2259.963914573076
 30
0.0
 10
4727.202419094507
 20
2264.747416027821
 30
0.0
 10
4727.202419094507
 20
2268.129948687856
 30
0.0
 10
4727.202419094507
 20
2268.605702609289
 30
0.0
  0
SPLINE
  5
216
330
1F
100
AcDbEntity
  8
Trimetric
  6
Continuous
 62
   211
370
    18
100
AcDbSpline
210
0.0
220
0.0
230
1.0
 70
    24
 71
     1
 72
     8
 73
     6
 74
     0
 42
0.000000001
 43
0.0000000001
 40
0.0
 40
0.0
 40
0.0380600865182363
 40
0.3086610839914805
 40
0.5000066145440595
 40
0.8535539945231574
 40
1.0
 40
1.0
 10
4729.702400945128
 20
2268.605702609289
 30
0.0
 10
4729.702400945128
 20
2268.129948687856
 30
0.0
 10
4729.702400945128
 20
2264.747416027821
 30
0.0
 10
4729.702400945128
 20
2262.355582618155
 30
0.0
 10
4729.702400945128
 20
2257.936213987531
 30
0.0
 10
4729.702400945128
 20
2256.105627991609
 30
0.0
  0
SPLINE
  5
217
330
1F
100
AcDbEntity
  8
Trimetric
  6
Continuous
 62
   211
370
    18
100
AcDbSpline
210
0.0
220
0.0
230
1.0
 70
    24
 71
     1
 72
     5
 73
     3
 74
     0
 42
0.000000001
 43
0.0000000001
 40
0.0
 40
0.0
 40
0.3174238844258422
 40
1.0
 40
1.0
 10
4730.901955670907
 20
1688.605613786494
 30
0.0
 10
4729.346867079612
 20
1688.605613786494
 30
0.0
 10
4726.002864368723
 20
1688.605613786494
 30
0.0
  0
SPLINE
  5
218
330
1F
100
AcDbEntity
  8
Trimetric
  6
Continuous
 62
   211
370
    18
100
AcDbSpline
210
0.0
220
0.0
230
1.0
 70
    24
 71
     1
 72
     4
 73
     2
 74
     0
 42
0.000000001
 43
0.0000000001
 40
0.0
 40
0.0
 40
1.0
 40
1.0
 10
4724.952468501868
 20
2256.105627991609
 30
0.0
 10
4727.202419094507
 20
2256.105627991609
 30
0.0
  0
SPLINE
  5
219
330
1F
100
AcDbEntity
  8
Trimetric
  6
Continuous
 62
   211
370
    18
100
AcDbSpline
210
0.0
220
0.0
230
1.0
 70
    24
 71
     1
 72
     4
 73
     2
 74
     0
 42
0.000000001
 43
0.0000000001
 40
0.0
 40
0.0
 40
1.0
 40
1.0
 10
4729.702400945128
 20
2256.105627991609
 30
0.0
 10
4727.202419094507
 20
2256.105627991609
 30
0.0
  0
SPLINE
  5
21A
330
1F
100
AcDbEntity
  8
Trimetric
  6
Continuous
 62
   211
370
    18
100
AcDbSpline
210
0.0
220
0.0
230
1.0
 70
    24
 71
     1
 72
     4
 73
     2
 74
     0
 42
0.000000001
 43
0.0000000001
 40
0.0
 40
0.0
 40
1.0
 40
1.0
 10
4729.702400945128
 20
2256.105627991609
 30
0.0
 10
4731.952351537763
 20
2256.105627991609
 30
0.0
  0
SPLINE
  5
21B
330
1F
100
AcDbEntity
  8
Trimetric
  6
Continuous
 62
   211
370
    18
100
AcDbSpline
210
0.0
220
0.0
230
1.0
 70
    24
 71
     1
 72
     7
 73
     5
 74
     0
 42
0.000000001
 43
0.0000000001
 40
0.0
 40
0.0
 40
0.1464479428495833
 40
0.5
 40
0.8535520571504166
 40
1.0
 40
1.0
 10
4647.202338416364
 20
2654.605678469874
 30
0.0
 10
4647.202338416364
 20
2656.436264465796
 30
0.0
 10
4647.202338416364
 20
2660.85563309642
 30
0.0
 10
4647.202338416364
 20
2665.275001727045
 30
0.0
 10
4647.202338416364
 20
2667.105587722967
 30
0.0
  0
SPLINE
  5
21C
330
1F
100
AcDbEntity
  8
Trimetric
  6
Continuous
 62
   211
370
    18
100
AcDbSpline
210
0.0
220
0.0
230
1.0
 70
    24
 71
     1
 72
     8
 73
     6
 74
     0
 42
0.000000001
 43
0.0000000001
 40
0.0
 40
0.0
 40
0.1464479428495833
 40
0.5
 40
0.6913480619129514
 40
0.9619394099748642
 40
1.0
 40
1.0
 10
4649.70232026698
 20
2667.105587722967
 30
0.0
 10
4649.70232026698
 20
2665.275001727045
 30
0.0
 10
4649.70232026698
 20
2660.85563309642
 30
0.0
 10
4649.70232026698
 20
2658.463799686753
 30
0.0
 10
4649.70232026698
 20
2655.081432391307
 30
0.0
 10
4649.70232026698
 20
2654.605678469874
 30
0.0
  0
SPLINE
  5
21D
330
1F
100
AcDbEntity
  8
Trimetric
  6
Continuous
 62
   211
370
    18
100
AcDbSpline
210
0.0
220
0.0
230
1.0
 70
    24
 71
     1
 72
     5
 73
     3
 74
     0
 42
0.000000001
 43
0.0000000001
 40
0.0
 40
0.0
 40
0.3174453146097758
 40
1.0
 40
1.0
 10
4650.901874992764
 20
1688.605613786494
 30
0.0
 10
4649.346786401468
 20
1688.605613786494
 30
0.0
 10
4646.003114419755
 20
1688.605613786494
 30
0.0
  0
SPLINE
  5
21E
330
1F
100
AcDbEntity
  8
Trimetric
  6
Continuous
 62
   211
370
    18
100
AcDbSpline
210
0.0
220
0.0
230
1.0
 70
    24
 71
     1
 72
     4
 73
     2
 74
     0
 42
0.000000001
 43
0.0000000001
 40
0.0
 40
0.0
 40
1.0
 40
1.0
 10
4644.952387823724
 20
2654.605678469874
 30
0.0
 10
4647.202338416364
 20
2654.605678469874
 30
0.0
  0
SPLINE
  5
21F
330
1F
100
AcDbEntity
  8
Trimetric
  6
Continuous
 62
   211
370
    18
100
AcDbSpline
210
0.0
220
0.0
230
1.0
 70
    24
 71
     1
 72
     4
 73
     2
 74
     0
 42
0.000000001
 43
0.0000000001
 40
0.0
 40
0.0
 40
1.0
 40
1.0
 10
4649.70232026698
 20
2654.605678469874
 30
0.0
 10
4647.202338416364
 20
2654.605678469874
 30
0.0
  0
SPLINE
  5
220
330
1F
100
AcDbEntity
  8
Trimetric
  6
Continuous
 62
   211
370
    18
100
AcDbSpline
210
0.0
220
0.0
230
1.0
 70
    24
 71
     1
 72
     4
 73
     2
 74
     0
 42
0.000000001
 43
0.0000000001
 40
0.0
 40
0.0
 40
1.0
 40
1.0
 10
4649.70232026698
 20
2654.605678469874
 30
0.0
 10
4651.952601588796
 20
2654.605678469874
 30
0.0
  0
ENDSEC
  0
SECTION
  2
OBJECTS
  0
DICTIONARY
  5
C
330
0
100
AcDbDictionary
281
     1
  3
ACAD_BACKGROUND
350
28F
  3
ACAD_CIP_PREVIOUS_PRODUCT_INFO
350
286
  3
ACAD_COLOR
350
281
  3
ACAD_DETAILVIEWSTYLE
350
27D
  3
ACAD_GROUP
350
D
  3
ACAD_LAYOUT
350
1A
  3
ACAD_MATERIAL
350
43
  3
ACAD_MLEADERSTYLE
350
6B
  3
ACAD_MLINESTYLE
350
17
  3
ACAD_PLOTSETTINGS
350
19
  3
ACAD_PLOTSTYLENAME
350
E
  3
ACAD_RENDER_ACTIVE_RAPIDRT_SETTINGS
350
28E
  3
ACAD_RENDER_ACTIVE_SETTINGS
350
3CB
  3
ACAD_SCALELIST
350
47
  3
ACAD_SECTIONVIEWSTYLE
350
27E
  3
ACAD_TABLESTYLE
350
69
  3
ACAD_VISUALSTYLE
350
2A
  3
ACDB_RECOMPOSE_DATA
350
38E
  3
AcDbVariableDictionary
350
23A
  3
DWGPROPS
350
38F
  0
DICTIONARY
  5
2C7
330
10
100
AcDbDictionary
280
     1
281
     1
  3
ADSK_XREC_LAYER_RECONCILED
360
2C8
  0
DICTIONARY
  5
2C9
330
74
100
AcDbDictionary
280
     1
281
     1
  3
ADSK_XREC_LAYER_RECONCILED
360
2CA
  0
DICTIONARY
  5
2CB
330
76
100
AcDbDictionary
280
     1
281
     1
  3
ADSK_XREC_LAYER_RECONCILED
360
2CC
  0
DICTIONARY
  5
28F
102
{ACAD_REACTORS
330
C
102
}
330
C
100
AcDbDictionary
281
     1
  0
XRECORD
  5
286
102
{ACAD_REACTORS
330
C
102
}
330
C
100
AcDbXrecord
280
     1
300
ACD
300
2017
300
ACD_F_S
  0
DICTIONARY
  5
281
102
{ACAD_REACTORS
330
C
102
}
330
C
100
AcDbDictionary
281
     1
  0
DICTIONARY
  5
27D
102
{ACAD_REACTORS
330
C
102
}
330
C
100
AcDbDictionary
281
     1
  3
Metric50
350
283
  0
DICTIONARY
  5
D
102
{ACAD_REACTORS
330
C
102
}
330
C
100
AcDbDictionary
281
     1
  0
DICTIONARY
  5
1A
102
{ACAD_REACTORS
330
C
102
}
330
C
100
AcDbDictionary
281
     1
  3
Layout1
350
1E
  3
Layout2
350
26
  3
Model
350
22
  0
DICTIONARY
  5
43
102
{ACAD_REACTORS
330
C
102
}
330
C
100
AcDbDictionary
281
     1
  3
ByBlock
350
45
  3
ByLayer
350
44
  3
Global
350
46
  0
DICTIONARY
  5
6B
102
{ACAD_REACTORS
330
C
102
}
330
C
100
AcDbDictionary
281
     1
  3
Standard
350
6C
  0
DICTIONARY
  5
17
102
{ACAD_REACTORS
330
C
102
}
330
C
100
AcDbDictionary
281
     1
  3
Standard
350
18
  0
DICTIONARY
  5
19
102
{ACAD_REACTORS
330
C
102
}
330
C
100
AcDbDictionary
281
     1
  0
ACDBDICTIONARYWDFLT
  5
E
102
{ACAD_REACTORS
330
C
102
}
330
C
100
AcDbDictionary
281
     1
  3
Normal
350
F
100
AcDbDictionaryWithDefault
340
F
  0
RAPIDRTRENDERSETTINGS
  5
28E
102
{ACAD_REACTORS
330
C
102
}
330
C
100
AcDbRenderSettings
 90
        2
  1
Medium
290
     1
290
     0
290
     1
290
     1
  1

  1
Applies 5 rendering levels
 90
        0
100
AcDbRapidRTRenderSettings
 90
        3
 70
     0
 90
        5
 90
        1
 70
     1
 70
     2
 40
3.0
 40
3.0
290
     1
  0
MENTALRAYRENDERSETTINGS
  5
3CB
102
{ACAD_XDICTIONARY
360
3CC
102
}
102
{ACAD_REACTORS
330
C
102
}
330
C
100
AcDbRenderSettings
 90
        2
  1
Medium
290
     1
290
     1
290
     1
290
     1
  1

  1

 90
        0
100
AcDbMentalRayRenderSettings
 90
        2
 90
        0
 90
        1
 70
     2
 40
3.0
 40
3.0
 40
0.0500000007450581
 40
0.0500000007450581
 40
0.0500000007450581
 40
0.0500000007450581
 70
     0
290
     0
290
     1
 90
        5
 90
        5
 90
        5
290
     0
 90
      500
290
     0
 40
1.0
 90
    10000
 90
        5
 90
        5
 90
        5
290
     0
 90
      200
290
     0
290
     0
290
     0
 40
1.0
 40
1.0
 40
1500.0
 70
     0
 70
     0
 40
10.0
 70
     0
 70
     0
290
     0
  1

 90
       32
 70
     0
 90
     1048
290
     0
 40
1.0
  0
DICTIONARY
  5
47
102
{ACAD_REACTORS
330
C
102
}
330
C
100
AcDbDictionary
281
     1
  3
A0
350
48
  3
A1
350
49
  3
A2
350
4A
  3
A3
350
4B
  3
A4
350
4C
  3
A5
350
4D
  3
A6
350
4E
  3
A7
350
4F
  3
A8
350
50
  3
A9
350
51
  3
B0
350
52
  3
B1
350
53
  3
B2
350
54
  3
B3
350
55
  3
B4
350
56
  3
B5
350
57
  3
B6
350
58
  3
B7
350
59
  3
B8
350
5A
  3
B9
350
5B
  3
C0
350
5C
  3
C1
350
5D
  3
C2
350
5E
  3
C3
350
5F
  3
C4
350
60
  3
C5
350
61
  3
C6
350
62
  3
C7
350
63
  3
C8
350
64
  3
C9
350
65
  3
D0
350
66
  3
D1
350
67
  3
D2
350
68
  0
DICTIONARY
  5
27E
102
{ACAD_REACTORS
330
C
102
}
330
C
100
AcDbDictionary
281
     1
  3
Metric50
350
282
  0
DICTIONARY
  5
69
102
{ACAD_REACTORS
330
C
102
}
330
C
100
AcDbDictionary
281
     1
  3
Standard
350
6A
  0
DICTIONARY
  5
2A
102
{ACAD_REACTORS
330
C
102
}
330
C
100
AcDbDictionary
281
     1
  3
2dWireframe
350
2F
  3
Basic
350
32
  3
Brighten
350
36
  3
ColorChange
350
3A
  3
Conceptual
350
34
  3
Dim
350
35
  3
EdgeColorOff
350
3D
  3
Facepattern
350
39
  3
Flat
350
2B
  3
FlatWithEdges
350
2C
  3
Gouraud
350
2D
  3
GouraudWithEdges
350
2E
  3
Hidden
350
31
  3
JitterOff
350
3B
  3
Linepattern
350
38
  3
OverhangOff
350
3C
  3
Realistic
350
33
  3
Shaded
350
42
  3
Shaded with edges
350
41
  3
Shades of Gray
350
3E
  3
Sketchy
350
3F
  3
Thicken
350
37
  3
Wireframe
350
30
  3
X-Ray
350
40
  0
XRECORD
  5
38E
102
{ACAD_REACTORS
330
C
102
}
330
C
100
AcDbXrecord
280
     1
 90
        1
330
6A
  0
DICTIONARY
  5
23A
102
{ACAD_REACTORS
330
C
102
}
330
C
100
AcDbDictionary
281
     1
  3
CANNOSCALE
350
23B
  3
CMLEADERSTYLE
350
27C
  3
CTABLESTYLE
350
27B
  3
CVIEWDETAILSTYLE
350
386
  3
CVIEWSECTIONSTYLE
350
387
  3
DIMASSOC
350
38B
  3
HIDETEXT
350
38A
  3
INDEXCTL
350
389
  3
MSLTSCALE
350
23C
  3
SORTENTS
350
388
  3
XCLIPFRAME
350
38C
  0
XRECORD
  5
38F
102
{ACAD_REACTORS
330
C
102
}
330
C
100
AcDbXrecord
280
     1
  1
DWGPROPS COOKIE
  2

  3

  4

  6

  7

  8
MEX-JAGC
  9

300
=
301
=
302
=
303
=
304
=
305
=
306
=
307
=
308
=
309
=
 40
0.0023495486111111
 41
2458967.34150463
 42
2458967.344351852
  1

 90
        0
  0
XRECORD
  5
2C8
102
{ACAD_REACTORS
330
2C7
102
}
330
2C7
100
AcDbXrecord
280
     1
290
     1
  0
XRECORD
  5
2CA
102
{ACAD_REACTORS
330
2C9
102
}
330
2C9
100
AcDbXrecord
280
     1
290
     1
  0
XRECORD
  5
2CC
102
{ACAD_REACTORS
330
2CB
102
}
330
2CB
100
AcDbXrecord
280
     1
290
     1
  0
ACDBDETAILVIEWSTYLE
  5
283
102
{ACAD_XDICTIONARY
360
3C9
102
}
102
{ACAD_REACTORS
330
27D
102
}
330
27D
100
AcDbModelDocViewStyle
 70
     0
  3
Metric50
290
     0
100
AcDbDetailViewStyle
 70
     0
 71
     0
 90
        3
 71
     1
340
11
 40
5.0
340
0
 40
5.0
300

 40
0.0
280
     1
 71
     2
340
16
 90
       25
 71
     3
340
11
 40
5.0
 90
        0
 40
15.0
 90
        1
300
%<\AcVar ViewDetailId>% (%<\AcVar ViewScale \f "%sn">%)
 71
     4
340
16
 90
       25
340
16
 90
       25
280
     0
  0
LAYOUT
  5
1E
102
{ACAD_XDICTIONARY
360
390
102
}
102
{ACAD_REACTORS
330
1A
102
}
330
1A
100
AcDbPlotSettings
  1

  2
none_device
  4

  6

 40
0.0
 41
0.0
 42
0.0
 43
0.0
 44
0.0
 45
0.0
 46
0.0
 47
0.0
 48
0.0
 49
0.0
140
0.0
141
0.0
142
1.0
143
1.0
 70
   688
 72
     0
 73
     0
 74
     5
  7

 75
    16
147
1.0
148
0.0
149
0.0
100
AcDbLayout
  1
Layout1
 70
     1
 71
     1
 10
-0.5
 20
-0.5
 11
5.0
 21
5.0
 12
0.0
 22
0.0
 32
0.0
 14
-0.5
 24
-0.5
 34
-0.5
 15
5.0
 25
5.0
 35
5.0
146
0.0
 13
0.0
 23
0.0
 33
0.0
 16
1.0
 26
0.0
 36
0.0
 17
0.0
 27
1.0
 37
0.0
 76
     0
330
1B
  0
LAYOUT
  5
26
102
{ACAD_XDICTIONARY
360
394
102
}
102
{ACAD_REACTORS
330
1A
102
}
330
1A
100
AcDbPlotSettings
  1

  2
none_device
  4

  6

 40
0.0
 41
0.0
 42
0.0
 43
0.0
 44
0.0
 45
0.0
 46
0.0
 47
0.0
 48
0.0
 49
0.0
140
0.0
141
0.0
142
1.0
143
1.0
 70
   688
 72
     0
 73
     0
 74
     5
  7

 75
    16
147
1.0
148
0.0
149
0.0
100
AcDbLayout
  1
Layout2
 70
     1
 71
     2
 10
0.0
 20
0.0
 11
0.0
 21
0.0
 12
0.0
 22
0.0
 32
0.0
 14
0.0
 24
0.0
 34
0.0
 15
0.0
 25
0.0
 35
0.0
146
0.0
 13
0.0
 23
0.0
 33
0.0
 16
1.0
 26
0.0
 36
0.0
 17
0.0
 27
1.0
 37
0.0
 76
     0
330
23
  0
LAYOUT
  5
22
102
{ACAD_XDICTIONARY
360
392
102
}
102
{ACAD_REACTORS
330
1A
102
}
330
1A
100
AcDbPlotSettings
  1

  2
none_device
  4
Letter_(8.50_x_11.00_Inches)
  6

 40
6.349999999999999
 41
6.349999999999999
 42
6.350005
 43
6.350005
 44
215.9
 45
279.4
 46
0.0
 47
0.0
 48
0.0
 49
0.0
140
0.0
141
0.0
142
1.0
143
1.0
 70
  1712
 72
     0
 73
     0
 74
     0
  7

 75
     0
147
1.0
148
0.0
149
0.0
100
AcDbLayout
  1
Model
 70
     1
 71
     0
 10
-0.5
 20
-0.5
 11
5.0
 21
5.0
 12
0.0
 22
0.0
 32
0.0
 14
-0.5
 24
-0.5
 34
-0.5
 15
5.0
 25
5.0
 35
5.0
146
0.0
 13
0.0
 23
0.0
 33
0.0
 16
1.0
 26
0.0
 36
0.0
 17
0.0
 27
1.0
 37
0.0
 76
     0
330
1F
331
29
  0
MATERIAL
  5
45
102
{ACAD_XDICTIONARY
360
270
102
}
102
{ACAD_REACTORS
330
43
102
}
330
43
100
AcDbMaterial
  1
ByBlock
  0
MATERIAL
  5
44
102
{ACAD_XDICTIONARY
360
26E
102
}
102
{ACAD_REACTORS
330
43
102
}
330
43
100
AcDbMaterial
  1
ByLayer
  0
MATERIAL
  5
46
102
{ACAD_XDICTIONARY
360
272
102
}
102
{ACAD_REACTORS
330
43
102
}
330
43
100
AcDbMaterial
  1
Global
  0
MLEADERSTYLE
  5
6C
102
{ACAD_REACTORS
330
6B
102
}
330
6B
100
AcDbMLeaderStyle
170
     2
171
     1
172
     0
 90
        2
 40
0.0
 41
0.0
173
     1
 91
-1056964608
340
14
 92
       -2
290
     1
 42
0.09
291
     1
 43
0.36
  3
Standard
 44
0.18
300

342
11
174
     1
178
     6
175
     1
176
     0
 93
-1056964608
 45
0.18
292
     0
297
     0
 46
0.18
 94
-1056964608
 47
1.0
 49
1.0
140
1.0
293
     1
141
0.0
294
     1
177
     0
142
1.0
295
     0
296
     0
143
0.125
1001
ACAD_MLEADERVER
1070
     2
  0
MLINESTYLE
  5
18
102
{ACAD_REACTORS
330
17
102
}
330
17
100
AcDbMlineStyle
  2
STANDARD
 70
     0
  3

 62
   256
 51
90.0
 52
90.0
 71
     2
 49
0.5
 62
   256
  6
BYLAYER
 49
-0.5
 62
   256
  6
BYLAYER
  0
ACDBPLACEHOLDER
  5
F
102
{ACAD_REACTORS
330
E
102
}
330
E
  0
DICTIONARY
  5
3CC
330
3CB
100
AcDbDictionary
280
     1
281
     1
  3
ADSK_XREC_MENTALRAYSETTINGSINFO
360
3CD
  0
SCALE
  5
48
102
{ACAD_REACTORS
330
47
102
}
330
47
100
AcDbScale
 70
     0
300
1:1
140
1.0
141
1.0
290
     1
  0
SCALE
  5
49
102
{ACAD_REACTORS
330
47
102
}
330
47
100
AcDbScale
 70
     0
300
1:2
140
1.0
141
2.0
290
     0
  0
SCALE
  5
4A
102
{ACAD_REACTORS
330
47
102
}
330
47
100
AcDbScale
 70
     0
300
1:4
140
1.0
141
4.0
290
     0
  0
SCALE
  5
4B
102
{ACAD_REACTORS
330
47
102
}
330
47
100
AcDbScale
 70
     0
300
1:5
140
1.0
141
5.0
290
     0
  0
SCALE
  5
4C
102
{ACAD_REACTORS
330
47
102
}
330
47
100
AcDbScale
 70
     0
300
1:8
140
1.0
141
8.0
290
     0
  0
SCALE
  5
4D
102
{ACAD_REACTORS
330
47
102
}
330
47
100
AcDbScale
 70
     0
300
1:10
140
1.0
141
10.0
290
     0
  0
SCALE
  5
4E
102
{ACAD_REACTORS
330
47
102
}
330
47
100
AcDbScale
 70
     0
300
1:16
140
1.0
141
16.0
290
     0
  0
SCALE
  5
4F
102
{ACAD_REACTORS
330
47
102
}
330
47
100
AcDbScale
 70
     0
300
1:20
140
1.0
141
20.0
290
     0
  0
SCALE
  5
50
102
{ACAD_REACTORS
330
47
102
}
330
47
100
AcDbScale
 70
     0
300
1:30
140
1.0
141
30.0
290
     0
  0
SCALE
  5
51
102
{ACAD_REACTORS
330
47
102
}
330
47
100
AcDbScale
 70
     0
300
1:40
140
1.0
141
40.0
290
     0
  0
SCALE
  5
52
102
{ACAD_REACTORS
330
47
102
}
330
47
100
AcDbScale
 70
     0
300
1:50
140
1.0
141
50.0
290
     0
  0
SCALE
  5
53
102
{ACAD_REACTORS
330
47
102
}
330
47
100
AcDbScale
 70
     0
300
1:100
140
1.0
141
100.0
290
     0
  0
SCALE
  5
54
102
{ACAD_REACTORS
330
47
102
}
330
47
100
AcDbScale
 70
     0
300
2:1
140
2.0
141
1.0
290
     0
  0
SCALE
  5
55
102
{ACAD_REACTORS
330
47
102
}
330
47
100
AcDbScale
 70
     0
300
4:1
140
4.0
141
1.0
290
     0
  0
SCALE
  5
56
102
{ACAD_REACTORS
330
47
102
}
330
47
100
AcDbScale
 70
     0
300
8:1
140
8.0
141
1.0
290
     0
  0
SCALE
  5
57
102
{ACAD_REACTORS
330
47
102
}
330
47
100
AcDbScale
 70
     0
300
10:1
140
10.0
141
1.0
290
     0
  0
SCALE
  5
58
102
{ACAD_REACTORS
330
47
102
}
330
47
100
AcDbScale
 70
     0
300
100:1
140
100.0
141
1.0
290
     0
  0
SCALE
  5
59
102
{ACAD_REACTORS
330
47
102
}
330
47
100
AcDbScale
 70
     0
300
1/128" = 1'-0"
140
0.007812
141
12.0
290
     0
  0
SCALE
  5
5A
102
{ACAD_REACTORS
330
47
102
}
330
47
100
AcDbScale
 70
     0
300
1/64" = 1'-0"
140
0.015625
141
12.0
290
     0
  0
SCALE
  5
5B
102
{ACAD_REACTORS
330
47
102
}
330
47
100
AcDbScale
 70
     0
300
1/32" = 1'-0"
140
0.03125
141
12.0
290
     0
  0
SCALE
  5
5C
102
{ACAD_REACTORS
330
47
102
}
330
47
100
AcDbScale
 70
     0
300
1/16" = 1'-0"
140
0.0625
141
12.0
290
     0
  0
SCALE
  5
5D
102
{ACAD_REACTORS
330
47
102
}
330
47
100
AcDbScale
 70
     0
300
3/32" = 1'-0"
140
0.09375
141
12.0
290
     0
  0
SCALE
  5
5E
102
{ACAD_REACTORS
330
47
102
}
330
47
100
AcDbScale
 70
     0
300
1/8" = 1'-0"
140
0.125
141
12.0
290
     0
  0
SCALE
  5
5F
102
{ACAD_REACTORS
330
47
102
}
330
47
100
AcDbScale
 70
     0
300
3/16" = 1'-0"
140
0.1875
141
12.0
290
     0
  0
SCALE
  5
60
102
{ACAD_REACTORS
330
47
102
}
330
47
100
AcDbScale
 70
     0
300
1/4" = 1'-0"
140
0.25
141
12.0
290
     0
  0
SCALE
  5
61
102
{ACAD_REACTORS
330
47
102
}
330
47
100
AcDbScale
 70
     0
300
3/8" = 1'-0"
140
0.375
141
12.0
290
     0
  0
SCALE
  5
62
102
{ACAD_REACTORS
330
47
102
}
330
47
100
AcDbScale
 70
     0
300
1/2" = 1'-0"
140
0.5
141
12.0
290
     0
  0
SCALE
  5
63
102
{ACAD_REACTORS
330
47
102
}
330
47
100
AcDbScale
 70
     0
300
3/4" = 1'-0"
140
0.75
141
12.0
290
     0
  0
SCALE
  5
64
102
{ACAD_REACTORS
330
47
102
}
330
47
100
AcDbScale
 70
     0
300
1" = 1'-0"
140
1.0
141
12.0
290
     0
  0
SCALE
  5
65
102
{ACAD_REACTORS
330
47
102
}
330
47
100
AcDbScale
 70
     0
300
1-1/2" = 1'-0"
140
1.5
141
12.0
290
     0
  0
SCALE
  5
66
102
{ACAD_REACTORS
330
47
102
}
330
47
100
AcDbScale
 70
     0
300
3" = 1'-0"
140
3.0
141
12.0
290
     0
  0
SCALE
  5
67
102
{ACAD_REACTORS
330
47
102
}
330
47
100
AcDbScale
 70
     0
300
6" = 1'-0"
140
6.0
141
12.0
290
     0
  0
SCALE
  5
68
102
{ACAD_REACTORS
330
47
102
}
330
47
100
AcDbScale
 70
     0
300
1'-0" = 1'-0"
140
12.0
141
12.0
290
     0
  0
ACDBSECTIONVIEWSTYLE
  5
282
102
{ACAD_XDICTIONARY
360
3C7
102
}
102
{ACAD_REACTORS
330
27E
102
}
330
27E
100
AcDbModelDocViewStyle
 70
     0
  3
Metric50
290
     0
100
AcDbSectionViewStyle
 70
     0
 71
     0
 90
      102
 71
     1
340
11
 40
5.0
340
0
340
0
 40
5.0
300
I, O, Q, S, X, Z
 40
10.0
 90
        0
 40
2.5
 90
        0
 71
     2
340
16
 90
       25
340
16
 90
       50
 40
5.0
 40
2.5
 40
5.0
 71
     3
340
11
 40
5.0
 90
        0
 40
15.0
 90
        1
300
%<\AcVar ViewSectionStartId>%-%<\AcVar ViewSectionEndId>% (%<\AcVar ViewScale \f "%sn">%)
 71
     4
300
ANSI31
 40
1.0
 90
        0
290
     0
290
     0
 90
        6
 40
0.0
 40
1.570796326794896
 40
0.2617993877991494
 40
1.308996938995747
 40
-0.2617993877991494
 40
1.832595714594046
  0
TABLESTYLE
  5
6A
102
{ACAD_XDICTIONARY
360
274
102
}
102
{ACAD_REACTORS
330
69
102
}
330
69
100
AcDbTableStyle
  3
Standard
 70
     0
 71
     0
 40
0.06
 41
0.06
280
     0
281
     0
  7
Standard
140
0.18
170
     2
 62
     0
 63
     7
283
     0
274
    -2
284
     1
 64
     0
275
    -2
285
     1
 65
     0
276
    -2
286
     1
 66
     0
277
    -2
287
     1
 67
     0
278
    -2
288
     1
 68
     0
279
    -2
289
     1
 69
     0
  7
Standard
140
0.25
170
     5
 62
     0
 63
     7
283
     0
274
    -2
284
     1
 64
     0
275
    -2
285
     1
 65
     0
276
    -2
286
     1
 66
     0
277
    -2
287
     1
 67
     0
278
    -2
288
     1
 68
     0
279
    -2
289
     1
 69
     0
  7
Standard
140
0.18
170
     5
 62
     0
 63
     7
283
     0
274
    -2
284
     1
 64
     0
275
    -2
285
     1
 65
     0
276
    -2
286
     1
 66
     0
277
    -2
287
     1
 67
     0
278
    -2
288
     1
 68
     0
279
    -2
289
     1
 69
     0
  0
VISUALSTYLE
  5
2F
102
{ACAD_XDICTIONARY
360
39E
102
}
102
{ACAD_REACTORS
330
2A
102
}
330
2A
100
AcDbVisualStyle
  2

 70
     4
 71
     0
 72
     2
 73
     0
 90
        0
 40
-0.6
 41
-30.0
 62
     5
 63
     7
 74
     1
 91
        4
 64
     7
 65
   257
 75
     1
175
     1
 42
1.0
 92
        0
 66
   257
 43
1.0
 76
     1
 77
     6
 78
     2
 67
     7
 79
     5
170
     0
171
     0
290
     0
174
     0
 93
        1
 44
0.0
173
     0
291
     0
 45
0.0
1001
ACAD
1000
AcDbSavedByObjectVersion
1070
     0
  0
VISUALSTYLE
  5
32
102
{ACAD_XDICTIONARY
360
3A4
102
}
102
{ACAD_REACTORS
330
2A
102
}
330
2A
100
AcDbVisualStyle
  2

 70
     7
 71
     1
 72
     0
 73
     1
 90
        0
 40
-0.6
 41
-30.0
 62
     5
 63
     7
 74
     0
 91
        4
 64
     7
 65
   257
 75
     1
175
     1
 42
1.0
 92
        8
 66
     7
 43
1.0
 76
     1
 77
     6
 78
     2
 67
     7
 79
     5
170
     0
171
     0
290
     0
174
     0
 93
        1
 44
0.0
173
     0
291
     1
 45
0.0
1001
ACAD
1000
AcDbSavedByObjectVersion
1070
     0
  0
VISUALSTYLE
  5
36
102
{ACAD_XDICTIONARY
360
3AC
102
}
102
{ACAD_REACTORS
330
2A
102
}
330
2A
100
AcDbVisualStyle
  2

 70
    12
 71
     2
 72
     2
 73
     0
 90
        0
 40
-0.6
 41
-30.0
 62
     5
 63
     7
 74
     1
 91
        4
 64
     7
 65
   257
 75
     1
175
     1
 42
1.0
 92
        8
 66
     7
 43
1.0
 76
     1
 77
     6
 78
     2
 67
     7
 79
     5
170
     0
171
     0
290
     0
174
     0
 93
        1
 44
50.0
173
     0
291
     1
 45
0.0
1001
ACAD
1000
AcDbSavedByObjectVersion
1070
     0
  0
VISUALSTYLE
  5
3A
102
{ACAD_XDICTIONARY
360
3B4
102
}
102
{ACAD_REACTORS
330
2A
102
}
330
2A
100
AcDbVisualStyle
  2

 70
    16
 71
     2
 72
     2
 73
     3
 90
        0
 40
-0.6
 41
-30.0
 62
     5
 63
     8
 74
     1
 91
        4
 64
     7
 65
   257
 75
     1
175
     1
 42
1.0
 92
        8
 66
     8
 43
1.0
 76
     1
 77
     6
 78
     2
 67
     7
 79
     5
170
     0
171
     0
290
     0
174
     0
 93
        1
 44
0.0
173
     0
291
     1
 45
0.0
1001
ACAD
1000
AcDbSavedByObjectVersion
1070
     0
  0
VISUALSTYLE
  5
34
102
{ACAD_XDICTIONARY
360
3A8
102
}
102
{ACAD_REACTORS
330
2A
102
}
330
2A
100
AcDbVisualStyle
  2

 70
     9
 71
     3
 72
     2
 73
     0
 90
        0
 40
-0.6
 41
-30.0
 62
     5
 63
     7
 74
     2
 91
        2
 64
     7
 65
   257
 75
     1
175
     1
 42
179.0
 92
        8
 66
     7
 43
1.0
 76
     1
 77
     6
 78
     2
 67
     7
 79
     3
170
     0
171
     0
290
     0
174
     0
 93
        1
 44
0.0
173
     0
291
     0
 45
0.0
1001
ACAD
1000
AcDbSavedByObjectVersion
1070
     0
  0
VISUALSTYLE
  5
35
102
{ACAD_XDICTIONARY
360
3AA
102
}
102
{ACAD_REACTORS
330
2A
102
}
330
2A
100
AcDbVisualStyle
  2

 70
    11
 71
     2
 72
     2
 73
     0
 90
        0
 40
-0.6
 41
-30.0
 62
     5
 63
     7
 74
     1
 91
        4
 64
     7
 65
   257
 75
     1
175
     1
 42
1.0
 92
        8
 66
     7
 43
1.0
 76
     1
 77
     6
 78
     2
 67
     7
 79
     5
170
     0
171
     0
290
     0
174
     0
 93
        1
 44
-50.0
173
     0
291
     1
 45
0.0
1001
ACAD
1000
AcDbSavedByObjectVersion
1070
     0
  0
VISUALSTYLE
  5
3D
102
{ACAD_XDICTIONARY
360
3BA
102
}
102
{ACAD_REACTORS
330
2A
102
}
330
2A
100
AcDbVisualStyle
  2

 70
    22
 71
     2
 72
     2
 73
     0
 90
        0
 40
-0.6
 41
-30.0
 62
     5
 63
     7
 74
     1
 91
        4
 64
     7
 65
   257
 75
     1
175
     1
 42
1.0
 92
        8
 66
     7
 43
1.0
 76
     1
 77
     6
 78
     2
 67
     7
 79
     5
170
     0
171
     0
290
     0
174
     0
 93
        1
 44
0.0
173
     0
291
     1
 45
0.0
1001
ACAD
1000
AcDbSavedByObjectVersion
1070
     0
  0
VISUALSTYLE
  5
39
102
{ACAD_XDICTIONARY
360
3B2
102
}
102
{ACAD_REACTORS
330
2A
102
}
330
2A
100
AcDbVisualStyle
  2

 70
    15
 71
     2
 72
     2
 73
     0
 90
        0
 40
-0.6
 41
-30.0
 62
     5
 63
     7
 74
     1
 91
        4
 64
     7
 65
   257
 75
     1
175
     1
 42
1.0
 92
        8
 66
     7
 43
1.0
 76
     1
 77
     6
 78
     2
 67
     7
 79
     5
170
     0
171
     0
290
     0
174
     0
 93
        1
 44
0.0
173
     0
291
     1
 45
0.0
1001
ACAD
1000
AcDbSavedByObjectVersion
1070
     0
  0
VISUALSTYLE
  5
2B
102
{ACAD_XDICTIONARY
360
396
102
}
102
{ACAD_REACTORS
330
2A
102
}
330
2A
100
AcDbVisualStyle
  2

 70
     0
 71
     2
 72
     1
 73
     1
 90
        2
 40
-0.6
 41
30.0
 62
     5
 63
     7
 74
     0
 91
        0
 64
     7
 65
   257
 75
     1
175
     1
 42
1.0
 92
        8
 66
     7
 43
1.0
 76
     1
 77
     6
 78
     2
 67
     7
 79
     5
170
     0
171
     0
290
     0
174
     0
 93
       13
 44
0.0
173
     0
291
     1
 45
0.0
1001
ACAD
1000
AcDbSavedByObjectVersion
1070
     0
  0
VISUALSTYLE
  5
2C
102
{ACAD_XDICTIONARY
360
398
102
}
102
{ACAD_REACTORS
330
2A
102
}
330
2A
100
AcDbVisualStyle
  2

 70
     1
 71
     2
 72
     1
 73
     1
 90
        2
 40
-0.6
 41
30.0
 62
     5
 63
     7
 74
     1
 91
        0
 64
     7
 65
   257
 75
     1
175
     1
 42
1.0
 92
        0
 66
   257
 43
1.0
 76
     1
 77
     6
 78
     2
 67
     7
 79
     5
170
     0
171
     0
290
     0
174
     0
 93
       13
 44
0.0
173
     0
291
     1
 45
0.0
1001
ACAD
1000
AcDbSavedByObjectVersion
1070
     0
  0
VISUALSTYLE
  5
2D
102
{ACAD_XDICTIONARY
360
39A
102
}
102
{ACAD_REACTORS
330
2A
102
}
330
2A
100
AcDbVisualStyle
  2

 70
     2
 71
     2
 72
     2
 73
     1
 90
        2
 40
-0.6
 41
30.0
 62
     5
 63
     7
 74
     0
 91
        0
 64
     7
 65
   257
 75
     1
175
     1
 42
1.0
 92
        0
 66
     7
 43
1.0
 76
     1
 77
     6
 78
     2
 67
     7
 79
     5
170
     0
171
     0
290
     0
174
     0
 93
       13
 44
0.0
173
     0
291
     1
 45
0.0
1001
ACAD
1000
AcDbSavedByObjectVersion
1070
     0
  0
VISUALSTYLE
  5
2E
102
{ACAD_XDICTIONARY
360
39C
102
}
102
{ACAD_REACTORS
330
2A
102
}
330
2A
100
AcDbVisualStyle
  2

 70
     3
 71
     2
 72
     2
 73
     1
 90
        2
 40
-0.6
 41
30.0
 62
     5
 63
     7
 74
     1
 91
        0
 64
     7
 65
   257
 75
     1
175
     1
 42
1.0
 92
        0
 66
   257
 43
1.0
 76
     1
 77
     6
 78
     2
 67
     7
 79
     5
170
     0
171
     0
290
     0
174
     0
 93
       13
 44
0.0
173
     0
291
     1
 45
0.0
1001
ACAD
1000
AcDbSavedByObjectVersion
1070
     0
  0
VISUALSTYLE
  5
31
102
{ACAD_XDICTIONARY
360
3A2
102
}
102
{ACAD_REACTORS
330
2A
102
}
330
2A
100
AcDbVisualStyle
  2

 70
     6
 71
     1
 72
     2
 73
     2
 90
        0
 40
-0.6
 41
-30.0
 62
     5
 63
     7
 74
     2
 91
        2
 64
     7
 65
   257
 75
     2
175
     1
 42
40.0
 92
        0
 66
   257
 43
1.0
 76
     1
 77
     6
 78
     2
 67
     7
 79
     3
170
     0
171
     0
290
     0
174
     0
 93
        1
 44
0.0
173
     0
291
     0
 45
0.0
1001
ACAD
1000
AcDbSavedByObjectVersion
1070
     0
  0
VISUALSTYLE
  5
3B
102
{ACAD_XDICTIONARY
360
3B6
102
}
102
{ACAD_REACTORS
330
2A
102
}
330
2A
100
AcDbVisualStyle
  2

 70
    20
 71
     2
 72
     2
 73
     0
 90
        0
 40
-0.6
 41
-30.0
 62
     5
 63
     7
 74
     1
 91
        4
 64
     7
 65
   257
 75
     1
175
     1
 42
1.0
 92
       10
 66
     7
 43
1.0
 76
     1
 77
     6
 78
     2
 67
     7
 79
     5
170
     0
171
     0
290
     0
174
     0
 93
        1
 44
0.0
173
     0
291
     1
 45
0.0
1001
ACAD
1000
AcDbSavedByObjectVersion
1070
     0
  0
VISUALSTYLE
  5
38
102
{ACAD_XDICTIONARY
360
3B0
102
}
102
{ACAD_REACTORS
330
2A
102
}
330
2A
100
AcDbVisualStyle
  2

 70
    14
 71
     2
 72
     2
 73
     0
 90
        0
 40
-0.6
 41
-30.0
 62
     5
 63
     7
 74
     1
 91
        4
 64
     7
 65
   257
 75
     7
175
     7
 42
1.0
 92
        8
 66
     7
 43
1.0
 76
     1
 77
     6
 78
     2
 67
     7
 79
     5
170
     0
171
     0
290
     0
174
     0
 93
        1
 44
0.0
173
     0
291
     1
 45
0.0
1001
ACAD
1000
AcDbSavedByObjectVersion
1070
     0
  0
VISUALSTYLE
  5
3C
102
{ACAD_XDICTIONARY
360
3B8
102
}
102
{ACAD_REACTORS
330
2A
102
}
330
2A
100
AcDbVisualStyle
  2

 70
    21
 71
     2
 72
     2
 73
     0
 90
        0
 40
-0.6
 41
-30.0
 62
     5
 63
     7
 74
     1
 91
        4
 64
     7
 65
   257
 75
     1
175
     1
 42
1.0
 92
        9
 66
     7
 43
1.0
 76
     1
 77
     6
 78
     2
 67
     7
 79
     5
170
     0
171
     0
290
     0
174
     0
 93
        1
 44
0.0
173
     0
291
     1
 45
0.0
1001
ACAD
1000
AcDbSavedByObjectVersion
1070
     0
  0
VISUALSTYLE
  5
33
102
{ACAD_XDICTIONARY
360
3A6
102
}
102
{ACAD_REACTORS
330
2A
102
}
330
2A
100
AcDbVisualStyle
  2

 70
     8
 71
     2
 72
     3
 73
     0
 90
        2
 40
-0.6
 41
30.0
 62
     5
 63
     7
 74
     0
 91
        0
 64
     7
 65
   257
 75
     1
175
     1
 42
1.0
 92
        8
 66
   257
 43
1.0
 76
     1
 77
     6
 78
     2
 67
     7
 79
     3
170
     0
171
     0
290
     0
174
     0
 93
       13
 44
0.0
173
     0
291
     0
 45
0.0
1001
ACAD
1000
AcDbSavedByObjectVersion
1070
     0
  0
VISUALSTYLE
  5
42
102
{ACAD_XDICTIONARY
360
3C4
102
}
102
{ACAD_REACTORS
330
2A
102
}
330
2A
100
AcDbVisualStyle
  2

 70
    27
 71
     2
 72
     2
 73
     1
 90
        2
 40
-0.6
 41
30.0
 62
     5
 63
     7
 74
     0
 91
        4
 64
     7
 65
   257
 75
     1
175
     1
 42
1.0
 92
        8
 66
   257
 43
1.0
 76
     1
 77
     6
 78
     2
 67
     8
 79
     3
170
     0
171
     0
290
     0
174
     0
 93
        5
 44
0.0
173
     0
291
     0
 45
0.0
1001
ACAD
1000
AcDbSavedByObjectVersion
1070
     0
  0
VISUALSTYLE
  5
41
102
{ACAD_XDICTIONARY
360
3C2
102
}
102
{ACAD_REACTORS
330
2A
102
}
330
2A
100
AcDbVisualStyle
  2

 70
    26
 71
     2
 72
     2
 73
     1
 90
        2
 40
-0.6
 41
30.0
 62
     5
 63
     7
 74
     1
 91
        2
 64
     7
 65
   257
 75
     2
175
     1
 42
1.0
 92
        8
 66
   257
 43
1.0
 76
     1
 77
     6
 78
     2
 67
     7
 79
     3
170
     0
171
     0
290
     0
174
     0
 93
        5
 44
0.0
173
     0
291
     0
 45
0.0
1001
ACAD
1000
AcDbSavedByObjectVersion
1070
     0
  0
VISUALSTYLE
  5
3E
102
{ACAD_XDICTIONARY
360
3BC
102
}
102
{ACAD_REACTORS
330
2A
102
}
330
2A
100
AcDbVisualStyle
  2

 70
    23
 71
     2
 72
     2
 73
     3
 90
        0
 40
-0.6
 41
-30.0
 62
     5
 63
     7
 74
     2
 91
        2
 64
     7
 65
     7
 75
     1
175
     1
 42
40.0
 92
        8
 66
     7
 43
1.0
 76
     1
 77
     6
 78
     2
 67
     7
 79
     3
170
     0
171
     0
290
     0
174
     0
 93
        1
 44
0.0
173
     0
291
     0
 45
0.0
1001
ACAD
1000
AcDbSavedByObjectVersion
1070
     0
  0
VISUALSTYLE
  5
3F
102
{ACAD_XDICTIONARY
360
3BE
102
}
102
{ACAD_REACTORS
330
2A
102
}
330
2A
100
AcDbVisualStyle
  2

 70
    24
 71
     1
 72
     2
 73
     2
 90
        0
 40
-0.6
 41
-30.0
 62
     5
 63
     7
 74
     2
 91
        2
 64
     7
 65
     7
 75
     1
175
     1
 42
40.0
 92
       11
 66
     7
 43
1.0
 76
     1
 77
     6
 78
     2
 67
     7
 79
     6
170
     0
171
     0
290
     0
174
     0
 93
        1
 44
0.0
173
     0
291
     0
 45
0.0
1001
ACAD
1000
AcDbSavedByObjectVersion
1070
     0
  0
VISUALSTYLE
  5
37
102
{ACAD_XDICTIONARY
360
3AE
102
}
102
{ACAD_REACTORS
330
2A
102
}
330
2A
100
AcDbVisualStyle
  2

 70
    13
 71
     2
 72
     2
 73
     0
 90
        0
 40
-0.6
 41
-30.0
 62
     5
 63
     7
 74
     1
 91
        4
 64
     7
 65
   257
 75
     1
175
     1
 42
1.0
 92
       12
 66
     7
 43
1.0
 76
     1
 77
     6
 78
     2
 67
     7
 79
     5
170
     0
171
     0
290
     0
174
     0
 93
        1
 44
0.0
173
     0
291
     1
 45
0.0
1001
ACAD
1000
AcDbSavedByObjectVersion
1070
     0
  0
VISUALSTYLE
  5
30
102
{ACAD_XDICTIONARY
360
3A0
102
}
102
{ACAD_REACTORS
330
2A
102
}
330
2A
100
AcDbVisualStyle
  2

 70
     5
 71
     0
 72
     2
 73
     0
 90
        0
 40
-0.6
 41
-30.0
 62
     5
 63
     7
 74
     1
 91
        4
 64
     7
 65
   257
 75
     1
175
     1
 42
1.0
 92
        0
 66
   257
 43
1.0
 76
     1
 77
     6
 78
     2
 67
     7
 79
     3
170
     0
171
     0
290
     0
174
     0
 93
        1
 44
0.0
173
     0
291
     0
 45
0.0
1001
ACAD
1000
AcDbSavedByObjectVersion
1070
     0
  0
VISUALSTYLE
  5
40
102
{ACAD_XDICTIONARY
360
3C0
102
}
102
{ACAD_REACTORS
330
2A
102
}
330
2A
100
AcDbVisualStyle
  2

 70
    25
 71
     2
 72
     2
 73
     1
 90
        1
 40
0.5
 41
-30.0
 62
     5
 63
     7
 74
     1
 91
        0
 64
     7
 65
   257
 75
     1
175
     1
 42
1.0
 92
        8
 66
     7
 43
1.0
 76
     1
 77
     6
 78
     2
 67
     7
 79
     3
170
     0
171
     0
290
     0
174
     0
 93
       13
 44
0.0
173
     0
291
     0
 45
0.0
1001
ACAD
1000
AcDbSavedByObjectVersion
1070
     0
  0
DICTIONARYVAR
  5
23B
102
{ACAD_REACTORS
330
23A
102
}
330
23A
100
DictionaryVariables
280
     0
  1
1:1
  0
DICTIONARYVAR
  5
27C
102
{ACAD_REACTORS
330
23A
102
}
330
23A
100
DictionaryVariables
280
     0
  1
STANDARD
  0
DICTIONARYVAR
  5
27B
102
{ACAD_REACTORS
330
23A
102
}
330
23A
100
DictionaryVariables
280
     0
  1
STANDARD
  0
DICTIONARYVAR
  5
386
102
{ACAD_REACTORS
330
23A
102
}
330
23A
100
DictionaryVariables
280
     0
  1
Metric50
  0
DICTIONARYVAR
  5
387
102
{ACAD_REACTORS
330
23A
102
}
330
23A
100
DictionaryVariables
280
     0
  1
Metric50
  0
DICTIONARYVAR
  5
38B
102
{ACAD_REACTORS
330
23A
102
}
330
23A
100
DictionaryVariables
280
     0
  1
2
  0
DICTIONARYVAR
  5
38A
102
{ACAD_REACTORS
330
23A
102
}
330
23A
100
DictionaryVariables
280
     0
  1
1
  0
DICTIONARYVAR
  5
389
102
{ACAD_REACTORS
330
23A
102
}
330
23A
100
DictionaryVariables
280
     0
  1
0
  0
DICTIONARYVAR
  5
23C
102
{ACAD_REACTORS
330
23A
102
}
330
23A
100
DictionaryVariables
280
     0
  1
1
  0
DICTIONARYVAR
  5
388
102
{ACAD_REACTORS
330
23A
102
}
330
23A
100
DictionaryVariables
280
     0
  1
127
  0
DICTIONARYVAR
  5
38C
102
{ACAD_REACTORS
330
23A
102
}
330
23A
100
DictionaryVariables
280
     0
  1
2
  0
DICTIONARY
  5
3C9
330
283
100
AcDbDictionary
280
     1
281
     1
  3
ACAD_XREC_ROUNDTRIP
360
3CA
  0
DICTIONARY
  5
390
330
1E
100
AcDbDictionary
280
     1
281
     1
  3
ACAD_XREC_ROUNDTRIP
360
391
  0
DICTIONARY
  5
394
330
26
100
AcDbDictionary
280
     1
281
     1
  3
ACAD_XREC_ROUNDTRIP
360
395
  0
DICTIONARY
  5
392
330
22
100
AcDbDictionary
280
     1
281
     1
  3
ACAD_XREC_ROUNDTRIP
360
393
  0
DICTIONARY
  5
270
330
45
100
AcDbDictionary
280
     1
281
     1
  3
ACAD_XREC_ROUNDTRIP
360
271
  0
DICTIONARY
  5
26E
330
44
100
AcDbDictionary
280
     1
281
     1
  3
ACAD_XREC_ROUNDTRIP
360
26F
  0
DICTIONARY
  5
272
330
46
100
AcDbDictionary
280
     1
281
     1
  3
ACAD_XREC_ROUNDTRIP
360
273
  0
XRECORD
  5
3CD
102
{ACAD_REACTORS
330
3CC
102
}
330
3CC
100
AcDbXrecord
280
     1
 70
     2
 71
     3
 72
     0
  0
DICTIONARY
  5
3C7
330
282
100
AcDbDictionary
280
     1
281
     1
  3
ACAD_XREC_ROUNDTRIP
360
3C8
  0
DICTIONARY
  5
274
330
6A
100
AcDbDictionary
280
     1
281
     1
  3
ACAD_ROUNDTRIP_2008_TABLESTYLE_CELLSTYLEMAP
360
38D
  3
ACAD_XREC_ROUNDTRIP
360
3C6
  0
DICTIONARY
  5
39E
330
2F
100
AcDbDictionary
280
     1
281
     1
  3
ACAD_XREC_ROUNDTRIP
360
39F
  0
DICTIONARY
  5
3A4
330
32
100
AcDbDictionary
280
     1
281
     1
  3
ACAD_XREC_ROUNDTRIP
360
3A5
  0
DICTIONARY
  5
3AC
330
36
100
AcDbDictionary
280
     1
281
     1
  3
ACAD_XREC_ROUNDTRIP
360
3AD
  0
DICTIONARY
  5
3B4
330
3A
100
AcDbDictionary
280
     1
281
     1
  3
ACAD_XREC_ROUNDTRIP
360
3B5
  0
DICTIONARY
  5
3A8
330
34
100
AcDbDictionary
280
     1
281
     1
  3
ACAD_XREC_ROUNDTRIP
360
3A9
  0
DICTIONARY
  5
3AA
330
35
100
AcDbDictionary
280
     1
281
     1
  3
ACAD_XREC_ROUNDTRIP
360
3AB
  0
DICTIONARY
  5
3BA
330
3D
100
AcDbDictionary
280
     1
281
     1
  3
ACAD_XREC_ROUNDTRIP
360
3BB
  0
DICTIONARY
  5
3B2
330
39
100
AcDbDictionary
280
     1
281
     1
  3
ACAD_XREC_ROUNDTRIP
360
3B3
  0
DICTIONARY
  5
396
330
2B
100
AcDbDictionary
280
     1
281
     1
  3
ACAD_XREC_ROUNDTRIP
360
397
  0
DICTIONARY
  5
398
330
2C
100
AcDbDictionary
280
     1
281
     1
  3
ACAD_XREC_ROUNDTRIP
360
399
  0
DICTIONARY
  5
39A
330
2D
100
AcDbDictionary
280
     1
281
     1
  3
ACAD_XREC_ROUNDTRIP
360
39B
  0
DICTIONARY
  5
39C
330
2E
100
AcDbDictionary
280
     1
281
     1
  3
ACAD_XREC_ROUNDTRIP
360
39D
  0
DICTIONARY
  5
3A2
330
31
100
AcDbDictionary
280
     1
281
     1
  3
ACAD_XREC_ROUNDTRIP
360
3A3
  0
DICTIONARY
  5
3B6
330
3B
100
AcDbDictionary
280
     1
281
     1
  3
ACAD_XREC_ROUNDTRIP
360
3B7
  0
DICTIONARY
  5
3B0
330
38
100
AcDbDictionary
280
     1
281
     1
  3
ACAD_XREC_ROUNDTRIP
360
3B1
  0
DICTIONARY
  5
3B8
330
3C
100
AcDbDictionary
280
     1
281
     1
  3
ACAD_XREC_ROUNDTRIP
360
3B9
  0
DICTIONARY
  5
3A6
330
33
100
AcDbDictionary
280
     1
281
     1
  3
ACAD_XREC_ROUNDTRIP
360
3A7
  0
DICTIONARY
  5
3C4
330
42
100
AcDbDictionary
280
     1
281
     1
  3
ACAD_XREC_ROUNDTRIP
360
3C5
  0
DICTIONARY
  5
3C2
330
41
100
AcDbDictionary
280
     1
281
     1
  3
ACAD_XREC_ROUNDTRIP
360
3C3
  0
DICTIONARY
  5
3BC
330
3E
100
AcDbDictionary
280
     1
281
     1
  3
ACAD_XREC_ROUNDTRIP
360
3BD
  0
DICTIONARY
  5
3BE
330
3F
100
AcDbDictionary
280
     1
281
     1
  3
ACAD_XREC_ROUNDTRIP
360
3BF
  0
DICTIONARY
  5
3AE
330
37
100
AcDbDictionary
280
     1
281
     1
  3
ACAD_XREC_ROUNDTRIP
360
3AF
  0
DICTIONARY
  5
3A0
330
30
100
AcDbDictionary
280
     1
281
     1
  3
ACAD_XREC_ROUNDTRIP
360
3A1
  0
DICTIONARY
  5
3C0
330
40
100
AcDbDictionary
280
     1
281
     1
  3
ACAD_XREC_ROUNDTRIP
360
3C1
  0
XRECORD
  5
3CA
102
{ACAD_REACTORS
330
3C9
102
}
330
3C9
100
AcDbXrecord
280
     1
102
DISPLAYNAME
  1
Metric50
102
FLAGS
 90
        0
  0
XRECORD
  5
391
102
{ACAD_REACTORS
330
390
102
}
330
390
100
AcDbXrecord
280
     1
102
SHADEPLOT
 70
     0
102
SHADEPLOTRESLEVEL
 70
     2
102
SHADEPLOTCUSTOMDPI
 70
   300
  0
XRECORD
  5
395
102
{ACAD_REACTORS
330
394
102
}
330
394
100
AcDbXrecord
280
     1
102
SHADEPLOT
 70
     0
102
SHADEPLOTRESLEVEL
 70
     2
102
SHADEPLOTCUSTOMDPI
 70
   300
  0
XRECORD
  5
393
102
{ACAD_REACTORS
330
392
102
}
330
392
100
AcDbXrecord
280
     1
102
SHADEPLOT
 70
     0
102
SHADEPLOTRESLEVEL
 70
     2
102
SHADEPLOTCUSTOMDPI
 70
   300
  0
XRECORD
  5
271
102
{ACAD_REACTORS
330
270
102
}
330
270
100
AcDbXrecord
280
     1
102
MATERIAL
148
0.0
149
0.0
149
0.0
 93
        0
 94
      127
282
     0
 72
     1
 77
     1
171
     1
175
     1
179
     1
273
     0
  0
XRECORD
  5
26F
102
{ACAD_REACTORS
330
26E
102
}
330
26E
100
AcDbXrecord
280
     1
102
MATERIAL
148
0.0
149
0.0
149
0.0
 93
        0
 94
      127
282
     0
 72
     1
 77
     1
171
     1
175
     1
179
     1
273
     0
  0
XRECORD
  5
273
102
{ACAD_REACTORS
330
272
102
}
330
272
100
AcDbXrecord
280
     1
102
MATERIAL
148
0.0
149
0.0
149
0.0
 93
        0
 94
      127
282
     0
 72
     1
 77
     1
171
     1
175
     1
179
     1
273
     0
  0
XRECORD
  5
3C8
102
{ACAD_REACTORS
330
3C7
102
}
330
3C7
100
AcDbXrecord
280
     1
102
DISPLAYNAME
  1
Metric50
102
FLAGS
 90
        0
  0
CELLSTYLEMAP
  5
38D
102
{ACAD_REACTORS
330
274
102
}
330
274
100
AcDbCellStyleMap
 90
        3
300
CELLSTYLE
  1
TABLEFORMAT_BEGIN
 90
        5
170
     1
 91
        0
 92
    32768
 62
   257
 93
        1
300
CONTENTFORMAT
  1
CONTENTFORMAT_BEGIN
 90
        0
 91
        0
 92
        4
 93
        0
300

 40
0.0
140
1.0
 94
        5
 62
     0
340
11
144
0.25
309
CONTENTFORMAT_END
171
     1
301
MARGIN
  1
CELLMARGIN_BEGIN
 40
0.06
 40
0.06
 40
0.06
 40
0.06
 40
0.18
 40
0.18
309
CELLMARGIN_END
 94
        6
 95
        1
302
GRIDFORMAT
  1
GRIDFORMAT_BEGIN
 90
        0
 91
        1
 62
     0
 92
       -2
340
14
 93
        0
 40
0.045
309
GRIDFORMAT_END
 95
        2
302
GRIDFORMAT
  1
GRIDFORMAT_BEGIN
 90
        0
 91
        1
 62
     0
 92
       -2
340
14
 93
        0
 40
0.045
309
GRIDFORMAT_END
 95
        4
302
GRIDFORMAT
  1
GRIDFORMAT_BEGIN
 90
        0
 91
        1
 62
     0
 92
       -2
340
14
 93
        0
 40
0.045
309
GRIDFORMAT_END
 95
        8
302
GRIDFORMAT
  1
GRIDFORMAT_BEGIN
 90
        0
 91
        1
 62
     0
 92
       -2
340
14
 93
        0
 40
0.045
309
GRIDFORMAT_END
 95
       16
302
GRIDFORMAT
  1
GRIDFORMAT_BEGIN
 90
        0
 91
        1
 62
     0
 92
       -2
340
14
 93
        0
 40
0.045
309
GRIDFORMAT_END
 95
       32
302
GRIDFORMAT
  1
GRIDFORMAT_BEGIN
 90
        0
 91
        1
 62
     0
 92
       -2
340
14
 93
        0
 40
0.045
309
GRIDFORMAT_END
309
TABLEFORMAT_END
  1
CELLSTYLE_BEGIN
 90
        1
 91
        1
300
_TITLE
309
CELLSTYLE_END
300
CELLSTYLE
  1
TABLEFORMAT_BEGIN
 90
        5
170
     1
 91
        0
 92
        0
 62
   257
 93
        1
300
CONTENTFORMAT
  1
CONTENTFORMAT_BEGIN
 90
        0
 91
        0
 92
        4
 93
        0
300

 40
0.0
140
1.0
 94
        5
 62
     0
340
11
144
0.18
309
CONTENTFORMAT_END
171
     1
301
MARGIN
  1
CELLMARGIN_BEGIN
 40
0.06
 40
0.06
 40
0.06
 40
0.06
 40
0.18
 40
0.18
309
CELLMARGIN_END
 94
        6
 95
        1
302
GRIDFORMAT
  1
GRIDFORMAT_BEGIN
 90
        0
 91
        1
 62
     0
 92
       -2
340
14
 93
        0
 40
0.045
309
GRIDFORMAT_END
 95
        2
302
GRIDFORMAT
  1
GRIDFORMAT_BEGIN
 90
        0
 91
        1
 62
     0
 92
       -2
340
14
 93
        0
 40
0.045
309
GRIDFORMAT_END
 95
        4
302
GRIDFORMAT
  1
GRIDFORMAT_BEGIN
 90
        0
 91
        1
 62
     0
 92
       -2
340
14
 93
        0
 40
0.045
309
GRIDFORMAT_END
 95
        8
302
GRIDFORMAT
  1
GRIDFORMAT_BEGIN
 90
        0
 91
        1
 62
     0
 92
       -2
340
14
 93
        0
 40
0.045
309
GRIDFORMAT_END
 95
       16
302
GRIDFORMAT
  1
GRIDFORMAT_BEGIN
 90
        0
 91
        1
 62
     0
 92
       -2
340
14
 93
        0
 40
0.045
309
GRIDFORMAT_END
 95
       32
302
GRIDFORMAT
  1
GRIDFORMAT_BEGIN
 90
        0
 91
        1
 62
     0
 92
       -2
340
14
 93
        0
 40
0.045
309
GRIDFORMAT_END
309
TABLEFORMAT_END
  1
CELLSTYLE_BEGIN
 90
        2
 91
        1
300
_HEADER
309
CELLSTYLE_END
300
CELLSTYLE
  1
TABLEFORMAT_BEGIN
 90
        5
170
     1
 91
        0
 92
        0
 62
   257
 93
        1
300
CONTENTFORMAT
  1
CONTENTFORMAT_BEGIN
 90
        0
 91
        0
 92
        4
 93
        0
300

 40
0.0
140
1.0
 94
        2
 62
     0
340
11
144
0.18
309
CONTENTFORMAT_END
171
     1
301
MARGIN
  1
CELLMARGIN_BEGIN
 40
0.06
 40
0.06
 40
0.06
 40
0.06
 40
0.18
 40
0.18
309
CELLMARGIN_END
 94
        6
 95
        1
302
GRIDFORMAT
  1
GRIDFORMAT_BEGIN
 90
        0
 91
        1
 62
     0
 92
       -2
340
14
 93
        0
 40
0.045
309
GRIDFORMAT_END
 95
        2
302
GRIDFORMAT
  1
GRIDFORMAT_BEGIN
 90
        0
 91
        1
 62
     0
 92
       -2
340
14
 93
        0
 40
0.045
309
GRIDFORMAT_END
 95
        4
302
GRIDFORMAT
  1
GRIDFORMAT_BEGIN
 90
        0
 91
        1
 62
     0
 92
       -2
340
14
 93
        0
 40
0.045
309
GRIDFORMAT_END
 95
        8
302
GRIDFORMAT
  1
GRIDFORMAT_BEGIN
 90
        0
 91
        1
 62
     0
 92
       -2
340
14
 93
        0
 40
0.045
309
GRIDFORMAT_END
 95
       16
302
GRIDFORMAT
  1
GRIDFORMAT_BEGIN
 90
        0
 91
        1
 62
     0
 92
       -2
340
14
 93
        0
 40
0.045
309
GRIDFORMAT_END
 95
       32
302
GRIDFORMAT
  1
GRIDFORMAT_BEGIN
 90
        0
 91
        1
 62
     0
 92
       -2
340
14
 93
        0
 40
0.045
309
GRIDFORMAT_END
309
TABLEFORMAT_END
  1
CELLSTYLE_BEGIN
 90
        3
 91
        2
300
_DATA
309
CELLSTYLE_END
  0
XRECORD
  5
3C6
102
{ACAD_REACTORS
330
274
102
}
330
274
100
AcDbXrecord
280
     1
102
ACAD_ROUNDTRIP_PRE2007_TABLESTYLE
 90
        4
 91
        0
  1

 92
        4
 93
        0
  2

 94
        4
 95
        0
  3

  0
XRECORD
  5
39F
102
{ACAD_REACTORS
330
39E
102
}
330
39E
100
AcDbXrecord
280
     1
102
RTVSPost2010Prop28
280
     1
102
RTVSPost2010PropOp28
 70
     1
102
RTVSPost2010Prop29
280
     1
102
RTVSPost2010PropOp29
 70
     1
102
RTVSPost2010Prop30
280
     0
102
RTVSPost2010PropOp30
 70
     1
102
RTVSPost2010Prop31
280
     0
102
RTVSPost2010PropOp31
 70
     1
102
RTVSPost2010Prop32
280
     0
102
RTVSPost2010PropOp32
 70
     1
102
RTVSPost2010Prop33
280
     0
102
RTVSPost2010PropOp33
 70
     1
102
RTVSPost2010Prop34
280
     0
102
RTVSPost2010PropOp34
 70
     1
102
RTVSPost2010Prop35
280
     0
102
RTVSPost2010PropOp35
 70
     1
102
RTVSPost2010Prop36
280
     0
102
RTVSPost2010PropOp36
 70
     1
102
RTVSPost2010Prop37
 90
       50
102
RTVSPost2010PropOp37
 70
     1
102
RTVSPost2010Prop38
140
0.0
102
RTVSPost2010PropOp38
 70
     1
102
RTVSPost2010Prop39
140
1.0
102
RTVSPost2010PropOp39
 70
     1
102
RTVSPost2010Prop40
 90
        0
102
RTVSPost2010PropOp40
 70
     1
102
RTVSPost2010Prop41ColorIndex
 90
       18
102
RTVSPost2010Prop41ColorRGB
 90
        0
102
RTVSPost2010PropOp41
 70
     1
102
RTVSPost2010Prop42
 90
       50
102
RTVSPost2010PropOp42
 70
     1
102
RTVSPost2010Prop43
 90
        3
102
RTVSPost2010PropOp43
 70
     1
102
RTVSPost2010Prop44ColorIndex
 90
        5
102
RTVSPost2010Prop44ColorRGB
 90
      255
102
RTVSPost2010PropOp44
 70
     1
102
RTVSPost2010Prop45
280
     0
102
RTVSPost2010PropOp45
 70
     1
102
RTVSPost2010Prop46
 90
       50
102
RTVSPost2010PropOp46
 70
     1
102
RTVSPost2010Prop47
 90
       50
102
RTVSPost2010PropOp47
 70
     1
102
RTVSPost2010Prop48
 90
       50
102
RTVSPost2010PropOp48
 70
     1
102
RTVSPost2010Prop49
280
     0
102
RTVSPost2010PropOp49
 70
     1
102
RTVSPost2010Prop50
 90
       50
102
RTVSPost2010PropOp50
 70
     1
102
RTVSPost2010Prop51ColorIndex
 90
      256
102
RTVSPost2010Prop51ColorRGB
 90
-16777216
102
RTVSPost2010PropOp51
 70
     0
102
RTVSPost2010Prop52
140
1.0
102
RTVSPost2010PropOp52
 70
     0
102
RTVSPost2010Prop53
 90
        2
102
RTVSPost2010PropOp53
 70
     1
102
RTVSPost2010Prop54
  1
strokes_ogs.tif
102
RTVSPost2010PropOp54
 70
     1
102
RTVSPost2010Prop55
280
     0
102
RTVSPost2010PropOp55
 70
     1
102
RTVSPost2010Prop56
140
1.0
102
RTVSPost2010PropOp56
 70
     1
102
RTVSPost2010Prop57
140
1.0
102
RTVSPost2010PropOp57
 70
     1
102
RTVSPropertyOp0
 70
     1
102
RTVSPropertyOp1
 70
     1
102
RTVSPropertyOp2
 70
     1
102
RTVSPropertyOp3
 70
     1
102
RTVSPropertyOp4
 70
     1
102
RTVSPropertyOp5
 70
     1
102
RTVSPropertyOp6
 70
     1
102
RTVSPropertyOp7
 70
     1
102
RTVSPropertyOp8
 70
     1
102
RTVSPropertyOp9
 70
     1
102
RTVSPropertyOp10
 70
     1
102
RTVSPropertyOp11
 70
     1
102
RTVSPropertyOp12
 70
     1
102
RTVSPropertyOp13
 70
     1
102
RTVSPropertyOp14
 70
     1
102
RTVSPropertyOp15
 70
     1
102
RTVSPropertyOp16
 70
     1
102
RTVSPropertyOp17
 70
     1
102
RTVSPropertyOp18
 70
     1
102
RTVSPropertyOp19
 70
     1
102
RTVSPropertyOp20
 70
     1
102
RTVSPropertyOp21
 70
     1
102
RTVSPropertyOp22
 70
     1
102
RTVSPropertyOp23
 70
     1
102
RTVSPropertyOp24
 70
     1
102
RTVSPropertyOp25
 70
     1
102
RTVSPropertyOp26
 70
     1
102
RTVSPropertyOp27
 70
     1
102
RTVSPropertyOp28
 70
     1
102
RTVSPropertyOp29
 70
     1
102
RTVSPropertyOp30
 70
     1
102
RTVSPropertyOp31
 70
     1
102
RTVSPropertyOp32
 70
     1
102
RTVSPropertyOp33
 70
     1
102
RTVSPropertyOp34
 70
     1
102
RTVSPropertyOp35
 70
     1
102
RTVSPropertyOp36
 70
     1
102
RTVSPropertyOp37
 70
     1
102
RTVSPropertyOp38
 70
     1
102
RTVSPropertyOp39
 70
     1
102
RTVSPropertyOp40
 70
     1
102
RTVSPropertyOp41
 70
     1
102
RTVSPropertyOp42
 70
     1
102
RTVSPropertyOp43
 70
     1
102
RTVSPropertyOp44
 70
     1
102
RTVSPropertyOp45
 70
     1
102
RTVSPropertyOp46
 70
     1
102
RTVSPropertyOp47
 70
     1
102
RTVSPropertyOp48
 70
     1
102
RTVSPropertyOp49
 70
     1
102
RTVSPropertyOp50
 70
     1
102
RTVSPropertyOp51
 70
     0
102
RTVSPropertyOp52
 70
     0
102
RTVSPropertyOp53
 70
     1
102
RTVSPropertyOp54
 70
     1
102
RTVSPropertyOp55
 70
     1
102
RTVSPropertyOp56
 70
     1
102
RTVSPropertyOp57
 70
     1
102
RTVSPropertyOp58
 70
     1
102
RTVSPropertyOp59
 70
     1
102
RTVSPropertyOp60
 70
     1
102
RTVSPropertyOp61
 70
     1
102
RTVSPropertyOp62
 70
     1
  0
XRECORD
  5
3A5
102
{ACAD_REACTORS
330
3A4
102
}
330
3A4
100
AcDbXrecord
280
     1
102
RTVSPost2010Prop28
280
     0
102
RTVSPost2010PropOp28
 70
     1
102
RTVSPost2010Prop29
280
     1
102
RTVSPost2010PropOp29
 70
     1
102
RTVSPost2010Prop30
280
     1
102
RTVSPost2010PropOp30
 70
     1
102
RTVSPost2010Prop31
280
     0
102
RTVSPost2010PropOp31
 70
     1
102
RTVSPost2010Prop32
280
     0
102
RTVSPost2010PropOp32
 70
     1
102
RTVSPost2010Prop33
280
     0
102
RTVSPost2010PropOp33
 70
     1
102
RTVSPost2010Prop34
280
     0
102
RTVSPost2010PropOp34
 70
     1
102
RTVSPost2010Prop35
280
     0
102
RTVSPost2010PropOp35
 70
     1
102
RTVSPost2010Prop36
280
     0
102
RTVSPost2010PropOp36
 70
     1
102
RTVSPost2010Prop37
 90
       50
102
RTVSPost2010PropOp37
 70
     1
102
RTVSPost2010Prop38
140
0.0
102
RTVSPost2010PropOp38
 70
     1
102
RTVSPost2010Prop39
140
1.0
102
RTVSPost2010PropOp39
 70
     1
102
RTVSPost2010Prop40
 90
        0
102
RTVSPost2010PropOp40
 70
     1
102
RTVSPost2010Prop41ColorIndex
 90
       18
102
RTVSPost2010Prop41ColorRGB
 90
        0
102
RTVSPost2010PropOp41
 70
     1
102
RTVSPost2010Prop42
 90
       50
102
RTVSPost2010PropOp42
 70
     1
102
RTVSPost2010Prop43
 90
        3
102
RTVSPost2010PropOp43
 70
     1
102
RTVSPost2010Prop44ColorIndex
 90
        5
102
RTVSPost2010Prop44ColorRGB
 90
      255
102
RTVSPost2010PropOp44
 70
     1
102
RTVSPost2010Prop45
280
     0
102
RTVSPost2010PropOp45
 70
     1
102
RTVSPost2010Prop46
 90
       50
102
RTVSPost2010PropOp46
 70
     1
102
RTVSPost2010Prop47
 90
       50
102
RTVSPost2010PropOp47
 70
     1
102
RTVSPost2010Prop48
 90
       50
102
RTVSPost2010PropOp48
 70
     1
102
RTVSPost2010Prop49
280
     0
102
RTVSPost2010PropOp49
 70
     1
102
RTVSPost2010Prop50
 90
       50
102
RTVSPost2010PropOp50
 70
     1
102
RTVSPost2010Prop51ColorIndex
 90
      256
102
RTVSPost2010Prop51ColorRGB
 90
-16777216
102
RTVSPost2010PropOp51
 70
     0
102
RTVSPost2010Prop52
140
1.0
102
RTVSPost2010PropOp52
 70
     0
102
RTVSPost2010Prop53
 90
        2
102
RTVSPost2010PropOp53
 70
     1
102
RTVSPost2010Prop54
  1
strokes_ogs.tif
102
RTVSPost2010PropOp54
 70
     1
102
RTVSPost2010Prop55
280
     0
102
RTVSPost2010PropOp55
 70
     1
102
RTVSPost2010Prop56
140
1.0
102
RTVSPost2010PropOp56
 70
     1
102
RTVSPost2010Prop57
140
1.0
102
RTVSPost2010PropOp57
 70
     1
102
RTVSPropertyOp0
 70
     1
102
RTVSPropertyOp1
 70
     1
102
RTVSPropertyOp2
 70
     1
102
RTVSPropertyOp3
 70
     1
102
RTVSPropertyOp4
 70
     1
102
RTVSPropertyOp5
 70
     1
102
RTVSPropertyOp6
 70
     1
102
RTVSPropertyOp7
 70
     1
102
RTVSPropertyOp8
 70
     1
102
RTVSPropertyOp9
 70
     1
102
RTVSPropertyOp10
 70
     1
102
RTVSPropertyOp11
 70
     1
102
RTVSPropertyOp12
 70
     1
102
RTVSPropertyOp13
 70
     1
102
RTVSPropertyOp14
 70
     1
102
RTVSPropertyOp15
 70
     1
102
RTVSPropertyOp16
 70
     1
102
RTVSPropertyOp17
 70
     1
102
RTVSPropertyOp18
 70
     1
102
RTVSPropertyOp19
 70
     1
102
RTVSPropertyOp20
 70
     1
102
RTVSPropertyOp21
 70
     1
102
RTVSPropertyOp22
 70
     1
102
RTVSPropertyOp23
 70
     1
102
RTVSPropertyOp24
 70
     1
102
RTVSPropertyOp25
 70
     1
102
RTVSPropertyOp26
 70
     1
102
RTVSPropertyOp27
 70
     1
102
RTVSPropertyOp28
 70
     1
102
RTVSPropertyOp29
 70
     1
102
RTVSPropertyOp30
 70
     1
102
RTVSPropertyOp31
 70
     1
102
RTVSPropertyOp32
 70
     1
102
RTVSPropertyOp33
 70
     1
102
RTVSPropertyOp34
 70
     1
102
RTVSPropertyOp35
 70
     1
102
RTVSPropertyOp36
 70
     1
102
RTVSPropertyOp37
 70
     1
102
RTVSPropertyOp38
 70
     1
102
RTVSPropertyOp39
 70
     1
102
RTVSPropertyOp40
 70
     1
102
RTVSPropertyOp41
 70
     1
102
RTVSPropertyOp42
 70
     1
102
RTVSPropertyOp43
 70
     1
102
RTVSPropertyOp44
 70
     1
102
RTVSPropertyOp45
 70
     1
102
RTVSPropertyOp46
 70
     1
102
RTVSPropertyOp47
 70
     1
102
RTVSPropertyOp48
 70
     1
102
RTVSPropertyOp49
 70
     1
102
RTVSPropertyOp50
 70
     1
102
RTVSPropertyOp51
 70
     0
102
RTVSPropertyOp52
 70
     0
102
RTVSPropertyOp53
 70
     1
102
RTVSPropertyOp54
 70
     1
102
RTVSPropertyOp55
 70
     1
102
RTVSPropertyOp56
 70
     1
102
RTVSPropertyOp57
 70
     1
102
RTVSPropertyOp58
 70
     1
102
RTVSPropertyOp59
 70
     1
102
RTVSPropertyOp60
 70
     1
102
RTVSPropertyOp61
 70
     1
102
RTVSPropertyOp62
 70
     1
  0
XRECORD
  5
3AD
102
{ACAD_REACTORS
330
3AC
102
}
330
3AC
100
AcDbXrecord
280
     1
102
RTVSPost2010Prop28
280
     0
102
RTVSPost2010PropOp28
 70
     1
102
RTVSPost2010Prop29
280
     1
102
RTVSPost2010PropOp29
 70
     1
102
RTVSPost2010Prop30
280
     1
102
RTVSPost2010PropOp30
 70
     1
102
RTVSPost2010Prop31
280
     0
102
RTVSPost2010PropOp31
 70
     1
102
RTVSPost2010Prop32
280
     0
102
RTVSPost2010PropOp32
 70
     1
102
RTVSPost2010Prop33
280
     0
102
RTVSPost2010PropOp33
 70
     1
102
RTVSPost2010Prop34
280
     0
102
RTVSPost2010PropOp34
 70
     1
102
RTVSPost2010Prop35
280
     0
102
RTVSPost2010PropOp35
 70
     1
102
RTVSPost2010Prop36
280
     0
102
RTVSPost2010PropOp36
 70
     1
102
RTVSPost2010Prop37
 90
       50
102
RTVSPost2010PropOp37
 70
     1
102
RTVSPost2010Prop38
140
0.0
102
RTVSPost2010PropOp38
 70
     1
102
RTVSPost2010Prop39
140
1.0
102
RTVSPost2010PropOp39
 70
     1
102
RTVSPost2010Prop40
 90
        0
102
RTVSPost2010PropOp40
 70
     1
102
RTVSPost2010Prop41ColorIndex
 90
       18
102
RTVSPost2010Prop41ColorRGB
 90
        0
102
RTVSPost2010PropOp41
 70
     1
102
RTVSPost2010Prop42
 90
       50
102
RTVSPost2010PropOp42
 70
     1
102
RTVSPost2010Prop43
 90
        3
102
RTVSPost2010PropOp43
 70
     1
102
RTVSPost2010Prop44ColorIndex
 90
        5
102
RTVSPost2010Prop44ColorRGB
 90
      255
102
RTVSPost2010PropOp44
 70
     1
102
RTVSPost2010Prop45
280
     0
102
RTVSPost2010PropOp45
 70
     1
102
RTVSPost2010Prop46
 90
       50
102
RTVSPost2010PropOp46
 70
     1
102
RTVSPost2010Prop47
 90
       50
102
RTVSPost2010PropOp47
 70
     1
102
RTVSPost2010Prop48
 90
       50
102
RTVSPost2010PropOp48
 70
     1
102
RTVSPost2010Prop49
280
     0
102
RTVSPost2010PropOp49
 70
     1
102
RTVSPost2010Prop50
 90
       50
102
RTVSPost2010PropOp50
 70
     1
102
RTVSPost2010Prop51ColorIndex
 90
      256
102
RTVSPost2010Prop51ColorRGB
 90
-16777216
102
RTVSPost2010PropOp51
 70
     0
102
RTVSPost2010Prop52
140
1.0
102
RTVSPost2010PropOp52
 70
     0
102
RTVSPost2010Prop53
 90
        2
102
RTVSPost2010PropOp53
 70
     1
102
RTVSPost2010Prop54
  1
strokes_ogs.tif
102
RTVSPost2010PropOp54
 70
     1
102
RTVSPost2010Prop55
280
     0
102
RTVSPost2010PropOp55
 70
     1
102
RTVSPost2010Prop56
140
1.0
102
RTVSPost2010PropOp56
 70
     1
102
RTVSPost2010Prop57
140
1.0
102
RTVSPost2010PropOp57
 70
     1
102
RTVSPropertyOp0
 70
     1
102
RTVSPropertyOp1
 70
     1
102
RTVSPropertyOp2
 70
     1
102
RTVSPropertyOp3
 70
     1
102
RTVSPropertyOp4
 70
     1
102
RTVSPropertyOp5
 70
     1
102
RTVSPropertyOp6
 70
     1
102
RTVSPropertyOp7
 70
     1
102
RTVSPropertyOp8
 70
     1
102
RTVSPropertyOp9
 70
     1
102
RTVSPropertyOp10
 70
     1
102
RTVSPropertyOp11
 70
     1
102
RTVSPropertyOp12
 70
     1
102
RTVSPropertyOp13
 70
     1
102
RTVSPropertyOp14
 70
     1
102
RTVSPropertyOp15
 70
     1
102
RTVSPropertyOp16
 70
     1
102
RTVSPropertyOp17
 70
     1
102
RTVSPropertyOp18
 70
     1
102
RTVSPropertyOp19
 70
     1
102
RTVSPropertyOp20
 70
     1
102
RTVSPropertyOp21
 70
     1
102
RTVSPropertyOp22
 70
     1
102
RTVSPropertyOp23
 70
     1
102
RTVSPropertyOp24
 70
     1
102
RTVSPropertyOp25
 70
     1
102
RTVSPropertyOp26
 70
     1
102
RTVSPropertyOp27
 70
     1
102
RTVSPropertyOp28
 70
     1
102
RTVSPropertyOp29
 70
     1
102
RTVSPropertyOp30
 70
     1
102
RTVSPropertyOp31
 70
     1
102
RTVSPropertyOp32
 70
     1
102
RTVSPropertyOp33
 70
     1
102
RTVSPropertyOp34
 70
     1
102
RTVSPropertyOp35
 70
     1
102
RTVSPropertyOp36
 70
     1
102
RTVSPropertyOp37
 70
     1
102
RTVSPropertyOp38
 70
     1
102
RTVSPropertyOp39
 70
     1
102
RTVSPropertyOp40
 70
     1
102
RTVSPropertyOp41
 70
     1
102
RTVSPropertyOp42
 70
     1
102
RTVSPropertyOp43
 70
     1
102
RTVSPropertyOp44
 70
     1
102
RTVSPropertyOp45
 70
     1
102
RTVSPropertyOp46
 70
     1
102
RTVSPropertyOp47
 70
     1
102
RTVSPropertyOp48
 70
     1
102
RTVSPropertyOp49
 70
     1
102
RTVSPropertyOp50
 70
     1
102
RTVSPropertyOp51
 70
     0
102
RTVSPropertyOp52
 70
     0
102
RTVSPropertyOp53
 70
     1
102
RTVSPropertyOp54
 70
     1
102
RTVSPropertyOp55
 70
     1
102
RTVSPropertyOp56
 70
     1
102
RTVSPropertyOp57
 70
     1
102
RTVSPropertyOp58
 70
     1
102
RTVSPropertyOp59
 70
     1
102
RTVSPropertyOp60
 70
     1
102
RTVSPropertyOp61
 70
     1
102
RTVSPropertyOp62
 70
     1
  0
XRECORD
  5
3B5
102
{ACAD_REACTORS
330
3B4
102
}
330
3B4
100
AcDbXrecord
280
     1
102
RTVSPost2010Prop28
280
     0
102
RTVSPost2010PropOp28
 70
     1
102
RTVSPost2010Prop29
280
     1
102
RTVSPost2010PropOp29
 70
     1
102
RTVSPost2010Prop30
280
     1
102
RTVSPost2010PropOp30
 70
     1
102
RTVSPost2010Prop31
280
     0
102
RTVSPost2010PropOp31
 70
     1
102
RTVSPost2010Prop32
280
     0
102
RTVSPost2010PropOp32
 70
     1
102
RTVSPost2010Prop33
280
     0
102
RTVSPost2010PropOp33
 70
     1
102
RTVSPost2010Prop34
280
     0
102
RTVSPost2010PropOp34
 70
     1
102
RTVSPost2010Prop35
280
     0
102
RTVSPost2010PropOp35
 70
     1
102
RTVSPost2010Prop36
280
     0
102
RTVSPost2010PropOp36
 70
     1
102
RTVSPost2010Prop37
 90
       50
102
RTVSPost2010PropOp37
 70
     1
102
RTVSPost2010Prop38
140
0.0
102
RTVSPost2010PropOp38
 70
     1
102
RTVSPost2010Prop39
140
1.0
102
RTVSPost2010PropOp39
 70
     1
102
RTVSPost2010Prop40
 90
        0
102
RTVSPost2010PropOp40
 70
     1
102
RTVSPost2010Prop41ColorIndex
 90
       18
102
RTVSPost2010Prop41ColorRGB
 90
        0
102
RTVSPost2010PropOp41
 70
     1
102
RTVSPost2010Prop42
 90
       50
102
RTVSPost2010PropOp42
 70
     1
102
RTVSPost2010Prop43
 90
        3
102
RTVSPost2010PropOp43
 70
     1
102
RTVSPost2010Prop44ColorIndex
 90
        5
102
RTVSPost2010Prop44ColorRGB
 90
      255
102
RTVSPost2010PropOp44
 70
     1
102
RTVSPost2010Prop45
280
     0
102
RTVSPost2010PropOp45
 70
     1
102
RTVSPost2010Prop46
 90
       50
102
RTVSPost2010PropOp46
 70
     1
102
RTVSPost2010Prop47
 90
       50
102
RTVSPost2010PropOp47
 70
     1
102
RTVSPost2010Prop48
 90
       50
102
RTVSPost2010PropOp48
 70
     1
102
RTVSPost2010Prop49
280
     0
102
RTVSPost2010PropOp49
 70
     1
102
RTVSPost2010Prop50
 90
       50
102
RTVSPost2010PropOp50
 70
     1
102
RTVSPost2010Prop51ColorIndex
 90
      256
102
RTVSPost2010Prop51ColorRGB
 90
-16777216
102
RTVSPost2010PropOp51
 70
     0
102
RTVSPost2010Prop52
140
1.0
102
RTVSPost2010PropOp52
 70
     0
102
RTVSPost2010Prop53
 90
        2
102
RTVSPost2010PropOp53
 70
     1
102
RTVSPost2010Prop54
  1
strokes_ogs.tif
102
RTVSPost2010PropOp54
 70
     1
102
RTVSPost2010Prop55
280
     0
102
RTVSPost2010PropOp55
 70
     1
102
RTVSPost2010Prop56
140
1.0
102
RTVSPost2010PropOp56
 70
     1
102
RTVSPost2010Prop57
140
1.0
102
RTVSPost2010PropOp57
 70
     1
102
RTVSPropertyOp0
 70
     1
102
RTVSPropertyOp1
 70
     1
102
RTVSPropertyOp2
 70
     1
102
RTVSPropertyOp3
 70
     1
102
RTVSPropertyOp4
 70
     1
102
RTVSPropertyOp5
 70
     1
102
RTVSPropertyOp6
 70
     1
102
RTVSPropertyOp7
 70
     1
102
RTVSPropertyOp8
 70
     1
102
RTVSPropertyOp9
 70
     1
102
RTVSPropertyOp10
 70
     1
102
RTVSPropertyOp11
 70
     1
102
RTVSPropertyOp12
 70
     1
102
RTVSPropertyOp13
 70
     1
102
RTVSPropertyOp14
 70
     1
102
RTVSPropertyOp15
 70
     1
102
RTVSPropertyOp16
 70
     1
102
RTVSPropertyOp17
 70
     1
102
RTVSPropertyOp18
 70
     1
102
RTVSPropertyOp19
 70
     1
102
RTVSPropertyOp20
 70
     1
102
RTVSPropertyOp21
 70
     1
102
RTVSPropertyOp22
 70
     1
102
RTVSPropertyOp23
 70
     1
102
RTVSPropertyOp24
 70
     1
102
RTVSPropertyOp25
 70
     1
102
RTVSPropertyOp26
 70
     1
102
RTVSPropertyOp27
 70
     1
102
RTVSPropertyOp28
 70
     1
102
RTVSPropertyOp29
 70
     1
102
RTVSPropertyOp30
 70
     1
102
RTVSPropertyOp31
 70
     1
102
RTVSPropertyOp32
 70
     1
102
RTVSPropertyOp33
 70
     1
102
RTVSPropertyOp34
 70
     1
102
RTVSPropertyOp35
 70
     1
102
RTVSPropertyOp36
 70
     1
102
RTVSPropertyOp37
 70
     1
102
RTVSPropertyOp38
 70
     1
102
RTVSPropertyOp39
 70
     1
102
RTVSPropertyOp40
 70
     1
102
RTVSPropertyOp41
 70
     1
102
RTVSPropertyOp42
 70
     1
102
RTVSPropertyOp43
 70
     1
102
RTVSPropertyOp44
 70
     1
102
RTVSPropertyOp45
 70
     1
102
RTVSPropertyOp46
 70
     1
102
RTVSPropertyOp47
 70
     1
102
RTVSPropertyOp48
 70
     1
102
RTVSPropertyOp49
 70
     1
102
RTVSPropertyOp50
 70
     1
102
RTVSPropertyOp51
 70
     0
102
RTVSPropertyOp52
 70
     0
102
RTVSPropertyOp53
 70
     1
102
RTVSPropertyOp54
 70
     1
102
RTVSPropertyOp55
 70
     1
102
RTVSPropertyOp56
 70
     1
102
RTVSPropertyOp57
 70
     1
102
RTVSPropertyOp58
 70
     1
102
RTVSPropertyOp59
 70
     1
102
RTVSPropertyOp60
 70
     1
102
RTVSPropertyOp61
 70
     1
102
RTVSPropertyOp62
 70
     1
  0
XRECORD
  5
3A9
102
{ACAD_REACTORS
330
3A8
102
}
330
3A8
100
AcDbXrecord
280
     1
102
RTVSPost2010Prop28
280
     0
102
RTVSPost2010PropOp28
 70
     1
102
RTVSPost2010Prop29
280
     1
102
RTVSPost2010PropOp29
 70
     1
102
RTVSPost2010Prop30
280
     1
102
RTVSPost2010PropOp30
 70
     1
102
RTVSPost2010Prop31
280
     0
102
RTVSPost2010PropOp31
 70
     1
102
RTVSPost2010Prop32
280
     0
102
RTVSPost2010PropOp32
 70
     1
102
RTVSPost2010Prop33
280
     0
102
RTVSPost2010PropOp33
 70
     1
102
RTVSPost2010Prop34
280
     0
102
RTVSPost2010PropOp34
 70
     1
102
RTVSPost2010Prop35
280
     0
102
RTVSPost2010PropOp35
 70
     1
102
RTVSPost2010Prop36
280
     0
102
RTVSPost2010PropOp36
 70
     1
102
RTVSPost2010Prop37
 90
       50
102
RTVSPost2010PropOp37
 70
     1
102
RTVSPost2010Prop38
140
0.0
102
RTVSPost2010PropOp38
 70
     1
102
RTVSPost2010Prop39
140
1.0
102
RTVSPost2010PropOp39
 70
     1
102
RTVSPost2010Prop40
 90
        0
102
RTVSPost2010PropOp40
 70
     1
102
RTVSPost2010Prop41ColorIndex
 90
       18
102
RTVSPost2010Prop41ColorRGB
 90
        0
102
RTVSPost2010PropOp41
 70
     1
102
RTVSPost2010Prop42
 90
       50
102
RTVSPost2010PropOp42
 70
     1
102
RTVSPost2010Prop43
 90
        3
102
RTVSPost2010PropOp43
 70
     1
102
RTVSPost2010Prop44ColorIndex
 90
        5
102
RTVSPost2010Prop44ColorRGB
 90
      255
102
RTVSPost2010PropOp44
 70
     1
102
RTVSPost2010Prop45
280
     0
102
RTVSPost2010PropOp45
 70
     1
102
RTVSPost2010Prop46
 90
       50
102
RTVSPost2010PropOp46
 70
     1
102
RTVSPost2010Prop47
 90
       50
102
RTVSPost2010PropOp47
 70
     1
102
RTVSPost2010Prop48
 90
       50
102
RTVSPost2010PropOp48
 70
     1
102
RTVSPost2010Prop49
280
     0
102
RTVSPost2010PropOp49
 70
     1
102
RTVSPost2010Prop50
 90
       50
102
RTVSPost2010PropOp50
 70
     1
102
RTVSPost2010Prop51ColorIndex
 90
      256
102
RTVSPost2010Prop51ColorRGB
 90
-16777216
102
RTVSPost2010PropOp51
 70
     0
102
RTVSPost2010Prop52
140
1.0
102
RTVSPost2010PropOp52
 70
     0
102
RTVSPost2010Prop53
 90
        2
102
RTVSPost2010PropOp53
 70
     1
102
RTVSPost2010Prop54
  1
strokes_ogs.tif
102
RTVSPost2010PropOp54
 70
     1
102
RTVSPost2010Prop55
280
     0
102
RTVSPost2010PropOp55
 70
     1
102
RTVSPost2010Prop56
140
1.0
102
RTVSPost2010PropOp56
 70
     1
102
RTVSPost2010Prop57
140
1.0
102
RTVSPost2010PropOp57
 70
     1
102
RTVSPropertyOp0
 70
     1
102
RTVSPropertyOp1
 70
     1
102
RTVSPropertyOp2
 70
     1
102
RTVSPropertyOp3
 70
     1
102
RTVSPropertyOp4
 70
     1
102
RTVSPropertyOp5
 70
     1
102
RTVSPropertyOp6
 70
     1
102
RTVSPropertyOp7
 70
     1
102
RTVSPropertyOp8
 70
     1
102
RTVSPropertyOp9
 70
     1
102
RTVSPropertyOp10
 70
     1
102
RTVSPropertyOp11
 70
     1
102
RTVSPropertyOp12
 70
     1
102
RTVSPropertyOp13
 70
     1
102
RTVSPropertyOp14
 70
     1
102
RTVSPropertyOp15
 70
     1
102
RTVSPropertyOp16
 70
     1
102
RTVSPropertyOp17
 70
     1
102
RTVSPropertyOp18
 70
     1
102
RTVSPropertyOp19
 70
     1
102
RTVSPropertyOp20
 70
     1
102
RTVSPropertyOp21
 70
     1
102
RTVSPropertyOp22
 70
     1
102
RTVSPropertyOp23
 70
     1
102
RTVSPropertyOp24
 70
     1
102
RTVSPropertyOp25
 70
     1
102
RTVSPropertyOp26
 70
     1
102
RTVSPropertyOp27
 70
     1
102
RTVSPropertyOp28
 70
     1
102
RTVSPropertyOp29
 70
     1
102
RTVSPropertyOp30
 70
     1
102
RTVSPropertyOp31
 70
     1
102
RTVSPropertyOp32
 70
     1
102
RTVSPropertyOp33
 70
     1
102
RTVSPropertyOp34
 70
     1
102
RTVSPropertyOp35
 70
     1
102
RTVSPropertyOp36
 70
     1
102
RTVSPropertyOp37
 70
     1
102
RTVSPropertyOp38
 70
     1
102
RTVSPropertyOp39
 70
     1
102
RTVSPropertyOp40
 70
     1
102
RTVSPropertyOp41
 70
     1
102
RTVSPropertyOp42
 70
     1
102
RTVSPropertyOp43
 70
     1
102
RTVSPropertyOp44
 70
     1
102
RTVSPropertyOp45
 70
     1
102
RTVSPropertyOp46
 70
     1
102
RTVSPropertyOp47
 70
     1
102
RTVSPropertyOp48
 70
     1
102
RTVSPropertyOp49
 70
     1
102
RTVSPropertyOp50
 70
     1
102
RTVSPropertyOp51
 70
     0
102
RTVSPropertyOp52
 70
     0
102
RTVSPropertyOp53
 70
     1
102
RTVSPropertyOp54
 70
     1
102
RTVSPropertyOp55
 70
     1
102
RTVSPropertyOp56
 70
     1
102
RTVSPropertyOp57
 70
     1
102
RTVSPropertyOp58
 70
     1
102
RTVSPropertyOp59
 70
     1
102
RTVSPropertyOp60
 70
     1
102
RTVSPropertyOp61
 70
     1
102
RTVSPropertyOp62
 70
     1
  0
XRECORD
  5
3AB
102
{ACAD_REACTORS
330
3AA
102
}
330
3AA
100
AcDbXrecord
280
     1
102
RTVSPost2010Prop28
280
     0
102
RTVSPost2010PropOp28
 70
     1
102
RTVSPost2010Prop29
280
     1
102
RTVSPost2010PropOp29
 70
     1
102
RTVSPost2010Prop30
280
     1
102
RTVSPost2010PropOp30
 70
     1
102
RTVSPost2010Prop31
280
     0
102
RTVSPost2010PropOp31
 70
     1
102
RTVSPost2010Prop32
280
     0
102
RTVSPost2010PropOp32
 70
     1
102
RTVSPost2010Prop33
280
     0
102
RTVSPost2010PropOp33
 70
     1
102
RTVSPost2010Prop34
280
     0
102
RTVSPost2010PropOp34
 70
     1
102
RTVSPost2010Prop35
280
     0
102
RTVSPost2010PropOp35
 70
     1
102
RTVSPost2010Prop36
280
     0
102
RTVSPost2010PropOp36
 70
     1
102
RTVSPost2010Prop37
 90
       50
102
RTVSPost2010PropOp37
 70
     1
102
RTVSPost2010Prop38
140
0.0
102
RTVSPost2010PropOp38
 70
     1
102
RTVSPost2010Prop39
140
1.0
102
RTVSPost2010PropOp39
 70
     1
102
RTVSPost2010Prop40
 90
        0
102
RTVSPost2010PropOp40
 70
     1
102
RTVSPost2010Prop41ColorIndex
 90
       18
102
RTVSPost2010Prop41ColorRGB
 90
        0
102
RTVSPost2010PropOp41
 70
     1
102
RTVSPost2010Prop42
 90
       50
102
RTVSPost2010PropOp42
 70
     1
102
RTVSPost2010Prop43
 90
        3
102
RTVSPost2010PropOp43
 70
     1
102
RTVSPost2010Prop44ColorIndex
 90
        5
102
RTVSPost2010Prop44ColorRGB
 90
      255
102
RTVSPost2010PropOp44
 70
     1
102
RTVSPost2010Prop45
280
     0
102
RTVSPost2010PropOp45
 70
     1
102
RTVSPost2010Prop46
 90
       50
102
RTVSPost2010PropOp46
 70
     1
102
RTVSPost2010Prop47
 90
       50
102
RTVSPost2010PropOp47
 70
     1
102
RTVSPost2010Prop48
 90
       50
102
RTVSPost2010PropOp48
 70
     1
102
RTVSPost2010Prop49
280
     0
102
RTVSPost2010PropOp49
 70
     1
102
RTVSPost2010Prop50
 90
       50
102
RTVSPost2010PropOp50
 70
     1
102
RTVSPost2010Prop51ColorIndex
 90
      256
102
RTVSPost2010Prop51ColorRGB
 90
-16777216
102
RTVSPost2010PropOp51
 70
     0
102
RTVSPost2010Prop52
140
1.0
102
RTVSPost2010PropOp52
 70
     0
102
RTVSPost2010Prop53
 90
        2
102
RTVSPost2010PropOp53
 70
     1
102
RTVSPost2010Prop54
  1
strokes_ogs.tif
102
RTVSPost2010PropOp54
 70
     1
102
RTVSPost2010Prop55
280
     0
102
RTVSPost2010PropOp55
 70
     1
102
RTVSPost2010Prop56
140
1.0
102
RTVSPost2010PropOp56
 70
     1
102
RTVSPost2010Prop57
140
1.0
102
RTVSPost2010PropOp57
 70
     1
102
RTVSPropertyOp0
 70
     1
102
RTVSPropertyOp1
 70
     1
102
RTVSPropertyOp2
 70
     1
102
RTVSPropertyOp3
 70
     1
102
RTVSPropertyOp4
 70
     1
102
RTVSPropertyOp5
 70
     1
102
RTVSPropertyOp6
 70
     1
102
RTVSPropertyOp7
 70
     1
102
RTVSPropertyOp8
 70
     1
102
RTVSPropertyOp9
 70
     1
102
RTVSPropertyOp10
 70
     1
102
RTVSPropertyOp11
 70
     1
102
RTVSPropertyOp12
 70
     1
102
RTVSPropertyOp13
 70
     1
102
RTVSPropertyOp14
 70
     1
102
RTVSPropertyOp15
 70
     1
102
RTVSPropertyOp16
 70
     1
102
RTVSPropertyOp17
 70
     1
102
RTVSPropertyOp18
 70
     1
102
RTVSPropertyOp19
 70
     1
102
RTVSPropertyOp20
 70
     1
102
RTVSPropertyOp21
 70
     1
102
RTVSPropertyOp22
 70
     1
102
RTVSPropertyOp23
 70
     1
102
RTVSPropertyOp24
 70
     1
102
RTVSPropertyOp25
 70
     1
102
RTVSPropertyOp26
 70
     1
102
RTVSPropertyOp27
 70
     1
102
RTVSPropertyOp28
 70
     1
102
RTVSPropertyOp29
 70
     1
102
RTVSPropertyOp30
 70
     1
102
RTVSPropertyOp31
 70
     1
102
RTVSPropertyOp32
 70
     1
102
RTVSPropertyOp33
 70
     1
102
RTVSPropertyOp34
 70
     1
102
RTVSPropertyOp35
 70
     1
102
RTVSPropertyOp36
 70
     1
102
RTVSPropertyOp37
 70
     1
102
RTVSPropertyOp38
 70
     1
102
RTVSPropertyOp39
 70
     1
102
RTVSPropertyOp40
 70
     1
102
RTVSPropertyOp41
 70
     1
102
RTVSPropertyOp42
 70
     1
102
RTVSPropertyOp43
 70
     1
102
RTVSPropertyOp44
 70
     1
102
RTVSPropertyOp45
 70
     1
102
RTVSPropertyOp46
 70
     1
102
RTVSPropertyOp47
 70
     1
102
RTVSPropertyOp48
 70
     1
102
RTVSPropertyOp49
 70
     1
102
RTVSPropertyOp50
 70
     1
102
RTVSPropertyOp51
 70
     0
102
RTVSPropertyOp52
 70
     0
102
RTVSPropertyOp53
 70
     1
102
RTVSPropertyOp54
 70
     1
102
RTVSPropertyOp55
 70
     1
102
RTVSPropertyOp56
 70
     1
102
RTVSPropertyOp57
 70
     1
102
RTVSPropertyOp58
 70
     1
102
RTVSPropertyOp59
 70
     1
102
RTVSPropertyOp60
 70
     1
102
RTVSPropertyOp61
 70
     1
102
RTVSPropertyOp62
 70
     1
  0
XRECORD
  5
3BB
102
{ACAD_REACTORS
330
3BA
102
}
330
3BA
100
AcDbXrecord
280
     1
102
RTVSPost2010Prop28
280
     0
102
RTVSPost2010PropOp28
 70
     0
102
RTVSPost2010Prop29
280
     1
102
RTVSPost2010PropOp29
 70
     0
102
RTVSPost2010Prop30
280
     1
102
RTVSPost2010PropOp30
 70
     0
102
RTVSPost2010Prop31
280
     0
102
RTVSPost2010PropOp31
 70
     0
102
RTVSPost2010Prop32
280
     0
102
RTVSPost2010PropOp32
 70
     0
102
RTVSPost2010Prop33
280
     0
102
RTVSPost2010PropOp33
 70
     0
102
RTVSPost2010Prop34
280
     0
102
RTVSPost2010PropOp34
 70
     0
102
RTVSPost2010Prop35
280
     0
102
RTVSPost2010PropOp35
 70
     0
102
RTVSPost2010Prop36
280
     0
102
RTVSPost2010PropOp36
 70
     0
102
RTVSPost2010Prop37
 90
       50
102
RTVSPost2010PropOp37
 70
     0
102
RTVSPost2010Prop38
140
0.0
102
RTVSPost2010PropOp38
 70
     0
102
RTVSPost2010Prop39
140
1.0
102
RTVSPost2010PropOp39
 70
     0
102
RTVSPost2010Prop40
 90
        0
102
RTVSPost2010PropOp40
 70
     0
102
RTVSPost2010Prop41ColorIndex
 90
       18
102
RTVSPost2010Prop41ColorRGB
 90
        0
102
RTVSPost2010PropOp41
 70
     0
102
RTVSPost2010Prop42
 90
       50
102
RTVSPost2010PropOp42
 70
     0
102
RTVSPost2010Prop43
 90
        3
102
RTVSPost2010PropOp43
 70
     0
102
RTVSPost2010Prop44ColorIndex
 90
        5
102
RTVSPost2010Prop44ColorRGB
 90
      255
102
RTVSPost2010PropOp44
 70
     0
102
RTVSPost2010Prop45
280
     0
102
RTVSPost2010PropOp45
 70
     0
102
RTVSPost2010Prop46
 90
       50
102
RTVSPost2010PropOp46
 70
     0
102
RTVSPost2010Prop47
 90
       50
102
RTVSPost2010PropOp47
 70
     0
102
RTVSPost2010Prop48
 90
       50
102
RTVSPost2010PropOp48
 70
     0
102
RTVSPost2010Prop49
280
     0
102
RTVSPost2010PropOp49
 70
     0
102
RTVSPost2010Prop50
 90
       50
102
RTVSPost2010PropOp50
 70
     0
102
RTVSPost2010Prop51ColorIndex
 90
      256
102
RTVSPost2010Prop51ColorRGB
 90
-16777216
102
RTVSPost2010PropOp51
 70
     0
102
RTVSPost2010Prop52
140
1.0
102
RTVSPost2010PropOp52
 70
     0
102
RTVSPost2010Prop53
 90
        2
102
RTVSPost2010PropOp53
 70
     0
102
RTVSPost2010Prop54
  1
strokes_ogs.tif
102
RTVSPost2010PropOp54
 70
     0
102
RTVSPost2010Prop55
280
     0
102
RTVSPost2010PropOp55
 70
     0
102
RTVSPost2010Prop56
140
1.0
102
RTVSPost2010PropOp56
 70
     0
102
RTVSPost2010Prop57
140
1.0
102
RTVSPost2010PropOp57
 70
     0
102
RTVSPropertyOp0
 70
     0
102
RTVSPropertyOp1
 70
     0
102
RTVSPropertyOp2
 70
     0
102
RTVSPropertyOp3
 70
     0
102
RTVSPropertyOp4
 70
     0
102
RTVSPropertyOp5
 70
     0
102
RTVSPropertyOp6
 70
     0
102
RTVSPropertyOp7
 70
     0
102
RTVSPropertyOp8
 70
     0
102
RTVSPropertyOp9
 70
     0
102
RTVSPropertyOp10
 70
     0
102
RTVSPropertyOp11
 70
     0
102
RTVSPropertyOp12
 70
     0
102
RTVSPropertyOp13
 70
     0
102
RTVSPropertyOp14
 70
     2
102
RTVSPropertyOp15
 70
     0
102
RTVSPropertyOp16
 70
     0
102
RTVSPropertyOp17
 70
     0
102
RTVSPropertyOp18
 70
     0
102
RTVSPropertyOp19
 70
     0
102
RTVSPropertyOp20
 70
     0
102
RTVSPropertyOp21
 70
     0
102
RTVSPropertyOp22
 70
     0
102
RTVSPropertyOp23
 70
     0
102
RTVSPropertyOp24
 70
     0
102
RTVSPropertyOp25
 70
     0
102
RTVSPropertyOp26
 70
     0
102
RTVSPropertyOp27
 70
     0
102
RTVSPropertyOp28
 70
     0
102
RTVSPropertyOp29
 70
     0
102
RTVSPropertyOp30
 70
     0
102
RTVSPropertyOp31
 70
     0
102
RTVSPropertyOp32
 70
     0
102
RTVSPropertyOp33
 70
     0
102
RTVSPropertyOp34
 70
     0
102
RTVSPropertyOp35
 70
     0
102
RTVSPropertyOp36
 70
     0
102
RTVSPropertyOp37
 70
     0
102
RTVSPropertyOp38
 70
     0
102
RTVSPropertyOp39
 70
     0
102
RTVSPropertyOp40
 70
     0
102
RTVSPropertyOp41
 70
     0
102
RTVSPropertyOp42
 70
     0
102
RTVSPropertyOp43
 70
     0
102
RTVSPropertyOp44
 70
     0
102
RTVSPropertyOp45
 70
     0
102
RTVSPropertyOp46
 70
     0
102
RTVSPropertyOp47
 70
     0
102
RTVSPropertyOp48
 70
     0
102
RTVSPropertyOp49
 70
     0
102
RTVSPropertyOp50
 70
     0
102
RTVSPropertyOp51
 70
     0
102
RTVSPropertyOp52
 70
     0
102
RTVSPropertyOp53
 70
     0
102
RTVSPropertyOp54
 70
     0
102
RTVSPropertyOp55
 70
     0
102
RTVSPropertyOp56
 70
     0
102
RTVSPropertyOp57
 70
     0
102
RTVSPropertyOp58
 70
     1
102
RTVSPropertyOp59
 70
     1
102
RTVSPropertyOp60
 70
     1
102
RTVSPropertyOp61
 70
     1
102
RTVSPropertyOp62
 70
     1
  0
XRECORD
  5
3B3
102
{ACAD_REACTORS
330
3B2
102
}
330
3B2
100
AcDbXrecord
280
     1
102
RTVSPost2010Prop28
280
     0
102
RTVSPost2010PropOp28
 70
     1
102
RTVSPost2010Prop29
280
     1
102
RTVSPost2010PropOp29
 70
     1
102
RTVSPost2010Prop30
280
     1
102
RTVSPost2010PropOp30
 70
     1
102
RTVSPost2010Prop31
280
     0
102
RTVSPost2010PropOp31
 70
     1
102
RTVSPost2010Prop32
280
     0
102
RTVSPost2010PropOp32
 70
     1
102
RTVSPost2010Prop33
280
     0
102
RTVSPost2010PropOp33
 70
     1
102
RTVSPost2010Prop34
280
     0
102
RTVSPost2010PropOp34
 70
     1
102
RTVSPost2010Prop35
280
     0
102
RTVSPost2010PropOp35
 70
     1
102
RTVSPost2010Prop36
280
     0
102
RTVSPost2010PropOp36
 70
     1
102
RTVSPost2010Prop37
 90
       50
102
RTVSPost2010PropOp37
 70
     1
102
RTVSPost2010Prop38
140
0.0
102
RTVSPost2010PropOp38
 70
     1
102
RTVSPost2010Prop39
140
1.0
102
RTVSPost2010PropOp39
 70
     1
102
RTVSPost2010Prop40
 90
        0
102
RTVSPost2010PropOp40
 70
     1
102
RTVSPost2010Prop41ColorIndex
 90
       18
102
RTVSPost2010Prop41ColorRGB
 90
        0
102
RTVSPost2010PropOp41
 70
     1
102
RTVSPost2010Prop42
 90
       50
102
RTVSPost2010PropOp42
 70
     1
102
RTVSPost2010Prop43
 90
        3
102
RTVSPost2010PropOp43
 70
     1
102
RTVSPost2010Prop44ColorIndex
 90
        5
102
RTVSPost2010Prop44ColorRGB
 90
      255
102
RTVSPost2010PropOp44
 70
     1
102
RTVSPost2010Prop45
280
     0
102
RTVSPost2010PropOp45
 70
     1
102
RTVSPost2010Prop46
 90
       50
102
RTVSPost2010PropOp46
 70
     1
102
RTVSPost2010Prop47
 90
       50
102
RTVSPost2010PropOp47
 70
     1
102
RTVSPost2010Prop48
 90
       50
102
RTVSPost2010PropOp48
 70
     1
102
RTVSPost2010Prop49
280
     0
102
RTVSPost2010PropOp49
 70
     1
102
RTVSPost2010Prop50
 90
       50
102
RTVSPost2010PropOp50
 70
     1
102
RTVSPost2010Prop51ColorIndex
 90
      256
102
RTVSPost2010Prop51ColorRGB
 90
-16777216
102
RTVSPost2010PropOp51
 70
     0
102
RTVSPost2010Prop52
140
1.0
102
RTVSPost2010PropOp52
 70
     0
102
RTVSPost2010Prop53
 90
        2
102
RTVSPost2010PropOp53
 70
     1
102
RTVSPost2010Prop54
  1
strokes_ogs.tif
102
RTVSPost2010PropOp54
 70
     1
102
RTVSPost2010Prop55
280
     0
102
RTVSPost2010PropOp55
 70
     1
102
RTVSPost2010Prop56
140
1.0
102
RTVSPost2010PropOp56
 70
     1
102
RTVSPost2010Prop57
140
1.0
102
RTVSPost2010PropOp57
 70
     1
102
RTVSPropertyOp0
 70
     1
102
RTVSPropertyOp1
 70
     1
102
RTVSPropertyOp2
 70
     1
102
RTVSPropertyOp3
 70
     1
102
RTVSPropertyOp4
 70
     1
102
RTVSPropertyOp5
 70
     1
102
RTVSPropertyOp6
 70
     1
102
RTVSPropertyOp7
 70
     1
102
RTVSPropertyOp8
 70
     1
102
RTVSPropertyOp9
 70
     1
102
RTVSPropertyOp10
 70
     1
102
RTVSPropertyOp11
 70
     1
102
RTVSPropertyOp12
 70
     1
102
RTVSPropertyOp13
 70
     1
102
RTVSPropertyOp14
 70
     1
102
RTVSPropertyOp15
 70
     1
102
RTVSPropertyOp16
 70
     1
102
RTVSPropertyOp17
 70
     1
102
RTVSPropertyOp18
 70
     1
102
RTVSPropertyOp19
 70
     1
102
RTVSPropertyOp20
 70
     1
102
RTVSPropertyOp21
 70
     1
102
RTVSPropertyOp22
 70
     1
102
RTVSPropertyOp23
 70
     1
102
RTVSPropertyOp24
 70
     1
102
RTVSPropertyOp25
 70
     1
102
RTVSPropertyOp26
 70
     1
102
RTVSPropertyOp27
 70
     1
102
RTVSPropertyOp28
 70
     1
102
RTVSPropertyOp29
 70
     1
102
RTVSPropertyOp30
 70
     1
102
RTVSPropertyOp31
 70
     1
102
RTVSPropertyOp32
 70
     1
102
RTVSPropertyOp33
 70
     1
102
RTVSPropertyOp34
 70
     1
102
RTVSPropertyOp35
 70
     1
102
RTVSPropertyOp36
 70
     1
102
RTVSPropertyOp37
 70
     1
102
RTVSPropertyOp38
 70
     1
102
RTVSPropertyOp39
 70
     1
102
RTVSPropertyOp40
 70
     1
102
RTVSPropertyOp41
 70
     1
102
RTVSPropertyOp42
 70
     1
102
RTVSPropertyOp43
 70
     1
102
RTVSPropertyOp44
 70
     1
102
RTVSPropertyOp45
 70
     1
102
RTVSPropertyOp46
 70
     1
102
RTVSPropertyOp47
 70
     1
102
RTVSPropertyOp48
 70
     1
102
RTVSPropertyOp49
 70
     1
102
RTVSPropertyOp50
 70
     1
102
RTVSPropertyOp51
 70
     0
102
RTVSPropertyOp52
 70
     0
102
RTVSPropertyOp53
 70
     1
102
RTVSPropertyOp54
 70
     1
102
RTVSPropertyOp55
 70
     1
102
RTVSPropertyOp56
 70
     1
102
RTVSPropertyOp57
 70
     1
102
RTVSPropertyOp58
 70
     1
102
RTVSPropertyOp59
 70
     1
102
RTVSPropertyOp60
 70
     1
102
RTVSPropertyOp61
 70
     1
102
RTVSPropertyOp62
 70
     1
  0
XRECORD
  5
397
102
{ACAD_REACTORS
330
396
102
}
330
396
100
AcDbXrecord
280
     1
102
RTVSPost2010Prop28
280
     0
102
RTVSPost2010PropOp28
 70
     1
102
RTVSPost2010Prop29
280
     1
102
RTVSPost2010PropOp29
 70
     1
102
RTVSPost2010Prop30
280
     1
102
RTVSPost2010PropOp30
 70
     1
102
RTVSPost2010Prop31
280
     0
102
RTVSPost2010PropOp31
 70
     1
102
RTVSPost2010Prop32
280
     0
102
RTVSPost2010PropOp32
 70
     1
102
RTVSPost2010Prop33
280
     0
102
RTVSPost2010PropOp33
 70
     1
102
RTVSPost2010Prop34
280
     0
102
RTVSPost2010PropOp34
 70
     1
102
RTVSPost2010Prop35
280
     0
102
RTVSPost2010PropOp35
 70
     1
102
RTVSPost2010Prop36
280
     0
102
RTVSPost2010PropOp36
 70
     1
102
RTVSPost2010Prop37
 90
       50
102
RTVSPost2010PropOp37
 70
     1
102
RTVSPost2010Prop38
140
0.0
102
RTVSPost2010PropOp38
 70
     1
102
RTVSPost2010Prop39
140
1.0
102
RTVSPost2010PropOp39
 70
     1
102
RTVSPost2010Prop40
 90
        0
102
RTVSPost2010PropOp40
 70
     1
102
RTVSPost2010Prop41ColorIndex
 90
       18
102
RTVSPost2010Prop41ColorRGB
 90
        0
102
RTVSPost2010PropOp41
 70
     1
102
RTVSPost2010Prop42
 90
       50
102
RTVSPost2010PropOp42
 70
     1
102
RTVSPost2010Prop43
 90
        3
102
RTVSPost2010PropOp43
 70
     1
102
RTVSPost2010Prop44ColorIndex
 90
        5
102
RTVSPost2010Prop44ColorRGB
 90
      255
102
RTVSPost2010PropOp44
 70
     1
102
RTVSPost2010Prop45
280
     0
102
RTVSPost2010PropOp45
 70
     1
102
RTVSPost2010Prop46
 90
       50
102
RTVSPost2010PropOp46
 70
     1
102
RTVSPost2010Prop47
 90
       50
102
RTVSPost2010PropOp47
 70
     1
102
RTVSPost2010Prop48
 90
       50
102
RTVSPost2010PropOp48
 70
     1
102
RTVSPost2010Prop49
280
     0
102
RTVSPost2010PropOp49
 70
     1
102
RTVSPost2010Prop50
 90
       50
102
RTVSPost2010PropOp50
 70
     1
102
RTVSPost2010Prop51ColorIndex
 90
      256
102
RTVSPost2010Prop51ColorRGB
 90
-16777216
102
RTVSPost2010PropOp51
 70
     0
102
RTVSPost2010Prop52
140
1.0
102
RTVSPost2010PropOp52
 70
     0
102
RTVSPost2010Prop53
 90
        2
102
RTVSPost2010PropOp53
 70
     1
102
RTVSPost2010Prop54
  1
strokes_ogs.tif
102
RTVSPost2010PropOp54
 70
     1
102
RTVSPost2010Prop55
280
     0
102
RTVSPost2010PropOp55
 70
     1
102
RTVSPost2010Prop56
140
1.0
102
RTVSPost2010PropOp56
 70
     1
102
RTVSPost2010Prop57
140
1.0
102
RTVSPost2010PropOp57
 70
     1
102
RTVSPropertyOp0
 70
     1
102
RTVSPropertyOp1
 70
     1
102
RTVSPropertyOp2
 70
     1
102
RTVSPropertyOp3
 70
     1
102
RTVSPropertyOp4
 70
     1
102
RTVSPropertyOp5
 70
     1
102
RTVSPropertyOp6
 70
     1
102
RTVSPropertyOp7
 70
     1
102
RTVSPropertyOp8
 70
     1
102
RTVSPropertyOp9
 70
     1
102
RTVSPropertyOp10
 70
     1
102
RTVSPropertyOp11
 70
     1
102
RTVSPropertyOp12
 70
     1
102
RTVSPropertyOp13
 70
     1
102
RTVSPropertyOp14
 70
     1
102
RTVSPropertyOp15
 70
     1
102
RTVSPropertyOp16
 70
     1
102
RTVSPropertyOp17
 70
     1
102
RTVSPropertyOp18
 70
     1
102
RTVSPropertyOp19
 70
     1
102
RTVSPropertyOp20
 70
     1
102
RTVSPropertyOp21
 70
     1
102
RTVSPropertyOp22
 70
     1
102
RTVSPropertyOp23
 70
     1
102
RTVSPropertyOp24
 70
     1
102
RTVSPropertyOp25
 70
     1
102
RTVSPropertyOp26
 70
     1
102
RTVSPropertyOp27
 70
     1
102
RTVSPropertyOp28
 70
     1
102
RTVSPropertyOp29
 70
     1
102
RTVSPropertyOp30
 70
     1
102
RTVSPropertyOp31
 70
     1
102
RTVSPropertyOp32
 70
     1
102
RTVSPropertyOp33
 70
     1
102
RTVSPropertyOp34
 70
     1
102
RTVSPropertyOp35
 70
     1
102
RTVSPropertyOp36
 70
     1
102
RTVSPropertyOp37
 70
     1
102
RTVSPropertyOp38
 70
     1
102
RTVSPropertyOp39
 70
     1
102
RTVSPropertyOp40
 70
     1
102
RTVSPropertyOp41
 70
     1
102
RTVSPropertyOp42
 70
     1
102
RTVSPropertyOp43
 70
     1
102
RTVSPropertyOp44
 70
     1
102
RTVSPropertyOp45
 70
     1
102
RTVSPropertyOp46
 70
     1
102
RTVSPropertyOp47
 70
     1
102
RTVSPropertyOp48
 70
     1
102
RTVSPropertyOp49
 70
     1
102
RTVSPropertyOp50
 70
     1
102
RTVSPropertyOp51
 70
     0
102
RTVSPropertyOp52
 70
     0
102
RTVSPropertyOp53
 70
     1
102
RTVSPropertyOp54
 70
     1
102
RTVSPropertyOp55
 70
     1
102
RTVSPropertyOp56
 70
     1
102
RTVSPropertyOp57
 70
     1
102
RTVSPropertyOp58
 70
     1
102
RTVSPropertyOp59
 70
     1
102
RTVSPropertyOp60
 70
     1
102
RTVSPropertyOp61
 70
     1
102
RTVSPropertyOp62
 70
     1
  0
XRECORD
  5
399
102
{ACAD_REACTORS
330
398
102
}
330
398
100
AcDbXrecord
280
     1
102
RTVSPost2010Prop28
280
     0
102
RTVSPost2010PropOp28
 70
     1
102
RTVSPost2010Prop29
280
     1
102
RTVSPost2010PropOp29
 70
     1
102
RTVSPost2010Prop30
280
     1
102
RTVSPost2010PropOp30
 70
     1
102
RTVSPost2010Prop31
280
     0
102
RTVSPost2010PropOp31
 70
     1
102
RTVSPost2010Prop32
280
     0
102
RTVSPost2010PropOp32
 70
     1
102
RTVSPost2010Prop33
280
     0
102
RTVSPost2010PropOp33
 70
     1
102
RTVSPost2010Prop34
280
     0
102
RTVSPost2010PropOp34
 70
     1
102
RTVSPost2010Prop35
280
     0
102
RTVSPost2010PropOp35
 70
     1
102
RTVSPost2010Prop36
280
     0
102
RTVSPost2010PropOp36
 70
     1
102
RTVSPost2010Prop37
 90
       50
102
RTVSPost2010PropOp37
 70
     1
102
RTVSPost2010Prop38
140
0.0
102
RTVSPost2010PropOp38
 70
     1
102
RTVSPost2010Prop39
140
1.0
102
RTVSPost2010PropOp39
 70
     1
102
RTVSPost2010Prop40
 90
        0
102
RTVSPost2010PropOp40
 70
     1
102
RTVSPost2010Prop41ColorIndex
 90
       18
102
RTVSPost2010Prop41ColorRGB
 90
        0
102
RTVSPost2010PropOp41
 70
     1
102
RTVSPost2010Prop42
 90
       50
102
RTVSPost2010PropOp42
 70
     1
102
RTVSPost2010Prop43
 90
        3
102
RTVSPost2010PropOp43
 70
     1
102
RTVSPost2010Prop44ColorIndex
 90
        5
102
RTVSPost2010Prop44ColorRGB
 90
      255
102
RTVSPost2010PropOp44
 70
     1
102
RTVSPost2010Prop45
280
     0
102
RTVSPost2010PropOp45
 70
     1
102
RTVSPost2010Prop46
 90
       50
102
RTVSPost2010PropOp46
 70
     1
102
RTVSPost2010Prop47
 90
       50
102
RTVSPost2010PropOp47
 70
     1
102
RTVSPost2010Prop48
 90
       50
102
RTVSPost2010PropOp48
 70
     1
102
RTVSPost2010Prop49
280
     0
102
RTVSPost2010PropOp49
 70
     1
102
RTVSPost2010Prop50
 90
       50
102
RTVSPost2010PropOp50
 70
     1
102
RTVSPost2010Prop51ColorIndex
 90
      256
102
RTVSPost2010Prop51ColorRGB
 90
-16777216
102
RTVSPost2010PropOp51
 70
     0
102
RTVSPost2010Prop52
140
1.0
102
RTVSPost2010PropOp52
 70
     0
102
RTVSPost2010Prop53
 90
        2
102
RTVSPost2010PropOp53
 70
     1
102
RTVSPost2010Prop54
  1
strokes_ogs.tif
102
RTVSPost2010PropOp54
 70
     1
102
RTVSPost2010Prop55
280
     0
102
RTVSPost2010PropOp55
 70
     1
102
RTVSPost2010Prop56
140
1.0
102
RTVSPost2010PropOp56
 70
     1
102
RTVSPost2010Prop57
140
1.0
102
RTVSPost2010PropOp57
 70
     1
102
RTVSPropertyOp0
 70
     1
102
RTVSPropertyOp1
 70
     1
102
RTVSPropertyOp2
 70
     1
102
RTVSPropertyOp3
 70
     1
102
RTVSPropertyOp4
 70
     1
102
RTVSPropertyOp5
 70
     1
102
RTVSPropertyOp6
 70
     1
102
RTVSPropertyOp7
 70
     1
102
RTVSPropertyOp8
 70
     1
102
RTVSPropertyOp9
 70
     1
102
RTVSPropertyOp10
 70
     1
102
RTVSPropertyOp11
 70
     1
102
RTVSPropertyOp12
 70
     1
102
RTVSPropertyOp13
 70
     1
102
RTVSPropertyOp14
 70
     1
102
RTVSPropertyOp15
 70
     1
102
RTVSPropertyOp16
 70
     1
102
RTVSPropertyOp17
 70
     1
102
RTVSPropertyOp18
 70
     1
102
RTVSPropertyOp19
 70
     1
102
RTVSPropertyOp20
 70
     1
102
RTVSPropertyOp21
 70
     1
102
RTVSPropertyOp22
 70
     1
102
RTVSPropertyOp23
 70
     1
102
RTVSPropertyOp24
 70
     1
102
RTVSPropertyOp25
 70
     1
102
RTVSPropertyOp26
 70
     1
102
RTVSPropertyOp27
 70
     1
102
RTVSPropertyOp28
 70
     1
102
RTVSPropertyOp29
 70
     1
102
RTVSPropertyOp30
 70
     1
102
RTVSPropertyOp31
 70
     1
102
RTVSPropertyOp32
 70
     1
102
RTVSPropertyOp33
 70
     1
102
RTVSPropertyOp34
 70
     1
102
RTVSPropertyOp35
 70
     1
102
RTVSPropertyOp36
 70
     1
102
RTVSPropertyOp37
 70
     1
102
RTVSPropertyOp38
 70
     1
102
RTVSPropertyOp39
 70
     1
102
RTVSPropertyOp40
 70
     1
102
RTVSPropertyOp41
 70
     1
102
RTVSPropertyOp42
 70
     1
102
RTVSPropertyOp43
 70
     1
102
RTVSPropertyOp44
 70
     1
102
RTVSPropertyOp45
 70
     1
102
RTVSPropertyOp46
 70
     1
102
RTVSPropertyOp47
 70
     1
102
RTVSPropertyOp48
 70
     1
102
RTVSPropertyOp49
 70
     1
102
RTVSPropertyOp50
 70
     1
102
RTVSPropertyOp51
 70
     0
102
RTVSPropertyOp52
 70
     0
102
RTVSPropertyOp53
 70
     1
102
RTVSPropertyOp54
 70
     1
102
RTVSPropertyOp55
 70
     1
102
RTVSPropertyOp56
 70
     1
102
RTVSPropertyOp57
 70
     1
102
RTVSPropertyOp58
 70
     1
102
RTVSPropertyOp59
 70
     1
102
RTVSPropertyOp60
 70
     1
102
RTVSPropertyOp61
 70
     1
102
RTVSPropertyOp62
 70
     1
  0
XRECORD
  5
39B
102
{ACAD_REACTORS
330
39A
102
}
330
39A
100
AcDbXrecord
280
     1
102
RTVSPost2010Prop28
280
     0
102
RTVSPost2010PropOp28
 70
     1
102
RTVSPost2010Prop29
280
     1
102
RTVSPost2010PropOp29
 70
     1
102
RTVSPost2010Prop30
280
     1
102
RTVSPost2010PropOp30
 70
     1
102
RTVSPost2010Prop31
280
     0
102
RTVSPost2010PropOp31
 70
     1
102
RTVSPost2010Prop32
280
     0
102
RTVSPost2010PropOp32
 70
     1
102
RTVSPost2010Prop33
280
     0
102
RTVSPost2010PropOp33
 70
     1
102
RTVSPost2010Prop34
280
     0
102
RTVSPost2010PropOp34
 70
     1
102
RTVSPost2010Prop35
280
     0
102
RTVSPost2010PropOp35
 70
     1
102
RTVSPost2010Prop36
280
     0
102
RTVSPost2010PropOp36
 70
     1
102
RTVSPost2010Prop37
 90
       50
102
RTVSPost2010PropOp37
 70
     1
102
RTVSPost2010Prop38
140
0.0
102
RTVSPost2010PropOp38
 70
     1
102
RTVSPost2010Prop39
140
1.0
102
RTVSPost2010PropOp39
 70
     1
102
RTVSPost2010Prop40
 90
        0
102
RTVSPost2010PropOp40
 70
     1
102
RTVSPost2010Prop41ColorIndex
 90
       18
102
RTVSPost2010Prop41ColorRGB
 90
        0
102
RTVSPost2010PropOp41
 70
     1
102
RTVSPost2010Prop42
 90
       50
102
RTVSPost2010PropOp42
 70
     1
102
RTVSPost2010Prop43
 90
        3
102
RTVSPost2010PropOp43
 70
     1
102
RTVSPost2010Prop44ColorIndex
 90
        5
102
RTVSPost2010Prop44ColorRGB
 90
      255
102
RTVSPost2010PropOp44
 70
     1
102
RTVSPost2010Prop45
280
     0
102
RTVSPost2010PropOp45
 70
     1
102
RTVSPost2010Prop46
 90
       50
102
RTVSPost2010PropOp46
 70
     1
102
RTVSPost2010Prop47
 90
       50
102
RTVSPost2010PropOp47
 70
     1
102
RTVSPost2010Prop48
 90
       50
102
RTVSPost2010PropOp48
 70
     1
102
RTVSPost2010Prop49
280
     0
102
RTVSPost2010PropOp49
 70
     1
102
RTVSPost2010Prop50
 90
       50
102
RTVSPost2010PropOp50
 70
     1
102
RTVSPost2010Prop51ColorIndex
 90
      256
102
RTVSPost2010Prop51ColorRGB
 90
-16777216
102
RTVSPost2010PropOp51
 70
     0
102
RTVSPost2010Prop52
140
1.0
102
RTVSPost2010PropOp52
 70
     0
102
RTVSPost2010Prop53
 90
        2
102
RTVSPost2010PropOp53
 70
     1
102
RTVSPost2010Prop54
  1
strokes_ogs.tif
102
RTVSPost2010PropOp54
 70
     1
102
RTVSPost2010Prop55
280
     0
102
RTVSPost2010PropOp55
 70
     1
102
RTVSPost2010Prop56
140
1.0
102
RTVSPost2010PropOp56
 70
     1
102
RTVSPost2010Prop57
140
1.0
102
RTVSPost2010PropOp57
 70
     1
102
RTVSPropertyOp0
 70
     1
102
RTVSPropertyOp1
 70
     1
102
RTVSPropertyOp2
 70
     1
102
RTVSPropertyOp3
 70
     1
102
RTVSPropertyOp4
 70
     1
102
RTVSPropertyOp5
 70
     1
102
RTVSPropertyOp6
 70
     1
102
RTVSPropertyOp7
 70
     1
102
RTVSPropertyOp8
 70
     1
102
RTVSPropertyOp9
 70
     1
102
RTVSPropertyOp10
 70
     1
102
RTVSPropertyOp11
 70
     1
102
RTVSPropertyOp12
 70
     1
102
RTVSPropertyOp13
 70
     1
102
RTVSPropertyOp14
 70
     1
102
RTVSPropertyOp15
 70
     1
102
RTVSPropertyOp16
 70
     1
102
RTVSPropertyOp17
 70
     1
102
RTVSPropertyOp18
 70
     1
102
RTVSPropertyOp19
 70
     1
102
RTVSPropertyOp20
 70
     1
102
RTVSPropertyOp21
 70
     1
102
RTVSPropertyOp22
 70
     1
102
RTVSPropertyOp23
 70
     1
102
RTVSPropertyOp24
 70
     1
102
RTVSPropertyOp25
 70
     1
102
RTVSPropertyOp26
 70
     1
102
RTVSPropertyOp27
 70
     1
102
RTVSPropertyOp28
 70
     1
102
RTVSPropertyOp29
 70
     1
102
RTVSPropertyOp30
 70
     1
102
RTVSPropertyOp31
 70
     1
102
RTVSPropertyOp32
 70
     1
102
RTVSPropertyOp33
 70
     1
102
RTVSPropertyOp34
 70
     1
102
RTVSPropertyOp35
 70
     1
102
RTVSPropertyOp36
 70
     1
102
RTVSPropertyOp37
 70
     1
102
RTVSPropertyOp38
 70
     1
102
RTVSPropertyOp39
 70
     1
102
RTVSPropertyOp40
 70
     1
102
RTVSPropertyOp41
 70
     1
102
RTVSPropertyOp42
 70
     1
102
RTVSPropertyOp43
 70
     1
102
RTVSPropertyOp44
 70
     1
102
RTVSPropertyOp45
 70
     1
102
RTVSPropertyOp46
 70
     1
102
RTVSPropertyOp47
 70
     1
102
RTVSPropertyOp48
 70
     1
102
RTVSPropertyOp49
 70
     1
102
RTVSPropertyOp50
 70
     1
102
RTVSPropertyOp51
 70
     0
102
RTVSPropertyOp52
 70
     0
102
RTVSPropertyOp53
 70
     1
102
RTVSPropertyOp54
 70
     1
102
RTVSPropertyOp55
 70
     1
102
RTVSPropertyOp56
 70
     1
102
RTVSPropertyOp57
 70
     1
102
RTVSPropertyOp58
 70
     1
102
RTVSPropertyOp59
 70
     1
102
RTVSPropertyOp60
 70
     1
102
RTVSPropertyOp61
 70
     1
102
RTVSPropertyOp62
 70
     1
  0
XRECORD
  5
39D
102
{ACAD_REACTORS
330
39C
102
}
330
39C
100
AcDbXrecord
280
     1
102
RTVSPost2010Prop28
280
     0
102
RTVSPost2010PropOp28
 70
     1
102
RTVSPost2010Prop29
280
     1
102
RTVSPost2010PropOp29
 70
     1
102
RTVSPost2010Prop30
280
     1
102
RTVSPost2010PropOp30
 70
     1
102
RTVSPost2010Prop31
280
     0
102
RTVSPost2010PropOp31
 70
     1
102
RTVSPost2010Prop32
280
     0
102
RTVSPost2010PropOp32
 70
     1
102
RTVSPost2010Prop33
280
     0
102
RTVSPost2010PropOp33
 70
     1
102
RTVSPost2010Prop34
280
     0
102
RTVSPost2010PropOp34
 70
     1
102
RTVSPost2010Prop35
280
     0
102
RTVSPost2010PropOp35
 70
     1
102
RTVSPost2010Prop36
280
     0
102
RTVSPost2010PropOp36
 70
     1
102
RTVSPost2010Prop37
 90
       50
102
RTVSPost2010PropOp37
 70
     1
102
RTVSPost2010Prop38
140
0.0
102
RTVSPost2010PropOp38
 70
     1
102
RTVSPost2010Prop39
140
1.0
102
RTVSPost2010PropOp39
 70
     1
102
RTVSPost2010Prop40
 90
        0
102
RTVSPost2010PropOp40
 70
     1
102
RTVSPost2010Prop41ColorIndex
 90
       18
102
RTVSPost2010Prop41ColorRGB
 90
        0
102
RTVSPost2010PropOp41
 70
     1
102
RTVSPost2010Prop42
 90
       50
102
RTVSPost2010PropOp42
 70
     1
102
RTVSPost2010Prop43
 90
        3
102
RTVSPost2010PropOp43
 70
     1
102
RTVSPost2010Prop44ColorIndex
 90
        5
102
RTVSPost2010Prop44ColorRGB
 90
      255
102
RTVSPost2010PropOp44
 70
     1
102
RTVSPost2010Prop45
280
     0
102
RTVSPost2010PropOp45
 70
     1
102
RTVSPost2010Prop46
 90
       50
102
RTVSPost2010PropOp46
 70
     1
102
RTVSPost2010Prop47
 90
       50
102
RTVSPost2010PropOp47
 70
     1
102
RTVSPost2010Prop48
 90
       50
102
RTVSPost2010PropOp48
 70
     1
102
RTVSPost2010Prop49
280
     0
102
RTVSPost2010PropOp49
 70
     1
102
RTVSPost2010Prop50
 90
       50
102
RTVSPost2010PropOp50
 70
     1
102
RTVSPost2010Prop51ColorIndex
 90
      256
102
RTVSPost2010Prop51ColorRGB
 90
-16777216
102
RTVSPost2010PropOp51
 70
     0
102
RTVSPost2010Prop52
140
1.0
102
RTVSPost2010PropOp52
 70
     0
102
RTVSPost2010Prop53
 90
        2
102
RTVSPost2010PropOp53
 70
     1
102
RTVSPost2010Prop54
  1
strokes_ogs.tif
102
RTVSPost2010PropOp54
 70
     1
102
RTVSPost2010Prop55
280
     0
102
RTVSPost2010PropOp55
 70
     1
102
RTVSPost2010Prop56
140
1.0
102
RTVSPost2010PropOp56
 70
     1
102
RTVSPost2010Prop57
140
1.0
102
RTVSPost2010PropOp57
 70
     1
102
RTVSPropertyOp0
 70
     1
102
RTVSPropertyOp1
 70
     1
102
RTVSPropertyOp2
 70
     1
102
RTVSPropertyOp3
 70
     1
102
RTVSPropertyOp4
 70
     1
102
RTVSPropertyOp5
 70
     1
102
RTVSPropertyOp6
 70
     1
102
RTVSPropertyOp7
 70
     1
102
RTVSPropertyOp8
 70
     1
102
RTVSPropertyOp9
 70
     1
102
RTVSPropertyOp10
 70
     1
102
RTVSPropertyOp11
 70
     1
102
RTVSPropertyOp12
 70
     1
102
RTVSPropertyOp13
 70
     1
102
RTVSPropertyOp14
 70
     1
102
RTVSPropertyOp15
 70
     1
102
RTVSPropertyOp16
 70
     1
102
RTVSPropertyOp17
 70
     1
102
RTVSPropertyOp18
 70
     1
102
RTVSPropertyOp19
 70
     1
102
RTVSPropertyOp20
 70
     1
102
RTVSPropertyOp21
 70
     1
102
RTVSPropertyOp22
 70
     1
102
RTVSPropertyOp23
 70
     1
102
RTVSPropertyOp24
 70
     1
102
RTVSPropertyOp25
 70
     1
102
RTVSPropertyOp26
 70
     1
102
RTVSPropertyOp27
 70
     1
102
RTVSPropertyOp28
 70
     1
102
RTVSPropertyOp29
 70
     1
102
RTVSPropertyOp30
 70
     1
102
RTVSPropertyOp31
 70
     1
102
RTVSPropertyOp32
 70
     1
102
RTVSPropertyOp33
 70
     1
102
RTVSPropertyOp34
 70
     1
102
RTVSPropertyOp35
 70
     1
102
RTVSPropertyOp36
 70
     1
102
RTVSPropertyOp37
 70
     1
102
RTVSPropertyOp38
 70
     1
102
RTVSPropertyOp39
 70
     1
102
RTVSPropertyOp40
 70
     1
102
RTVSPropertyOp41
 70
     1
102
RTVSPropertyOp42
 70
     1
102
RTVSPropertyOp43
 70
     1
102
RTVSPropertyOp44
 70
     1
102
RTVSPropertyOp45
 70
     1
102
RTVSPropertyOp46
 70
     1
102
RTVSPropertyOp47
 70
     1
102
RTVSPropertyOp48
 70
     1
102
RTVSPropertyOp49
 70
     1
102
RTVSPropertyOp50
 70
     1
102
RTVSPropertyOp51
 70
     0
102
RTVSPropertyOp52
 70
     0
102
RTVSPropertyOp53
 70
     1
102
RTVSPropertyOp54
 70
     1
102
RTVSPropertyOp55
 70
     1
102
RTVSPropertyOp56
 70
     1
102
RTVSPropertyOp57
 70
     1
102
RTVSPropertyOp58
 70
     1
102
RTVSPropertyOp59
 70
     1
102
RTVSPropertyOp60
 70
     1
102
RTVSPropertyOp61
 70
     1
102
RTVSPropertyOp62
 70
     1
  0
XRECORD
  5
3A3
102
{ACAD_REACTORS
330
3A2
102
}
330
3A2
100
AcDbXrecord
280
     1
102
RTVSPost2010Prop28
280
     0
102
RTVSPost2010PropOp28
 70
     1
102
RTVSPost2010Prop29
280
     1
102
RTVSPost2010PropOp29
 70
     1
102
RTVSPost2010Prop30
280
     1
102
RTVSPost2010PropOp30
 70
     1
102
RTVSPost2010Prop31
280
     0
102
RTVSPost2010PropOp31
 70
     1
102
RTVSPost2010Prop32
280
     0
102
RTVSPost2010PropOp32
 70
     1
102
RTVSPost2010Prop33
280
     0
102
RTVSPost2010PropOp33
 70
     1
102
RTVSPost2010Prop34
280
     0
102
RTVSPost2010PropOp34
 70
     1
102
RTVSPost2010Prop35
280
     0
102
RTVSPost2010PropOp35
 70
     1
102
RTVSPost2010Prop36
280
     0
102
RTVSPost2010PropOp36
 70
     1
102
RTVSPost2010Prop37
 90
       50
102
RTVSPost2010PropOp37
 70
     1
102
RTVSPost2010Prop38
140
0.0
102
RTVSPost2010PropOp38
 70
     1
102
RTVSPost2010Prop39
140
1.0
102
RTVSPost2010PropOp39
 70
     1
102
RTVSPost2010Prop40
 90
        0
102
RTVSPost2010PropOp40
 70
     1
102
RTVSPost2010Prop41ColorIndex
 90
       18
102
RTVSPost2010Prop41ColorRGB
 90
        0
102
RTVSPost2010PropOp41
 70
     1
102
RTVSPost2010Prop42
 90
       50
102
RTVSPost2010PropOp42
 70
     1
102
RTVSPost2010Prop43
 90
        3
102
RTVSPost2010PropOp43
 70
     1
102
RTVSPost2010Prop44ColorIndex
 90
        5
102
RTVSPost2010Prop44ColorRGB
 90
      255
102
RTVSPost2010PropOp44
 70
     1
102
RTVSPost2010Prop45
280
     0
102
RTVSPost2010PropOp45
 70
     1
102
RTVSPost2010Prop46
 90
       50
102
RTVSPost2010PropOp46
 70
     1
102
RTVSPost2010Prop47
 90
       50
102
RTVSPost2010PropOp47
 70
     1
102
RTVSPost2010Prop48
 90
       50
102
RTVSPost2010PropOp48
 70
     1
102
RTVSPost2010Prop49
280
     0
102
RTVSPost2010PropOp49
 70
     1
102
RTVSPost2010Prop50
 90
       50
102
RTVSPost2010PropOp50
 70
     1
102
RTVSPost2010Prop51ColorIndex
 90
      256
102
RTVSPost2010Prop51ColorRGB
 90
-16777216
102
RTVSPost2010PropOp51
 70
     0
102
RTVSPost2010Prop52
140
1.0
102
RTVSPost2010PropOp52
 70
     0
102
RTVSPost2010Prop53
 90
        2
102
RTVSPost2010PropOp53
 70
     1
102
RTVSPost2010Prop54
  1
strokes_ogs.tif
102
RTVSPost2010PropOp54
 70
     1
102
RTVSPost2010Prop55
280
     0
102
RTVSPost2010PropOp55
 70
     1
102
RTVSPost2010Prop56
140
1.0
102
RTVSPost2010PropOp56
 70
     1
102
RTVSPost2010Prop57
140
1.0
102
RTVSPost2010PropOp57
 70
     1
102
RTVSPropertyOp0
 70
     1
102
RTVSPropertyOp1
 70
     1
102
RTVSPropertyOp2
 70
     1
102
RTVSPropertyOp3
 70
     1
102
RTVSPropertyOp4
 70
     1
102
RTVSPropertyOp5
 70
     1
102
RTVSPropertyOp6
 70
     1
102
RTVSPropertyOp7
 70
     1
102
RTVSPropertyOp8
 70
     1
102
RTVSPropertyOp9
 70
     1
102
RTVSPropertyOp10
 70
     1
102
RTVSPropertyOp11
 70
     1
102
RTVSPropertyOp12
 70
     1
102
RTVSPropertyOp13
 70
     1
102
RTVSPropertyOp14
 70
     1
102
RTVSPropertyOp15
 70
     1
102
RTVSPropertyOp16
 70
     1
102
RTVSPropertyOp17
 70
     1
102
RTVSPropertyOp18
 70
     1
102
RTVSPropertyOp19
 70
     1
102
RTVSPropertyOp20
 70
     1
102
RTVSPropertyOp21
 70
     1
102
RTVSPropertyOp22
 70
     1
102
RTVSPropertyOp23
 70
     1
102
RTVSPropertyOp24
 70
     1
102
RTVSPropertyOp25
 70
     1
102
RTVSPropertyOp26
 70
     1
102
RTVSPropertyOp27
 70
     1
102
RTVSPropertyOp28
 70
     1
102
RTVSPropertyOp29
 70
     1
102
RTVSPropertyOp30
 70
     1
102
RTVSPropertyOp31
 70
     1
102
RTVSPropertyOp32
 70
     1
102
RTVSPropertyOp33
 70
     1
102
RTVSPropertyOp34
 70
     1
102
RTVSPropertyOp35
 70
     1
102
RTVSPropertyOp36
 70
     1
102
RTVSPropertyOp37
 70
     1
102
RTVSPropertyOp38
 70
     1
102
RTVSPropertyOp39
 70
     1
102
RTVSPropertyOp40
 70
     1
102
RTVSPropertyOp41
 70
     1
102
RTVSPropertyOp42
 70
     1
102
RTVSPropertyOp43
 70
     1
102
RTVSPropertyOp44
 70
     1
102
RTVSPropertyOp45
 70
     1
102
RTVSPropertyOp46
 70
     1
102
RTVSPropertyOp47
 70
     1
102
RTVSPropertyOp48
 70
     1
102
RTVSPropertyOp49
 70
     1
102
RTVSPropertyOp50
 70
     1
102
RTVSPropertyOp51
 70
     0
102
RTVSPropertyOp52
 70
     0
102
RTVSPropertyOp53
 70
     1
102
RTVSPropertyOp54
 70
     1
102
RTVSPropertyOp55
 70
     1
102
RTVSPropertyOp56
 70
     1
102
RTVSPropertyOp57
 70
     1
102
RTVSPropertyOp58
 70
     1
102
RTVSPropertyOp59
 70
     1
102
RTVSPropertyOp60
 70
     1
102
RTVSPropertyOp61
 70
     1
102
RTVSPropertyOp62
 70
     1
  0
XRECORD
  5
3B7
102
{ACAD_REACTORS
330
3B6
102
}
330
3B6
100
AcDbXrecord
280
     1
102
RTVSPost2010Prop28
280
     0
102
RTVSPost2010PropOp28
 70
     0
102
RTVSPost2010Prop29
280
     1
102
RTVSPost2010PropOp29
 70
     0
102
RTVSPost2010Prop30
280
     1
102
RTVSPost2010PropOp30
 70
     0
102
RTVSPost2010Prop31
280
     0
102
RTVSPost2010PropOp31
 70
     0
102
RTVSPost2010Prop32
280
     0
102
RTVSPost2010PropOp32
 70
     0
102
RTVSPost2010Prop33
280
     0
102
RTVSPost2010PropOp33
 70
     0
102
RTVSPost2010Prop34
280
     0
102
RTVSPost2010PropOp34
 70
     0
102
RTVSPost2010Prop35
280
     0
102
RTVSPost2010PropOp35
 70
     0
102
RTVSPost2010Prop36
280
     0
102
RTVSPost2010PropOp36
 70
     0
102
RTVSPost2010Prop37
 90
       50
102
RTVSPost2010PropOp37
 70
     0
102
RTVSPost2010Prop38
140
0.0
102
RTVSPost2010PropOp38
 70
     0
102
RTVSPost2010Prop39
140
1.0
102
RTVSPost2010PropOp39
 70
     0
102
RTVSPost2010Prop40
 90
        0
102
RTVSPost2010PropOp40
 70
     0
102
RTVSPost2010Prop41ColorIndex
 90
       18
102
RTVSPost2010Prop41ColorRGB
 90
        0
102
RTVSPost2010PropOp41
 70
     0
102
RTVSPost2010Prop42
 90
       50
102
RTVSPost2010PropOp42
 70
     0
102
RTVSPost2010Prop43
 90
        3
102
RTVSPost2010PropOp43
 70
     0
102
RTVSPost2010Prop44ColorIndex
 90
        5
102
RTVSPost2010Prop44ColorRGB
 90
      255
102
RTVSPost2010PropOp44
 70
     0
102
RTVSPost2010Prop45
280
     0
102
RTVSPost2010PropOp45
 70
     0
102
RTVSPost2010Prop46
 90
       50
102
RTVSPost2010PropOp46
 70
     0
102
RTVSPost2010Prop47
 90
       50
102
RTVSPost2010PropOp47
 70
     0
102
RTVSPost2010Prop48
 90
       50
102
RTVSPost2010PropOp48
 70
     0
102
RTVSPost2010Prop49
280
     0
102
RTVSPost2010PropOp49
 70
     0
102
RTVSPost2010Prop50
 90
       50
102
RTVSPost2010PropOp50
 70
     0
102
RTVSPost2010Prop51ColorIndex
 90
      256
102
RTVSPost2010Prop51ColorRGB
 90
-16777216
102
RTVSPost2010PropOp51
 70
     0
102
RTVSPost2010Prop52
140
1.0
102
RTVSPost2010PropOp52
 70
     0
102
RTVSPost2010Prop53
 90
        2
102
RTVSPost2010PropOp53
 70
     0
102
RTVSPost2010Prop54
  1
strokes_ogs.tif
102
RTVSPost2010PropOp54
 70
     0
102
RTVSPost2010Prop55
280
     0
102
RTVSPost2010PropOp55
 70
     0
102
RTVSPost2010Prop56
140
1.0
102
RTVSPost2010PropOp56
 70
     0
102
RTVSPost2010Prop57
140
1.0
102
RTVSPost2010PropOp57
 70
     0
102
RTVSPropertyOp0
 70
     0
102
RTVSPropertyOp1
 70
     0
102
RTVSPropertyOp2
 70
     0
102
RTVSPropertyOp3
 70
     0
102
RTVSPropertyOp4
 70
     0
102
RTVSPropertyOp5
 70
     0
102
RTVSPropertyOp6
 70
     0
102
RTVSPropertyOp7
 70
     0
102
RTVSPropertyOp8
 70
     0
102
RTVSPropertyOp9
 70
     0
102
RTVSPropertyOp10
 70
     0
102
RTVSPropertyOp11
 70
     0
102
RTVSPropertyOp12
 70
     0
102
RTVSPropertyOp13
 70
     0
102
RTVSPropertyOp14
 70
     2
102
RTVSPropertyOp15
 70
     0
102
RTVSPropertyOp16
 70
     0
102
RTVSPropertyOp17
 70
     0
102
RTVSPropertyOp18
 70
     0
102
RTVSPropertyOp19
 70
     0
102
RTVSPropertyOp20
 70
     0
102
RTVSPropertyOp21
 70
     0
102
RTVSPropertyOp22
 70
     0
102
RTVSPropertyOp23
 70
     0
102
RTVSPropertyOp24
 70
     0
102
RTVSPropertyOp25
 70
     0
102
RTVSPropertyOp26
 70
     0
102
RTVSPropertyOp27
 70
     0
102
RTVSPropertyOp28
 70
     0
102
RTVSPropertyOp29
 70
     0
102
RTVSPropertyOp30
 70
     0
102
RTVSPropertyOp31
 70
     0
102
RTVSPropertyOp32
 70
     0
102
RTVSPropertyOp33
 70
     0
102
RTVSPropertyOp34
 70
     0
102
RTVSPropertyOp35
 70
     0
102
RTVSPropertyOp36
 70
     0
102
RTVSPropertyOp37
 70
     0
102
RTVSPropertyOp38
 70
     0
102
RTVSPropertyOp39
 70
     0
102
RTVSPropertyOp40
 70
     0
102
RTVSPropertyOp41
 70
     0
102
RTVSPropertyOp42
 70
     0
102
RTVSPropertyOp43
 70
     0
102
RTVSPropertyOp44
 70
     0
102
RTVSPropertyOp45
 70
     0
102
RTVSPropertyOp46
 70
     0
102
RTVSPropertyOp47
 70
     0
102
RTVSPropertyOp48
 70
     0
102
RTVSPropertyOp49
 70
     0
102
RTVSPropertyOp50
 70
     0
102
RTVSPropertyOp51
 70
     0
102
RTVSPropertyOp52
 70
     0
102
RTVSPropertyOp53
 70
     0
102
RTVSPropertyOp54
 70
     0
102
RTVSPropertyOp55
 70
     0
102
RTVSPropertyOp56
 70
     0
102
RTVSPropertyOp57
 70
     0
102
RTVSPropertyOp58
 70
     1
102
RTVSPropertyOp59
 70
     1
102
RTVSPropertyOp60
 70
     1
102
RTVSPropertyOp61
 70
     1
102
RTVSPropertyOp62
 70
     1
  0
XRECORD
  5
3B1
102
{ACAD_REACTORS
330
3B0
102
}
330
3B0
100
AcDbXrecord
280
     1
102
RTVSPost2010Prop28
280
     0
102
RTVSPost2010PropOp28
 70
     1
102
RTVSPost2010Prop29
280
     1
102
RTVSPost2010PropOp29
 70
     1
102
RTVSPost2010Prop30
280
     1
102
RTVSPost2010PropOp30
 70
     1
102
RTVSPost2010Prop31
280
     0
102
RTVSPost2010PropOp31
 70
     1
102
RTVSPost2010Prop32
280
     0
102
RTVSPost2010PropOp32
 70
     1
102
RTVSPost2010Prop33
280
     0
102
RTVSPost2010PropOp33
 70
     1
102
RTVSPost2010Prop34
280
     0
102
RTVSPost2010PropOp34
 70
     1
102
RTVSPost2010Prop35
280
     0
102
RTVSPost2010PropOp35
 70
     1
102
RTVSPost2010Prop36
280
     0
102
RTVSPost2010PropOp36
 70
     1
102
RTVSPost2010Prop37
 90
       50
102
RTVSPost2010PropOp37
 70
     1
102
RTVSPost2010Prop38
140
0.0
102
RTVSPost2010PropOp38
 70
     1
102
RTVSPost2010Prop39
140
1.0
102
RTVSPost2010PropOp39
 70
     1
102
RTVSPost2010Prop40
 90
        0
102
RTVSPost2010PropOp40
 70
     1
102
RTVSPost2010Prop41ColorIndex
 90
       18
102
RTVSPost2010Prop41ColorRGB
 90
        0
102
RTVSPost2010PropOp41
 70
     1
102
RTVSPost2010Prop42
 90
       50
102
RTVSPost2010PropOp42
 70
     1
102
RTVSPost2010Prop43
 90
        3
102
RTVSPost2010PropOp43
 70
     1
102
RTVSPost2010Prop44ColorIndex
 90
        5
102
RTVSPost2010Prop44ColorRGB
 90
      255
102
RTVSPost2010PropOp44
 70
     1
102
RTVSPost2010Prop45
280
     0
102
RTVSPost2010PropOp45
 70
     1
102
RTVSPost2010Prop46
 90
       50
102
RTVSPost2010PropOp46
 70
     1
102
RTVSPost2010Prop47
 90
       50
102
RTVSPost2010PropOp47
 70
     1
102
RTVSPost2010Prop48
 90
       50
102
RTVSPost2010PropOp48
 70
     1
102
RTVSPost2010Prop49
280
     0
102
RTVSPost2010PropOp49
 70
     1
102
RTVSPost2010Prop50
 90
       50
102
RTVSPost2010PropOp50
 70
     1
102
RTVSPost2010Prop51ColorIndex
 90
      256
102
RTVSPost2010Prop51ColorRGB
 90
-16777216
102
RTVSPost2010PropOp51
 70
     0
102
RTVSPost2010Prop52
140
1.0
102
RTVSPost2010PropOp52
 70
     0
102
RTVSPost2010Prop53
 90
        2
102
RTVSPost2010PropOp53
 70
     1
102
RTVSPost2010Prop54
  1
strokes_ogs.tif
102
RTVSPost2010PropOp54
 70
     1
102
RTVSPost2010Prop55
280
     0
102
RTVSPost2010PropOp55
 70
     1
102
RTVSPost2010Prop56
140
1.0
102
RTVSPost2010PropOp56
 70
     1
102
RTVSPost2010Prop57
140
1.0
102
RTVSPost2010PropOp57
 70
     1
102
RTVSPropertyOp0
 70
     1
102
RTVSPropertyOp1
 70
     1
102
RTVSPropertyOp2
 70
     1
102
RTVSPropertyOp3
 70
     1
102
RTVSPropertyOp4
 70
     1
102
RTVSPropertyOp5
 70
     1
102
RTVSPropertyOp6
 70
     1
102
RTVSPropertyOp7
 70
     1
102
RTVSPropertyOp8
 70
     1
102
RTVSPropertyOp9
 70
     1
102
RTVSPropertyOp10
 70
     1
102
RTVSPropertyOp11
 70
     1
102
RTVSPropertyOp12
 70
     1
102
RTVSPropertyOp13
 70
     1
102
RTVSPropertyOp14
 70
     1
102
RTVSPropertyOp15
 70
     1
102
RTVSPropertyOp16
 70
     1
102
RTVSPropertyOp17
 70
     1
102
RTVSPropertyOp18
 70
     1
102
RTVSPropertyOp19
 70
     1
102
RTVSPropertyOp20
 70
     1
102
RTVSPropertyOp21
 70
     1
102
RTVSPropertyOp22
 70
     1
102
RTVSPropertyOp23
 70
     1
102
RTVSPropertyOp24
 70
     1
102
RTVSPropertyOp25
 70
     1
102
RTVSPropertyOp26
 70
     1
102
RTVSPropertyOp27
 70
     1
102
RTVSPropertyOp28
 70
     1
102
RTVSPropertyOp29
 70
     1
102
RTVSPropertyOp30
 70
     1
102
RTVSPropertyOp31
 70
     1
102
RTVSPropertyOp32
 70
     1
102
RTVSPropertyOp33
 70
     1
102
RTVSPropertyOp34
 70
     1
102
RTVSPropertyOp35
 70
     1
102
RTVSPropertyOp36
 70
     1
102
RTVSPropertyOp37
 70
     1
102
RTVSPropertyOp38
 70
     1
102
RTVSPropertyOp39
 70
     1
102
RTVSPropertyOp40
 70
     1
102
RTVSPropertyOp41
 70
     1
102
RTVSPropertyOp42
 70
     1
102
RTVSPropertyOp43
 70
     1
102
RTVSPropertyOp44
 70
     1
102
RTVSPropertyOp45
 70
     1
102
RTVSPropertyOp46
 70
     1
102
RTVSPropertyOp47
 70
     1
102
RTVSPropertyOp48
 70
     1
102
RTVSPropertyOp49
 70
     1
102
RTVSPropertyOp50
 70
     1
102
RTVSPropertyOp51
 70
     0
102
RTVSPropertyOp52
 70
     0
102
RTVSPropertyOp53
 70
     1
102
RTVSPropertyOp54
 70
     1
102
RTVSPropertyOp55
 70
     1
102
RTVSPropertyOp56
 70
     1
102
RTVSPropertyOp57
 70
     1
102
RTVSPropertyOp58
 70
     1
102
RTVSPropertyOp59
 70
     1
102
RTVSPropertyOp60
 70
     1
102
RTVSPropertyOp61
 70
     1
102
RTVSPropertyOp62
 70
     1
  0
XRECORD
  5
3B9
102
{ACAD_REACTORS
330
3B8
102
}
330
3B8
100
AcDbXrecord
280
     1
102
RTVSPost2010Prop28
280
     0
102
RTVSPost2010PropOp28
 70
     0
102
RTVSPost2010Prop29
280
     1
102
RTVSPost2010PropOp29
 70
     0
102
RTVSPost2010Prop30
280
     1
102
RTVSPost2010PropOp30
 70
     0
102
RTVSPost2010Prop31
280
     0
102
RTVSPost2010PropOp31
 70
     0
102
RTVSPost2010Prop32
280
     0
102
RTVSPost2010PropOp32
 70
     0
102
RTVSPost2010Prop33
280
     0
102
RTVSPost2010PropOp33
 70
     0
102
RTVSPost2010Prop34
280
     0
102
RTVSPost2010PropOp34
 70
     0
102
RTVSPost2010Prop35
280
     0
102
RTVSPost2010PropOp35
 70
     0
102
RTVSPost2010Prop36
280
     0
102
RTVSPost2010PropOp36
 70
     0
102
RTVSPost2010Prop37
 90
       50
102
RTVSPost2010PropOp37
 70
     0
102
RTVSPost2010Prop38
140
0.0
102
RTVSPost2010PropOp38
 70
     0
102
RTVSPost2010Prop39
140
1.0
102
RTVSPost2010PropOp39
 70
     0
102
RTVSPost2010Prop40
 90
        0
102
RTVSPost2010PropOp40
 70
     0
102
RTVSPost2010Prop41ColorIndex
 90
       18
102
RTVSPost2010Prop41ColorRGB
 90
        0
102
RTVSPost2010PropOp41
 70
     0
102
RTVSPost2010Prop42
 90
       50
102
RTVSPost2010PropOp42
 70
     0
102
RTVSPost2010Prop43
 90
        3
102
RTVSPost2010PropOp43
 70
     0
102
RTVSPost2010Prop44ColorIndex
 90
        5
102
RTVSPost2010Prop44ColorRGB
 90
      255
102
RTVSPost2010PropOp44
 70
     0
102
RTVSPost2010Prop45
280
     0
102
RTVSPost2010PropOp45
 70
     0
102
RTVSPost2010Prop46
 90
       50
102
RTVSPost2010PropOp46
 70
     0
102
RTVSPost2010Prop47
 90
       50
102
RTVSPost2010PropOp47
 70
     0
102
RTVSPost2010Prop48
 90
       50
102
RTVSPost2010PropOp48
 70
     0
102
RTVSPost2010Prop49
280
     0
102
RTVSPost2010PropOp49
 70
     0
102
RTVSPost2010Prop50
 90
       50
102
RTVSPost2010PropOp50
 70
     0
102
RTVSPost2010Prop51ColorIndex
 90
      256
102
RTVSPost2010Prop51ColorRGB
 90
-16777216
102
RTVSPost2010PropOp51
 70
     0
102
RTVSPost2010Prop52
140
1.0
102
RTVSPost2010PropOp52
 70
     0
102
RTVSPost2010Prop53
 90
        2
102
RTVSPost2010PropOp53
 70
     0
102
RTVSPost2010Prop54
  1
strokes_ogs.tif
102
RTVSPost2010PropOp54
 70
     0
102
RTVSPost2010Prop55
280
     0
102
RTVSPost2010PropOp55
 70
     0
102
RTVSPost2010Prop56
140
1.0
102
RTVSPost2010PropOp56
 70
     0
102
RTVSPost2010Prop57
140
1.0
102
RTVSPost2010PropOp57
 70
     0
102
RTVSPropertyOp0
 70
     0
102
RTVSPropertyOp1
 70
     0
102
RTVSPropertyOp2
 70
     0
102
RTVSPropertyOp3
 70
     0
102
RTVSPropertyOp4
 70
     0
102
RTVSPropertyOp5
 70
     0
102
RTVSPropertyOp6
 70
     0
102
RTVSPropertyOp7
 70
     0
102
RTVSPropertyOp8
 70
     0
102
RTVSPropertyOp9
 70
     0
102
RTVSPropertyOp10
 70
     0
102
RTVSPropertyOp11
 70
     0
102
RTVSPropertyOp12
 70
     0
102
RTVSPropertyOp13
 70
     0
102
RTVSPropertyOp14
 70
     2
102
RTVSPropertyOp15
 70
     0
102
RTVSPropertyOp16
 70
     0
102
RTVSPropertyOp17
 70
     0
102
RTVSPropertyOp18
 70
     0
102
RTVSPropertyOp19
 70
     0
102
RTVSPropertyOp20
 70
     0
102
RTVSPropertyOp21
 70
     0
102
RTVSPropertyOp22
 70
     0
102
RTVSPropertyOp23
 70
     0
102
RTVSPropertyOp24
 70
     0
102
RTVSPropertyOp25
 70
     0
102
RTVSPropertyOp26
 70
     0
102
RTVSPropertyOp27
 70
     0
102
RTVSPropertyOp28
 70
     0
102
RTVSPropertyOp29
 70
     0
102
RTVSPropertyOp30
 70
     0
102
RTVSPropertyOp31
 70
     0
102
RTVSPropertyOp32
 70
     0
102
RTVSPropertyOp33
 70
     0
102
RTVSPropertyOp34
 70
     0
102
RTVSPropertyOp35
 70
     0
102
RTVSPropertyOp36
 70
     0
102
RTVSPropertyOp37
 70
     0
102
RTVSPropertyOp38
 70
     0
102
RTVSPropertyOp39
 70
     0
102
RTVSPropertyOp40
 70
     0
102
RTVSPropertyOp41
 70
     0
102
RTVSPropertyOp42
 70
     0
102
RTVSPropertyOp43
 70
     0
102
RTVSPropertyOp44
 70
     0
102
RTVSPropertyOp45
 70
     0
102
RTVSPropertyOp46
 70
     0
102
RTVSPropertyOp47
 70
     0
102
RTVSPropertyOp48
 70
     0
102
RTVSPropertyOp49
 70
     0
102
RTVSPropertyOp50
 70
     0
102
RTVSPropertyOp51
 70
     0
102
RTVSPropertyOp52
 70
     0
102
RTVSPropertyOp53
 70
     0
102
RTVSPropertyOp54
 70
     0
102
RTVSPropertyOp55
 70
     0
102
RTVSPropertyOp56
 70
     0
102
RTVSPropertyOp57
 70
     0
102
RTVSPropertyOp58
 70
     1
102
RTVSPropertyOp59
 70
     1
102
RTVSPropertyOp60
 70
     1
102
RTVSPropertyOp61
 70
     1
102
RTVSPropertyOp62
 70
     1
  0
XRECORD
  5
3A7
102
{ACAD_REACTORS
330
3A6
102
}
330
3A6
100
AcDbXrecord
280
     1
102
RTVSPost2010Prop28
280
     0
102
RTVSPost2010PropOp28
 70
     1
102
RTVSPost2010Prop29
280
     1
102
RTVSPost2010PropOp29
 70
     1
102
RTVSPost2010Prop30
280
     1
102
RTVSPost2010PropOp30
 70
     1
102
RTVSPost2010Prop31
280
     0
102
RTVSPost2010PropOp31
 70
     1
102
RTVSPost2010Prop32
280
     0
102
RTVSPost2010PropOp32
 70
     1
102
RTVSPost2010Prop33
280
     0
102
RTVSPost2010PropOp33
 70
     1
102
RTVSPost2010Prop34
280
     0
102
RTVSPost2010PropOp34
 70
     1
102
RTVSPost2010Prop35
280
     0
102
RTVSPost2010PropOp35
 70
     1
102
RTVSPost2010Prop36
280
     0
102
RTVSPost2010PropOp36
 70
     1
102
RTVSPost2010Prop37
 90
       50
102
RTVSPost2010PropOp37
 70
     1
102
RTVSPost2010Prop38
140
0.0
102
RTVSPost2010PropOp38
 70
     1
102
RTVSPost2010Prop39
140
1.0
102
RTVSPost2010PropOp39
 70
     1
102
RTVSPost2010Prop40
 90
        0
102
RTVSPost2010PropOp40
 70
     1
102
RTVSPost2010Prop41ColorIndex
 90
       18
102
RTVSPost2010Prop41ColorRGB
 90
        0
102
RTVSPost2010PropOp41
 70
     1
102
RTVSPost2010Prop42
 90
       50
102
RTVSPost2010PropOp42
 70
     1
102
RTVSPost2010Prop43
 90
        3
102
RTVSPost2010PropOp43
 70
     1
102
RTVSPost2010Prop44ColorIndex
 90
        5
102
RTVSPost2010Prop44ColorRGB
 90
      255
102
RTVSPost2010PropOp44
 70
     1
102
RTVSPost2010Prop45
280
     0
102
RTVSPost2010PropOp45
 70
     1
102
RTVSPost2010Prop46
 90
       50
102
RTVSPost2010PropOp46
 70
     1
102
RTVSPost2010Prop47
 90
       50
102
RTVSPost2010PropOp47
 70
     1
102
RTVSPost2010Prop48
 90
       50
102
RTVSPost2010PropOp48
 70
     1
102
RTVSPost2010Prop49
280
     0
102
RTVSPost2010PropOp49
 70
     1
102
RTVSPost2010Prop50
 90
       50
102
RTVSPost2010PropOp50
 70
     1
102
RTVSPost2010Prop51ColorIndex
 90
      256
102
RTVSPost2010Prop51ColorRGB
 90
-16777216
102
RTVSPost2010PropOp51
 70
     0
102
RTVSPost2010Prop52
140
1.0
102
RTVSPost2010PropOp52
 70
     0
102
RTVSPost2010Prop53
 90
        2
102
RTVSPost2010PropOp53
 70
     1
102
RTVSPost2010Prop54
  1
strokes_ogs.tif
102
RTVSPost2010PropOp54
 70
     1
102
RTVSPost2010Prop55
280
     0
102
RTVSPost2010PropOp55
 70
     1
102
RTVSPost2010Prop56
140
1.0
102
RTVSPost2010PropOp56
 70
     1
102
RTVSPost2010Prop57
140
1.0
102
RTVSPost2010PropOp57
 70
     1
102
RTVSPropertyOp0
 70
     1
102
RTVSPropertyOp1
 70
     1
102
RTVSPropertyOp2
 70
     1
102
RTVSPropertyOp3
 70
     1
102
RTVSPropertyOp4
 70
     1
102
RTVSPropertyOp5
 70
     1
102
RTVSPropertyOp6
 70
     1
102
RTVSPropertyOp7
 70
     1
102
RTVSPropertyOp8
 70
     1
102
RTVSPropertyOp9
 70
     1
102
RTVSPropertyOp10
 70
     1
102
RTVSPropertyOp11
 70
     1
102
RTVSPropertyOp12
 70
     1
102
RTVSPropertyOp13
 70
     1
102
RTVSPropertyOp14
 70
     1
102
RTVSPropertyOp15
 70
     1
102
RTVSPropertyOp16
 70
     1
102
RTVSPropertyOp17
 70
     1
102
RTVSPropertyOp18
 70
     1
102
RTVSPropertyOp19
 70
     1
102
RTVSPropertyOp20
 70
     1
102
RTVSPropertyOp21
 70
     1
102
RTVSPropertyOp22
 70
     1
102
RTVSPropertyOp23
 70
     1
102
RTVSPropertyOp24
 70
     1
102
RTVSPropertyOp25
 70
     1
102
RTVSPropertyOp26
 70
     1
102
RTVSPropertyOp27
 70
     1
102
RTVSPropertyOp28
 70
     1
102
RTVSPropertyOp29
 70
     1
102
RTVSPropertyOp30
 70
     1
102
RTVSPropertyOp31
 70
     1
102
RTVSPropertyOp32
 70
     1
102
RTVSPropertyOp33
 70
     1
102
RTVSPropertyOp34
 70
     1
102
RTVSPropertyOp35
 70
     1
102
RTVSPropertyOp36
 70
     1
102
RTVSPropertyOp37
 70
     1
102
RTVSPropertyOp38
 70
     1
102
RTVSPropertyOp39
 70
     1
102
RTVSPropertyOp40
 70
     1
102
RTVSPropertyOp41
 70
     1
102
RTVSPropertyOp42
 70
     1
102
RTVSPropertyOp43
 70
     1
102
RTVSPropertyOp44
 70
     1
102
RTVSPropertyOp45
 70
     1
102
RTVSPropertyOp46
 70
     1
102
RTVSPropertyOp47
 70
     1
102
RTVSPropertyOp48
 70
     1
102
RTVSPropertyOp49
 70
     1
102
RTVSPropertyOp50
 70
     1
102
RTVSPropertyOp51
 70
     0
102
RTVSPropertyOp52
 70
     0
102
RTVSPropertyOp53
 70
     1
102
RTVSPropertyOp54
 70
     1
102
RTVSPropertyOp55
 70
     1
102
RTVSPropertyOp56
 70
     1
102
RTVSPropertyOp57
 70
     1
102
RTVSPropertyOp58
 70
     1
102
RTVSPropertyOp59
 70
     1
102
RTVSPropertyOp60
 70
     1
102
RTVSPropertyOp61
 70
     1
102
RTVSPropertyOp62
 70
     1
  0
XRECORD
  5
3C5
102
{ACAD_REACTORS
330
3C4
102
}
330
3C4
100
AcDbXrecord
280
     1
102
RTVSPost2010Prop28
280
     0
102
RTVSPost2010PropOp28
 70
     1
102
RTVSPost2010Prop29
280
     1
102
RTVSPost2010PropOp29
 70
     1
102
RTVSPost2010Prop30
280
     1
102
RTVSPost2010PropOp30
 70
     1
102
RTVSPost2010Prop31
280
     0
102
RTVSPost2010PropOp31
 70
     1
102
RTVSPost2010Prop32
280
     0
102
RTVSPost2010PropOp32
 70
     1
102
RTVSPost2010Prop33
280
     0
102
RTVSPost2010PropOp33
 70
     1
102
RTVSPost2010Prop34
280
     0
102
RTVSPost2010PropOp34
 70
     1
102
RTVSPost2010Prop35
280
     0
102
RTVSPost2010PropOp35
 70
     1
102
RTVSPost2010Prop36
280
     0
102
RTVSPost2010PropOp36
 70
     1
102
RTVSPost2010Prop37
 90
       50
102
RTVSPost2010PropOp37
 70
     1
102
RTVSPost2010Prop38
140
0.0
102
RTVSPost2010PropOp38
 70
     1
102
RTVSPost2010Prop39
140
1.0
102
RTVSPost2010PropOp39
 70
     1
102
RTVSPost2010Prop40
 90
        0
102
RTVSPost2010PropOp40
 70
     1
102
RTVSPost2010Prop41ColorIndex
 90
       18
102
RTVSPost2010Prop41ColorRGB
 90
        0
102
RTVSPost2010PropOp41
 70
     1
102
RTVSPost2010Prop42
 90
       50
102
RTVSPost2010PropOp42
 70
     1
102
RTVSPost2010Prop43
 90
        3
102
RTVSPost2010PropOp43
 70
     1
102
RTVSPost2010Prop44ColorIndex
 90
        5
102
RTVSPost2010Prop44ColorRGB
 90
      255
102
RTVSPost2010PropOp44
 70
     1
102
RTVSPost2010Prop45
280
     0
102
RTVSPost2010PropOp45
 70
     1
102
RTVSPost2010Prop46
 90
       50
102
RTVSPost2010PropOp46
 70
     1
102
RTVSPost2010Prop47
 90
       50
102
RTVSPost2010PropOp47
 70
     1
102
RTVSPost2010Prop48
 90
       50
102
RTVSPost2010PropOp48
 70
     1
102
RTVSPost2010Prop49
280
     0
102
RTVSPost2010PropOp49
 70
     1
102
RTVSPost2010Prop50
 90
       50
102
RTVSPost2010PropOp50
 70
     1
102
RTVSPost2010Prop51ColorIndex
 90
      256
102
RTVSPost2010Prop51ColorRGB
 90
-16777216
102
RTVSPost2010PropOp51
 70
     0
102
RTVSPost2010Prop52
140
1.0
102
RTVSPost2010PropOp52
 70
     0
102
RTVSPost2010Prop53
 90
        2
102
RTVSPost2010PropOp53
 70
     1
102
RTVSPost2010Prop54
  1
strokes_ogs.tif
102
RTVSPost2010PropOp54
 70
     1
102
RTVSPost2010Prop55
280
     0
102
RTVSPost2010PropOp55
 70
     1
102
RTVSPost2010Prop56
140
1.0
102
RTVSPost2010PropOp56
 70
     1
102
RTVSPost2010Prop57
140
1.0
102
RTVSPost2010PropOp57
 70
     1
102
RTVSPropertyOp0
 70
     1
102
RTVSPropertyOp1
 70
     1
102
RTVSPropertyOp2
 70
     1
102
RTVSPropertyOp3
 70
     1
102
RTVSPropertyOp4
 70
     1
102
RTVSPropertyOp5
 70
     1
102
RTVSPropertyOp6
 70
     1
102
RTVSPropertyOp7
 70
     1
102
RTVSPropertyOp8
 70
     1
102
RTVSPropertyOp9
 70
     1
102
RTVSPropertyOp10
 70
     1
102
RTVSPropertyOp11
 70
     1
102
RTVSPropertyOp12
 70
     1
102
RTVSPropertyOp13
 70
     1
102
RTVSPropertyOp14
 70
     1
102
RTVSPropertyOp15
 70
     1
102
RTVSPropertyOp16
 70
     1
102
RTVSPropertyOp17
 70
     1
102
RTVSPropertyOp18
 70
     1
102
RTVSPropertyOp19
 70
     1
102
RTVSPropertyOp20
 70
     1
102
RTVSPropertyOp21
 70
     1
102
RTVSPropertyOp22
 70
     1
102
RTVSPropertyOp23
 70
     1
102
RTVSPropertyOp24
 70
     1
102
RTVSPropertyOp25
 70
     1
102
RTVSPropertyOp26
 70
     1
102
RTVSPropertyOp27
 70
     1
102
RTVSPropertyOp28
 70
     1
102
RTVSPropertyOp29
 70
     1
102
RTVSPropertyOp30
 70
     1
102
RTVSPropertyOp31
 70
     1
102
RTVSPropertyOp32
 70
     1
102
RTVSPropertyOp33
 70
     1
102
RTVSPropertyOp34
 70
     1
102
RTVSPropertyOp35
 70
     1
102
RTVSPropertyOp36
 70
     1
102
RTVSPropertyOp37
 70
     1
102
RTVSPropertyOp38
 70
     1
102
RTVSPropertyOp39
 70
     1
102
RTVSPropertyOp40
 70
     1
102
RTVSPropertyOp41
 70
     1
102
RTVSPropertyOp42
 70
     1
102
RTVSPropertyOp43
 70
     1
102
RTVSPropertyOp44
 70
     1
102
RTVSPropertyOp45
 70
     1
102
RTVSPropertyOp46
 70
     1
102
RTVSPropertyOp47
 70
     1
102
RTVSPropertyOp48
 70
     1
102
RTVSPropertyOp49
 70
     1
102
RTVSPropertyOp50
 70
     1
102
RTVSPropertyOp51
 70
     0
102
RTVSPropertyOp52
 70
     0
102
RTVSPropertyOp53
 70
     1
102
RTVSPropertyOp54
 70
     1
102
RTVSPropertyOp55
 70
     1
102
RTVSPropertyOp56
 70
     1
102
RTVSPropertyOp57
 70
     1
102
RTVSPropertyOp58
 70
     1
102
RTVSPropertyOp59
 70
     1
102
RTVSPropertyOp60
 70
     1
102
RTVSPropertyOp61
 70
     1
102
RTVSPropertyOp62
 70
     1
  0
XRECORD
  5
3C3
102
{ACAD_REACTORS
330
3C2
102
}
330
3C2
100
AcDbXrecord
280
     1
102
RTVSPost2010Prop28
280
     0
102
RTVSPost2010PropOp28
 70
     1
102
RTVSPost2010Prop29
280
     1
102
RTVSPost2010PropOp29
 70
     1
102
RTVSPost2010Prop30
280
     1
102
RTVSPost2010PropOp30
 70
     1
102
RTVSPost2010Prop31
280
     0
102
RTVSPost2010PropOp31
 70
     1
102
RTVSPost2010Prop32
280
     0
102
RTVSPost2010PropOp32
 70
     1
102
RTVSPost2010Prop33
280
     0
102
RTVSPost2010PropOp33
 70
     1
102
RTVSPost2010Prop34
280
     0
102
RTVSPost2010PropOp34
 70
     1
102
RTVSPost2010Prop35
280
     0
102
RTVSPost2010PropOp35
 70
     1
102
RTVSPost2010Prop36
280
     0
102
RTVSPost2010PropOp36
 70
     1
102
RTVSPost2010Prop37
 90
       50
102
RTVSPost2010PropOp37
 70
     1
102
RTVSPost2010Prop38
140
0.0
102
RTVSPost2010PropOp38
 70
     1
102
RTVSPost2010Prop39
140
1.0
102
RTVSPost2010PropOp39
 70
     1
102
RTVSPost2010Prop40
 90
        0
102
RTVSPost2010PropOp40
 70
     1
102
RTVSPost2010Prop41ColorIndex
 90
       18
102
RTVSPost2010Prop41ColorRGB
 90
        0
102
RTVSPost2010PropOp41
 70
     1
102
RTVSPost2010Prop42
 90
       50
102
RTVSPost2010PropOp42
 70
     1
102
RTVSPost2010Prop43
 90
        3
102
RTVSPost2010PropOp43
 70
     1
102
RTVSPost2010Prop44ColorIndex
 90
        5
102
RTVSPost2010Prop44ColorRGB
 90
      255
102
RTVSPost2010PropOp44
 70
     1
102
RTVSPost2010Prop45
280
     0
102
RTVSPost2010PropOp45
 70
     1
102
RTVSPost2010Prop46
 90
       50
102
RTVSPost2010PropOp46
 70
     1
102
RTVSPost2010Prop47
 90
       50
102
RTVSPost2010PropOp47
 70
     1
102
RTVSPost2010Prop48
 90
       50
102
RTVSPost2010PropOp48
 70
     1
102
RTVSPost2010Prop49
280
     0
102
RTVSPost2010PropOp49
 70
     1
102
RTVSPost2010Prop50
 90
       50
102
RTVSPost2010PropOp50
 70
     1
102
RTVSPost2010Prop51ColorIndex
 90
      256
102
RTVSPost2010Prop51ColorRGB
 90
-16777216
102
RTVSPost2010PropOp51
 70
     0
102
RTVSPost2010Prop52
140
1.0
102
RTVSPost2010PropOp52
 70
     0
102
RTVSPost2010Prop53
 90
        2
102
RTVSPost2010PropOp53
 70
     1
102
RTVSPost2010Prop54
  1
strokes_ogs.tif
102
RTVSPost2010PropOp54
 70
     1
102
RTVSPost2010Prop55
280
     0
102
RTVSPost2010PropOp55
 70
     1
102
RTVSPost2010Prop56
140
1.0
102
RTVSPost2010PropOp56
 70
     1
102
RTVSPost2010Prop57
140
1.0
102
RTVSPost2010PropOp57
 70
     1
102
RTVSPropertyOp0
 70
     1
102
RTVSPropertyOp1
 70
     1
102
RTVSPropertyOp2
 70
     1
102
RTVSPropertyOp3
 70
     1
102
RTVSPropertyOp4
 70
     1
102
RTVSPropertyOp5
 70
     1
102
RTVSPropertyOp6
 70
     1
102
RTVSPropertyOp7
 70
     1
102
RTVSPropertyOp8
 70
     1
102
RTVSPropertyOp9
 70
     1
102
RTVSPropertyOp10
 70
     1
102
RTVSPropertyOp11
 70
     1
102
RTVSPropertyOp12
 70
     1
102
RTVSPropertyOp13
 70
     1
102
RTVSPropertyOp14
 70
     1
102
RTVSPropertyOp15
 70
     1
102
RTVSPropertyOp16
 70
     1
102
RTVSPropertyOp17
 70
     1
102
RTVSPropertyOp18
 70
     1
102
RTVSPropertyOp19
 70
     1
102
RTVSPropertyOp20
 70
     1
102
RTVSPropertyOp21
 70
     1
102
RTVSPropertyOp22
 70
     1
102
RTVSPropertyOp23
 70
     1
102
RTVSPropertyOp24
 70
     1
102
RTVSPropertyOp25
 70
     1
102
RTVSPropertyOp26
 70
     1
102
RTVSPropertyOp27
 70
     1
102
RTVSPropertyOp28
 70
     1
102
RTVSPropertyOp29
 70
     1
102
RTVSPropertyOp30
 70
     1
102
RTVSPropertyOp31
 70
     1
102
RTVSPropertyOp32
 70
     1
102
RTVSPropertyOp33
 70
     1
102
RTVSPropertyOp34
 70
     1
102
RTVSPropertyOp35
 70
     1
102
RTVSPropertyOp36
 70
     1
102
RTVSPropertyOp37
 70
     1
102
RTVSPropertyOp38
 70
     1
102
RTVSPropertyOp39
 70
     1
102
RTVSPropertyOp40
 70
     1
102
RTVSPropertyOp41
 70
     1
102
RTVSPropertyOp42
 70
     1
102
RTVSPropertyOp43
 70
     1
102
RTVSPropertyOp44
 70
     1
102
RTVSPropertyOp45
 70
     1
102
RTVSPropertyOp46
 70
     1
102
RTVSPropertyOp47
 70
     1
102
RTVSPropertyOp48
 70
     1
102
RTVSPropertyOp49
 70
     1
102
RTVSPropertyOp50
 70
     1
102
RTVSPropertyOp51
 70
     0
102
RTVSPropertyOp52
 70
     0
102
RTVSPropertyOp53
 70
     1
102
RTVSPropertyOp54
 70
     1
102
RTVSPropertyOp55
 70
     1
102
RTVSPropertyOp56
 70
     1
102
RTVSPropertyOp57
 70
     1
102
RTVSPropertyOp58
 70
     1
102
RTVSPropertyOp59
 70
     1
102
RTVSPropertyOp60
 70
     1
102
RTVSPropertyOp61
 70
     1
102
RTVSPropertyOp62
 70
     1
  0
XRECORD
  5
3BD
102
{ACAD_REACTORS
330
3BC
102
}
330
3BC
100
AcDbXrecord
280
     1
102
RTVSPost2010Prop28
280
     0
102
RTVSPost2010PropOp28
 70
     1
102
RTVSPost2010Prop29
280
     1
102
RTVSPost2010PropOp29
 70
     1
102
RTVSPost2010Prop30
280
     1
102
RTVSPost2010PropOp30
 70
     1
102
RTVSPost2010Prop31
280
     0
102
RTVSPost2010PropOp31
 70
     1
102
RTVSPost2010Prop32
280
     0
102
RTVSPost2010PropOp32
 70
     1
102
RTVSPost2010Prop33
280
     0
102
RTVSPost2010PropOp33
 70
     1
102
RTVSPost2010Prop34
280
     0
102
RTVSPost2010PropOp34
 70
     1
102
RTVSPost2010Prop35
280
     0
102
RTVSPost2010PropOp35
 70
     1
102
RTVSPost2010Prop36
280
     0
102
RTVSPost2010PropOp36
 70
     1
102
RTVSPost2010Prop37
 90
       50
102
RTVSPost2010PropOp37
 70
     1
102
RTVSPost2010Prop38
140
0.0
102
RTVSPost2010PropOp38
 70
     1
102
RTVSPost2010Prop39
140
1.0
102
RTVSPost2010PropOp39
 70
     1
102
RTVSPost2010Prop40
 90
        0
102
RTVSPost2010PropOp40
 70
     1
102
RTVSPost2010Prop41ColorIndex
 90
       18
102
RTVSPost2010Prop41ColorRGB
 90
        0
102
RTVSPost2010PropOp41
 70
     1
102
RTVSPost2010Prop42
 90
       50
102
RTVSPost2010PropOp42
 70
     1
102
RTVSPost2010Prop43
 90
        3
102
RTVSPost2010PropOp43
 70
     1
102
RTVSPost2010Prop44ColorIndex
 90
        5
102
RTVSPost2010Prop44ColorRGB
 90
      255
102
RTVSPost2010PropOp44
 70
     1
102
RTVSPost2010Prop45
280
     0
102
RTVSPost2010PropOp45
 70
     1
102
RTVSPost2010Prop46
 90
       50
102
RTVSPost2010PropOp46
 70
     1
102
RTVSPost2010Prop47
 90
       50
102
RTVSPost2010PropOp47
 70
     1
102
RTVSPost2010Prop48
 90
       50
102
RTVSPost2010PropOp48
 70
     1
102
RTVSPost2010Prop49
280
     0
102
RTVSPost2010PropOp49
 70
     1
102
RTVSPost2010Prop50
 90
       50
102
RTVSPost2010PropOp50
 70
     1
102
RTVSPost2010Prop51ColorIndex
 90
      256
102
RTVSPost2010Prop51ColorRGB
 90
-16777216
102
RTVSPost2010PropOp51
 70
     0
102
RTVSPost2010Prop52
140
1.0
102
RTVSPost2010PropOp52
 70
     0
102
RTVSPost2010Prop53
 90
        2
102
RTVSPost2010PropOp53
 70
     1
102
RTVSPost2010Prop54
  1
strokes_ogs.tif
102
RTVSPost2010PropOp54
 70
     1
102
RTVSPost2010Prop55
280
     0
102
RTVSPost2010PropOp55
 70
     1
102
RTVSPost2010Prop56
140
1.0
102
RTVSPost2010PropOp56
 70
     1
102
RTVSPost2010Prop57
140
1.0
102
RTVSPost2010PropOp57
 70
     1
102
RTVSPropertyOp0
 70
     1
102
RTVSPropertyOp1
 70
     1
102
RTVSPropertyOp2
 70
     1
102
RTVSPropertyOp3
 70
     1
102
RTVSPropertyOp4
 70
     1
102
RTVSPropertyOp5
 70
     1
102
RTVSPropertyOp6
 70
     1
102
RTVSPropertyOp7
 70
     1
102
RTVSPropertyOp8
 70
     1
102
RTVSPropertyOp9
 70
     1
102
RTVSPropertyOp10
 70
     1
102
RTVSPropertyOp11
 70
     1
102
RTVSPropertyOp12
 70
     1
102
RTVSPropertyOp13
 70
     1
102
RTVSPropertyOp14
 70
     1
102
RTVSPropertyOp15
 70
     1
102
RTVSPropertyOp16
 70
     1
102
RTVSPropertyOp17
 70
     1
102
RTVSPropertyOp18
 70
     1
102
RTVSPropertyOp19
 70
     1
102
RTVSPropertyOp20
 70
     1
102
RTVSPropertyOp21
 70
     1
102
RTVSPropertyOp22
 70
     1
102
RTVSPropertyOp23
 70
     1
102
RTVSPropertyOp24
 70
     1
102
RTVSPropertyOp25
 70
     1
102
RTVSPropertyOp26
 70
     1
102
RTVSPropertyOp27
 70
     1
102
RTVSPropertyOp28
 70
     1
102
RTVSPropertyOp29
 70
     1
102
RTVSPropertyOp30
 70
     1
102
RTVSPropertyOp31
 70
     1
102
RTVSPropertyOp32
 70
     1
102
RTVSPropertyOp33
 70
     1
102
RTVSPropertyOp34
 70
     1
102
RTVSPropertyOp35
 70
     1
102
RTVSPropertyOp36
 70
     1
102
RTVSPropertyOp37
 70
     1
102
RTVSPropertyOp38
 70
     1
102
RTVSPropertyOp39
 70
     1
102
RTVSPropertyOp40
 70
     1
102
RTVSPropertyOp41
 70
     1
102
RTVSPropertyOp42
 70
     1
102
RTVSPropertyOp43
 70
     1
102
RTVSPropertyOp44
 70
     1
102
RTVSPropertyOp45
 70
     1
102
RTVSPropertyOp46
 70
     1
102
RTVSPropertyOp47
 70
     1
102
RTVSPropertyOp48
 70
     1
102
RTVSPropertyOp49
 70
     1
102
RTVSPropertyOp50
 70
     1
102
RTVSPropertyOp51
 70
     0
102
RTVSPropertyOp52
 70
     0
102
RTVSPropertyOp53
 70
     1
102
RTVSPropertyOp54
 70
     1
102
RTVSPropertyOp55
 70
     1
102
RTVSPropertyOp56
 70
     1
102
RTVSPropertyOp57
 70
     1
102
RTVSPropertyOp58
 70
     1
102
RTVSPropertyOp59
 70
     1
102
RTVSPropertyOp60
 70
     1
102
RTVSPropertyOp61
 70
     1
102
RTVSPropertyOp62
 70
     1
  0
XRECORD
  5
3BF
102
{ACAD_REACTORS
330
3BE
102
}
330
3BE
100
AcDbXrecord
280
     1
102
RTVSPost2010Prop28
280
     0
102
RTVSPost2010PropOp28
 70
     1
102
RTVSPost2010Prop29
280
     1
102
RTVSPost2010PropOp29
 70
     1
102
RTVSPost2010Prop30
280
     1
102
RTVSPost2010PropOp30
 70
     1
102
RTVSPost2010Prop31
280
     0
102
RTVSPost2010PropOp31
 70
     1
102
RTVSPost2010Prop32
280
     0
102
RTVSPost2010PropOp32
 70
     1
102
RTVSPost2010Prop33
280
     0
102
RTVSPost2010PropOp33
 70
     1
102
RTVSPost2010Prop34
280
     0
102
RTVSPost2010PropOp34
 70
     1
102
RTVSPost2010Prop35
280
     0
102
RTVSPost2010PropOp35
 70
     1
102
RTVSPost2010Prop36
280
     0
102
RTVSPost2010PropOp36
 70
     1
102
RTVSPost2010Prop37
 90
       50
102
RTVSPost2010PropOp37
 70
     1
102
RTVSPost2010Prop38
140
0.0
102
RTVSPost2010PropOp38
 70
     1
102
RTVSPost2010Prop39
140
1.0
102
RTVSPost2010PropOp39
 70
     1
102
RTVSPost2010Prop40
 90
        0
102
RTVSPost2010PropOp40
 70
     1
102
RTVSPost2010Prop41ColorIndex
 90
       18
102
RTVSPost2010Prop41ColorRGB
 90
        0
102
RTVSPost2010PropOp41
 70
     1
102
RTVSPost2010Prop42
 90
       50
102
RTVSPost2010PropOp42
 70
     1
102
RTVSPost2010Prop43
 90
        3
102
RTVSPost2010PropOp43
 70
     1
102
RTVSPost2010Prop44ColorIndex
 90
        5
102
RTVSPost2010Prop44ColorRGB
 90
      255
102
RTVSPost2010PropOp44
 70
     1
102
RTVSPost2010Prop45
280
     0
102
RTVSPost2010PropOp45
 70
     1
102
RTVSPost2010Prop46
 90
       50
102
RTVSPost2010PropOp46
 70
     1
102
RTVSPost2010Prop47
 90
       50
102
RTVSPost2010PropOp47
 70
     1
102
RTVSPost2010Prop48
 90
       50
102
RTVSPost2010PropOp48
 70
     1
102
RTVSPost2010Prop49
280
     0
102
RTVSPost2010PropOp49
 70
     1
102
RTVSPost2010Prop50
 90
       50
102
RTVSPost2010PropOp50
 70
     1
102
RTVSPost2010Prop51ColorIndex
 90
      256
102
RTVSPost2010Prop51ColorRGB
 90
-16777216
102
RTVSPost2010PropOp51
 70
     0
102
RTVSPost2010Prop52
140
1.0
102
RTVSPost2010PropOp52
 70
     0
102
RTVSPost2010Prop53
 90
        2
102
RTVSPost2010PropOp53
 70
     1
102
RTVSPost2010Prop54
  1
strokes_ogs.tif
102
RTVSPost2010PropOp54
 70
     1
102
RTVSPost2010Prop55
280
     0
102
RTVSPost2010PropOp55
 70
     1
102
RTVSPost2010Prop56
140
1.0
102
RTVSPost2010PropOp56
 70
     1
102
RTVSPost2010Prop57
140
1.0
102
RTVSPost2010PropOp57
 70
     1
102
RTVSPropertyOp0
 70
     1
102
RTVSPropertyOp1
 70
     1
102
RTVSPropertyOp2
 70
     1
102
RTVSPropertyOp3
 70
     1
102
RTVSPropertyOp4
 70
     1
102
RTVSPropertyOp5
 70
     1
102
RTVSPropertyOp6
 70
     1
102
RTVSPropertyOp7
 70
     1
102
RTVSPropertyOp8
 70
     1
102
RTVSPropertyOp9
 70
     1
102
RTVSPropertyOp10
 70
     1
102
RTVSPropertyOp11
 70
     1
102
RTVSPropertyOp12
 70
     1
102
RTVSPropertyOp13
 70
     1
102
RTVSPropertyOp14
 70
     1
102
RTVSPropertyOp15
 70
     1
102
RTVSPropertyOp16
 70
     1
102
RTVSPropertyOp17
 70
     1
102
RTVSPropertyOp18
 70
     1
102
RTVSPropertyOp19
 70
     1
102
RTVSPropertyOp20
 70
     1
102
RTVSPropertyOp21
 70
     1
102
RTVSPropertyOp22
 70
     1
102
RTVSPropertyOp23
 70
     1
102
RTVSPropertyOp24
 70
     1
102
RTVSPropertyOp25
 70
     1
102
RTVSPropertyOp26
 70
     1
102
RTVSPropertyOp27
 70
     1
102
RTVSPropertyOp28
 70
     1
102
RTVSPropertyOp29
 70
     1
102
RTVSPropertyOp30
 70
     1
102
RTVSPropertyOp31
 70
     1
102
RTVSPropertyOp32
 70
     1
102
RTVSPropertyOp33
 70
     1
102
RTVSPropertyOp34
 70
     1
102
RTVSPropertyOp35
 70
     1
102
RTVSPropertyOp36
 70
     1
102
RTVSPropertyOp37
 70
     1
102
RTVSPropertyOp38
 70
     1
102
RTVSPropertyOp39
 70
     1
102
RTVSPropertyOp40
 70
     1
102
RTVSPropertyOp41
 70
     1
102
RTVSPropertyOp42
 70
     1
102
RTVSPropertyOp43
 70
     1
102
RTVSPropertyOp44
 70
     1
102
RTVSPropertyOp45
 70
     1
102
RTVSPropertyOp46
 70
     1
102
RTVSPropertyOp47
 70
     1
102
RTVSPropertyOp48
 70
     1
102
RTVSPropertyOp49
 70
     1
102
RTVSPropertyOp50
 70
     1
102
RTVSPropertyOp51
 70
     0
102
RTVSPropertyOp52
 70
     0
102
RTVSPropertyOp53
 70
     1
102
RTVSPropertyOp54
 70
     1
102
RTVSPropertyOp55
 70
     1
102
RTVSPropertyOp56
 70
     1
102
RTVSPropertyOp57
 70
     1
102
RTVSPropertyOp58
 70
     1
102
RTVSPropertyOp59
 70
     1
102
RTVSPropertyOp60
 70
     1
102
RTVSPropertyOp61
 70
     1
102
RTVSPropertyOp62
 70
     1
  0
XRECORD
  5
3AF
102
{ACAD_REACTORS
330
3AE
102
}
330
3AE
100
AcDbXrecord
280
     1
102
RTVSPost2010Prop28
280
     0
102
RTVSPost2010PropOp28
 70
     1
102
RTVSPost2010Prop29
280
     1
102
RTVSPost2010PropOp29
 70
     1
102
RTVSPost2010Prop30
280
     1
102
RTVSPost2010PropOp30
 70
     1
102
RTVSPost2010Prop31
280
     0
102
RTVSPost2010PropOp31
 70
     1
102
RTVSPost2010Prop32
280
     0
102
RTVSPost2010PropOp32
 70
     1
102
RTVSPost2010Prop33
280
     0
102
RTVSPost2010PropOp33
 70
     1
102
RTVSPost2010Prop34
280
     0
102
RTVSPost2010PropOp34
 70
     1
102
RTVSPost2010Prop35
280
     0
102
RTVSPost2010PropOp35
 70
     1
102
RTVSPost2010Prop36
280
     0
102
RTVSPost2010PropOp36
 70
     1
102
RTVSPost2010Prop37
 90
       50
102
RTVSPost2010PropOp37
 70
     1
102
RTVSPost2010Prop38
140
0.0
102
RTVSPost2010PropOp38
 70
     1
102
RTVSPost2010Prop39
140
1.0
102
RTVSPost2010PropOp39
 70
     1
102
RTVSPost2010Prop40
 90
        0
102
RTVSPost2010PropOp40
 70
     1
102
RTVSPost2010Prop41ColorIndex
 90
       18
102
RTVSPost2010Prop41ColorRGB
 90
        0
102
RTVSPost2010PropOp41
 70
     1
102
RTVSPost2010Prop42
 90
       50
102
RTVSPost2010PropOp42
 70
     1
102
RTVSPost2010Prop43
 90
        3
102
RTVSPost2010PropOp43
 70
     1
102
RTVSPost2010Prop44ColorIndex
 90
        5
102
RTVSPost2010Prop44ColorRGB
 90
      255
102
RTVSPost2010PropOp44
 70
     1
102
RTVSPost2010Prop45
280
     0
102
RTVSPost2010PropOp45
 70
     1
102
RTVSPost2010Prop46
 90
       50
102
RTVSPost2010PropOp46
 70
     1
102
RTVSPost2010Prop47
 90
       50
102
RTVSPost2010PropOp47
 70
     1
102
RTVSPost2010Prop48
 90
       50
102
RTVSPost2010PropOp48
 70
     1
102
RTVSPost2010Prop49
280
     0
102
RTVSPost2010PropOp49
 70
     1
102
RTVSPost2010Prop50
 90
       50
102
RTVSPost2010PropOp50
 70
     1
102
RTVSPost2010Prop51ColorIndex
 90
      256
102
RTVSPost2010Prop51ColorRGB
 90
-16777216
102
RTVSPost2010PropOp51
 70
     0
102
RTVSPost2010Prop52
140
1.0
102
RTVSPost2010PropOp52
 70
     0
102
RTVSPost2010Prop53
 90
        2
102
RTVSPost2010PropOp53
 70
     1
102
RTVSPost2010Prop54
  1
strokes_ogs.tif
102
RTVSPost2010PropOp54
 70
     1
102
RTVSPost2010Prop55
280
     0
102
RTVSPost2010PropOp55
 70
     1
102
RTVSPost2010Prop56
140
1.0
102
RTVSPost2010PropOp56
 70
     1
102
RTVSPost2010Prop57
140
1.0
102
RTVSPost2010PropOp57
 70
     1
102
RTVSPropertyOp0
 70
     1
102
RTVSPropertyOp1
 70
     1
102
RTVSPropertyOp2
 70
     1
102
RTVSPropertyOp3
 70
     1
102
RTVSPropertyOp4
 70
     1
102
RTVSPropertyOp5
 70
     1
102
RTVSPropertyOp6
 70
     1
102
RTVSPropertyOp7
 70
     1
102
RTVSPropertyOp8
 70
     1
102
RTVSPropertyOp9
 70
     1
102
RTVSPropertyOp10
 70
     1
102
RTVSPropertyOp11
 70
     1
102
RTVSPropertyOp12
 70
     1
102
RTVSPropertyOp13
 70
     1
102
RTVSPropertyOp14
 70
     1
102
RTVSPropertyOp15
 70
     1
102
RTVSPropertyOp16
 70
     1
102
RTVSPropertyOp17
 70
     1
102
RTVSPropertyOp18
 70
     1
102
RTVSPropertyOp19
 70
     1
102
RTVSPropertyOp20
 70
     1
102
RTVSPropertyOp21
 70
     1
102
RTVSPropertyOp22
 70
     1
102
RTVSPropertyOp23
 70
     1
102
RTVSPropertyOp24
 70
     1
102
RTVSPropertyOp25
 70
     1
102
RTVSPropertyOp26
 70
     1
102
RTVSPropertyOp27
 70
     1
102
RTVSPropertyOp28
 70
     1
102
RTVSPropertyOp29
 70
     1
102
RTVSPropertyOp30
 70
     1
102
RTVSPropertyOp31
 70
     1
102
RTVSPropertyOp32
 70
     1
102
RTVSPropertyOp33
 70
     1
102
RTVSPropertyOp34
 70
     1
102
RTVSPropertyOp35
 70
     1
102
RTVSPropertyOp36
 70
     1
102
RTVSPropertyOp37
 70
     1
102
RTVSPropertyOp38
 70
     1
102
RTVSPropertyOp39
 70
     1
102
RTVSPropertyOp40
 70
     1
102
RTVSPropertyOp41
 70
     1
102
RTVSPropertyOp42
 70
     1
102
RTVSPropertyOp43
 70
     1
102
RTVSPropertyOp44
 70
     1
102
RTVSPropertyOp45
 70
     1
102
RTVSPropertyOp46
 70
     1
102
RTVSPropertyOp47
 70
     1
102
RTVSPropertyOp48
 70
     1
102
RTVSPropertyOp49
 70
     1
102
RTVSPropertyOp50
 70
     1
102
RTVSPropertyOp51
 70
     0
102
RTVSPropertyOp52
 70
     0
102
RTVSPropertyOp53
 70
     1
102
RTVSPropertyOp54
 70
     1
102
RTVSPropertyOp55
 70
     1
102
RTVSPropertyOp56
 70
     1
102
RTVSPropertyOp57
 70
     1
102
RTVSPropertyOp58
 70
     1
102
RTVSPropertyOp59
 70
     1
102
RTVSPropertyOp60
 70
     1
102
RTVSPropertyOp61
 70
     1
102
RTVSPropertyOp62
 70
     1
  0
XRECORD
  5
3A1
102
{ACAD_REACTORS
330
3A0
102
}
330
3A0
100
AcDbXrecord
280
     1
102
RTVSPost2010Prop28
280
     0
102
RTVSPost2010PropOp28
 70
     1
102
RTVSPost2010Prop29
280
     1
102
RTVSPost2010PropOp29
 70
     1
102
RTVSPost2010Prop30
280
     1
102
RTVSPost2010PropOp30
 70
     1
102
RTVSPost2010Prop31
280
     0
102
RTVSPost2010PropOp31
 70
     1
102
RTVSPost2010Prop32
280
     0
102
RTVSPost2010PropOp32
 70
     1
102
RTVSPost2010Prop33
280
     0
102
RTVSPost2010PropOp33
 70
     1
102
RTVSPost2010Prop34
280
     0
102
RTVSPost2010PropOp34
 70
     1
102
RTVSPost2010Prop35
280
     0
102
RTVSPost2010PropOp35
 70
     1
102
RTVSPost2010Prop36
280
     0
102
RTVSPost2010PropOp36
 70
     1
102
RTVSPost2010Prop37
 90
       50
102
RTVSPost2010PropOp37
 70
     1
102
RTVSPost2010Prop38
140
0.0
102
RTVSPost2010PropOp38
 70
     1
102
RTVSPost2010Prop39
140
1.0
102
RTVSPost2010PropOp39
 70
     1
102
RTVSPost2010Prop40
 90
        0
102
RTVSPost2010PropOp40
 70
     1
102
RTVSPost2010Prop41ColorIndex
 90
       18
102
RTVSPost2010Prop41ColorRGB
 90
        0
102
RTVSPost2010PropOp41
 70
     1
102
RTVSPost2010Prop42
 90
       50
102
RTVSPost2010PropOp42
 70
     1
102
RTVSPost2010Prop43
 90
        3
102
RTVSPost2010PropOp43
 70
     1
102
RTVSPost2010Prop44ColorIndex
 90
        5
102
RTVSPost2010Prop44ColorRGB
 90
      255
102
RTVSPost2010PropOp44
 70
     1
102
RTVSPost2010Prop45
280
     0
102
RTVSPost2010PropOp45
 70
     1
102
RTVSPost2010Prop46
 90
       50
102
RTVSPost2010PropOp46
 70
     1
102
RTVSPost2010Prop47
 90
       50
102
RTVSPost2010PropOp47
 70
     1
102
RTVSPost2010Prop48
 90
       50
102
RTVSPost2010PropOp48
 70
     1
102
RTVSPost2010Prop49
280
     0
102
RTVSPost2010PropOp49
 70
     1
102
RTVSPost2010Prop50
 90
       50
102
RTVSPost2010PropOp50
 70
     1
102
RTVSPost2010Prop51ColorIndex
 90
      256
102
RTVSPost2010Prop51ColorRGB
 90
-16777216
102
RTVSPost2010PropOp51
 70
     0
102
RTVSPost2010Prop52
140
1.0
102
RTVSPost2010PropOp52
 70
     0
102
RTVSPost2010Prop53
 90
        2
102
RTVSPost2010PropOp53
 70
     1
102
RTVSPost2010Prop54
  1
strokes_ogs.tif
102
RTVSPost2010PropOp54
 70
     1
102
RTVSPost2010Prop55
280
     0
102
RTVSPost2010PropOp55
 70
     1
102
RTVSPost2010Prop56
140
1.0
102
RTVSPost2010PropOp56
 70
     1
102
RTVSPost2010Prop57
140
1.0
102
RTVSPost2010PropOp57
 70
     1
102
RTVSPropertyOp0
 70
     1
102
RTVSPropertyOp1
 70
     1
102
RTVSPropertyOp2
 70
     1
102
RTVSPropertyOp3
 70
     1
102
RTVSPropertyOp4
 70
     1
102
RTVSPropertyOp5
 70
     1
102
RTVSPropertyOp6
 70
     1
102
RTVSPropertyOp7
 70
     1
102
RTVSPropertyOp8
 70
     1
102
RTVSPropertyOp9
 70
     1
102
RTVSPropertyOp10
 70
     1
102
RTVSPropertyOp11
 70
     1
102
RTVSPropertyOp12
 70
     1
102
RTVSPropertyOp13
 70
     1
102
RTVSPropertyOp14
 70
     1
102
RTVSPropertyOp15
 70
     1
102
RTVSPropertyOp16
 70
     1
102
RTVSPropertyOp17
 70
     1
102
RTVSPropertyOp18
 70
     1
102
RTVSPropertyOp19
 70
     1
102
RTVSPropertyOp20
 70
     1
102
RTVSPropertyOp21
 70
     1
102
RTVSPropertyOp22
 70
     1
102
RTVSPropertyOp23
 70
     1
102
RTVSPropertyOp24
 70
     1
102
RTVSPropertyOp25
 70
     1
102
RTVSPropertyOp26
 70
     1
102
RTVSPropertyOp27
 70
     1
102
RTVSPropertyOp28
 70
     1
102
RTVSPropertyOp29
 70
     1
102
RTVSPropertyOp30
 70
     1
102
RTVSPropertyOp31
 70
     1
102
RTVSPropertyOp32
 70
     1
102
RTVSPropertyOp33
 70
     1
102
RTVSPropertyOp34
 70
     1
102
RTVSPropertyOp35
 70
     1
102
RTVSPropertyOp36
 70
     1
102
RTVSPropertyOp37
 70
     1
102
RTVSPropertyOp38
 70
     1
102
RTVSPropertyOp39
 70
     1
102
RTVSPropertyOp40
 70
     1
102
RTVSPropertyOp41
 70
     1
102
RTVSPropertyOp42
 70
     1
102
RTVSPropertyOp43
 70
     1
102
RTVSPropertyOp44
 70
     1
102
RTVSPropertyOp45
 70
     1
102
RTVSPropertyOp46
 70
     1
102
RTVSPropertyOp47
 70
     1
102
RTVSPropertyOp48
 70
     1
102
RTVSPropertyOp49
 70
     1
102
RTVSPropertyOp50
 70
     1
102
RTVSPropertyOp51
 70
     0
102
RTVSPropertyOp52
 70
     0
102
RTVSPropertyOp53
 70
     1
102
RTVSPropertyOp54
 70
     1
102
RTVSPropertyOp55
 70
     1
102
RTVSPropertyOp56
 70
     1
102
RTVSPropertyOp57
 70
     1
102
RTVSPropertyOp58
 70
     1
102
RTVSPropertyOp59
 70
     1
102
RTVSPropertyOp60
 70
     1
102
RTVSPropertyOp61
 70
     1
102
RTVSPropertyOp62
 70
     1
  0
XRECORD
  5
3C1
102
{ACAD_REACTORS
330
3C0
102
}
330
3C0
100
AcDbXrecord
280
     1
102
RTVSPost2010Prop28
280
     0
102
RTVSPost2010PropOp28
 70
     1
102
RTVSPost2010Prop29
280
     1
102
RTVSPost2010PropOp29
 70
     1
102
RTVSPost2010Prop30
280
     1
102
RTVSPost2010PropOp30
 70
     1
102
RTVSPost2010Prop31
280
     0
102
RTVSPost2010PropOp31
 70
     1
102
RTVSPost2010Prop32
280
     0
102
RTVSPost2010PropOp32
 70
     1
102
RTVSPost2010Prop33
280
     0
102
RTVSPost2010PropOp33
 70
     1
102
RTVSPost2010Prop34
280
     0
102
RTVSPost2010PropOp34
 70
     1
102
RTVSPost2010Prop35
280
     0
102
RTVSPost2010PropOp35
 70
     1
102
RTVSPost2010Prop36
280
     0
102
RTVSPost2010PropOp36
 70
     1
102
RTVSPost2010Prop37
 90
       50
102
RTVSPost2010PropOp37
 70
     1
102
RTVSPost2010Prop38
140
0.0
102
RTVSPost2010PropOp38
 70
     1
102
RTVSPost2010Prop39
140
1.0
102
RTVSPost2010PropOp39
 70
     1
102
RTVSPost2010Prop40
 90
        0
102
RTVSPost2010PropOp40
 70
     1
102
RTVSPost2010Prop41ColorIndex
 90
       18
102
RTVSPost2010Prop41ColorRGB
 90
        0
102
RTVSPost2010PropOp41
 70
     1
102
RTVSPost2010Prop42
 90
       50
102
RTVSPost2010PropOp42
 70
     1
102
RTVSPost2010Prop43
 90
        3
102
RTVSPost2010PropOp43
 70
     1
102
RTVSPost2010Prop44ColorIndex
 90
        5
102
RTVSPost2010Prop44ColorRGB
 90
      255
102
RTVSPost2010PropOp44
 70
     1
102
RTVSPost2010Prop45
280
     0
102
RTVSPost2010PropOp45
 70
     1
102
RTVSPost2010Prop46
 90
       50
102
RTVSPost2010PropOp46
 70
     1
102
RTVSPost2010Prop47
 90
       50
102
RTVSPost2010PropOp47
 70
     1
102
RTVSPost2010Prop48
 90
       50
102
RTVSPost2010PropOp48
 70
     1
102
RTVSPost2010Prop49
280
     0
102
RTVSPost2010PropOp49
 70
     1
102
RTVSPost2010Prop50
 90
       50
102
RTVSPost2010PropOp50
 70
     1
102
RTVSPost2010Prop51ColorIndex
 90
      256
102
RTVSPost2010Prop51ColorRGB
 90
-16777216
102
RTVSPost2010PropOp51
 70
     0
102
RTVSPost2010Prop52
140
1.0
102
RTVSPost2010PropOp52
 70
     0
102
RTVSPost2010Prop53
 90
        2
102
RTVSPost2010PropOp53
 70
     1
102
RTVSPost2010Prop54
  1
strokes_ogs.tif
102
RTVSPost2010PropOp54
 70
     1
102
RTVSPost2010Prop55
280
     0
102
RTVSPost2010PropOp55
 70
     1
102
RTVSPost2010Prop56
140
1.0
102
RTVSPost2010PropOp56
 70
     1
102
RTVSPost2010Prop57
140
1.0
102
RTVSPost2010PropOp57
 70
     1
102
RTVSPropertyOp0
 70
     1
102
RTVSPropertyOp1
 70
     1
102
RTVSPropertyOp2
 70
     1
102
RTVSPropertyOp3
 70
     1
102
RTVSPropertyOp4
 70
     1
102
RTVSPropertyOp5
 70
     1
102
RTVSPropertyOp6
 70
     1
102
RTVSPropertyOp7
 70
     1
102
RTVSPropertyOp8
 70
     1
102
RTVSPropertyOp9
 70
     1
102
RTVSPropertyOp10
 70
     1
102
RTVSPropertyOp11
 70
     1
102
RTVSPropertyOp12
 70
     1
102
RTVSPropertyOp13
 70
     1
102
RTVSPropertyOp14
 70
     1
102
RTVSPropertyOp15
 70
     1
102
RTVSPropertyOp16
 70
     1
102
RTVSPropertyOp17
 70
     1
102
RTVSPropertyOp18
 70
     1
102
RTVSPropertyOp19
 70
     1
102
RTVSPropertyOp20
 70
     1
102
RTVSPropertyOp21
 70
     1
102
RTVSPropertyOp22
 70
     1
102
RTVSPropertyOp23
 70
     1
102
RTVSPropertyOp24
 70
     1
102
RTVSPropertyOp25
 70
     1
102
RTVSPropertyOp26
 70
     1
102
RTVSPropertyOp27
 70
     1
102
RTVSPropertyOp28
 70
     1
102
RTVSPropertyOp29
 70
     1
102
RTVSPropertyOp30
 70
     1
102
RTVSPropertyOp31
 70
     1
102
RTVSPropertyOp32
 70
     1
102
RTVSPropertyOp33
 70
     1
102
RTVSPropertyOp34
 70
     1
102
RTVSPropertyOp35
 70
     1
102
RTVSPropertyOp36
 70
     1
102
RTVSPropertyOp37
 70
     1
102
RTVSPropertyOp38
 70
     1
102
RTVSPropertyOp39
 70
     1
102
RTVSPropertyOp40
 70
     1
102
RTVSPropertyOp41
 70
     1
102
RTVSPropertyOp42
 70
     1
102
RTVSPropertyOp43
 70
     1
102
RTVSPropertyOp44
 70
     1
102
RTVSPropertyOp45
 70
     1
102
RTVSPropertyOp46
 70
     1
102
RTVSPropertyOp47
 70
     1
102
RTVSPropertyOp48
 70
     1
102
RTVSPropertyOp49
 70
     1
102
RTVSPropertyOp50
 70
     1
102
RTVSPropertyOp51
 70
     0
102
RTVSPropertyOp52
 70
     0
102
RTVSPropertyOp53
 70
     1
102
RTVSPropertyOp54
 70
     1
102
RTVSPropertyOp55
 70
     1
102
RTVSPropertyOp56
 70
     1
102
RTVSPropertyOp57
 70
     1
102
RTVSPropertyOp58
 70
     1
102
RTVSPropertyOp59
 70
     1
102
RTVSPropertyOp60
 70
     1
102
RTVSPropertyOp61
 70
     1
102
RTVSPropertyOp62
 70
     1
  0
ENDSEC
  0
EOF
