  0
SECTION
  2
HEADER
  9
$ACADVER
  1
AC1024
  9
$ACADMAINTVER
 70
   205
  9
$DWGCODEPAGE
  3
ANSI_1252
  9
$LASTSAVEDBY
  1
MDJR
  9
$INSBASE
 10
0.0
 20
0.0
 30
0.0
  9
$EXTMIN
 10
-0.5
 20
-0.5
 30
-0.5
  9
$EXTMAX
 10
5.0
 20
5.0
 30
5.0
  9
$LIMMIN
 10
-0.5
 20
-0.5
  9
$LIMMAX
 10
5.0
 20
5.0
  9
$ORTHOMODE
 70
     0
  9
$REGENMODE
 70
     1
  9
$FILLMODE
 70
     1
  9
$QTEXTMODE
 70
     0
  9
$MIRRTEXT
 70
     1
  9
$LTSCALE
 40
1.0
  9
$ATTMODE
 70
     1
  9
$TEXTSIZE
 40
0.2
  9
$TRACEWID
 40
0.05
  9
$TEXTSTYLE
  7
Standard
  9
$CLAYER
  8
0
  9
$CELTYPE
  6
ByLayer
  9
$CECOLOR
 62
   256
  9
$CELTSCALE
 40
1.0
  9
$DISPSILH
 70
     0
  9
$DIMSCALE
 40
1.0
  9
$DIMASZ
 40
0.18
  9
$DIMEXO
 40
0.0625
  9
$DIMDLI
 40
0.38
  9
$DIMRND
 40
0.0
  9
$DIMDLE
 40
0.0
  9
$DIMEXE
 40
0.18
  9
$DIMTP
 40
0.0
  9
$DIMTM
 40
0.0
  9
$DIMTXT
 40
0.18
  9
$DIMCEN
 40
0.09
  9
$DIMTSZ
 40
0.0
  9
$DIMTOL
 70
     0
  9
$DIMLIM
 70
     0
  9
$DIMTIH
 70
     1
  9
$DIMTOH
 70
     1
  9
$DIMSE1
 70
     0
  9
$DIMSE2
 70
     0
  9
$DIMTAD
 70
     0
  9
$DIMZIN
 70
     0
  9
$DIMBLK
  1

  9
$DIMASO
 70
     1
  9
$DIMSHO
 70
     1
  9
$DIMPOST
  1

  9
$DIMAPOST
  1

  9
$DIMALT
 70
     0
  9
$DIMALTD
 70
     2
  9
$DIMALTF
 40
25.4
  9
$DIMLFAC
 40
1.0
  9
$DIMTOFL
 70
     0
  9
$DIMTVP
 40
0.0
  9
$DIMTIX
 70
     0
  9
$DIMSOXD
 70
     0
  9
$DIMSAH
 70
     0
  9
$DIMBLK1
  1

  9
$DIMBLK2
  1

  9
$DIMSTYLE
  2
Standard
  9
$DIMCLRD
 70
     0
  9
$DIMCLRE
 70
     0
  9
$DIMCLRT
 70
     0
  9
$DIMTFAC
 40
1.0
  9
$DIMGAP
 40
0.09
  9
$DIMJUST
 70
     0
  9
$DIMSD1
 70
     0
  9
$DIMSD2
 70
     0
  9
$DIMTOLJ
 70
     1
  9
$DIMTZIN
 70
     0
  9
$DIMALTZ
 70
     0
  9
$DIMALTTZ
 70
     0
  9
$DIMUPT
 70
     0
  9
$DIMDEC
 70
     4
  9
$DIMTDEC
 70
     4
  9
$DIMALTU
 70
     2
  9
$DIMALTTD
 70
     2
  9
$DIMTXSTY
  7
Standard
  9
$DIMAUNIT
 70
     0
  9
$DIMADEC
 70
     0
  9
$DIMALTRND
 40
0.0
  9
$DIMAZIN
 70
     0
  9
$DIMDSEP
 70
    46
  9
$DIMATFIT
 70
     3
  9
$DIMFRAC
 70
     0
  9
$DIMLDRBLK
  1

  9
$DIMLUNIT
 70
     2
  9
$DIMLWD
 70
    -2
  9
$DIMLWE
 70
    -2
  9
$DIMTMOVE
 70
     0
  9
$DIMFXL
 40
1.0
  9
$DIMFXLON
 70
     0
  9
$DIMJOGANG
 40
0.7853981633974483
  9
$DIMTFILL
 70
     0
  9
$DIMTFILLCLR
 70
     0
  9
$DIMARCSYM
 70
     0
  9
$DIMLTYPE
  6

  9
$DIMLTEX1
  6

  9
$DIMLTEX2
  6

  9
$DIMTXTDIRECTION
 70
     0
  9
$LUNITS
 70
     2
  9
$LUPREC
 70
     4
  9
$SKETCHINC
 40
0.1
  9
$FILLETRAD
 40
0.5
  9
$AUNITS
 70
     0
  9
$AUPREC
 70
     0
  9
$MENU
  1
.
  9
$ELEVATION
 40
0.0
  9
$PELEVATION
 40
0.0
  9
$THICKNESS
 40
0.0
  9
$LIMCHECK
 70
     0
  9
$CHAMFERA
 40
0.0
  9
$CHAMFERB
 40
0.0
  9
$CHAMFERC
 40
0.0
  9
$CHAMFERD
 40
0.0
  9
$SKPOLY
 70
     0
  9
$TDCREATE
 40
2459130.456539618
  9
$TDUCREATE
 40
2459130.664872951
  9
$TDUPDATE
 40
2459130.462502732
  9
$TDUUPDATE
 40
2459130.670836065
  9
$TDINDWG
 40
0.0013179514
  9
$TDUSRTIMER
 40
0.0013179514
  9
$USRTIMER
 70
     1
  9
$ANGBASE
 50
0.0
  9
$ANGDIR
 70
     0
  9
$PDMODE
 70
     0
  9
$PDSIZE
 40
0.0
  9
$PLINEWID
 40
0.0
  9
$SPLFRAME
 70
     0
  9
$SPLINETYPE
 70
     6
  9
$SPLINESEGS
 70
     8
  9
$HANDSEED
  5
459
  9
$SURFTAB1
 70
     6
  9
$SURFTAB2
 70
     6
  9
$SURFTYPE
 70
     6
  9
$SURFU
 70
     6
  9
$SURFV
 70
     6
  9
$UCSBASE
  2

  9
$UCSNAME
  2

  9
$UCSORG
 10
0.0
 20
0.0
 30
0.0
  9
$UCSXDIR
 10
1.0
 20
0.0
 30
0.0
  9
$UCSYDIR
 10
0.0
 20
1.0
 30
0.0
  9
$UCSORTHOREF
  2

  9
$UCSORTHOVIEW
 70
     0
  9
$UCSORGTOP
 10
0.0
 20
0.0
 30
0.0
  9
$UCSORGBOTTOM
 10
0.0
 20
0.0
 30
0.0
  9
$UCSORGLEFT
 10
0.0
 20
0.0
 30
0.0
  9
$UCSORGRIGHT
 10
0.0
 20
0.0
 30
0.0
  9
$UCSORGFRONT
 10
0.0
 20
0.0
 30
0.0
  9
$UCSORGBACK
 10
0.0
 20
0.0
 30
0.0
  9
$PUCSBASE
  2

  9
$PUCSNAME
  2

  9
$PUCSORG
 10
0.0
 20
0.0
 30
0.0
  9
$PUCSXDIR
 10
1.0
 20
0.0
 30
0.0
  9
$PUCSYDIR
 10
0.0
 20
1.0
 30
0.0
  9
$PUCSORTHOREF
  2

  9
$PUCSORTHOVIEW
 70
     0
  9
$PUCSORGTOP
 10
0.0
 20
0.0
 30
0.0
  9
$PUCSORGBOTTOM
 10
0.0
 20
0.0
 30
0.0
  9
$PUCSORGLEFT
 10
0.0
 20
0.0
 30
0.0
  9
$PUCSORGRIGHT
 10
0.0
 20
0.0
 30
0.0
  9
$PUCSORGFRONT
 10
0.0
 20
0.0
 30
0.0
  9
$PUCSORGBACK
 10
0.0
 20
0.0
 30
0.0
  9
$USERI1
 70
     0
  9
$USERI2
 70
     0
  9
$USERI3
 70
     0
  9
$USERI4
 70
     0
  9
$USERI5
 70
     0
  9
$USERR1
 40
0.0
  9
$USERR2
 40
0.0
  9
$USERR3
 40
0.0
  9
$USERR4
 40
0.0
  9
$USERR5
 40
0.0
  9
$WORLDVIEW
 70
     1
  9
$SHADEDGE
 70
     3
  9
$SHADEDIF
 70
    70
  9
$TILEMODE
 70
     0
  9
$MAXACTVP
 70
    64
  9
$PINSBASE
 10
0.0
 20
0.0
 30
0.0
  9
$PLIMCHECK
 70
     0
  9
$PEXTMIN
 10
2.451748944818973
 20
8.123870639422875
 30
0.0
  9
$PEXTMAX
 10
32.13768768310547
 20
18.15319633483887
 30
0.0
  9
$PLIMMIN
 10
0.0
 20
0.0
  9
$PLIMMAX
 10
34.0
 20
22.0
  9
$UNITMODE
 70
     0
  9
$VISRETAIN
 70
     1
  9
$PLINEGEN
 70
     0
  9
$PSLTSCALE
 70
     1
  9
$TREEDEPTH
 70
  3020
  9
$CMLSTYLE
  2
Standard
  9
$CMLJUST
 70
     0
  9
$CMLSCALE
 40
1.0
  9
$PROXYGRAPHICS
 70
     1
  9
$MEASUREMENT
 70
     0
  9
$CELWEIGHT
370
    18
  9
$ENDCAPS
280
     0
  9
$JOINSTYLE
280
     0
  9
$LWDISPLAY
290
     0
  9
$INSUNITS
 70
     1
  9
$HYPERLINKBASE
  1

  9
$STYLESHEET
  1

  9
$XEDIT
290
     1
  9
$CEPSNTYPE
380
     0
  9
$PSTYLEMODE
290
     1
  9
$FINGERPRINTGUID
  2
{AE58F7C5-1BC4-4F01-AAD7-95092D8A039B}
  9
$VERSIONGUID
  2
{FAEB1C32-E019-11D5-929B-00C0DF256EC4}
  9
$EXTNAMES
290
     1
  9
$PSVPSCALE
 40
0.0
  9
$OLESTARTUP
290
     0
  9
$SORTENTS
280
   127
  9
$INDEXCTL
280
     0
  9
$HIDETEXT
280
     1
  9
$XCLIPFRAME
280
     2
  9
$HALOGAP
280
     0
  9
$OBSCOLOR
 70
   257
  9
$OBSLTYPE
280
     0
  9
$INTERSECTIONDISPLAY
280
     0
  9
$INTERSECTIONCOLOR
 70
   257
  9
$DIMASSOC
280
     2
  9
$PROJECTNAME
  1

  9
$CAMERADISPLAY
290
     0
  9
$LENSLENGTH
 40
50.0
  9
$CAMERAHEIGHT
 40
0.0
  9
$STEPSPERSEC
 40
2.0
  9
$STEPSIZE
 40
6.0
  9
$3DDWFPREC
 40
2.0
  9
$PSOLWIDTH
 40
0.25
  9
$PSOLHEIGHT
 40
4.0
  9
$LOFTANG1
 40
1.570796326794896
  9
$LOFTANG2
 40
1.570796326794896
  9
$LOFTMAG1
 40
0.0
  9
$LOFTMAG2
 40
0.0
  9
$LOFTPARAM
 70
     7
  9
$LOFTNORMALS
280
     1
  9
$LATITUDE
 40
37.795
  9
$LONGITUDE
 40
-122.394
  9
$NORTHDIRECTION
 40
0.0
  9
$TIMEZONE
 70
 -8000
  9
$LIGHTGLYPHDISPLAY
280
     1
  9
$TILEMODELIGHTSYNCH
280
     1
  9
$CMATERIAL
347
44
  9
$SOLIDHIST
280
     0
  9
$SHOWHIST
280
     1
  9
$DWFFRAME
280
     2
  9
$DGNFRAME
280
     0
  9
$REALWORLDSCALE
290
     1
  9
$INTERFERECOLOR
 62
     1
  9
$INTERFEREOBJVS
345
33
  9
$INTERFEREVPVS
346
30
  9
$CSHADOW
280
     0
  9
$SHADOWPLANELOCATION
 40
0.0
  0
ENDSEC
  0
SECTION
  2
CLASSES
  0
CLASS
  1
ACDBDICTIONARYWDFLT
  2
AcDbDictionaryWithDefault
  3
ObjectDBX Classes
 90
        0
 91
        1
280
     0
281
     0
  0
CLASS
  1
VISUALSTYLE
  2
AcDbVisualStyle
  3
ObjectDBX Classes
 90
     4095
 91
       24
280
     0
281
     0
  0
CLASS
  1
MATERIAL
  2
AcDbMaterial
  3
ObjectDBX Classes
 90
     1153
 91
        3
280
     0
281
     0
  0
CLASS
  1
SCALE
  2
AcDbScale
  3
ObjectDBX Classes
 90
     1153
 91
       33
280
     0
281
     0
  0
CLASS
  1
TABLESTYLE
  2
AcDbTableStyle
  3
ObjectDBX Classes
 90
     4095
 91
        1
280
     0
281
     0
  0
CLASS
  1
MLEADERSTYLE
  2
AcDbMLeaderStyle
  3
ACDB_MLEADERSTYLE_CLASS
 90
     4095
 91
        1
280
     0
281
     0
  0
CLASS
  1
SUN
  2
AcDbSun
  3
SCENEOE
 90
     1153
 91
        2
280
     0
281
     0
  0
CLASS
  1
DICTIONARYVAR
  2
AcDbDictionaryVar
  3
ObjectDBX Classes
 90
        0
 91
       10
280
     0
281
     0
  0
CLASS
  1
CELLSTYLEMAP
  2
AcDbCellStyleMap
  3
ObjectDBX Classes
 90
     1152
 91
        2
280
     0
281
     0
  0
CLASS
  1
ACDBSECTIONVIEWSTYLE
  2
AcDbSectionViewStyle
  3
ObjectDBX Classes
 90
     1025
 91
        1
280
     0
281
     0
  0
CLASS
  1
ACDBDETAILVIEWSTYLE
  2
AcDbDetailViewStyle
  3
ObjectDBX Classes
 90
     1025
 91
        1
280
     0
281
     0
  0
ENDSEC
  0
SECTION
  2
TABLES
  0
TABLE
  2
VPORT
  5
8
102
{ACAD_XDICTIONARY
360
3C2
102
}
330
0
100
AcDbSymbolTable
 70
    16
  0
VPORT
  5
29
330
8
100
AcDbSymbolTableRecord
100
AcDbViewportTableRecord
  2
*Active
 70
     0
 10
0.0
 20
0.0
 11
1.0
 21
1.0
 12
0.5990528196962084
 22
3.512000000000944
 13
0.0
 23
0.0
 14
0.5
 24
0.5
 15
0.5
 25
0.5
 16
0.7188730927569435
 26
-0.5850486126764432
 36
0.3754192287502549
 17
0.0
 27
0.0
 37
0.0
 40
49.09808486001391
 41
0.3616588469037065
 42
50.0
 43
31.00936441639214
 44
-31.00936441639214
 50
0.0
 51
0.0
 71
     0
 72
   100
 73
     1
 74
     3
 75
     0
 76
     0
 77
     0
 78
     0
281
     0
 65
     1
110
0.0
120
0.0
130
0.0
111
1.0
121
0.0
131
0.0
112
0.0
122
1.0
132
0.0
 79
     0
146
0.0
348
2F
 60
     3
 61
     5
292
     1
282
     1
141
0.0
142
0.0
 63
   250
421
  3355443
361
6D
  0
VPORT
  5
2FA
330
8
100
AcDbSymbolTableRecord
100
AcDbViewportTableRecord
  2
L1
 70
     0
 10
0.0
 20
0.0
 11
1.0
 21
1.0
 12
0.5990528196962084
 22
3.512000000000944
 13
0.0
 23
0.0
 14
0.5
 24
0.5
 15
0.5
 25
0.5
 16
0.7188730927569435
 26
-0.5850486126764432
 36
0.3754192287502549
 17
0.0
 27
0.0
 37
0.0
 40
49.09808486001391
 41
0.3616588469037065
 42
50.0
 43
31.00936441639214
 44
-31.00936441639214
 50
0.0
 51
0.0
 71
     0
 72
   100
 73
     1
 74
     3
 75
     0
 76
     0
 77
     0
 78
     0
281
     0
 65
     1
110
0.0
120
0.0
130
0.0
111
1.0
121
0.0
131
0.0
112
0.0
122
1.0
132
0.0
 79
     0
146
0.0
348
2F
 60
     3
 61
     5
292
     1
282
     1
141
0.0
142
0.0
 63
   250
421
  3355443
  0
VPORT
  5
2FB
330
8
100
AcDbSymbolTableRecord
100
AcDbViewportTableRecord
  2
L2
 70
     0
 10
0.0
 20
0.0
 11
0.5
 21
1.0
 12
0.0
 22
0.0
 13
0.0
 23
0.0
 14
0.5
 24
0.5
 15
0.5
 25
0.5
 16
0.0
 26
-1.0
 36
0.0
 17
0.0
 27
0.0
 37
0.0
 40
47.41469684970237
 41
0.3744990042209753
 42
50.0
 43
24.38075823657721
 44
-24.38075823657721
 50
0.0
 51
0.0
 71
     0
 72
   100
 73
     1
 74
     3
 75
     0
 76
     0
 77
     0
 78
     0
281
     0
 65
     1
110
0.0
120
0.0
130
0.0
111
1.0
121
0.0
131
0.0
112
0.0
122
1.0
132
0.0
 79
     0
146
0.0
348
2F
 60
     3
 61
     5
292
     1
282
     1
141
0.0
142
0.0
 63
   250
421
  3355443
  0
VPORT
  5
2FC
330
8
100
AcDbSymbolTableRecord
100
AcDbViewportTableRecord
  2
L2
 70
     0
 10
0.5
 20
0.0
 11
1.0
 21
1.0
 12
0.0
 22
0.0
 13
0.0
 23
0.0
 14
0.5
 24
0.5
 15
0.5
 25
0.5
 16
1.0
 26
0.0
 36
0.0
 17
0.0
 27
0.0
 37
0.0
 40
47.41469684970237
 41
0.3744990042209753
 42
50.0
 43
24.02230675357384
 44
-24.02230675357384
 50
0.0
 51
0.0
 71
     0
 72
   100
 73
     1
 74
     3
 75
     0
 76
     0
 77
     0
 78
     0
281
     0
 65
     1
110
0.0
120
0.0
130
0.0
111
1.0
121
0.0
131
0.0
112
0.0
122
1.0
132
0.0
 79
     0
146
0.0
348
2F
 60
     3
 61
     5
292
     1
282
     1
141
0.0
142
0.0
 63
   250
421
  3355443
  0
VPORT
  5
2FD
330
8
100
AcDbSymbolTableRecord
100
AcDbViewportTableRecord
  2
L3
 70
     0
 10
0.0
 20
0.5
 11
1.0
 21
1.0
 12
0.0
 22
0.0
 13
0.0
 23
0.0
 14
0.5
 24
0.5
 15
0.5
 25
0.5
 16
0.0
 26
0.0
 36
1.0
 17
0.0
 27
0.0
 37
0.0
 40
7.754444512795275
 41
2.289881206365368
 42
50.0
 43
23.70734842485119
 44
-23.70734842485119
 50
0.0
 51
0.0
 71
     0
 72
   100
 73
     1
 74
     3
 75
     0
 76
     0
 77
     0
 78
     0
281
     0
 65
     1
110
0.0
120
0.0
130
0.0
111
1.0
121
0.0
131
0.0
112
0.0
122
1.0
132
0.0
 79
     0
146
0.0
348
2F
 60
     3
 61
     5
292
     1
282
     1
141
0.0
142
0.0
 63
   250
421
  3355443
  0
VPORT
  5
2FE
330
8
100
AcDbSymbolTableRecord
100
AcDbViewportTableRecord
  2
L3
 70
     0
 10
0.0
 20
0.0
 11
1.0
 21
0.5
 12
0.0
 22
0.0
 13
0.0
 23
0.0
 14
0.5
 24
0.5
 15
0.5
 25
0.5
 16
0.0
 26
-1.0
 36
0.0
 17
0.0
 27
0.0
 37
0.0
 40
47.41469684970237
 41
0.3744990042209753
 42
50.0
 43
24.38075823657721
 44
-24.38075823657721
 50
0.0
 51
0.0
 71
     0
 72
   100
 73
     1
 74
     3
 75
     0
 76
     0
 77
     0
 78
     0
281
     0
 65
     1
110
0.0
120
0.0
130
0.0
111
1.0
121
0.0
131
0.0
112
0.0
122
1.0
132
0.0
 79
     0
146
0.0
348
2F
 60
     3
 61
     5
292
     1
282
     1
141
0.0
142
0.0
 63
   250
421
  3355443
  0
VPORT
  5
2FF
330
8
100
AcDbSymbolTableRecord
100
AcDbViewportTableRecord
  2
L4
 70
     0
 10
0.0
 20
0.5
 11
0.5
 21
1.0
 12
0.0
 22
0.0
 13
0.0
 23
0.0
 14
0.5
 24
0.5
 15
0.5
 25
0.5
 16
0.0
 26
0.0
 36
1.0
 17
0.0
 27
0.0
 37
0.0
 40
7.754444512795275
 41
2.289881206365368
 42
50.0
 43
23.70734842485119
 44
-23.70734842485119
 50
0.0
 51
0.0
 71
     0
 72
   100
 73
     1
 74
     3
 75
     0
 76
     0
 77
     0
 78
     0
281
     0
 65
     1
110
0.0
120
0.0
130
0.0
111
1.0
121
0.0
131
0.0
112
0.0
122
1.0
132
0.0
 79
     0
146
0.0
348
2F
 60
     3
 61
     5
292
     1
282
     1
141
0.0
142
0.0
 63
   250
421
  3355443
  0
VPORT
  5
300
330
8
100
AcDbSymbolTableRecord
100
AcDbViewportTableRecord
  2
L4
 70
     0
 10
0.0
 20
0.0
 11
0.5
 21
0.5
 12
0.0
 22
0.0
 13
0.0
 23
0.0
 14
0.5
 24
0.5
 15
0.5
 25
0.5
 16
0.0
 26
-1.0
 36
0.0
 17
0.0
 27
0.0
 37
0.0
 40
47.41469684970237
 41
0.3744990042209753
 42
50.0
 43
24.38075823657721
 44
-24.38075823657721
 50
0.0
 51
0.0
 71
     0
 72
   100
 73
     1
 74
     3
 75
     0
 76
     0
 77
     0
 78
     0
281
     0
 65
     1
110
0.0
120
0.0
130
0.0
111
1.0
121
0.0
131
0.0
112
0.0
122
1.0
132
0.0
 79
     0
146
0.0
348
2F
 60
     3
 61
     5
292
     1
282
     1
141
0.0
142
0.0
 63
   250
421
  3355443
  0
VPORT
  5
301
330
8
100
AcDbSymbolTableRecord
100
AcDbViewportTableRecord
  2
L4
 70
     0
 10
0.5
 20
0.0
 11
1.0
 21
0.5
 12
0.0
 22
0.0
 13
0.0
 23
0.0
 14
0.5
 24
0.5
 15
0.5
 25
0.5
 16
1.0
 26
0.0
 36
0.0
 17
0.0
 27
0.0
 37
0.0
 40
47.41469684970237
 41
0.3744990042209753
 42
50.0
 43
24.02230675357384
 44
-24.02230675357384
 50
0.0
 51
0.0
 71
     0
 72
   100
 73
     1
 74
     3
 75
     0
 76
     0
 77
     0
 78
     0
281
     0
 65
     1
110
0.0
120
0.0
130
0.0
111
1.0
121
0.0
131
0.0
112
0.0
122
1.0
132
0.0
 79
     0
146
0.0
348
2F
 60
     3
 61
     5
292
     1
282
     1
141
0.0
142
0.0
 63
   250
421
  3355443
  0
VPORT
  5
302
330
8
100
AcDbSymbolTableRecord
100
AcDbViewportTableRecord
  2
L4
 70
     0
 10
0.5
 20
0.5
 11
1.0
 21
1.0
 12
0.0
 22
0.0
 13
0.0
 23
0.0
 14
0.5
 24
0.5
 15
0.5
 25
0.5
 16
0.5773502691896259
 26
-0.5773502691896259
 36
0.5773502691896259
 17
0.0
 27
0.0
 37
0.0
 40
46.52603736697462
 41
0.3816520331528849
 42
50.0
 43
24.22683867650387
 44
-24.22683867650387
 50
0.0
 51
0.0
 71
     0
 72
   100
 73
     1
 74
     3
 75
     0
 76
     0
 77
     0
 78
     0
281
     0
 65
     1
110
0.0
120
0.0
130
0.0
111
1.0
121
0.0
131
0.0
112
0.0
122
1.0
132
0.0
 79
     0
146
0.0
348
2F
 60
     3
 61
     5
292
     1
282
     1
141
0.0
142
0.0
 63
   250
421
  3355443
  0
VPORT
  5
303
330
8
100
AcDbSymbolTableRecord
100
AcDbViewportTableRecord
  2
L6
 70
     0
 10
0.0
 20
0.5
 11
0.3333333333333334
 21
1.0
 12
0.5990528196962084
 22
3.512000000000944
 13
0.0
 23
0.0
 14
0.5
 24
0.5
 15
0.5
 25
0.5
 16
0.7188730927569435
 26
-0.5850486126764432
 36
0.3754192287502549
 17
0.0
 27
0.0
 37
0.0
 40
49.09808486001391
 41
0.3616588469037065
 42
50.0
 43
31.00936441639214
 44
-31.00936441639214
 50
0.0
 51
0.0
 71
     0
 72
   100
 73
     1
 74
     3
 75
     0
 76
     0
 77
     0
 78
     0
281
     0
 65
     1
110
0.0
120
0.0
130
0.0
111
1.0
121
0.0
131
0.0
112
0.0
122
1.0
132
0.0
 79
     0
146
0.0
348
2F
 60
     3
 61
     5
292
     1
282
     1
141
0.0
142
0.0
 63
   250
421
  3355443
  0
VPORT
  5
304
330
8
100
AcDbSymbolTableRecord
100
AcDbViewportTableRecord
  2
L6
 70
     0
 10
0.0
 20
0.0
 11
0.3333333333333334
 21
0.5
 12
0.0
 22
0.0
 13
0.0
 23
0.0
 14
0.5
 24
0.5
 15
0.5
 25
0.5
 16
-1.0
 26
0.0
 36
0.0
 17
0.0
 27
0.0
 37
0.0
 40
47.41469684970237
 41
0.3744990042209753
 42
50.0
 43
24.02230675357384
 44
-24.02230675357384
 50
0.0
 51
0.0
 71
     0
 72
   100
 73
     1
 74
     3
 75
     0
 76
     0
 77
     0
 78
     0
281
     0
 65
     1
110
0.0
120
0.0
130
0.0
111
1.0
121
0.0
131
0.0
112
0.0
122
1.0
132
0.0
 79
     0
146
0.0
348
2F
 60
     3
 61
     5
292
     1
282
     1
141
0.0
142
0.0
 63
   250
421
  3355443
  0
VPORT
  5
305
330
8
100
AcDbSymbolTableRecord
100
AcDbViewportTableRecord
  2
L6
 70
     0
 10
0.3333333333333334
 20
0.5
 11
0.6666666666666666
 21
1.0
 12
0.0
 22
0.0
 13
0.0
 23
0.0
 14
0.5
 24
0.5
 15
0.5
 25
0.5
 16
0.0
 26
0.0
 36
1.0
 17
0.0
 27
0.0
 37
0.0
 40
7.754444512795275
 41
2.289881206365368
 42
50.0
 43
23.70734842485119
 44
-23.70734842485119
 50
0.0
 51
0.0
 71
     0
 72
   100
 73
     1
 74
     3
 75
     0
 76
     0
 77
     0
 78
     0
281
     0
 65
     1
110
0.0
120
0.0
130
0.0
111
1.0
121
0.0
131
0.0
112
0.0
122
1.0
132
0.0
 79
     0
146
0.0
348
2F
 60
     3
 61
     5
292
     1
282
     1
141
0.0
142
0.0
 63
   250
421
  3355443
  0
VPORT
  5
306
330
8
100
AcDbSymbolTableRecord
100
AcDbViewportTableRecord
  2
L6
 70
     0
 10
0.3333333333333334
 20
0.0
 11
0.6666666666666666
 21
0.5
 12
0.0
 22
0.0
 13
0.0
 23
0.0
 14
0.5
 24
0.5
 15
0.5
 25
0.5
 16
0.0
 26
-1.0
 36
0.0
 17
0.0
 27
0.0
 37
0.0
 40
47.41469684970237
 41
0.3744990042209753
 42
50.0
 43
24.38075823657721
 44
-24.38075823657721
 50
0.0
 51
0.0
 71
     0
 72
   100
 73
     1
 74
     3
 75
     0
 76
     0
 77
     0
 78
     0
281
     0
 65
     1
110
0.0
120
0.0
130
0.0
111
1.0
121
0.0
131
0.0
112
0.0
122
1.0
132
0.0
 79
     0
146
0.0
348
2F
 60
     3
 61
     5
292
     1
282
     1
141
0.0
142
0.0
 63
   250
421
  3355443
  0
VPORT
  5
307
330
8
100
AcDbSymbolTableRecord
100
AcDbViewportTableRecord
  2
L6
 70
     0
 10
0.6666666666666666
 20
0.5
 11
1.0
 21
1.0
 12
0.0
 22
0.0
 13
0.0
 23
0.0
 14
0.5
 24
0.5
 15
0.5
 25
0.5
 16
0.5773502691896259
 26
-0.5773502691896259
 36
0.5773502691896259
 17
0.0
 27
0.0
 37
0.0
 40
46.52603736697462
 41
0.3816520331528849
 42
50.0
 43
24.22683867650387
 44
-24.22683867650387
 50
0.0
 51
0.0
 71
     0
 72
   100
 73
     1
 74
     3
 75
     0
 76
     0
 77
     0
 78
     0
281
     0
 65
     1
110
0.0
120
0.0
130
0.0
111
1.0
121
0.0
131
0.0
112
0.0
122
1.0
132
0.0
 79
     0
146
0.0
348
2F
 60
     3
 61
     5
292
     1
282
     1
141
0.0
142
0.0
 63
   250
421
  3355443
  0
VPORT
  5
308
330
8
100
AcDbSymbolTableRecord
100
AcDbViewportTableRecord
  2
L6
 70
     0
 10
0.6666666666666666
 20
0.0
 11
1.0
 21
0.5
 12
0.0
 22
0.0
 13
0.0
 23
0.0
 14
0.5
 24
0.5
 15
0.5
 25
0.5
 16
1.0
 26
0.0
 36
0.0
 17
0.0
 27
0.0
 37
0.0
 40
47.41469684970237
 41
0.3744990042209753
 42
50.0
 43
24.02230675357384
 44
-24.02230675357384
 50
0.0
 51
0.0
 71
     0
 72
   100
 73
     1
 74
     3
 75
     0
 76
     0
 77
     0
 78
     0
281
     0
 65
     1
110
0.0
120
0.0
130
0.0
111
1.0
121
0.0
131
0.0
112
0.0
122
1.0
132
0.0
 79
     0
146
0.0
348
2F
 60
     3
 61
     5
292
     1
282
     1
141
0.0
142
0.0
 63
   250
421
  3355443
  0
ENDTAB
  0
TABLE
  2
LTYPE
  5
5
330
0
100
AcDbSymbolTable
 70
    11
  0
LTYPE
  5
14
330
5
100
AcDbSymbolTableRecord
100
AcDbLinetypeTableRecord
  2
ByBlock
 70
     0
  3

 72
    65
 73
     0
 40
0.0
  0
LTYPE
  5
15
330
5
100
AcDbSymbolTableRecord
100
AcDbLinetypeTableRecord
  2
ByLayer
 70
     0
  3

 72
    65
 73
     0
 40
0.0
  0
LTYPE
  5
16
330
5
100
AcDbSymbolTableRecord
100
AcDbLinetypeTableRecord
  2
Continuous
 70
     0
  3
Solid line
 72
    65
 73
     0
 40
0.0
  0
LTYPE
  5
70
330
5
100
AcDbSymbolTableRecord
100
AcDbLinetypeTableRecord
  2
CENTER
 70
     0
  3
____ _ ____ _ ____ _ ____
 72
    65
 73
     4
 40
47.4
 49
22.0
 74
     4
 75
     0
340
0
 46
0.0
 50
0.0
 44
0.0
 45
0.0
 49
-8.5
 74
     4
 75
     0
340
0
 46
0.0
 50
0.0
 44
0.0
 45
0.0
 49
8.5
 74
     4
 75
     0
340
0
 46
0.0
 50
0.0
 44
0.0
 45
0.0
 49
-8.5
 74
     4
 75
     0
340
0
 46
0.0
 50
0.0
 44
0.0
 45
0.0
  0
LTYPE
  5
71
330
5
100
AcDbSymbolTableRecord
100
AcDbLinetypeTableRecord
  2
DASHDOT
 70
     0
  3
_._._._._._._._._._._._._._._._.
 72
    65
 73
     4
 40
70.0
 49
31.0
 74
     4
 75
     0
340
0
 46
0.0
 50
0.0
 44
0.0
 45
0.0
 49
-13.0
 74
     4
 75
     0
340
0
 46
0.0
 50
0.0
 44
0.0
 45
0.0
 49
13.0
 74
     4
 75
     0
340
0
 46
0.0
 50
0.0
 44
0.0
 45
0.0
 49
-13.0
 74
     4
 75
     0
340
0
 46
0.0
 50
0.0
 44
0.0
 45
0.0
  0
LTYPE
  5
72
330
5
100
AcDbSymbolTableRecord
100
AcDbLinetypeTableRecord
  2
DASHED
 70
     0
  3
__ __ __ __ __ __ __ __ __
 72
    65
 73
     2
 40
25.72
 49
12.86
 74
     4
 75
     0
340
0
 46
0.0
 50
0.0
 44
0.0
 45
0.0
 49
-12.86
 74
     4
 75
     0
340
0
 46
0.0
 50
0.0
 44
0.0
 45
0.0
  0
LTYPE
  5
73
330
5
100
AcDbSymbolTableRecord
100
AcDbLinetypeTableRecord
  2
DOT
 70
     0
  3
.........................
 72
    65
 73
     2
 40
10.0
 49
0.0
 74
     4
 75
     0
340
0
 46
0.0
 50
0.0
 44
0.0
 45
0.0
 49
-10.0
 74
     4
 75
     0
340
0
 46
0.0
 50
0.0
 44
0.0
 45
0.0
  0
LTYPE
  5
74
330
5
100
AcDbSymbolTableRecord
100
AcDbLinetypeTableRecord
  2
PHANTOM
 70
     0
  3
____ _ _ ____ _ _ _____ _ _ ____
 72
    65
 73
     6
 40
50.5
 49
18.0
 74
     4
 75
     0
340
0
 46
0.0
 50
0.0
 44
0.0
 45
0.0
 49
-6.5
 74
     4
 75
     0
340
0
 46
0.0
 50
0.0
 44
0.0
 45
0.0
 49
6.5
 74
     4
 75
     0
340
0
 46
0.0
 50
0.0
 44
0.0
 45
0.0
 49
-6.5
 74
     4
 75
     0
340
0
 46
0.0
 50
0.0
 44
0.0
 45
0.0
 49
6.5
 74
     4
 75
     0
340
0
 46
0.0
 50
0.0
 44
0.0
 45
0.0
 49
-6.5
 74
     4
 75
     0
340
0
 46
0.0
 50
0.0
 44
0.0
 45
0.0
  0
ENDTAB
  0
TABLE
  2
LAYER
  5
2
330
0
100
AcDbSymbolTable
 70
    10
  0
LAYER
  5
10
102
{ACAD_XDICTIONARY
360
40A
102
}
330
2
100
AcDbSymbolTableRecord
100
AcDbLayerTableRecord
  2
0
 70
     0
 62
     7
  6
Continuous
370
    -3
390
F
347
46
  0
LAYER
  5
75
102
{ACAD_XDICTIONARY
360
40C
102
}
330
2
100
AcDbSymbolTableRecord
100
AcDbLayerTableRecord
  2
Top$1
 70
     0
 62
     7
420
 16777215
  6
Continuous
370
    -3
390
F
347
46
  0
LAYER
  5
76
102
{ACAD_XDICTIONARY
360
40E
102
}
330
2
100
AcDbSymbolTableRecord
100
AcDbLayerTableRecord
  2
ORTHO$3
 70
     0
 62
     7
420
 16777215
  6
Continuous
370
    -3
390
F
347
46
  0
LAYER
  5
77
102
{ACAD_XDICTIONARY
360
410
102
}
330
2
100
AcDbSymbolTableRecord
100
AcDbLayerTableRecord
  2
ORTHO$6
 70
     0
 62
     7
420
 16777215
  6
Continuous
370
    -3
390
F
347
46
  0
LAYER
  5
78
102
{ACAD_XDICTIONARY
360
412
102
}
330
2
100
AcDbSymbolTableRecord
100
AcDbLayerTableRecord
  2
ORTHO$14
 70
     0
 62
     7
420
 16777215
  6
Continuous
370
    -3
390
F
347
46
  0
LAYER
  5
1A9
102
{ACAD_XDICTIONARY
360
414
102
}
330
2
100
AcDbSymbolTableRecord
100
AcDbLayerTableRecord
  2
1
 70
     0
 62
     7
420
 16777215
  6
Continuous
370
    -3
390
F
347
46
  0
LAYER
  5
30D
102
{ACAD_XDICTIONARY
360
416
102
}
330
2
100
AcDbSymbolTableRecord
100
AcDbLayerTableRecord
  2
XREF001I$
 70
     0
 62
     7
420
 16777215
  6
Continuous
370
    -3
390
F
347
46
  0
LAYER
  5
377
102
{ACAD_XDICTIONARY
360
418
102
}
330
2
100
AcDbSymbolTableRecord
100
AcDbLayerTableRecord
  2
00475EBB_PART_ONLY|70
 70
    48
 62
     7
420
 16777215
  6
Continuous
370
    -3
390
F
347
46
  0
LAYER
  5
378
102
{ACAD_XDICTIONARY
360
41A
102
}
330
2
100
AcDbSymbolTableRecord
100
AcDbLayerTableRecord
  2
00475EBB_PART_ONLY|10
 70
    48
 62
     7
420
 16777215
  6
Continuous
370
    -3
390
F
347
46
  0
LAYER
  5
379
102
{ACAD_XDICTIONARY
360
41C
102
}
330
2
100
AcDbSymbolTableRecord
100
AcDbLayerTableRecord
  2
00475EBB_PART_ONLY|1
 70
    48
 62
     7
420
 16777215
  6
Continuous
370
    -3
390
F
347
46
  0
ENDTAB
  0
TABLE
  2
STYLE
  5
3
330
0
100
AcDbSymbolTable
 70
     2
  0
STYLE
  5
11
330
3
100
AcDbSymbolTableRecord
100
AcDbTextStyleTableRecord
  2
Standard
 70
     0
 40
0.0
 41
1.0
 50
0.0
 71
     0
 42
0.2
  3
txt
  4

  0
STYLE
  5
37A
330
3
100
AcDbSymbolTableRecord
100
AcDbTextStyleTableRecord
  2
00475EBB_PART_ONLY|Standard
 70
    48
 40
0.0
 41
1.0
 50
0.0
 71
     0
 42
0.2
  3
txt
  4

  0
ENDTAB
  0
TABLE
  2
VIEW
  5
6
330
0
100
AcDbSymbolTable
 70
     8
  0
VIEW
  5
1AA
330
6
100
AcDbSymbolTableRecord
100
AcDbViewTableRecord
  2
Top
 70
     0
 40
7.754444512795275
 10
0.0
 20
0.0
 41
11.38121309055118
 11
0.0
 21
0.0
 31
1.0
 12
0.0
 22
0.0
 32
0.0
 42
50.0
 43
23.70734842485119
 44
-23.70734842485119
 50
0.0
 71
     0
281
     0
 72
     0
 73
     0
348
2F
  0
VIEW
  5
1AB
330
6
100
AcDbSymbolTableRecord
100
AcDbViewTableRecord
  2
Front
 70
     0
 40
47.41469684970237
 10
0.0
 20
0.0
 41
11.38121309055118
 11
0.0
 21
-1.0
 31
0.0
 12
0.0
 22
0.0
 32
0.0
 42
50.0
 43
24.38075823657721
 44
-24.38075823657721
 50
0.0
 71
     0
281
     0
 72
     0
 73
     0
348
2F
  0
VIEW
  5
1AC
330
6
100
AcDbSymbolTableRecord
100
AcDbViewTableRecord
  2
Right
 70
     0
 40
47.41469684970237
 10
0.0
 20
0.0
 41
7.754444512795275
 11
1.0
 21
0.0
 31
0.0
 12
0.0
 22
0.0
 32
0.0
 42
50.0
 43
24.02230675357384
 44
-24.02230675357384
 50
0.0
 71
     0
281
     0
 72
     0
 73
     0
348
2F
  0
VIEW
  5
1AD
330
6
100
AcDbSymbolTableRecord
100
AcDbViewTableRecord
  2
Back
 70
     0
 40
47.41469684970237
 10
0.0
 20
0.0
 41
11.38121309055118
 11
0.0
 21
1.0
 31
0.0
 12
0.0
 22
0.0
 32
0.0
 42
50.0
 43
24.38075823657721
 44
-24.38075823657721
 50
0.0
 71
     0
281
     0
 72
     0
 73
     0
348
2F
  0
VIEW
  5
1AE
330
6
100
AcDbSymbolTableRecord
100
AcDbViewTableRecord
  2
Bottom
 70
     0
 40
7.754444512795275
 10
0.0
 20
0.0
 41
11.38121309055118
 11
0.0
 21
0.0
 31
-1.0
 12
0.0
 22
0.0
 32
0.0
 42
50.0
 43
23.70734842485119
 44
-23.70734842485119
 50
180.0
 71
     0
281
     0
 72
     0
 73
     0
348
2F
  0
VIEW
  5
1AF
330
6
100
AcDbSymbolTableRecord
100
AcDbViewTableRecord
  2
Left
 70
     0
 40
47.41469684970237
 10
0.0
 20
0.0
 41
7.754444512795275
 11
-1.0
 21
0.0
 31
0.0
 12
0.0
 22
0.0
 32
0.0
 42
50.0
 43
24.02230675357384
 44
-24.02230675357384
 50
0.0
 71
     0
281
     0
 72
     0
 73
     0
348
2F
  0
VIEW
  5
1B0
330
6
100
AcDbSymbolTableRecord
100
AcDbViewTableRecord
  2
Isometric
 70
     0
 40
46.52603736697462
 10
0.0
 20
0.0
 41
13.5309532537902
 11
0.5773502691896259
 21
-0.5773502691896259
 31
0.5773502691896259
 12
0.0
 22
0.0
 32
0.0
 42
50.0
 43
24.22683867650387
 44
-24.22683867650387
 50
0.0
 71
     0
281
     0
 72
     0
 73
     0
348
2F
  0
VIEW
  5
1B1
330
6
100
AcDbSymbolTableRecord
100
AcDbViewTableRecord
  2
Trimetric
 70
     0
 40
49.09808486001391
 10
0.0
 20
0.0
 41
13.19842147014417
 11
0.7188730927569435
 21
-0.5850486126764432
 31
0.3754192287502549
 12
0.0
 22
0.0
 32
0.0
 42
50.0
 43
25.42056385205042
 44
-25.42056385205042
 50
0.0
 71
     0
281
     0
 72
     0
 73
     0
348
2F
  0
ENDTAB
  0
TABLE
  2
UCS
  5
7
330
0
100
AcDbSymbolTable
 70
     0
  0
ENDTAB
  0
TABLE
  2
APPID
  5
9
330
0
100
AcDbSymbolTable
 70
     2
  0
APPID
  5
12
330
9
100
AcDbSymbolTableRecord
100
AcDbRegAppTableRecord
  2
ACAD
 70
     0
  0
APPID
  5
36D
330
9
100
AcDbSymbolTableRecord
100
AcDbRegAppTableRecord
  2
ACAD_MLEADERVER
 70
     0
  0
ENDTAB
  0
TABLE
  2
DIMSTYLE
  5
A
330
0
100
AcDbSymbolTable
 70
     2
100
AcDbDimStyleTable
 71
     0
  0
DIMSTYLE
105
27
330
A
100
AcDbSymbolTableRecord
100
AcDbDimStyleTableRecord
  2
Standard
 70
     0
340
11
  0
ENDTAB
  0
TABLE
  2
BLOCK_RECORD
  5
1
330
0
100
AcDbSymbolTable
 70
   387
  0
BLOCK_RECORD
  5
1F
330
1
100
AcDbSymbolTableRecord
100
AcDbBlockTableRecord
  2
*Model_Space
340
22
 70
     0
280
     1
281
     0
  0
BLOCK_RECORD
  5
1C0
330
1
100
AcDbSymbolTableRecord
100
AcDbBlockTableRecord
  2
*PAPER_SPACE
340
2F8
 70
     0
280
     1
281
     0
  0
BLOCK_RECORD
  5
1B2
330
1
100
AcDbSymbolTableRecord
100
AcDbBlockTableRecord
  2
*PAPER_SPACE0
340
1BA
 70
     0
280
     1
281
     0
  0
BLOCK_RECORD
  5
1BB
330
1
100
AcDbSymbolTableRecord
100
AcDbBlockTableRecord
  2
*PAPER_SPACE1
340
1BF
 70
     0
280
     1
281
     0
  0
BLOCK_RECORD
  5
309
330
1
100
AcDbSymbolTableRecord
100
AcDbBlockTableRecord
  2
00475EBB_PART_ONLY
340
0
102
{BLKREFS
331
30C
102
}
 70
     1
280
     1
281
     0
  0
ENDTAB
  0
ENDSEC
  0
SECTION
  2
BLOCKS
  0
BLOCK
  5
20
330
1F
100
AcDbEntity
  8
0
100
AcDbBlockBegin
  2
*Model_Space
 70
     0
 10
0.0
 20
0.0
 30
0.0
  3
*Model_Space
  1

  0
ENDBLK
  5
21
330
1F
100
AcDbEntity
  8
0
100
AcDbBlockEnd
  0
BLOCK
  5
1C1
330
1C0
100
AcDbEntity
 67
     1
  8
0
100
AcDbBlockBegin
  2
*PAPER_SPACE
 70
     0
 10
0.0
 20
0.0
 30
0.0
  3
*PAPER_SPACE
  1

  0
ENDBLK
  5
1C2
330
1C0
100
AcDbEntity
 67
     1
  8
0
100
AcDbBlockEnd
  0
BLOCK
  5
1B3
330
1B2
100
AcDbEntity
 67
     1
  8
0
100
AcDbBlockBegin
  2
*PAPER_SPACE0
 70
     0
 10
0.0
 20
0.0
 30
0.0
  3
*PAPER_SPACE0
  1

  0
VIEWPORT
  5
1B5
330
1B2
100
AcDbEntity
 67
     1
  8
0
370
    18
100
AcDbViewport
 10
17.0
 20
11.0
 30
0.0
 40
34.0
 41
22.0
 68
     0
 69
     0
 12
17.0
 22
11.0
 13
0.0
 23
0.0
 14
1.0
 24
1.0
 15
1.0
 25
1.0
 16
0.0
 26
0.0
 36
1.0
 17
0.0
 27
0.0
 37
0.0
 42
18.75461936437546
 43
0.0
 44
0.0
 45
22.0
 50
0.0
 51
0.0
 72
   100
331
75
331
76
331
77
331
78
 90
   557152
  1

281
     0
 71
     1
 74
     0
110
0.0
120
0.0
130
0.0
111
1.0
121
0.0
131
0.0
112
0.0
122
1.0
132
0.0
 79
     0
146
0.0
170
     0
 61
     5
348
2F
292
     1
282
     1
141
0.0
142
0.0
 63
   250
421
  3355443
  0
VIEWPORT
  5
1B6
330
1B2
100
AcDbEntity
 67
     1
  8
0
370
    18
100
AcDbViewport
 10
17.25285750106698
 20
11.26137037119554
 30
0.0
 40
2.057894360607789
 41
6.775000000002222
 68
     0
 69
     0
 12
0.5990528196963001
 22
3.51200000000111
 13
0.0
 23
0.0
 14
1.0
 24
1.0
 15
1.0
 25
1.0
 16
0.0
 26
0.0
 36
1.0
 17
0.0
 27
0.0
 37
0.0
 42
12.0017777680072
 43
0.0
 44
0.0
 45
6.775000000002222
 50
0.0
 51
0.0
 72
   100
331
76
331
77
331
78
 90
   557152
  1

281
     0
 71
     1
 74
     0
110
0.0
120
0.0
130
0.0
111
1.0
121
0.0
131
0.0
112
0.0
122
1.0
132
0.0
 79
     0
146
0.0
170
     0
 61
     5
348
2F
292
     1
282
     1
141
0.0
142
0.0
 63
   250
421
  3355443
  0
VIEWPORT
  5
1B7
330
1B2
100
AcDbEntity
 67
     1
  8
0
370
    18
100
AcDbViewport
 10
8.741748998328205
 20
17.3742500705671
 30
0.0
 40
13.08000000000143
 41
2.057894360607789
 68
     0
 69
     0
 12
-3.87399999999929
 22
-0.5990528196962997
 13
0.0
 23
0.0
 14
1.0
 24
1.0
 15
1.0
 25
1.0
 16
0.0000000000000001
 26
1.0
 36
0.0
 17
0.0
 27
0.0
 37
0.0
 42
50.0
 43
0.0
 44
0.0
 45
2.057894360607789
 50
0.0
 51
90.0
 72
   100
331
75
331
77
331
78
 90
   557152
  1

281
     0
 71
     1
 74
     0
110
0.0
120
0.0
130
0.0
111
1.0
121
0.0
131
0.0
112
0.0
122
1.0
132
0.0
 79
     0
146
0.0
170
     0
 61
     5
348
2F
292
     1
282
     1
141
0.0
142
0.0
 63
   250
421
  3355443
  0
VIEWPORT
  5
1B8
330
1B2
100
AcDbEntity
 67
     1
  8
0
370
    18
100
AcDbViewport
 10
8.741748998328205
 20
11.26137037119527
 30
0.0
 40
13.08000000000143
 41
6.775000000002744
 68
     0
 69
     0
 12
3.87399999999929
 22
3.51200000000085
 13
0.0
 23
0.0
 14
1.0
 24
1.0
 15
1.0
 25
1.0
 16
-1.0
 26
0.0000000000000055
 36
0.0
 17
0.0
 27
0.0
 37
0.0
 42
50.0
 43
0.0
 44
0.0
 45
6.775000000002744
 50
0.0
 51
270.0
 72
   100
331
75
331
76
331
78
 90
   557152
  1

281
     0
 71
     1
 74
     0
110
0.0
120
0.0
130
0.0
111
1.0
121
0.0
131
0.0
112
0.0
122
1.0
132
0.0
 79
     0
146
0.0
170
     0
 61
     5
348
2F
292
     1
282
     1
141
0.0
142
0.0
 63
   250
421
  3355443
  0
VIEWPORT
  5
1B9
330
1B2
100
AcDbEntity
 67
     1
  8
0
370
    18
100
AcDbViewport
 10
25.84768590479705
 20
11.26137037119537
 30
0.0
 40
13.08000000000001
 41
6.77500000000189
 68
     0
 69
     0
 12
-3.874000000000003
 22
3.512000000000944
 13
0.0
 23
0.0
 14
1.0
 24
1.0
 15
1.0
 25
1.0
 16
1.0
 26
0.0
 36
0.0000000000000001
 17
0.0
 27
0.0
 37
0.0
 42
50.0
 43
0.0
 44
0.0
 45
6.77500000000189
 50
0.0
 51
90.0
 72
   100
331
75
331
76
331
77
 90
   557152
  1

281
     0
 71
     1
 74
     0
110
0.0
120
0.0
130
0.0
111
1.0
121
0.0
131
0.0
112
0.0
122
1.0
132
0.0
 79
     0
146
0.0
170
     0
 61
     5
348
2F
292
     1
282
     1
141
0.0
142
0.0
 63
   250
421
  3355443
  0
ENDBLK
  5
1B4
330
1B2
100
AcDbEntity
 67
     1
  8
0
100
AcDbBlockEnd
  0
BLOCK
  5
1BC
330
1BB
100
AcDbEntity
 67
     1
  8
0
100
AcDbBlockBegin
  2
*PAPER_SPACE1
 70
     0
 10
0.0
 20
0.0
 30
0.0
  3
*PAPER_SPACE1
  1

  0
VIEWPORT
  5
1BE
330
1BB
100
AcDbEntity
 67
     1
  8
0
370
    18
100
AcDbViewport
 10
22.0
 20
17.0
 30
0.0
 40
44.0
 41
34.0
 68
     0
 69
     0
 12
22.0
 22
17.0
 13
0.0
 23
0.0
 14
1.0
 24
1.0
 15
1.0
 25
1.0
 16
0.0
 26
0.0
 36
1.0
 17
0.0
 27
0.0
 37
0.0
 42
12.35951697752272
 43
0.0
 44
0.0
 45
34.0
 50
0.0
 51
0.0
 72
   100
331
75
331
76
331
77
331
78
 90
   557152
  1

281
     0
 71
     1
 74
     0
110
0.0
120
0.0
130
0.0
111
1.0
121
0.0
131
0.0
112
0.0
122
1.0
132
0.0
 79
     0
146
0.0
170
     0
 61
     5
348
2F
292
     1
282
     1
141
0.0
142
0.0
 63
   250
421
  3355443
  0
ENDBLK
  5
1BD
330
1BB
100
AcDbEntity
 67
     1
  8
0
100
AcDbBlockEnd
  0
BLOCK
  5
30A
330
309
100
AcDbEntity
  8
0
100
AcDbBlockBegin
  2
00475EBB_PART_ONLY
 70
    36
 10
0.0
 20
0.0
 30
0.0
  3
00475EBB_PART_ONLY
  1
00475EBB_PART_ONLY.dwg
  0
ENDBLK
  5
30B
330
309
100
AcDbEntity
  8
0
100
AcDbBlockEnd
  0
ENDSEC
  0
SECTION
  2
ENTITIES
  0
LINE
  5
79
330
1F
100
AcDbEntity
  8
Top$1
  6
Continuous
 62
   252
370
    70
100
AcDbLine
 10
1.284000000000016
 20
6.555500000000009
 30
10.164
 11
1.284000000000002
 21
0.3745000000000012
 31
10.164
  0
ARC
  5
7A
330
1F
100
AcDbEntity
  8
Top$1
  6
Continuous
 62
   252
370
    70
100
AcDbCircle
 10
0.130000000000001
 20
0.5045000000000021
 30
10.164
 40
0.13
100
AcDbArc
 50
179.9999999999986
 51
270.0
  0
LINE
  5
7B
330
1F
100
AcDbEntity
  8
Top$1
  6
Continuous
 62
   252
370
    70
100
AcDbLine
 10
0.0000000000000173
 20
6.425500000000001
 30
10.164
 11
0.0000000000000033
 21
0.5045000000000082
 31
10.164
  0
ARC
  5
7C
330
1F
100
AcDbEntity
  8
Top$1
  6
Continuous
 62
   252
370
    70
100
AcDbCircle
 10
0.1300000000000175
 20
6.4255
 30
10.164
 40
0.13
100
AcDbArc
 50
89.99999999999952
 51
180.0
  0
LINE
  5
7D
330
1F
100
AcDbEntity
  8
Top$1
  6
Continuous
 62
   252
370
    70
100
AcDbLine
 10
1.284000000000016
 20
6.555499999999997
 30
10.164
 11
0.1300000000000189
 21
6.555500000000001
 31
10.164
  0
LINE
  5
7E
330
1F
100
AcDbEntity
  8
Top$1
  6
Continuous
 62
   252
370
    70
100
AcDbLine
 10
1.378000000000014
 20
6.555500000000943
 30
10.07
 11
1.377999999999999
 21
0.3744999999999994
 31
10.07
  0
ARC
  5
7F
330
1F
100
AcDbEntity
  8
Top$1
  6
Continuous
 62
   252
370
    70
100
AcDbCircle
 10
-1.284000000000007
 20
10.07
 30
6.555500000000013
 40
0.0940000000000002
210
0.0
220
1.0
230
0.0
100
AcDbArc
 50
90.0000000000055
 51
179.9999999999986
  0
LINE
  5
80
330
1F
100
AcDbEntity
  8
Top$1
  6
Continuous
 62
   252
370
    70
100
AcDbLine
 10
1.283999999999883
 20
6.585500000000018
 30
10.07
 11
0.0939999999998854
 21
6.585500000000019
 31
10.07
  0
LINE
  5
81
330
1F
100
AcDbEntity
  8
Top$1
  6
Continuous
 62
   252
370
    70
100
AcDbLine
 10
1.284000000000007
 20
6.649500000000018
 30
10.07
 11
0.0939999999998856
 21
6.649500000000019
 31
10.07
  0
ARC
  5
82
330
1F
100
AcDbEntity
  8
Top$1
  6
Continuous
 62
   252
370
    70
100
AcDbCircle
 10
1.284000000000007
 20
6.555500000001888
 30
10.07000000000001
 40
0.0300000000000002
100
AcDbArc
 50
359.9999999985162
 51
90.00000000023581
  0
ARC
  5
83
330
1F
100
AcDbEntity
  8
Top$1
  6
Continuous
 62
   252
370
    70
100
AcDbCircle
 10
1.284000000000007
 20
6.555500000001888
 30
10.07000000000001
 40
0.0940000000000002
100
AcDbArc
 50
359.9999999994239
 51
90.00000000000005
  0
LINE
  5
84
330
1F
100
AcDbEntity
  8
Top$1
  6
Continuous
 62
   252
370
    70
100
AcDbLine
 10
1.283999999999999
 20
0.3744999999999994
 30
10.164
 11
0.1300000000000013
 21
0.3745000000000021
 31
10.164
  0
ARC
  5
85
330
1F
100
AcDbEntity
  8
Top$1
  6
Continuous
 62
   252
370
    70
100
AcDbCircle
 10
1.283999999999998
 20
10.07
 30
-0.3745000000000073
 40
0.0940000000000002
210
-0.0000000000000011
220
-1.0
230
-0.0000000000000005
100
AcDbArc
 50
0.0000000000013231
 51
89.99999999999984
  0
ARC
  5
86
330
1F
100
AcDbEntity
  8
Top$1
  6
Continuous
 62
   252
370
    70
100
AcDbCircle
 10
0.0939999999998855
 20
6.55550000000222
 30
10.06999999999857
 40
0.03
100
AcDbArc
 50
89.99999999999994
 51
179.9999999999979
  0
LINE
  5
87
330
1F
100
AcDbEntity
  8
Top$1
  6
Continuous
 62
   252
370
    70
100
AcDbLine
 10
0.0639999999998754
 20
2.968000000000023
 30
10.07
 11
0.0639999999998822
 21
6.555500000000021
 31
10.07
  0
LINE
  5
88
330
1F
100
AcDbEntity
  8
Top$1
  6
Continuous
 62
   252
370
    70
100
AcDbLine
 10
-0.0000000000001246
 20
2.968000000000023
 30
10.07
 11
-0.0000000000001178
 21
6.555500000000019
 31
10.07
  0
ARC
  5
89
330
1F
100
AcDbEntity
  8
Top$1
  6
Continuous
 62
   252
370
    70
100
AcDbCircle
 10
0.0939999999998783
 20
6.55550000000222
 30
10.06999999999857
 40
0.094
100
AcDbArc
 50
90.0
 51
180.0
  0
LINE
  5
8A
330
1F
100
AcDbEntity
  8
Top$1
  6
Continuous
 62
   252
370
    70
100
AcDbLine
 10
-0.0300000000001238
 20
3.682000000000002
 30
6.718322181434244
 11
-0.0300000000001238
 21
3.382000000000003
 31
6.718322181434244
  0
ARC
  5
8B
330
1F
100
AcDbEntity
  8
Top$1
  6
Continuous
 62
   252
370
    70
100
AcDbCircle
 10
0.0300000000001226
 20
6.74832218143698
 30
3.68200000000025
 40
0.03
210
0.0000000000000036
220
1.0
230
0.0
100
AcDbArc
 50
180.0000000030741
 51
270.0000000000025
  0
ARC
  5
8C
330
1F
100
AcDbEntity
  8
Top$1
  6
Continuous
 62
   252
370
    70
100
AcDbCircle
 10
-0.0300000000001231
 20
6.748322181436979
 30
-3.382000000000213
 40
0.03
210
0.0
220
-1.0
230
0.0
100
AcDbArc
 50
269.9999999999986
 51
0.0
  0
LINE
  5
8D
330
1F
100
AcDbEntity
  8
Top$1
  6
Continuous
 62
   252
370
    70
100
AcDbLine
 10
-0.0830000000003704
 20
3.381999999999417
 30
6.718322181433868
 11
-0.0830000000003703
 21
3.681999999999635
 31
6.718322181434619
  0
LINE
  5
8E
330
1F
100
AcDbEntity
  8
Top$1
  6
Continuous
 62
   252
370
    70
100
AcDbLine
 10
-0.0830000000014043
 20
3.682000000000002
 30
6.718322181434619
 11
-0.0300000000001239
 21
3.682000000000002
 31
6.718322181434619
  0
LINE
  5
8F
330
1F
100
AcDbEntity
  8
Top$1
  6
Continuous
 62
   252
370
    70
100
AcDbLine
 10
-0.0300000000001239
 20
3.382000000000002
 30
6.718322181433869
 11
-0.0829999999993724
 21
3.382000000000002
 31
6.718322181433868
  0
LINE
  5
90
330
1F
100
AcDbEntity
  8
Top$1
  6
Continuous
 62
   252
370
    70
100
AcDbLine
 10
-0.1770000000003704
 20
3.681999999999854
 30
6.624322181433869
 11
-0.1770000000003704
 21
3.381999999999417
 31
6.624322181433869
  0
ARC
  5
91
330
1F
100
AcDbEntity
  8
Top$1
  6
Continuous
 62
   252
370
    70
100
AcDbCircle
 10
0.0830000000003704
 20
6.624322181433869
 30
3.681999999999635
 40
0.094
210
0.0000000000000001
220
1.0
230
0.0
100
AcDbArc
 50
345.0000000005293
 51
89.99999999936985
  0
ARC
  5
92
330
1F
100
AcDbEntity
  8
Top$1
  6
Continuous
 62
   252
370
    70
100
AcDbCircle
 10
-0.0830000000003704
 20
6.624322181433869
 30
-3.381999999999636
 40
0.094
210
0.0
220
-1.0
230
0.0
100
AcDbArc
 50
89.99999999939168
 51
194.9999999994703
  0
LINE
  5
93
330
1F
100
AcDbEntity
  8
Top$1
  6
Continuous
 62
   252
370
    70
100
AcDbLine
 10
-0.1798943606049989
 20
3.381999999999977
 30
6.275015450033544
 11
-0.1798943606075956
 21
3.681999999999976
 31
6.275015450034241
  0
LINE
  5
94
330
1F
100
AcDbEntity
  8
Top$1
  6
Continuous
 62
   252
370
    70
100
AcDbLine
 10
-0.1798943606075956
 20
3.681999999999976
 30
6.275015450034241
 11
-0.1353874431119133
 21
3.682000000000048
 31
6.441117527416791
  0
LINE
  5
95
330
1F
100
AcDbEntity
  8
Top$1
  6
Continuous
 62
   252
370
    70
100
AcDbLine
 10
-0.1353874431106155
 20
3.382000000000048
 30
6.44111752741125
 11
-0.1798943606049989
 21
3.381999999999977
 31
6.275015450033544
  0
LINE
  5
96
330
1F
100
AcDbEntity
  8
ORTHO$3
  6
Continuous
 62
   252
370
    70
100
AcDbLine
 10
1.283999999999877
 20
6.649500000000018
 30
-2.322000000000144
 11
1.283999999999883
 21
6.649500000000018
 31
10.07
  0
LINE
  5
97
330
1F
100
AcDbEntity
  8
ORTHO$3
  6
Continuous
 62
   252
370
    70
100
AcDbLine
 10
1.284000000000007
 20
6.649500000000018
 30
10.07
 11
0.0939999999998856
 21
6.649500000000019
 31
10.07
  0
LINE
  5
98
330
1F
100
AcDbEntity
  8
ORTHO$3
  6
Continuous
 62
   252
370
    70
100
AcDbLine
 10
1.283999999999877
 20
6.649500000000018
 30
-2.321999999999998
 11
0.0939999999998855
 21
6.649500000000019
 31
-2.321999999999997
  0
ARC
  5
99
330
1F
100
AcDbEntity
  8
ORTHO$3
  6
Continuous
 62
   252
370
    70
100
AcDbCircle
 10
-1.284000000000007
 20
6.555500000000523
 30
2.321999999998563
 40
0.0940000000000002
210
0.0
220
-0.0000000000002175
230
-1.0
100
AcDbArc
 50
89.99999999992084
 51
180.0000000001517
  0
LINE
  5
9A
330
1F
100
AcDbEntity
  8
ORTHO$3
  6
Continuous
 62
   252
370
    70
100
AcDbLine
 10
1.378000000000008
 20
6.555499999999999
 30
-2.322000000000056
 11
1.378000000000008
 21
6.555499999999999
 31
10.07000000000001
  0
ARC
  5
9B
330
1F
100
AcDbEntity
  8
ORTHO$3
  6
Continuous
 62
   252
370
    70
100
AcDbCircle
 10
1.284000000000007
 20
6.555500000001888
 30
10.07000000000001
 40
0.0940000000000002
100
AcDbArc
 50
359.9999999994239
 51
90.00000000000005
  0
LINE
  5
9C
330
1F
100
AcDbEntity
  8
ORTHO$3
  6
Continuous
 62
   252
370
    70
100
AcDbLine
 10
1.284000000000016
 20
6.555499999999997
 30
10.164
 11
0.1300000000000189
 21
6.555500000000001
 31
10.164
  0
LINE
  5
9D
330
1F
100
AcDbEntity
  8
ORTHO$3
  6
Continuous
 62
   252
370
    70
100
AcDbLine
 10
0.1300000000000175
 20
6.5555
 30
10.1
 11
0.1300000000000175
 21
6.5555
 31
10.164
  0
LINE
  5
9E
330
1F
100
AcDbEntity
  8
ORTHO$3
  6
Continuous
 62
   252
370
    70
100
AcDbLine
 10
1.284000000000006
 20
6.555499999999997
 30
10.1
 11
0.1300000000000189
 21
6.555500000000001
 31
10.1
  0
ARC
  5
9F
330
1F
100
AcDbEntity
  8
ORTHO$3
  6
Continuous
 62
   252
370
    70
100
AcDbCircle
 10
-1.284000000000007
 20
10.07
 30
6.555500000000003
 40
0.0300000000000002
210
0.0000000000000036
220
1.0
230
0.0
100
AcDbArc
 50
89.99999999999948
 51
180.0
  0
ARC
  5
A0
330
1F
100
AcDbEntity
  8
ORTHO$3
  6
Continuous
 62
   252
370
    70
100
AcDbCircle
 10
-1.284000000000007
 20
10.07
 30
6.555500000000013
 40
0.0940000000000002
210
0.0
220
1.0
230
0.0
100
AcDbArc
 50
90.0000000000055
 51
179.9999999999986
  0
LINE
  5
A1
330
1F
100
AcDbEntity
  8
ORTHO$3
  6
Continuous
 62
   252
370
    70
100
AcDbLine
 10
1.284000000000016
 20
6.555499999999999
 30
-2.351999999999999
 11
0.1300000000000185
 21
6.555500000000002
 31
-2.352
  0
LINE
  5
A2
330
1F
100
AcDbEntity
  8
ORTHO$3
  6
Continuous
 62
   252
370
    70
100
AcDbLine
 10
0.1300000000000181
 20
6.555500000000002
 30
-2.416
 11
0.1300000000000181
 21
6.555500000000002
 31
-2.352
  0
LINE
  5
A3
330
1F
100
AcDbEntity
  8
ORTHO$3
  6
Continuous
 62
   252
370
    70
100
AcDbLine
 10
1.284000000000007
 20
6.555499999999999
 30
-2.415999999999999
 11
0.1300000000000187
 21
6.555500000000002
 31
-2.416000000000001
  0
ARC
  5
A4
330
1F
100
AcDbEntity
  8
ORTHO$3
  6
Continuous
 62
   252
370
    70
100
AcDbCircle
 10
-1.284000000000008
 20
-2.321999999999999
 30
6.555500000000005
 40
0.0940000000000002
210
0.0
220
1.0
230
0.0
100
AcDbArc
 50
180.0000000000409
 51
270.0
  0
ARC
  5
A5
330
1F
100
AcDbEntity
  8
ORTHO$3
  6
Continuous
 62
   252
370
    70
100
AcDbCircle
 10
-1.284
 20
-2.321999999999989
 30
6.55550000000001
 40
0.0300000000000002
210
0.0
220
1.0
230
0.0
100
AcDbArc
 50
179.9999999999833
 51
269.9999999999833
  0
LINE
  5
A6
330
1F
100
AcDbEntity
  8
ORTHO$3
  6
Continuous
 62
   252
370
    70
100
AcDbLine
 10
0.0000000000000178
 20
6.425500000000003
 30
-2.352
 11
0.0000000000000178
 21
6.425500000000003
 31
-2.416
  0
ARC
  5
A7
330
1F
100
AcDbEntity
  8
ORTHO$3
  6
Continuous
 62
   252
370
    70
100
AcDbCircle
 10
0.1300000000000128
 20
6.425500000000003
 30
-2.352000000000001
 40
0.13
100
AcDbArc
 50
89.99999999999976
 51
180.0
  0
ARC
  5
A8
330
1F
100
AcDbEntity
  8
ORTHO$3
  6
Continuous
 62
   252
370
    70
100
AcDbCircle
 10
-0.1300000000000128
 20
6.425500000000003
 30
2.416000000000001
 40
0.13
210
0.0
220
-0.0000000000002175
230
-1.0
100
AcDbArc
 50
359.9999999999996
 51
90.00000000000024
  0
LINE
  5
A9
330
1F
100
AcDbEntity
  8
ORTHO$3
  6
Continuous
 62
   252
370
    70
100
AcDbLine
 10
0.0000000000000175
 20
6.4255
 30
10.164
 11
0.0000000000000175
 21
6.4255
 31
10.1
  0
ARC
  5
AA
330
1F
100
AcDbEntity
  8
ORTHO$3
  6
Continuous
 62
   252
370
    70
100
AcDbCircle
 10
-0.1300000000000175
 20
6.4255
 30
-10.1
 40
0.13
210
0.0
220
-0.0000000000002175
230
-1.0
100
AcDbArc
 50
359.999999999999
 51
90.00000000000047
  0
ARC
  5
AB
330
1F
100
AcDbEntity
  8
ORTHO$3
  6
Continuous
 62
   252
370
    70
100
AcDbCircle
 10
0.1300000000000175
 20
6.4255
 30
10.164
 40
0.13
100
AcDbArc
 50
89.99999999999952
 51
180.0
  0
LINE
  5
AC
330
1F
100
AcDbEntity
  8
ORTHO$3
  6
Continuous
 62
   252
370
    70
100
AcDbLine
 10
0.0939999999998855
 20
6.64950000000002
 30
-2.321999999999997
 11
0.0939999999998855
 21
6.64950000000002
 31
10.07000000000001
  0
LINE
  5
AD
330
1F
100
AcDbEntity
  8
ORTHO$3
  6
Continuous
 62
   252
370
    70
100
AcDbLine
 10
-0.0000000000001169
 20
6.555500000000021
 30
10.07
 11
-0.0000000000001147
 21
6.555500000000021
 31
-2.321999999999997
  0
ARC
  5
AE
330
1F
100
AcDbEntity
  8
ORTHO$3
  6
Continuous
 62
   252
370
    70
100
AcDbCircle
 10
0.0939999999998783
 20
6.555499999999512
 30
-2.32200000000143
 40
0.094
100
AcDbArc
 50
90.0
 51
180.0
  0
ARC
  5
AF
330
1F
100
AcDbEntity
  8
ORTHO$3
  6
Continuous
 62
   252
370
    70
100
AcDbCircle
 10
0.0939999999998783
 20
6.55550000000222
 30
10.06999999999857
 40
0.094
100
AcDbArc
 50
90.0
 51
180.0
  0
ARC
  5
B0
330
1F
100
AcDbEntity
  8
ORTHO$3
  6
Continuous
 62
   252
370
    70
100
AcDbCircle
 10
0.0830000000003704
 20
6.624322181433869
 30
3.681999999999635
 40
0.094
210
0.0000000000000001
220
1.0
230
0.0
100
AcDbArc
 50
345.0000000005293
 51
89.99999999936985
  0
LINE
  5
B1
330
1F
100
AcDbEntity
  8
ORTHO$3
  6
Continuous
 62
   252
370
    70
100
AcDbLine
 10
-0.1737970276720884
 20
3.681999999999854
 30
6.599993191194984
 11
-0.1353874431118891
 21
3.681999999999976
 31
6.456646670118788
  0
ARC
  5
B2
330
1F
100
AcDbEntity
  8
ORTHO$3
  6
Continuous
 62
   252
370
    70
100
AcDbCircle
 10
0.1643652178920736
 20
6.448882098776436
 30
3.681999999981933
 40
0.03
210
-0.0000000000012847
220
1.0
230
-0.0000000000016792
100
AcDbArc
 50
164.9999999999945
 51
194.9999999923419
  0
LINE
  5
B3
330
1F
100
AcDbEntity
  8
ORTHO$3
  6
Continuous
 62
   252
370
    70
100
AcDbLine
 10
-0.1798943606075956
 20
3.681999999999976
 30
6.275015450034241
 11
-0.1353874431119133
 21
3.682000000000048
 31
6.441117527416791
  0
LINE
  5
B4
330
1F
100
AcDbEntity
  8
ORTHO$3
  6
Continuous
 62
   252
370
    70
100
AcDbLine
 10
-0.1798943606075957
 20
3.681999999999976
 30
6.275015450034241
 11
-0.1180751077250856
 21
3.68200000000055
 31
6.258451031147716
  0
LINE
  5
B5
330
1F
100
AcDbEntity
  8
ORTHO$3
  6
Continuous
 62
   252
370
    70
100
AcDbLine
 10
-0.1180751077250856
 20
3.68200000000055
 30
6.258451031147716
 11
-0.0735681902307015
 21
3.682000000000622
 31
6.424553108525421
  0
ARC
  5
B6
330
1F
100
AcDbEntity
  8
ORTHO$3
  6
Continuous
 62
   252
370
    70
100
AcDbCircle
 10
0.164365217891945
 20
6.448882098776437
 30
3.681999999981969
 40
0.094
210
-0.0000000000012888
220
1.0
230
-0.0000000000016803
100
AcDbArc
 50
164.999999997503
 51
195.0000000005933
  0
LINE
  5
B7
330
1F
100
AcDbEntity
  8
ORTHO$3
  6
Continuous
 62
   252
370
    70
100
AcDbLine
 10
-0.1119777747892778
 20
3.68200000000004
 30
6.616557610080388
 11
-0.0735681902304493
 21
3.682000000000162
 31
6.473211089009307
  0
ARC
  5
B8
330
1F
100
AcDbEntity
  8
ORTHO$3
  6
Continuous
 62
   252
370
    70
100
AcDbCircle
 10
0.0830000000003704
 20
6.624322181433869
 30
3.681999999999635
 40
0.03
210
0.0
220
1.0
230
0.0
100
AcDbArc
 50
344.9999999993698
 51
90.0
  0
LINE
  5
B9
330
1F
100
AcDbEntity
  8
ORTHO$3
  6
Continuous
 62
   252
370
    70
100
AcDbLine
 10
-0.0830000000003696
 20
3.682000000000162
 30
6.654322181434618
 11
-0.0300000000001231
 21
3.682000000000162
 31
6.654322181434618
  0
ARC
  5
BA
330
1F
100
AcDbEntity
  8
ORTHO$3
  6
Continuous
 62
   252
370
    70
100
AcDbCircle
 10
0.0300000000001226
 20
6.74832218143698
 30
3.68200000000025
 40
0.03
210
0.0000000000000036
220
1.0
230
0.0
100
AcDbArc
 50
180.0000000030741
 51
270.0000000000025
  0
LINE
  5
BB
330
1F
100
AcDbEntity
  8
ORTHO$3
  6
Continuous
 62
   252
370
    70
100
AcDbLine
 10
-0.0830000000014043
 20
3.682000000000002
 30
6.718322181434619
 11
-0.0300000000001239
 21
3.682000000000002
 31
6.718322181434619
  0
ARC
  5
BC
330
1F
100
AcDbEntity
  8
ORTHO$3
  6
Continuous
 62
   252
370
    70
100
AcDbCircle
 10
0.0300000000001226
 20
6.74832218143698
 30
3.682000000000213
 40
0.094
210
0.0
220
1.0
230
0.0
100
AcDbArc
 50
180.0000000026542
 51
270.0000000000003
  0
LINE
  5
BD
330
1F
100
AcDbEntity
  8
ORTHO$3
  6
Continuous
 62
   252
370
    70
100
AcDbLine
 10
-0.1353874431114479
 20
3.681999999999965
 30
2.956646670121194
 11
-0.1737970276716105
 21
3.68199999999997
 31
3.099993191197333
  0
ARC
  5
BE
330
1F
100
AcDbEntity
  8
ORTHO$3
  6
Continuous
 62
   252
370
    70
100
AcDbCircle
 10
0.1643652178990582
 20
2.948882098769845
 30
3.681999999998542
 40
0.03
210
-0.0000000000012847
220
1.0
230
-0.0000000000016792
100
AcDbArc
 50
164.9999999999927
 51
194.9999999997751
  0
LINE
  5
BF
330
1F
100
AcDbEntity
  8
ORTHO$3
  6
Continuous
 62
   252
370
    70
100
AcDbLine
 10
-0.1798943606061834
 20
3.681999999999965
 30
2.775015450036059
 11
-0.1353874431113257
 21
3.681999999999928
 31
2.941117527415128
  0
LINE
  5
C0
330
1F
100
AcDbEntity
  8
ORTHO$3
  6
Continuous
 62
   252
370
    70
100
AcDbLine
 10
-0.1180751077236833
 20
3.681999999999958
 30
2.758451031149496
 11
-0.1798943606061833
 21
3.681999999999965
 31
2.775015450036059
  0
LINE
  5
C1
330
1F
100
AcDbEntity
  8
ORTHO$3
  6
Continuous
 62
   252
370
    70
100
AcDbLine
 10
-0.1180751077236834
 20
3.681999999999958
 30
2.758451031149496
 11
-0.0735681902288094
 21
3.681999999999921
 31
2.924553108528627
  0
ARC
  5
C2
330
1F
100
AcDbEntity
  8
ORTHO$3
  6
Continuous
 62
   252
370
    70
100
AcDbCircle
 10
0.16436521789904
 20
2.948882098769844
 30
3.681999999998548
 40
0.094
210
-0.0000000000012888
220
1.0
230
-0.0000000000016803
100
AcDbArc
 50
165.000000000212
 51
194.9999999998879
  0
LINE
  5
C3
330
1F
100
AcDbEntity
  8
ORTHO$3
  6
Continuous
 62
   252
370
    70
100
AcDbLine
 10
-0.0735681902288553
 20
3.681999999999995
 30
2.973211089007411
 11
-0.1119777747891031
 21
3.682
 31
3.116557610083869
  0
ARC
  5
C4
330
1F
100
AcDbEntity
  8
ORTHO$3
  6
Continuous
 62
   252
370
    70
100
AcDbCircle
 10
0.0830000000003703
 20
3.124322181437002
 30
3.681999999999961
 40
0.03
210
0.0
220
1.0
230
0.0
100
AcDbArc
 50
344.9999999999239
 51
90.0
  0
LINE
  5
C5
330
1F
100
AcDbEntity
  8
ORTHO$3
  6
Continuous
 62
   252
370
    70
100
AcDbLine
 10
-0.0830000000003703
 20
3.681999999999995
 30
3.154322181436971
 11
-0.0300000000001216
 21
3.681999999999995
 31
3.154322181436971
  0
ARC
  5
C6
330
1F
100
AcDbEntity
  8
ORTHO$3
  6
Continuous
 62
   252
370
    70
100
AcDbCircle
 10
0.0300000000001209
 20
3.248322181436979
 30
3.682
 40
0.094
210
0.0
220
1.0
230
0.0
100
AcDbArc
 50
180.0
 51
270.0000000000004
  0
ARC
  5
C7
330
1F
100
AcDbEntity
  8
ORTHO$3
  6
Continuous
 62
   252
370
    70
100
AcDbCircle
 10
0.0300000000001209
 20
3.248322181436979
 30
3.681999999999998
 40
0.03
210
0.0000000000000036
220
1.0
230
0.0
100
AcDbArc
 50
180.0
 51
270.0000000000012
  0
LINE
  5
C8
330
1F
100
AcDbEntity
  8
ORTHO$3
  6
Continuous
 62
   252
370
    70
100
AcDbLine
 10
-0.0830000000004953
 20
3.682000000000001
 30
3.218322181436971
 11
-0.0300000000001216
 21
3.682000000000001
 31
3.218322181436971
  0
ARC
  5
C9
330
1F
100
AcDbEntity
  8
ORTHO$3
  6
Continuous
 62
   252
370
    70
100
AcDbCircle
 10
0.0830000000003703
 20
3.124322181437002
 30
3.681999999999961
 40
0.094
210
0.0000000000000001
220
1.0
230
0.0
100
AcDbArc
 50
344.9999999999923
 51
89.99999999992388
  0
LINE
  5
CA
330
1F
100
AcDbEntity
  8
ORTHO$6
  6
Continuous
 62
   252
370
    70
100
AcDbLine
 10
0.0000000000000011
 20
0.5045000000000024
 30
10.1
 11
0.0000000000000011
 21
0.5045000000000024
 31
10.164
  0
LINE
  5
CB
330
1F
100
AcDbEntity
  8
ORTHO$6
  6
Continuous
 62
   252
370
    70
100
AcDbLine
 10
0.0000000000000175
 20
6.4255
 30
10.164
 11
0.0000000000000175
 21
6.4255
 31
10.1
  0
LINE
  5
CC
330
1F
100
AcDbEntity
  8
ORTHO$6
  6
Continuous
 62
   252
370
    70
100
AcDbLine
 10
0.0000000000000173
 20
6.425500000000001
 30
10.164
 11
0.0000000000000033
 21
0.5045000000000082
 31
10.164
  0
LINE
  5
CD
330
1F
100
AcDbEntity
  8
ORTHO$6
  6
Continuous
 62
   252
370
    70
100
AcDbLine
 10
0.0000000000000021
 20
0.5045000000000022
 30
10.1
 11
0.0000000000000161
 21
6.425499999999995
 31
10.1
  0
LINE
  5
CE
330
1F
100
AcDbEntity
  8
ORTHO$6
  6
Continuous
 62
   252
370
    70
100
AcDbLine
 10
0.000000000000002
 20
0.5045000000000041
 30
-2.416
 11
0.000000000000002
 21
0.5045000000000041
 31
-2.352
  0
LINE
  5
CF
330
1F
100
AcDbEntity
  8
ORTHO$6
  6
Continuous
 62
   252
370
    70
100
AcDbLine
 10
0.0000000000000178
 20
6.425500000000003
 30
-2.352
 11
0.0000000000000178
 21
6.425500000000003
 31
-2.416
  0
LINE
  5
D0
330
1F
100
AcDbEntity
  8
ORTHO$6
  6
Continuous
 62
   252
370
    70
100
AcDbLine
 10
0.0000000000000029
 20
0.5045000000000037
 30
-2.416
 11
0.0000000000000169
 21
6.425499999999999
 31
-2.416
  0
LINE
  5
D1
330
1F
100
AcDbEntity
  8
ORTHO$6
  6
Continuous
 62
   252
370
    70
100
AcDbLine
 10
0.0000000000000169
 20
6.425500000000003
 30
-2.352
 11
0.0000000000000029
 21
0.5045000000000064
 31
-2.352
  0
LINE
  5
D2
330
1F
100
AcDbEntity
  8
ORTHO$6
  6
Continuous
 62
   252
370
    70
100
AcDbLine
 10
0.1300000000000175
 20
6.5555
 30
10.1
 11
0.1300000000000175
 21
6.5555
 31
10.164
  0
ARC
  5
D3
330
1F
100
AcDbEntity
  8
ORTHO$6
  6
Continuous
 62
   252
370
    70
100
AcDbCircle
 10
0.1300000000000175
 20
6.4255
 30
10.164
 40
0.13
100
AcDbArc
 50
89.99999999999952
 51
180.0
  0
ARC
  5
D4
330
1F
100
AcDbEntity
  8
ORTHO$6
  6
Continuous
 62
   252
370
    70
100
AcDbCircle
 10
-0.1300000000000175
 20
6.4255
 30
-10.1
 40
0.13
210
0.0
220
-0.0000000000002175
230
-1.0
100
AcDbArc
 50
359.999999999999
 51
90.00000000000047
  0
LINE
  5
D5
330
1F
100
AcDbEntity
  8
ORTHO$6
  6
Continuous
 62
   252
370
    70
100
AcDbLine
 10
0.1300000000000181
 20
6.555500000000002
 30
-2.416
 11
0.1300000000000181
 21
6.555500000000002
 31
-2.352
  0
ARC
  5
D6
330
1F
100
AcDbEntity
  8
ORTHO$6
  6
Continuous
 62
   252
370
    70
100
AcDbCircle
 10
-0.1300000000000128
 20
6.425500000000003
 30
2.416000000000001
 40
0.13
210
0.0
220
-0.0000000000002175
230
-1.0
100
AcDbArc
 50
359.9999999999996
 51
90.00000000000024
  0
ARC
  5
D7
330
1F
100
AcDbEntity
  8
ORTHO$6
  6
Continuous
 62
   252
370
    70
100
AcDbCircle
 10
0.1300000000000128
 20
6.425500000000003
 30
-2.352000000000001
 40
0.13
100
AcDbArc
 50
89.99999999999976
 51
180.0
  0
ARC
  5
D8
330
1F
100
AcDbEntity
  8
ORTHO$6
  6
Continuous
 62
   252
370
    70
100
AcDbCircle
 10
0.130000000000001
 20
0.5045000000000021
 30
10.164
 40
0.13
100
AcDbArc
 50
179.9999999999986
 51
270.0
  0
ARC
  5
D9
330
1F
100
AcDbEntity
  8
ORTHO$6
  6
Continuous
 62
   252
370
    70
100
AcDbCircle
 10
-0.130000000000001
 20
0.5045000000000021
 30
-10.1
 40
0.13
210
0.0
220
-0.0000000000002175
230
-1.0
100
AcDbArc
 50
270.0
 51
0.0
  0
LINE
  5
DA
330
1F
100
AcDbEntity
  8
ORTHO$6
  6
Continuous
 62
   252
370
    70
100
AcDbLine
 10
0.1300000000000018
 20
0.3745000000000036
 30
-2.352
 11
0.1300000000000018
 21
0.3745000000000036
 31
-2.416000000000001
  0
ARC
  5
DB
330
1F
100
AcDbEntity
  8
ORTHO$6
  6
Continuous
 62
   252
370
    70
100
AcDbCircle
 10
-0.1299999999999971
 20
0.5045000000000036
 30
2.416000000000001
 40
0.13
210
0.0
220
-0.0000000000002175
230
-1.0
100
AcDbArc
 50
270.0
 51
0.0
  0
ARC
  5
DC
330
1F
100
AcDbEntity
  8
ORTHO$6
  6
Continuous
 62
   252
370
    70
100
AcDbCircle
 10
0.1299999999999971
 20
0.5045000000000036
 30
-2.352000000000001
 40
0.13
100
AcDbArc
 50
179.9999999999996
 51
270.0
  0
ARC
  5
DD
330
1F
100
AcDbEntity
  8
ORTHO$6
  6
Continuous
 62
   252
370
    70
100
AcDbCircle
 10
-1.284000000000007
 20
10.07
 30
6.555500000000003
 40
0.0300000000000002
210
0.0000000000000036
220
1.0
230
0.0
100
AcDbArc
 50
89.99999999999948
 51
180.0
  0
ARC
  5
DE
330
1F
100
AcDbEntity
  8
ORTHO$6
  6
Continuous
 62
   252
370
    70
100
AcDbCircle
 10
1.283999999999999
 20
-2.322
 30
-0.3744999999999975
 40
0.0300000000000002
210
-0.0000000000000012
220
-1.0
230
-0.0000000000000017
100
AcDbArc
 50
270.0000000000005
 51
359.9999999999995
  0
ARC
  5
DF
330
1F
100
AcDbEntity
  8
ORTHO$6
  6
Continuous
 62
   252
370
    70
100
AcDbCircle
 10
-1.284
 20
-2.321999999999989
 30
6.55550000000001
 40
0.0300000000000002
210
0.0
220
1.0
230
0.0
100
AcDbArc
 50
179.9999999999833
 51
269.9999999999833
  0
LINE
  5
E0
330
1F
100
AcDbEntity
  8
ORTHO$6
  6
Continuous
 62
   252
370
    70
100
AcDbLine
 10
-0.0000000000001214
 20
2.96800000000002
 30
-2.321999999999997
 11
-0.0000000000001257
 21
2.968000000000023
 31
10.07
  0
LINE
  5
E1
330
1F
100
AcDbEntity
  8
ORTHO$6
  6
Continuous
 62
   252
370
    70
100
AcDbLine
 10
-0.0000000000001135
 20
6.555500000000019
 30
-2.321999999999997
 11
-0.0000000000001203
 21
2.96800000000002
 31
-2.321999999999997
  0
LINE
  5
E2
330
1F
100
AcDbEntity
  8
ORTHO$6
  6
Continuous
 62
   252
370
    70
100
AcDbLine
 10
-0.0000000000001169
 20
6.555500000000021
 30
10.07
 11
-0.0000000000001147
 21
6.555500000000021
 31
-2.321999999999997
  0
LINE
  5
E3
330
1F
100
AcDbEntity
  8
ORTHO$6
  6
Continuous
 62
   252
370
    70
100
AcDbLine
 10
-0.0000000000001246
 20
2.968000000000023
 30
10.07
 11
-0.0000000000001178
 21
6.555500000000019
 31
10.07
  0
LINE
  5
E4
330
1F
100
AcDbEntity
  8
ORTHO$6
  6
Continuous
 62
   252
370
    70
100
AcDbLine
 10
0.0939999999998855
 20
6.64950000000002
 30
-2.321999999999997
 11
0.0939999999998855
 21
6.64950000000002
 31
10.07000000000001
  0
ARC
  5
E5
330
1F
100
AcDbEntity
  8
ORTHO$6
  6
Continuous
 62
   252
370
    70
100
AcDbCircle
 10
0.0939999999998783
 20
6.555499999999512
 30
-2.32200000000143
 40
0.094
100
AcDbArc
 50
90.0
 51
180.0
  0
ARC
  5
E6
330
1F
100
AcDbEntity
  8
ORTHO$6
  6
Continuous
 62
   252
370
    70
100
AcDbCircle
 10
0.0939999999998783
 20
6.55550000000222
 30
10.06999999999857
 40
0.094
100
AcDbArc
 50
90.0
 51
180.0
  0
LINE
  5
E7
330
1F
100
AcDbEntity
  8
ORTHO$6
  6
Continuous
 62
   252
370
    70
100
AcDbLine
 10
0.130000000000001
 20
0.3745000000000021
 30
10.164
 11
0.130000000000001
 21
0.3745000000000021
 31
10.1
  0
LINE
  5
E8
330
1F
100
AcDbEntity
  8
ORTHO$6
  6
Continuous
 62
   252
370
    70
100
AcDbLine
 10
1.314000000000014
 20
6.555500000001111
 30
10.07
 11
1.313999999999999
 21
0.3745000000000012
 31
10.07
  0
ARC
  5
E9
330
1F
100
AcDbEntity
  8
ORTHO$6
  6
Continuous
 62
   252
370
    70
100
AcDbCircle
 10
1.283999999999998
 20
10.07
 30
-0.3745000000000084
 40
0.0300000000000002
210
0.0
220
-1.0
230
0.0
100
AcDbArc
 50
0.000000000004174
 51
89.99999999999582
  0
LINE
  5
EA
330
1F
100
AcDbEntity
  8
ORTHO$6
  6
Continuous
 62
   252
370
    70
100
AcDbLine
 10
1.314
 20
0.3745000000000065
 30
-2.321999999999999
 11
1.314000000000014
 21
6.555500000000018
 31
-2.321999999999999
  0
LINE
  5
EB
330
1F
100
AcDbEntity
  8
ORTHO$6
  6
Continuous
 62
   252
370
    70
100
AcDbLine
 10
1.313999999999999
 20
2.522
 30
-1.877999999999999
 11
1.313999999999999
 21
2.522
 31
-1.672740863054965
  0
ARC
  5
EC
330
1F
100
AcDbEntity
  8
ORTHO$6
  6
Continuous
 62
   252
370
    70
100
AcDbCircle
 10
-2.761999999999999
 20
-1.190499999999998
 30
-1.313999999999998
 40
0.4375
210
-1.0
220
0.0
230
0.0
100
AcDbArc
 50
315.4572492049715
 51
224.5427507950286
  0
ARC
  5
ED
330
1F
100
AcDbEntity
  8
ORTHO$6
  6
Continuous
 62
   252
370
    70
100
AcDbCircle
 10
-2.762000000000002
 20
-1.877999999999999
 30
-1.313999999999994
 40
0.24
210
-1.0
220
0.0000000000000055
230
0.0
100
AcDbArc
 50
180.0
 51
0.0
  0
ARC
  5
EE
330
1F
100
AcDbEntity
  8
ORTHO$6
  6
Continuous
 62
   252
370
    70
100
AcDbCircle
 10
2.762000000000001
 20
7.342
 30
1.313999999999996
 40
0.24
210
1.0
220
-0.0000000000000012
230
0.0
100
AcDbArc
 50
180.0
 51
0.0
  0
LINE
  5
EF
330
1F
100
AcDbEntity
  8
ORTHO$6
  6
Continuous
 62
   252
370
    70
100
AcDbLine
 10
1.313999999999999
 20
2.522
 30
7.547259136945031
 11
1.313999999999999
 21
2.522
 31
7.341999999999999
  0
ARC
  5
F0
330
1F
100
AcDbEntity
  8
ORTHO$6
  6
Continuous
 62
   252
370
    70
100
AcDbCircle
 10
-2.761999999999998
 20
8.029500000000004
 30
-1.313999999999998
 40
0.4375
210
-1.0
220
0.0
230
0.0
100
AcDbArc
 50
315.457249204971
 51
224.5427507950282
  0
ARC
  5
F1
330
1F
100
AcDbEntity
  8
ORTHO$6
  6
Continuous
 62
   252
370
    70
100
AcDbCircle
 10
2.762000000000001
 20
2.102
 30
1.313999999999996
 40
0.24
210
1.0
220
-0.0000000000000012
230
0.0
100
AcDbArc
 50
180.0
 51
0.0
  0
LINE
  5
F2
330
1F
100
AcDbEntity
  8
ORTHO$6
  6
Continuous
 62
   252
370
    70
100
AcDbLine
 10
1.313999999999999
 20
2.522
 30
2.307259136945032
 11
1.313999999999999
 21
2.522
 31
2.102
  0
ARC
  5
F3
330
1F
100
AcDbEntity
  8
ORTHO$6
  6
Continuous
 62
   252
370
    70
100
AcDbCircle
 10
-2.762
 20
2.789500000000002
 30
-1.313999999999998
 40
0.4375
210
-1.0
220
0.0
230
0.0
100
AcDbArc
 50
315.4572492049712
 51
224.5427507950283
  0
LINE
  5
F4
330
1F
100
AcDbEntity
  8
ORTHO$6
  6
Continuous
 62
   252
370
    70
100
AcDbLine
 10
1.314000000000001
 20
0.3745000000000007
 30
10.07
 11
1.314000000000001
 21
0.3745000000000066
 31
-2.322
  0
CIRCLE
  5
F5
330
1F
100
AcDbEntity
  8
ORTHO$6
  6
Continuous
 62
   252
370
    70
100
AcDbCircle
 10
3.532
 20
5.4032
 30
-0.0000000000003725
 40
0.164
210
1.0
220
0.0
230
0.0
  0
LINE
  5
F6
330
1F
100
AcDbEntity
  8
ORTHO$6
  6
Continuous
 62
   252
370
    70
100
AcDbLine
 10
-0.1353874431106155
 20
3.382000000000048
 30
6.44111752741125
 11
-0.1798943606049989
 21
3.381999999999977
 31
6.275015450033544
  0
LINE
  5
F7
330
1F
100
AcDbEntity
  8
ORTHO$6
  6
Continuous
 62
   252
370
    70
100
AcDbLine
 10
-0.1798943606049989
 20
3.381999999999977
 30
6.275015450033544
 11
-0.1798943606075956
 21
3.681999999999976
 31
6.275015450034241
  0
LINE
  5
F8
330
1F
100
AcDbEntity
  8
ORTHO$6
  6
Continuous
 62
   252
370
    70
100
AcDbLine
 10
-0.1798943606075956
 20
3.681999999999976
 30
6.275015450034241
 11
-0.1353874431119133
 21
3.682000000000048
 31
6.441117527416791
  0
LINE
  5
F9
330
1F
100
AcDbEntity
  8
ORTHO$6
  6
Continuous
 62
   252
370
    70
100
AcDbLine
 10
-0.1353874431119137
 20
3.682000000000048
 30
6.441117527411599
 11
-0.1353874431119137
 21
3.382000000000049
 31
6.441117527411599
  0
LINE
  5
FA
330
1F
100
AcDbEntity
  8
ORTHO$6
  6
Continuous
 62
   252
370
    70
100
AcDbLine
 10
-0.179894360604999
 20
3.381999999999977
 30
6.275015450033544
 11
-0.1180751077224889
 21
3.38200000000055
 31
6.258451031147019
  0
LINE
  5
FB
330
1F
100
AcDbEntity
  8
ORTHO$6
  6
Continuous
 62
   252
370
    70
100
AcDbLine
 10
-0.1180751077224889
 20
3.38200000000055
 30
6.258451031147019
 11
-0.1180751077250856
 21
3.68200000000055
 31
6.258451031147716
  0
LINE
  5
FC
330
1F
100
AcDbEntity
  8
ORTHO$6
  6
Continuous
 62
   252
370
    70
100
AcDbLine
 10
-0.1798943606075957
 20
3.681999999999976
 30
6.275015450034241
 11
-0.1180751077250856
 21
3.68200000000055
 31
6.258451031147716
  0
LINE
  5
FD
330
1F
100
AcDbEntity
  8
ORTHO$6
  6
Continuous
 62
   252
370
    70
100
AcDbLine
 10
-0.1180751077237163
 20
3.381999999999958
 30
2.758451031149505
 11
-0.1798943606062163
 21
3.381999999999965
 31
2.775015450036068
  0
LINE
  5
FE
330
1F
100
AcDbEntity
  8
ORTHO$6
  6
Continuous
 62
   252
370
    70
100
AcDbLine
 10
-0.1180751077237163
 20
3.381999999999958
 30
2.758451031149505
 11
-0.1180751077236833
 21
3.681999999999958
 31
2.758451031149496
  0
LINE
  5
FF
330
1F
100
AcDbEntity
  8
ORTHO$6
  6
Continuous
 62
   252
370
    70
100
AcDbLine
 10
-0.1180751077236833
 20
3.681999999999958
 30
2.758451031149496
 11
-0.1798943606061833
 21
3.681999999999965
 31
2.775015450036059
  0
LINE
  5
100
330
1F
100
AcDbEntity
  8
ORTHO$6
  6
Continuous
 62
   252
370
    70
100
AcDbLine
 10
-0.1798943606062163
 20
3.381999999999965
 30
2.775015450036068
 11
-0.1798943606061834
 21
3.681999999999965
 31
2.775015450036059
  0
LINE
  5
101
330
1F
100
AcDbEntity
  8
ORTHO$6
  6
Continuous
 62
   252
370
    70
100
AcDbLine
 10
-0.1353874431113423
 20
3.381999999999928
 30
2.941117527415198
 11
-0.1798943606062163
 21
3.381999999999965
 31
2.775015450036068
  0
LINE
  5
102
330
1F
100
AcDbEntity
  8
ORTHO$6
  6
Continuous
 62
   252
370
    70
100
AcDbLine
 10
-0.1798943606061834
 20
3.681999999999965
 30
2.775015450036059
 11
-0.1353874431113257
 21
3.681999999999928
 31
2.941117527415128
  0
LINE
  5
103
330
1F
100
AcDbEntity
  8
ORTHO$6
  6
Continuous
 62
   252
370
    70
100
AcDbLine
 10
-0.1353874431113258
 20
3.681999999999927
 30
2.941117527415194
 11
-0.1353874431113258
 21
3.381999999999927
 31
2.941117527415194
  0
LINE
  5
104
330
1F
100
AcDbEntity
  8
ORTHO$6
  6
Continuous
 62
   252
370
    70
100
AcDbLine
 10
-0.0830000000003704
 20
3.381999999999417
 30
6.718322181433868
 11
-0.0830000000003703
 21
3.681999999999635
 31
6.718322181434619
  0
LINE
  5
105
330
1F
100
AcDbEntity
  8
ORTHO$6
  6
Continuous
 62
   252
370
    70
100
AcDbLine
 10
-0.1737970276716663
 20
3.381999999999854
 30
6.599993191195098
 11
-0.1737970276716663
 21
3.681999999999854
 31
6.599993191195098
  0
ARC
  5
106
330
1F
100
AcDbEntity
  8
ORTHO$6
  6
Continuous
 62
   252
370
    70
100
AcDbCircle
 10
-0.0830000000003704
 20
6.624322181433869
 30
-3.381999999999636
 40
0.094
210
0.0
220
-1.0
230
0.0
100
AcDbArc
 50
89.99999999939168
 51
194.9999999994703
  0
ARC
  5
107
330
1F
100
AcDbEntity
  8
ORTHO$6
  6
Continuous
 62
   252
370
    70
100
AcDbCircle
 10
0.0830000000003704
 20
6.624322181433869
 30
3.681999999999635
 40
0.094
210
0.0000000000000001
220
1.0
230
0.0
100
AcDbArc
 50
345.0000000005293
 51
89.99999999936985
  0
LINE
  5
108
330
1F
100
AcDbEntity
  8
ORTHO$6
  6
Continuous
 62
   252
370
    70
100
AcDbLine
 10
-0.0830000000003703
 20
3.381999999999952
 30
3.218322181437002
 11
-0.0830000000003703
 21
3.681999999999961
 31
3.218322181436971
  0
LINE
  5
109
330
1F
100
AcDbEntity
  8
ORTHO$6
  6
Continuous
 62
   252
370
    70
100
AcDbLine
 10
-0.1737970276715419
 20
3.38199999999997
 30
3.099993191197352
 11
-0.1737970276715419
 21
3.68199999999997
 31
3.099993191197352
  0
ARC
  5
10A
330
1F
100
AcDbEntity
  8
ORTHO$6
  6
Continuous
 62
   252
370
    70
100
AcDbCircle
 10
0.0830000000003703
 20
3.124322181437002
 30
3.681999999999961
 40
0.094
210
0.0000000000000001
220
1.0
230
0.0
100
AcDbArc
 50
344.9999999999923
 51
89.99999999992388
  0
ARC
  5
10B
330
1F
100
AcDbEntity
  8
ORTHO$6
  6
Continuous
 62
   252
370
    70
100
AcDbCircle
 10
-0.0830000000003703
 20
3.124322181437002
 30
-3.381999999999961
 40
0.094
210
0.0
220
-1.0
230
0.0
100
AcDbArc
 50
89.99999999992075
 51
195.0000000000079
  0
LINE
  5
10C
330
1F
100
AcDbEntity
  8
ORTHO$6
  6
Continuous
 62
   252
370
    70
100
AcDbLine
 10
-0.1353874431118891
 20
3.681999999999976
 30
6.456646670118788
 11
-0.1353874431110449
 21
3.382000000000464
 31
6.456646670119015
  0
LINE
  5
10D
330
1F
100
AcDbEntity
  8
ORTHO$6
  6
Continuous
 62
   252
370
    70
100
AcDbLine
 10
-0.1353874431112115
 20
3.381999999999976
 30
6.456646670119637
 11
-0.1737970276712447
 21
3.381999999999854
 31
6.599993191195212
  0
LINE
  5
10E
330
1F
100
AcDbEntity
  8
ORTHO$6
  6
Continuous
 62
   252
370
    70
100
AcDbLine
 10
-0.1737970276720884
 20
3.681999999999854
 30
6.599993191194984
 11
-0.1353874431118891
 21
3.681999999999976
 31
6.456646670118788
  0
LINE
  5
10F
330
1F
100
AcDbEntity
  8
ORTHO$6
  6
Continuous
 62
   252
370
    70
100
AcDbLine
 10
-0.1353874431113107
 20
3.381999999999965
 30
2.956646670121231
 11
-0.1353874431114479
 21
3.681999999999965
 31
2.956646670121195
  0
LINE
  5
110
330
1F
100
AcDbEntity
  8
ORTHO$6
  6
Continuous
 62
   252
370
    70
100
AcDbLine
 10
-0.1353874431114479
 20
3.681999999999965
 30
2.956646670121194
 11
-0.1737970276716105
 21
3.68199999999997
 31
3.099993191197333
  0
LINE
  5
111
330
1F
100
AcDbEntity
  8
ORTHO$6
  6
Continuous
 62
   252
370
    70
100
AcDbLine
 10
-0.1737970276714733
 20
3.38199999999997
 30
3.09999319119737
 11
-0.1353874431113107
 21
3.381999999999965
 31
2.956646670121231
  0
ARC
  5
112
330
1F
100
AcDbEntity
  8
ORTHO$6
  6
Continuous
 62
   252
370
    70
100
AcDbCircle
 10
-0.1643652178920745
 20
6.448882098776436
 30
-3.381999999981966
 40
0.03
210
0.0000000000012847
220
-1.0
230
0.0000000000016792
100
AcDbArc
 50
344.9999999961351
 51
15.00000000000578
  0
ARC
  5
113
330
1F
100
AcDbEntity
  8
ORTHO$6
  6
Continuous
 62
   252
370
    70
100
AcDbCircle
 10
0.1643652178920736
 20
6.448882098776436
 30
3.681999999981933
 40
0.03
210
-0.0000000000012847
220
1.0
230
-0.0000000000016792
100
AcDbArc
 50
164.9999999999945
 51
194.9999999923419
  0
ARC
  5
114
330
1F
100
AcDbEntity
  8
ORTHO$6
  6
Continuous
 62
   252
370
    70
100
AcDbCircle
 10
0.1643652178990582
 20
2.948882098769845
 30
3.681999999998542
 40
0.03
210
-0.0000000000012847
220
1.0
230
-0.0000000000016792
100
AcDbArc
 50
164.9999999999927
 51
194.9999999997751
  0
ARC
  5
115
330
1F
100
AcDbEntity
  8
ORTHO$6
  6
Continuous
 62
   252
370
    70
100
AcDbCircle
 10
-0.1643652178990583
 20
2.948882098769845
 30
-3.381999999998546
 40
0.03
210
0.0000000000012847
220
-1.0
230
0.0000000000016792
100
AcDbArc
 50
345.0000000000287
 51
15.00000000000578
  0
LINE
  5
116
330
1F
100
AcDbEntity
  8
ORTHO$6
  6
Continuous
 62
   252
370
    70
100
AcDbLine
 10
-0.0000000000001231
 20
3.3820000000002
 30
6.748322181435377
 11
-0.0000000000001226
 21
3.682000000000236
 31
6.748322181435377
  0
ARC
  5
117
330
1F
100
AcDbEntity
  8
ORTHO$6
  6
Continuous
 62
   252
370
    70
100
AcDbCircle
 10
-0.0300000000001231
 20
6.748322181436979
 30
-3.382000000000213
 40
0.03
210
0.0
220
-1.0
230
0.0
100
AcDbArc
 50
269.9999999999986
 51
0.0
  0
ARC
  5
118
330
1F
100
AcDbEntity
  8
ORTHO$6
  6
Continuous
 62
   252
370
    70
100
AcDbCircle
 10
0.0300000000001226
 20
6.74832218143698
 30
3.68200000000025
 40
0.03
210
0.0000000000000036
220
1.0
230
0.0
100
AcDbArc
 50
180.0000000030741
 51
270.0000000000025
  0
LINE
  5
119
330
1F
100
AcDbEntity
  8
ORTHO$6
  6
Continuous
 62
   252
370
    70
100
AcDbLine
 10
-0.0000000000001215
 20
3.381999999999994
 30
3.248322181436986
 11
-0.0000000000001209
 21
3.681999999999991
 31
3.248322181436987
  0
ARC
  5
11A
330
1F
100
AcDbEntity
  8
ORTHO$6
  6
Continuous
 62
   252
370
    70
100
AcDbCircle
 10
0.0300000000001209
 20
3.248322181436979
 30
3.681999999999998
 40
0.03
210
0.0000000000000036
220
1.0
230
0.0
100
AcDbArc
 50
180.0
 51
270.0000000000012
  0
ARC
  5
11B
330
1F
100
AcDbEntity
  8
ORTHO$6
  6
Continuous
 62
   252
370
    70
100
AcDbCircle
 10
-0.0300000000001215
 20
3.24832218143698
 30
-3.382000000000001
 40
0.03
210
0.0
220
-1.0
230
0.0
100
AcDbArc
 50
269.9999999999999
 51
0.0
  0
LINE
  5
11C
330
1F
100
AcDbEntity
  8
ORTHO$6
  6
Continuous
 62
   252
370
    70
100
AcDbLine
 10
-0.0000000000003703
 20
3.352000000000001
 30
2.657209647826986
 11
-0.0000000000003703
 21
3.352000000000002
 31
3.248322181436987
  0
LINE
  5
11D
330
1F
100
AcDbEntity
  8
ORTHO$6
  6
Continuous
 62
   252
370
    70
100
AcDbLine
 10
-0.0000000000003703
 20
3.352000000000002
 30
6.748322181436986
 11
-0.0000000000003703
 21
3.352000000000002
 31
6.157209647826986
  0
LINE
  5
11E
330
1F
100
AcDbEntity
  8
ORTHO$6
  6
Continuous
 62
   252
370
    70
100
AcDbLine
 10
-0.0000000000003703
 20
3.352000000000002
 30
3.248322181436987
 11
-0.0000000000003703
 21
3.381999999999994
 31
3.248322181436987
  0
LINE
  5
11F
330
1F
100
AcDbEntity
  8
ORTHO$6
  6
Continuous
 62
   252
370
    70
100
AcDbLine
 10
-0.0000000000003703
 20
3.3820000000002
 30
6.748322181436986
 11
-0.0000000000003703
 21
3.352000000000002
 31
6.748322181436986
  0
LINE
  5
120
330
1F
100
AcDbEntity
  8
ORTHO$6
  6
Continuous
 62
   252
370
    70
100
AcDbLine
 10
-0.0000000000003703
 20
3.712000000000002
 30
6.748322181436986
 11
-0.0000000000003703
 21
3.682000000000236
 31
6.748322181436986
  0
LINE
  5
121
330
1F
100
AcDbEntity
  8
ORTHO$6
  6
Continuous
 62
   252
370
    70
100
AcDbLine
 10
-0.0000000000003703
 20
3.712000000000002
 30
3.248322181436987
 11
-0.0000000000003703
 21
3.712000000000002
 31
2.657209647826986
  0
LINE
  5
122
330
1F
100
AcDbEntity
  8
ORTHO$6
  6
Continuous
 62
   252
370
    70
100
AcDbLine
 10
-0.0000000000003703
 20
3.712000000000002
 30
6.157209647826986
 11
-0.0000000000003703
 21
3.712000000000002
 31
6.748322181436986
  0
LINE
  5
123
330
1F
100
AcDbEntity
  8
ORTHO$6
  6
Continuous
 62
   252
370
    70
100
AcDbLine
 10
-0.0000000000003703
 20
3.712000000000002
 30
2.657209647826986
 11
-0.0000000000003703
 21
3.352000000000002
 31
2.657209647826986
  0
LINE
  5
124
330
1F
100
AcDbEntity
  8
ORTHO$6
  6
Continuous
 62
   252
370
    70
100
AcDbLine
 10
-0.0000000000003703
 20
3.352000000000001
 30
6.157209647826986
 11
-0.0000000000003703
 21
3.712000000000002
 31
6.157209647826986
  0
LINE
  5
125
330
1F
100
AcDbEntity
  8
ORTHO$6
  6
Continuous
 62
   252
370
    70
100
AcDbLine
 10
-0.0000000000003703
 20
3.681999999999992
 30
3.248322181436987
 11
-0.0000000000003703
 21
3.712000000000002
 31
3.248322181436987
  0
LINE
  5
126
330
1F
100
AcDbEntity
  8
ORTHO$6
  6
Continuous
 62
   252
370
    70
100
AcDbLine
 10
1.314
 20
1.501999999999999
 30
1.592
 11
1.314
 21
1.501999999999999
 31
1.797259136945036
  0
ARC
  5
127
330
1F
100
AcDbEntity
  8
ORTHO$6
  6
Continuous
 62
   252
370
    70
100
AcDbCircle
 10
1.262000000000001
 20
1.592
 30
1.313999999999998
 40
0.24
210
1.0
220
-0.0000000000000012
230
0.0
100
AcDbArc
 50
180.0
 51
0.0
  0
LINE
  5
128
330
1F
100
AcDbEntity
  8
ORTHO$6
  6
Continuous
 62
   252
370
    70
100
AcDbLine
 10
1.313999999999999
 20
1.022
 30
1.797259136945032
 11
1.313999999999999
 21
1.022
 31
1.592
  0
ARC
  5
129
330
1F
100
AcDbEntity
  8
ORTHO$6
  6
Continuous
 62
   252
370
    70
100
AcDbCircle
 10
-1.261999999999999
 20
2.279500000000002
 30
-1.314
 40
0.4375
210
-1.0
220
0.0
230
0.0
100
AcDbArc
 50
315.4572492049712
 51
224.5427507950283
  0
LINE
  5
12A
330
1F
100
AcDbEntity
  8
ORTHO$6
  6
Continuous
 62
   252
370
    70
100
AcDbLine
 10
1.314
 20
1.501999999999999
 30
8.602
 11
1.314
 21
1.501999999999999
 31
8.807259136945038
  0
ARC
  5
12B
330
1F
100
AcDbEntity
  8
ORTHO$6
  6
Continuous
 62
   252
370
    70
100
AcDbCircle
 10
1.262000000000001
 20
8.602
 30
1.313999999999998
 40
0.24
210
1.0
220
-0.0000000000000012
230
0.0
100
AcDbArc
 50
180.0
 51
0.0
  0
LINE
  5
12C
330
1F
100
AcDbEntity
  8
ORTHO$6
  6
Continuous
 62
   252
370
    70
100
AcDbLine
 10
1.313999999999999
 20
1.022
 30
8.807259136945031
 11
1.313999999999999
 21
1.022
 31
8.602
  0
ARC
  5
12D
330
1F
100
AcDbEntity
  8
ORTHO$6
  6
Continuous
 62
   252
370
    70
100
AcDbCircle
 10
-1.261999999999997
 20
9.289500000000002
 30
-1.314
 40
0.4375
210
-1.0
220
0.0
230
0.0
100
AcDbArc
 50
315.457249204971
 51
224.542750795028
  0
LINE
  5
12E
330
1F
100
AcDbEntity
  8
ORTHO$6
  6
Continuous
 62
   252
370
    70
100
AcDbLine
 10
1.313999999999999
 20
1.022
 30
-1.877999999999999
 11
1.313999999999999
 21
1.022
 31
-1.672740863054966
  0
ARC
  5
12F
330
1F
100
AcDbEntity
  8
ORTHO$6
  6
Continuous
 62
   252
370
    70
100
AcDbCircle
 10
-1.261999999999998
 20
-1.190499999999998
 30
-1.313999999999998
 40
0.4375
210
-1.0
220
0.0
230
0.0
100
AcDbArc
 50
315.4572492049715
 51
224.5427507950285
  0
LINE
  5
130
330
1F
100
AcDbEntity
  8
ORTHO$6
  6
Continuous
 62
   252
370
    70
100
AcDbLine
 10
1.314
 20
1.501999999999999
 30
-1.672740863054965
 11
1.314
 21
1.501999999999999
 31
-1.877999999999999
  0
ARC
  5
131
330
1F
100
AcDbEntity
  8
ORTHO$6
  6
Continuous
 62
   252
370
    70
100
AcDbCircle
 10
-1.262000000000002
 20
-1.877999999999999
 30
-1.314000000000002
 40
0.24
210
-1.0
220
0.0000000000000055
230
0.0
100
AcDbArc
 50
180.0
 51
0.0
  0
CIRCLE
  5
132
330
1F
100
AcDbEntity
  8
ORTHO$6
  6
Continuous
 62
   252
370
    70
100
AcDbCircle
 10
-3.532000000000001
 20
5.403199999999999
 30
-1.313999999999999
 40
1.375
210
-1.0
220
0.0
230
0.0
  0
ARC
  5
133
330
1F
100
AcDbEntity
  8
ORTHO$6
  6
Continuous
 62
   252
370
    70
100
AcDbCircle
 10
-0.7720000000000015
 20
8.807259136945031
 30
-1.313999999999999
 40
0.25
210
-1.0
220
0.0
230
0.0
100
AcDbArc
 50
135.4572492049711
 51
180.0
  0
ARC
  5
134
330
1F
100
AcDbEntity
  8
ORTHO$6
  6
Continuous
 62
   252
370
    70
100
AcDbCircle
 10
-1.752
 20
8.807259136945038
 30
-1.313999999999999
 40
0.25
210
-1.0
220
0.0
230
0.0
100
AcDbArc
 50
0.0
 51
44.54275079502819
  0
ARC
  5
135
330
1F
100
AcDbEntity
  8
ORTHO$6
  6
Continuous
 62
   252
370
    70
100
AcDbCircle
 10
-2.272000000000001
 20
7.547259136945032
 30
-1.314
 40
0.25
210
-1.0
220
0.0
230
0.0
100
AcDbArc
 50
135.4572492049711
 51
180.0
  0
ARC
  5
136
330
1F
100
AcDbEntity
  8
ORTHO$6
  6
Continuous
 62
   252
370
    70
100
AcDbCircle
 10
-2.272000000000001
 20
2.307259136945031
 30
-1.314
 40
0.25
210
-1.0
220
0.0
230
0.0
100
AcDbArc
 50
135.4572492049713
 51
180.0
  0
ARC
  5
137
330
1F
100
AcDbEntity
  8
ORTHO$6
  6
Continuous
 62
   252
370
    70
100
AcDbCircle
 10
-1.752
 20
1.797259136945036
 30
-1.313999999999999
 40
0.25
210
-1.0
220
0.0
230
0.0
100
AcDbArc
 50
0.0
 51
44.54275079502832
  0
ARC
  5
138
330
1F
100
AcDbEntity
  8
ORTHO$6
  6
Continuous
 62
   252
370
    70
100
AcDbCircle
 10
-0.7720000000000015
 20
1.797259136945032
 30
-1.313999999999999
 40
0.25
210
-1.0
220
0.0
230
0.0
100
AcDbArc
 50
135.4572492049712
 51
180.0
  0
ARC
  5
139
330
1F
100
AcDbEntity
  8
ORTHO$6
  6
Continuous
 62
   252
370
    70
100
AcDbCircle
 10
-2.272000000000001
 20
-1.672740863054965
 30
-1.314
 40
0.25
210
-1.0
220
0.0
230
0.0
100
AcDbArc
 50
135.4572492049714
 51
180.0
  0
ARC
  5
13A
330
1F
100
AcDbEntity
  8
ORTHO$6
  6
Continuous
 62
   252
370
    70
100
AcDbCircle
 10
-0.7720000000000013
 20
-1.672740863054966
 30
-1.313999999999999
 40
0.25
210
-1.0
220
0.0
230
0.0
100
AcDbArc
 50
135.4572492049713
 51
180.0
  0
ARC
  5
13B
330
1F
100
AcDbEntity
  8
ORTHO$6
  6
Continuous
 62
   252
370
    70
100
AcDbCircle
 10
-1.752
 20
-1.672740863054965
 30
-1.313999999999999
 40
0.25
210
-1.0
220
0.0
230
0.0
100
AcDbArc
 50
0.0
 51
44.5427507950285
  0
ARC
  5
13C
330
1F
100
AcDbEntity
  8
ORTHO$14
  6
Continuous
 62
   252
370
    70
100
AcDbCircle
 10
-2.761999999999999
 20
-1.190499999999998
 30
-1.377999999999999
 40
0.4375
210
-1.0
220
0.0
230
0.0
100
AcDbArc
 50
315.4572492049715
 51
224.5427507950286
  0
LINE
  5
13D
330
1F
100
AcDbEntity
  8
ORTHO$14
  6
Continuous
 62
   252
370
    70
100
AcDbLine
 10
1.377999999999999
 20
2.522
 30
-1.877999999999999
 11
1.377999999999999
 21
2.522
 31
-1.672740863054965
  0
ARC
  5
13E
330
1F
100
AcDbEntity
  8
ORTHO$14
  6
Continuous
 62
   252
370
    70
100
AcDbCircle
 10
-2.762000000000002
 20
-1.877999999999999
 30
-1.377999999999994
 40
0.24
210
-1.0
220
0.0000000000000055
230
0.0
100
AcDbArc
 50
180.0
 51
0.0
  0
LINE
  5
13F
330
1F
100
AcDbEntity
  8
ORTHO$14
  6
Continuous
 62
   252
370
    70
100
AcDbLine
 10
1.378
 20
3.001999999999999
 30
-1.672740863054965
 11
1.378
 21
3.001999999999999
 31
-1.877999999999999
  0
LINE
  5
140
330
1F
100
AcDbEntity
  8
ORTHO$14
  6
Continuous
 62
   252
370
    70
100
AcDbLine
 10
1.377999999999999
 20
4.021999999999999
 30
-1.877999999999999
 11
1.377999999999999
 21
4.021999999999999
 31
-1.672740863054964
  0
ARC
  5
141
330
1F
100
AcDbEntity
  8
ORTHO$14
  6
Continuous
 62
   252
370
    70
100
AcDbCircle
 10
-4.262000000000002
 20
-1.877999999999999
 30
-1.37799999999999
 40
0.24
210
-1.0
220
0.0000000000000055
230
0.0
100
AcDbArc
 50
180.0
 51
0.0
  0
LINE
  5
142
330
1F
100
AcDbEntity
  8
ORTHO$14
  6
Continuous
 62
   252
370
    70
100
AcDbLine
 10
1.378
 20
4.501999999999999
 30
-1.672740863054964
 11
1.378
 21
4.501999999999999
 31
-1.877999999999999
  0
ARC
  5
143
330
1F
100
AcDbEntity
  8
ORTHO$14
  6
Continuous
 62
   252
370
    70
100
AcDbCircle
 10
-4.261999999999998
 20
-1.190499999999998
 30
-1.377999999999999
 40
0.4375
210
-1.0
220
0.0
230
0.0
100
AcDbArc
 50
315.4572492049715
 51
224.5427507950285
  0
ARC
  5
144
330
1F
100
AcDbEntity
  8
ORTHO$14
  6
Continuous
 62
   252
370
    70
100
AcDbCircle
 10
-5.762
 20
-1.190499999999998
 30
-1.377999999999999
 40
0.4375
210
-1.0
220
0.0
230
0.0
100
AcDbArc
 50
315.4572492049717
 51
224.5427507950287
  0
LINE
  5
145
330
1F
100
AcDbEntity
  8
ORTHO$14
  6
Continuous
 62
   252
370
    70
100
AcDbLine
 10
1.377999999999999
 20
5.521999999999998
 30
-1.877999999999999
 11
1.377999999999999
 21
5.521999999999998
 31
-1.672740863054962
  0
ARC
  5
146
330
1F
100
AcDbEntity
  8
ORTHO$14
  6
Continuous
 62
   252
370
    70
100
AcDbCircle
 10
-5.762000000000002
 20
-1.877999999999999
 30
-1.377999999999989
 40
0.24
210
-1.0
220
0.0000000000000055
230
0.0
100
AcDbArc
 50
180.0
 51
0.0
  0
LINE
  5
147
330
1F
100
AcDbEntity
  8
ORTHO$14
  6
Continuous
 62
   252
370
    70
100
AcDbLine
 10
1.378
 20
6.001999999999998
 30
-1.672740863054966
 11
1.378
 21
6.001999999999998
 31
-1.877999999999999
  0
LINE
  5
148
330
1F
100
AcDbEntity
  8
ORTHO$14
  6
Continuous
 62
   252
370
    70
100
AcDbLine
 10
1.378000000000014
 20
6.555500000000943
 30
10.07
 11
1.377999999999999
 21
0.3744999999999994
 31
10.07
  0
LINE
  5
149
330
1F
100
AcDbEntity
  8
ORTHO$14
  6
Continuous
 62
   252
370
    70
100
AcDbLine
 10
1.378000000000008
 20
6.555499999999999
 30
-2.322000000000056
 11
1.378000000000008
 21
6.555499999999999
 31
10.07000000000001
  0
LINE
  5
14A
330
1F
100
AcDbEntity
  8
ORTHO$14
  6
Continuous
 62
   252
370
    70
100
AcDbLine
 10
1.378
 20
0.3744999999999999
 30
-2.321999999999999
 11
1.378000000000014
 21
6.555499999999768
 31
-2.321999999999999
  0
LINE
  5
14B
330
1F
100
AcDbEntity
  8
ORTHO$14
  6
Continuous
 62
   252
370
    70
100
AcDbLine
 10
1.378
 20
0.3744999999999999
 30
10.07
 11
1.378
 21
0.3744999999999999
 31
-2.322
  0
LINE
  5
14C
330
1F
100
AcDbEntity
  8
ORTHO$14
  6
Continuous
 62
   252
370
    70
100
AcDbLine
 10
1.377999999999999
 20
2.522
 30
7.341999999999999
 11
1.377999999999999
 21
2.522
 31
7.547259136945031
  0
ARC
  5
14D
330
1F
100
AcDbEntity
  8
ORTHO$14
  6
Continuous
 62
   252
370
    70
100
AcDbCircle
 10
-2.762000000000001
 20
7.342
 30
-1.377999999999996
 40
0.24
210
-1.0
220
0.0000000000000055
230
0.0
100
AcDbArc
 50
180.0
 51
0.0
  0
LINE
  5
14E
330
1F
100
AcDbEntity
  8
ORTHO$14
  6
Continuous
 62
   252
370
    70
100
AcDbLine
 10
1.378
 20
3.001999999999999
 30
7.547259136945037
 11
1.378
 21
3.001999999999999
 31
7.341999999999999
  0
ARC
  5
14F
330
1F
100
AcDbEntity
  8
ORTHO$14
  6
Continuous
 62
   252
370
    70
100
AcDbCircle
 10
-2.761999999999998
 20
8.029500000000004
 30
-1.377999999999998
 40
0.4375
210
-1.0
220
0.0
230
0.0
100
AcDbArc
 50
315.457249204971
 51
224.5427507950282
  0
LINE
  5
150
330
1F
100
AcDbEntity
  8
ORTHO$14
  6
Continuous
 62
   252
370
    70
100
AcDbLine
 10
1.377999999999999
 20
4.021999999999999
 30
8.602
 11
1.377999999999999
 21
4.021999999999999
 31
8.807259136945031
  0
ARC
  5
151
330
1F
100
AcDbEntity
  8
ORTHO$14
  6
Continuous
 62
   252
370
    70
100
AcDbCircle
 10
-4.262000000000001
 20
8.602
 30
-1.377999999999995
 40
0.24
210
-1.0
220
0.0000000000000055
230
0.0
100
AcDbArc
 50
180.0
 51
0.0
  0
LINE
  5
152
330
1F
100
AcDbEntity
  8
ORTHO$14
  6
Continuous
 62
   252
370
    70
100
AcDbLine
 10
1.378
 20
4.501999999999999
 30
8.807259136945038
 11
1.378
 21
4.501999999999999
 31
8.602
  0
ARC
  5
153
330
1F
100
AcDbEntity
  8
ORTHO$14
  6
Continuous
 62
   252
370
    70
100
AcDbCircle
 10
4.261999999999997
 20
9.289500000000002
 30
1.377999999999997
 40
0.4375
210
1.0
220
0.0
230
0.0
100
AcDbArc
 50
315.4572492049718
 51
224.542750795029
  0
LINE
  5
154
330
1F
100
AcDbEntity
  8
ORTHO$14
  6
Continuous
 62
   252
370
    70
100
AcDbLine
 10
1.377999999999999
 20
5.521999999999998
 30
7.341999999999999
 11
1.377999999999999
 21
5.521999999999998
 31
7.547259136945033
  0
ARC
  5
155
330
1F
100
AcDbEntity
  8
ORTHO$14
  6
Continuous
 62
   252
370
    70
100
AcDbCircle
 10
-5.762000000000001
 20
7.342
 30
-1.377999999999993
 40
0.24
210
-1.0
220
0.0000000000000055
230
0.0
100
AcDbArc
 50
180.0
 51
0.0
  0
LINE
  5
156
330
1F
100
AcDbEntity
  8
ORTHO$14
  6
Continuous
 62
   252
370
    70
100
AcDbLine
 10
1.378
 20
6.001999999999998
 30
7.547259136945037
 11
1.378
 21
6.001999999999998
 31
7.341999999999999
  0
ARC
  5
157
330
1F
100
AcDbEntity
  8
ORTHO$14
  6
Continuous
 62
   252
370
    70
100
AcDbCircle
 10
-5.761999999999998
 20
8.029500000000004
 30
-1.377999999999997
 40
0.4375
210
-1.0
220
0.0
230
0.0
100
AcDbArc
 50
315.4572492049713
 51
224.5427507950283
  0
LINE
  5
158
330
1F
100
AcDbEntity
  8
ORTHO$14
  6
Continuous
 62
   252
370
    70
100
AcDbLine
 10
1.377999999999999
 20
4.021999999999999
 30
1.592
 11
1.377999999999999
 21
4.021999999999999
 31
1.797259136945033
  0
ARC
  5
159
330
1F
100
AcDbEntity
  8
ORTHO$14
  6
Continuous
 62
   252
370
    70
100
AcDbCircle
 10
-4.262000000000001
 20
1.592
 30
-1.377999999999995
 40
0.24
210
-1.0
220
0.0000000000000055
230
0.0
100
AcDbArc
 50
180.0
 51
0.0
  0
LINE
  5
15A
330
1F
100
AcDbEntity
  8
ORTHO$14
  6
Continuous
 62
   252
370
    70
100
AcDbLine
 10
1.378
 20
4.501999999999999
 30
1.797259136945037
 11
1.378
 21
4.501999999999999
 31
1.592
  0
ARC
  5
15B
330
1F
100
AcDbEntity
  8
ORTHO$14
  6
Continuous
 62
   252
370
    70
100
AcDbCircle
 10
-4.261999999999999
 20
2.279500000000002
 30
-1.377999999999998
 40
0.4375
210
-1.0
220
0.0
230
0.0
100
AcDbArc
 50
315.4572492049712
 51
224.5427507950283
  0
LINE
  5
15C
330
1F
100
AcDbEntity
  8
ORTHO$14
  6
Continuous
 62
   252
370
    70
100
AcDbLine
 10
1.377999999999999
 20
5.521999999999998
 30
2.102
 11
1.377999999999999
 21
5.521999999999998
 31
2.307259136945034
  0
ARC
  5
15D
330
1F
100
AcDbEntity
  8
ORTHO$14
  6
Continuous
 62
   252
370
    70
100
AcDbCircle
 10
-5.762000000000001
 20
2.102
 30
-1.377999999999993
 40
0.24
210
-1.0
220
0.0000000000000055
230
0.0
100
AcDbArc
 50
180.0
 51
0.0
  0
LINE
  5
15E
330
1F
100
AcDbEntity
  8
ORTHO$14
  6
Continuous
 62
   252
370
    70
100
AcDbLine
 10
1.378
 20
6.001999999999998
 30
2.307259136945035
 11
1.378
 21
6.001999999999998
 31
2.102
  0
ARC
  5
15F
330
1F
100
AcDbEntity
  8
ORTHO$14
  6
Continuous
 62
   252
370
    70
100
AcDbCircle
 10
-5.762
 20
2.789500000000002
 30
-1.377999999999997
 40
0.4375
210
-1.0
220
0.0
230
0.0
100
AcDbArc
 50
315.4572492049713
 51
224.5427507950285
  0
ARC
  5
160
330
1F
100
AcDbEntity
  8
ORTHO$14
  6
Continuous
 62
   252
370
    70
100
AcDbCircle
 10
-2.762
 20
2.789500000000002
 30
-1.377999999999998
 40
0.4375
210
-1.0
220
0.0
230
0.0
100
AcDbArc
 50
315.4572492049712
 51
224.5427507950283
  0
LINE
  5
161
330
1F
100
AcDbEntity
  8
ORTHO$14
  6
Continuous
 62
   252
370
    70
100
AcDbLine
 10
1.377999999999999
 20
2.522
 30
2.102
 11
1.377999999999999
 21
2.522
 31
2.307259136945032
  0
ARC
  5
162
330
1F
100
AcDbEntity
  8
ORTHO$14
  6
Continuous
 62
   252
370
    70
100
AcDbCircle
 10
-2.762000000000001
 20
2.102
 30
-1.377999999999996
 40
0.24
210
-1.0
220
0.0000000000000055
230
0.0
100
AcDbArc
 50
180.0
 51
0.0
  0
LINE
  5
163
330
1F
100
AcDbEntity
  8
ORTHO$14
  6
Continuous
 62
   252
370
    70
100
AcDbLine
 10
1.378
 20
3.001999999999999
 30
2.307259136945035
 11
1.378
 21
3.001999999999999
 31
2.102
  0
ARC
  5
164
330
1F
100
AcDbEntity
  8
ORTHO$14
  6
Continuous
 62
   252
370
    70
100
AcDbCircle
 10
-1.261999999999999
 20
2.279500000000002
 30
-1.378
 40
0.4375
210
-1.0
220
0.0
230
0.0
100
AcDbArc
 50
315.4572492049712
 51
224.5427507950283
  0
LINE
  5
165
330
1F
100
AcDbEntity
  8
ORTHO$14
  6
Continuous
 62
   252
370
    70
100
AcDbLine
 10
1.377999999999999
 20
1.022
 30
1.592
 11
1.377999999999999
 21
1.022
 31
1.797259136945032
  0
ARC
  5
166
330
1F
100
AcDbEntity
  8
ORTHO$14
  6
Continuous
 62
   252
370
    70
100
AcDbCircle
 10
-1.262000000000001
 20
1.592
 30
-1.377999999999998
 40
0.24
210
-1.0
220
0.0000000000000055
230
0.0
100
AcDbArc
 50
180.0
 51
0.0
  0
LINE
  5
167
330
1F
100
AcDbEntity
  8
ORTHO$14
  6
Continuous
 62
   252
370
    70
100
AcDbLine
 10
1.378
 20
1.501999999999999
 30
1.797259136945036
 11
1.378
 21
1.501999999999999
 31
1.592
  0
LINE
  5
168
330
1F
100
AcDbEntity
  8
ORTHO$14
  6
Continuous
 62
   252
370
    70
100
AcDbLine
 10
1.377999999999999
 20
1.022
 30
8.602
 11
1.377999999999999
 21
1.022
 31
8.807259136945031
  0
ARC
  5
169
330
1F
100
AcDbEntity
  8
ORTHO$14
  6
Continuous
 62
   252
370
    70
100
AcDbCircle
 10
-1.262000000000001
 20
8.602
 30
-1.377999999999998
 40
0.24
210
-1.0
220
0.0000000000000055
230
0.0
100
AcDbArc
 50
180.0
 51
0.0
  0
LINE
  5
16A
330
1F
100
AcDbEntity
  8
ORTHO$14
  6
Continuous
 62
   252
370
    70
100
AcDbLine
 10
1.378
 20
1.501999999999999
 30
8.807259136945038
 11
1.378
 21
1.501999999999999
 31
8.602
  0
ARC
  5
16B
330
1F
100
AcDbEntity
  8
ORTHO$14
  6
Continuous
 62
   252
370
    70
100
AcDbCircle
 10
-1.261999999999997
 20
9.289500000000002
 30
-1.378
 40
0.4375
210
-1.0
220
0.0
230
0.0
100
AcDbArc
 50
315.457249204971
 51
224.542750795028
  0
ARC
  5
16C
330
1F
100
AcDbEntity
  8
ORTHO$14
  6
Continuous
 62
   252
370
    70
100
AcDbCircle
 10
-1.261999999999998
 20
-1.190499999999998
 30
-1.377999999999999
 40
0.4375
210
-1.0
220
0.0
230
0.0
100
AcDbArc
 50
315.4572492049715
 51
224.5427507950285
  0
LINE
  5
16D
330
1F
100
AcDbEntity
  8
ORTHO$14
  6
Continuous
 62
   252
370
    70
100
AcDbLine
 10
1.377999999999999
 20
1.022
 30
-1.877999999999999
 11
1.377999999999999
 21
1.022
 31
-1.672740863054966
  0
ARC
  5
16E
330
1F
100
AcDbEntity
  8
ORTHO$14
  6
Continuous
 62
   252
370
    70
100
AcDbCircle
 10
-1.262000000000002
 20
-1.877999999999999
 30
-1.378000000000002
 40
0.24
210
-1.0
220
0.0000000000000055
230
0.0
100
AcDbArc
 50
180.0
 51
0.0
  0
LINE
  5
16F
330
1F
100
AcDbEntity
  8
ORTHO$14
  6
Continuous
 62
   252
370
    70
100
AcDbLine
 10
1.378
 20
1.501999999999999
 30
-1.672740863054965
 11
1.378
 21
1.501999999999999
 31
-1.877999999999999
  0
CIRCLE
  5
170
330
1F
100
AcDbEntity
  8
ORTHO$14
  6
Continuous
 62
   252
370
    70
100
AcDbCircle
 10
3.531999999999999
 20
5.403199999999999
 30
1.378000000000001
 40
1.375
210
1.0
220
0.0
230
0.0
  0
ARC
  5
171
330
1F
100
AcDbEntity
  8
ORTHO$14
  6
Continuous
 62
   252
370
    70
100
AcDbCircle
 10
-1.284000000000007
 20
6.555500000000523
 30
2.321999999998563
 40
0.0940000000000002
210
0.0
220
-0.0000000000002175
230
-1.0
100
AcDbArc
 50
89.99999999992084
 51
180.0000000001517
  0
ARC
  5
172
330
1F
100
AcDbEntity
  8
ORTHO$14
  6
Continuous
 62
   252
370
    70
100
AcDbCircle
 10
1.284000000000007
 20
6.555500000001888
 30
10.07000000000001
 40
0.0940000000000002
100
AcDbArc
 50
359.9999999994239
 51
90.00000000000005
  0
LINE
  5
173
330
1F
100
AcDbEntity
  8
ORTHO$14
  6
Continuous
 62
   252
370
    70
100
AcDbLine
 10
1.283999999999877
 20
6.649500000000018
 30
-2.322000000000144
 11
1.283999999999883
 21
6.649500000000018
 31
10.07
  0
ARC
  5
174
330
1F
100
AcDbEntity
  8
ORTHO$14
  6
Continuous
 62
   252
370
    70
100
AcDbCircle
 10
-1.284000000000007
 20
10.07
 30
6.555500000000013
 40
0.0940000000000002
210
0.0
220
1.0
230
0.0
100
AcDbArc
 50
90.0000000000055
 51
179.9999999999986
  0
ARC
  5
175
330
1F
100
AcDbEntity
  8
ORTHO$14
  6
Continuous
 62
   252
370
    70
100
AcDbCircle
 10
1.283999999999998
 20
10.07
 30
-0.3745000000000073
 40
0.0940000000000002
210
-0.0000000000000011
220
-1.0
230
-0.0000000000000005
100
AcDbArc
 50
0.0000000000013231
 51
89.99999999999984
  0
LINE
  5
176
330
1F
100
AcDbEntity
  8
ORTHO$14
  6
Continuous
 62
   252
370
    70
100
AcDbLine
 10
1.284000000000016
 20
6.555500000000009
 30
10.164
 11
1.284000000000002
 21
0.3745000000000012
 31
10.164
  0
ARC
  5
177
330
1F
100
AcDbEntity
  8
ORTHO$14
  6
Continuous
 62
   252
370
    70
100
AcDbCircle
 10
1.283999999999999
 20
-2.322
 30
-0.3744999999999989
 40
0.0940000000000002
210
-0.0000000000000011
220
-1.0
230
-0.0000000000000005
100
AcDbArc
 50
270.0000000000015
 51
359.9999999999998
  0
LINE
  5
178
330
1F
100
AcDbEntity
  8
ORTHO$14
  6
Continuous
 62
   252
370
    70
100
AcDbLine
 10
1.284000000000002
 20
0.3745000000000063
 30
-2.415999999999999
 11
1.284000000000017
 21
6.555499999999997
 31
-2.415999999999999
  0
ARC
  5
179
330
1F
100
AcDbEntity
  8
ORTHO$14
  6
Continuous
 62
   252
370
    70
100
AcDbCircle
 10
-1.284000000000008
 20
-2.321999999999999
 30
6.555500000000005
 40
0.0940000000000002
210
0.0
220
1.0
230
0.0
100
AcDbArc
 50
180.0000000000409
 51
270.0
  0
LINE
  5
17A
330
1F
100
AcDbEntity
  8
ORTHO$14
  6
Continuous
 62
   252
370
    70
100
AcDbLine
 10
0.0639999999998778
 20
3.712000000000002
 30
6.748322181436986
 11
0.0639999999998778
 21
3.682000000000236
 31
6.748322181436986
  0
LINE
  5
17B
330
1F
100
AcDbEntity
  8
ORTHO$14
  6
Continuous
 62
   252
370
    70
100
AcDbLine
 10
0.0639999999998769
 20
3.382000000000199
 30
6.748322181431256
 11
0.0639999999998775
 21
3.682000000000236
 31
6.748322181432633
  0
LINE
  5
17C
330
1F
100
AcDbEntity
  8
ORTHO$14
  6
Continuous
 62
   252
370
    70
100
AcDbLine
 10
0.0639999999998772
 20
3.382000000000199
 30
6.748322181436986
 11
0.0639999999998772
 21
3.352000000000002
 31
6.748322181436986
  0
LINE
  5
17D
330
1F
100
AcDbEntity
  8
ORTHO$14
  6
Continuous
 62
   252
370
    70
100
AcDbLine
 10
0.0639999999998772
 20
3.352000000000002
 30
6.748322181436987
 11
0.0639999999998774
 21
3.352000000000002
 31
6.157209647826987
  0
LINE
  5
17E
330
1F
100
AcDbEntity
  8
ORTHO$14
  6
Continuous
 62
   252
370
    70
100
AcDbLine
 10
0.0639999999998774
 20
3.352000000000001
 30
6.157209647826986
 11
0.063999999999878
 21
3.712000000000002
 31
6.157209647826986
  0
LINE
  5
17F
330
1F
100
AcDbEntity
  8
ORTHO$14
  6
Continuous
 62
   252
370
    70
100
AcDbLine
 10
0.063999999999878
 20
3.712000000000002
 30
6.157209647826986
 11
0.0639999999998778
 21
3.712000000000002
 31
6.748322181436986
  0
CIRCLE
  5
180
330
1F
100
AcDbEntity
  8
ORTHO$14
  6
Continuous
 62
   252
370
    70
100
AcDbCircle
 10
-3.532
 20
5.4032
 30
-0.0639999999998732
 40
0.164
210
-1.0
220
0.0
230
0.0
  0
LINE
  5
181
330
1F
100
AcDbEntity
  8
ORTHO$14
  6
Continuous
 62
   252
370
    70
100
AcDbLine
 10
0.0639999999998786
 20
2.96800000000002
 30
-2.321999999999997
 11
0.0639999999998743
 21
2.968000000000023
 31
10.07
  0
LINE
  5
182
330
1F
100
AcDbEntity
  8
ORTHO$14
  6
Continuous
 62
   252
370
    70
100
AcDbLine
 10
-0.0300000000001231
 20
3.682000000000162
 30
6.654322181434244
 11
-0.0300000000001231
 21
3.3820000000002
 31
6.654322181434244
  0
ARC
  5
183
330
1F
100
AcDbEntity
  8
ORTHO$14
  6
Continuous
 62
   252
370
    70
100
AcDbCircle
 10
-0.0300000000001231
 20
6.748322181436979
 30
-3.382000000000213
 40
0.094
210
-0.0000000000000011
220
-1.0
230
-0.0000000000000005
100
AcDbArc
 50
269.9999999965065
 51
359.9999999965072
  0
ARC
  5
184
330
1F
100
AcDbEntity
  8
ORTHO$14
  6
Continuous
 62
   252
370
    70
100
AcDbCircle
 10
0.0300000000001226
 20
6.74832218143698
 30
3.682000000000213
 40
0.094
210
0.0
220
1.0
230
0.0
100
AcDbArc
 50
180.0000000026542
 51
270.0000000000003
  0
LINE
  5
185
330
1F
100
AcDbEntity
  8
ORTHO$14
  6
Continuous
 62
   252
370
    70
100
AcDbLine
 10
-0.0735681902293911
 20
3.682000000000617
 30
6.473211089005358
 11
-0.0735681902285469
 21
3.38200000000065
 31
6.473211089005586
  0
LINE
  5
186
330
1F
100
AcDbEntity
  8
ORTHO$14
  6
Continuous
 62
   252
370
    70
100
AcDbLine
 10
-0.0735681902294037
 20
3.682000000000622
 30
6.424553108525073
 11
-0.0735681902294037
 21
3.382000000000508
 31
6.424553108525073
  0
ARC
  5
187
330
1F
100
AcDbEntity
  8
ORTHO$14
  6
Continuous
 62
   252
370
    70
100
AcDbCircle
 10
-0.1643652178919459
 20
6.448882098776437
 30
-3.38199999998197
 40
0.094
210
0.0000000000012888
220
-1.0
230
0.0000000000016803
100
AcDbArc
 50
344.9999999974163
 51
14.99999999741562
  0
ARC
  5
188
330
1F
100
AcDbEntity
  8
ORTHO$14
  6
Continuous
 62
   252
370
    70
100
AcDbCircle
 10
0.164365217891945
 20
6.448882098776437
 30
3.681999999981969
 40
0.094
210
-0.0000000000012888
220
1.0
230
-0.0000000000016803
100
AcDbArc
 50
164.999999997503
 51
195.0000000005933
  0
LINE
  5
189
330
1F
100
AcDbEntity
  8
ORTHO$14
  6
Continuous
 62
   252
370
    70
100
AcDbLine
 10
-0.1119777747891683
 20
3.38200000000004
 30
6.616557610081668
 11
-0.1119777747891683
 21
3.681999999999635
 31
6.616557610081668
  0
LINE
  5
18A
330
1F
100
AcDbEntity
  8
ORTHO$14
  6
Continuous
 62
   252
370
    70
100
AcDbLine
 10
-0.0735681902276206
 20
3.382000000000163
 30
6.473211089002128
 11
-0.1119777747891688
 21
3.38200000000004
 31
6.616557610083356
  0
LINE
  5
18B
330
1F
100
AcDbEntity
  8
ORTHO$14
  6
Continuous
 62
   252
370
    70
100
AcDbLine
 10
-0.1119777747892778
 20
3.68200000000004
 30
6.616557610080388
 11
-0.0735681902304493
 21
3.682000000000162
 31
6.473211089009307
  0
LINE
  5
18C
330
1F
100
AcDbEntity
  8
ORTHO$14
  6
Continuous
 62
   252
370
    70
100
AcDbLine
 10
-0.1180751077224889
 20
3.38200000000055
 30
6.258451031147019
 11
-0.1180751077250856
 21
3.68200000000055
 31
6.258451031147716
  0
LINE
  5
18D
330
1F
100
AcDbEntity
  8
ORTHO$14
  6
Continuous
 62
   252
370
    70
100
AcDbLine
 10
-0.0735681902286873
 20
3.382000000000622
 30
6.424553108522554
 11
-0.1180751077224889
 21
3.38200000000055
 31
6.258451031147019
  0
LINE
  5
18E
330
1F
100
AcDbEntity
  8
ORTHO$14
  6
Continuous
 62
   252
370
    70
100
AcDbLine
 10
-0.1180751077250856
 20
3.68200000000055
 30
6.258451031147716
 11
-0.0735681902307015
 21
3.682000000000622
 31
6.424553108525421
  0
ARC
  5
18F
330
1F
100
AcDbEntity
  8
ORTHO$14
  6
Continuous
 62
   252
370
    70
100
AcDbCircle
 10
-0.0830000000003704
 20
6.624322181433869
 30
-3.381999999999417
 40
0.03
210
-0.0000000000000012
220
-1.0
230
-0.0000000000000017
100
AcDbArc
 50
90.00000000001094
 51
194.9999999952077
  0
ARC
  5
190
330
1F
100
AcDbEntity
  8
ORTHO$14
  6
Continuous
 62
   252
370
    70
100
AcDbCircle
 10
0.0830000000003704
 20
6.624322181433869
 30
3.681999999999635
 40
0.03
210
0.0
220
1.0
230
0.0
100
AcDbArc
 50
344.9999999993698
 51
90.0
  0
ARC
  5
191
330
1F
100
AcDbEntity
  8
ORTHO$14
  6
Continuous
 62
   252
370
    70
100
AcDbCircle
 10
5.272
 20
-1.672740863054962
 30
1.378
 40
0.25
210
1.0
220
0.0
230
0.0
100
AcDbArc
 50
0.0
 51
44.54275079502845
  0
ARC
  5
192
330
1F
100
AcDbEntity
  8
ORTHO$14
  6
Continuous
 62
   252
370
    70
100
AcDbCircle
 10
6.252
 20
-1.672740863054966
 30
1.378
 40
0.25
210
1.0
220
0.0
230
0.0
100
AcDbArc
 50
135.4572492049712
 51
180.0
  0
ARC
  5
193
330
1F
100
AcDbEntity
  8
ORTHO$14
  6
Continuous
 62
   252
370
    70
100
AcDbCircle
 10
6.252
 20
7.547259136945037
 30
1.378
 40
0.25
210
1.0
220
0.0
230
0.0
100
AcDbArc
 50
135.4572492049717
 51
180.0
  0
ARC
  5
194
330
1F
100
AcDbEntity
  8
ORTHO$14
  6
Continuous
 62
   252
370
    70
100
AcDbCircle
 10
5.272
 20
7.547259136945034
 30
1.378
 40
0.25
210
1.0
220
0.0
230
0.0
100
AcDbArc
 50
0.0
 51
44.54275079502885
  0
ARC
  5
195
330
1F
100
AcDbEntity
  8
ORTHO$14
  6
Continuous
 62
   252
370
    70
100
AcDbCircle
 10
2.272000000000001
 20
2.307259136945031
 30
1.378
 40
0.25
210
1.0
220
0.0
230
0.0
100
AcDbArc
 50
0.0
 51
44.54275079502877
  0
ARC
  5
196
330
1F
100
AcDbEntity
  8
ORTHO$14
  6
Continuous
 62
   252
370
    70
100
AcDbCircle
 10
3.252000000000001
 20
2.307259136945035
 30
1.378
 40
0.25
210
1.0
220
0.0
230
0.0
100
AcDbArc
 50
135.4572492049716
 51
180.0
  0
ARC
  5
197
330
1F
100
AcDbEntity
  8
ORTHO$14
  6
Continuous
 62
   252
370
    70
100
AcDbCircle
 10
0.7720000000000013
 20
-1.672740863054966
 30
1.378
 40
0.25
210
1.0
220
0.0
230
0.0
100
AcDbArc
 50
0.0
 51
44.54275079502863
  0
ARC
  5
198
330
1F
100
AcDbEntity
  8
ORTHO$14
  6
Continuous
 62
   252
370
    70
100
AcDbCircle
 10
1.752000000000001
 20
-1.672740863054965
 30
1.378
 40
0.25
210
1.0
220
0.0
230
0.0
100
AcDbArc
 50
135.4572492049715
 51
180.0
  0
ARC
  5
199
330
1F
100
AcDbEntity
  8
ORTHO$14
  6
Continuous
 62
   252
370
    70
100
AcDbCircle
 10
3.772
 20
8.807259136945031
 30
1.378
 40
0.25
210
1.0
220
0.0
230
0.0
100
AcDbArc
 50
0.0
 51
44.54275079502885
  0
ARC
  5
19A
330
1F
100
AcDbEntity
  8
ORTHO$14
  6
Continuous
 62
   252
370
    70
100
AcDbCircle
 10
4.752000000000001
 20
8.807259136945038
 30
1.378
 40
0.25
210
1.0
220
0.0
230
0.0
100
AcDbArc
 50
135.4572492049718
 51
180.0
  0
ARC
  5
19B
330
1F
100
AcDbEntity
  8
ORTHO$14
  6
Continuous
 62
   252
370
    70
100
AcDbCircle
 10
0.7720000000000013
 20
8.807259136945031
 30
1.378
 40
0.25
210
1.0
220
0.0
230
0.0
100
AcDbArc
 50
0.0
 51
44.54275079502892
  0
ARC
  5
19C
330
1F
100
AcDbEntity
  8
ORTHO$14
  6
Continuous
 62
   252
370
    70
100
AcDbCircle
 10
1.752000000000001
 20
8.807259136945038
 30
1.378
 40
0.25
210
1.0
220
0.0
230
0.0
100
AcDbArc
 50
135.4572492049718
 51
180.0
  0
ARC
  5
19D
330
1F
100
AcDbEntity
  8
ORTHO$14
  6
Continuous
 62
   252
370
    70
100
AcDbCircle
 10
3.252000000000001
 20
7.547259136945038
 30
1.378
 40
0.25
210
1.0
220
0.0
230
0.0
100
AcDbArc
 50
135.4572492049718
 51
180.0
  0
ARC
  5
19E
330
1F
100
AcDbEntity
  8
ORTHO$14
  6
Continuous
 62
   252
370
    70
100
AcDbCircle
 10
2.272000000000001
 20
7.547259136945032
 30
1.378
 40
0.25
210
1.0
220
0.0
230
0.0
100
AcDbArc
 50
0.0
 51
44.54275079502889
  0
ARC
  5
19F
330
1F
100
AcDbEntity
  8
ORTHO$14
  6
Continuous
 62
   252
370
    70
100
AcDbCircle
 10
6.252
 20
2.307259136945035
 30
1.378
 40
0.25
210
1.0
220
0.0
230
0.0
100
AcDbArc
 50
135.4572492049715
 51
180.0
  0
ARC
  5
1A0
330
1F
100
AcDbEntity
  8
ORTHO$14
  6
Continuous
 62
   252
370
    70
100
AcDbCircle
 10
5.272
 20
2.307259136945034
 30
1.378
 40
0.25
210
1.0
220
0.0
230
0.0
100
AcDbArc
 50
0.0
 51
44.54275079502854
  0
ARC
  5
1A1
330
1F
100
AcDbEntity
  8
ORTHO$14
  6
Continuous
 62
   252
370
    70
100
AcDbCircle
 10
4.752000000000001
 20
1.797259136945037
 30
1.378
 40
0.25
210
1.0
220
0.0
230
0.0
100
AcDbArc
 50
135.4572492049717
 51
180.0
  0
ARC
  5
1A2
330
1F
100
AcDbEntity
  8
ORTHO$14
  6
Continuous
 62
   252
370
    70
100
AcDbCircle
 10
3.772
 20
1.797259136945033
 30
1.378
 40
0.25
210
1.0
220
0.0
230
0.0
100
AcDbArc
 50
0.0
 51
44.54275079502868
  0
ARC
  5
1A3
330
1F
100
AcDbEntity
  8
ORTHO$14
  6
Continuous
 62
   252
370
    70
100
AcDbCircle
 10
1.752000000000001
 20
1.797259136945036
 30
1.378
 40
0.25
210
1.0
220
0.0
230
0.0
100
AcDbArc
 50
135.4572492049717
 51
180.0
  0
ARC
  5
1A4
330
1F
100
AcDbEntity
  8
ORTHO$14
  6
Continuous
 62
   252
370
    70
100
AcDbCircle
 10
0.7720000000000013
 20
1.797259136945032
 30
1.378
 40
0.25
210
1.0
220
0.0
230
0.0
100
AcDbArc
 50
0.0
 51
44.5427507950288
  0
ARC
  5
1A5
330
1F
100
AcDbEntity
  8
ORTHO$14
  6
Continuous
 62
   252
370
    70
100
AcDbCircle
 10
4.752000000000001
 20
-1.672740863054963
 30
1.378
 40
0.25
210
1.0
220
0.0
230
0.0
100
AcDbArc
 50
135.4572492049715
 51
180.0
  0
ARC
  5
1A6
330
1F
100
AcDbEntity
  8
ORTHO$14
  6
Continuous
 62
   252
370
    70
100
AcDbCircle
 10
3.772
 20
-1.672740863054964
 30
1.378
 40
0.25
210
1.0
220
0.0
230
0.0
100
AcDbArc
 50
0.0
 51
44.54275079502863
  0
ARC
  5
1A7
330
1F
100
AcDbEntity
  8
ORTHO$14
  6
Continuous
 62
   252
370
    70
100
AcDbCircle
 10
2.272000000000001
 20
-1.672740863054965
 30
1.378
 40
0.25
210
1.0
220
0.0
230
0.0
100
AcDbArc
 50
0.0
 51
44.54275079502859
  0
ARC
  5
1A8
330
1F
100
AcDbEntity
  8
ORTHO$14
  6
Continuous
 62
   252
370
    70
100
AcDbCircle
 10
3.252000000000001
 20
-1.672740863054965
 30
1.378
 40
0.25
210
1.0
220
0.0
230
0.0
100
AcDbArc
 50
135.4572492049715
 51
180.0
  0
INSERT
  5
30C
330
1F
100
AcDbEntity
  8
XREF001I$
  6
Continuous
 62
     3
370
    18
100
AcDbBlockReference
  2
00475EBB_PART_ONLY
 10
0.0
 20
0.0
 30
0.0
  0
VIEWPORT
  5
1C3
330
1C0
100
AcDbEntity
 67
     1
  8
0
370
    18
100
AcDbViewport
 10
22.19642857142857
 20
11.0
 30
0.0
 40
44.39452984504577
 41
21.23819517313746
 68
     1
 69
     1
 12
22.19642857142857
 22
11.0
 13
0.0
 23
0.0
 14
1.0
 24
1.0
 15
1.0
 25
1.0
 16
0.0
 26
0.0
 36
1.0
 17
0.0
 27
0.0
 37
0.0
 42
19.10107169253511
 43
0.0
 44
0.0
 45
21.23819517313746
 50
0.0
 51
0.0
 72
   100
331
75
331
76
331
77
331
78
 90
   557152
  1

281
     0
 71
     1
 74
     0
110
0.0
120
0.0
130
0.0
111
1.0
121
0.0
131
0.0
112
0.0
122
1.0
132
0.0
 79
     0
146
0.0
170
     0
 61
     5
348
2F
292
     1
282
     1
141
0.0
142
0.0
 63
   250
421
  3355443
361
2F9
  0
LINE
  5
1C4
330
1C0
100
AcDbEntity
 67
     1
  8
1
  6
Continuous
 62
   252
370
    18
100
AcDbLine
 10
17.93780517578125
 20
14.30487060546875
 30
0.0
 11
17.93780517578125
 21
8.123870849609375
 31
0.0
  0
LINE
  5
1C5
330
1C0
100
AcDbEntity
 67
     1
  8
1
  6
Continuous
 62
   252
370
    18
100
AcDbLine
 10
16.65380668640137
 20
14.17487049102783
 30
0.0
 11
16.65380668640137
 21
8.253870964050292
 31
0.0
  0
LINE
  5
1C6
330
1C0
100
AcDbEntity
 67
     1
  8
1
  6
Continuous
 62
   252
370
    18
100
AcDbLine
 10
17.93780517578125
 20
14.30487060546875
 30
0.0
 11
16.78380584716797
 21
14.30487060546875
 31
0.0
  0
LINE
  5
1C7
330
1C0
100
AcDbEntity
 67
     1
  8
1
  6
Continuous
 62
   252
370
    18
100
AcDbLine
 10
18.03180503845215
 20
14.30487060546875
 30
0.0
 11
18.03180503845215
 21
8.123870849609375
 31
0.0
  0
LINE
  5
1C8
330
1C0
100
AcDbEntity
 67
     1
  8
1
  6
Continuous
 62
   252
370
    18
100
AcDbLine
 10
17.93780517578125
 20
14.33487033843994
 30
0.0
 11
16.74780464172363
 21
14.33487033843994
 31
0.0
  0
LINE
  5
1C9
330
1C0
100
AcDbEntity
 67
     1
  8
1
  6
Continuous
 62
   252
370
    18
100
AcDbLine
 10
17.93780517578125
 20
14.39887046813965
 30
0.0
 11
16.74780464172363
 21
14.39887046813965
 31
0.0
  0
LINE
  5
1CA
330
1C0
100
AcDbEntity
 67
     1
  8
1
  6
Continuous
 62
   252
370
    18
100
AcDbLine
 10
17.93780517578125
 20
8.123870849609375
 30
0.0
 11
16.78380584716797
 21
8.123870849609375
 31
0.0
  0
LINE
  5
1CB
330
1C0
100
AcDbEntity
 67
     1
  8
1
  6
Continuous
 62
   252
370
    18
100
AcDbLine
 10
16.71780395507812
 20
14.28682136535644
 30
0.0
 11
16.71780395507812
 21
14.30487060546875
 31
0.0
  0
LINE
  5
1CC
330
1C0
100
AcDbEntity
 67
     1
  8
1
  6
Continuous
 62
   252
370
    18
100
AcDbLine
 10
16.65380668640137
 20
14.17482471466064
 30
0.0
 11
16.65380668640137
 21
14.30487060546875
 31
0.0
  0
LINE
  5
1CD
330
1C0
100
AcDbEntity
 67
     1
  8
1
  6
Continuous
 62
   252
370
    18
100
AcDbLine
 10
16.62380599975586
 20
11.43137073516846
 30
0.0
 11
16.62380599975586
 21
11.13137054443359
 31
0.0
  0
LINE
  5
1CE
330
1C0
100
AcDbEntity
 67
     1
  8
1
  6
Continuous
 62
   252
370
    18
100
AcDbLine
 10
16.57080459594726
 20
11.13137054443359
 30
0.0
 11
16.57080459594726
 21
11.43137073516846
 31
0.0
  0
LINE
  5
1CF
330
1C0
100
AcDbEntity
 67
     1
  8
1
  6
Continuous
 62
   252
370
    18
100
AcDbLine
 10
16.57080459594726
 20
11.43137073516846
 30
0.0
 11
16.62380599975586
 21
11.43137073516846
 31
0.0
  0
LINE
  5
1D0
330
1C0
100
AcDbEntity
 67
     1
  8
1
  6
Continuous
 62
   252
370
    18
100
AcDbLine
 10
16.62380599975586
 20
11.13137054443359
 30
0.0
 11
16.57080459594726
 21
11.13137054443359
 31
0.0
  0
LINE
  5
1D1
330
1C0
100
AcDbEntity
 67
     1
  8
1
  6
Continuous
 62
   252
370
    18
100
AcDbLine
 10
16.47680473327637
 20
11.43137073516846
 30
0.0
 11
16.47680473327637
 21
11.13137054443359
 31
0.0
  0
LINE
  5
1D2
330
1C0
100
AcDbEntity
 67
     1
  8
1
  6
Continuous
 62
   252
370
    18
100
AcDbLine
 10
16.47391128540039
 20
11.13137054443359
 30
0.0
 11
16.47391128540039
 21
11.43137073516846
 31
0.0
  0
LINE
  5
1D3
330
1C0
100
AcDbEntity
 67
     1
  8
1
  6
Continuous
 62
   252
370
    18
100
AcDbLine
 10
16.47391128540039
 20
11.43137073516846
 30
0.0
 11
16.47680473327637
 21
11.43137073516846
 31
0.0
  0
LINE
  5
1D4
330
1C0
100
AcDbEntity
 67
     1
  8
1
  6
Continuous
 62
   252
370
    18
100
AcDbLine
 10
16.47680473327637
 20
11.13137054443359
 30
0.0
 11
16.47391128540039
 21
11.13137054443359
 31
0.0
  0
LINE
  5
1D5
330
1C0
100
AcDbEntity
 67
     1
  8
1
  6
Continuous
 62
   252
370
    18
100
AcDbLine
 10
14.93774890899658
 20
16.68930435180664
 30
0.0
 11
2.545748949050903
 21
16.68930435180664
 31
0.0
  0
LINE
  5
1D6
330
1C0
100
AcDbEntity
 67
     1
  8
1
  6
Continuous
 62
   252
370
    18
100
AcDbLine
 10
2.545748949050903
 20
16.68930435180664
 30
0.0
 11
2.545748949050903
 21
17.87930297851562
 31
0.0
  0
LINE
  5
1D7
330
1C0
100
AcDbEntity
 67
     1
  8
1
  6
Continuous
 62
   252
370
    18
100
AcDbLine
 10
14.93774890899658
 20
16.68930435180664
 30
0.0
 11
14.93774890899658
 21
17.87930297851562
 31
0.0
  0
LINE
  5
1D8
330
1C0
100
AcDbEntity
 67
     1
  8
1
  6
Continuous
 62
   252
370
    18
100
AcDbLine
 10
14.93774890899658
 20
16.59530258178711
 30
0.0
 11
2.545748949050903
 21
16.59530258178711
 31
0.0
  0
LINE
  5
1D9
330
1C0
100
AcDbEntity
 67
     1
  8
1
  6
Continuous
 62
   252
370
    18
100
AcDbLine
 10
2.451749086380004
 20
16.68930435180664
 30
0.0
 11
2.451749086380004
 21
17.84330368041992
 31
0.0
  0
LINE
  5
1DA
330
1C0
100
AcDbEntity
 67
     1
  8
1
  6
Continuous
 62
   252
370
    18
100
AcDbLine
 10
2.515748977661132
 20
17.84330368041992
 30
0.0
 11
2.451749086380004
 21
17.84330368041992
 31
0.0
  0
LINE
  5
1DB
330
1C0
100
AcDbEntity
 67
     1
  8
1
  6
Continuous
 62
   252
370
    18
100
AcDbLine
 10
2.515748977661132
 20
16.68930435180664
 30
0.0
 11
2.515748977661132
 21
17.84330368041992
 31
0.0
  0
LINE
  5
1DC
330
1C0
100
AcDbEntity
 67
     1
  8
1
  6
Continuous
 62
   252
370
    18
100
AcDbLine
 10
14.96774959564209
 20
16.68930435180664
 30
0.0
 11
14.96774959564209
 21
17.84330368041992
 31
0.0
  0
LINE
  5
1DD
330
1C0
100
AcDbEntity
 67
     1
  8
1
  6
Continuous
 62
   252
370
    18
100
AcDbLine
 10
15.0317497253418
 20
17.84330368041992
 30
0.0
 11
14.96774959564209
 21
17.84330368041992
 31
0.0
  0
LINE
  5
1DE
330
1C0
100
AcDbEntity
 67
     1
  8
1
  6
Continuous
 62
   252
370
    18
100
AcDbLine
 10
15.0317497253418
 20
16.68930435180664
 30
0.0
 11
15.0317497253418
 21
17.84330368041992
 31
0.0
  0
LINE
  5
1DF
330
1C0
100
AcDbEntity
 67
     1
  8
1
  6
Continuous
 62
   252
370
    18
100
AcDbLine
 10
14.96774959564209
 20
17.97330284118652
 30
0.0
 11
15.0317497253418
 21
17.97330284118652
 31
0.0
  0
LINE
  5
1E0
330
1C0
100
AcDbEntity
 67
     1
  8
1
  6
Continuous
 62
   252
370
    18
100
AcDbLine
 10
2.451749086380004
 20
17.97330284118652
 30
0.0
 11
2.515748977661132
 21
17.97330284118652
 31
0.0
  0
LINE
  5
1E1
330
1C0
100
AcDbEntity
 67
     1
  8
1
  6
Continuous
 62
   252
370
    18
100
AcDbLine
 10
14.93774890899658
 20
17.87930297851562
 30
0.0
 11
2.545748949050903
 21
17.87930297851562
 31
0.0
  0
LINE
  5
1E2
330
1C0
100
AcDbEntity
 67
     1
  8
1
  6
Continuous
 62
   252
370
    18
100
AcDbLine
 10
2.545748949050903
 20
17.97330284118652
 30
0.0
 11
14.93774890899658
 21
17.97330284118652
 31
0.0
  0
LINE
  5
1E3
330
1C0
100
AcDbEntity
 67
     1
  8
1
  6
Continuous
 62
   252
370
    18
100
AcDbLine
 10
6.015755653381347
 20
18.1471004486084
 30
0.0
 11
6.159102439880371
 21
18.10869026184082
 31
0.0
  0
LINE
  5
1E4
330
1C0
100
AcDbEntity
 67
     1
  8
1
  6
Continuous
 62
   252
370
    18
100
AcDbLine
 10
6.340734004974365
 20
18.15319633483887
 30
0.0
 11
6.174631595611572
 21
18.10869026184082
 31
0.0
  0
LINE
  5
1E5
330
1C0
100
AcDbEntity
 67
     1
  8
1
  6
Continuous
 62
   252
370
    18
100
AcDbLine
 10
6.340734004974365
 20
18.15319633483887
 30
0.0
 11
6.357297897338867
 21
18.09137916564941
 31
0.0
  0
LINE
  5
1E6
330
1C0
100
AcDbEntity
 67
     1
  8
1
  6
Continuous
 62
   252
370
    18
100
AcDbLine
 10
6.357297897338867
 20
18.09137916564941
 30
0.0
 11
6.191195964813232
 21
18.04687309265137
 31
0.0
  0
LINE
  5
1E7
330
1C0
100
AcDbEntity
 67
     1
  8
1
  6
Continuous
 62
   252
370
    18
100
AcDbLine
 10
5.999191761016845
 20
18.08527946472168
 30
0.0
 11
6.14253807067871
 21
18.04687309265137
 31
0.0
  0
LINE
  5
1E8
330
1C0
100
AcDbEntity
 67
     1
  8
1
  6
Continuous
 62
   252
370
    18
100
AcDbLine
 10
5.961427211761474
 20
18.05630302429199
 30
0.0
 11
5.961427211761474
 21
18.00330352783203
 31
0.0
  0
LINE
  5
1E9
330
1C0
100
AcDbEntity
 67
     1
  8
1
  6
Continuous
 62
   252
370
    18
100
AcDbLine
 10
5.897427082061767
 20
18.05630302429199
 30
0.0
 11
5.897427082061767
 21
18.00330352783203
 31
0.0
  0
LINE
  5
1EA
330
1C0
100
AcDbEntity
 67
     1
  8
1
  6
Continuous
 62
   252
370
    18
100
AcDbLine
 10
9.659102439880371
 20
18.10869026184082
 30
0.0
 11
9.515756607055664
 21
18.1471004486084
 31
0.0
  0
LINE
  5
1EB
330
1C0
100
AcDbEntity
 67
     1
  8
1
  6
Continuous
 62
   252
370
    18
100
AcDbLine
 10
9.840733528137207
 20
18.15319633483887
 30
0.0
 11
9.674631118774414
 21
18.10869026184082
 31
0.0
  0
LINE
  5
1EC
330
1C0
100
AcDbEntity
 67
     1
  8
1
  6
Continuous
 62
   252
370
    18
100
AcDbLine
 10
9.857298851013183
 20
18.09137916564941
 30
0.0
 11
9.840733528137207
 21
18.15319633483887
 31
0.0
  0
LINE
  5
1ED
330
1C0
100
AcDbEntity
 67
     1
  8
1
  6
Continuous
 62
   252
370
    18
100
AcDbLine
 10
9.857298851013183
 20
18.09137916564941
 30
0.0
 11
9.69119644165039
 21
18.04687309265137
 31
0.0
  0
LINE
  5
1EE
330
1C0
100
AcDbEntity
 67
     1
  8
1
  6
Continuous
 62
   252
370
    18
100
AcDbLine
 10
9.64253807067871
 20
18.04687309265137
 30
0.0
 11
9.499191284179687
 21
18.08527946472168
 31
0.0
  0
LINE
  5
1EF
330
1C0
100
AcDbEntity
 67
     1
  8
1
  6
Continuous
 62
   252
370
    18
100
AcDbLine
 10
9.461426734924316
 20
18.05630302429199
 30
0.0
 11
9.461426734924316
 21
18.00330352783203
 31
0.0
  0
LINE
  5
1F0
330
1C0
100
AcDbEntity
 67
     1
  8
1
  6
Continuous
 62
   252
370
    18
100
AcDbLine
 10
9.397426605224609
 20
18.05630302429199
 30
0.0
 11
9.397426605224609
 21
18.00330352783203
 31
0.0
  0
LINE
  5
1F1
330
1C0
100
AcDbEntity
 67
     1
  8
1
  6
Continuous
 62
   252
370
    18
100
AcDbLine
 10
14.96774959564209
 20
8.253870964050292
 30
0.0
 11
15.0317497253418
 21
8.253870964050292
 31
0.0
  0
LINE
  5
1F2
330
1C0
100
AcDbEntity
 67
     1
  8
1
  6
Continuous
 62
   252
370
    18
100
AcDbLine
 10
15.0317497253418
 20
14.17487049102783
 30
0.0
 11
14.96774959564209
 21
14.17487049102783
 31
0.0
  0
LINE
  5
1F3
330
1C0
100
AcDbEntity
 67
     1
  8
1
  6
Continuous
 62
   252
370
    18
100
AcDbLine
 10
15.0317497253418
 20
14.17487049102783
 30
0.0
 11
15.0317497253418
 21
8.253870964050292
 31
0.0
  0
LINE
  5
1F4
330
1C0
100
AcDbEntity
 67
     1
  8
1
  6
Continuous
 62
   252
370
    18
100
AcDbLine
 10
14.96774959564209
 20
8.253870964050292
 30
0.0
 11
14.96774959564209
 21
14.17487049102783
 31
0.0
  0
LINE
  5
1F5
330
1C0
100
AcDbEntity
 67
     1
  8
1
  6
Continuous
 62
   252
370
    18
100
AcDbLine
 10
2.451749086380004
 20
8.253870964050292
 30
0.0
 11
2.515748977661132
 21
8.253870964050292
 31
0.0
  0
LINE
  5
1F6
330
1C0
100
AcDbEntity
 67
     1
  8
1
  6
Continuous
 62
   252
370
    18
100
AcDbLine
 10
2.515748977661132
 20
14.17487049102783
 30
0.0
 11
2.451749086380004
 21
14.17487049102783
 31
0.0
  0
LINE
  5
1F7
330
1C0
100
AcDbEntity
 67
     1
  8
1
  6
Continuous
 62
   252
370
    18
100
AcDbLine
 10
2.451749086380004
 20
8.253870964050292
 30
0.0
 11
2.451749086380004
 21
14.17487049102783
 31
0.0
  0
LINE
  5
1F8
330
1C0
100
AcDbEntity
 67
     1
  8
1
  6
Continuous
 62
   252
370
    18
100
AcDbLine
 10
2.515748977661132
 20
14.17487049102783
 30
0.0
 11
2.515748977661132
 21
8.253870964050292
 31
0.0
  0
LINE
  5
1F9
330
1C0
100
AcDbEntity
 67
     1
  8
1
  6
Continuous
 62
   252
370
    18
100
AcDbLine
 10
14.96774959564209
 20
14.30487060546875
 30
0.0
 11
15.0317497253418
 21
14.30487060546875
 31
0.0
  0
LINE
  5
1FA
330
1C0
100
AcDbEntity
 67
     1
  8
1
  6
Continuous
 62
   252
370
    18
100
AcDbLine
 10
2.451749086380004
 20
14.30487060546875
 30
0.0
 11
2.515748977661132
 21
14.30487060546875
 31
0.0
  0
LINE
  5
1FB
330
1C0
100
AcDbEntity
 67
     1
  8
1
  6
Continuous
 62
   252
370
    18
100
AcDbLine
 10
2.515748977661132
 20
8.123870849609375
 30
0.0
 11
2.451749086380004
 21
8.123870849609375
 31
0.0
  0
LINE
  5
1FC
330
1C0
100
AcDbEntity
 67
     1
  8
1
  6
Continuous
 62
   252
370
    18
100
AcDbLine
 10
2.545748949050903
 20
10.71737098693847
 30
0.0
 11
14.93774890899658
 21
10.71737098693847
 31
0.0
  0
LINE
  5
1FD
330
1C0
100
AcDbEntity
 67
     1
  8
1
  6
Continuous
 62
   252
370
    18
100
AcDbLine
 10
2.545748949050903
 20
14.30487060546875
 30
0.0
 11
2.545748949050903
 21
10.71737098693847
 31
0.0
  0
LINE
  5
1FE
330
1C0
100
AcDbEntity
 67
     1
  8
1
  6
Continuous
 62
   252
370
    18
100
AcDbLine
 10
14.93774890899658
 20
14.30487060546875
 30
0.0
 11
2.545748949050903
 21
14.30487060546875
 31
0.0
  0
LINE
  5
1FF
330
1C0
100
AcDbEntity
 67
     1
  8
1
  6
Continuous
 62
   252
370
    18
100
AcDbLine
 10
14.93774890899658
 20
10.71737098693847
 30
0.0
 11
14.93774890899658
 21
14.30487060546875
 31
0.0
  0
LINE
  5
200
330
1C0
100
AcDbEntity
 67
     1
  8
1
  6
Continuous
 62
   252
370
    18
100
AcDbLine
 10
2.545748949050903
 20
14.39887046813965
 30
0.0
 11
14.93774890899658
 21
14.39887046813965
 31
0.0
  0
LINE
  5
201
330
1C0
100
AcDbEntity
 67
     1
  8
1
  6
Continuous
 62
   252
370
    18
100
AcDbLine
 10
15.0317497253418
 20
8.123870849609375
 30
0.0
 11
14.96774959564209
 21
8.123870849609375
 31
0.0
  0
LINE
  5
202
330
1C0
100
AcDbEntity
 67
     1
  8
1
  6
Continuous
 62
   252
370
    18
100
AcDbLine
 10
14.93774890899658
 20
10.71737957000732
 30
0.0
 11
14.93774890899658
 21
8.123870849609375
 31
0.0
  0
LINE
  5
203
330
1C0
100
AcDbEntity
 67
     1
  8
1
  6
Continuous
 62
   252
370
    18
100
AcDbLine
 10
2.545748949050903
 20
8.123870849609375
 30
0.0
 11
2.545748949050903
 21
10.71737957000732
 31
0.0
  0
LINE
  5
204
330
1C0
100
AcDbEntity
 67
     1
  8
1
  6
Continuous
 62
   252
370
    18
100
AcDbLine
 10
2.989748954772949
 20
10.27137088775635
 30
0.0
 11
3.195008277893066
 21
10.27137088775635
 31
0.0
  0
LINE
  5
205
330
1C0
100
AcDbEntity
 67
     1
  8
1
  6
Continuous
 62
   252
370
    18
100
AcDbLine
 10
12.41500854492187
 20
10.27137088775635
 30
0.0
 11
12.20974922180176
 21
10.27137088775635
 31
0.0
  0
LINE
  5
206
330
1C0
100
AcDbEntity
 67
     1
  8
1
  6
Continuous
 62
   252
370
    18
100
AcDbLine
 10
7.175008296966552
 20
10.27137088775635
 30
0.0
 11
6.969749450683593
 21
10.27137088775635
 31
0.0
  0
LINE
  5
207
330
1C0
100
AcDbEntity
 67
     1
  8
1
  6
Continuous
 62
   252
370
    18
100
AcDbLine
 10
14.93774890899658
 20
8.123870849609375
 30
0.0
 11
2.545748949050903
 21
8.123870849609375
 31
0.0
  0
LINE
  5
208
330
1C0
100
AcDbEntity
 67
     1
  8
1
  6
Continuous
 62
   252
370
    18
100
AcDbLine
 10
11.30886650085449
 20
11.13137054443359
 30
0.0
 11
11.14276504516601
 21
11.13137054443359
 31
0.0
  0
LINE
  5
209
330
1C0
100
AcDbEntity
 67
     1
  8
1
  6
Continuous
 62
   252
370
    18
100
AcDbLine
 10
11.14276504516601
 20
11.13137054443359
 30
0.0
 11
11.14276504516601
 21
11.43137073516846
 31
0.0
  0
LINE
  5
20A
330
1C0
100
AcDbEntity
 67
     1
  8
1
  6
Continuous
 62
   252
370
    18
100
AcDbLine
 10
11.14276504516601
 20
11.43137073516846
 30
0.0
 11
11.30886650085449
 21
11.43137073516846
 31
0.0
  0
LINE
  5
20B
330
1C0
100
AcDbEntity
 67
     1
  8
1
  6
Continuous
 62
   252
370
    18
100
AcDbLine
 10
11.30886650085449
 20
11.43137073516846
 30
0.0
 11
11.30886650085449
 21
11.13137054443359
 31
0.0
  0
LINE
  5
20C
330
1C0
100
AcDbEntity
 67
     1
  8
1
  6
Continuous
 62
   252
370
    18
100
AcDbLine
 10
11.14276504516601
 20
11.13137054443359
 30
0.0
 11
11.12620067596435
 21
11.13137054443359
 31
0.0
  0
LINE
  5
20D
330
1C0
100
AcDbEntity
 67
     1
  8
1
  6
Continuous
 62
   252
370
    18
100
AcDbLine
 10
11.12620067596435
 20
11.13137054443359
 30
0.0
 11
11.12620067596435
 21
11.43137073516846
 31
0.0
  0
LINE
  5
20E
330
1C0
100
AcDbEntity
 67
     1
  8
1
  6
Continuous
 62
   252
370
    18
100
AcDbLine
 10
11.14276504516601
 20
11.43137073516846
 30
0.0
 11
11.12620067596435
 21
11.43137073516846
 31
0.0
  0
LINE
  5
20F
330
1C0
100
AcDbEntity
 67
     1
  8
1
  6
Continuous
 62
   252
370
    18
100
AcDbLine
 10
7.626200675964355
 20
11.13137054443359
 30
0.0
 11
7.642764568328857
 21
11.13137054443359
 31
0.0
  0
LINE
  5
210
330
1C0
100
AcDbEntity
 67
     1
  8
1
  6
Continuous
 62
   252
370
    18
100
AcDbLine
 10
7.626200675964355
 20
11.13137054443359
 30
0.0
 11
7.626200675964355
 21
11.43137073516846
 31
0.0
  0
LINE
  5
211
330
1C0
100
AcDbEntity
 67
     1
  8
1
  6
Continuous
 62
   252
370
    18
100
AcDbLine
 10
7.626200675964355
 20
11.43137073516846
 30
0.0
 11
7.642764568328857
 21
11.43137073516846
 31
0.0
  0
LINE
  5
212
330
1C0
100
AcDbEntity
 67
     1
  8
1
  6
Continuous
 62
   252
370
    18
100
AcDbLine
 10
7.642764568328857
 20
11.13137054443359
 30
0.0
 11
7.642764568328857
 21
11.43137073516846
 31
0.0
  0
LINE
  5
213
330
1C0
100
AcDbEntity
 67
     1
  8
1
  6
Continuous
 62
   252
370
    18
100
AcDbLine
 10
7.808866500854492
 20
11.13137054443359
 30
0.0
 11
7.642764568328857
 21
11.13137054443359
 31
0.0
  0
LINE
  5
214
330
1C0
100
AcDbEntity
 67
     1
  8
1
  6
Continuous
 62
   252
370
    18
100
AcDbLine
 10
7.642764568328857
 20
11.43137073516846
 30
0.0
 11
7.808866500854492
 21
11.43137073516846
 31
0.0
  0
LINE
  5
215
330
1C0
100
AcDbEntity
 67
     1
  8
1
  6
Continuous
 62
   252
370
    18
100
AcDbLine
 10
7.808866500854492
 20
11.43137073516846
 30
0.0
 11
7.808866500854492
 21
11.13137054443359
 31
0.0
  0
LINE
  5
216
330
1C0
100
AcDbEntity
 67
     1
  8
1
  6
Continuous
 62
   252
370
    18
100
AcDbLine
 10
11.58607101440429
 20
11.13137054443359
 30
0.0
 11
11.58607101440429
 21
11.43137073516846
 31
0.0
  0
LINE
  5
217
330
1C0
100
AcDbEntity
 67
     1
  8
1
  6
Continuous
 62
   252
370
    18
100
AcDbLine
 10
11.46774291992187
 20
11.13137054443359
 30
0.0
 11
11.46774291992187
 21
11.43137073516846
 31
0.0
  0
LINE
  5
218
330
1C0
100
AcDbEntity
 67
     1
  8
1
  6
Continuous
 62
   252
370
    18
100
AcDbLine
 10
8.086071014404296
 20
11.13137054443359
 30
0.0
 11
8.086071014404296
 21
11.43137073516846
 31
0.0
  0
LINE
  5
219
330
1C0
100
AcDbEntity
 67
     1
  8
1
  6
Continuous
 62
   252
370
    18
100
AcDbLine
 10
7.967742919921875
 20
11.13137054443359
 30
0.0
 11
7.967742919921875
 21
11.43137073516846
 31
0.0
  0
LINE
  5
21A
330
1C0
100
AcDbEntity
 67
     1
  8
1
  6
Continuous
 62
   252
370
    18
100
AcDbLine
 10
11.32439517974853
 20
11.43137073516846
 30
0.0
 11
11.32439517974853
 21
11.13137054443359
 31
0.0
  0
LINE
  5
21B
330
1C0
100
AcDbEntity
 67
     1
  8
1
  6
Continuous
 62
   252
370
    18
100
AcDbLine
 10
11.32439517974853
 20
11.13137054443359
 30
0.0
 11
11.46774291992187
 21
11.13137054443359
 31
0.0
  0
LINE
  5
21C
330
1C0
100
AcDbEntity
 67
     1
  8
1
  6
Continuous
 62
   252
370
    18
100
AcDbLine
 10
11.46774291992187
 20
11.43137073516846
 30
0.0
 11
11.32439517974853
 21
11.43137073516846
 31
0.0
  0
LINE
  5
21D
330
1C0
100
AcDbEntity
 67
     1
  8
1
  6
Continuous
 62
   252
370
    18
100
AcDbLine
 10
7.824395656585693
 20
11.13137054443359
 30
0.0
 11
7.824395656585693
 21
11.43137073516846
 31
0.0
  0
LINE
  5
21E
330
1C0
100
AcDbEntity
 67
     1
  8
1
  6
Continuous
 62
   252
370
    18
100
AcDbLine
 10
7.824395656585693
 20
11.43137073516846
 30
0.0
 11
7.967742919921875
 21
11.43137073516846
 31
0.0
  0
LINE
  5
21F
330
1C0
100
AcDbEntity
 67
     1
  8
1
  6
Continuous
 62
   252
370
    18
100
AcDbLine
 10
7.967742919921875
 20
11.13137054443359
 30
0.0
 11
7.824395656585693
 21
11.13137054443359
 31
0.0
  0
LINE
  5
220
330
1C0
100
AcDbEntity
 67
     1
  8
1
  6
Continuous
 62
   252
370
    18
100
AcDbLine
 10
11.6160717010498
 20
11.13137054443359
 30
0.0
 11
11.6160717010498
 21
11.43137073516846
 31
0.0
  0
LINE
  5
221
330
1C0
100
AcDbEntity
 67
     1
  8
1
  6
Continuous
 62
   252
370
    18
100
AcDbLine
 10
8.116070747375488
 20
11.13137054443359
 30
0.0
 11
8.116070747375488
 21
11.43137073516846
 31
0.0
  0
LINE
  5
222
330
1C0
100
AcDbEntity
 67
     1
  8
1
  6
Continuous
 62
   252
370
    18
100
AcDbLine
 10
7.524958610534667
 20
11.1013708114624
 30
0.0
 11
8.116070747375488
 21
11.1013708114624
 31
0.0
  0
LINE
  5
223
330
1C0
100
AcDbEntity
 67
     1
  8
1
  6
Continuous
 62
   252
370
    18
100
AcDbLine
 10
11.6160717010498
 20
11.1013708114624
 30
0.0
 11
11.02495861053466
 21
11.1013708114624
 31
0.0
  0
LINE
  5
224
330
1C0
100
AcDbEntity
 67
     1
  8
1
  6
Continuous
 62
   252
370
    18
100
AcDbLine
 10
8.116070747375488
 20
11.1013708114624
 30
0.0
 11
8.116070747375488
 21
11.13137054443359
 31
0.0
  0
LINE
  5
225
330
1C0
100
AcDbEntity
 67
     1
  8
1
  6
Continuous
 62
   252
370
    18
100
AcDbLine
 10
11.6160717010498
 20
11.13137054443359
 30
0.0
 11
11.6160717010498
 21
11.1013708114624
 31
0.0
  0
LINE
  5
226
330
1C0
100
AcDbEntity
 67
     1
  8
1
  6
Continuous
 62
   252
370
    18
100
AcDbLine
 10
11.6160717010498
 20
11.46137046813965
 30
0.0
 11
11.6160717010498
 21
11.43137073516846
 31
0.0
  0
LINE
  5
227
330
1C0
100
AcDbEntity
 67
     1
  8
1
  6
Continuous
 62
   252
370
    18
100
AcDbLine
 10
8.116070747375488
 20
11.46137046813965
 30
0.0
 11
7.524958610534667
 21
11.46137046813965
 31
0.0
  0
LINE
  5
228
330
1C0
100
AcDbEntity
 67
     1
  8
1
  6
Continuous
 62
   252
370
    18
100
AcDbLine
 10
11.02495861053466
 20
11.46137046813965
 30
0.0
 11
11.6160717010498
 21
11.46137046813965
 31
0.0
  0
LINE
  5
229
330
1C0
100
AcDbEntity
 67
     1
  8
1
  6
Continuous
 62
   252
370
    18
100
AcDbLine
 10
7.524958610534667
 20
11.46137046813965
 30
0.0
 11
7.524958610534667
 21
11.1013708114624
 31
0.0
  0
LINE
  5
22A
330
1C0
100
AcDbEntity
 67
     1
  8
1
  6
Continuous
 62
   252
370
    18
100
AcDbLine
 10
11.02495861053466
 20
11.1013708114624
 30
0.0
 11
11.02495861053466
 21
11.46137046813965
 31
0.0
  0
LINE
  5
22B
330
1C0
100
AcDbEntity
 67
     1
  8
1
  6
Continuous
 62
   252
370
    18
100
AcDbLine
 10
8.116070747375488
 20
11.43137073516846
 30
0.0
 11
8.116070747375488
 21
11.46137046813965
 31
0.0
  0
LINE
  5
22C
330
1C0
100
AcDbEntity
 67
     1
  8
1
  6
Continuous
 62
   252
370
    18
100
AcDbLine
 10
6.459749221801757
 20
9.251370429992675
 30
0.0
 11
6.665008068084716
 21
9.251370429992675
 31
0.0
  0
LINE
  5
22D
330
1C0
100
AcDbEntity
 67
     1
  8
1
  6
Continuous
 62
   252
370
    18
100
AcDbLine
 10
6.665008068084716
 20
8.771370887756347
 30
0.0
 11
6.459749221801757
 21
8.771370887756347
 31
0.0
  0
LINE
  5
22E
330
1C0
100
AcDbEntity
 67
     1
  8
1
  6
Continuous
 62
   252
370
    18
100
AcDbLine
 10
13.46974945068359
 20
9.251370429992675
 30
0.0
 11
13.67500877380371
 21
9.251370429992675
 31
0.0
  0
LINE
  5
22F
330
1C0
100
AcDbEntity
 67
     1
  8
1
  6
Continuous
 62
   252
370
    18
100
AcDbLine
 10
13.67500877380371
 20
8.771370887756347
 30
0.0
 11
13.46974945068359
 21
8.771370887756347
 31
0.0
  0
LINE
  5
230
330
1C0
100
AcDbEntity
 67
     1
  8
1
  6
Continuous
 62
   252
370
    18
100
AcDbLine
 10
2.989748954772949
 20
8.771370887756347
 30
0.0
 11
3.195008277893066
 21
8.771370887756347
 31
0.0
  0
LINE
  5
231
330
1C0
100
AcDbEntity
 67
     1
  8
1
  6
Continuous
 62
   252
370
    18
100
AcDbLine
 10
3.195008277893066
 20
9.251370429992675
 30
0.0
 11
2.989748954772949
 21
9.251370429992675
 31
0.0
  0
LINE
  5
232
330
1C0
100
AcDbEntity
 67
     1
  8
1
  6
Continuous
 62
   252
370
    18
100
AcDbLine
 10
31.59968757629395
 20
10.27137088775635
 30
0.0
 11
31.39442825317383
 21
10.27137088775635
 31
0.0
  0
LINE
  5
233
330
1C0
100
AcDbEntity
 67
     1
  8
1
  6
Continuous
 62
   252
370
    18
100
AcDbLine
 10
31.39442825317383
 20
10.75137042999267
 30
0.0
 11
31.59968757629395
 21
10.75137042999267
 31
0.0
  0
LINE
  5
234
330
1C0
100
AcDbEntity
 67
     1
  8
1
  6
Continuous
 62
   252
370
    18
100
AcDbLine
 10
31.59968757629395
 20
11.77137088775634
 30
0.0
 11
31.39442825317383
 21
11.77137088775634
 31
0.0
  0
LINE
  5
235
330
1C0
100
AcDbEntity
 67
     1
  8
1
  6
Continuous
 62
   252
370
    18
100
AcDbLine
 10
31.39442825317383
 20
12.25137042999267
 30
0.0
 11
31.59968757629395
 21
12.25137042999267
 31
0.0
  0
LINE
  5
236
330
1C0
100
AcDbEntity
 67
     1
  8
1
  6
Continuous
 62
   252
370
    18
100
AcDbLine
 10
31.59968757629395
 20
13.27137088775635
 30
0.0
 11
31.39442825317383
 21
13.27137088775635
 31
0.0
  0
LINE
  5
237
330
1C0
100
AcDbEntity
 67
     1
  8
1
  6
Continuous
 62
   252
370
    18
100
AcDbLine
 10
31.39442825317383
 20
13.75137042999267
 30
0.0
 11
31.59968757629395
 21
13.75137042999267
 31
0.0
  0
LINE
  5
238
330
1C0
100
AcDbEntity
 67
     1
  8
1
  6
Continuous
 62
   252
370
    18
100
AcDbLine
 10
19.65168762207031
 20
14.30487060546875
 30
0.0
 11
19.65168762207031
 21
8.123870849609375
 31
0.0
  0
LINE
  5
239
330
1C0
100
AcDbEntity
 67
     1
  8
1
  6
Continuous
 62
   252
370
    18
100
AcDbLine
 10
32.04368591308594
 20
14.30487060546875
 30
0.0
 11
19.65168762207031
 21
14.30487060546875
 31
0.0
  0
LINE
  5
23A
330
1C0
100
AcDbEntity
 67
     1
  8
1
  6
Continuous
 62
   252
370
    18
100
AcDbLine
 10
32.04368591308594
 20
8.123870849609375
 30
0.0
 11
32.04368591308594
 21
14.30487060546875
 31
0.0
  0
LINE
  5
23B
330
1C0
100
AcDbEntity
 67
     1
  8
1
  6
Continuous
 62
   252
370
    18
100
AcDbLine
 10
19.65168762207031
 20
8.123870849609375
 30
0.0
 11
32.04368591308594
 21
8.123870849609375
 31
0.0
  0
LINE
  5
23C
330
1C0
100
AcDbEntity
 67
     1
  8
1
  6
Continuous
 62
   252
370
    18
100
AcDbLine
 10
22.37968635559082
 20
10.27137088775635
 30
0.0
 11
22.1744270324707
 21
10.27137088775635
 31
0.0
  0
LINE
  5
23D
330
1C0
100
AcDbEntity
 67
     1
  8
1
  6
Continuous
 62
   252
370
    18
100
AcDbLine
 10
22.1744270324707
 20
10.75137042999267
 30
0.0
 11
22.37968635559082
 21
10.75137042999267
 31
0.0
  0
LINE
  5
23E
330
1C0
100
AcDbEntity
 67
     1
  8
1
  6
Continuous
 62
   252
370
    18
100
AcDbLine
 10
21.11968612670898
 20
11.77137088775634
 30
0.0
 11
20.91442680358887
 21
11.77137088775634
 31
0.0
  0
LINE
  5
23F
330
1C0
100
AcDbEntity
 67
     1
  8
1
  6
Continuous
 62
   252
370
    18
100
AcDbLine
 10
20.91442680358887
 20
12.25137042999267
 30
0.0
 11
21.11968612670898
 21
12.25137042999267
 31
0.0
  0
LINE
  5
240
330
1C0
100
AcDbEntity
 67
     1
  8
1
  6
Continuous
 62
   252
370
    18
100
AcDbLine
 10
22.37968635559082
 20
13.27137088775635
 30
0.0
 11
22.1744270324707
 21
13.27137088775635
 31
0.0
  0
LINE
  5
241
330
1C0
100
AcDbEntity
 67
     1
  8
1
  6
Continuous
 62
   252
370
    18
100
AcDbLine
 10
22.1744270324707
 20
13.75137042999267
 30
0.0
 11
22.37968635559082
 21
13.75137042999267
 31
0.0
  0
LINE
  5
242
330
1C0
100
AcDbEntity
 67
     1
  8
1
  6
Continuous
 62
   252
370
    18
100
AcDbLine
 10
28.12968826293945
 20
11.77137088775634
 30
0.0
 11
27.92442703247071
 21
11.77137088775634
 31
0.0
  0
LINE
  5
243
330
1C0
100
AcDbEntity
 67
     1
  8
1
  6
Continuous
 62
   252
370
    18
100
AcDbLine
 10
27.92442703247071
 20
12.25137042999267
 30
0.0
 11
28.12968826293945
 21
12.25137042999267
 31
0.0
  0
LINE
  5
244
330
1C0
100
AcDbEntity
 67
     1
  8
1
  6
Continuous
 62
   252
370
    18
100
AcDbLine
 10
27.61968803405762
 20
13.27137088775635
 30
0.0
 11
27.41442680358887
 21
13.27137088775635
 31
0.0
  0
LINE
  5
245
330
1C0
100
AcDbEntity
 67
     1
  8
1
  6
Continuous
 62
   252
370
    18
100
AcDbLine
 10
27.41442680358887
 20
13.75137042999267
 30
0.0
 11
27.61968803405762
 21
13.75137042999267
 31
0.0
  0
LINE
  5
246
330
1C0
100
AcDbEntity
 67
     1
  8
1
  6
Continuous
 62
   252
370
    18
100
AcDbLine
 10
27.61968803405762
 20
10.27137088775635
 30
0.0
 11
27.41442680358887
 21
10.27137088775635
 31
0.0
  0
LINE
  5
247
330
1C0
100
AcDbEntity
 67
     1
  8
1
  6
Continuous
 62
   252
370
    18
100
AcDbLine
 10
27.41442680358887
 20
10.75137042999267
 30
0.0
 11
27.61968803405762
 21
10.75137042999267
 31
0.0
  0
LINE
  5
248
330
1C0
100
AcDbEntity
 67
     1
  8
1
  6
Continuous
 62
   252
370
    18
100
AcDbLine
 10
28.12968826293945
 20
8.771370887756347
 30
0.0
 11
27.92442703247071
 21
8.771370887756347
 31
0.0
  0
LINE
  5
249
330
1C0
100
AcDbEntity
 67
     1
  8
1
  6
Continuous
 62
   252
370
    18
100
AcDbLine
 10
27.92442703247071
 20
9.251370429992675
 30
0.0
 11
28.12968826293945
 21
9.251370429992675
 31
0.0
  0
LINE
  5
24A
330
1C0
100
AcDbEntity
 67
     1
  8
1
  6
Continuous
 62
   252
370
    18
100
AcDbLine
 10
21.11968612670898
 20
8.771370887756347
 30
0.0
 11
20.91442680358887
 21
8.771370887756347
 31
0.0
  0
LINE
  5
24B
330
1C0
100
AcDbEntity
 67
     1
  8
1
  6
Continuous
 62
   252
370
    18
100
AcDbLine
 10
20.91442680358887
 20
9.251370429992675
 30
0.0
 11
21.11968612670898
 21
9.251370429992675
 31
0.0
  0
LINE
  5
24C
330
1C0
100
AcDbEntity
 67
     1
  8
1
  6
Continuous
 62
   252
370
    18
100
AcDbLine
 10
31.59968757629395
 20
8.771370887756347
 30
0.0
 11
31.39442825317383
 21
8.771370887756347
 31
0.0
  0
LINE
  5
24D
330
1C0
100
AcDbEntity
 67
     1
  8
1
  6
Continuous
 62
   252
370
    18
100
AcDbLine
 10
31.39442825317383
 20
9.251370429992675
 30
0.0
 11
31.59968757629395
 21
9.251370429992675
 31
0.0
  0
LINE
  5
24E
330
1C0
100
AcDbEntity
 67
     1
  8
1
  6
Continuous
 62
   252
370
    18
100
AcDbLine
 10
32.04368591308594
 20
14.39887046813965
 30
0.0
 11
19.65168762207031
 21
14.39887046813965
 31
0.0
  0
LINE
  5
24F
330
1C0
100
AcDbEntity
 67
     1
  8
1
  6
Continuous
 62
   252
370
    18
100
AcDbLine
 10
19.55768585205078
 20
14.30487060546875
 30
0.0
 11
19.55768585205078
 21
8.123870849609375
 31
0.0
  0
LINE
  5
250
330
1C0
100
AcDbEntity
 67
     1
  8
1
  6
Continuous
 62
   252
370
    18
100
AcDbLine
 10
32.13768768310547
 20
8.123870849609375
 30
0.0
 11
32.13768768310547
 21
14.30487060546875
 31
0.0
  0
LINE
  5
251
330
1C0
100
AcDbEntity
 67
     1
  8
1
  6
Continuous
 62
   252
370
    18
100
AcDbLine
 10
22.97336387634278
 20
11.46137046813965
 30
0.0
 11
22.97336387634278
 21
11.43137073516846
 31
0.0
  0
LINE
  5
252
330
1C0
100
AcDbEntity
 67
     1
  8
1
  6
Continuous
 62
   252
370
    18
100
AcDbLine
 10
22.97336387634278
 20
11.13137054443359
 30
0.0
 11
22.97336387634278
 21
11.43137073516846
 31
0.0
  0
LINE
  5
253
330
1C0
100
AcDbEntity
 67
     1
  8
1
  6
Continuous
 62
   252
370
    18
100
AcDbLine
 10
22.97336387634278
 20
11.13137054443359
 30
0.0
 11
22.97336387634278
 21
11.1013708114624
 31
0.0
  0
LINE
  5
254
330
1C0
100
AcDbEntity
 67
     1
  8
1
  6
Continuous
 62
   252
370
    18
100
AcDbLine
 10
22.97336387634278
 20
11.1013708114624
 30
0.0
 11
23.56447601318359
 21
11.1013708114624
 31
0.0
  0
LINE
  5
255
330
1C0
100
AcDbEntity
 67
     1
  8
1
  6
Continuous
 62
   252
370
    18
100
AcDbLine
 10
23.56447601318359
 20
11.1013708114624
 30
0.0
 11
23.56447601318359
 21
11.46137046813965
 31
0.0
  0
LINE
  5
256
330
1C0
100
AcDbEntity
 67
     1
  8
1
  6
Continuous
 62
   252
370
    18
100
AcDbLine
 10
23.56447601318359
 20
11.46137046813965
 30
0.0
 11
22.97336387634278
 21
11.46137046813965
 31
0.0
  0
LINE
  5
257
330
1C0
100
AcDbEntity
 67
     1
  8
1
  6
Continuous
 62
   252
370
    18
100
AcDbLine
 10
31.72265625
 20
10.71737098693847
 30
0.0
 11
30.52605628967285
 21
10.71737098693847
 31
0.0
  0
LINE
  5
258
330
1C0
100
AcDbEntity
 67
     1
  8
1
  6
Continuous
 62
   252
370
    18
100
AcDbLine
 10
27.74269676208496
 20
10.71737098693847
 30
0.0
 11
26.54609107971192
 21
10.71737098693847
 31
0.0
  0
LINE
  5
259
330
1C0
100
AcDbEntity
 67
     1
  8
1
  6
Continuous
 62
   252
370
    18
100
AcDbLine
 10
25.57254600524903
 20
10.71737098693847
 30
0.0
 11
23.06451988220215
 21
10.71737098693847
 31
0.0
  0
LINE
  5
25A
330
1C0
100
AcDbEntity
 67
     1
  8
1
  6
Continuous
 62
   252
370
    18
100
AcDbLine
 10
22.50300788879394
 20
10.71737098693847
 30
0.0
 11
21.30640602111816
 21
10.71737098693847
 31
0.0
  0
LINE
  5
25B
330
1C0
100
AcDbEntity
 67
     1
  8
1
  6
Continuous
 62
   252
370
    18
100
AcDbLine
 10
23.06736373901367
 20
11.43137073516846
 30
0.0
 11
23.06736373901367
 21
11.13137054443359
 31
0.0
  0
LINE
  5
25C
330
1C0
100
AcDbEntity
 67
     1
  8
1
  6
Continuous
 62
   252
370
    18
100
AcDbLine
 10
23.24847602844238
 20
11.43137073516846
 30
0.0
 11
23.24847602844238
 21
11.13137054443359
 31
0.0
  0
LINE
  5
25D
330
1C0
100
AcDbEntity
 67
     1
  8
1
  6
Continuous
 62
   252
370
    18
100
AcDbLine
 10
23.29713249206543
 20
11.43137073516846
 30
0.0
 11
23.29713249206543
 21
11.13137054443359
 31
0.0
  0
LINE
  5
25E
330
1C0
100
AcDbEntity
 67
     1
  8
1
  6
Continuous
 62
   252
370
    18
100
AcDbLine
 10
23.10512924194336
 20
11.13137054443359
 30
0.0
 11
23.10512924194336
 21
11.43137073516846
 31
0.0
  0
LINE
  5
25F
330
1C0
100
AcDbEntity
 67
     1
  8
1
  6
Continuous
 62
   252
370
    18
100
AcDbLine
 10
23.24847602844238
 20
11.13137054443359
 30
0.0
 11
23.10512924194336
 21
11.13137054443359
 31
0.0
  0
LINE
  5
260
330
1C0
100
AcDbEntity
 67
     1
  8
1
  6
Continuous
 62
   252
370
    18
100
AcDbLine
 10
23.10512924194336
 20
11.43137073516846
 30
0.0
 11
23.24847602844238
 21
11.43137073516846
 31
0.0
  0
LINE
  5
261
330
1C0
100
AcDbEntity
 67
     1
  8
1
  6
Continuous
 62
   252
370
    18
100
AcDbLine
 10
23.46323585510254
 20
11.13137054443359
 30
0.0
 11
23.46323585510254
 21
11.43137073516846
 31
0.0
  0
LINE
  5
262
330
1C0
100
AcDbEntity
 67
     1
  8
1
  6
Continuous
 62
   252
370
    18
100
AcDbLine
 10
23.29713249206543
 20
11.13137054443359
 30
0.0
 11
23.46323585510254
 21
11.13137054443359
 31
0.0
  0
LINE
  5
263
330
1C0
100
AcDbEntity
 67
     1
  8
1
  6
Continuous
 62
   252
370
    18
100
AcDbLine
 10
23.46323585510254
 20
11.43137073516846
 30
0.0
 11
23.29713249206543
 21
11.43137073516846
 31
0.0
  0
ARC
  5
264
330
1C0
100
AcDbEntity
 67
     1
  8
1
  6
Continuous
 62
   252
370
    18
100
AcDbCircle
 10
16.78380584716797
 20
8.253870964050292
 30
0.0
 40
0.1300000101327896
100
AcDbArc
 50
180.0
 51
270.0
  0
ARC
  5
265
330
1C0
100
AcDbEntity
 67
     1
  8
1
  6
Continuous
 62
   252
370
    18
100
AcDbCircle
 10
16.78380584716797
 20
14.17487049102783
 30
0.0
 40
0.1300000101327896
100
AcDbArc
 50
90.0
 51
180.0
  0
ARC
  5
266
330
1C0
100
AcDbEntity
 67
     1
  8
1
  6
Continuous
 62
   252
370
    18
100
AcDbCircle
 10
17.93780517578125
 20
14.30487060546875
 30
0.0
 40
0.0300000011920929
100
AcDbArc
 50
359.9999999985178
 51
90.0
  0
ARC
  5
267
330
1C0
100
AcDbEntity
 67
     1
  8
1
  6
Continuous
 62
   252
370
    18
100
AcDbCircle
 10
17.93780517578125
 20
14.30487060546875
 30
0.0
 40
0.0940000042319298
100
AcDbArc
 50
359.9999999994235
 51
90.0
  0
ARC
  5
268
330
1C0
100
AcDbEntity
 67
     1
  8
1
  6
Continuous
 62
   252
370
    18
100
AcDbCircle
 10
16.74780464172363
 20
14.30487060546875
 30
0.0
 40
0.0300000011920929
100
AcDbArc
 50
90.0
 51
180.0
  0
ARC
  5
269
330
1C0
100
AcDbEntity
 67
     1
  8
1
  6
Continuous
 62
   252
370
    18
100
AcDbCircle
 10
16.74780464172363
 20
14.30487060546875
 30
0.0
 40
0.0940000042319298
100
AcDbArc
 50
90.0
 51
180.0
  0
ARC
  5
26A
330
1C0
100
AcDbEntity
 67
     1
  8
1
  6
Continuous
 62
   252
370
    18
100
AcDbCircle
 10
2.545748949050903
 20
16.68930435180664
 30
0.0
 40
0.0300000011920929
100
AcDbArc
 50
180.0
 51
270.0
  0
ARC
  5
26B
330
1C0
100
AcDbEntity
 67
     1
  8
1
  6
Continuous
 62
   252
370
    18
100
AcDbCircle
 10
2.545748949050903
 20
16.68930435180664
 30
0.0
 40
0.0940000042319298
100
AcDbArc
 50
180.0
 51
270.0
  0
ARC
  5
26C
330
1C0
100
AcDbEntity
 67
     1
  8
1
  6
Continuous
 62
   252
370
    18
100
AcDbCircle
 10
14.93774890899658
 20
16.68930435180664
 30
0.0
 40
0.0940000042319298
100
AcDbArc
 50
270.0
 51
0.0
  0
ARC
  5
26D
330
1C0
100
AcDbEntity
 67
     1
  8
1
  6
Continuous
 62
   252
370
    18
100
AcDbCircle
 10
14.93774890899658
 20
16.68930435180664
 30
0.0
 40
0.0300000011920929
100
AcDbArc
 50
270.0
 51
0.0
  0
ARC
  5
26E
330
1C0
100
AcDbEntity
 67
     1
  8
1
  6
Continuous
 62
   252
370
    18
100
AcDbCircle
 10
5.991426944732666
 20
18.05630302429199
 30
0.0
 40
0.0940000042319298
100
AcDbArc
 50
75.00000053939086
 51
179.9999999993698
  0
ARC
  5
26F
330
1C0
100
AcDbEntity
 67
     1
  8
1
  6
Continuous
 62
   252
370
    18
100
AcDbCircle
 10
6.166866779327392
 20
18.13766860961914
 30
0.0
 40
0.0300000011920929
100
AcDbArc
 50
255.0000001026798
 51
284.9999998973201
  0
ARC
  5
270
330
1C0
100
AcDbEntity
 67
     1
  8
1
  6
Continuous
 62
   252
370
    18
100
AcDbCircle
 10
6.166866779327392
 20
18.13766860961914
 30
0.0
 40
0.0940000042319298
100
AcDbArc
 50
255.0000005393908
 51
284.9999994606092
  0
ARC
  5
271
330
1C0
100
AcDbEntity
 67
     1
  8
1
  6
Continuous
 62
   252
370
    18
100
AcDbCircle
 10
5.991426944732666
 20
18.05630302429199
 30
0.0
 40
0.0300000011920929
100
AcDbArc
 50
75.00000010267982
 51
180.0
  0
ARC
  5
272
330
1C0
100
AcDbEntity
 67
     1
  8
1
  6
Continuous
 62
   252
370
    18
100
AcDbCircle
 10
5.867426872253417
 20
18.00330352783203
 30
0.0
 40
0.0300000011920929
100
AcDbArc
 50
270.0000000030745
 51
0.0
  0
ARC
  5
273
330
1C0
100
AcDbEntity
 67
     1
  8
1
  6
Continuous
 62
   252
370
    18
100
AcDbCircle
 10
5.867426872253417
 20
18.00330352783203
 30
0.0
 40
0.0940000042319298
100
AcDbArc
 50
341.388280765595
 51
0.0
  0
ARC
  5
274
330
1C0
100
AcDbEntity
 67
     1
  8
1
  6
Continuous
 62
   252
370
    18
100
AcDbCircle
 10
9.66686725616455
 20
18.13766860961914
 30
0.0
 40
0.0300000011920929
100
AcDbArc
 50
255.0000001026798
 51
284.9999998973201
  0
ARC
  5
275
330
1C0
100
AcDbEntity
 67
     1
  8
1
  6
Continuous
 62
   252
370
    18
100
AcDbCircle
 10
9.66686725616455
 20
18.13766860961914
 30
0.0
 40
0.0940000042319298
100
AcDbArc
 50
255.0000005393908
 51
284.9999994606092
  0
ARC
  5
276
330
1C0
100
AcDbEntity
 67
     1
  8
1
  6
Continuous
 62
   252
370
    18
100
AcDbCircle
 10
9.491426467895507
 20
18.05630302429199
 30
0.0
 40
0.0300000011920929
100
AcDbArc
 50
75.00000010267982
 51
180.0
  0
ARC
  5
277
330
1C0
100
AcDbEntity
 67
     1
  8
1
  6
Continuous
 62
   252
370
    18
100
AcDbCircle
 10
9.367426872253417
 20
18.00330352783203
 30
0.0
 40
0.0940000042319298
100
AcDbArc
 50
341.388280765595
 51
0.0
  0
ARC
  5
278
330
1C0
100
AcDbEntity
 67
     1
  8
1
  6
Continuous
 62
   252
370
    18
100
AcDbCircle
 10
9.367426872253417
 20
18.00330352783203
 30
0.0
 40
0.0300000011920929
100
AcDbArc
 50
270.0
 51
0.0
  0
ARC
  5
279
330
1C0
100
AcDbEntity
 67
     1
  8
1
  6
Continuous
 62
   252
370
    18
100
AcDbCircle
 10
9.491426467895507
 20
18.05630302429199
 30
0.0
 40
0.0940000042319298
100
AcDbArc
 50
75.00000053939086
 51
180.0
  0
ARC
  5
27A
330
1C0
100
AcDbEntity
 67
     1
  8
1
  6
Continuous
 62
   252
370
    18
100
AcDbCircle
 10
3.677248954772949
 20
10.51137065887451
 30
0.0
 40
0.4375
100
AcDbArc
 50
225.4572501141745
 51
28.08579847786191
  0
ARC
  5
27B
330
1C0
100
AcDbEntity
 67
     1
  8
1
  6
Continuous
 62
   252
370
    18
100
AcDbCircle
 10
2.989748954772949
 20
10.51137065887451
 30
0.0
 40
0.2400000095367432
100
AcDbArc
 50
120.8728141023908
 51
270.0
  0
ARC
  5
27C
330
1C0
100
AcDbEntity
 67
     1
  8
1
  6
Continuous
 62
   252
370
    18
100
AcDbCircle
 10
12.20974922180176
 20
10.51137065887451
 30
0.0
 40
0.2400000095367432
100
AcDbArc
 50
120.8728141023908
 51
270.0
  0
ARC
  5
27D
330
1C0
100
AcDbEntity
 67
     1
  8
1
  6
Continuous
 62
   252
370
    18
100
AcDbCircle
 10
12.89724922180176
 20
10.51137065887451
 30
0.0
 40
0.4375
100
AcDbArc
 50
225.4572501141745
 51
28.08579847786191
  0
ARC
  5
27E
330
1C0
100
AcDbEntity
 67
     1
  8
1
  6
Continuous
 62
   252
370
    18
100
AcDbCircle
 10
6.969749450683593
 20
10.51137065887451
 30
0.0
 40
0.2400000095367432
100
AcDbArc
 50
120.8728141023908
 51
270.0
  0
ARC
  5
27F
330
1C0
100
AcDbEntity
 67
     1
  8
1
  6
Continuous
 62
   252
370
    18
100
AcDbCircle
 10
7.657249450683593
 20
10.51137065887451
 30
0.0
 40
0.4375
100
AcDbArc
 50
225.4572501141745
 51
28.08579847786191
  0
CIRCLE
  5
280
330
1C0
100
AcDbEntity
 67
     1
  8
1
  6
Continuous
 62
   252
370
    18
100
AcDbCircle
 10
10.27094936370849
 20
11.28137111663818
 30
0.0
 40
0.164000004529953
  0
ARC
  5
281
330
1C0
100
AcDbEntity
 67
     1
  8
1
  6
Continuous
 62
   252
370
    18
100
AcDbCircle
 10
6.459749221801757
 20
9.011370658874511
 30
0.0
 40
0.2400000095367432
100
AcDbArc
 50
90.0
 51
270.0
  0
ARC
  5
282
330
1C0
100
AcDbEntity
 67
     1
  8
1
  6
Continuous
 62
   252
370
    18
100
AcDbCircle
 10
7.147249698638916
 20
9.011370658874511
 30
0.0
 40
0.4375
100
AcDbArc
 50
225.4572501141745
 51
134.5427498858255
  0
ARC
  5
283
330
1C0
100
AcDbEntity
 67
     1
  8
1
  6
Continuous
 62
   252
370
    18
100
AcDbCircle
 10
13.46974945068359
 20
9.011370658874511
 30
0.0
 40
0.2400000095367432
100
AcDbArc
 50
90.0
 51
270.0
  0
ARC
  5
284
330
1C0
100
AcDbEntity
 67
     1
  8
1
  6
Continuous
 62
   252
370
    18
100
AcDbCircle
 10
14.15724945068359
 20
9.011370658874511
 30
0.0
 40
0.4375
100
AcDbArc
 50
225.4572501141745
 51
134.5427498858255
  0
ARC
  5
285
330
1C0
100
AcDbEntity
 67
     1
  8
1
  6
Continuous
 62
   252
370
    18
100
AcDbCircle
 10
3.677248954772949
 20
9.011370658874511
 30
0.0
 40
0.4375
100
AcDbArc
 50
225.4572501141745
 51
134.5427498858255
  0
ARC
  5
286
330
1C0
100
AcDbEntity
 67
     1
  8
1
  6
Continuous
 62
   252
370
    18
100
AcDbCircle
 10
2.989748954772949
 20
9.011370658874511
 30
0.0
 40
0.2400000095367432
100
AcDbArc
 50
90.0
 51
270.0
  0
ARC
  5
287
330
1C0
100
AcDbEntity
 67
     1
  8
1
  6
Continuous
 62
   252
370
    18
100
AcDbCircle
 10
10.27094936370849
 20
11.28137111663818
 30
0.0
 40
1.375
100
AcDbArc
 50
270.0
 51
335.7843761314823
  0
ARC
  5
288
330
1C0
100
AcDbEntity
 67
     1
  8
1
  6
Continuous
 62
   252
370
    18
100
AcDbCircle
 10
10.27094936370849
 20
11.28137111663818
 30
0.0
 40
1.375
100
AcDbArc
 50
204.2156238685177
 51
270.0
  0
ARC
  5
289
330
1C0
100
AcDbEntity
 67
     1
  8
1
  6
Continuous
 62
   252
370
    18
100
AcDbCircle
 10
13.67500877380371
 20
8.521370887756347
 30
0.0
 40
0.25
100
AcDbArc
 50
45.45724894608876
 51
90.0
  0
ARC
  5
28A
330
1C0
100
AcDbEntity
 67
     1
  8
1
  6
Continuous
 62
   252
370
    18
100
AcDbCircle
 10
13.67500877380371
 20
9.501370429992675
 30
0.0
 40
0.25
100
AcDbArc
 50
270.0
 51
314.5427510539113
  0
ARC
  5
28B
330
1C0
100
AcDbEntity
 67
     1
  8
1
  6
Continuous
 62
   252
370
    18
100
AcDbCircle
 10
12.41500854492187
 20
10.02137088775635
 30
0.0
 40
0.25
100
AcDbArc
 50
45.45724894608876
 51
90.0
  0
ARC
  5
28C
330
1C0
100
AcDbEntity
 67
     1
  8
1
  6
Continuous
 62
   252
370
    18
100
AcDbCircle
 10
7.175008296966552
 20
10.02137088775635
 30
0.0
 40
0.25
100
AcDbArc
 50
45.45724894608876
 51
90.0
  0
ARC
  5
28D
330
1C0
100
AcDbEntity
 67
     1
  8
1
  6
Continuous
 62
   252
370
    18
100
AcDbCircle
 10
6.665008068084716
 20
9.501370429992675
 30
0.0
 40
0.25
100
AcDbArc
 50
270.0
 51
314.5427510539113
  0
ARC
  5
28E
330
1C0
100
AcDbEntity
 67
     1
  8
1
  6
Continuous
 62
   252
370
    18
100
AcDbCircle
 10
6.665008068084716
 20
8.521370887756347
 30
0.0
 40
0.25
100
AcDbArc
 50
45.45724894608876
 51
90.0
  0
ARC
  5
28F
330
1C0
100
AcDbEntity
 67
     1
  8
1
  6
Continuous
 62
   252
370
    18
100
AcDbCircle
 10
3.195008277893066
 20
10.02137088775635
 30
0.0
 40
0.25
100
AcDbArc
 50
45.45724894608876
 51
90.0
  0
ARC
  5
290
330
1C0
100
AcDbEntity
 67
     1
  8
1
  6
Continuous
 62
   252
370
    18
100
AcDbCircle
 10
3.195008277893066
 20
8.521370887756347
 30
0.0
 40
0.25
100
AcDbArc
 50
45.45724894608876
 51
90.0
  0
ARC
  5
291
330
1C0
100
AcDbEntity
 67
     1
  8
1
  6
Continuous
 62
   252
370
    18
100
AcDbCircle
 10
3.195008277893066
 20
9.501370429992675
 30
0.0
 40
0.25
100
AcDbArc
 50
270.0
 51
314.5427510539113
  0
ARC
  5
292
330
1C0
100
AcDbEntity
 67
     1
  8
1
  6
Continuous
 62
   252
370
    18
100
AcDbCircle
 10
30.91218757629395
 20
10.51137065887451
 30
0.0
 40
0.4375
100
AcDbArc
 50
45.45725011417445
 51
314.5427498858255
  0
ARC
  5
293
330
1C0
100
AcDbEntity
 67
     1
  8
1
  6
Continuous
 62
   252
370
    18
100
AcDbCircle
 10
31.59968757629395
 20
10.51137065887451
 30
0.0
 40
0.2400000095367432
100
AcDbArc
 50
270.0
 51
90.0
  0
ARC
  5
294
330
1C0
100
AcDbEntity
 67
     1
  8
1
  6
Continuous
 62
   252
370
    18
100
AcDbCircle
 10
31.59968757629395
 20
12.01137065887451
 30
0.0
 40
0.2400000095367432
100
AcDbArc
 50
270.0
 51
90.0
  0
ARC
  5
295
330
1C0
100
AcDbEntity
 67
     1
  8
1
  6
Continuous
 62
   252
370
    18
100
AcDbCircle
 10
30.91218757629395
 20
12.01137065887451
 30
0.0
 40
0.4375
100
AcDbArc
 50
45.45725011417445
 51
314.5427498858255
  0
ARC
  5
296
330
1C0
100
AcDbEntity
 67
     1
  8
1
  6
Continuous
 62
   252
370
    18
100
AcDbCircle
 10
30.91218757629395
 20
13.51137065887451
 30
0.0
 40
0.4375
100
AcDbArc
 50
45.45725011417445
 51
314.5427498858255
  0
ARC
  5
297
330
1C0
100
AcDbEntity
 67
     1
  8
1
  6
Continuous
 62
   252
370
    18
100
AcDbCircle
 10
31.59968757629395
 20
13.51137065887451
 30
0.0
 40
0.2400000095367432
100
AcDbArc
 50
270.0
 51
90.0
  0
ARC
  5
298
330
1C0
100
AcDbEntity
 67
     1
  8
1
  6
Continuous
 62
   252
370
    18
100
AcDbCircle
 10
22.37968635559082
 20
10.51137065887451
 30
0.0
 40
0.2400000095367432
100
AcDbArc
 50
270.0
 51
90.0
  0
ARC
  5
299
330
1C0
100
AcDbEntity
 67
     1
  8
1
  6
Continuous
 62
   252
370
    18
100
AcDbCircle
 10
21.69218635559082
 20
10.51137065887451
 30
0.0
 40
0.4375
100
AcDbArc
 50
45.45725011417445
 51
314.5427498858255
  0
ARC
  5
29A
330
1C0
100
AcDbEntity
 67
     1
  8
1
  6
Continuous
 62
   252
370
    18
100
AcDbCircle
 10
21.11968612670898
 20
12.01137065887451
 30
0.0
 40
0.2400000095367432
100
AcDbArc
 50
270.0
 51
90.0
  0
ARC
  5
29B
330
1C0
100
AcDbEntity
 67
     1
  8
1
  6
Continuous
 62
   252
370
    18
100
AcDbCircle
 10
20.43218612670898
 20
12.01137065887451
 30
0.0
 40
0.4375
100
AcDbArc
 50
45.45725011417445
 51
314.5427498858255
  0
ARC
  5
29C
330
1C0
100
AcDbEntity
 67
     1
  8
1
  6
Continuous
 62
   252
370
    18
100
AcDbCircle
 10
22.37968635559082
 20
13.51137065887451
 30
0.0
 40
0.2400000095367432
100
AcDbArc
 50
270.0
 51
90.0
  0
ARC
  5
29D
330
1C0
100
AcDbEntity
 67
     1
  8
1
  6
Continuous
 62
   252
370
    18
100
AcDbCircle
 10
21.69218635559082
 20
13.51137065887451
 30
0.0
 40
0.4375
100
AcDbArc
 50
45.45725011417445
 51
314.5427498858255
  0
ARC
  5
29E
330
1C0
100
AcDbEntity
 67
     1
  8
1
  6
Continuous
 62
   252
370
    18
100
AcDbCircle
 10
28.12968826293945
 20
12.01137065887451
 30
0.0
 40
0.2400000095367432
100
AcDbArc
 50
270.0
 51
90.0
  0
ARC
  5
29F
330
1C0
100
AcDbEntity
 67
     1
  8
1
  6
Continuous
 62
   252
370
    18
100
AcDbCircle
 10
27.44218826293945
 20
12.01137065887451
 30
0.0
 40
0.4375
100
AcDbArc
 50
45.45725011417445
 51
314.5427498858255
  0
ARC
  5
2A0
330
1C0
100
AcDbEntity
 67
     1
  8
1
  6
Continuous
 62
   252
370
    18
100
AcDbCircle
 10
27.61968803405762
 20
13.51137065887451
 30
0.0
 40
0.2400000095367432
100
AcDbArc
 50
270.0
 51
90.0
  0
ARC
  5
2A1
330
1C0
100
AcDbEntity
 67
     1
  8
1
  6
Continuous
 62
   252
370
    18
100
AcDbCircle
 10
26.93218612670899
 20
13.51137065887451
 30
0.0
 40
0.4375
100
AcDbArc
 50
45.45725011417445
 51
314.5427498858255
  0
ARC
  5
2A2
330
1C0
100
AcDbEntity
 67
     1
  8
1
  6
Continuous
 62
   252
370
    18
100
AcDbCircle
 10
26.93218612670899
 20
10.51137065887451
 30
0.0
 40
0.4375
100
AcDbArc
 50
45.45725011417445
 51
314.5427498858255
  0
ARC
  5
2A3
330
1C0
100
AcDbEntity
 67
     1
  8
1
  6
Continuous
 62
   252
370
    18
100
AcDbCircle
 10
27.61968803405762
 20
10.51137065887451
 30
0.0
 40
0.2400000095367432
100
AcDbArc
 50
270.0
 51
90.0
  0
ARC
  5
2A4
330
1C0
100
AcDbEntity
 67
     1
  8
1
  6
Continuous
 62
   252
370
    18
100
AcDbCircle
 10
27.44218826293945
 20
9.011370658874511
 30
0.0
 40
0.4375
100
AcDbArc
 50
45.45725011417445
 51
314.5427498858255
  0
ARC
  5
2A5
330
1C0
100
AcDbEntity
 67
     1
  8
1
  6
Continuous
 62
   252
370
    18
100
AcDbCircle
 10
28.12968826293945
 20
9.011370658874511
 30
0.0
 40
0.2400000095367432
100
AcDbArc
 50
270.0
 51
90.0
  0
ARC
  5
2A6
330
1C0
100
AcDbEntity
 67
     1
  8
1
  6
Continuous
 62
   252
370
    18
100
AcDbCircle
 10
21.11968612670898
 20
9.011370658874511
 30
0.0
 40
0.2400000095367432
100
AcDbArc
 50
270.0
 51
90.0
  0
ARC
  5
2A7
330
1C0
100
AcDbEntity
 67
     1
  8
1
  6
Continuous
 62
   252
370
    18
100
AcDbCircle
 10
20.43218612670898
 20
9.011370658874511
 30
0.0
 40
0.4375
100
AcDbArc
 50
45.45725011417445
 51
314.5427498858255
  0
ARC
  5
2A8
330
1C0
100
AcDbEntity
 67
     1
  8
1
  6
Continuous
 62
   252
370
    18
100
AcDbCircle
 10
30.91218757629395
 20
9.011370658874511
 30
0.0
 40
0.4375
100
AcDbArc
 50
45.45725011417445
 51
314.5427498858255
  0
ARC
  5
2A9
330
1C0
100
AcDbEntity
 67
     1
  8
1
  6
Continuous
 62
   252
370
    18
100
AcDbCircle
 10
31.59968757629395
 20
9.011370658874511
 30
0.0
 40
0.2400000095367432
100
AcDbArc
 50
270.0
 51
90.0
  0
CIRCLE
  5
2AA
330
1C0
100
AcDbEntity
 67
     1
  8
1
  6
Continuous
 62
   252
370
    18
100
AcDbCircle
 10
24.3184871673584
 20
11.28137111663818
 30
0.0
 40
1.375
  0
CIRCLE
  5
2AB
330
1C0
100
AcDbEntity
 67
     1
  8
1
  6
Continuous
 62
   252
370
    18
100
AcDbCircle
 10
24.3184871673584
 20
11.28137111663818
 30
0.0
 40
0.164000004529953
  0
ARC
  5
2AC
330
1C0
100
AcDbEntity
 67
     1
  8
1
  6
Continuous
 62
   252
370
    18
100
AcDbCircle
 10
31.39442825317383
 20
13.02137088775635
 30
0.0
 40
0.25
100
AcDbArc
 50
90.0
 51
134.5427510539112
  0
ARC
  5
2AD
330
1C0
100
AcDbEntity
 67
     1
  8
1
  6
Continuous
 62
   252
370
    18
100
AcDbCircle
 10
31.39442825317383
 20
14.00137042999267
 30
0.0
 40
0.25
100
AcDbArc
 50
225.4572489460887
 51
270.0
  0
ARC
  5
2AE
330
1C0
100
AcDbEntity
 67
     1
  8
1
  6
Continuous
 62
   252
370
    18
100
AcDbCircle
 10
22.1744270324707
 20
14.00137042999267
 30
0.0
 40
0.25
100
AcDbArc
 50
225.4572489460887
 51
270.0
  0
ARC
  5
2AF
330
1C0
100
AcDbEntity
 67
     1
  8
1
  6
Continuous
 62
   252
370
    18
100
AcDbCircle
 10
22.1744270324707
 20
13.02137088775635
 30
0.0
 40
0.25
100
AcDbArc
 50
90.0
 51
134.5427510539112
  0
ARC
  5
2B0
330
1C0
100
AcDbEntity
 67
     1
  8
1
  6
Continuous
 62
   252
370
    18
100
AcDbCircle
 10
27.41442680358887
 20
10.02137088775635
 30
0.0
 40
0.25
100
AcDbArc
 50
90.0
 51
134.5427510539112
  0
ARC
  5
2B1
330
1C0
100
AcDbEntity
 67
     1
  8
1
  6
Continuous
 62
   252
370
    18
100
AcDbCircle
 10
27.41442680358887
 20
11.00137042999267
 30
0.0
 40
0.25
100
AcDbArc
 50
225.4572489460887
 51
270.0
  0
ARC
  5
2B2
330
1C0
100
AcDbEntity
 67
     1
  8
1
  6
Continuous
 62
   252
370
    18
100
AcDbCircle
 10
31.39442825317383
 20
8.521370887756347
 30
0.0
 40
0.25
100
AcDbArc
 50
90.0
 51
134.5427510539112
  0
ARC
  5
2B3
330
1C0
100
AcDbEntity
 67
     1
  8
1
  6
Continuous
 62
   252
370
    18
100
AcDbCircle
 10
31.39442825317383
 20
9.501370429992675
 30
0.0
 40
0.25
100
AcDbArc
 50
225.4572489460887
 51
270.0
  0
ARC
  5
2B4
330
1C0
100
AcDbEntity
 67
     1
  8
1
  6
Continuous
 62
   252
370
    18
100
AcDbCircle
 10
20.91442680358887
 20
11.52137088775635
 30
0.0
 40
0.25
100
AcDbArc
 50
90.0
 51
134.5427510539112
  0
ARC
  5
2B5
330
1C0
100
AcDbEntity
 67
     1
  8
1
  6
Continuous
 62
   252
370
    18
100
AcDbCircle
 10
20.91442680358887
 20
12.50137042999267
 30
0.0
 40
0.25
100
AcDbArc
 50
225.4572489460887
 51
270.0
  0
ARC
  5
2B6
330
1C0
100
AcDbEntity
 67
     1
  8
1
  6
Continuous
 62
   252
370
    18
100
AcDbCircle
 10
20.91442680358887
 20
8.521370887756347
 30
0.0
 40
0.25
100
AcDbArc
 50
90.0
 51
134.5427510539112
  0
ARC
  5
2B7
330
1C0
100
AcDbEntity
 67
     1
  8
1
  6
Continuous
 62
   252
370
    18
100
AcDbCircle
 10
20.91442680358887
 20
9.501370429992675
 30
0.0
 40
0.25
100
AcDbArc
 50
225.4572489460887
 51
270.0
  0
ARC
  5
2B8
330
1C0
100
AcDbEntity
 67
     1
  8
1
  6
Continuous
 62
   252
370
    18
100
AcDbCircle
 10
22.1744270324707
 20
11.00137042999267
 30
0.0
 40
0.25
100
AcDbArc
 50
225.4572489460887
 51
270.0
  0
ARC
  5
2B9
330
1C0
100
AcDbEntity
 67
     1
  8
1
  6
Continuous
 62
   252
370
    18
100
AcDbCircle
 10
22.1744270324707
 20
10.02137088775635
 30
0.0
 40
0.25
100
AcDbArc
 50
90.0
 51
134.5427510539112
  0
ARC
  5
2BA
330
1C0
100
AcDbEntity
 67
     1
  8
1
  6
Continuous
 62
   252
370
    18
100
AcDbCircle
 10
27.41442680358887
 20
14.00137042999267
 30
0.0
 40
0.25
100
AcDbArc
 50
225.4572489460887
 51
270.0
  0
ARC
  5
2BB
330
1C0
100
AcDbEntity
 67
     1
  8
1
  6
Continuous
 62
   252
370
    18
100
AcDbCircle
 10
27.41442680358887
 20
13.02137088775635
 30
0.0
 40
0.25
100
AcDbArc
 50
90.0
 51
134.5427510539112
  0
ARC
  5
2BC
330
1C0
100
AcDbEntity
 67
     1
  8
1
  6
Continuous
 62
   252
370
    18
100
AcDbCircle
 10
27.92442703247071
 20
12.50137042999267
 30
0.0
 40
0.25
100
AcDbArc
 50
225.4572489460887
 51
270.0
  0
ARC
  5
2BD
330
1C0
100
AcDbEntity
 67
     1
  8
1
  6
Continuous
 62
   252
370
    18
100
AcDbCircle
 10
27.92442703247071
 20
11.52137088775635
 30
0.0
 40
0.25
100
AcDbArc
 50
90.0
 51
134.5427510539112
  0
ARC
  5
2BE
330
1C0
100
AcDbEntity
 67
     1
  8
1
  6
Continuous
 62
   252
370
    18
100
AcDbCircle
 10
27.92442703247071
 20
9.501370429992675
 30
0.0
 40
0.25
100
AcDbArc
 50
225.4572489460887
 51
270.0
  0
ARC
  5
2BF
330
1C0
100
AcDbEntity
 67
     1
  8
1
  6
Continuous
 62
   252
370
    18
100
AcDbCircle
 10
27.92442703247071
 20
8.521370887756347
 30
0.0
 40
0.25
100
AcDbArc
 50
90.0
 51
134.5427510539112
  0
ARC
  5
2C0
330
1C0
100
AcDbEntity
 67
     1
  8
1
  6
Continuous
 62
   252
370
    18
100
AcDbCircle
 10
31.39442825317383
 20
12.50137042999267
 30
0.0
 40
0.25
100
AcDbArc
 50
225.4572489460887
 51
270.0
  0
ARC
  5
2C1
330
1C0
100
AcDbEntity
 67
     1
  8
1
  6
Continuous
 62
   252
370
    18
100
AcDbCircle
 10
31.39442825317383
 20
11.52137088775635
 30
0.0
 40
0.25
100
AcDbArc
 50
90.0
 51
134.5427510539112
  0
ARC
  5
2C2
330
1C0
100
AcDbEntity
 67
     1
  8
1
  6
Continuous
 62
   252
370
    18
100
AcDbCircle
 10
31.39442825317383
 20
10.02137088775635
 30
0.0
 40
0.25
100
AcDbArc
 50
90.0
 51
134.5427510539112
  0
ARC
  5
2C3
330
1C0
100
AcDbEntity
 67
     1
  8
1
  6
Continuous
 62
   252
370
    18
100
AcDbCircle
 10
31.39442825317383
 20
11.00137042999267
 30
0.0
 40
0.25
100
AcDbArc
 50
225.4572489460887
 51
270.0
  0
SPLINE
  5
2C4
330
1C0
100
AcDbEntity
 67
     1
  8
1
  6
Continuous
 62
   252
370
    18
100
AcDbSpline
210
0.0
220
0.0
230
1.0
 70
    24
 71
     1
 72
     6
 73
     4
 74
     0
 42
0.000000001
 43
0.0000000001
 40
0.0
 40
0.0
 40
0.5877861273678013
 40
0.8090175572254734
 40
1.0
 40
1.0
 10
17.9378047963321
 20
14.30487013805032
 30
0.0
 10
17.99305707631583
 20
14.30487013805032
 30
0.0
 10
18.01385297525689
 20
14.30487013805032
 30
0.0
 10
18.03180544964994
 20
14.30487013805032
 30
0.0
  0
SPLINE
  5
2C5
330
1C0
100
AcDbEntity
 67
     1
  8
1
  6
Continuous
 62
   252
370
    18
100
AcDbSpline
210
0.0
220
0.0
230
1.0
 70
    24
 71
     1
 72
     6
 73
     4
 74
     0
 42
0.000000001
 43
0.0000000001
 40
0.0
 40
0.0
 40
0.0489489905461094
 40
0.4122138726321987
 40
1.0
 40
1.0
 10
18.03180544964994
 20
8.123870639422875
 30
0.0
 10
18.02720421255935
 20
8.123870639422875
 30
0.0
 10
17.99305707631583
 20
8.123870639422875
 30
0.0
 10
17.9378047963321
 20
8.123870639422875
 30
0.0
  0
SPLINE
  5
2C6
330
1C0
100
AcDbEntity
 67
     1
  8
1
  6
Continuous
 62
   252
370
    18
100
AcDbSpline
210
0.0
220
0.0
230
1.0
 70
    24
 71
     1
 72
     5
 73
     3
 74
     0
 42
0.000000001
 43
0.0000000001
 40
0.0
 40
0.0
 40
0.1340060763888889
 40
1.0
 40
1.0
 10
16.65380574180335
 20
11.43137071951196
 30
0.0
 10
16.64978555941434
 20
11.43137071951196
 30
0.0
 10
16.62380574107692
 20
11.43137071951196
 30
0.0
  0
SPLINE
  5
2C7
330
1C0
100
AcDbEntity
 67
     1
  8
1
  6
Continuous
 62
   252
370
    18
100
AcDbSpline
210
0.0
220
0.0
230
1.0
 70
    24
 71
     1
 72
     5
 73
     3
 74
     0
 42
0.000000001
 43
0.0000000001
 40
0.0
 40
0.0
 40
0.5
 40
1.0
 40
1.0
 10
16.62380574107692
 20
11.13137071224764
 30
0.0
 10
16.63880574144014
 20
11.13137071224764
 30
0.0
 10
16.65380574180335
 20
11.13137071224764
 30
0.0
  0
SPLINE
  5
2C8
330
1C0
100
AcDbEntity
 67
     1
  8
1
  6
Continuous
 62
   252
370
    18
100
AcDbSpline
210
0.0
220
0.0
230
1.0
 70
    24
 71
     1
 72
     6
 73
     4
 74
     0
 42
0.000000001
 43
0.0000000001
 40
0.0
 40
0.0
 40
0.0489498381036483
 40
0.4122210101639742
 40
1.0
 40
1.0
 10
16.47680541199656
 20
11.43137071951196
 30
0.0
 10
16.48140664908715
 20
11.43137071951196
 30
0.0
 10
16.51555378533067
 20
11.43137071951196
 30
0.0
 10
16.57080443771019
 20
11.43137071951196
 30
0.0
  0
SPLINE
  5
2C9
330
1C0
100
AcDbEntity
 67
     1
  8
1
  6
Continuous
 62
   252
370
    18
100
AcDbSpline
210
0.0
220
0.0
230
1.0
 70
    24
 71
     1
 72
     6
 73
     4
 74
     0
 42
0.000000001
 43
0.0000000001
 40
0.0
 40
0.0
 40
0.3090055927830589
 40
0.8090142503419736
 40
1.0
 40
1.0
 10
16.57080443771019
 20
11.13137071224764
 30
0.0
 10
16.54175821304852
 20
11.13137071224764
 30
0.0
 10
16.49475788638961
 20
11.13137071224764
 30
0.0
 10
16.47680541199656
 20
11.13137071224764
 30
0.0
  0
SPLINE
  5
2CA
330
1C0
100
AcDbEntity
 67
     1
  8
1
  6
Continuous
 62
   252
370
    18
100
AcDbSpline
210
0.0
220
0.0
230
1.0
 70
    24
 71
     1
 72
     6
 73
     4
 74
     0
 42
0.000000001
 43
0.0000000001
 40
0.0
 40
0.0
 40
0.5877861273678013
 40
0.8090175572254734
 40
1.0
 40
1.0
 10
14.93774938514593
 20
16.68930378953791
 30
0.0
 10
14.93774938514593
 20
16.63405150955418
 30
0.0
 10
14.93774938514593
 20
16.61325561061312
 30
0.0
 10
14.93774938514593
 20
16.59530313622008
 30
0.0
  0
SPLINE
  5
2CB
330
1C0
100
AcDbEntity
 67
     1
  8
1
  6
Continuous
 62
   252
370
    18
100
AcDbSpline
210
0.0
220
0.0
230
1.0
 70
    24
 71
     1
 72
     6
 73
     4
 74
     0
 42
0.000000001
 43
0.0000000001
 40
0.0
 40
0.0
 40
0.0489489905461094
 40
0.4122138726321987
 40
1.0
 40
1.0
 10
2.545748963010936
 20
16.59530313622008
 30
0.0
 10
2.545748963010936
 20
16.59990437331066
 30
0.0
 10
2.545748963010936
 20
16.63405150955418
 30
0.0
 10
2.545748963010936
 20
16.68930378953791
 30
0.0
  0
SPLINE
  5
2CC
330
1C0
100
AcDbEntity
 67
     1
  8
1
  6
Continuous
 62
   252
370
    18
100
AcDbSpline
210
0.0
220
0.0
230
1.0
 70
    24
 71
     1
 72
     7
 73
     5
 74
     0
 42
0.000000001
 43
0.0000000001
 40
0.0
 40
0.0
 40
0.2588266225961538
 40
0.7071063701923077
 40
0.8660231370192306
 40
1.0
 40
1.0
 10
14.96774938587236
 20
17.84330284091879
 30
0.0
 10
14.96774938587236
 20
17.87695030267105
 30
0.0
 10
14.96774938587236
 20
17.93522667126967
 30
0.0
 10
14.96774938587236
 20
17.95588585145742
 30
0.0
 10
14.96774938587236
 20
17.97330284406666
 30
0.0
  0
SPLINE
  5
2CD
330
1C0
100
AcDbEntity
 67
     1
  8
1
  6
Continuous
 62
   252
370
    18
100
AcDbSpline
210
0.0
220
0.0
230
1.0
 70
    24
 71
     1
 72
     6
 73
     4
 74
     0
 42
0.000000001
 43
0.0000000001
 40
0.0
 40
0.0
 40
0.1339768629807692
 40
0.5
 40
1.0
 40
1.0
 10
15.03175003846377
 20
17.97330284406666
 30
0.0
 10
15.03175003846377
 20
17.95588585145742
 30
0.0
 10
15.03175003846377
 20
17.90830284249273
 30
0.0
 10
15.03175003846377
 20
17.84330284091879
 30
0.0
  0
SPLINE
  5
2CE
330
1C0
100
AcDbEntity
 67
     1
  8
1
  6
Continuous
 62
   252
370
    18
100
AcDbSpline
210
0.0
220
0.0
230
1.0
 70
    24
 71
     1
 72
     6
 73
     4
 74
     0
 42
0.000000001
 43
0.0000000001
 40
0.0
 40
0.0
 40
0.1339768629807692
 40
0.5
 40
1.0
 40
1.0
 10
2.515748962284504
 20
17.97330284406666
 30
0.0
 10
2.515748962284504
 20
17.95588585145742
 30
0.0
 10
2.515748962284504
 20
17.90830284249273
 30
0.0
 10
2.515748962284504
 20
17.84330284091879
 30
0.0
  0
SPLINE
  5
2CF
330
1C0
100
AcDbEntity
 67
     1
  8
1
  6
Continuous
 62
   252
370
    18
100
AcDbSpline
210
0.0
220
0.0
230
1.0
 70
    24
 71
     1
 72
     7
 73
     5
 74
     0
 42
0.000000001
 43
0.0000000001
 40
0.0
 40
0.0
 40
0.2588266225961538
 40
0.7071063701923077
 40
0.9659329927884614
 40
1.0
 40
1.0
 10
2.451749123495204
 20
17.84330284091879
 30
0.0
 10
2.451749123495204
 20
17.87695030267105
 30
0.0
 10
2.451749123495204
 20
17.93522667126967
 30
0.0
 10
2.451749123495204
 20
17.96887413302193
 30
0.0
 10
2.451749123495204
 20
17.97330284406666
 30
0.0
  0
SPLINE
  5
2D0
330
1C0
100
AcDbEntity
 67
     1
  8
1
  6
Continuous
 62
   252
370
    18
100
AcDbSpline
210
0.0
220
0.0
230
1.0
 70
    24
 71
     1
 72
     6
 73
     4
 74
     0
 42
0.000000001
 43
0.0000000001
 40
0.0
 40
0.0
 40
0.5877789898360259
 40
0.9510674770141809
 40
1.0
 40
1.0
 10
14.93774938514593
 20
17.87930381835304
 30
0.0
 10
14.93774938514593
 20
17.93455447073256
 30
0.0
 10
14.93774938514593
 20
17.96870323458029
 30
0.0
 10
14.93774938514593
 20
17.97330284406666
 30
0.0
  0
SPLINE
  5
2D1
330
1C0
100
AcDbEntity
 67
     1
  8
1
  6
Continuous
 62
   252
370
    18
100
AcDbSpline
210
0.0
220
0.0
230
1.0
 70
    24
 71
     1
 72
     6
 73
     4
 74
     0
 42
0.000000001
 43
0.0000000001
 40
0.0
 40
0.0
 40
0.5877789898360259
 40
0.9510674770141809
 40
1.0
 40
1.0
 10
2.545748963010936
 20
17.87930381835304
 30
0.0
 10
2.545748963010936
 20
17.93455447073256
 30
0.0
 10
2.545748963010936
 20
17.96870323458029
 30
0.0
 10
2.545748963010936
 20
17.97330284406666
 30
0.0
  0
SPLINE
  5
2D2
330
1C0
100
AcDbEntity
 67
     1
  8
1
  6
Continuous
 62
   252
370
    18
100
AcDbSpline
210
0.0
220
0.0
230
1.0
 70
    24
 71
     1
 72
     6
 73
     4
 74
     0
 42
0.000000001
 43
0.0000000001
 40
0.0
 40
0.0
 40
0.1339643429487179
 40
0.5
 40
1.0
 40
1.0
 10
15.03175003846377
 20
14.30487013805032
 30
0.0
 10
15.03175003846377
 20
14.28745477304528
 30
0.0
 10
15.03175003846377
 20
14.23987013647638
 30
0.0
 10
15.03175003846377
 20
14.17487013490245
 30
0.0
  0
SPLINE
  5
2D3
330
1C0
100
AcDbEntity
 67
     1
  8
1
  6
Continuous
 62
   252
370
    18
100
AcDbSpline
210
0.0
220
0.0
230
1.0
 70
    24
 71
     1
 72
     7
 73
     5
 74
     0
 42
0.000000001
 43
0.0000000001
 40
0.0
 40
0.0
 40
0.2588266225961538
 40
0.7071063701923077
 40
0.9659329927884614
 40
1.0
 40
1.0
 10
14.96774938587236
 20
14.17487013490245
 30
0.0
 10
14.96774938587236
 20
14.2085175966547
 30
0.0
 10
14.96774938587236
 20
14.26679396525333
 30
0.0
 10
14.96774938587236
 20
14.30044142700558
 30
0.0
 10
14.96774938587236
 20
14.30487013805032
 30
0.0
  0
SPLINE
  5
2D4
330
1C0
100
AcDbEntity
 67
     1
  8
1
  6
Continuous
 62
   252
370
    18
100
AcDbSpline
210
0.0
220
0.0
230
1.0
 70
    24
 71
     1
 72
     7
 73
     5
 74
     0
 42
0.000000001
 43
0.0000000001
 40
0.0
 40
0.0
 40
0.2588266225961538
 40
0.7071063701923077
 40
0.9659329927884614
 40
1.0
 40
1.0
 10
2.451749123495204
 20
14.17487013490245
 30
0.0
 10
2.451749123495204
 20
14.2085175966547
 30
0.0
 10
2.451749123495204
 20
14.26679396525333
 30
0.0
 10
2.451749123495204
 20
14.30044142700558
 30
0.0
 10
2.451749123495204
 20
14.30487013805032
 30
0.0
  0
SPLINE
  5
2D5
330
1C0
100
AcDbEntity
 67
     1
  8
1
  6
Continuous
 62
   252
370
    18
100
AcDbSpline
210
0.0
220
0.0
230
1.0
 70
    24
 71
     1
 72
     6
 73
     4
 74
     0
 42
0.000000001
 43
0.0000000001
 40
0.0
 40
0.0
 40
0.1339643429487179
 40
0.5
 40
1.0
 40
1.0
 10
2.515748962284504
 20
14.30487013805032
 30
0.0
 10
2.515748962284504
 20
14.28745477304528
 30
0.0
 10
2.515748962284504
 20
14.23987013647638
 30
0.0
 10
2.515748962284504
 20
14.17487013490245
 30
0.0
  0
SPLINE
  5
2D6
330
1C0
100
AcDbEntity
 67
     1
  8
1
  6
Continuous
 62
   252
370
    18
100
AcDbSpline
210
0.0
220
0.0
230
1.0
 70
    24
 71
     1
 72
     7
 73
     5
 74
     0
 42
0.000000001
 43
0.0000000001
 40
0.0
 40
0.0
 40
0.2588203625801282
 40
0.7071063701923077
 40
0.9659267327724359
 40
1.0
 40
1.0
 10
15.03175003846377
 20
8.253870642570745
 30
0.0
 10
15.03175003846377
 20
8.220223994620596
 30
0.0
 10
15.03175003846377
 20
8.161946812219866
 30
0.0
 10
15.03175003846377
 20
8.128300164269717
 30
0.0
 10
15.03175003846377
 20
8.123870639422875
 30
0.0
  0
SPLINE
  5
2D7
330
1C0
100
AcDbEntity
 67
     1
  8
1
  6
Continuous
 62
   252
370
    18
100
AcDbSpline
210
0.0
220
0.0
230
1.0
 70
    24
 71
     1
 72
     6
 73
     4
 74
     0
 42
0.000000001
 43
0.0000000001
 40
0.0
 40
0.0
 40
0.1339768629807692
 40
0.5
 40
1.0
 40
1.0
 10
14.96774938587236
 20
8.123870639422875
 30
0.0
 10
14.96774938587236
 20
8.141287632032117
 30
0.0
 10
14.96774938587236
 20
8.18887064099681
 30
0.0
 10
14.96774938587236
 20
8.253870642570745
 30
0.0
  0
SPLINE
  5
2D8
330
1C0
100
AcDbEntity
 67
     1
  8
1
  6
Continuous
 62
   252
370
    18
100
AcDbSpline
210
0.0
220
0.0
230
1.0
 70
    24
 71
     1
 72
     7
 73
     5
 74
     0
 42
0.000000001
 43
0.0000000001
 40
0.0
 40
0.0
 40
0.0340732672275641
 40
0.2928936298076923
 40
0.7411796374198718
 40
1.0
 40
1.0
 10
2.451749123495204
 20
8.123870639422875
 30
0.0
 10
2.451749123495204
 20
8.128300164269717
 30
0.0
 10
2.451749123495204
 20
8.161946812219866
 30
0.0
 10
2.451749123495204
 20
8.220223994620596
 30
0.0
 10
2.451749123495204
 20
8.253870642570745
 30
0.0
  0
SPLINE
  5
2D9
330
1C0
100
AcDbEntity
 67
     1
  8
1
  6
Continuous
 62
   252
370
    18
100
AcDbSpline
210
0.0
220
0.0
230
1.0
 70
    24
 71
     1
 72
     7
 73
     5
 74
     0
 42
0.000000001
 43
0.0000000001
 40
0.0
 40
0.0
 40
0.2588203625801282
 40
0.7071063701923077
 40
0.9659267327724359
 40
1.0
 40
1.0
 10
2.515748962284504
 20
8.253870642570745
 30
0.0
 10
2.515748962284504
 20
8.220223994620596
 30
0.0
 10
2.515748962284504
 20
8.161946812219866
 30
0.0
 10
2.515748962284504
 20
8.128300164269717
 30
0.0
 10
2.515748962284504
 20
8.123870639422875
 30
0.0
  0
SPLINE
  5
2DA
330
1C0
100
AcDbEntity
 67
     1
  8
1
  6
Continuous
 62
   252
370
    18
100
AcDbSpline
210
0.0
220
0.0
230
1.0
 70
    24
 71
     1
 72
     5
 73
     3
 74
     0
 42
0.000000001
 43
0.0000000001
 40
0.0
 40
0.0
 40
0.1339518229166666
 40
1.0
 40
1.0
 10
14.96774938587236
 20
14.30487013805032
 30
0.0
 10
14.96373083108756
 20
14.30487013805032
 30
0.0
 10
14.93774938514593
 20
14.30487013805032
 30
0.0
  0
SPLINE
  5
2DB
330
1C0
100
AcDbEntity
 67
     1
  8
1
  6
Continuous
 62
   252
370
    18
100
AcDbSpline
210
0.0
220
0.0
230
1.0
 70
    24
 71
     1
 72
     5
 73
     3
 74
     0
 42
0.000000001
 43
0.0000000001
 40
0.0
 40
0.0
 40
0.5
 40
1.0
 40
1.0
 10
2.515748962284504
 20
8.123870639422875
 30
0.0
 10
2.53074896264772
 20
8.123870639422875
 30
0.0
 10
2.545748963010936
 20
8.123870639422875
 30
0.0
  0
SPLINE
  5
2DC
330
1C0
100
AcDbEntity
 67
     1
  8
1
  6
Continuous
 62
   252
370
    18
100
AcDbSpline
210
0.0
220
0.0
230
1.0
 70
    24
 71
     1
 72
     5
 73
     3
 74
     0
 42
0.000000001
 43
0.0000000001
 40
0.0
 40
0.0
 40
0.5
 40
1.0
 40
1.0
 10
2.545748963010936
 20
14.30487013805032
 30
0.0
 10
2.53074896264772
 20
14.30487013805032
 30
0.0
 10
2.515748962284504
 20
14.30487013805032
 30
0.0
  0
SPLINE
  5
2DD
330
1C0
100
AcDbEntity
 67
     1
  8
1
  6
Continuous
 62
   252
370
    18
100
AcDbSpline
210
0.0
220
0.0
230
1.0
 70
    24
 71
     1
 72
     6
 73
     4
 74
     0
 42
0.000000001
 43
0.0000000001
 40
0.0
 40
0.0
 40
0.0489489905461094
 40
0.4122138726321987
 40
1.0
 40
1.0
 10
2.545748963010936
 20
14.39887079136815
 30
0.0
 10
2.545748963010936
 20
14.39426955427757
 30
0.0
 10
2.545748963010936
 20
14.36012241803405
 30
0.0
 10
2.545748963010936
 20
14.30487013805032
 30
0.0
  0
SPLINE
  5
2DE
330
1C0
100
AcDbEntity
 67
     1
  8
1
  6
Continuous
 62
   252
370
    18
100
AcDbSpline
210
0.0
220
0.0
230
1.0
 70
    24
 71
     1
 72
     6
 73
     4
 74
     0
 42
0.000000001
 43
0.0000000001
 40
0.0
 40
0.0
 40
0.0489489905461094
 40
0.4122138726321987
 40
1.0
 40
1.0
 10
14.93774938514593
 20
14.39887079136815
 30
0.0
 10
14.93774938514593
 20
14.39426955427757
 30
0.0
 10
14.93774938514593
 20
14.36012241803405
 30
0.0
 10
14.93774938514593
 20
14.30487013805032
 30
0.0
  0
SPLINE
  5
2DF
330
1C0
100
AcDbEntity
 67
     1
  8
1
  6
Continuous
 62
   252
370
    18
100
AcDbSpline
210
0.0
220
0.0
230
1.0
 70
    24
 71
     1
 72
     5
 73
     3
 74
     0
 42
0.000000001
 43
0.0000000001
 40
0.0
 40
0.0
 40
0.5
 40
1.0
 40
1.0
 10
14.93774938514593
 20
8.123870639422875
 30
0.0
 10
14.95274938550915
 20
8.123870639422875
 30
0.0
 10
14.96774938587236
 20
8.123870639422875
 30
0.0
  0
SPLINE
  5
2E0
330
1C0
100
AcDbEntity
 67
     1
  8
1
  6
Continuous
 62
   252
370
    18
100
AcDbSpline
210
0.0
220
0.0
230
1.0
 70
    24
 71
     1
 72
     7
 73
     5
 74
     0
 42
0.000000001
 43
0.0000000001
 40
0.0
 40
0.0
 40
0.0367670320903426
 40
0.3108004016450943
 40
0.7597488342663788
 40
1.0
 40
1.0
 10
11.58607124409127
 20
11.13137071224764
 30
0.0
 10
11.58172065804842
 20
11.13137071224764
 30
0.0
 10
11.54929471325283
 20
11.13137071224764
 30
0.0
 10
11.49617133957065
 20
11.13137071224764
 30
0.0
 10
11.46774279070519
 20
11.13137071224764
 30
0.0
  0
SPLINE
  5
2E1
330
1C0
100
AcDbEntity
 67
     1
  8
1
  6
Continuous
 62
   252
370
    18
100
AcDbSpline
210
0.0
220
0.0
230
1.0
 70
    24
 71
     1
 72
     7
 73
     5
 74
     0
 42
0.000000001
 43
0.0000000001
 40
0.0
 40
0.0
 40
0.2402511657336213
 40
0.6891995983549057
 40
0.9632329679096574
 40
1.0
 40
1.0
 10
11.46774279070519
 20
11.43137071951196
 30
0.0
 10
11.49617133957065
 20
11.43137071951196
 30
0.0
 10
11.54929471325283
 20
11.43137071951196
 30
0.0
 10
11.58172065804842
 20
11.43137071951196
 30
0.0
 10
11.58607124409127
 20
11.43137071951196
 30
0.0
  0
SPLINE
  5
2E2
330
1C0
100
AcDbEntity
 67
     1
  8
1
  6
Continuous
 62
   252
370
    18
100
AcDbSpline
210
0.0
220
0.0
230
1.0
 70
    24
 71
     1
 72
     7
 73
     5
 74
     0
 42
0.000000001
 43
0.0000000001
 40
0.0
 40
0.0
 40
0.2402511657336213
 40
0.6891995983549057
 40
0.9632329679096574
 40
1.0
 40
1.0
 10
7.967742705954833
 20
11.43137071951196
 30
0.0
 10
7.996171254820296
 20
11.43137071951196
 30
0.0
 10
8.04929462850248
 20
11.43137071951196
 30
0.0
 10
8.081720573298071
 20
11.43137071951196
 30
0.0
 10
8.086071159340917
 20
11.43137071951196
 30
0.0
  0
SPLINE
  5
2E3
330
1C0
100
AcDbEntity
 67
     1
  8
1
  6
Continuous
 62
   252
370
    18
100
AcDbSpline
210
0.0
220
0.0
230
1.0
 70
    24
 71
     1
 72
     7
 73
     5
 74
     0
 42
0.000000001
 43
0.0000000001
 40
0.0
 40
0.0
 40
0.0367670320903426
 40
0.3108004016450943
 40
0.7597488342663788
 40
1.0
 40
1.0
 10
8.086071159340917
 20
11.13137071224764
 30
0.0
 10
8.081720573298071
 20
11.13137071224764
 30
0.0
 10
8.04929462850248
 20
11.13137071224764
 30
0.0
 10
7.996171254820296
 20
11.13137071224764
 30
0.0
 10
7.967742705954833
 20
11.13137071224764
 30
0.0
  0
SPLINE
  5
2E4
330
1C0
100
AcDbEntity
 67
     1
  8
1
  6
Continuous
 62
   252
370
    18
100
AcDbSpline
210
0.0
220
0.0
230
1.0
 70
    24
 71
     1
 72
     4
 73
     2
 74
     0
 42
0.000000001
 43
0.0000000001
 40
0.0
 40
0.0
 40
1.0
 40
1.0
 10
11.30886664753518
 20
11.13137071224764
 30
0.0
 10
11.32439561926537
 20
11.13137071224764
 30
0.0
  0
SPLINE
  5
2E5
330
1C0
100
AcDbEntity
 67
     1
  8
1
  6
Continuous
 62
   252
370
    18
100
AcDbSpline
210
0.0
220
0.0
230
1.0
 70
    24
 71
     1
 72
     4
 73
     2
 74
     0
 42
0.000000001
 43
0.0000000001
 40
0.0
 40
0.0
 40
1.0
 40
1.0
 10
11.32439561926537
 20
11.43137071951196
 30
0.0
 10
11.30886664753518
 20
11.43137071951196
 30
0.0
  0
SPLINE
  5
2E6
330
1C0
100
AcDbEntity
 67
     1
  8
1
  6
Continuous
 62
   252
370
    18
100
AcDbSpline
210
0.0
220
0.0
230
1.0
 70
    24
 71
     1
 72
     4
 73
     2
 74
     0
 42
0.000000001
 43
0.0000000001
 40
0.0
 40
0.0
 40
1.0
 40
1.0
 10
7.824395534515019
 20
11.43137071951196
 30
0.0
 10
7.808866562784828
 20
11.43137071951196
 30
0.0
  0
SPLINE
  5
2E7
330
1C0
100
AcDbEntity
 67
     1
  8
1
  6
Continuous
 62
   252
370
    18
100
AcDbSpline
210
0.0
220
0.0
230
1.0
 70
    24
 71
     1
 72
     4
 73
     2
 74
     0
 42
0.000000001
 43
0.0000000001
 40
0.0
 40
0.0
 40
1.0
 40
1.0
 10
7.808866562784828
 20
11.13137071224764
 30
0.0
 10
7.824395534515019
 20
11.13137071224764
 30
0.0
  0
SPLINE
  5
2E8
330
1C0
100
AcDbEntity
 67
     1
  8
1
  6
Continuous
 62
   252
370
    18
100
AcDbSpline
210
0.0
220
0.0
230
1.0
 70
    24
 71
     1
 72
     5
 73
     3
 74
     0
 42
0.000000001
 43
0.0000000001
 40
0.0
 40
0.0
 40
0.5
 40
1.0
 40
1.0
 10
11.58607124409127
 20
11.13137071224764
 30
0.0
 10
11.60107124445449
 20
11.13137071224764
 30
0.0
 10
11.6160712448177
 20
11.13137071224764
 30
0.0
  0
SPLINE
  5
2E9
330
1C0
100
AcDbEntity
 67
     1
  8
1
  6
Continuous
 62
   252
370
    18
100
AcDbSpline
210
0.0
220
0.0
230
1.0
 70
    24
 71
     1
 72
     5
 73
     3
 74
     0
 42
0.000000001
 43
0.0000000001
 40
0.0
 40
0.0
 40
0.5
 40
1.0
 40
1.0
 10
11.6160712448177
 20
11.43137071951196
 30
0.0
 10
11.60107124445449
 20
11.43137071951196
 30
0.0
 10
11.58607124409127
 20
11.43137071951196
 30
0.0
  0
SPLINE
  5
2EA
330
1C0
100
AcDbEntity
 67
     1
  8
1
  6
Continuous
 62
   252
370
    18
100
AcDbSpline
210
0.0
220
0.0
230
1.0
 70
    24
 71
     1
 72
     5
 73
     3
 74
     0
 42
0.000000001
 43
0.0000000001
 40
0.0
 40
0.0
 40
0.5
 40
1.0
 40
1.0
 10
8.116071160067349
 20
11.43137071951196
 30
0.0
 10
8.101071159704133
 20
11.43137071951196
 30
0.0
 10
8.086071159340917
 20
11.43137071951196
 30
0.0
  0
SPLINE
  5
2EB
330
1C0
100
AcDbEntity
 67
     1
  8
1
  6
Continuous
 62
   252
370
    18
100
AcDbSpline
210
0.0
220
0.0
230
1.0
 70
    24
 71
     1
 72
     5
 73
     3
 74
     0
 42
0.000000001
 43
0.0000000001
 40
0.0
 40
0.0
 40
0.5
 40
1.0
 40
1.0
 10
8.086071159340917
 20
11.13137071224764
 30
0.0
 10
8.101071159704133
 20
11.13137071224764
 30
0.0
 10
8.116071160067349
 20
11.13137071224764
 30
0.0
  0
SPLINE
  5
2EC
330
1C0
100
AcDbEntity
 67
     1
  8
1
  6
Continuous
 62
   252
370
    18
100
AcDbSpline
210
0.0
220
0.0
230
1.0
 70
    24
 71
     1
 72
     6
 73
     4
 74
     0
 42
0.000000001
 43
0.0000000001
 40
0.0
 40
0.0
 40
0.0489489905461094
 40
0.4122138726321987
 40
1.0
 40
1.0
 10
32.04368567175152
 20
14.39887079136815
 30
0.0
 10
32.04368567175152
 20
14.39426955427757
 30
0.0
 10
32.04368567175152
 20
14.36012241803405
 30
0.0
 10
32.04368567175152
 20
14.30487013805032
 30
0.0
  0
SPLINE
  5
2ED
330
1C0
100
AcDbEntity
 67
     1
  8
1
  6
Continuous
 62
   252
370
    18
100
AcDbSpline
210
0.0
220
0.0
230
1.0
 70
    24
 71
     1
 72
     6
 73
     4
 74
     0
 42
0.000000001
 43
0.0000000001
 40
0.0
 40
0.0
 40
0.3090175572254736
 40
0.8090175572254734
 40
1.0
 40
1.0
 10
19.6516866737702
 20
14.30487013805032
 30
0.0
 10
19.6516866737702
 20
14.33391799031619
 30
0.0
 10
19.6516866737702
 20
14.38091831697511
 30
0.0
 10
19.6516866737702
 20
14.39887079136815
 30
0.0
  0
SPLINE
  5
2EE
330
1C0
100
AcDbEntity
 67
     1
  8
1
  6
Continuous
 62
   252
370
    18
100
AcDbSpline
210
0.0
220
0.0
230
1.0
 70
    24
 71
     1
 72
     6
 73
     4
 74
     0
 42
0.000000001
 43
0.0000000001
 40
0.0
 40
0.0
 40
0.0489489905461094
 40
0.4122138726321987
 40
1.0
 40
1.0
 10
19.55768602045236
 20
14.30487013805032
 30
0.0
 10
19.56228725754295
 20
14.30487013805032
 30
0.0
 10
19.59643439378647
 20
14.30487013805032
 30
0.0
 10
19.6516866737702
 20
14.30487013805032
 30
0.0
  0
SPLINE
  5
2EF
330
1C0
100
AcDbEntity
 67
     1
  8
1
  6
Continuous
 62
   252
370
    18
100
AcDbSpline
210
0.0
220
0.0
230
1.0
 70
    24
 71
     1
 72
     6
 73
     4
 74
     0
 42
0.000000001
 43
0.0000000001
 40
0.0
 40
0.0
 40
0.3090175572254736
 40
0.8090175572254734
 40
1.0
 40
1.0
 10
19.6516866737702
 20
8.123870639422875
 30
0.0
 10
19.62263882150432
 20
8.123870639422875
 30
0.0
 10
19.57563849484541
 20
8.123870639422875
 30
0.0
 10
19.55768602045236
 20
8.123870639422875
 30
0.0
  0
SPLINE
  5
2F0
330
1C0
100
AcDbEntity
 67
     1
  8
1
  6
Continuous
 62
   252
370
    18
100
AcDbSpline
210
0.0
220
0.0
230
1.0
 70
    24
 71
     1
 72
     6
 73
     4
 74
     0
 42
0.000000001
 43
0.0000000001
 40
0.0
 40
0.0
 40
0.1909824427745265
 40
0.6909651279565053
 40
1.0
 40
1.0
 10
32.13768632506936
 20
8.123870639422875
 30
0.0
 10
32.11973385067631
 20
8.123870639422875
 30
0.0
 10
32.0727351516216
 20
8.123870639422875
 30
0.0
 10
32.04368567175152
 20
8.123870639422875
 30
0.0
  0
SPLINE
  5
2F1
330
1C0
100
AcDbEntity
 67
     1
  8
1
  6
Continuous
 62
   252
370
    18
100
AcDbSpline
210
0.0
220
0.0
230
1.0
 70
    24
 71
     1
 72
     6
 73
     4
 74
     0
 42
0.000000001
 43
0.0000000001
 40
0.0
 40
0.0
 40
0.3090348720434948
 40
0.8090175572254734
 40
1.0
 40
1.0
 10
32.04368567175152
 20
14.30487013805032
 30
0.0
 10
32.0727351516216
 20
14.30487013805032
 30
0.0
 10
32.11973385067631
 20
14.30487013805032
 30
0.0
 10
32.13768632506936
 20
14.30487013805032
 30
0.0
  0
SPLINE
  5
2F2
330
1C0
100
AcDbEntity
 67
     1
  8
1
  6
Continuous
 62
   252
370
    18
100
AcDbSpline
210
0.0
220
0.0
230
1.0
 70
    24
 71
     1
 72
     6
 73
     4
 74
     0
 42
0.000000001
 43
0.0000000001
 40
0.0
 40
0.0
 40
0.0489325229858189
 40
0.4122210101639742
 40
1.0
 40
1.0
 10
23.06736383981206
 20
11.13137071224764
 30
0.0
 10
23.06276423032568
 20
11.13137071224764
 30
0.0
 10
23.02861546647796
 20
11.13137071224764
 30
0.0
 10
22.97336481409843
 20
11.13137071224764
 30
0.0
  0
SPLINE
  5
2F3
330
1C0
100
AcDbEntity
 67
     1
  8
1
  6
Continuous
 62
   252
370
    18
100
AcDbSpline
210
0.0
220
0.0
230
1.0
 70
    24
 71
     1
 72
     6
 73
     4
 74
     0
 42
0.000000001
 43
0.0000000001
 40
0.0
 40
0.0
 40
0.5877789898360259
 40
0.9510674770141809
 40
1.0
 40
1.0
 10
22.97336481409843
 20
11.43137071951196
 30
0.0
 10
23.02861546647796
 20
11.43137071951196
 30
0.0
 10
23.06276423032568
 20
11.43137071951196
 30
0.0
 10
23.06736383981206
 20
11.43137071951196
 30
0.0
  0
SPLINE
  5
2F4
330
1C0
100
AcDbEntity
 67
     1
  8
1
  6
Continuous
 62
   252
370
    18
100
AcDbSpline
210
0.0
220
0.0
230
1.0
 70
    24
 71
     1
 72
     4
 73
     2
 74
     0
 42
0.000000001
 43
0.0000000001
 40
0.0
 40
0.0
 40
1.0
 40
1.0
 10
23.29713272558411
 20
11.13137071224764
 30
0.0
 10
23.2484754978434
 20
11.13137071224764
 30
0.0
  0
SPLINE
  5
2F5
330
1C0
100
AcDbEntity
 67
     1
  8
1
  6
Continuous
 62
   252
370
    18
100
AcDbSpline
210
0.0
220
0.0
230
1.0
 70
    24
 71
     1
 72
     4
 73
     2
 74
     0
 42
0.000000001
 43
0.0000000001
 40
0.0
 40
0.0
 40
1.0
 40
1.0
 10
23.2484754978434
 20
11.43137071951196
 30
0.0
 10
23.29713272558411
 20
11.43137071951196
 30
0.0
  0
SPLINE
  5
2F6
330
1C0
100
AcDbEntity
 67
     1
  8
1
  6
Continuous
 62
   252
370
    18
100
AcDbSpline
210
0.0
220
0.0
230
1.0
 70
    24
 71
     1
 72
     5
 73
     3
 74
     0
 42
0.000000001
 43
0.0000000001
 40
0.0
 40
0.0
 40
0.143688316166013
 40
1.0
 40
1.0
 10
23.06736383981206
 20
11.13137071224764
 30
0.0
 10
23.07279027223513
 20
11.13137071224764
 30
0.0
 10
23.10512914020569
 20
11.13137071224764
 30
0.0
  0
SPLINE
  5
2F7
330
1C0
100
AcDbEntity
 67
     1
  8
1
  6
Continuous
 62
   252
370
    18
100
AcDbSpline
210
0.0
220
0.0
230
1.0
 70
    24
 71
     1
 72
     5
 73
     3
 74
     0
 42
0.000000001
 43
0.0000000001
 40
0.0
 40
0.0
 40
0.4773089686678447
 40
1.0
 40
1.0
 10
23.10512914020569
 20
11.43137071951196
 30
0.0
 10
23.08710342362338
 20
11.43137071951196
 30
0.0
 10
23.06736383981206
 20
11.43137071951196
 30
0.0
  0
ENDSEC
  0
SECTION
  2
OBJECTS
  0
DICTIONARY
  5
C
330
0
100
AcDbDictionary
281
     1
  3
ACAD_CIP_PREVIOUS_PRODUCT_INFO
350
409
  3
ACAD_COLOR
350
401
  3
ACAD_DETAILVIEWSTYLE
350
373
  3
ACAD_GROUP
350
D
  3
ACAD_LAYOUT
350
1A
  3
ACAD_MATERIAL
350
43
  3
ACAD_MLEADERSTYLE
350
6B
  3
ACAD_MLINESTYLE
350
17
  3
ACAD_PLOTSETTINGS
350
19
  3
ACAD_PLOTSTYLENAME
350
E
  3
ACAD_SCALELIST
350
47
  3
ACAD_SECTIONVIEWSTYLE
350
374
  3
ACAD_TABLESTYLE
350
69
  3
ACAD_VISUALSTYLE
350
2A
  3
ACDB_RECOMPOSE_DATA
350
424
  3
AcDbVariableDictionary
350
330
  0
DICTIONARY
  5
3C2
330
8
100
AcDbDictionary
280
     1
281
     1
  0
SUN
  5
6D
330
29
100
AcDbSun
 90
        1
290
     0
 63
     7
421
 16777215
 40
1.0
291
     1
 91
  2455826
 92
 54000000
292
     0
 70
     0
 71
   256
280
     1
1001
ACAD
1000
AcDbSavedByObjectVersion
1070
     0
  0
DICTIONARY
  5
40A
330
10
100
AcDbDictionary
280
     1
281
     1
  3
ADSK_XREC_LAYER_RECONCILED
360
40B
  0
DICTIONARY
  5
40C
330
75
100
AcDbDictionary
280
     1
281
     1
  3
ADSK_XREC_LAYER_RECONCILED
360
40D
  0
DICTIONARY
  5
40E
330
76
100
AcDbDictionary
280
     1
281
     1
  3
ADSK_XREC_LAYER_RECONCILED
360
40F
  0
DICTIONARY
  5
410
330
77
100
AcDbDictionary
280
     1
281
     1
  3
ADSK_XREC_LAYER_RECONCILED
360
411
  0
DICTIONARY
  5
412
330
78
100
AcDbDictionary
280
     1
281
     1
  3
ADSK_XREC_LAYER_RECONCILED
360
413
  0
DICTIONARY
  5
414
330
1A9
100
AcDbDictionary
280
     1
281
     1
  3
ADSK_XREC_LAYER_RECONCILED
360
415
  0
DICTIONARY
  5
416
330
30D
100
AcDbDictionary
280
     1
281
     1
  3
ADSK_XREC_LAYER_RECONCILED
360
417
  0
DICTIONARY
  5
418
330
377
100
AcDbDictionary
280
     1
281
     1
  3
ADSK_XREC_LAYER_RECONCILED
360
419
  0
DICTIONARY
  5
41A
330
378
100
AcDbDictionary
280
     1
281
     1
  3
ADSK_XREC_LAYER_RECONCILED
360
41B
  0
DICTIONARY
  5
41C
330
379
100
AcDbDictionary
280
     1
281
     1
  3
ADSK_XREC_LAYER_RECONCILED
360
41D
  0
SUN
  5
2F9
330
1C3
100
AcDbSun
 90
        1
290
     0
 63
     7
421
 16777215
 40
1.0
291
     1
 91
  2455826
 92
 54000000
292
     0
 70
     0
 71
   256
280
     1
1001
ACAD
1000
AcDbSavedByObjectVersion
1070
     0
  0
XRECORD
  5
409
102
{ACAD_REACTORS
330
C
102
}
330
C
100
AcDbXrecord
280
     1
300
ACD
300
2016
300
86445ACD_2016_0F
  0
DICTIONARY
  5
401
102
{ACAD_REACTORS
330
C
102
}
330
C
100
AcDbDictionary
281
     1
  0
DICTIONARY
  5
373
102
{ACAD_REACTORS
330
C
102
}
330
C
100
AcDbDictionary
281
     1
  3
Imperial24
350
403
  0
DICTIONARY
  5
D
102
{ACAD_REACTORS
330
C
102
}
330
C
100
AcDbDictionary
281
     1
  0
DICTIONARY
  5
1A
102
{ACAD_REACTORS
330
C
102
}
330
C
100
AcDbDictionary
281
     1
  3
Model
350
22
  3
Sheet 1
350
1BA
  3
Sheet 2
350
1BF
  3
Sheet 3
350
2F8
  0
DICTIONARY
  5
43
102
{ACAD_REACTORS
330
C
102
}
330
C
100
AcDbDictionary
281
     1
  3
ByBlock
350
45
  3
ByLayer
350
44
  3
Global
350
46
  0
DICTIONARY
  5
6B
102
{ACAD_REACTORS
330
C
102
}
330
C
100
AcDbDictionary
281
     1
  3
Standard
350
6C
  0
DICTIONARY
  5
17
102
{ACAD_REACTORS
330
C
102
}
330
C
100
AcDbDictionary
281
     1
  3
Standard
350
18
  0
DICTIONARY
  5
19
102
{ACAD_REACTORS
330
C
102
}
330
C
100
AcDbDictionary
281
     1
  0
ACDBDICTIONARYWDFLT
  5
E
102
{ACAD_REACTORS
330
C
102
}
330
C
100
AcDbDictionary
281
     1
  3
Normal
350
F
100
AcDbDictionaryWithDefault
340
F
  0
DICTIONARY
  5
47
102
{ACAD_REACTORS
330
C
102
}
330
C
100
AcDbDictionary
281
     1
  3
A0
350
48
  3
A1
350
49
  3
A2
350
4A
  3
A3
350
4B
  3
A4
350
4C
  3
A5
350
4D
  3
A6
350
4E
  3
A7
350
4F
  3
A8
350
50
  3
A9
350
51
  3
B0
350
52
  3
B1
350
53
  3
B2
350
54
  3
B3
350
55
  3
B4
350
56
  3
B5
350
57
  3
B6
350
58
  3
B7
350
59
  3
B8
350
5A
  3
B9
350
5B
  3
C0
350
5C
  3
C1
350
5D
  3
C2
350
5E
  3
C3
350
5F
  3
C4
350
60
  3
C5
350
61
  3
C6
350
62
  3
C7
350
63
  3
C8
350
64
  3
C9
350
65
  3
D0
350
66
  3
D1
350
67
  3
D2
350
68
  0
DICTIONARY
  5
374
102
{ACAD_REACTORS
330
C
102
}
330
C
100
AcDbDictionary
281
     1
  3
Imperial24
350
402
  0
DICTIONARY
  5
69
102
{ACAD_REACTORS
330
C
102
}
330
C
100
AcDbDictionary
281
     1
  3
Standard
350
6A
  0
DICTIONARY
  5
2A
102
{ACAD_REACTORS
330
C
102
}
330
C
100
AcDbDictionary
281
     1
  3
2dWireframe
350
2F
  3
Basic
350
32
  3
Brighten
350
36
  3
ColorChange
350
3A
  3
Conceptual
350
34
  3
Dim
350
35
  3
EdgeColorOff
350
3D
  3
Facepattern
350
39
  3
Flat
350
2B
  3
FlatWithEdges
350
2C
  3
Gouraud
350
2D
  3
GouraudWithEdges
350
2E
  3
Hidden
350
31
  3
JitterOff
350
3B
  3
Linepattern
350
38
  3
OverhangOff
350
3C
  3
Realistic
350
33
  3
Shaded
350
42
  3
Shaded with edges
350
41
  3
Shades of Gray
350
3E
  3
Sketchy
350
3F
  3
Thicken
350
37
  3
Wireframe
350
30
  3
X-Ray
350
40
  0
XRECORD
  5
424
102
{ACAD_REACTORS
330
C
102
}
330
C
100
AcDbXrecord
280
     1
 90
        1
330
6A
  0
DICTIONARY
  5
330
102
{ACAD_REACTORS
330
C
102
}
330
C
100
AcDbDictionary
281
     1
  3
CANNOSCALE
350
331
  3
CMLEADERSTYLE
350
372
  3
CTABLESTYLE
350
371
  3
CVIEWDETAILSTYLE
350
41E
  3
CVIEWSECTIONSTYLE
350
41F
  3
LAYEREVAL
350
421
  3
LAYERNOTIFY
350
422
  3
LIGHTINGUNITS
350
420
  3
MSLTSCALE
350
332
  0
XRECORD
  5
40B
102
{ACAD_REACTORS
330
40A
102
}
330
40A
100
AcDbXrecord
280
     1
290
     1
  0
XRECORD
  5
40D
102
{ACAD_REACTORS
330
40C
102
}
330
40C
100
AcDbXrecord
280
     1
290
     1
  0
XRECORD
  5
40F
102
{ACAD_REACTORS
330
40E
102
}
330
40E
100
AcDbXrecord
280
     1
290
     1
  0
XRECORD
  5
411
102
{ACAD_REACTORS
330
410
102
}
330
410
100
AcDbXrecord
280
     1
290
     1
  0
XRECORD
  5
413
102
{ACAD_REACTORS
330
412
102
}
330
412
100
AcDbXrecord
280
     1
290
     1
  0
XRECORD
  5
415
102
{ACAD_REACTORS
330
414
102
}
330
414
100
AcDbXrecord
280
     1
290
     1
  0
XRECORD
  5
417
102
{ACAD_REACTORS
330
416
102
}
330
416
100
AcDbXrecord
280
     1
290
     1
  0
XRECORD
  5
419
102
{ACAD_REACTORS
330
418
102
}
330
418
100
AcDbXrecord
280
     1
290
     1
  0
XRECORD
  5
41B
102
{ACAD_REACTORS
330
41A
102
}
330
41A
100
AcDbXrecord
280
     1
290
     1
  0
XRECORD
  5
41D
102
{ACAD_REACTORS
330
41C
102
}
330
41C
100
AcDbXrecord
280
     1
290
     1
  0
ACDBDETAILVIEWSTYLE
  5
403
102
{ACAD_XDICTIONARY
360
457
102
}
102
{ACAD_REACTORS
330
373
102
}
330
373
100
AcDbModelDocViewStyle
 70
     0
  3
Imperial24
290
     0
100
AcDbDetailViewStyle
 70
     0
 71
     0
 90
        3
 71
     1
340
11
 62
   256
 40
0.24
340
0
 62
   256
 40
0.24
300

 40
0.36
280
     3
 71
     2
340
16
 90
       25
 62
   256
 71
     3
340
11
 62
   256
 40
0.24
 90
        1
 40
0.75
 90
        1
300
%<\AcVar ViewType \f "%tc1">% %<\AcVar ViewDetailId>%\PSCALE %<\AcVar ViewScale \f "%sn">%
 71
     4
340
16
 90
       25
 62
   256
340
16
 90
       25
 62
   256
280
     0
  0
LAYOUT
  5
22
102
{ACAD_REACTORS
330
1A
102
}
330
1A
100
AcDbPlotSettings
  1

  2
none_device
  4
Letter_(8.50_x_11.00_Inches)
  6

 40
6.349999999999999
 41
6.349999999999999
 42
6.350005079999999
 43
6.350005079999999
 44
215.9
 45
279.4
 46
0.0
 47
0.0
 48
0.0
 49
0.0
140
0.0
141
0.0
142
1.0
143
1.0
 70
  1712
 72
     0
 73
     0
 74
     0
  7

 75
     0
147
1.0
 76
     0
 77
     2
 78
   300
148
0.0
149
0.0
100
AcDbLayout
  1
Model
 70
     1
 71
     0
 10
-0.5
 20
-0.5
 11
5.0
 21
5.0
 12
0.0
 22
0.0
 32
0.0
 14
-0.5
 24
-0.5
 34
-0.5
 15
5.0
 25
5.0
 35
5.0
146
0.0
 13
0.0
 23
0.0
 33
0.0
 16
1.0
 26
0.0
 36
0.0
 17
0.0
 27
1.0
 37
0.0
 76
     0
330
1F
  0
LAYOUT
  5
1BA
102
{ACAD_REACTORS
330
1A
102
}
330
1A
100
AcDbPlotSettings
  1

  2
none_device
  4
ARCH_D_(24.00_x_36.00_Inches)
  6

 40
6.349999999999999
 41
19.05
 42
6.349974599999999
 43
19.0499873
 44
609.5999999999999
 45
914.4
 46
12.70000855869561
 47
0.0000000000000284
 48
0.0
 49
0.0
140
36.0
141
24.0
142
1.0
143
0.9999999855072465
 70
   692
 72
     0
 73
     1
 74
     1
  7

 75
     0
147
1.000000014492753
 76
     0
 77
     2
 78
   300
148
12.7
149
12.7
100
AcDbLayout
  1
Sheet 1
 70
     1
 71
     1
 10
0.0
 20
0.0
 11
34.0
 21
22.0
 12
0.0
 22
0.0
 32
0.0
 14
0.0
 24
0.0
 34
0.0
 15
34.0
 25
22.0
 35
0.0
146
0.0
 13
0.0
 23
0.0
 33
0.0
 16
1.0
 26
0.0
 36
0.0
 17
0.0
 27
1.0
 37
0.0
 76
     0
330
1B2
331
1B5
  0
LAYOUT
  5
1BF
102
{ACAD_REACTORS
330
1A
102
}
330
1A
100
AcDbPlotSettings
  1

  2
none_device
  4
ARCH_E_(36.00_x_48.00_Inches)
  6

 40
6.349999999999999
 41
19.05
 42
6.349974599999999
 43
19.05004826
 44
914.4
 45
1219.2
 46
-0.0000000000000142
 47
9.01880006855066
 48
0.0
 49
0.0
140
46.0
141
36.0
142
1.0
143
0.971830958539973
 70
   692
 72
     0
 73
     1
 74
     1
  7

 75
     0
147
1.028985536231884
 76
     0
 77
     2
 78
   300
148
12.7
149
12.7
100
AcDbLayout
  1
Sheet 2
 70
     1
 71
     2
 10
0.0
 20
0.0
 11
44.0
 21
34.0
 12
0.0
 22
0.0
 32
0.0
 14
0.0
 24
0.0
 34
0.0
 15
44.0
 25
34.0
 35
0.0
146
0.0
 13
0.0
 23
0.0
 33
0.0
 16
1.0
 26
0.0
 36
0.0
 17
0.0
 27
1.0
 37
0.0
 76
     0
330
1BB
331
1BE
  0
LAYOUT
  5
2F8
102
{ACAD_REACTORS
330
1A
102
}
330
1A
100
AcDbPlotSettings
  1

  2
none_device
  4
ARCH_D_(24.00_x_36.00_Inches)
  6

 40
6.349999999999999
 41
19.05
 42
6.349974599999999
 43
19.0499873
 44
609.5999999999999
 45
914.4
 46
12.70000855869561
 47
0.0000000000000284
 48
0.0
 49
0.0
140
36.0
141
24.0
142
1.0
143
0.9999999855072465
 70
   692
 72
     0
 73
     1
 74
     1
  7

 75
     0
147
1.000000014492753
 76
     0
 77
     2
 78
   300
148
12.7
149
12.7
100
AcDbLayout
  1
Sheet 3
 70
     1
 71
     3
 10
0.0
 20
0.0
 11
34.0
 21
22.0
 12
0.0
 22
0.0
 32
0.0
 14
2.451748944818973
 24
8.123870639422875
 34
0.0
 15
32.13768768310547
 25
18.15319633483887
 35
0.0
146
0.0
 13
0.0
 23
0.0
 33
0.0
 16
1.0
 26
0.0
 36
0.0
 17
0.0
 27
1.0
 37
0.0
 76
     0
330
1C0
331
1C3
  0
MATERIAL
  5
45
102
{ACAD_REACTORS
330
43
102
}
330
43
100
AcDbMaterial
  1
ByBlock
 73
     1
 78
     1
172
     1
176
     1
270
     1
274
     1
  0
MATERIAL
  5
44
102
{ACAD_REACTORS
330
43
102
}
330
43
100
AcDbMaterial
  1
ByLayer
 73
     1
 78
     1
172
     1
176
     1
270
     1
274
     1
  0
MATERIAL
  5
46
102
{ACAD_REACTORS
330
43
102
}
330
43
100
AcDbMaterial
  1
Global
 73
     1
 78
     1
172
     1
176
     1
270
     1
274
     1
  0
MLEADERSTYLE
  5
6C
102
{ACAD_REACTORS
330
6B
102
}
330
6B
100
AcDbMLeaderStyle
179
     2
170
     2
171
     1
172
     0
 90
        2
 40
0.0
 41
0.0
173
     1
 91
-1056964608
340
14
 92
       -2
290
     1
 42
0.09
291
     1
 43
0.36
  3
Standard
 44
0.18
300

342
11
174
     1
178
     6
175
     1
176
     0
 93
-1056964608
 45
0.18
292
     0
297
     0
 46
0.18
 94
-1056964608
 47
1.0
 49
1.0
140
1.0
293
     1
141
0.0
294
     1
177
     0
142
1.0
295
     0
296
     0
143
0.125
271
     0
272
     9
273
     9
  0
MLINESTYLE
  5
18
102
{ACAD_REACTORS
330
17
102
}
330
17
100
AcDbMlineStyle
  2
STANDARD
 70
     0
  3

 62
   256
 51
90.0
 52
90.0
 71
     2
 49
0.5
 62
   256
  6
BYLAYER
 49
-0.5
 62
   256
  6
BYLAYER
  0
ACDBPLACEHOLDER
  5
F
102
{ACAD_REACTORS
330
E
102
}
330
E
  0
SCALE
  5
48
102
{ACAD_REACTORS
330
47
102
}
330
47
100
AcDbScale
 70
     0
300
1:1
140
1.0
141
1.0
290
     1
  0
SCALE
  5
49
102
{ACAD_REACTORS
330
47
102
}
330
47
100
AcDbScale
 70
     0
300
1:2
140
1.0
141
2.0
290
     0
  0
SCALE
  5
4A
102
{ACAD_REACTORS
330
47
102
}
330
47
100
AcDbScale
 70
     0
300
1:4
140
1.0
141
4.0
290
     0
  0
SCALE
  5
4B
102
{ACAD_REACTORS
330
47
102
}
330
47
100
AcDbScale
 70
     0
300
1:5
140
1.0
141
5.0
290
     0
  0
SCALE
  5
4C
102
{ACAD_REACTORS
330
47
102
}
330
47
100
AcDbScale
 70
     0
300
1:8
140
1.0
141
8.0
290
     0
  0
SCALE
  5
4D
102
{ACAD_REACTORS
330
47
102
}
330
47
100
AcDbScale
 70
     0
300
1:10
140
1.0
141
10.0
290
     0
  0
SCALE
  5
4E
102
{ACAD_REACTORS
330
47
102
}
330
47
100
AcDbScale
 70
     0
300
1:16
140
1.0
141
16.0
290
     0
  0
SCALE
  5
4F
102
{ACAD_REACTORS
330
47
102
}
330
47
100
AcDbScale
 70
     0
300
1:20
140
1.0
141
20.0
290
     0
  0
SCALE
  5
50
102
{ACAD_REACTORS
330
47
102
}
330
47
100
AcDbScale
 70
     0
300
1:30
140
1.0
141
30.0
290
     0
  0
SCALE
  5
51
102
{ACAD_REACTORS
330
47
102
}
330
47
100
AcDbScale
 70
     0
300
1:40
140
1.0
141
40.0
290
     0
  0
SCALE
  5
52
102
{ACAD_REACTORS
330
47
102
}
330
47
100
AcDbScale
 70
     0
300
1:50
140
1.0
141
50.0
290
     0
  0
SCALE
  5
53
102
{ACAD_REACTORS
330
47
102
}
330
47
100
AcDbScale
 70
     0
300
1:100
140
1.0
141
100.0
290
     0
  0
SCALE
  5
54
102
{ACAD_REACTORS
330
47
102
}
330
47
100
AcDbScale
 70
     0
300
2:1
140
2.0
141
1.0
290
     0
  0
SCALE
  5
55
102
{ACAD_REACTORS
330
47
102
}
330
47
100
AcDbScale
 70
     0
300
4:1
140
4.0
141
1.0
290
     0
  0
SCALE
  5
56
102
{ACAD_REACTORS
330
47
102
}
330
47
100
AcDbScale
 70
     0
300
8:1
140
8.0
141
1.0
290
     0
  0
SCALE
  5
57
102
{ACAD_REACTORS
330
47
102
}
330
47
100
AcDbScale
 70
     0
300
10:1
140
10.0
141
1.0
290
     0
  0
SCALE
  5
58
102
{ACAD_REACTORS
330
47
102
}
330
47
100
AcDbScale
 70
     0
300
100:1
140
100.0
141
1.0
290
     0
  0
SCALE
  5
59
102
{ACAD_REACTORS
330
47
102
}
330
47
100
AcDbScale
 70
     0
300
1/128" = 1'-0"
140
0.0078125
141
12.0
290
     0
  0
SCALE
  5
5A
102
{ACAD_REACTORS
330
47
102
}
330
47
100
AcDbScale
 70
     0
300
1/64" = 1'-0"
140
0.015625
141
12.0
290
     0
  0
SCALE
  5
5B
102
{ACAD_REACTORS
330
47
102
}
330
47
100
AcDbScale
 70
     0
300
1/32" = 1'-0"
140
0.03125
141
12.0
290
     0
  0
SCALE
  5
5C
102
{ACAD_REACTORS
330
47
102
}
330
47
100
AcDbScale
 70
     0
300
1/16" = 1'-0"
140
0.0625
141
12.0
290
     0
  0
SCALE
  5
5D
102
{ACAD_REACTORS
330
47
102
}
330
47
100
AcDbScale
 70
     0
300
3/32" = 1'-0"
140
0.09375
141
12.0
290
     0
  0
SCALE
  5
5E
102
{ACAD_REACTORS
330
47
102
}
330
47
100
AcDbScale
 70
     0
300
1/8" = 1'-0"
140
0.125
141
12.0
290
     0
  0
SCALE
  5
5F
102
{ACAD_REACTORS
330
47
102
}
330
47
100
AcDbScale
 70
     0
300
3/16" = 1'-0"
140
0.1875
141
12.0
290
     0
  0
SCALE
  5
60
102
{ACAD_REACTORS
330
47
102
}
330
47
100
AcDbScale
 70
     0
300
1/4" = 1'-0"
140
0.25
141
12.0
290
     0
  0
SCALE
  5
61
102
{ACAD_REACTORS
330
47
102
}
330
47
100
AcDbScale
 70
     0
300
3/8" = 1'-0"
140
0.375
141
12.0
290
     0
  0
SCALE
  5
62
102
{ACAD_REACTORS
330
47
102
}
330
47
100
AcDbScale
 70
     0
300
1/2" = 1'-0"
140
0.5
141
12.0
290
     0
  0
SCALE
  5
63
102
{ACAD_REACTORS
330
47
102
}
330
47
100
AcDbScale
 70
     0
300
3/4" = 1'-0"
140
0.75
141
12.0
290
     0
  0
SCALE
  5
64
102
{ACAD_REACTORS
330
47
102
}
330
47
100
AcDbScale
 70
     0
300
1" = 1'-0"
140
1.0
141
12.0
290
     0
  0
SCALE
  5
65
102
{ACAD_REACTORS
330
47
102
}
330
47
100
AcDbScale
 70
     0
300
1-1/2" = 1'-0"
140
1.5
141
12.0
290
     0
  0
SCALE
  5
66
102
{ACAD_REACTORS
330
47
102
}
330
47
100
AcDbScale
 70
     0
300
3" = 1'-0"
140
3.0
141
12.0
290
     0
  0
SCALE
  5
67
102
{ACAD_REACTORS
330
47
102
}
330
47
100
AcDbScale
 70
     0
300
6" = 1'-0"
140
6.0
141
12.0
290
     0
  0
SCALE
  5
68
102
{ACAD_REACTORS
330
47
102
}
330
47
100
AcDbScale
 70
     0
300
1'-0" = 1'-0"
140
12.0
141
12.0
290
     0
  0
ACDBSECTIONVIEWSTYLE
  5
402
102
{ACAD_XDICTIONARY
360
455
102
}
102
{ACAD_REACTORS
330
374
102
}
330
374
100
AcDbModelDocViewStyle
 70
     0
  3
Imperial24
290
     0
100
AcDbSectionViewStyle
 70
     0
 71
     0
 90
       78
 71
     1
340
11
 62
   256
 40
0.24
340
0
340
0
 62
   256
 40
0.24
300
I, O, Q, S, X, Z
 40
0.48
 90
        3
 40
0.18
 90
        1
 71
     2
340
16
 90
       25
 62
   256
340
16
 90
       50
 62
   256
 40
0.24
 40
0.0
 40
0.24
 71
     3
340
11
 62
   256
 40
0.24
 90
        1
 40
0.75
 90
        1
300
%<\AcVar ViewType \f "%tc1">% %<\AcVar ViewSectionStartId>%-%<\AcVar ViewSectionEndId>%\PSCALE %<\AcVar ViewScale \f "%sn">%
 71
     4
 62
   256
 62
   257
300
ANSI31
 40
1.0
 90
        0
290
     0
290
     0
 90
        6
 40
0.0
 40
1.570796326794896
 40
0.2617993877991494
 40
1.308996938995747
 40
-0.2617993877991494
 40
1.832595714594046
  0
TABLESTYLE
  5
6A
102
{ACAD_XDICTIONARY
360
3FA
102
}
102
{ACAD_REACTORS
330
69
102
}
330
69
100
AcDbTableStyle
280
     0
  3
Standard
 70
     0
 71
     0
 40
0.06
 41
0.06
280
     0
281
     0
  7
Standard
140
0.18
170
     2
 62
     0
 63
     7
283
     0
 90
        4
 91
        0
  1

274
    -2
284
     1
 64
     0
275
    -2
285
     1
 65
     0
276
    -2
286
     1
 66
     0
277
    -2
287
     1
 67
     0
278
    -2
288
     1
 68
     0
279
    -2
289
     1
 69
     0
  7
Standard
140
0.25
170
     5
 62
     0
 63
     7
283
     0
 90
        4
 91
        0
  1

274
    -2
284
     1
 64
     0
275
    -2
285
     1
 65
     0
276
    -2
286
     1
 66
     0
277
    -2
287
     1
 67
     0
278
    -2
288
     1
 68
     0
279
    -2
289
     1
 69
     0
  7
Standard
140
0.18
170
     5
 62
     0
 63
     7
283
     0
 90
        4
 91
        0
  1

274
    -2
284
     1
 64
     0
275
    -2
285
     1
 65
     0
276
    -2
286
     1
 66
     0
277
    -2
287
     1
 67
     0
278
    -2
288
     1
 68
     0
279
    -2
289
     1
 69
     0
  0
VISUALSTYLE
  5
2F
102
{ACAD_XDICTIONARY
360
42D
102
}
102
{ACAD_REACTORS
330
2A
102
}
330
2A
100
AcDbVisualStyle
  2
2dWireframe
 70
     4
177
     2
291
     0
 71
     0
176
     1
 72
     2
176
     1
 73
     0
176
     1
 90
        0
176
     1
 40
0.6
176
     1
 41
30.0
176
     1
 63
     7
421
 16777215
176
     1
 74
     1
176
     1
 91
        4
176
     1
 64
     7
176
     1
 65
   257
176
     1
 75
     1
176
     1
175
     1
176
     1
 42
1.0
176
     1
 92
        0
176
     1
 66
   257
176
     1
 43
1.0
176
     1
 76
     1
176
     1
 77
     6
176
     1
 78
     2
176
     1
 67
     7
176
     1
 79
     5
176
     1
170
     0
176
     1
171
     0
176
     1
290
     0
176
     1
 93
        1
176
     1
 44
0.0
176
     1
173
     0
176
     1
1001
ACAD
1000
AcDbSavedByObjectVersion
1070
     0
  0
VISUALSTYLE
  5
32
102
{ACAD_XDICTIONARY
360
433
102
}
102
{ACAD_REACTORS
330
2A
102
}
330
2A
100
AcDbVisualStyle
  2
Basic
 70
     7
177
     2
291
     1
 71
     1
176
     1
 72
     0
176
     1
 73
     1
176
     1
 90
        0
176
     1
 40
0.6
176
     1
 41
30.0
176
     1
 63
     7
421
 16777215
176
     1
 74
     0
176
     1
 91
        4
176
     1
 64
     7
176
     1
 65
   257
176
     1
 75
     1
176
     1
175
     1
176
     1
 42
1.0
176
     1
 92
        8
176
     1
 66
     7
176
     1
 43
1.0
176
     1
 76
     1
176
     1
 77
     6
176
     1
 78
     2
176
     1
 67
     7
176
     1
 79
     5
176
     1
170
     0
176
     1
171
     0
176
     1
290
     0
176
     1
 93
        1
176
     1
 44
0.0
176
     1
173
     0
176
     1
1001
ACAD
1000
AcDbSavedByObjectVersion
1070
     0
  0
VISUALSTYLE
  5
36
102
{ACAD_XDICTIONARY
360
43B
102
}
102
{ACAD_REACTORS
330
2A
102
}
330
2A
100
AcDbVisualStyle
  2
Brighten
 70
    12
177
     2
291
     1
 71
     2
176
     1
 72
     2
176
     1
 73
     0
176
     1
 90
        0
176
     1
 40
0.6
176
     1
 41
30.0
176
     1
 63
     7
421
 16777215
176
     1
 74
     1
176
     1
 91
        4
176
     1
 64
     7
176
     1
 65
   257
176
     1
 75
     1
176
     1
175
     1
176
     1
 42
1.0
176
     1
 92
        8
176
     1
 66
     7
176
     1
 43
1.0
176
     1
 76
     1
176
     1
 77
     6
176
     1
 78
     2
176
     1
 67
     7
176
     1
 79
     5
176
     1
170
     0
176
     1
171
     0
176
     1
290
     0
176
     1
 93
        1
176
     1
 44
50.0
176
     1
173
     0
176
     1
1001
ACAD
1000
AcDbSavedByObjectVersion
1070
     0
  0
VISUALSTYLE
  5
3A
102
{ACAD_XDICTIONARY
360
443
102
}
102
{ACAD_REACTORS
330
2A
102
}
330
2A
100
AcDbVisualStyle
  2
ColorChange
 70
    16
177
     2
291
     1
 71
     2
176
     1
 72
     2
176
     1
 73
     3
176
     1
 90
        0
176
     1
 40
0.6
176
     1
 41
30.0
176
     1
 63
     8
421
  8421504
176
     1
 74
     1
176
     1
 91
        4
176
     1
 64
     7
176
     1
 65
   257
176
     1
 75
     1
176
     1
175
     1
176
     1
 42
1.0
176
     1
 92
        8
176
     1
 66
     8
424
  8421504
176
     1
 43
1.0
176
     1
 76
     1
176
     1
 77
     6
176
     1
 78
     2
176
     1
 67
     7
176
     1
 79
     5
176
     1
170
     0
176
     1
171
     0
176
     1
290
     0
176
     1
 93
        1
176
     1
 44
0.0
176
     1
173
     0
176
     1
1001
ACAD
1000
AcDbSavedByObjectVersion
1070
     0
  0
VISUALSTYLE
  5
34
102
{ACAD_XDICTIONARY
360
437
102
}
102
{ACAD_REACTORS
330
2A
102
}
330
2A
100
AcDbVisualStyle
  2
Conceptual
 70
     9
177
     2
291
     0
 71
     3
176
     1
 72
     2
176
     1
 73
     0
176
     1
 90
        0
176
     1
 40
0.6
176
     1
 41
30.0
176
     1
 63
     7
421
 16777215
176
     1
 74
     2
176
     1
 91
        2
176
     1
 64
     7
176
     1
 65
   257
176
     1
 75
     1
176
     1
175
     1
176
     1
 42
179.0
176
     1
 92
        8
176
     1
 66
     7
176
     1
 43
1.0
176
     1
 76
     1
176
     1
 77
     6
176
     1
 78
     2
176
     1
 67
     7
176
     1
 79
     3
176
     1
170
     0
176
     1
171
     0
176
     1
290
     0
176
     1
 93
        1
176
     1
 44
0.0
176
     1
173
     0
176
     1
1001
ACAD
1000
AcDbSavedByObjectVersion
1070
     0
  0
VISUALSTYLE
  5
35
102
{ACAD_XDICTIONARY
360
439
102
}
102
{ACAD_REACTORS
330
2A
102
}
330
2A
100
AcDbVisualStyle
  2
Dim
 70
    11
177
     2
291
     1
 71
     2
176
     1
 72
     2
176
     1
 73
     0
176
     1
 90
        0
176
     1
 40
0.6
176
     1
 41
30.0
176
     1
 63
     7
421
 16777215
176
     1
 74
     1
176
     1
 91
        4
176
     1
 64
     7
176
     1
 65
   257
176
     1
 75
     1
176
     1
175
     1
176
     1
 42
1.0
176
     1
 92
        8
176
     1
 66
     7
176
     1
 43
1.0
176
     1
 76
     1
176
     1
 77
     6
176
     1
 78
     2
176
     1
 67
     7
176
     1
 79
     5
176
     1
170
     0
176
     1
171
     0
176
     1
290
     0
176
     1
 93
        1
176
     1
 44
-50.0
176
     1
173
     0
176
     1
1001
ACAD
1000
AcDbSavedByObjectVersion
1070
     0
  0
VISUALSTYLE
  5
3D
102
{ACAD_XDICTIONARY
360
449
102
}
102
{ACAD_REACTORS
330
2A
102
}
330
2A
100
AcDbVisualStyle
  2
EdgeColorOff
 70
    22
177
     2
291
     1
 71
     2
176
     0
 72
     2
176
     0
 73
     0
176
     0
 90
        0
176
     0
 40
0.6
176
     0
 41
30.0
176
     0
 63
     7
421
 16777215
176
     0
 74
     1
176
     0
 91
        4
176
     0
 64
     7
176
     0
 65
   257
176
     0
 75
     1
176
     0
175
     1
176
     0
 42
1.0
176
     0
 92
        8
176
     2
 66
     7
176
     0
 43
1.0
176
     0
 76
     1
176
     0
 77
     6
176
     0
 78
     2
176
     0
 67
     7
176
     0
 79
     5
176
     0
170
     0
176
     0
171
     0
176
     0
290
     0
176
     0
 93
        1
176
     0
 44
0.0
176
     0
173
     0
176
     0
1001
ACAD
1000
AcDbSavedByObjectVersion
1070
     0
  0
VISUALSTYLE
  5
39
102
{ACAD_XDICTIONARY
360
441
102
}
102
{ACAD_REACTORS
330
2A
102
}
330
2A
100
AcDbVisualStyle
  2
Facepattern
 70
    15
177
     2
291
     1
 71
     2
176
     1
 72
     2
176
     1
 73
     0
176
     1
 90
        0
176
     1
 40
0.6
176
     1
 41
30.0
176
     1
 63
     7
421
 16777215
176
     1
 74
     1
176
     1
 91
        4
176
     1
 64
     7
176
     1
 65
   257
176
     1
 75
     1
176
     1
175
     1
176
     1
 42
1.0
176
     1
 92
        8
176
     1
 66
     7
176
     1
 43
1.0
176
     1
 76
     1
176
     1
 77
     6
176
     1
 78
     2
176
     1
 67
     7
176
     1
 79
     5
176
     1
170
     0
176
     1
171
     0
176
     1
290
     0
176
     1
 93
        1
176
     1
 44
0.0
176
     1
173
     0
176
     1
1001
ACAD
1000
AcDbSavedByObjectVersion
1070
     0
  0
VISUALSTYLE
  5
2B
102
{ACAD_XDICTIONARY
360
425
102
}
102
{ACAD_REACTORS
330
2A
102
}
330
2A
100
AcDbVisualStyle
  2
Flat
 70
     0
177
     2
291
     1
 71
     2
176
     1
 72
     1
176
     1
 73
     1
176
     1
 90
        2
176
     1
 40
0.6
176
     1
 41
30.0
176
     1
 63
     7
421
 16777215
176
     1
 74
     0
176
     1
 91
        0
176
     1
 64
     7
176
     1
 65
   257
176
     1
 75
     1
176
     1
175
     1
176
     1
 42
1.0
176
     1
 92
        8
176
     1
 66
     7
176
     1
 43
1.0
176
     1
 76
     1
176
     1
 77
     6
176
     1
 78
     2
176
     1
 67
     7
176
     1
 79
     5
176
     1
170
     0
176
     1
171
     0
176
     1
290
     0
176
     1
 93
       13
176
     1
 44
0.0
176
     1
173
     0
176
     1
1001
ACAD
1000
AcDbSavedByObjectVersion
1070
     0
  0
VISUALSTYLE
  5
2C
102
{ACAD_XDICTIONARY
360
427
102
}
102
{ACAD_REACTORS
330
2A
102
}
330
2A
100
AcDbVisualStyle
  2
FlatWithEdges
 70
     1
177
     2
291
     1
 71
     2
176
     1
 72
     1
176
     1
 73
     1
176
     1
 90
        2
176
     1
 40
0.6
176
     1
 41
30.0
176
     1
 63
     7
421
 16777215
176
     1
 74
     1
176
     1
 91
        0
176
     1
 64
     7
176
     1
 65
   257
176
     1
 75
     1
176
     1
175
     1
176
     1
 42
1.0
176
     1
 92
        0
176
     1
 66
   257
176
     1
 43
1.0
176
     1
 76
     1
176
     1
 77
     6
176
     1
 78
     2
176
     1
 67
     7
176
     1
 79
     5
176
     1
170
     0
176
     1
171
     0
176
     1
290
     0
176
     1
 93
       13
176
     1
 44
0.0
176
     1
173
     0
176
     1
1001
ACAD
1000
AcDbSavedByObjectVersion
1070
     0
  0
VISUALSTYLE
  5
2D
102
{ACAD_XDICTIONARY
360
429
102
}
102
{ACAD_REACTORS
330
2A
102
}
330
2A
100
AcDbVisualStyle
  2
Gouraud
 70
     2
177
     2
291
     1
 71
     2
176
     1
 72
     2
176
     1
 73
     1
176
     1
 90
        2
176
     1
 40
0.6
176
     1
 41
30.0
176
     1
 63
     7
421
 16777215
176
     1
 74
     0
176
     1
 91
        0
176
     1
 64
     7
176
     1
 65
   257
176
     1
 75
     1
176
     1
175
     1
176
     1
 42
1.0
176
     1
 92
        0
176
     1
 66
     7
176
     1
 43
1.0
176
     1
 76
     1
176
     1
 77
     6
176
     1
 78
     2
176
     1
 67
     7
176
     1
 79
     5
176
     1
170
     0
176
     1
171
     0
176
     1
290
     0
176
     1
 93
       13
176
     1
 44
0.0
176
     1
173
     0
176
     1
1001
ACAD
1000
AcDbSavedByObjectVersion
1070
     0
  0
VISUALSTYLE
  5
2E
102
{ACAD_XDICTIONARY
360
42B
102
}
102
{ACAD_REACTORS
330
2A
102
}
330
2A
100
AcDbVisualStyle
  2
GouraudWithEdges
 70
     3
177
     2
291
     1
 71
     2
176
     1
 72
     2
176
     1
 73
     1
176
     1
 90
        2
176
     1
 40
0.6
176
     1
 41
30.0
176
     1
 63
     7
421
 16777215
176
     1
 74
     1
176
     1
 91
        0
176
     1
 64
     7
176
     1
 65
   257
176
     1
 75
     1
176
     1
175
     1
176
     1
 42
1.0
176
     1
 92
        0
176
     1
 66
   257
176
     1
 43
1.0
176
     1
 76
     1
176
     1
 77
     6
176
     1
 78
     2
176
     1
 67
     7
176
     1
 79
     5
176
     1
170
     0
176
     1
171
     0
176
     1
290
     0
176
     1
 93
       13
176
     1
 44
0.0
176
     1
173
     0
176
     1
1001
ACAD
1000
AcDbSavedByObjectVersion
1070
     0
  0
VISUALSTYLE
  5
31
102
{ACAD_XDICTIONARY
360
431
102
}
102
{ACAD_REACTORS
330
2A
102
}
330
2A
100
AcDbVisualStyle
  2
Hidden
 70
     6
177
     2
291
     0
 71
     1
176
     1
 72
     2
176
     1
 73
     2
176
     1
 90
        0
176
     1
 40
0.6
176
     1
 41
30.0
176
     1
 63
     7
421
 16777215
176
     1
 74
     2
176
     1
 91
        2
176
     1
 64
     7
176
     1
 65
   257
176
     1
 75
     2
176
     1
175
     1
176
     1
 42
40.0
176
     1
 92
        0
176
     1
 66
   257
176
     1
 43
1.0
176
     1
 76
     1
176
     1
 77
     6
176
     1
 78
     2
176
     1
 67
     7
176
     1
 79
     3
176
     1
170
     0
176
     1
171
     0
176
     1
290
     0
176
     1
 93
        1
176
     1
 44
0.0
176
     1
173
     0
176
     1
1001
ACAD
1000
AcDbSavedByObjectVersion
1070
     0
  0
VISUALSTYLE
  5
3B
102
{ACAD_XDICTIONARY
360
445
102
}
102
{ACAD_REACTORS
330
2A
102
}
330
2A
100
AcDbVisualStyle
  2
JitterOff
 70
    20
177
     2
291
     1
 71
     2
176
     0
 72
     2
176
     0
 73
     0
176
     0
 90
        0
176
     0
 40
0.6
176
     0
 41
30.0
176
     0
 63
     7
421
 16777215
176
     0
 74
     1
176
     0
 91
        4
176
     0
 64
     7
176
     0
 65
   257
176
     0
 75
     1
176
     0
175
     1
176
     0
 42
1.0
176
     0
 92
       10
176
     2
 66
     7
176
     0
 43
1.0
176
     0
 76
     1
176
     0
 77
     6
176
     0
 78
     2
176
     0
 67
     7
176
     0
 79
     5
176
     0
170
     0
176
     0
171
     0
176
     0
290
     0
176
     0
 93
        1
176
     0
 44
0.0
176
     0
173
     0
176
     0
1001
ACAD
1000
AcDbSavedByObjectVersion
1070
     0
  0
VISUALSTYLE
  5
38
102
{ACAD_XDICTIONARY
360
43F
102
}
102
{ACAD_REACTORS
330
2A
102
}
330
2A
100
AcDbVisualStyle
  2
Linepattern
 70
    14
177
     2
291
     1
 71
     2
176
     1
 72
     2
176
     1
 73
     0
176
     1
 90
        0
176
     1
 40
0.6
176
     1
 41
30.0
176
     1
 63
     7
421
 16777215
176
     1
 74
     1
176
     1
 91
        4
176
     1
 64
     7
176
     1
 65
   257
176
     1
 75
     7
176
     1
175
     7
176
     1
 42
1.0
176
     1
 92
        8
176
     1
 66
     7
176
     1
 43
1.0
176
     1
 76
     1
176
     1
 77
     6
176
     1
 78
     2
176
     1
 67
     7
176
     1
 79
     5
176
     1
170
     0
176
     1
171
     0
176
     1
290
     0
176
     1
 93
        1
176
     1
 44
0.0
176
     1
173
     0
176
     1
1001
ACAD
1000
AcDbSavedByObjectVersion
1070
     0
  0
VISUALSTYLE
  5
3C
102
{ACAD_XDICTIONARY
360
447
102
}
102
{ACAD_REACTORS
330
2A
102
}
330
2A
100
AcDbVisualStyle
  2
OverhangOff
 70
    21
177
     2
291
     1
 71
     2
176
     0
 72
     2
176
     0
 73
     0
176
     0
 90
        0
176
     0
 40
0.6
176
     0
 41
30.0
176
     0
 63
     7
421
 16777215
176
     0
 74
     1
176
     0
 91
        4
176
     0
 64
     7
176
     0
 65
   257
176
     0
 75
     1
176
     0
175
     1
176
     0
 42
1.0
176
     0
 92
        9
176
     2
 66
     7
176
     0
 43
1.0
176
     0
 76
     1
176
     0
 77
     6
176
     0
 78
     2
176
     0
 67
     7
176
     0
 79
     5
176
     0
170
     0
176
     0
171
     0
176
     0
290
     0
176
     0
 93
        1
176
     0
 44
0.0
176
     0
173
     0
176
     0
1001
ACAD
1000
AcDbSavedByObjectVersion
1070
     0
  0
VISUALSTYLE
  5
33
102
{ACAD_XDICTIONARY
360
435
102
}
102
{ACAD_REACTORS
330
2A
102
}
330
2A
100
AcDbVisualStyle
  2
Realistic
 70
     8
177
     2
291
     0
 71
     2
176
     1
 72
     3
176
     1
 73
     0
176
     1
 90
        2
176
     1
 40
0.6
176
     1
 41
30.0
176
     1
 63
     7
421
 16777215
176
     1
 74
     0
176
     1
 91
        0
176
     1
 64
     7
176
     1
 65
   257
176
     1
 75
     1
176
     1
175
     1
176
     1
 42
1.0
176
     1
 92
        8
176
     1
 66
   257
176
     1
 43
1.0
176
     1
 76
     1
176
     1
 77
     6
176
     1
 78
     2
176
     1
 67
     7
176
     1
 79
     3
176
     1
170
     0
176
     1
171
     0
176
     1
290
     0
176
     1
 93
       13
176
     1
 44
0.0
176
     1
173
     0
176
     1
1001
ACAD
1000
AcDbSavedByObjectVersion
1070
     0
  0
VISUALSTYLE
  5
42
102
{ACAD_XDICTIONARY
360
453
102
}
102
{ACAD_REACTORS
330
2A
102
}
330
2A
100
AcDbVisualStyle
  2
Shaded
 70
    27
177
     2
291
     0
 71
     2
176
     1
 72
     2
176
     1
 73
     1
176
     1
 90
        2
176
     1
 40
0.6
176
     1
 41
30.0
176
     1
 63
     7
421
 16777215
176
     1
 74
     0
176
     1
 91
        4
176
     1
 64
     7
176
     1
 65
   257
176
     1
 75
     1
176
     1
175
     1
176
     1
 42
1.0
176
     1
 92
        8
176
     1
 66
   257
176
     1
 43
1.0
176
     1
 76
     1
176
     1
 77
     6
176
     1
 78
     2
176
     1
 67
     8
425
  7895160
176
     1
 79
     3
176
     1
170
     0
176
     1
171
     0
176
     1
290
     0
176
     1
 93
        5
176
     1
 44
0.0
176
     1
173
     0
176
     1
1001
ACAD
1000
AcDbSavedByObjectVersion
1070
     0
  0
VISUALSTYLE
  5
41
102
{ACAD_XDICTIONARY
360
451
102
}
102
{ACAD_REACTORS
330
2A
102
}
330
2A
100
AcDbVisualStyle
  2
Shaded with edges
 70
    26
177
     2
291
     0
 71
     2
176
     1
 72
     2
176
     1
 73
     1
176
     1
 90
        2
176
     1
 40
0.6
176
     1
 41
30.0
176
     1
 63
     7
421
 16777215
176
     1
 74
     1
176
     1
 91
       10
176
     1
 64
     7
176
     1
 65
   257
176
     1
 75
     2
176
     1
175
     1
176
     1
 42
1.0
176
     1
 92
        8
176
     1
 66
   257
176
     1
 43
1.0
176
     1
 76
     1
176
     1
 77
     6
176
     1
 78
     2
176
     1
 67
     7
176
     1
 79
     3
176
     1
170
     0
176
     1
171
     0
176
     1
290
     0
176
     1
 93
        5
176
     1
 44
0.0
176
     1
173
     0
176
     1
1001
ACAD
1000
AcDbSavedByObjectVersion
1070
     0
  0
VISUALSTYLE
  5
3E
102
{ACAD_XDICTIONARY
360
44B
102
}
102
{ACAD_REACTORS
330
2A
102
}
330
2A
100
AcDbVisualStyle
  2
Shades of Gray
 70
    23
177
     2
291
     0
 71
     2
176
     1
 72
     2
176
     1
 73
     3
176
     1
 90
        0
176
     1
 40
0.6
176
     1
 41
30.0
176
     1
 63
     7
421
 16777215
176
     1
 74
     2
176
     1
 91
        2
176
     1
 64
     7
176
     1
 65
     7
176
     1
 75
     1
176
     1
175
     1
176
     1
 42
40.0
176
     1
 92
        8
176
     1
 66
     7
176
     1
 43
1.0
176
     1
 76
     1
176
     1
 77
     6
176
     1
 78
     2
176
     1
 67
     7
176
     1
 79
     3
176
     1
170
     0
176
     1
171
     0
176
     1
290
     0
176
     1
 93
        1
176
     1
 44
0.0
176
     1
173
     0
176
     1
1001
ACAD
1000
AcDbSavedByObjectVersion
1070
     0
  0
VISUALSTYLE
  5
3F
102
{ACAD_XDICTIONARY
360
44D
102
}
102
{ACAD_REACTORS
330
2A
102
}
330
2A
100
AcDbVisualStyle
  2
Sketchy
 70
    24
177
     2
291
     0
 71
     1
176
     1
 72
     2
176
     1
 73
     2
176
     1
 90
        0
176
     1
 40
0.6
176
     1
 41
30.0
176
     1
 63
     7
421
 16777215
176
     1
 74
     2
176
     1
 91
        2
176
     1
 64
     7
176
     1
 65
     7
176
     1
 75
     1
176
     1
175
     1
176
     1
 42
40.0
176
     1
 92
       11
176
     1
 66
     7
176
     1
 43
1.0
176
     1
 76
     1
176
     1
 77
     6
176
     1
 78
     2
176
     1
 67
     7
176
     1
 79
     6
176
     1
170
     0
176
     1
171
     0
176
     1
290
     0
176
     1
 93
        1
176
     1
 44
0.0
176
     1
173
     0
176
     1
1001
ACAD
1000
AcDbSavedByObjectVersion
1070
     0
  0
VISUALSTYLE
  5
37
102
{ACAD_XDICTIONARY
360
43D
102
}
102
{ACAD_REACTORS
330
2A
102
}
330
2A
100
AcDbVisualStyle
  2
Thicken
 70
    13
177
     2
291
     1
 71
     2
176
     1
 72
     2
176
     1
 73
     0
176
     1
 90
        0
176
     1
 40
0.6
176
     1
 41
30.0
176
     1
 63
     7
421
 16777215
176
     1
 74
     1
176
     1
 91
        4
176
     1
 64
     7
176
     1
 65
   257
176
     1
 75
     1
176
     1
175
     1
176
     1
 42
1.0
176
     1
 92
       12
176
     1
 66
     7
176
     1
 43
1.0
176
     1
 76
     1
176
     1
 77
     6
176
     1
 78
     2
176
     1
 67
     7
176
     1
 79
     5
176
     1
170
     0
176
     1
171
     0
176
     1
290
     0
176
     1
 93
        1
176
     1
 44
0.0
176
     1
173
     0
176
     1
1001
ACAD
1000
AcDbSavedByObjectVersion
1070
     0
  0
VISUALSTYLE
  5
30
102
{ACAD_XDICTIONARY
360
42F
102
}
102
{ACAD_REACTORS
330
2A
102
}
330
2A
100
AcDbVisualStyle
  2
Wireframe
 70
     5
177
     2
291
     0
 71
     0
176
     1
 72
     2
176
     1
 73
     0
176
     1
 90
        0
176
     1
 40
0.6
176
     1
 41
30.0
176
     1
 63
     7
421
 16777215
176
     1
 74
     1
176
     1
 91
        4
176
     1
 64
     7
176
     1
 65
   257
176
     1
 75
     1
176
     1
175
     1
176
     1
 42
1.0
176
     1
 92
        0
176
     1
 66
   257
176
     1
 43
1.0
176
     1
 76
     1
176
     1
 77
     6
176
     1
 78
     2
176
     1
 67
     7
176
     1
 79
     3
176
     1
170
     0
176
     1
171
     0
176
     1
290
     0
176
     1
 93
        1
176
     1
 44
0.0
176
     1
173
     0
176
     1
1001
ACAD
1000
AcDbSavedByObjectVersion
1070
     0
  0
VISUALSTYLE
  5
40
102
{ACAD_XDICTIONARY
360
44F
102
}
102
{ACAD_REACTORS
330
2A
102
}
330
2A
100
AcDbVisualStyle
  2
X-Ray
 70
    25
177
     2
291
     0
 71
     2
176
     1
 72
     2
176
     1
 73
     1
176
     1
 90
        1
176
     1
 40
0.5
176
     1
 41
30.0
176
     1
 63
     7
421
 16777215
176
     1
 74
     1
176
     1
 91
        0
176
     1
 64
     7
176
     1
 65
   257
176
     1
 75
     1
176
     1
175
     1
176
     1
 42
1.0
176
     1
 92
        8
176
     1
 66
     7
176
     1
 43
1.0
176
     1
 76
     1
176
     1
 77
     6
176
     1
 78
     2
176
     1
 67
     7
176
     1
 79
     3
176
     1
170
     0
176
     1
171
     0
176
     1
290
     0
176
     1
 93
       13
176
     1
 44
0.0
176
     1
173
     0
176
     1
1001
ACAD
1000
AcDbSavedByObjectVersion
1070
     0
  0
DICTIONARYVAR
  5
331
102
{ACAD_REACTORS
330
330
102
}
330
330
100
DictionaryVariables
280
     0
  1
1:1
  0
DICTIONARYVAR
  5
372
102
{ACAD_REACTORS
330
330
102
}
330
330
100
DictionaryVariables
280
     0
  1
STANDARD
  0
DICTIONARYVAR
  5
371
102
{ACAD_REACTORS
330
330
102
}
330
330
100
DictionaryVariables
280
     0
  1
STANDARD
  0
DICTIONARYVAR
  5
41E
102
{ACAD_REACTORS
330
330
102
}
330
330
100
DictionaryVariables
280
     0
  1
Imperial24
  0
DICTIONARYVAR
  5
41F
102
{ACAD_REACTORS
330
330
102
}
330
330
100
DictionaryVariables
280
     0
  1
Imperial24
  0
DICTIONARYVAR
  5
421
102
{ACAD_REACTORS
330
330
102
}
330
330
100
DictionaryVariables
280
     0
  1
1
  0
DICTIONARYVAR
  5
422
102
{ACAD_REACTORS
330
330
102
}
330
330
100
DictionaryVariables
280
     0
  1
15
  0
DICTIONARYVAR
  5
420
102
{ACAD_REACTORS
330
330
102
}
330
330
100
DictionaryVariables
280
     0
  1
0
  0
DICTIONARYVAR
  5
332
102
{ACAD_REACTORS
330
330
102
}
330
330
100
DictionaryVariables
280
     0
  1
1
  0
DICTIONARY
  5
457
330
403
100
AcDbDictionary
280
     1
281
     1
  3
ACAD_XREC_ROUNDTRIP
360
458
  0
DICTIONARY
  5
455
330
402
100
AcDbDictionary
280
     1
281
     1
  3
ACAD_XREC_ROUNDTRIP
360
456
  0
DICTIONARY
  5
3FA
330
6A
100
AcDbDictionary
280
     1
281
     1
  3
ACAD_ROUNDTRIP_2008_TABLESTYLE_CELLSTYLEMAP
360
423
  0
DICTIONARY
  5
42D
330
2F
100
AcDbDictionary
280
     1
281
     1
  3
ACAD_XREC_ROUNDTRIP
360
42E
  0
DICTIONARY
  5
433
330
32
100
AcDbDictionary
280
     1
281
     1
  3
ACAD_XREC_ROUNDTRIP
360
434
  0
DICTIONARY
  5
43B
330
36
100
AcDbDictionary
280
     1
281
     1
  3
ACAD_XREC_ROUNDTRIP
360
43C
  0
DICTIONARY
  5
443
330
3A
100
AcDbDictionary
280
     1
281
     1
  3
ACAD_XREC_ROUNDTRIP
360
444
  0
DICTIONARY
  5
437
330
34
100
AcDbDictionary
280
     1
281
     1
  3
ACAD_XREC_ROUNDTRIP
360
438
  0
DICTIONARY
  5
439
330
35
100
AcDbDictionary
280
     1
281
     1
  3
ACAD_XREC_ROUNDTRIP
360
43A
  0
DICTIONARY
  5
449
330
3D
100
AcDbDictionary
280
     1
281
     1
  3
ACAD_XREC_ROUNDTRIP
360
44A
  0
DICTIONARY
  5
441
330
39
100
AcDbDictionary
280
     1
281
     1
  3
ACAD_XREC_ROUNDTRIP
360
442
  0
DICTIONARY
  5
425
330
2B
100
AcDbDictionary
280
     1
281
     1
  3
ACAD_XREC_ROUNDTRIP
360
426
  0
DICTIONARY
  5
427
330
2C
100
AcDbDictionary
280
     1
281
     1
  3
ACAD_XREC_ROUNDTRIP
360
428
  0
DICTIONARY
  5
429
330
2D
100
AcDbDictionary
280
     1
281
     1
  3
ACAD_XREC_ROUNDTRIP
360
42A
  0
DICTIONARY
  5
42B
330
2E
100
AcDbDictionary
280
     1
281
     1
  3
ACAD_XREC_ROUNDTRIP
360
42C
  0
DICTIONARY
  5
431
330
31
100
AcDbDictionary
280
     1
281
     1
  3
ACAD_XREC_ROUNDTRIP
360
432
  0
DICTIONARY
  5
445
330
3B
100
AcDbDictionary
280
     1
281
     1
  3
ACAD_XREC_ROUNDTRIP
360
446
  0
DICTIONARY
  5
43F
330
38
100
AcDbDictionary
280
     1
281
     1
  3
ACAD_XREC_ROUNDTRIP
360
440
  0
DICTIONARY
  5
447
330
3C
100
AcDbDictionary
280
     1
281
     1
  3
ACAD_XREC_ROUNDTRIP
360
448
  0
DICTIONARY
  5
435
330
33
100
AcDbDictionary
280
     1
281
     1
  3
ACAD_XREC_ROUNDTRIP
360
436
  0
DICTIONARY
  5
453
330
42
100
AcDbDictionary
280
     1
281
     1
  3
ACAD_XREC_ROUNDTRIP
360
454
  0
DICTIONARY
  5
451
330
41
100
AcDbDictionary
280
     1
281
     1
  3
ACAD_XREC_ROUNDTRIP
360
452
  0
DICTIONARY
  5
44B
330
3E
100
AcDbDictionary
280
     1
281
     1
  3
ACAD_XREC_ROUNDTRIP
360
44C
  0
DICTIONARY
  5
44D
330
3F
100
AcDbDictionary
280
     1
281
     1
  3
ACAD_XREC_ROUNDTRIP
360
44E
  0
DICTIONARY
  5
43D
330
37
100
AcDbDictionary
280
     1
281
     1
  3
ACAD_XREC_ROUNDTRIP
360
43E
  0
DICTIONARY
  5
42F
330
30
100
AcDbDictionary
280
     1
281
     1
  3
ACAD_XREC_ROUNDTRIP
360
430
  0
DICTIONARY
  5
44F
330
40
100
AcDbDictionary
280
     1
281
     1
  3
ACAD_XREC_ROUNDTRIP
360
450
  0
XRECORD
  5
458
102
{ACAD_REACTORS
330
457
102
}
330
457
100
AcDbXrecord
280
     1
102
DISPLAYNAME
  1
Imperial24
102
FLAGS
 90
        0
  0
XRECORD
  5
456
102
{ACAD_REACTORS
330
455
102
}
330
455
100
AcDbXrecord
280
     1
102
DISPLAYNAME
  1
Imperial24
102
FLAGS
 90
        0
  0
CELLSTYLEMAP
  5
423
102
{ACAD_REACTORS
330
3FA
102
}
330
3FA
100
AcDbCellStyleMap
 90
        3
300
CELLSTYLE
  1
TABLEFORMAT_BEGIN
 90
        5
170
     1
 91
        0
 92
    32768
 62
   257
 93
        1
300
CONTENTFORMAT
  1
CONTENTFORMAT_BEGIN
 90
        0
 91
        0
 92
        4
 93
        0
300

 40
0.0
140
1.0
 94
        5
 62
     0
340
11
144
0.25
309
CONTENTFORMAT_END
171
     1
301
MARGIN
  1
CELLMARGIN_BEGIN
 40
0.06
 40
0.06
 40
0.06
 40
0.06
 40
0.06
 40
0.06
309
CELLMARGIN_END
 94
        6
 95
        1
302
GRIDFORMAT
  1
GRIDFORMAT_BEGIN
 90
        0
 91
        1
 62
     0
 92
       -2
340
14
 93
        0
 40
0.045
309
GRIDFORMAT_END
 95
        2
302
GRIDFORMAT
  1
GRIDFORMAT_BEGIN
 90
        0
 91
        1
 62
     0
 92
       -2
340
14
 93
        0
 40
0.045
309
GRIDFORMAT_END
 95
        4
302
GRIDFORMAT
  1
GRIDFORMAT_BEGIN
 90
        0
 91
        1
 62
     0
 92
       -2
340
14
 93
        0
 40
0.045
309
GRIDFORMAT_END
 95
        8
302
GRIDFORMAT
  1
GRIDFORMAT_BEGIN
 90
        0
 91
        1
 62
     0
 92
       -2
340
14
 93
        0
 40
0.045
309
GRIDFORMAT_END
 95
       16
302
GRIDFORMAT
  1
GRIDFORMAT_BEGIN
 90
        0
 91
        1
 62
     0
 92
       -2
340
14
 93
        0
 40
0.045
309
GRIDFORMAT_END
 95
       32
302
GRIDFORMAT
  1
GRIDFORMAT_BEGIN
 90
        0
 91
        1
 62
     0
 92
       -2
340
14
 93
        0
 40
0.045
309
GRIDFORMAT_END
309
TABLEFORMAT_END
  1
CELLSTYLE_BEGIN
 90
        1
 91
        1
300
_TITLE
309
CELLSTYLE_END
300
CELLSTYLE
  1
TABLEFORMAT_BEGIN
 90
        5
170
     1
 91
        0
 92
        0
 62
   257
 93
        1
300
CONTENTFORMAT
  1
CONTENTFORMAT_BEGIN
 90
        0
 91
        0
 92
        4
 93
        0
300

 40
0.0
140
1.0
 94
        5
 62
     0
340
11
144
0.18
309
CONTENTFORMAT_END
171
     1
301
MARGIN
  1
CELLMARGIN_BEGIN
 40
0.06
 40
0.06
 40
0.06
 40
0.06
 40
0.06
 40
0.06
309
CELLMARGIN_END
 94
        6
 95
        1
302
GRIDFORMAT
  1
GRIDFORMAT_BEGIN
 90
        0
 91
        1
 62
     0
 92
       -2
340
14
 93
        0
 40
0.045
309
GRIDFORMAT_END
 95
        2
302
GRIDFORMAT
  1
GRIDFORMAT_BEGIN
 90
        0
 91
        1
 62
     0
 92
       -2
340
14
 93
        0
 40
0.045
309
GRIDFORMAT_END
 95
        4
302
GRIDFORMAT
  1
GRIDFORMAT_BEGIN
 90
        0
 91
        1
 62
     0
 92
       -2
340
14
 93
        0
 40
0.045
309
GRIDFORMAT_END
 95
        8
302
GRIDFORMAT
  1
GRIDFORMAT_BEGIN
 90
        0
 91
        1
 62
     0
 92
       -2
340
14
 93
        0
 40
0.045
309
GRIDFORMAT_END
 95
       16
302
GRIDFORMAT
  1
GRIDFORMAT_BEGIN
 90
        0
 91
        1
 62
     0
 92
       -2
340
14
 93
        0
 40
0.045
309
GRIDFORMAT_END
 95
       32
302
GRIDFORMAT
  1
GRIDFORMAT_BEGIN
 90
        0
 91
        1
 62
     0
 92
       -2
340
14
 93
        0
 40
0.045
309
GRIDFORMAT_END
309
TABLEFORMAT_END
  1
CELLSTYLE_BEGIN
 90
        2
 91
        1
300
_HEADER
309
CELLSTYLE_END
300
CELLSTYLE
  1
TABLEFORMAT_BEGIN
 90
        5
170
     1
 91
        0
 92
        0
 62
   257
 93
        1
300
CONTENTFORMAT
  1
CONTENTFORMAT_BEGIN
 90
        0
 91
        0
 92
        4
 93
        0
300

 40
0.0
140
1.0
 94
        2
 62
     0
340
11
144
0.18
309
CONTENTFORMAT_END
171
     1
301
MARGIN
  1
CELLMARGIN_BEGIN
 40
0.06
 40
0.06
 40
0.06
 40
0.06
 40
0.06
 40
0.06
309
CELLMARGIN_END
 94
        6
 95
        1
302
GRIDFORMAT
  1
GRIDFORMAT_BEGIN
 90
        0
 91
        1
 62
     0
 92
       -2
340
14
 93
        0
 40
0.045
309
GRIDFORMAT_END
 95
        2
302
GRIDFORMAT
  1
GRIDFORMAT_BEGIN
 90
        0
 91
        1
 62
     0
 92
       -2
340
14
 93
        0
 40
0.045
309
GRIDFORMAT_END
 95
        4
302
GRIDFORMAT
  1
GRIDFORMAT_BEGIN
 90
        0
 91
        1
 62
     0
 92
       -2
340
14
 93
        0
 40
0.045
309
GRIDFORMAT_END
 95
        8
302
GRIDFORMAT
  1
GRIDFORMAT_BEGIN
 90
        0
 91
        1
 62
     0
 92
       -2
340
14
 93
        0
 40
0.045
309
GRIDFORMAT_END
 95
       16
302
GRIDFORMAT
  1
GRIDFORMAT_BEGIN
 90
        0
 91
        1
 62
     0
 92
       -2
340
14
 93
        0
 40
0.045
309
GRIDFORMAT_END
 95
       32
302
GRIDFORMAT
  1
GRIDFORMAT_BEGIN
 90
        0
 91
        1
 62
     0
 92
       -2
340
14
 93
        0
 40
0.045
309
GRIDFORMAT_END
309
TABLEFORMAT_END
  1
CELLSTYLE_BEGIN
 90
        3
 91
        2
300
_DATA
309
CELLSTYLE_END
  0
XRECORD
  5
42E
102
{ACAD_REACTORS
330
42D
102
}
330
42D
100
AcDbXrecord
280
     1
102
RTVSPost2010Prop28
280
     1
102
RTVSPost2010PropOp28
 70
     1
102
RTVSPost2010Prop29
280
     1
102
RTVSPost2010PropOp29
 70
     1
102
RTVSPost2010Prop30
280
     0
102
RTVSPost2010PropOp30
 70
     1
102
RTVSPost2010Prop31
280
     0
102
RTVSPost2010PropOp31
 70
     1
102
RTVSPost2010Prop32
280
     0
102
RTVSPost2010PropOp32
 70
     1
102
RTVSPost2010Prop33
280
     0
102
RTVSPost2010PropOp33
 70
     1
102
RTVSPost2010Prop34
280
     0
102
RTVSPost2010PropOp34
 70
     1
102
RTVSPost2010Prop35
280
     0
102
RTVSPost2010PropOp35
 70
     1
102
RTVSPost2010Prop36
280
     0
102
RTVSPost2010PropOp36
 70
     1
102
RTVSPost2010Prop37
 90
       50
102
RTVSPost2010PropOp37
 70
     1
102
RTVSPost2010Prop38
140
0.0
102
RTVSPost2010PropOp38
 70
     1
102
RTVSPost2010Prop39
140
1.0
102
RTVSPost2010PropOp39
 70
     1
102
RTVSPost2010Prop40
 90
        0
102
RTVSPost2010PropOp40
 70
     1
102
RTVSPost2010Prop41ColorIndex
 90
       18
102
RTVSPost2010Prop41ColorRGB
 90
        0
102
RTVSPost2010PropOp41
 70
     1
102
RTVSPost2010Prop42
 90
       50
102
RTVSPost2010PropOp42
 70
     1
102
RTVSPost2010Prop43
 90
        3
102
RTVSPost2010PropOp43
 70
     1
102
RTVSPost2010Prop44ColorIndex
 90
        5
102
RTVSPost2010Prop44ColorRGB
 90
      255
102
RTVSPost2010PropOp44
 70
     1
102
RTVSPost2010Prop45
280
     0
102
RTVSPost2010PropOp45
 70
     1
102
RTVSPost2010Prop46
 90
       50
102
RTVSPost2010PropOp46
 70
     1
102
RTVSPost2010Prop47
 90
       50
102
RTVSPost2010PropOp47
 70
     1
102
RTVSPost2010Prop48
 90
       50
102
RTVSPost2010PropOp48
 70
     1
102
RTVSPost2010Prop49
280
     0
102
RTVSPost2010PropOp49
 70
     1
102
RTVSPost2010Prop50
 90
       50
102
RTVSPost2010PropOp50
 70
     1
102
RTVSPost2010Prop51ColorIndex
 90
      256
102
RTVSPost2010Prop51ColorRGB
 90
-16777216
102
RTVSPost2010PropOp51
 70
     0
102
RTVSPost2010Prop52
140
1.0
102
RTVSPost2010PropOp52
 70
     0
102
RTVSPost2010Prop53
 90
        2
102
RTVSPost2010PropOp53
 70
     1
102
RTVSPost2010Prop54
  1
strokes_ogs.tif
102
RTVSPost2010PropOp54
 70
     1
102
RTVSPost2010Prop55
280
     0
102
RTVSPost2010PropOp55
 70
     1
102
RTVSPost2010Prop56
140
1.0
102
RTVSPost2010PropOp56
 70
     1
102
RTVSPost2010Prop57
140
1.0
102
RTVSPost2010PropOp57
 70
     1
  0
XRECORD
  5
434
102
{ACAD_REACTORS
330
433
102
}
330
433
100
AcDbXrecord
280
     1
102
RTVSPost2010Prop28
280
     0
102
RTVSPost2010PropOp28
 70
     1
102
RTVSPost2010Prop29
280
     1
102
RTVSPost2010PropOp29
 70
     1
102
RTVSPost2010Prop30
280
     1
102
RTVSPost2010PropOp30
 70
     1
102
RTVSPost2010Prop31
280
     0
102
RTVSPost2010PropOp31
 70
     1
102
RTVSPost2010Prop32
280
     0
102
RTVSPost2010PropOp32
 70
     1
102
RTVSPost2010Prop33
280
     0
102
RTVSPost2010PropOp33
 70
     1
102
RTVSPost2010Prop34
280
     0
102
RTVSPost2010PropOp34
 70
     1
102
RTVSPost2010Prop35
280
     0
102
RTVSPost2010PropOp35
 70
     1
102
RTVSPost2010Prop36
280
     0
102
RTVSPost2010PropOp36
 70
     1
102
RTVSPost2010Prop37
 90
       50
102
RTVSPost2010PropOp37
 70
     1
102
RTVSPost2010Prop38
140
0.0
102
RTVSPost2010PropOp38
 70
     1
102
RTVSPost2010Prop39
140
1.0
102
RTVSPost2010PropOp39
 70
     1
102
RTVSPost2010Prop40
 90
        0
102
RTVSPost2010PropOp40
 70
     1
102
RTVSPost2010Prop41ColorIndex
 90
       18
102
RTVSPost2010Prop41ColorRGB
 90
        0
102
RTVSPost2010PropOp41
 70
     1
102
RTVSPost2010Prop42
 90
       50
102
RTVSPost2010PropOp42
 70
     1
102
RTVSPost2010Prop43
 90
        3
102
RTVSPost2010PropOp43
 70
     1
102
RTVSPost2010Prop44ColorIndex
 90
        5
102
RTVSPost2010Prop44ColorRGB
 90
      255
102
RTVSPost2010PropOp44
 70
     1
102
RTVSPost2010Prop45
280
     0
102
RTVSPost2010PropOp45
 70
     1
102
RTVSPost2010Prop46
 90
       50
102
RTVSPost2010PropOp46
 70
     1
102
RTVSPost2010Prop47
 90
       50
102
RTVSPost2010PropOp47
 70
     1
102
RTVSPost2010Prop48
 90
       50
102
RTVSPost2010PropOp48
 70
     1
102
RTVSPost2010Prop49
280
     0
102
RTVSPost2010PropOp49
 70
     1
102
RTVSPost2010Prop50
 90
       50
102
RTVSPost2010PropOp50
 70
     1
102
RTVSPost2010Prop51ColorIndex
 90
      256
102
RTVSPost2010Prop51ColorRGB
 90
-16777216
102
RTVSPost2010PropOp51
 70
     0
102
RTVSPost2010Prop52
140
1.0
102
RTVSPost2010PropOp52
 70
     0
102
RTVSPost2010Prop53
 90
        2
102
RTVSPost2010PropOp53
 70
     1
102
RTVSPost2010Prop54
  1
strokes_ogs.tif
102
RTVSPost2010PropOp54
 70
     1
102
RTVSPost2010Prop55
280
     0
102
RTVSPost2010PropOp55
 70
     1
102
RTVSPost2010Prop56
140
1.0
102
RTVSPost2010PropOp56
 70
     1
102
RTVSPost2010Prop57
140
1.0
102
RTVSPost2010PropOp57
 70
     1
  0
XRECORD
  5
43C
102
{ACAD_REACTORS
330
43B
102
}
330
43B
100
AcDbXrecord
280
     1
102
RTVSPost2010Prop28
280
     0
102
RTVSPost2010PropOp28
 70
     1
102
RTVSPost2010Prop29
280
     1
102
RTVSPost2010PropOp29
 70
     1
102
RTVSPost2010Prop30
280
     1
102
RTVSPost2010PropOp30
 70
     1
102
RTVSPost2010Prop31
280
     0
102
RTVSPost2010PropOp31
 70
     1
102
RTVSPost2010Prop32
280
     0
102
RTVSPost2010PropOp32
 70
     1
102
RTVSPost2010Prop33
280
     0
102
RTVSPost2010PropOp33
 70
     1
102
RTVSPost2010Prop34
280
     0
102
RTVSPost2010PropOp34
 70
     1
102
RTVSPost2010Prop35
280
     0
102
RTVSPost2010PropOp35
 70
     1
102
RTVSPost2010Prop36
280
     0
102
RTVSPost2010PropOp36
 70
     1
102
RTVSPost2010Prop37
 90
       50
102
RTVSPost2010PropOp37
 70
     1
102
RTVSPost2010Prop38
140
0.0
102
RTVSPost2010PropOp38
 70
     1
102
RTVSPost2010Prop39
140
1.0
102
RTVSPost2010PropOp39
 70
     1
102
RTVSPost2010Prop40
 90
        0
102
RTVSPost2010PropOp40
 70
     1
102
RTVSPost2010Prop41ColorIndex
 90
       18
102
RTVSPost2010Prop41ColorRGB
 90
        0
102
RTVSPost2010PropOp41
 70
     1
102
RTVSPost2010Prop42
 90
       50
102
RTVSPost2010PropOp42
 70
     1
102
RTVSPost2010Prop43
 90
        3
102
RTVSPost2010PropOp43
 70
     1
102
RTVSPost2010Prop44ColorIndex
 90
        5
102
RTVSPost2010Prop44ColorRGB
 90
      255
102
RTVSPost2010PropOp44
 70
     1
102
RTVSPost2010Prop45
280
     0
102
RTVSPost2010PropOp45
 70
     1
102
RTVSPost2010Prop46
 90
       50
102
RTVSPost2010PropOp46
 70
     1
102
RTVSPost2010Prop47
 90
       50
102
RTVSPost2010PropOp47
 70
     1
102
RTVSPost2010Prop48
 90
       50
102
RTVSPost2010PropOp48
 70
     1
102
RTVSPost2010Prop49
280
     0
102
RTVSPost2010PropOp49
 70
     1
102
RTVSPost2010Prop50
 90
       50
102
RTVSPost2010PropOp50
 70
     1
102
RTVSPost2010Prop51ColorIndex
 90
      256
102
RTVSPost2010Prop51ColorRGB
 90
-16777216
102
RTVSPost2010PropOp51
 70
     0
102
RTVSPost2010Prop52
140
1.0
102
RTVSPost2010PropOp52
 70
     0
102
RTVSPost2010Prop53
 90
        2
102
RTVSPost2010PropOp53
 70
     1
102
RTVSPost2010Prop54
  1
strokes_ogs.tif
102
RTVSPost2010PropOp54
 70
     1
102
RTVSPost2010Prop55
280
     0
102
RTVSPost2010PropOp55
 70
     1
102
RTVSPost2010Prop56
140
1.0
102
RTVSPost2010PropOp56
 70
     1
102
RTVSPost2010Prop57
140
1.0
102
RTVSPost2010PropOp57
 70
     1
  0
XRECORD
  5
444
102
{ACAD_REACTORS
330
443
102
}
330
443
100
AcDbXrecord
280
     1
102
RTVSPost2010Prop28
280
     0
102
RTVSPost2010PropOp28
 70
     1
102
RTVSPost2010Prop29
280
     1
102
RTVSPost2010PropOp29
 70
     1
102
RTVSPost2010Prop30
280
     1
102
RTVSPost2010PropOp30
 70
     1
102
RTVSPost2010Prop31
280
     0
102
RTVSPost2010PropOp31
 70
     1
102
RTVSPost2010Prop32
280
     0
102
RTVSPost2010PropOp32
 70
     1
102
RTVSPost2010Prop33
280
     0
102
RTVSPost2010PropOp33
 70
     1
102
RTVSPost2010Prop34
280
     0
102
RTVSPost2010PropOp34
 70
     1
102
RTVSPost2010Prop35
280
     0
102
RTVSPost2010PropOp35
 70
     1
102
RTVSPost2010Prop36
280
     0
102
RTVSPost2010PropOp36
 70
     1
102
RTVSPost2010Prop37
 90
       50
102
RTVSPost2010PropOp37
 70
     1
102
RTVSPost2010Prop38
140
0.0
102
RTVSPost2010PropOp38
 70
     1
102
RTVSPost2010Prop39
140
1.0
102
RTVSPost2010PropOp39
 70
     1
102
RTVSPost2010Prop40
 90
        0
102
RTVSPost2010PropOp40
 70
     1
102
RTVSPost2010Prop41ColorIndex
 90
       18
102
RTVSPost2010Prop41ColorRGB
 90
        0
102
RTVSPost2010PropOp41
 70
     1
102
RTVSPost2010Prop42
 90
       50
102
RTVSPost2010PropOp42
 70
     1
102
RTVSPost2010Prop43
 90
        3
102
RTVSPost2010PropOp43
 70
     1
102
RTVSPost2010Prop44ColorIndex
 90
        5
102
RTVSPost2010Prop44ColorRGB
 90
      255
102
RTVSPost2010PropOp44
 70
     1
102
RTVSPost2010Prop45
280
     0
102
RTVSPost2010PropOp45
 70
     1
102
RTVSPost2010Prop46
 90
       50
102
RTVSPost2010PropOp46
 70
     1
102
RTVSPost2010Prop47
 90
       50
102
RTVSPost2010PropOp47
 70
     1
102
RTVSPost2010Prop48
 90
       50
102
RTVSPost2010PropOp48
 70
     1
102
RTVSPost2010Prop49
280
     0
102
RTVSPost2010PropOp49
 70
     1
102
RTVSPost2010Prop50
 90
       50
102
RTVSPost2010PropOp50
 70
     1
102
RTVSPost2010Prop51ColorIndex
 90
      256
102
RTVSPost2010Prop51ColorRGB
 90
-16777216
102
RTVSPost2010PropOp51
 70
     0
102
RTVSPost2010Prop52
140
1.0
102
RTVSPost2010PropOp52
 70
     0
102
RTVSPost2010Prop53
 90
        2
102
RTVSPost2010PropOp53
 70
     1
102
RTVSPost2010Prop54
  1
strokes_ogs.tif
102
RTVSPost2010PropOp54
 70
     1
102
RTVSPost2010Prop55
280
     0
102
RTVSPost2010PropOp55
 70
     1
102
RTVSPost2010Prop56
140
1.0
102
RTVSPost2010PropOp56
 70
     1
102
RTVSPost2010Prop57
140
1.0
102
RTVSPost2010PropOp57
 70
     1
  0
XRECORD
  5
438
102
{ACAD_REACTORS
330
437
102
}
330
437
100
AcDbXrecord
280
     1
102
RTVSPost2010Prop28
280
     0
102
RTVSPost2010PropOp28
 70
     1
102
RTVSPost2010Prop29
280
     1
102
RTVSPost2010PropOp29
 70
     1
102
RTVSPost2010Prop30
280
     1
102
RTVSPost2010PropOp30
 70
     1
102
RTVSPost2010Prop31
280
     0
102
RTVSPost2010PropOp31
 70
     1
102
RTVSPost2010Prop32
280
     0
102
RTVSPost2010PropOp32
 70
     1
102
RTVSPost2010Prop33
280
     0
102
RTVSPost2010PropOp33
 70
     1
102
RTVSPost2010Prop34
280
     0
102
RTVSPost2010PropOp34
 70
     1
102
RTVSPost2010Prop35
280
     0
102
RTVSPost2010PropOp35
 70
     1
102
RTVSPost2010Prop36
280
     0
102
RTVSPost2010PropOp36
 70
     1
102
RTVSPost2010Prop37
 90
       50
102
RTVSPost2010PropOp37
 70
     1
102
RTVSPost2010Prop38
140
0.0
102
RTVSPost2010PropOp38
 70
     1
102
RTVSPost2010Prop39
140
1.0
102
RTVSPost2010PropOp39
 70
     1
102
RTVSPost2010Prop40
 90
        0
102
RTVSPost2010PropOp40
 70
     1
102
RTVSPost2010Prop41ColorIndex
 90
       18
102
RTVSPost2010Prop41ColorRGB
 90
        0
102
RTVSPost2010PropOp41
 70
     1
102
RTVSPost2010Prop42
 90
       50
102
RTVSPost2010PropOp42
 70
     1
102
RTVSPost2010Prop43
 90
        3
102
RTVSPost2010PropOp43
 70
     1
102
RTVSPost2010Prop44ColorIndex
 90
        5
102
RTVSPost2010Prop44ColorRGB
 90
      255
102
RTVSPost2010PropOp44
 70
     1
102
RTVSPost2010Prop45
280
     0
102
RTVSPost2010PropOp45
 70
     1
102
RTVSPost2010Prop46
 90
       50
102
RTVSPost2010PropOp46
 70
     1
102
RTVSPost2010Prop47
 90
       50
102
RTVSPost2010PropOp47
 70
     1
102
RTVSPost2010Prop48
 90
       50
102
RTVSPost2010PropOp48
 70
     1
102
RTVSPost2010Prop49
280
     0
102
RTVSPost2010PropOp49
 70
     1
102
RTVSPost2010Prop50
 90
       50
102
RTVSPost2010PropOp50
 70
     1
102
RTVSPost2010Prop51ColorIndex
 90
      256
102
RTVSPost2010Prop51ColorRGB
 90
-16777216
102
RTVSPost2010PropOp51
 70
     0
102
RTVSPost2010Prop52
140
1.0
102
RTVSPost2010PropOp52
 70
     0
102
RTVSPost2010Prop53
 90
        2
102
RTVSPost2010PropOp53
 70
     1
102
RTVSPost2010Prop54
  1
strokes_ogs.tif
102
RTVSPost2010PropOp54
 70
     1
102
RTVSPost2010Prop55
280
     0
102
RTVSPost2010PropOp55
 70
     1
102
RTVSPost2010Prop56
140
1.0
102
RTVSPost2010PropOp56
 70
     1
102
RTVSPost2010Prop57
140
1.0
102
RTVSPost2010PropOp57
 70
     1
  0
XRECORD
  5
43A
102
{ACAD_REACTORS
330
439
102
}
330
439
100
AcDbXrecord
280
     1
102
RTVSPost2010Prop28
280
     0
102
RTVSPost2010PropOp28
 70
     1
102
RTVSPost2010Prop29
280
     1
102
RTVSPost2010PropOp29
 70
     1
102
RTVSPost2010Prop30
280
     1
102
RTVSPost2010PropOp30
 70
     1
102
RTVSPost2010Prop31
280
     0
102
RTVSPost2010PropOp31
 70
     1
102
RTVSPost2010Prop32
280
     0
102
RTVSPost2010PropOp32
 70
     1
102
RTVSPost2010Prop33
280
     0
102
RTVSPost2010PropOp33
 70
     1
102
RTVSPost2010Prop34
280
     0
102
RTVSPost2010PropOp34
 70
     1
102
RTVSPost2010Prop35
280
     0
102
RTVSPost2010PropOp35
 70
     1
102
RTVSPost2010Prop36
280
     0
102
RTVSPost2010PropOp36
 70
     1
102
RTVSPost2010Prop37
 90
       50
102
RTVSPost2010PropOp37
 70
     1
102
RTVSPost2010Prop38
140
0.0
102
RTVSPost2010PropOp38
 70
     1
102
RTVSPost2010Prop39
140
1.0
102
RTVSPost2010PropOp39
 70
     1
102
RTVSPost2010Prop40
 90
        0
102
RTVSPost2010PropOp40
 70
     1
102
RTVSPost2010Prop41ColorIndex
 90
       18
102
RTVSPost2010Prop41ColorRGB
 90
        0
102
RTVSPost2010PropOp41
 70
     1
102
RTVSPost2010Prop42
 90
       50
102
RTVSPost2010PropOp42
 70
     1
102
RTVSPost2010Prop43
 90
        3
102
RTVSPost2010PropOp43
 70
     1
102
RTVSPost2010Prop44ColorIndex
 90
        5
102
RTVSPost2010Prop44ColorRGB
 90
      255
102
RTVSPost2010PropOp44
 70
     1
102
RTVSPost2010Prop45
280
     0
102
RTVSPost2010PropOp45
 70
     1
102
RTVSPost2010Prop46
 90
       50
102
RTVSPost2010PropOp46
 70
     1
102
RTVSPost2010Prop47
 90
       50
102
RTVSPost2010PropOp47
 70
     1
102
RTVSPost2010Prop48
 90
       50
102
RTVSPost2010PropOp48
 70
     1
102
RTVSPost2010Prop49
280
     0
102
RTVSPost2010PropOp49
 70
     1
102
RTVSPost2010Prop50
 90
       50
102
RTVSPost2010PropOp50
 70
     1
102
RTVSPost2010Prop51ColorIndex
 90
      256
102
RTVSPost2010Prop51ColorRGB
 90
-16777216
102
RTVSPost2010PropOp51
 70
     0
102
RTVSPost2010Prop52
140
1.0
102
RTVSPost2010PropOp52
 70
     0
102
RTVSPost2010Prop53
 90
        2
102
RTVSPost2010PropOp53
 70
     1
102
RTVSPost2010Prop54
  1
strokes_ogs.tif
102
RTVSPost2010PropOp54
 70
     1
102
RTVSPost2010Prop55
280
     0
102
RTVSPost2010PropOp55
 70
     1
102
RTVSPost2010Prop56
140
1.0
102
RTVSPost2010PropOp56
 70
     1
102
RTVSPost2010Prop57
140
1.0
102
RTVSPost2010PropOp57
 70
     1
  0
XRECORD
  5
44A
102
{ACAD_REACTORS
330
449
102
}
330
449
100
AcDbXrecord
280
     1
102
RTVSPost2010Prop28
280
     0
102
RTVSPost2010PropOp28
 70
     0
102
RTVSPost2010Prop29
280
     1
102
RTVSPost2010PropOp29
 70
     0
102
RTVSPost2010Prop30
280
     1
102
RTVSPost2010PropOp30
 70
     0
102
RTVSPost2010Prop31
280
     0
102
RTVSPost2010PropOp31
 70
     0
102
RTVSPost2010Prop32
280
     0
102
RTVSPost2010PropOp32
 70
     0
102
RTVSPost2010Prop33
280
     0
102
RTVSPost2010PropOp33
 70
     0
102
RTVSPost2010Prop34
280
     0
102
RTVSPost2010PropOp34
 70
     0
102
RTVSPost2010Prop35
280
     0
102
RTVSPost2010PropOp35
 70
     0
102
RTVSPost2010Prop36
280
     0
102
RTVSPost2010PropOp36
 70
     0
102
RTVSPost2010Prop37
 90
       50
102
RTVSPost2010PropOp37
 70
     0
102
RTVSPost2010Prop38
140
0.0
102
RTVSPost2010PropOp38
 70
     0
102
RTVSPost2010Prop39
140
1.0
102
RTVSPost2010PropOp39
 70
     0
102
RTVSPost2010Prop40
 90
        0
102
RTVSPost2010PropOp40
 70
     0
102
RTVSPost2010Prop41ColorIndex
 90
       18
102
RTVSPost2010Prop41ColorRGB
 90
        0
102
RTVSPost2010PropOp41
 70
     0
102
RTVSPost2010Prop42
 90
       50
102
RTVSPost2010PropOp42
 70
     0
102
RTVSPost2010Prop43
 90
        3
102
RTVSPost2010PropOp43
 70
     0
102
RTVSPost2010Prop44ColorIndex
 90
        5
102
RTVSPost2010Prop44ColorRGB
 90
      255
102
RTVSPost2010PropOp44
 70
     0
102
RTVSPost2010Prop45
280
     0
102
RTVSPost2010PropOp45
 70
     0
102
RTVSPost2010Prop46
 90
       50
102
RTVSPost2010PropOp46
 70
     0
102
RTVSPost2010Prop47
 90
       50
102
RTVSPost2010PropOp47
 70
     0
102
RTVSPost2010Prop48
 90
       50
102
RTVSPost2010PropOp48
 70
     0
102
RTVSPost2010Prop49
280
     0
102
RTVSPost2010PropOp49
 70
     0
102
RTVSPost2010Prop50
 90
       50
102
RTVSPost2010PropOp50
 70
     0
102
RTVSPost2010Prop51ColorIndex
 90
      256
102
RTVSPost2010Prop51ColorRGB
 90
-16777216
102
RTVSPost2010PropOp51
 70
     0
102
RTVSPost2010Prop52
140
1.0
102
RTVSPost2010PropOp52
 70
     0
102
RTVSPost2010Prop53
 90
        2
102
RTVSPost2010PropOp53
 70
     0
102
RTVSPost2010Prop54
  1
strokes_ogs.tif
102
RTVSPost2010PropOp54
 70
     0
102
RTVSPost2010Prop55
280
     0
102
RTVSPost2010PropOp55
 70
     0
102
RTVSPost2010Prop56
140
1.0
102
RTVSPost2010PropOp56
 70
     0
102
RTVSPost2010Prop57
140
1.0
102
RTVSPost2010PropOp57
 70
     0
  0
XRECORD
  5
442
102
{ACAD_REACTORS
330
441
102
}
330
441
100
AcDbXrecord
280
     1
102
RTVSPost2010Prop28
280
     0
102
RTVSPost2010PropOp28
 70
     1
102
RTVSPost2010Prop29
280
     1
102
RTVSPost2010PropOp29
 70
     1
102
RTVSPost2010Prop30
280
     1
102
RTVSPost2010PropOp30
 70
     1
102
RTVSPost2010Prop31
280
     0
102
RTVSPost2010PropOp31
 70
     1
102
RTVSPost2010Prop32
280
     0
102
RTVSPost2010PropOp32
 70
     1
102
RTVSPost2010Prop33
280
     0
102
RTVSPost2010PropOp33
 70
     1
102
RTVSPost2010Prop34
280
     0
102
RTVSPost2010PropOp34
 70
     1
102
RTVSPost2010Prop35
280
     0
102
RTVSPost2010PropOp35
 70
     1
102
RTVSPost2010Prop36
280
     0
102
RTVSPost2010PropOp36
 70
     1
102
RTVSPost2010Prop37
 90
       50
102
RTVSPost2010PropOp37
 70
     1
102
RTVSPost2010Prop38
140
0.0
102
RTVSPost2010PropOp38
 70
     1
102
RTVSPost2010Prop39
140
1.0
102
RTVSPost2010PropOp39
 70
     1
102
RTVSPost2010Prop40
 90
        0
102
RTVSPost2010PropOp40
 70
     1
102
RTVSPost2010Prop41ColorIndex
 90
       18
102
RTVSPost2010Prop41ColorRGB
 90
        0
102
RTVSPost2010PropOp41
 70
     1
102
RTVSPost2010Prop42
 90
       50
102
RTVSPost2010PropOp42
 70
     1
102
RTVSPost2010Prop43
 90
        3
102
RTVSPost2010PropOp43
 70
     1
102
RTVSPost2010Prop44ColorIndex
 90
        5
102
RTVSPost2010Prop44ColorRGB
 90
      255
102
RTVSPost2010PropOp44
 70
     1
102
RTVSPost2010Prop45
280
     0
102
RTVSPost2010PropOp45
 70
     1
102
RTVSPost2010Prop46
 90
       50
102
RTVSPost2010PropOp46
 70
     1
102
RTVSPost2010Prop47
 90
       50
102
RTVSPost2010PropOp47
 70
     1
102
RTVSPost2010Prop48
 90
       50
102
RTVSPost2010PropOp48
 70
     1
102
RTVSPost2010Prop49
280
     0
102
RTVSPost2010PropOp49
 70
     1
102
RTVSPost2010Prop50
 90
       50
102
RTVSPost2010PropOp50
 70
     1
102
RTVSPost2010Prop51ColorIndex
 90
      256
102
RTVSPost2010Prop51ColorRGB
 90
-16777216
102
RTVSPost2010PropOp51
 70
     0
102
RTVSPost2010Prop52
140
1.0
102
RTVSPost2010PropOp52
 70
     0
102
RTVSPost2010Prop53
 90
        2
102
RTVSPost2010PropOp53
 70
     1
102
RTVSPost2010Prop54
  1
strokes_ogs.tif
102
RTVSPost2010PropOp54
 70
     1
102
RTVSPost2010Prop55
280
     0
102
RTVSPost2010PropOp55
 70
     1
102
RTVSPost2010Prop56
140
1.0
102
RTVSPost2010PropOp56
 70
     1
102
RTVSPost2010Prop57
140
1.0
102
RTVSPost2010PropOp57
 70
     1
  0
XRECORD
  5
426
102
{ACAD_REACTORS
330
425
102
}
330
425
100
AcDbXrecord
280
     1
102
RTVSPost2010Prop28
280
     0
102
RTVSPost2010PropOp28
 70
     1
102
RTVSPost2010Prop29
280
     1
102
RTVSPost2010PropOp29
 70
     1
102
RTVSPost2010Prop30
280
     1
102
RTVSPost2010PropOp30
 70
     1
102
RTVSPost2010Prop31
280
     0
102
RTVSPost2010PropOp31
 70
     1
102
RTVSPost2010Prop32
280
     0
102
RTVSPost2010PropOp32
 70
     1
102
RTVSPost2010Prop33
280
     0
102
RTVSPost2010PropOp33
 70
     1
102
RTVSPost2010Prop34
280
     0
102
RTVSPost2010PropOp34
 70
     1
102
RTVSPost2010Prop35
280
     0
102
RTVSPost2010PropOp35
 70
     1
102
RTVSPost2010Prop36
280
     0
102
RTVSPost2010PropOp36
 70
     1
102
RTVSPost2010Prop37
 90
       50
102
RTVSPost2010PropOp37
 70
     1
102
RTVSPost2010Prop38
140
0.0
102
RTVSPost2010PropOp38
 70
     1
102
RTVSPost2010Prop39
140
1.0
102
RTVSPost2010PropOp39
 70
     1
102
RTVSPost2010Prop40
 90
        0
102
RTVSPost2010PropOp40
 70
     1
102
RTVSPost2010Prop41ColorIndex
 90
       18
102
RTVSPost2010Prop41ColorRGB
 90
        0
102
RTVSPost2010PropOp41
 70
     1
102
RTVSPost2010Prop42
 90
       50
102
RTVSPost2010PropOp42
 70
     1
102
RTVSPost2010Prop43
 90
        3
102
RTVSPost2010PropOp43
 70
     1
102
RTVSPost2010Prop44ColorIndex
 90
        5
102
RTVSPost2010Prop44ColorRGB
 90
      255
102
RTVSPost2010PropOp44
 70
     1
102
RTVSPost2010Prop45
280
     0
102
RTVSPost2010PropOp45
 70
     1
102
RTVSPost2010Prop46
 90
       50
102
RTVSPost2010PropOp46
 70
     1
102
RTVSPost2010Prop47
 90
       50
102
RTVSPost2010PropOp47
 70
     1
102
RTVSPost2010Prop48
 90
       50
102
RTVSPost2010PropOp48
 70
     1
102
RTVSPost2010Prop49
280
     0
102
RTVSPost2010PropOp49
 70
     1
102
RTVSPost2010Prop50
 90
       50
102
RTVSPost2010PropOp50
 70
     1
102
RTVSPost2010Prop51ColorIndex
 90
      256
102
RTVSPost2010Prop51ColorRGB
 90
-16777216
102
RTVSPost2010PropOp51
 70
     0
102
RTVSPost2010Prop52
140
1.0
102
RTVSPost2010PropOp52
 70
     0
102
RTVSPost2010Prop53
 90
        2
102
RTVSPost2010PropOp53
 70
     1
102
RTVSPost2010Prop54
  1
strokes_ogs.tif
102
RTVSPost2010PropOp54
 70
     1
102
RTVSPost2010Prop55
280
     0
102
RTVSPost2010PropOp55
 70
     1
102
RTVSPost2010Prop56
140
1.0
102
RTVSPost2010PropOp56
 70
     1
102
RTVSPost2010Prop57
140
1.0
102
RTVSPost2010PropOp57
 70
     1
  0
XRECORD
  5
428
102
{ACAD_REACTORS
330
427
102
}
330
427
100
AcDbXrecord
280
     1
102
RTVSPost2010Prop28
280
     0
102
RTVSPost2010PropOp28
 70
     1
102
RTVSPost2010Prop29
280
     1
102
RTVSPost2010PropOp29
 70
     1
102
RTVSPost2010Prop30
280
     1
102
RTVSPost2010PropOp30
 70
     1
102
RTVSPost2010Prop31
280
     0
102
RTVSPost2010PropOp31
 70
     1
102
RTVSPost2010Prop32
280
     0
102
RTVSPost2010PropOp32
 70
     1
102
RTVSPost2010Prop33
280
     0
102
RTVSPost2010PropOp33
 70
     1
102
RTVSPost2010Prop34
280
     0
102
RTVSPost2010PropOp34
 70
     1
102
RTVSPost2010Prop35
280
     0
102
RTVSPost2010PropOp35
 70
     1
102
RTVSPost2010Prop36
280
     0
102
RTVSPost2010PropOp36
 70
     1
102
RTVSPost2010Prop37
 90
       50
102
RTVSPost2010PropOp37
 70
     1
102
RTVSPost2010Prop38
140
0.0
102
RTVSPost2010PropOp38
 70
     1
102
RTVSPost2010Prop39
140
1.0
102
RTVSPost2010PropOp39
 70
     1
102
RTVSPost2010Prop40
 90
        0
102
RTVSPost2010PropOp40
 70
     1
102
RTVSPost2010Prop41ColorIndex
 90
       18
102
RTVSPost2010Prop41ColorRGB
 90
        0
102
RTVSPost2010PropOp41
 70
     1
102
RTVSPost2010Prop42
 90
       50
102
RTVSPost2010PropOp42
 70
     1
102
RTVSPost2010Prop43
 90
        3
102
RTVSPost2010PropOp43
 70
     1
102
RTVSPost2010Prop44ColorIndex
 90
        5
102
RTVSPost2010Prop44ColorRGB
 90
      255
102
RTVSPost2010PropOp44
 70
     1
102
RTVSPost2010Prop45
280
     0
102
RTVSPost2010PropOp45
 70
     1
102
RTVSPost2010Prop46
 90
       50
102
RTVSPost2010PropOp46
 70
     1
102
RTVSPost2010Prop47
 90
       50
102
RTVSPost2010PropOp47
 70
     1
102
RTVSPost2010Prop48
 90
       50
102
RTVSPost2010PropOp48
 70
     1
102
RTVSPost2010Prop49
280
     0
102
RTVSPost2010PropOp49
 70
     1
102
RTVSPost2010Prop50
 90
       50
102
RTVSPost2010PropOp50
 70
     1
102
RTVSPost2010Prop51ColorIndex
 90
      256
102
RTVSPost2010Prop51ColorRGB
 90
-16777216
102
RTVSPost2010PropOp51
 70
     0
102
RTVSPost2010Prop52
140
1.0
102
RTVSPost2010PropOp52
 70
     0
102
RTVSPost2010Prop53
 90
        2
102
RTVSPost2010PropOp53
 70
     1
102
RTVSPost2010Prop54
  1
strokes_ogs.tif
102
RTVSPost2010PropOp54
 70
     1
102
RTVSPost2010Prop55
280
     0
102
RTVSPost2010PropOp55
 70
     1
102
RTVSPost2010Prop56
140
1.0
102
RTVSPost2010PropOp56
 70
     1
102
RTVSPost2010Prop57
140
1.0
102
RTVSPost2010PropOp57
 70
     1
  0
XRECORD
  5
42A
102
{ACAD_REACTORS
330
429
102
}
330
429
100
AcDbXrecord
280
     1
102
RTVSPost2010Prop28
280
     0
102
RTVSPost2010PropOp28
 70
     1
102
RTVSPost2010Prop29
280
     1
102
RTVSPost2010PropOp29
 70
     1
102
RTVSPost2010Prop30
280
     1
102
RTVSPost2010PropOp30
 70
     1
102
RTVSPost2010Prop31
280
     0
102
RTVSPost2010PropOp31
 70
     1
102
RTVSPost2010Prop32
280
     0
102
RTVSPost2010PropOp32
 70
     1
102
RTVSPost2010Prop33
280
     0
102
RTVSPost2010PropOp33
 70
     1
102
RTVSPost2010Prop34
280
     0
102
RTVSPost2010PropOp34
 70
     1
102
RTVSPost2010Prop35
280
     0
102
RTVSPost2010PropOp35
 70
     1
102
RTVSPost2010Prop36
280
     0
102
RTVSPost2010PropOp36
 70
     1
102
RTVSPost2010Prop37
 90
       50
102
RTVSPost2010PropOp37
 70
     1
102
RTVSPost2010Prop38
140
0.0
102
RTVSPost2010PropOp38
 70
     1
102
RTVSPost2010Prop39
140
1.0
102
RTVSPost2010PropOp39
 70
     1
102
RTVSPost2010Prop40
 90
        0
102
RTVSPost2010PropOp40
 70
     1
102
RTVSPost2010Prop41ColorIndex
 90
       18
102
RTVSPost2010Prop41ColorRGB
 90
        0
102
RTVSPost2010PropOp41
 70
     1
102
RTVSPost2010Prop42
 90
       50
102
RTVSPost2010PropOp42
 70
     1
102
RTVSPost2010Prop43
 90
        3
102
RTVSPost2010PropOp43
 70
     1
102
RTVSPost2010Prop44ColorIndex
 90
        5
102
RTVSPost2010Prop44ColorRGB
 90
      255
102
RTVSPost2010PropOp44
 70
     1
102
RTVSPost2010Prop45
280
     0
102
RTVSPost2010PropOp45
 70
     1
102
RTVSPost2010Prop46
 90
       50
102
RTVSPost2010PropOp46
 70
     1
102
RTVSPost2010Prop47
 90
       50
102
RTVSPost2010PropOp47
 70
     1
102
RTVSPost2010Prop48
 90
       50
102
RTVSPost2010PropOp48
 70
     1
102
RTVSPost2010Prop49
280
     0
102
RTVSPost2010PropOp49
 70
     1
102
RTVSPost2010Prop50
 90
       50
102
RTVSPost2010PropOp50
 70
     1
102
RTVSPost2010Prop51ColorIndex
 90
      256
102
RTVSPost2010Prop51ColorRGB
 90
-16777216
102
RTVSPost2010PropOp51
 70
     0
102
RTVSPost2010Prop52
140
1.0
102
RTVSPost2010PropOp52
 70
     0
102
RTVSPost2010Prop53
 90
        2
102
RTVSPost2010PropOp53
 70
     1
102
RTVSPost2010Prop54
  1
strokes_ogs.tif
102
RTVSPost2010PropOp54
 70
     1
102
RTVSPost2010Prop55
280
     0
102
RTVSPost2010PropOp55
 70
     1
102
RTVSPost2010Prop56
140
1.0
102
RTVSPost2010PropOp56
 70
     1
102
RTVSPost2010Prop57
140
1.0
102
RTVSPost2010PropOp57
 70
     1
  0
XRECORD
  5
42C
102
{ACAD_REACTORS
330
42B
102
}
330
42B
100
AcDbXrecord
280
     1
102
RTVSPost2010Prop28
280
     0
102
RTVSPost2010PropOp28
 70
     1
102
RTVSPost2010Prop29
280
     1
102
RTVSPost2010PropOp29
 70
     1
102
RTVSPost2010Prop30
280
     1
102
RTVSPost2010PropOp30
 70
     1
102
RTVSPost2010Prop31
280
     0
102
RTVSPost2010PropOp31
 70
     1
102
RTVSPost2010Prop32
280
     0
102
RTVSPost2010PropOp32
 70
     1
102
RTVSPost2010Prop33
280
     0
102
RTVSPost2010PropOp33
 70
     1
102
RTVSPost2010Prop34
280
     0
102
RTVSPost2010PropOp34
 70
     1
102
RTVSPost2010Prop35
280
     0
102
RTVSPost2010PropOp35
 70
     1
102
RTVSPost2010Prop36
280
     0
102
RTVSPost2010PropOp36
 70
     1
102
RTVSPost2010Prop37
 90
       50
102
RTVSPost2010PropOp37
 70
     1
102
RTVSPost2010Prop38
140
0.0
102
RTVSPost2010PropOp38
 70
     1
102
RTVSPost2010Prop39
140
1.0
102
RTVSPost2010PropOp39
 70
     1
102
RTVSPost2010Prop40
 90
        0
102
RTVSPost2010PropOp40
 70
     1
102
RTVSPost2010Prop41ColorIndex
 90
       18
102
RTVSPost2010Prop41ColorRGB
 90
        0
102
RTVSPost2010PropOp41
 70
     1
102
RTVSPost2010Prop42
 90
       50
102
RTVSPost2010PropOp42
 70
     1
102
RTVSPost2010Prop43
 90
        3
102
RTVSPost2010PropOp43
 70
     1
102
RTVSPost2010Prop44ColorIndex
 90
        5
102
RTVSPost2010Prop44ColorRGB
 90
      255
102
RTVSPost2010PropOp44
 70
     1
102
RTVSPost2010Prop45
280
     0
102
RTVSPost2010PropOp45
 70
     1
102
RTVSPost2010Prop46
 90
       50
102
RTVSPost2010PropOp46
 70
     1
102
RTVSPost2010Prop47
 90
       50
102
RTVSPost2010PropOp47
 70
     1
102
RTVSPost2010Prop48
 90
       50
102
RTVSPost2010PropOp48
 70
     1
102
RTVSPost2010Prop49
280
     0
102
RTVSPost2010PropOp49
 70
     1
102
RTVSPost2010Prop50
 90
       50
102
RTVSPost2010PropOp50
 70
     1
102
RTVSPost2010Prop51ColorIndex
 90
      256
102
RTVSPost2010Prop51ColorRGB
 90
-16777216
102
RTVSPost2010PropOp51
 70
     0
102
RTVSPost2010Prop52
140
1.0
102
RTVSPost2010PropOp52
 70
     0
102
RTVSPost2010Prop53
 90
        2
102
RTVSPost2010PropOp53
 70
     1
102
RTVSPost2010Prop54
  1
strokes_ogs.tif
102
RTVSPost2010PropOp54
 70
     1
102
RTVSPost2010Prop55
280
     0
102
RTVSPost2010PropOp55
 70
     1
102
RTVSPost2010Prop56
140
1.0
102
RTVSPost2010PropOp56
 70
     1
102
RTVSPost2010Prop57
140
1.0
102
RTVSPost2010PropOp57
 70
     1
  0
XRECORD
  5
432
102
{ACAD_REACTORS
330
431
102
}
330
431
100
AcDbXrecord
280
     1
102
RTVSPost2010Prop28
280
     0
102
RTVSPost2010PropOp28
 70
     1
102
RTVSPost2010Prop29
280
     1
102
RTVSPost2010PropOp29
 70
     1
102
RTVSPost2010Prop30
280
     1
102
RTVSPost2010PropOp30
 70
     1
102
RTVSPost2010Prop31
280
     0
102
RTVSPost2010PropOp31
 70
     1
102
RTVSPost2010Prop32
280
     0
102
RTVSPost2010PropOp32
 70
     1
102
RTVSPost2010Prop33
280
     0
102
RTVSPost2010PropOp33
 70
     1
102
RTVSPost2010Prop34
280
     0
102
RTVSPost2010PropOp34
 70
     1
102
RTVSPost2010Prop35
280
     0
102
RTVSPost2010PropOp35
 70
     1
102
RTVSPost2010Prop36
280
     0
102
RTVSPost2010PropOp36
 70
     1
102
RTVSPost2010Prop37
 90
       50
102
RTVSPost2010PropOp37
 70
     1
102
RTVSPost2010Prop38
140
0.0
102
RTVSPost2010PropOp38
 70
     1
102
RTVSPost2010Prop39
140
1.0
102
RTVSPost2010PropOp39
 70
     1
102
RTVSPost2010Prop40
 90
        0
102
RTVSPost2010PropOp40
 70
     1
102
RTVSPost2010Prop41ColorIndex
 90
       18
102
RTVSPost2010Prop41ColorRGB
 90
        0
102
RTVSPost2010PropOp41
 70
     1
102
RTVSPost2010Prop42
 90
       50
102
RTVSPost2010PropOp42
 70
     1
102
RTVSPost2010Prop43
 90
        3
102
RTVSPost2010PropOp43
 70
     1
102
RTVSPost2010Prop44ColorIndex
 90
        5
102
RTVSPost2010Prop44ColorRGB
 90
      255
102
RTVSPost2010PropOp44
 70
     1
102
RTVSPost2010Prop45
280
     0
102
RTVSPost2010PropOp45
 70
     1
102
RTVSPost2010Prop46
 90
       50
102
RTVSPost2010PropOp46
 70
     1
102
RTVSPost2010Prop47
 90
       50
102
RTVSPost2010PropOp47
 70
     1
102
RTVSPost2010Prop48
 90
       50
102
RTVSPost2010PropOp48
 70
     1
102
RTVSPost2010Prop49
280
     0
102
RTVSPost2010PropOp49
 70
     1
102
RTVSPost2010Prop50
 90
       50
102
RTVSPost2010PropOp50
 70
     1
102
RTVSPost2010Prop51ColorIndex
 90
      256
102
RTVSPost2010Prop51ColorRGB
 90
-16777216
102
RTVSPost2010PropOp51
 70
     0
102
RTVSPost2010Prop52
140
1.0
102
RTVSPost2010PropOp52
 70
     0
102
RTVSPost2010Prop53
 90
        2
102
RTVSPost2010PropOp53
 70
     1
102
RTVSPost2010Prop54
  1
strokes_ogs.tif
102
RTVSPost2010PropOp54
 70
     1
102
RTVSPost2010Prop55
280
     0
102
RTVSPost2010PropOp55
 70
     1
102
RTVSPost2010Prop56
140
1.0
102
RTVSPost2010PropOp56
 70
     1
102
RTVSPost2010Prop57
140
1.0
102
RTVSPost2010PropOp57
 70
     1
  0
XRECORD
  5
446
102
{ACAD_REACTORS
330
445
102
}
330
445
100
AcDbXrecord
280
     1
102
RTVSPost2010Prop28
280
     0
102
RTVSPost2010PropOp28
 70
     0
102
RTVSPost2010Prop29
280
     1
102
RTVSPost2010PropOp29
 70
     0
102
RTVSPost2010Prop30
280
     1
102
RTVSPost2010PropOp30
 70
     0
102
RTVSPost2010Prop31
280
     0
102
RTVSPost2010PropOp31
 70
     0
102
RTVSPost2010Prop32
280
     0
102
RTVSPost2010PropOp32
 70
     0
102
RTVSPost2010Prop33
280
     0
102
RTVSPost2010PropOp33
 70
     0
102
RTVSPost2010Prop34
280
     0
102
RTVSPost2010PropOp34
 70
     0
102
RTVSPost2010Prop35
280
     0
102
RTVSPost2010PropOp35
 70
     0
102
RTVSPost2010Prop36
280
     0
102
RTVSPost2010PropOp36
 70
     0
102
RTVSPost2010Prop37
 90
       50
102
RTVSPost2010PropOp37
 70
     0
102
RTVSPost2010Prop38
140
0.0
102
RTVSPost2010PropOp38
 70
     0
102
RTVSPost2010Prop39
140
1.0
102
RTVSPost2010PropOp39
 70
     0
102
RTVSPost2010Prop40
 90
        0
102
RTVSPost2010PropOp40
 70
     0
102
RTVSPost2010Prop41ColorIndex
 90
       18
102
RTVSPost2010Prop41ColorRGB
 90
        0
102
RTVSPost2010PropOp41
 70
     0
102
RTVSPost2010Prop42
 90
       50
102
RTVSPost2010PropOp42
 70
     0
102
RTVSPost2010Prop43
 90
        3
102
RTVSPost2010PropOp43
 70
     0
102
RTVSPost2010Prop44ColorIndex
 90
        5
102
RTVSPost2010Prop44ColorRGB
 90
      255
102
RTVSPost2010PropOp44
 70
     0
102
RTVSPost2010Prop45
280
     0
102
RTVSPost2010PropOp45
 70
     0
102
RTVSPost2010Prop46
 90
       50
102
RTVSPost2010PropOp46
 70
     0
102
RTVSPost2010Prop47
 90
       50
102
RTVSPost2010PropOp47
 70
     0
102
RTVSPost2010Prop48
 90
       50
102
RTVSPost2010PropOp48
 70
     0
102
RTVSPost2010Prop49
280
     0
102
RTVSPost2010PropOp49
 70
     0
102
RTVSPost2010Prop50
 90
       50
102
RTVSPost2010PropOp50
 70
     0
102
RTVSPost2010Prop51ColorIndex
 90
      256
102
RTVSPost2010Prop51ColorRGB
 90
-16777216
102
RTVSPost2010PropOp51
 70
     0
102
RTVSPost2010Prop52
140
1.0
102
RTVSPost2010PropOp52
 70
     0
102
RTVSPost2010Prop53
 90
        2
102
RTVSPost2010PropOp53
 70
     0
102
RTVSPost2010Prop54
  1
strokes_ogs.tif
102
RTVSPost2010PropOp54
 70
     0
102
RTVSPost2010Prop55
280
     0
102
RTVSPost2010PropOp55
 70
     0
102
RTVSPost2010Prop56
140
1.0
102
RTVSPost2010PropOp56
 70
     0
102
RTVSPost2010Prop57
140
1.0
102
RTVSPost2010PropOp57
 70
     0
  0
XRECORD
  5
440
102
{ACAD_REACTORS
330
43F
102
}
330
43F
100
AcDbXrecord
280
     1
102
RTVSPost2010Prop28
280
     0
102
RTVSPost2010PropOp28
 70
     1
102
RTVSPost2010Prop29
280
     1
102
RTVSPost2010PropOp29
 70
     1
102
RTVSPost2010Prop30
280
     1
102
RTVSPost2010PropOp30
 70
     1
102
RTVSPost2010Prop31
280
     0
102
RTVSPost2010PropOp31
 70
     1
102
RTVSPost2010Prop32
280
     0
102
RTVSPost2010PropOp32
 70
     1
102
RTVSPost2010Prop33
280
     0
102
RTVSPost2010PropOp33
 70
     1
102
RTVSPost2010Prop34
280
     0
102
RTVSPost2010PropOp34
 70
     1
102
RTVSPost2010Prop35
280
     0
102
RTVSPost2010PropOp35
 70
     1
102
RTVSPost2010Prop36
280
     0
102
RTVSPost2010PropOp36
 70
     1
102
RTVSPost2010Prop37
 90
       50
102
RTVSPost2010PropOp37
 70
     1
102
RTVSPost2010Prop38
140
0.0
102
RTVSPost2010PropOp38
 70
     1
102
RTVSPost2010Prop39
140
1.0
102
RTVSPost2010PropOp39
 70
     1
102
RTVSPost2010Prop40
 90
        0
102
RTVSPost2010PropOp40
 70
     1
102
RTVSPost2010Prop41ColorIndex
 90
       18
102
RTVSPost2010Prop41ColorRGB
 90
        0
102
RTVSPost2010PropOp41
 70
     1
102
RTVSPost2010Prop42
 90
       50
102
RTVSPost2010PropOp42
 70
     1
102
RTVSPost2010Prop43
 90
        3
102
RTVSPost2010PropOp43
 70
     1
102
RTVSPost2010Prop44ColorIndex
 90
        5
102
RTVSPost2010Prop44ColorRGB
 90
      255
102
RTVSPost2010PropOp44
 70
     1
102
RTVSPost2010Prop45
280
     0
102
RTVSPost2010PropOp45
 70
     1
102
RTVSPost2010Prop46
 90
       50
102
RTVSPost2010PropOp46
 70
     1
102
RTVSPost2010Prop47
 90
       50
102
RTVSPost2010PropOp47
 70
     1
102
RTVSPost2010Prop48
 90
       50
102
RTVSPost2010PropOp48
 70
     1
102
RTVSPost2010Prop49
280
     0
102
RTVSPost2010PropOp49
 70
     1
102
RTVSPost2010Prop50
 90
       50
102
RTVSPost2010PropOp50
 70
     1
102
RTVSPost2010Prop51ColorIndex
 90
      256
102
RTVSPost2010Prop51ColorRGB
 90
-16777216
102
RTVSPost2010PropOp51
 70
     0
102
RTVSPost2010Prop52
140
1.0
102
RTVSPost2010PropOp52
 70
     0
102
RTVSPost2010Prop53
 90
        2
102
RTVSPost2010PropOp53
 70
     1
102
RTVSPost2010Prop54
  1
strokes_ogs.tif
102
RTVSPost2010PropOp54
 70
     1
102
RTVSPost2010Prop55
280
     0
102
RTVSPost2010PropOp55
 70
     1
102
RTVSPost2010Prop56
140
1.0
102
RTVSPost2010PropOp56
 70
     1
102
RTVSPost2010Prop57
140
1.0
102
RTVSPost2010PropOp57
 70
     1
  0
XRECORD
  5
448
102
{ACAD_REACTORS
330
447
102
}
330
447
100
AcDbXrecord
280
     1
102
RTVSPost2010Prop28
280
     0
102
RTVSPost2010PropOp28
 70
     0
102
RTVSPost2010Prop29
280
     1
102
RTVSPost2010PropOp29
 70
     0
102
RTVSPost2010Prop30
280
     1
102
RTVSPost2010PropOp30
 70
     0
102
RTVSPost2010Prop31
280
     0
102
RTVSPost2010PropOp31
 70
     0
102
RTVSPost2010Prop32
280
     0
102
RTVSPost2010PropOp32
 70
     0
102
RTVSPost2010Prop33
280
     0
102
RTVSPost2010PropOp33
 70
     0
102
RTVSPost2010Prop34
280
     0
102
RTVSPost2010PropOp34
 70
     0
102
RTVSPost2010Prop35
280
     0
102
RTVSPost2010PropOp35
 70
     0
102
RTVSPost2010Prop36
280
     0
102
RTVSPost2010PropOp36
 70
     0
102
RTVSPost2010Prop37
 90
       50
102
RTVSPost2010PropOp37
 70
     0
102
RTVSPost2010Prop38
140
0.0
102
RTVSPost2010PropOp38
 70
     0
102
RTVSPost2010Prop39
140
1.0
102
RTVSPost2010PropOp39
 70
     0
102
RTVSPost2010Prop40
 90
        0
102
RTVSPost2010PropOp40
 70
     0
102
RTVSPost2010Prop41ColorIndex
 90
       18
102
RTVSPost2010Prop41ColorRGB
 90
        0
102
RTVSPost2010PropOp41
 70
     0
102
RTVSPost2010Prop42
 90
       50
102
RTVSPost2010PropOp42
 70
     0
102
RTVSPost2010Prop43
 90
        3
102
RTVSPost2010PropOp43
 70
     0
102
RTVSPost2010Prop44ColorIndex
 90
        5
102
RTVSPost2010Prop44ColorRGB
 90
      255
102
RTVSPost2010PropOp44
 70
     0
102
RTVSPost2010Prop45
280
     0
102
RTVSPost2010PropOp45
 70
     0
102
RTVSPost2010Prop46
 90
       50
102
RTVSPost2010PropOp46
 70
     0
102
RTVSPost2010Prop47
 90
       50
102
RTVSPost2010PropOp47
 70
     0
102
RTVSPost2010Prop48
 90
       50
102
RTVSPost2010PropOp48
 70
     0
102
RTVSPost2010Prop49
280
     0
102
RTVSPost2010PropOp49
 70
     0
102
RTVSPost2010Prop50
 90
       50
102
RTVSPost2010PropOp50
 70
     0
102
RTVSPost2010Prop51ColorIndex
 90
      256
102
RTVSPost2010Prop51ColorRGB
 90
-16777216
102
RTVSPost2010PropOp51
 70
     0
102
RTVSPost2010Prop52
140
1.0
102
RTVSPost2010PropOp52
 70
     0
102
RTVSPost2010Prop53
 90
        2
102
RTVSPost2010PropOp53
 70
     0
102
RTVSPost2010Prop54
  1
strokes_ogs.tif
102
RTVSPost2010PropOp54
 70
     0
102
RTVSPost2010Prop55
280
     0
102
RTVSPost2010PropOp55
 70
     0
102
RTVSPost2010Prop56
140
1.0
102
RTVSPost2010PropOp56
 70
     0
102
RTVSPost2010Prop57
140
1.0
102
RTVSPost2010PropOp57
 70
     0
  0
XRECORD
  5
436
102
{ACAD_REACTORS
330
435
102
}
330
435
100
AcDbXrecord
280
     1
102
RTVSPost2010Prop28
280
     0
102
RTVSPost2010PropOp28
 70
     1
102
RTVSPost2010Prop29
280
     1
102
RTVSPost2010PropOp29
 70
     1
102
RTVSPost2010Prop30
280
     1
102
RTVSPost2010PropOp30
 70
     1
102
RTVSPost2010Prop31
280
     0
102
RTVSPost2010PropOp31
 70
     1
102
RTVSPost2010Prop32
280
     0
102
RTVSPost2010PropOp32
 70
     1
102
RTVSPost2010Prop33
280
     0
102
RTVSPost2010PropOp33
 70
     1
102
RTVSPost2010Prop34
280
     0
102
RTVSPost2010PropOp34
 70
     1
102
RTVSPost2010Prop35
280
     0
102
RTVSPost2010PropOp35
 70
     1
102
RTVSPost2010Prop36
280
     0
102
RTVSPost2010PropOp36
 70
     1
102
RTVSPost2010Prop37
 90
       50
102
RTVSPost2010PropOp37
 70
     1
102
RTVSPost2010Prop38
140
0.0
102
RTVSPost2010PropOp38
 70
     1
102
RTVSPost2010Prop39
140
1.0
102
RTVSPost2010PropOp39
 70
     1
102
RTVSPost2010Prop40
 90
        0
102
RTVSPost2010PropOp40
 70
     1
102
RTVSPost2010Prop41ColorIndex
 90
       18
102
RTVSPost2010Prop41ColorRGB
 90
        0
102
RTVSPost2010PropOp41
 70
     1
102
RTVSPost2010Prop42
 90
       50
102
RTVSPost2010PropOp42
 70
     1
102
RTVSPost2010Prop43
 90
        3
102
RTVSPost2010PropOp43
 70
     1
102
RTVSPost2010Prop44ColorIndex
 90
        5
102
RTVSPost2010Prop44ColorRGB
 90
      255
102
RTVSPost2010PropOp44
 70
     1
102
RTVSPost2010Prop45
280
     0
102
RTVSPost2010PropOp45
 70
     1
102
RTVSPost2010Prop46
 90
       50
102
RTVSPost2010PropOp46
 70
     1
102
RTVSPost2010Prop47
 90
       50
102
RTVSPost2010PropOp47
 70
     1
102
RTVSPost2010Prop48
 90
       50
102
RTVSPost2010PropOp48
 70
     1
102
RTVSPost2010Prop49
280
     0
102
RTVSPost2010PropOp49
 70
     1
102
RTVSPost2010Prop50
 90
       50
102
RTVSPost2010PropOp50
 70
     1
102
RTVSPost2010Prop51ColorIndex
 90
      256
102
RTVSPost2010Prop51ColorRGB
 90
-16777216
102
RTVSPost2010PropOp51
 70
     0
102
RTVSPost2010Prop52
140
1.0
102
RTVSPost2010PropOp52
 70
     0
102
RTVSPost2010Prop53
 90
        2
102
RTVSPost2010PropOp53
 70
     1
102
RTVSPost2010Prop54
  1
strokes_ogs.tif
102
RTVSPost2010PropOp54
 70
     1
102
RTVSPost2010Prop55
280
     0
102
RTVSPost2010PropOp55
 70
     1
102
RTVSPost2010Prop56
140
1.0
102
RTVSPost2010PropOp56
 70
     1
102
RTVSPost2010Prop57
140
1.0
102
RTVSPost2010PropOp57
 70
     1
  0
XRECORD
  5
454
102
{ACAD_REACTORS
330
453
102
}
330
453
100
AcDbXrecord
280
     1
102
RTVSPost2010Prop28
280
     0
102
RTVSPost2010PropOp28
 70
     1
102
RTVSPost2010Prop29
280
     1
102
RTVSPost2010PropOp29
 70
     1
102
RTVSPost2010Prop30
280
     1
102
RTVSPost2010PropOp30
 70
     1
102
RTVSPost2010Prop31
280
     0
102
RTVSPost2010PropOp31
 70
     1
102
RTVSPost2010Prop32
280
     0
102
RTVSPost2010PropOp32
 70
     1
102
RTVSPost2010Prop33
280
     0
102
RTVSPost2010PropOp33
 70
     1
102
RTVSPost2010Prop34
280
     0
102
RTVSPost2010PropOp34
 70
     1
102
RTVSPost2010Prop35
280
     0
102
RTVSPost2010PropOp35
 70
     1
102
RTVSPost2010Prop36
280
     0
102
RTVSPost2010PropOp36
 70
     1
102
RTVSPost2010Prop37
 90
       50
102
RTVSPost2010PropOp37
 70
     1
102
RTVSPost2010Prop38
140
0.0
102
RTVSPost2010PropOp38
 70
     1
102
RTVSPost2010Prop39
140
1.0
102
RTVSPost2010PropOp39
 70
     1
102
RTVSPost2010Prop40
 90
        0
102
RTVSPost2010PropOp40
 70
     1
102
RTVSPost2010Prop41ColorIndex
 90
       18
102
RTVSPost2010Prop41ColorRGB
 90
        0
102
RTVSPost2010PropOp41
 70
     1
102
RTVSPost2010Prop42
 90
       50
102
RTVSPost2010PropOp42
 70
     1
102
RTVSPost2010Prop43
 90
        3
102
RTVSPost2010PropOp43
 70
     1
102
RTVSPost2010Prop44ColorIndex
 90
        5
102
RTVSPost2010Prop44ColorRGB
 90
      255
102
RTVSPost2010PropOp44
 70
     1
102
RTVSPost2010Prop45
280
     0
102
RTVSPost2010PropOp45
 70
     1
102
RTVSPost2010Prop46
 90
       50
102
RTVSPost2010PropOp46
 70
     1
102
RTVSPost2010Prop47
 90
       50
102
RTVSPost2010PropOp47
 70
     1
102
RTVSPost2010Prop48
 90
       50
102
RTVSPost2010PropOp48
 70
     1
102
RTVSPost2010Prop49
280
     0
102
RTVSPost2010PropOp49
 70
     1
102
RTVSPost2010Prop50
 90
       50
102
RTVSPost2010PropOp50
 70
     1
102
RTVSPost2010Prop51ColorIndex
 90
      256
102
RTVSPost2010Prop51ColorRGB
 90
-16777216
102
RTVSPost2010PropOp51
 70
     0
102
RTVSPost2010Prop52
140
1.0
102
RTVSPost2010PropOp52
 70
     0
102
RTVSPost2010Prop53
 90
        2
102
RTVSPost2010PropOp53
 70
     1
102
RTVSPost2010Prop54
  1
strokes_ogs.tif
102
RTVSPost2010PropOp54
 70
     1
102
RTVSPost2010Prop55
280
     0
102
RTVSPost2010PropOp55
 70
     1
102
RTVSPost2010Prop56
140
1.0
102
RTVSPost2010PropOp56
 70
     1
102
RTVSPost2010Prop57
140
1.0
102
RTVSPost2010PropOp57
 70
     1
  0
XRECORD
  5
452
102
{ACAD_REACTORS
330
451
102
}
330
451
100
AcDbXrecord
280
     1
102
RTVSPost2010Prop28
280
     0
102
RTVSPost2010PropOp28
 70
     1
102
RTVSPost2010Prop29
280
     1
102
RTVSPost2010PropOp29
 70
     1
102
RTVSPost2010Prop30
280
     1
102
RTVSPost2010PropOp30
 70
     1
102
RTVSPost2010Prop31
280
     0
102
RTVSPost2010PropOp31
 70
     1
102
RTVSPost2010Prop32
280
     0
102
RTVSPost2010PropOp32
 70
     1
102
RTVSPost2010Prop33
280
     0
102
RTVSPost2010PropOp33
 70
     1
102
RTVSPost2010Prop34
280
     0
102
RTVSPost2010PropOp34
 70
     1
102
RTVSPost2010Prop35
280
     0
102
RTVSPost2010PropOp35
 70
     1
102
RTVSPost2010Prop36
280
     0
102
RTVSPost2010PropOp36
 70
     1
102
RTVSPost2010Prop37
 90
       50
102
RTVSPost2010PropOp37
 70
     1
102
RTVSPost2010Prop38
140
0.0
102
RTVSPost2010PropOp38
 70
     1
102
RTVSPost2010Prop39
140
1.0
102
RTVSPost2010PropOp39
 70
     1
102
RTVSPost2010Prop40
 90
        0
102
RTVSPost2010PropOp40
 70
     1
102
RTVSPost2010Prop41ColorIndex
 90
       18
102
RTVSPost2010Prop41ColorRGB
 90
        0
102
RTVSPost2010PropOp41
 70
     1
102
RTVSPost2010Prop42
 90
       50
102
RTVSPost2010PropOp42
 70
     1
102
RTVSPost2010Prop43
 90
        3
102
RTVSPost2010PropOp43
 70
     1
102
RTVSPost2010Prop44ColorIndex
 90
        5
102
RTVSPost2010Prop44ColorRGB
 90
      255
102
RTVSPost2010PropOp44
 70
     1
102
RTVSPost2010Prop45
280
     0
102
RTVSPost2010PropOp45
 70
     1
102
RTVSPost2010Prop46
 90
       50
102
RTVSPost2010PropOp46
 70
     1
102
RTVSPost2010Prop47
 90
       50
102
RTVSPost2010PropOp47
 70
     1
102
RTVSPost2010Prop48
 90
       50
102
RTVSPost2010PropOp48
 70
     1
102
RTVSPost2010Prop49
280
     0
102
RTVSPost2010PropOp49
 70
     1
102
RTVSPost2010Prop50
 90
       50
102
RTVSPost2010PropOp50
 70
     1
102
RTVSPost2010Prop51ColorIndex
 90
      256
102
RTVSPost2010Prop51ColorRGB
 90
-16777216
102
RTVSPost2010PropOp51
 70
     0
102
RTVSPost2010Prop52
140
1.0
102
RTVSPost2010PropOp52
 70
     0
102
RTVSPost2010Prop53
 90
        2
102
RTVSPost2010PropOp53
 70
     1
102
RTVSPost2010Prop54
  1
strokes_ogs.tif
102
RTVSPost2010PropOp54
 70
     1
102
RTVSPost2010Prop55
280
     0
102
RTVSPost2010PropOp55
 70
     1
102
RTVSPost2010Prop56
140
1.0
102
RTVSPost2010PropOp56
 70
     1
102
RTVSPost2010Prop57
140
1.0
102
RTVSPost2010PropOp57
 70
     1
  0
XRECORD
  5
44C
102
{ACAD_REACTORS
330
44B
102
}
330
44B
100
AcDbXrecord
280
     1
102
RTVSPost2010Prop28
280
     0
102
RTVSPost2010PropOp28
 70
     1
102
RTVSPost2010Prop29
280
     1
102
RTVSPost2010PropOp29
 70
     1
102
RTVSPost2010Prop30
280
     1
102
RTVSPost2010PropOp30
 70
     1
102
RTVSPost2010Prop31
280
     0
102
RTVSPost2010PropOp31
 70
     1
102
RTVSPost2010Prop32
280
     0
102
RTVSPost2010PropOp32
 70
     1
102
RTVSPost2010Prop33
280
     0
102
RTVSPost2010PropOp33
 70
     1
102
RTVSPost2010Prop34
280
     0
102
RTVSPost2010PropOp34
 70
     1
102
RTVSPost2010Prop35
280
     0
102
RTVSPost2010PropOp35
 70
     1
102
RTVSPost2010Prop36
280
     0
102
RTVSPost2010PropOp36
 70
     1
102
RTVSPost2010Prop37
 90
       50
102
RTVSPost2010PropOp37
 70
     1
102
RTVSPost2010Prop38
140
0.0
102
RTVSPost2010PropOp38
 70
     1
102
RTVSPost2010Prop39
140
1.0
102
RTVSPost2010PropOp39
 70
     1
102
RTVSPost2010Prop40
 90
        0
102
RTVSPost2010PropOp40
 70
     1
102
RTVSPost2010Prop41ColorIndex
 90
       18
102
RTVSPost2010Prop41ColorRGB
 90
        0
102
RTVSPost2010PropOp41
 70
     1
102
RTVSPost2010Prop42
 90
       50
102
RTVSPost2010PropOp42
 70
     1
102
RTVSPost2010Prop43
 90
        3
102
RTVSPost2010PropOp43
 70
     1
102
RTVSPost2010Prop44ColorIndex
 90
        5
102
RTVSPost2010Prop44ColorRGB
 90
      255
102
RTVSPost2010PropOp44
 70
     1
102
RTVSPost2010Prop45
280
     0
102
RTVSPost2010PropOp45
 70
     1
102
RTVSPost2010Prop46
 90
       50
102
RTVSPost2010PropOp46
 70
     1
102
RTVSPost2010Prop47
 90
       50
102
RTVSPost2010PropOp47
 70
     1
102
RTVSPost2010Prop48
 90
       50
102
RTVSPost2010PropOp48
 70
     1
102
RTVSPost2010Prop49
280
     0
102
RTVSPost2010PropOp49
 70
     1
102
RTVSPost2010Prop50
 90
       50
102
RTVSPost2010PropOp50
 70
     1
102
RTVSPost2010Prop51ColorIndex
 90
      256
102
RTVSPost2010Prop51ColorRGB
 90
-16777216
102
RTVSPost2010PropOp51
 70
     0
102
RTVSPost2010Prop52
140
1.0
102
RTVSPost2010PropOp52
 70
     0
102
RTVSPost2010Prop53
 90
        2
102
RTVSPost2010PropOp53
 70
     1
102
RTVSPost2010Prop54
  1
strokes_ogs.tif
102
RTVSPost2010PropOp54
 70
     1
102
RTVSPost2010Prop55
280
     0
102
RTVSPost2010PropOp55
 70
     1
102
RTVSPost2010Prop56
140
1.0
102
RTVSPost2010PropOp56
 70
     1
102
RTVSPost2010Prop57
140
1.0
102
RTVSPost2010PropOp57
 70
     1
  0
XRECORD
  5
44E
102
{ACAD_REACTORS
330
44D
102
}
330
44D
100
AcDbXrecord
280
     1
102
RTVSPost2010Prop28
280
     0
102
RTVSPost2010PropOp28
 70
     1
102
RTVSPost2010Prop29
280
     1
102
RTVSPost2010PropOp29
 70
     1
102
RTVSPost2010Prop30
280
     1
102
RTVSPost2010PropOp30
 70
     1
102
RTVSPost2010Prop31
280
     0
102
RTVSPost2010PropOp31
 70
     1
102
RTVSPost2010Prop32
280
     0
102
RTVSPost2010PropOp32
 70
     1
102
RTVSPost2010Prop33
280
     0
102
RTVSPost2010PropOp33
 70
     1
102
RTVSPost2010Prop34
280
     0
102
RTVSPost2010PropOp34
 70
     1
102
RTVSPost2010Prop35
280
     0
102
RTVSPost2010PropOp35
 70
     1
102
RTVSPost2010Prop36
280
     0
102
RTVSPost2010PropOp36
 70
     1
102
RTVSPost2010Prop37
 90
       50
102
RTVSPost2010PropOp37
 70
     1
102
RTVSPost2010Prop38
140
0.0
102
RTVSPost2010PropOp38
 70
     1
102
RTVSPost2010Prop39
140
1.0
102
RTVSPost2010PropOp39
 70
     1
102
RTVSPost2010Prop40
 90
        0
102
RTVSPost2010PropOp40
 70
     1
102
RTVSPost2010Prop41ColorIndex
 90
       18
102
RTVSPost2010Prop41ColorRGB
 90
        0
102
RTVSPost2010PropOp41
 70
     1
102
RTVSPost2010Prop42
 90
       50
102
RTVSPost2010PropOp42
 70
     1
102
RTVSPost2010Prop43
 90
        3
102
RTVSPost2010PropOp43
 70
     1
102
RTVSPost2010Prop44ColorIndex
 90
        5
102
RTVSPost2010Prop44ColorRGB
 90
      255
102
RTVSPost2010PropOp44
 70
     1
102
RTVSPost2010Prop45
280
     0
102
RTVSPost2010PropOp45
 70
     1
102
RTVSPost2010Prop46
 90
       50
102
RTVSPost2010PropOp46
 70
     1
102
RTVSPost2010Prop47
 90
       50
102
RTVSPost2010PropOp47
 70
     1
102
RTVSPost2010Prop48
 90
       50
102
RTVSPost2010PropOp48
 70
     1
102
RTVSPost2010Prop49
280
     0
102
RTVSPost2010PropOp49
 70
     1
102
RTVSPost2010Prop50
 90
       50
102
RTVSPost2010PropOp50
 70
     1
102
RTVSPost2010Prop51ColorIndex
 90
      256
102
RTVSPost2010Prop51ColorRGB
 90
-16777216
102
RTVSPost2010PropOp51
 70
     0
102
RTVSPost2010Prop52
140
1.0
102
RTVSPost2010PropOp52
 70
     0
102
RTVSPost2010Prop53
 90
        2
102
RTVSPost2010PropOp53
 70
     1
102
RTVSPost2010Prop54
  1
strokes_ogs.tif
102
RTVSPost2010PropOp54
 70
     1
102
RTVSPost2010Prop55
280
     0
102
RTVSPost2010PropOp55
 70
     1
102
RTVSPost2010Prop56
140
1.0
102
RTVSPost2010PropOp56
 70
     1
102
RTVSPost2010Prop57
140
1.0
102
RTVSPost2010PropOp57
 70
     1
  0
XRECORD
  5
43E
102
{ACAD_REACTORS
330
43D
102
}
330
43D
100
AcDbXrecord
280
     1
102
RTVSPost2010Prop28
280
     0
102
RTVSPost2010PropOp28
 70
     1
102
RTVSPost2010Prop29
280
     1
102
RTVSPost2010PropOp29
 70
     1
102
RTVSPost2010Prop30
280
     1
102
RTVSPost2010PropOp30
 70
     1
102
RTVSPost2010Prop31
280
     0
102
RTVSPost2010PropOp31
 70
     1
102
RTVSPost2010Prop32
280
     0
102
RTVSPost2010PropOp32
 70
     1
102
RTVSPost2010Prop33
280
     0
102
RTVSPost2010PropOp33
 70
     1
102
RTVSPost2010Prop34
280
     0
102
RTVSPost2010PropOp34
 70
     1
102
RTVSPost2010Prop35
280
     0
102
RTVSPost2010PropOp35
 70
     1
102
RTVSPost2010Prop36
280
     0
102
RTVSPost2010PropOp36
 70
     1
102
RTVSPost2010Prop37
 90
       50
102
RTVSPost2010PropOp37
 70
     1
102
RTVSPost2010Prop38
140
0.0
102
RTVSPost2010PropOp38
 70
     1
102
RTVSPost2010Prop39
140
1.0
102
RTVSPost2010PropOp39
 70
     1
102
RTVSPost2010Prop40
 90
        0
102
RTVSPost2010PropOp40
 70
     1
102
RTVSPost2010Prop41ColorIndex
 90
       18
102
RTVSPost2010Prop41ColorRGB
 90
        0
102
RTVSPost2010PropOp41
 70
     1
102
RTVSPost2010Prop42
 90
       50
102
RTVSPost2010PropOp42
 70
     1
102
RTVSPost2010Prop43
 90
        3
102
RTVSPost2010PropOp43
 70
     1
102
RTVSPost2010Prop44ColorIndex
 90
        5
102
RTVSPost2010Prop44ColorRGB
 90
      255
102
RTVSPost2010PropOp44
 70
     1
102
RTVSPost2010Prop45
280
     0
102
RTVSPost2010PropOp45
 70
     1
102
RTVSPost2010Prop46
 90
       50
102
RTVSPost2010PropOp46
 70
     1
102
RTVSPost2010Prop47
 90
       50
102
RTVSPost2010PropOp47
 70
     1
102
RTVSPost2010Prop48
 90
       50
102
RTVSPost2010PropOp48
 70
     1
102
RTVSPost2010Prop49
280
     0
102
RTVSPost2010PropOp49
 70
     1
102
RTVSPost2010Prop50
 90
       50
102
RTVSPost2010PropOp50
 70
     1
102
RTVSPost2010Prop51ColorIndex
 90
      256
102
RTVSPost2010Prop51ColorRGB
 90
-16777216
102
RTVSPost2010PropOp51
 70
     0
102
RTVSPost2010Prop52
140
1.0
102
RTVSPost2010PropOp52
 70
     0
102
RTVSPost2010Prop53
 90
        2
102
RTVSPost2010PropOp53
 70
     1
102
RTVSPost2010Prop54
  1
strokes_ogs.tif
102
RTVSPost2010PropOp54
 70
     1
102
RTVSPost2010Prop55
280
     0
102
RTVSPost2010PropOp55
 70
     1
102
RTVSPost2010Prop56
140
1.0
102
RTVSPost2010PropOp56
 70
     1
102
RTVSPost2010Prop57
140
1.0
102
RTVSPost2010PropOp57
 70
     1
  0
XRECORD
  5
430
102
{ACAD_REACTORS
330
42F
102
}
330
42F
100
AcDbXrecord
280
     1
102
RTVSPost2010Prop28
280
     0
102
RTVSPost2010PropOp28
 70
     1
102
RTVSPost2010Prop29
280
     1
102
RTVSPost2010PropOp29
 70
     1
102
RTVSPost2010Prop30
280
     1
102
RTVSPost2010PropOp30
 70
     1
102
RTVSPost2010Prop31
280
     0
102
RTVSPost2010PropOp31
 70
     1
102
RTVSPost2010Prop32
280
     0
102
RTVSPost2010PropOp32
 70
     1
102
RTVSPost2010Prop33
280
     0
102
RTVSPost2010PropOp33
 70
     1
102
RTVSPost2010Prop34
280
     0
102
RTVSPost2010PropOp34
 70
     1
102
RTVSPost2010Prop35
280
     0
102
RTVSPost2010PropOp35
 70
     1
102
RTVSPost2010Prop36
280
     0
102
RTVSPost2010PropOp36
 70
     1
102
RTVSPost2010Prop37
 90
       50
102
RTVSPost2010PropOp37
 70
     1
102
RTVSPost2010Prop38
140
0.0
102
RTVSPost2010PropOp38
 70
     1
102
RTVSPost2010Prop39
140
1.0
102
RTVSPost2010PropOp39
 70
     1
102
RTVSPost2010Prop40
 90
        0
102
RTVSPost2010PropOp40
 70
     1
102
RTVSPost2010Prop41ColorIndex
 90
       18
102
RTVSPost2010Prop41ColorRGB
 90
        0
102
RTVSPost2010PropOp41
 70
     1
102
RTVSPost2010Prop42
 90
       50
102
RTVSPost2010PropOp42
 70
     1
102
RTVSPost2010Prop43
 90
        3
102
RTVSPost2010PropOp43
 70
     1
102
RTVSPost2010Prop44ColorIndex
 90
        5
102
RTVSPost2010Prop44ColorRGB
 90
      255
102
RTVSPost2010PropOp44
 70
     1
102
RTVSPost2010Prop45
280
     0
102
RTVSPost2010PropOp45
 70
     1
102
RTVSPost2010Prop46
 90
       50
102
RTVSPost2010PropOp46
 70
     1
102
RTVSPost2010Prop47
 90
       50
102
RTVSPost2010PropOp47
 70
     1
102
RTVSPost2010Prop48
 90
       50
102
RTVSPost2010PropOp48
 70
     1
102
RTVSPost2010Prop49
280
     0
102
RTVSPost2010PropOp49
 70
     1
102
RTVSPost2010Prop50
 90
       50
102
RTVSPost2010PropOp50
 70
     1
102
RTVSPost2010Prop51ColorIndex
 90
      256
102
RTVSPost2010Prop51ColorRGB
 90
-16777216
102
RTVSPost2010PropOp51
 70
     0
102
RTVSPost2010Prop52
140
1.0
102
RTVSPost2010PropOp52
 70
     0
102
RTVSPost2010Prop53
 90
        2
102
RTVSPost2010PropOp53
 70
     1
102
RTVSPost2010Prop54
  1
strokes_ogs.tif
102
RTVSPost2010PropOp54
 70
     1
102
RTVSPost2010Prop55
280
     0
102
RTVSPost2010PropOp55
 70
     1
102
RTVSPost2010Prop56
140
1.0
102
RTVSPost2010PropOp56
 70
     1
102
RTVSPost2010Prop57
140
1.0
102
RTVSPost2010PropOp57
 70
     1
  0
XRECORD
  5
450
102
{ACAD_REACTORS
330
44F
102
}
330
44F
100
AcDbXrecord
280
     1
102
RTVSPost2010Prop28
280
     0
102
RTVSPost2010PropOp28
 70
     1
102
RTVSPost2010Prop29
280
     1
102
RTVSPost2010PropOp29
 70
     1
102
RTVSPost2010Prop30
280
     1
102
RTVSPost2010PropOp30
 70
     1
102
RTVSPost2010Prop31
280
     0
102
RTVSPost2010PropOp31
 70
     1
102
RTVSPost2010Prop32
280
     0
102
RTVSPost2010PropOp32
 70
     1
102
RTVSPost2010Prop33
280
     0
102
RTVSPost2010PropOp33
 70
     1
102
RTVSPost2010Prop34
280
     0
102
RTVSPost2010PropOp34
 70
     1
102
RTVSPost2010Prop35
280
     0
102
RTVSPost2010PropOp35
 70
     1
102
RTVSPost2010Prop36
280
     0
102
RTVSPost2010PropOp36
 70
     1
102
RTVSPost2010Prop37
 90
       50
102
RTVSPost2010PropOp37
 70
     1
102
RTVSPost2010Prop38
140
0.0
102
RTVSPost2010PropOp38
 70
     1
102
RTVSPost2010Prop39
140
1.0
102
RTVSPost2010PropOp39
 70
     1
102
RTVSPost2010Prop40
 90
        0
102
RTVSPost2010PropOp40
 70
     1
102
RTVSPost2010Prop41ColorIndex
 90
       18
102
RTVSPost2010Prop41ColorRGB
 90
        0
102
RTVSPost2010PropOp41
 70
     1
102
RTVSPost2010Prop42
 90
       50
102
RTVSPost2010PropOp42
 70
     1
102
RTVSPost2010Prop43
 90
        3
102
RTVSPost2010PropOp43
 70
     1
102
RTVSPost2010Prop44ColorIndex
 90
        5
102
RTVSPost2010Prop44ColorRGB
 90
      255
102
RTVSPost2010PropOp44
 70
     1
102
RTVSPost2010Prop45
280
     0
102
RTVSPost2010PropOp45
 70
     1
102
RTVSPost2010Prop46
 90
       50
102
RTVSPost2010PropOp46
 70
     1
102
RTVSPost2010Prop47
 90
       50
102
RTVSPost2010PropOp47
 70
     1
102
RTVSPost2010Prop48
 90
       50
102
RTVSPost2010PropOp48
 70
     1
102
RTVSPost2010Prop49
280
     0
102
RTVSPost2010PropOp49
 70
     1
102
RTVSPost2010Prop50
 90
       50
102
RTVSPost2010PropOp50
 70
     1
102
RTVSPost2010Prop51ColorIndex
 90
      256
102
RTVSPost2010Prop51ColorRGB
 90
-16777216
102
RTVSPost2010PropOp51
 70
     0
102
RTVSPost2010Prop52
140
1.0
102
RTVSPost2010PropOp52
 70
     0
102
RTVSPost2010Prop53
 90
        2
102
RTVSPost2010PropOp53
 70
     1
102
RTVSPost2010Prop54
  1
strokes_ogs.tif
102
RTVSPost2010PropOp54
 70
     1
102
RTVSPost2010Prop55
280
     0
102
RTVSPost2010PropOp55
 70
     1
102
RTVSPost2010Prop56
140
1.0
102
RTVSPost2010PropOp56
 70
     1
102
RTVSPost2010Prop57
140
1.0
102
RTVSPost2010PropOp57
 70
     1
  0
ENDSEC
  0
EOF
