  0
SECTION
  2
HEADER
  9
$ACADVER
  1
AC1014
  9
$ACADMAINTVER
 70
     9
  9
$DWGCODEPAGE
  3
ANSI_1252
  9
$INSBASE
 10
0.0
 20
0.0
 30
0.0
  9
$EXTMIN
 10
1.962403911549076
 20
0.4862968323073928
 30
0.0
  9
$EXTMAX
 10
11.75710025080446
 20
7.310381537085993
 30
0.0
  9
$LIMMIN
 10
0.0
 20
0.0
  9
$LIMMAX
 10
12.0
 20
9.0
  9
$ORTHOMODE
 70
     0
  9
$REGENMODE
 70
     1
  9
$FILLMODE
 70
     1
  9
$QTEXTMODE
 70
     0
  9
$MIRRTEXT
 70
     1
  9
$DRAGMODE
 70
     2
  9
$LTSCALE
 40
1.0
  9
$OSMODE
 70
    37
  9
$ATTMODE
 70
     1
  9
$TEXTSIZE
 40
0.2
  9
$TRACEWID
 40
0.05
  9
$TEXTSTYLE
  7
STANDARD
  9
$CLAYER
  8
0
  9
$CELTYPE
  6
BYLAYER
  9
$CECOLOR
 62
   256
  9
$CELTSCALE
 40
1.0
  9
$DELOBJ
 70
     1
  9
$DISPSILH
 70
     0
  9
$DIMSCALE
 40
1.0
  9
$DIMASZ
 40
0.18
  9
$DIMEXO
 40
0.0625
  9
$DIMDLI
 40
0.38
  9
$DIMRND
 40
0.0
  9
$DIMDLE
 40
0.0
  9
$DIMEXE
 40
0.18
  9
$DIMTP
 40
0.0
  9
$DIMTM
 40
0.0
  9
$DIMTXT
 40
0.18
  9
$DIMCEN
 40
0.09
  9
$DIMTSZ
 40
0.0
  9
$DIMTOL
 70
     0
  9
$DIMLIM
 70
     0
  9
$DIMTIH
 70
     1
  9
$DIMTOH
 70
     1
  9
$DIMSE1
 70
     0
  9
$DIMSE2
 70
     0
  9
$DIMTAD
 70
     0
  9
$DIMZIN
 70
     0
  9
$DIMBLK
  1

  9
$DIMASO
 70
     1
  9
$DIMSHO
 70
     1
  9
$DIMPOST
  1

  9
$DIMAPOST
  1

  9
$DIMALT
 70
     0
  9
$DIMALTD
 70
     2
  9
$DIMALTF
 40
25.4
  9
$DIMLFAC
 40
1.0
  9
$DIMTOFL
 70
     0
  9
$DIMTVP
 40
0.0
  9
$DIMTIX
 70
     0
  9
$DIMSOXD
 70
     0
  9
$DIMSAH
 70
     0
  9
$DIMBLK1
  1

  9
$DIMBLK2
  1

  9
$DIMSTYLE
  2
STANDARD
  9
$DIMCLRD
 70
     0
  9
$DIMCLRE
 70
     0
  9
$DIMCLRT
 70
     0
  9
$DIMTFAC
 40
1.0
  9
$DIMGAP
 40
0.09
  9
$DIMJUST
 70
     0
  9
$DIMSD1
 70
     0
  9
$DIMSD2
 70
     0
  9
$DIMTOLJ
 70
     1
  9
$DIMTZIN
 70
     0
  9
$DIMALTZ
 70
     0
  9
$DIMALTTZ
 70
     0
  9
$DIMFIT
 70
     5
  9
$DIMUPT
 70
     0
  9
$DIMUNIT
 70
     2
  9
$DIMDEC
 70
     4
  9
$DIMTDEC
 70
     4
  9
$DIMALTU
 70
     2
  9
$DIMALTTD
 70
     2
  9
$DIMTXSTY
  7
STANDARD
  9
$DIMAUNIT
 70
     0
  9
$LUNITS
 70
     2
  9
$LUPREC
 70
     4
  9
$SKETCHINC
 40
0.1
  9
$FILLETRAD
 40
0.0
  9
$AUNITS
 70
     0
  9
$AUPREC
 70
     0
  9
$MENU
  1
acad
  9
$ELEVATION
 40
0.0
  9
$PELEVATION
 40
0.0
  9
$THICKNESS
 40
0.0
  9
$LIMCHECK
 70
     0
  9
$BLIPMODE
 70
     0
  9
$CHAMFERA
 40
0.0
  9
$CHAMFERB
 40
0.0
  9
$CHAMFERC
 40
0.0
  9
$CHAMFERD
 40
0.0
  9
$SKPOLY
 70
     0
  9
$TDCREATE
 40
2453867.351539352
  9
$TDUPDATE
 40
2453867.592335150
  9
$TDINDWG
 40
0.0444115162
  9
$TDUSRTIMER
 40
0.0444115162
  9
$USRTIMER
 70
     1
  9
$ANGBASE
 50
0.0
  9
$ANGDIR
 70
     0
  9
$PDMODE
 70
     0
  9
$PDSIZE
 40
0.0
  9
$PLINEWID
 40
0.0
  9
$COORDS
 70
     0
  9
$SPLFRAME
 70
     0
  9
$SPLINETYPE
 70
     6
  9
$SPLINESEGS
 70
     8
  9
$ATTDIA
 70
     0
  9
$ATTREQ
 70
     1
  9
$HANDLING
 70
-16383
  9
$HANDSEED
  5
B9B
  9
$SURFTAB1
 70
     6
  9
$SURFTAB2
 70
     6
  9
$SURFTYPE
 70
     6
  9
$SURFU
 70
     6
  9
$SURFV
 70
     6
  9
$UCSNAME
  2

  9
$UCSORG
 10
0.0
 20
0.0
 30
0.0
  9
$UCSXDIR
 10
1.0
 20
0.0
 30
0.0
  9
$UCSYDIR
 10
0.0
 20
1.0
 30
0.0
  9
$PUCSNAME
  2

  9
$PUCSORG
 10
0.0
 20
0.0
 30
0.0
  9
$PUCSXDIR
 10
1.0
 20
0.0
 30
0.0
  9
$PUCSYDIR
 10
0.0
 20
1.0
 30
0.0
  9
$USERI1
 70
     0
  9
$USERI2
 70
     0
  9
$USERI3
 70
     0
  9
$USERI4
 70
     0
  9
$USERI5
 70
     0
  9
$USERR1
 40
0.0
  9
$USERR2
 40
0.0
  9
$USERR3
 40
0.0
  9
$USERR4
 40
0.0
  9
$USERR5
 40
0.0
  9
$WORLDVIEW
 70
     1
  9
$SHADEDGE
 70
     3
  9
$SHADEDIF
 70
    70
  9
$TILEMODE
 70
     1
  9
$MAXACTVP
 70
    16
  9
$PINSBASE
 10
0.0
 20
0.0
 30
0.0
  9
$PLIMCHECK
 70
     0
  9
$PEXTMIN
 10
1.000000000000000E+20
 20
1.000000000000000E+20
 30
1.000000000000000E+20
  9
$PEXTMAX
 10
-1.000000000000000E+20
 20
-1.000000000000000E+20
 30
-1.000000000000000E+20
  9
$PLIMMIN
 10
0.0
 20
0.0
  9
$PLIMMAX
 10
12.0
 20
9.0
  9
$UNITMODE
 70
     0
  9
$VISRETAIN
 70
     0
  9
$PLINEGEN
 70
     0
  9
$PSLTSCALE
 70
     1
  9
$TREEDEPTH
 70
  3020
  9
$PICKSTYLE
 70
     1
  9
$CMLSTYLE
  2
STANDARD
  9
$CMLJUST
 70
     0
  9
$CMLSCALE
 40
1.0
  9
$PROXYGRAPHICS
 70
     1
  9
$MEASUREMENT
 70
     0
  0
ENDSEC
  0
SECTION
  2
CLASSES
  0
CLASS
  1
ACDBDICTIONARYWDFLT
  2
AcDbDictionaryWithDefault
  3
AutoCAD 2000
 90
        0
280
     0
281
     0
  0
CLASS
  1
ACDBPLACEHOLDER
  2
AcDbPlaceHolder
  3
AutoCAD 2000
 90
        0
280
     0
281
     0
  0
CLASS
  1
LAYOUT
  2
AcDbLayout
  3
AutoCAD 2000
 90
        0
280
     0
281
     0
  0
CLASS
  1
DICTIONARYVAR
  2
AcDbDictionaryVar
  3
AutoCAD 2000
 90
        0
280
     0
281
     0
  0
CLASS
  1
LONG_TRANSACTION
  2
AcDbLongTransaction
  3
AutoCAD 2000
 90
        0
280
     0
281
     0
  0
CLASS
  1
LWPOLYLINE
  2
AcDbPolyline
  3
AutoCAD 2000
 90
        0
280
     0
281
     1
  0
CLASS
  1
HATCH
  2
AcDbHatch
  3
AutoCAD 2000
 90
        0
280
     0
281
     1
  0
CLASS
  1
XRECORD
  2
AcDbXrecord
  3
AutoCAD 2000
 90
        0
280
     0
281
     0
  0
CLASS
  1
LONG_TRANSACTION
  2
AcDbLongTransaction
  3
AutoCAD 2000
 90
        0
280
     0
281
     0
  0
CLASS
  1
LWPOLYLINE
  2
AcDbPolyline
  3
AutoCAD 2000
 90
        0
280
     0
281
     1
  0
CLASS
  1
HATCH
  2
AcDbHatch
  3
AutoCAD 2000
 90
        0
280
     0
281
     1
  0
CLASS
  1
XRECORD
  2
AcDbXrecord
  3
AutoCAD 2000
 90
        0
280
     0
281
     0
  0
ENDSEC
  0
SECTION
  2
TABLES
  0
TABLE
  2
VPORT
  5
8
330
0
100
AcDbSymbolTable
 70
     3
  0
VPORT
  5
B77
330
8
100
AcDbSymbolTableRecord
100
AcDbViewportTableRecord
  2
*ACTIVE
 70
     0
 10
0.0
 20
0.0
 11
1.0
 21
1.0
 12
6.939096636725693
 22
3.674147298721729
 13
0.0
 23
0.0
 14
1.0
 24
1.0
 15
0.0
 25
0.0
 16
0.0
 26
0.0
 36
1.0
 17
0.0
 27
0.0
 37
0.0
 40
9.6674855632405
 41
1.501872659176029
 42
50.0
 43
0.0
 44
0.0
 50
0.0
 51
0.0
 71
     0
 72
   100
 73
     1
 74
     1
 75
     0
 76
     0
 77
     0
 78
     0
  0
ENDTAB
  0
TABLE
  2
LTYPE
  5
5
330
0
100
AcDbSymbolTable
 70
    25
  0
LTYPE
  5
13
330
5
100
AcDbSymbolTableRecord
100
AcDbLinetypeTableRecord
  2
BYBLOCK
 70
     0
  3

 72
    65
 73
     0
 40
0.0
  0
LTYPE
  5
14
330
5
100
AcDbSymbolTableRecord
100
AcDbLinetypeTableRecord
  2
BYLAYER
 70
     0
  3

 72
    65
 73
     0
 40
0.0
  0
LTYPE
  5
15
330
5
100
AcDbSymbolTableRecord
100
AcDbLinetypeTableRecord
  2
CONTINUOUS
 70
     0
  3
Solid line
 72
    65
 73
     0
 40
0.0
  0
LTYPE
  5
22
330
5
100
AcDbSymbolTableRecord
100
AcDbLinetypeTableRecord
  2
BORDER
 70
     0
  3
__ __ . __ __ . __ __ . __ __ . __ __ . __ __ .
 72
    65
 73
     6
 40
1.75
 49
0.5
 74
     0
 49
-0.25
 74
     0
 49
0.5
 74
     0
 49
-0.25
 74
     0
 49
0.5
 74
     0
 49
-0.25
 74
     0
  0
LTYPE
  5
23
330
5
100
AcDbSymbolTableRecord
100
AcDbLinetypeTableRecord
  2
BORDER2
 70
     0
  3
__.__.__.__.__.__.__.__.
 72
    65
 73
     6
 40
0.875
 49
0.25
 74
     0
 49
-0.125
 74
     0
 49
0.25
 74
     0
 49
-0.125
 74
     0
 49
0.25
 74
     0
 49
-0.125
 74
     0
  0
LTYPE
  5
24
330
5
100
AcDbSymbolTableRecord
100
AcDbLinetypeTableRecord
  2
BORDERX2
 70
     0
  3
____  ____  .  
 72
    65
 73
     6
 40
3.5
 49
1.0
 74
     0
 49
-0.5
 74
     0
 49
1.0
 74
     0
 49
-0.5
 74
     0
 49
1.0
 74
     0
 49
-0.5
 74
     0
  0
LTYPE
  5
25
330
5
100
AcDbSymbolTableRecord
100
AcDbLinetypeTableRecord
  2
CENTER
 70
     0
  3
____ _ ____ _ ____ _ 
 72
    65
 73
     4
 40
2.0
 49
1.25
 74
     0
 49
-0.25
 74
     0
 49
0.25
 74
     0
 49
-0.25
 74
     0
  0
LTYPE
  5
26
330
5
100
AcDbSymbolTableRecord
100
AcDbLinetypeTableRecord
  2
CENTER2
 70
     0
  3
____ _ ____ _ ____ _ 
 72
    65
 73
     4
 40
1.125
 49
0.75
 74
     0
 49
-0.125
 74
     0
 49
0.125
 74
     0
 49
-0.125
 74
     0
  0
LTYPE
  5
27
330
5
100
AcDbSymbolTableRecord
100
AcDbLinetypeTableRecord
  2
CENTERX2
 70
     0
  3
________  __  
 72
    65
 73
     4
 40
4.0
 49
2.5
 74
     0
 49
-0.5
 74
     0
 49
0.5
 74
     0
 49
-0.5
 74
     0
  0
LTYPE
  5
28
330
5
100
AcDbSymbolTableRecord
100
AcDbLinetypeTableRecord
  2
DASHDOT
 70
     0
  3
__ . __ . __ . __ . 
 72
    65
 73
     4
 40
1.0
 49
0.5
 74
     0
 49
-0.25
 74
     0
 49
0.0
 74
     0
 49
-0.25
 74
     0
  0
LTYPE
  5
29
330
5
100
AcDbSymbolTableRecord
100
AcDbLinetypeTableRecord
  2
DASHDOT2
 70
     0
  3
_._._._._._._._._.
 72
    65
 73
     4
 40
0.5
 49
0.25
 74
     0
 49
-0.125
 74
     0
 49
0.0
 74
     0
 49
-0.125
 74
     0
  0
LTYPE
  5
2A
330
5
100
AcDbSymbolTableRecord
100
AcDbLinetypeTableRecord
  2
DASHDOTX2
 70
     0
  3
____  .  ____  .  
 72
    65
 73
     4
 40
2.0
 49
1.0
 74
     0
 49
-0.5
 74
     0
 49
0.0
 74
     0
 49
-0.5
 74
     0
  0
LTYPE
  5
2B
330
5
100
AcDbSymbolTableRecord
100
AcDbLinetypeTableRecord
  2
DASHED
 70
     0
  3
__ __ __ __ __ __ __ 
 72
    65
 73
     2
 40
0.75
 49
0.5
 74
     0
 49
-0.25
 74
     0
  0
LTYPE
  5
2C
330
5
100
AcDbSymbolTableRecord
100
AcDbLinetypeTableRecord
  2
DASHED2
 70
     0
  3
_ _ _ _ _ _ _ _ _ _ 
 72
    65
 73
     2
 40
0.375
 49
0.25
 74
     0
 49
-0.125
 74
     0
  0
LTYPE
  5
2D
330
5
100
AcDbSymbolTableRecord
100
AcDbLinetypeTableRecord
  2
DASHEDX2
 70
     0
  3
____  ____  ____  
 72
    65
 73
     2
 40
1.5
 49
1.0
 74
     0
 49
-0.5
 74
     0
  0
LTYPE
  5
2E
330
5
100
AcDbSymbolTableRecord
100
AcDbLinetypeTableRecord
  2
DIVIDE
 70
     0
  3
____ . . ____ . . 
 72
    65
 73
     6
 40
1.25
 49
0.5
 74
     0
 49
-0.25
 74
     0
 49
0.0
 74
     0
 49
-0.25
 74
     0
 49
0.0
 74
     0
 49
-0.25
 74
     0
  0
LTYPE
  5
2F
330
5
100
AcDbSymbolTableRecord
100
AcDbLinetypeTableRecord
  2
DIVIDE2
 70
     0
  3
__..__..__..__..__..
 72
    65
 73
     6
 40
0.625
 49
0.25
 74
     0
 49
-0.125
 74
     0
 49
0.0
 74
     0
 49
-0.125
 74
     0
 49
0.0
 74
     0
 49
-0.125
 74
     0
  0
LTYPE
  5
30
330
5
100
AcDbSymbolTableRecord
100
AcDbLinetypeTableRecord
  2
DIVIDEX2
 70
     0
  3
________  .  .  
 72
    65
 73
     6
 40
2.5
 49
1.0
 74
     0
 49
-0.5
 74
     0
 49
0.0
 74
     0
 49
-0.5
 74
     0
 49
0.0
 74
     0
 49
-0.5
 74
     0
  0
LTYPE
  5
31
330
5
100
AcDbSymbolTableRecord
100
AcDbLinetypeTableRecord
  2
DOT
 70
     0
  3
. . . . . . . . . 
 72
    65
 73
     2
 40
0.25
 49
0.0
 74
     0
 49
-0.25
 74
     0
  0
LTYPE
  5
32
330
5
100
AcDbSymbolTableRecord
100
AcDbLinetypeTableRecord
  2
DOT2
 70
     0
  3
..................
 72
    65
 73
     2
 40
0.125
 49
0.0
 74
     0
 49
-0.125
 74
     0
  0
LTYPE
  5
33
330
5
100
AcDbSymbolTableRecord
100
AcDbLinetypeTableRecord
  2
DOTX2
 70
     0
  3
.  .  .  .  .  .  
 72
    65
 73
     2
 40
0.5
 49
0.0
 74
     0
 49
-0.5
 74
     0
  0
LTYPE
  5
34
330
5
100
AcDbSymbolTableRecord
100
AcDbLinetypeTableRecord
  2
HIDDEN
 70
     0
  3
__ __ __ __ __ __ 
 72
    65
 73
     2
 40
0.375
 49
0.25
 74
     0
 49
-0.125
 74
     0
  0
LTYPE
  5
35
330
5
100
AcDbSymbolTableRecord
100
AcDbLinetypeTableRecord
  2
HIDDEN2
 70
     0
  3
_ _ _ _ _ _ _ _ _ 
 72
    65
 73
     2
 40
0.1875
 49
0.125
 74
     0
 49
-0.0625
 74
     0
  0
LTYPE
  5
36
330
5
100
AcDbSymbolTableRecord
100
AcDbLinetypeTableRecord
  2
HIDDENX2
 70
     0
  3
____ ____ ____ ____ 
 72
    65
 73
     2
 40
0.75
 49
0.5
 74
     0
 49
-0.25
 74
     0
  0
LTYPE
  5
37
330
5
100
AcDbSymbolTableRecord
100
AcDbLinetypeTableRecord
  2
PHANTOM
 70
     0
  3
______  __  __  
 72
    65
 73
     6
 40
2.5
 49
1.25
 74
     0
 49
-0.25
 74
     0
 49
0.25
 74
     0
 49
-0.25
 74
     0
 49
0.25
 74
     0
 49
-0.25
 74
     0
  0
LTYPE
  5
38
330
5
100
AcDbSymbolTableRecord
100
AcDbLinetypeTableRecord
  2
PHANTOM2
 70
     0
  3
___ _ _ ___ _ _ 
 72
    65
 73
     6
 40
1.25
 49
0.625
 74
     0
 49
-0.125
 74
     0
 49
0.125
 74
     0
 49
-0.125
 74
     0
 49
0.125
 74
     0
 49
-0.125
 74
     0
  0
LTYPE
  5
39
330
5
100
AcDbSymbolTableRecord
100
AcDbLinetypeTableRecord
  2
PHANTOMX2
 70
     0
  3
___ _ _ ___ _ _ 
 72
    65
 73
     6
 40
5.0
 49
2.5
 74
     0
 49
-0.5
 74
     0
 49
0.5
 74
     0
 49
-0.5
 74
     0
 49
0.5
 74
     0
 49
-0.5
 74
     0
  0
ENDTAB
  0
TABLE
  2
LAYER
  5
2
330
0
100
AcDbSymbolTable
 70
   256
  0
LAYER
  5
10
330
2
100
AcDbSymbolTableRecord
100
AcDbLayerTableRecord
  2
0
 70
     0
 62
     7
  6
CONTINUOUS
  0
LAYER
  5
3A
330
2
100
AcDbSymbolTableRecord
100
AcDbLayerTableRecord
  2
1
 70
     0
 62
     1
  6
CONTINUOUS
  0
LAYER
  5
3B
330
2
100
AcDbSymbolTableRecord
100
AcDbLayerTableRecord
  2
2
 70
     0
 62
     2
  6
CONTINUOUS
  0
LAYER
  5
3C
330
2
100
AcDbSymbolTableRecord
100
AcDbLayerTableRecord
  2
3
 70
     0
 62
     3
  6
CONTINUOUS
  0
LAYER
  5
3D
330
2
100
AcDbSymbolTableRecord
100
AcDbLayerTableRecord
  2
4
 70
     0
 62
     4
  6
CONTINUOUS
  0
LAYER
  5
3E
330
2
100
AcDbSymbolTableRecord
100
AcDbLayerTableRecord
  2
5
 70
     0
 62
     5
  6
CONTINUOUS
  0
LAYER
  5
3F
330
2
100
AcDbSymbolTableRecord
100
AcDbLayerTableRecord
  2
6
 70
     0
 62
     6
  6
CONTINUOUS
  0
LAYER
  5
40
330
2
100
AcDbSymbolTableRecord
100
AcDbLayerTableRecord
  2
7
 70
     0
 62
     7
  6
CONTINUOUS
  0
LAYER
  5
41
330
2
100
AcDbSymbolTableRecord
100
AcDbLayerTableRecord
  2
8
 70
     0
 62
     8
  6
CONTINUOUS
  0
LAYER
  5
42
330
2
100
AcDbSymbolTableRecord
100
AcDbLayerTableRecord
  2
9
 70
     0
 62
     9
  6
CONTINUOUS
  0
LAYER
  5
43
330
2
100
AcDbSymbolTableRecord
100
AcDbLayerTableRecord
  2
10
 70
     0
 62
    10
  6
CONTINUOUS
  0
LAYER
  5
44
330
2
100
AcDbSymbolTableRecord
100
AcDbLayerTableRecord
  2
11
 70
     0
 62
    11
  6
CONTINUOUS
  0
LAYER
  5
45
330
2
100
AcDbSymbolTableRecord
100
AcDbLayerTableRecord
  2
12
 70
     0
 62
    12
  6
CONTINUOUS
  0
LAYER
  5
46
330
2
100
AcDbSymbolTableRecord
100
AcDbLayerTableRecord
  2
13
 70
     0
 62
    13
  6
CONTINUOUS
  0
LAYER
  5
47
330
2
100
AcDbSymbolTableRecord
100
AcDbLayerTableRecord
  2
14
 70
     0
 62
    14
  6
CONTINUOUS
  0
LAYER
  5
48
330
2
100
AcDbSymbolTableRecord
100
AcDbLayerTableRecord
  2
15
 70
     0
 62
    15
  6
CONTINUOUS
  0
LAYER
  5
49
330
2
100
AcDbSymbolTableRecord
100
AcDbLayerTableRecord
  2
16
 70
     0
 62
    16
  6
CONTINUOUS
  0
LAYER
  5
4A
330
2
100
AcDbSymbolTableRecord
100
AcDbLayerTableRecord
  2
17
 70
     0
 62
    17
  6
CONTINUOUS
  0
LAYER
  5
4B
330
2
100
AcDbSymbolTableRecord
100
AcDbLayerTableRecord
  2
18
 70
     0
 62
    18
  6
CONTINUOUS
  0
LAYER
  5
4C
330
2
100
AcDbSymbolTableRecord
100
AcDbLayerTableRecord
  2
19
 70
     0
 62
    19
  6
CONTINUOUS
  0
LAYER
  5
4D
330
2
100
AcDbSymbolTableRecord
100
AcDbLayerTableRecord
  2
20
 70
     0
 62
    20
  6
CONTINUOUS
  0
LAYER
  5
4E
330
2
100
AcDbSymbolTableRecord
100
AcDbLayerTableRecord
  2
21
 70
     0
 62
    21
  6
CONTINUOUS
  0
LAYER
  5
4F
330
2
100
AcDbSymbolTableRecord
100
AcDbLayerTableRecord
  2
22
 70
     0
 62
    22
  6
CONTINUOUS
  0
LAYER
  5
50
330
2
100
AcDbSymbolTableRecord
100
AcDbLayerTableRecord
  2
23
 70
     0
 62
    23
  6
CONTINUOUS
  0
LAYER
  5
51
330
2
100
AcDbSymbolTableRecord
100
AcDbLayerTableRecord
  2
24
 70
     0
 62
    24
  6
CONTINUOUS
  0
LAYER
  5
52
330
2
100
AcDbSymbolTableRecord
100
AcDbLayerTableRecord
  2
25
 70
     0
 62
    25
  6
CONTINUOUS
  0
LAYER
  5
53
330
2
100
AcDbSymbolTableRecord
100
AcDbLayerTableRecord
  2
26
 70
     0
 62
    26
  6
CONTINUOUS
  0
LAYER
  5
54
330
2
100
AcDbSymbolTableRecord
100
AcDbLayerTableRecord
  2
27
 70
     0
 62
    27
  6
CONTINUOUS
  0
LAYER
  5
55
330
2
100
AcDbSymbolTableRecord
100
AcDbLayerTableRecord
  2
28
 70
     0
 62
    28
  6
CONTINUOUS
  0
LAYER
  5
56
330
2
100
AcDbSymbolTableRecord
100
AcDbLayerTableRecord
  2
29
 70
     0
 62
    29
  6
CONTINUOUS
  0
LAYER
  5
57
330
2
100
AcDbSymbolTableRecord
100
AcDbLayerTableRecord
  2
30
 70
     0
 62
    30
  6
CONTINUOUS
  0
LAYER
  5
58
330
2
100
AcDbSymbolTableRecord
100
AcDbLayerTableRecord
  2
31
 70
     0
 62
    31
  6
CONTINUOUS
  0
LAYER
  5
59
330
2
100
AcDbSymbolTableRecord
100
AcDbLayerTableRecord
  2
32
 70
     0
 62
    32
  6
CONTINUOUS
  0
LAYER
  5
5A
330
2
100
AcDbSymbolTableRecord
100
AcDbLayerTableRecord
  2
33
 70
     0
 62
    33
  6
CONTINUOUS
  0
LAYER
  5
5B
330
2
100
AcDbSymbolTableRecord
100
AcDbLayerTableRecord
  2
34
 70
     0
 62
    34
  6
CONTINUOUS
  0
LAYER
  5
5C
330
2
100
AcDbSymbolTableRecord
100
AcDbLayerTableRecord
  2
35
 70
     0
 62
    35
  6
CONTINUOUS
  0
LAYER
  5
5D
330
2
100
AcDbSymbolTableRecord
100
AcDbLayerTableRecord
  2
36
 70
     0
 62
    36
  6
CONTINUOUS
  0
LAYER
  5
5E
330
2
100
AcDbSymbolTableRecord
100
AcDbLayerTableRecord
  2
37
 70
     0
 62
    37
  6
CONTINUOUS
  0
LAYER
  5
5F
330
2
100
AcDbSymbolTableRecord
100
AcDbLayerTableRecord
  2
38
 70
     0
 62
    38
  6
CONTINUOUS
  0
LAYER
  5
60
330
2
100
AcDbSymbolTableRecord
100
AcDbLayerTableRecord
  2
39
 70
     0
 62
    39
  6
CONTINUOUS
  0
LAYER
  5
61
330
2
100
AcDbSymbolTableRecord
100
AcDbLayerTableRecord
  2
40
 70
     0
 62
    40
  6
CONTINUOUS
  0
LAYER
  5
62
330
2
100
AcDbSymbolTableRecord
100
AcDbLayerTableRecord
  2
41
 70
     0
 62
    41
  6
CONTINUOUS
  0
LAYER
  5
63
330
2
100
AcDbSymbolTableRecord
100
AcDbLayerTableRecord
  2
42
 70
     0
 62
    42
  6
CONTINUOUS
  0
LAYER
  5
64
330
2
100
AcDbSymbolTableRecord
100
AcDbLayerTableRecord
  2
43
 70
     0
 62
    43
  6
CONTINUOUS
  0
LAYER
  5
65
330
2
100
AcDbSymbolTableRecord
100
AcDbLayerTableRecord
  2
44
 70
     0
 62
    44
  6
CONTINUOUS
  0
LAYER
  5
66
330
2
100
AcDbSymbolTableRecord
100
AcDbLayerTableRecord
  2
45
 70
     0
 62
    45
  6
CONTINUOUS
  0
LAYER
  5
67
330
2
100
AcDbSymbolTableRecord
100
AcDbLayerTableRecord
  2
46
 70
     0
 62
    46
  6
CONTINUOUS
  0
LAYER
  5
68
330
2
100
AcDbSymbolTableRecord
100
AcDbLayerTableRecord
  2
47
 70
     0
 62
    47
  6
CONTINUOUS
  0
LAYER
  5
69
330
2
100
AcDbSymbolTableRecord
100
AcDbLayerTableRecord
  2
48
 70
     0
 62
    48
  6
CONTINUOUS
  0
LAYER
  5
6A
330
2
100
AcDbSymbolTableRecord
100
AcDbLayerTableRecord
  2
49
 70
     0
 62
    49
  6
CONTINUOUS
  0
LAYER
  5
6B
330
2
100
AcDbSymbolTableRecord
100
AcDbLayerTableRecord
  2
50
 70
     0
 62
    50
  6
CONTINUOUS
  0
LAYER
  5
6C
330
2
100
AcDbSymbolTableRecord
100
AcDbLayerTableRecord
  2
51
 70
     0
 62
    51
  6
CONTINUOUS
  0
LAYER
  5
6D
330
2
100
AcDbSymbolTableRecord
100
AcDbLayerTableRecord
  2
52
 70
     0
 62
    52
  6
CONTINUOUS
  0
LAYER
  5
6E
330
2
100
AcDbSymbolTableRecord
100
AcDbLayerTableRecord
  2
53
 70
     0
 62
    53
  6
CONTINUOUS
  0
LAYER
  5
6F
330
2
100
AcDbSymbolTableRecord
100
AcDbLayerTableRecord
  2
54
 70
     0
 62
    54
  6
CONTINUOUS
  0
LAYER
  5
70
330
2
100
AcDbSymbolTableRecord
100
AcDbLayerTableRecord
  2
55
 70
     0
 62
    55
  6
CONTINUOUS
  0
LAYER
  5
71
330
2
100
AcDbSymbolTableRecord
100
AcDbLayerTableRecord
  2
56
 70
     0
 62
    56
  6
CONTINUOUS
  0
LAYER
  5
72
330
2
100
AcDbSymbolTableRecord
100
AcDbLayerTableRecord
  2
57
 70
     0
 62
    57
  6
CONTINUOUS
  0
LAYER
  5
73
330
2
100
AcDbSymbolTableRecord
100
AcDbLayerTableRecord
  2
58
 70
     0
 62
    58
  6
CONTINUOUS
  0
LAYER
  5
74
330
2
100
AcDbSymbolTableRecord
100
AcDbLayerTableRecord
  2
59
 70
     0
 62
    59
  6
CONTINUOUS
  0
LAYER
  5
75
330
2
100
AcDbSymbolTableRecord
100
AcDbLayerTableRecord
  2
60
 70
     0
 62
    60
  6
CONTINUOUS
  0
LAYER
  5
76
330
2
100
AcDbSymbolTableRecord
100
AcDbLayerTableRecord
  2
61
 70
     0
 62
    61
  6
CONTINUOUS
  0
LAYER
  5
77
330
2
100
AcDbSymbolTableRecord
100
AcDbLayerTableRecord
  2
62
 70
     0
 62
    62
  6
CONTINUOUS
  0
LAYER
  5
78
330
2
100
AcDbSymbolTableRecord
100
AcDbLayerTableRecord
  2
63
 70
     0
 62
    63
  6
CONTINUOUS
  0
LAYER
  5
79
330
2
100
AcDbSymbolTableRecord
100
AcDbLayerTableRecord
  2
64
 70
     0
 62
    64
  6
CONTINUOUS
  0
LAYER
  5
7A
330
2
100
AcDbSymbolTableRecord
100
AcDbLayerTableRecord
  2
65
 70
     0
 62
    65
  6
CONTINUOUS
  0
LAYER
  5
7B
330
2
100
AcDbSymbolTableRecord
100
AcDbLayerTableRecord
  2
66
 70
     0
 62
    66
  6
CONTINUOUS
  0
LAYER
  5
7C
330
2
100
AcDbSymbolTableRecord
100
AcDbLayerTableRecord
  2
67
 70
     0
 62
    67
  6
CONTINUOUS
  0
LAYER
  5
7D
330
2
100
AcDbSymbolTableRecord
100
AcDbLayerTableRecord
  2
68
 70
     0
 62
    68
  6
CONTINUOUS
  0
LAYER
  5
7E
330
2
100
AcDbSymbolTableRecord
100
AcDbLayerTableRecord
  2
69
 70
     0
 62
    69
  6
CONTINUOUS
  0
LAYER
  5
7F
330
2
100
AcDbSymbolTableRecord
100
AcDbLayerTableRecord
  2
70
 70
     0
 62
    70
  6
CONTINUOUS
  0
LAYER
  5
80
330
2
100
AcDbSymbolTableRecord
100
AcDbLayerTableRecord
  2
71
 70
     0
 62
    71
  6
CONTINUOUS
  0
LAYER
  5
81
330
2
100
AcDbSymbolTableRecord
100
AcDbLayerTableRecord
  2
72
 70
     0
 62
    72
  6
CONTINUOUS
  0
LAYER
  5
82
330
2
100
AcDbSymbolTableRecord
100
AcDbLayerTableRecord
  2
73
 70
     0
 62
    73
  6
CONTINUOUS
  0
LAYER
  5
83
330
2
100
AcDbSymbolTableRecord
100
AcDbLayerTableRecord
  2
74
 70
     0
 62
    74
  6
CONTINUOUS
  0
LAYER
  5
84
330
2
100
AcDbSymbolTableRecord
100
AcDbLayerTableRecord
  2
75
 70
     0
 62
    75
  6
CONTINUOUS
  0
LAYER
  5
85
330
2
100
AcDbSymbolTableRecord
100
AcDbLayerTableRecord
  2
76
 70
     0
 62
    76
  6
CONTINUOUS
  0
LAYER
  5
86
330
2
100
AcDbSymbolTableRecord
100
AcDbLayerTableRecord
  2
77
 70
     0
 62
    77
  6
CONTINUOUS
  0
LAYER
  5
87
330
2
100
AcDbSymbolTableRecord
100
AcDbLayerTableRecord
  2
78
 70
     0
 62
    78
  6
CONTINUOUS
  0
LAYER
  5
88
330
2
100
AcDbSymbolTableRecord
100
AcDbLayerTableRecord
  2
79
 70
     0
 62
    79
  6
CONTINUOUS
  0
LAYER
  5
89
330
2
100
AcDbSymbolTableRecord
100
AcDbLayerTableRecord
  2
80
 70
     0
 62
    80
  6
CONTINUOUS
  0
LAYER
  5
8A
330
2
100
AcDbSymbolTableRecord
100
AcDbLayerTableRecord
  2
81
 70
     0
 62
    81
  6
CONTINUOUS
  0
LAYER
  5
8B
330
2
100
AcDbSymbolTableRecord
100
AcDbLayerTableRecord
  2
82
 70
     0
 62
    82
  6
CONTINUOUS
  0
LAYER
  5
8C
330
2
100
AcDbSymbolTableRecord
100
AcDbLayerTableRecord
  2
83
 70
     0
 62
    83
  6
CONTINUOUS
  0
LAYER
  5
8D
330
2
100
AcDbSymbolTableRecord
100
AcDbLayerTableRecord
  2
84
 70
     0
 62
    84
  6
CONTINUOUS
  0
LAYER
  5
8E
330
2
100
AcDbSymbolTableRecord
100
AcDbLayerTableRecord
  2
85
 70
     0
 62
    85
  6
CONTINUOUS
  0
LAYER
  5
8F
330
2
100
AcDbSymbolTableRecord
100
AcDbLayerTableRecord
  2
86
 70
     0
 62
    86
  6
CONTINUOUS
  0
LAYER
  5
90
330
2
100
AcDbSymbolTableRecord
100
AcDbLayerTableRecord
  2
87
 70
     0
 62
    87
  6
CONTINUOUS
  0
LAYER
  5
91
330
2
100
AcDbSymbolTableRecord
100
AcDbLayerTableRecord
  2
88
 70
     0
 62
    88
  6
CONTINUOUS
  0
LAYER
  5
92
330
2
100
AcDbSymbolTableRecord
100
AcDbLayerTableRecord
  2
89
 70
     0
 62
    89
  6
CONTINUOUS
  0
LAYER
  5
93
330
2
100
AcDbSymbolTableRecord
100
AcDbLayerTableRecord
  2
90
 70
     0
 62
    90
  6
CONTINUOUS
  0
LAYER
  5
94
330
2
100
AcDbSymbolTableRecord
100
AcDbLayerTableRecord
  2
91
 70
     0
 62
    91
  6
CONTINUOUS
  0
LAYER
  5
95
330
2
100
AcDbSymbolTableRecord
100
AcDbLayerTableRecord
  2
92
 70
     0
 62
    92
  6
CONTINUOUS
  0
LAYER
  5
96
330
2
100
AcDbSymbolTableRecord
100
AcDbLayerTableRecord
  2
93
 70
     0
 62
    93
  6
CONTINUOUS
  0
LAYER
  5
97
330
2
100
AcDbSymbolTableRecord
100
AcDbLayerTableRecord
  2
94
 70
     0
 62
    94
  6
CONTINUOUS
  0
LAYER
  5
98
330
2
100
AcDbSymbolTableRecord
100
AcDbLayerTableRecord
  2
95
 70
     0
 62
    95
  6
CONTINUOUS
  0
LAYER
  5
99
330
2
100
AcDbSymbolTableRecord
100
AcDbLayerTableRecord
  2
96
 70
     0
 62
    96
  6
CONTINUOUS
  0
LAYER
  5
9A
330
2
100
AcDbSymbolTableRecord
100
AcDbLayerTableRecord
  2
97
 70
     0
 62
    97
  6
CONTINUOUS
  0
LAYER
  5
9B
330
2
100
AcDbSymbolTableRecord
100
AcDbLayerTableRecord
  2
98
 70
     0
 62
    98
  6
CONTINUOUS
  0
LAYER
  5
9C
330
2
100
AcDbSymbolTableRecord
100
AcDbLayerTableRecord
  2
99
 70
     0
 62
    99
  6
CONTINUOUS
  0
LAYER
  5
9D
330
2
100
AcDbSymbolTableRecord
100
AcDbLayerTableRecord
  2
100
 70
     0
 62
   100
  6
CONTINUOUS
  0
LAYER
  5
9E
330
2
100
AcDbSymbolTableRecord
100
AcDbLayerTableRecord
  2
101
 70
     0
 62
   101
  6
CONTINUOUS
  0
LAYER
  5
9F
330
2
100
AcDbSymbolTableRecord
100
AcDbLayerTableRecord
  2
102
 70
     0
 62
   102
  6
CONTINUOUS
  0
LAYER
  5
A0
330
2
100
AcDbSymbolTableRecord
100
AcDbLayerTableRecord
  2
103
 70
     0
 62
   103
  6
CONTINUOUS
  0
LAYER
  5
A1
330
2
100
AcDbSymbolTableRecord
100
AcDbLayerTableRecord
  2
104
 70
     0
 62
   104
  6
CONTINUOUS
  0
LAYER
  5
A2
330
2
100
AcDbSymbolTableRecord
100
AcDbLayerTableRecord
  2
105
 70
     0
 62
   105
  6
CONTINUOUS
  0
LAYER
  5
A3
330
2
100
AcDbSymbolTableRecord
100
AcDbLayerTableRecord
  2
106
 70
     0
 62
   106
  6
CONTINUOUS
  0
LAYER
  5
A4
330
2
100
AcDbSymbolTableRecord
100
AcDbLayerTableRecord
  2
107
 70
     0
 62
   107
  6
CONTINUOUS
  0
LAYER
  5
A5
330
2
100
AcDbSymbolTableRecord
100
AcDbLayerTableRecord
  2
108
 70
     0
 62
   108
  6
CONTINUOUS
  0
LAYER
  5
A6
330
2
100
AcDbSymbolTableRecord
100
AcDbLayerTableRecord
  2
109
 70
     0
 62
   109
  6
CONTINUOUS
  0
LAYER
  5
A7
330
2
100
AcDbSymbolTableRecord
100
AcDbLayerTableRecord
  2
110
 70
     0
 62
   110
  6
CONTINUOUS
  0
LAYER
  5
A8
330
2
100
AcDbSymbolTableRecord
100
AcDbLayerTableRecord
  2
111
 70
     0
 62
   111
  6
CONTINUOUS
  0
LAYER
  5
A9
330
2
100
AcDbSymbolTableRecord
100
AcDbLayerTableRecord
  2
112
 70
     0
 62
   112
  6
CONTINUOUS
  0
LAYER
  5
AA
330
2
100
AcDbSymbolTableRecord
100
AcDbLayerTableRecord
  2
113
 70
     0
 62
   113
  6
CONTINUOUS
  0
LAYER
  5
AB
330
2
100
AcDbSymbolTableRecord
100
AcDbLayerTableRecord
  2
114
 70
     0
 62
   114
  6
CONTINUOUS
  0
LAYER
  5
AC
330
2
100
AcDbSymbolTableRecord
100
AcDbLayerTableRecord
  2
115
 70
     0
 62
   115
  6
CONTINUOUS
  0
LAYER
  5
AD
330
2
100
AcDbSymbolTableRecord
100
AcDbLayerTableRecord
  2
116
 70
     0
 62
   116
  6
CONTINUOUS
  0
LAYER
  5
AE
330
2
100
AcDbSymbolTableRecord
100
AcDbLayerTableRecord
  2
117
 70
     0
 62
   117
  6
CONTINUOUS
  0
LAYER
  5
AF
330
2
100
AcDbSymbolTableRecord
100
AcDbLayerTableRecord
  2
118
 70
     0
 62
   118
  6
CONTINUOUS
  0
LAYER
  5
B0
330
2
100
AcDbSymbolTableRecord
100
AcDbLayerTableRecord
  2
119
 70
     0
 62
   119
  6
CONTINUOUS
  0
LAYER
  5
B1
330
2
100
AcDbSymbolTableRecord
100
AcDbLayerTableRecord
  2
120
 70
     0
 62
   120
  6
CONTINUOUS
  0
LAYER
  5
B2
330
2
100
AcDbSymbolTableRecord
100
AcDbLayerTableRecord
  2
121
 70
     0
 62
   121
  6
CONTINUOUS
  0
LAYER
  5
B3
330
2
100
AcDbSymbolTableRecord
100
AcDbLayerTableRecord
  2
122
 70
     0
 62
   122
  6
CONTINUOUS
  0
LAYER
  5
B4
330
2
100
AcDbSymbolTableRecord
100
AcDbLayerTableRecord
  2
123
 70
     0
 62
   123
  6
CONTINUOUS
  0
LAYER
  5
B5
330
2
100
AcDbSymbolTableRecord
100
AcDbLayerTableRecord
  2
124
 70
     0
 62
   124
  6
CONTINUOUS
  0
LAYER
  5
B6
330
2
100
AcDbSymbolTableRecord
100
AcDbLayerTableRecord
  2
125
 70
     0
 62
   125
  6
CONTINUOUS
  0
LAYER
  5
B7
330
2
100
AcDbSymbolTableRecord
100
AcDbLayerTableRecord
  2
126
 70
     0
 62
   126
  6
CONTINUOUS
  0
LAYER
  5
B8
330
2
100
AcDbSymbolTableRecord
100
AcDbLayerTableRecord
  2
127
 70
     0
 62
   127
  6
CONTINUOUS
  0
LAYER
  5
B9
330
2
100
AcDbSymbolTableRecord
100
AcDbLayerTableRecord
  2
128
 70
     0
 62
   128
  6
CONTINUOUS
  0
LAYER
  5
BA
330
2
100
AcDbSymbolTableRecord
100
AcDbLayerTableRecord
  2
129
 70
     0
 62
   129
  6
CONTINUOUS
  0
LAYER
  5
BB
330
2
100
AcDbSymbolTableRecord
100
AcDbLayerTableRecord
  2
130
 70
     0
 62
   130
  6
CONTINUOUS
  0
LAYER
  5
BC
330
2
100
AcDbSymbolTableRecord
100
AcDbLayerTableRecord
  2
131
 70
     0
 62
   131
  6
CONTINUOUS
  0
LAYER
  5
BD
330
2
100
AcDbSymbolTableRecord
100
AcDbLayerTableRecord
  2
132
 70
     0
 62
   132
  6
CONTINUOUS
  0
LAYER
  5
BE
330
2
100
AcDbSymbolTableRecord
100
AcDbLayerTableRecord
  2
133
 70
     0
 62
   133
  6
CONTINUOUS
  0
LAYER
  5
BF
330
2
100
AcDbSymbolTableRecord
100
AcDbLayerTableRecord
  2
134
 70
     0
 62
   134
  6
CONTINUOUS
  0
LAYER
  5
C0
330
2
100
AcDbSymbolTableRecord
100
AcDbLayerTableRecord
  2
135
 70
     0
 62
   135
  6
CONTINUOUS
  0
LAYER
  5
C1
330
2
100
AcDbSymbolTableRecord
100
AcDbLayerTableRecord
  2
136
 70
     0
 62
   136
  6
CONTINUOUS
  0
LAYER
  5
C2
330
2
100
AcDbSymbolTableRecord
100
AcDbLayerTableRecord
  2
137
 70
     0
 62
   137
  6
CONTINUOUS
  0
LAYER
  5
C3
330
2
100
AcDbSymbolTableRecord
100
AcDbLayerTableRecord
  2
138
 70
     0
 62
   138
  6
CONTINUOUS
  0
LAYER
  5
C4
330
2
100
AcDbSymbolTableRecord
100
AcDbLayerTableRecord
  2
139
 70
     0
 62
   139
  6
CONTINUOUS
  0
LAYER
  5
C5
330
2
100
AcDbSymbolTableRecord
100
AcDbLayerTableRecord
  2
140
 70
     0
 62
   140
  6
CONTINUOUS
  0
LAYER
  5
C6
330
2
100
AcDbSymbolTableRecord
100
AcDbLayerTableRecord
  2
141
 70
     0
 62
   141
  6
CONTINUOUS
  0
LAYER
  5
C7
330
2
100
AcDbSymbolTableRecord
100
AcDbLayerTableRecord
  2
142
 70
     0
 62
   142
  6
CONTINUOUS
  0
LAYER
  5
C8
330
2
100
AcDbSymbolTableRecord
100
AcDbLayerTableRecord
  2
143
 70
     0
 62
   143
  6
CONTINUOUS
  0
LAYER
  5
C9
330
2
100
AcDbSymbolTableRecord
100
AcDbLayerTableRecord
  2
144
 70
     0
 62
   144
  6
CONTINUOUS
  0
LAYER
  5
CA
330
2
100
AcDbSymbolTableRecord
100
AcDbLayerTableRecord
  2
145
 70
     0
 62
   145
  6
CONTINUOUS
  0
LAYER
  5
CB
330
2
100
AcDbSymbolTableRecord
100
AcDbLayerTableRecord
  2
146
 70
     0
 62
   146
  6
CONTINUOUS
  0
LAYER
  5
CC
330
2
100
AcDbSymbolTableRecord
100
AcDbLayerTableRecord
  2
147
 70
     0
 62
   147
  6
CONTINUOUS
  0
LAYER
  5
CD
330
2
100
AcDbSymbolTableRecord
100
AcDbLayerTableRecord
  2
148
 70
     0
 62
   148
  6
CONTINUOUS
  0
LAYER
  5
CE
330
2
100
AcDbSymbolTableRecord
100
AcDbLayerTableRecord
  2
149
 70
     0
 62
   149
  6
CONTINUOUS
  0
LAYER
  5
CF
330
2
100
AcDbSymbolTableRecord
100
AcDbLayerTableRecord
  2
150
 70
     0
 62
   150
  6
CONTINUOUS
  0
LAYER
  5
D0
330
2
100
AcDbSymbolTableRecord
100
AcDbLayerTableRecord
  2
151
 70
     0
 62
   151
  6
CONTINUOUS
  0
LAYER
  5
D1
330
2
100
AcDbSymbolTableRecord
100
AcDbLayerTableRecord
  2
152
 70
     0
 62
   152
  6
CONTINUOUS
  0
LAYER
  5
D2
330
2
100
AcDbSymbolTableRecord
100
AcDbLayerTableRecord
  2
153
 70
     0
 62
   153
  6
CONTINUOUS
  0
LAYER
  5
D3
330
2
100
AcDbSymbolTableRecord
100
AcDbLayerTableRecord
  2
154
 70
     0
 62
   154
  6
CONTINUOUS
  0
LAYER
  5
D4
330
2
100
AcDbSymbolTableRecord
100
AcDbLayerTableRecord
  2
155
 70
     0
 62
   155
  6
CONTINUOUS
  0
LAYER
  5
D5
330
2
100
AcDbSymbolTableRecord
100
AcDbLayerTableRecord
  2
156
 70
     0
 62
   156
  6
CONTINUOUS
  0
LAYER
  5
D6
330
2
100
AcDbSymbolTableRecord
100
AcDbLayerTableRecord
  2
157
 70
     0
 62
   157
  6
CONTINUOUS
  0
LAYER
  5
D7
330
2
100
AcDbSymbolTableRecord
100
AcDbLayerTableRecord
  2
158
 70
     0
 62
   158
  6
CONTINUOUS
  0
LAYER
  5
D8
330
2
100
AcDbSymbolTableRecord
100
AcDbLayerTableRecord
  2
159
 70
     0
 62
   159
  6
CONTINUOUS
  0
LAYER
  5
D9
330
2
100
AcDbSymbolTableRecord
100
AcDbLayerTableRecord
  2
160
 70
     0
 62
   160
  6
CONTINUOUS
  0
LAYER
  5
DA
330
2
100
AcDbSymbolTableRecord
100
AcDbLayerTableRecord
  2
161
 70
     0
 62
   161
  6
CONTINUOUS
  0
LAYER
  5
DB
330
2
100
AcDbSymbolTableRecord
100
AcDbLayerTableRecord
  2
162
 70
     0
 62
   162
  6
CONTINUOUS
  0
LAYER
  5
DC
330
2
100
AcDbSymbolTableRecord
100
AcDbLayerTableRecord
  2
163
 70
     0
 62
   163
  6
CONTINUOUS
  0
LAYER
  5
DD
330
2
100
AcDbSymbolTableRecord
100
AcDbLayerTableRecord
  2
164
 70
     0
 62
   164
  6
CONTINUOUS
  0
LAYER
  5
DE
330
2
100
AcDbSymbolTableRecord
100
AcDbLayerTableRecord
  2
165
 70
     0
 62
   165
  6
CONTINUOUS
  0
LAYER
  5
DF
330
2
100
AcDbSymbolTableRecord
100
AcDbLayerTableRecord
  2
166
 70
     0
 62
   166
  6
CONTINUOUS
  0
LAYER
  5
E0
330
2
100
AcDbSymbolTableRecord
100
AcDbLayerTableRecord
  2
167
 70
     0
 62
   167
  6
CONTINUOUS
  0
LAYER
  5
E1
330
2
100
AcDbSymbolTableRecord
100
AcDbLayerTableRecord
  2
168
 70
     0
 62
   168
  6
CONTINUOUS
  0
LAYER
  5
E2
330
2
100
AcDbSymbolTableRecord
100
AcDbLayerTableRecord
  2
169
 70
     0
 62
   169
  6
CONTINUOUS
  0
LAYER
  5
E3
330
2
100
AcDbSymbolTableRecord
100
AcDbLayerTableRecord
  2
170
 70
     0
 62
   170
  6
CONTINUOUS
  0
LAYER
  5
E4
330
2
100
AcDbSymbolTableRecord
100
AcDbLayerTableRecord
  2
171
 70
     0
 62
   171
  6
CONTINUOUS
  0
LAYER
  5
E5
330
2
100
AcDbSymbolTableRecord
100
AcDbLayerTableRecord
  2
172
 70
     0
 62
   172
  6
CONTINUOUS
  0
LAYER
  5
E6
330
2
100
AcDbSymbolTableRecord
100
AcDbLayerTableRecord
  2
173
 70
     0
 62
   173
  6
CONTINUOUS
  0
LAYER
  5
E7
330
2
100
AcDbSymbolTableRecord
100
AcDbLayerTableRecord
  2
174
 70
     0
 62
   174
  6
CONTINUOUS
  0
LAYER
  5
E8
330
2
100
AcDbSymbolTableRecord
100
AcDbLayerTableRecord
  2
175
 70
     0
 62
   175
  6
CONTINUOUS
  0
LAYER
  5
E9
330
2
100
AcDbSymbolTableRecord
100
AcDbLayerTableRecord
  2
176
 70
     0
 62
   176
  6
CONTINUOUS
  0
LAYER
  5
EA
330
2
100
AcDbSymbolTableRecord
100
AcDbLayerTableRecord
  2
177
 70
     0
 62
   177
  6
CONTINUOUS
  0
LAYER
  5
EB
330
2
100
AcDbSymbolTableRecord
100
AcDbLayerTableRecord
  2
178
 70
     0
 62
   178
  6
CONTINUOUS
  0
LAYER
  5
EC
330
2
100
AcDbSymbolTableRecord
100
AcDbLayerTableRecord
  2
179
 70
     0
 62
   179
  6
CONTINUOUS
  0
LAYER
  5
ED
330
2
100
AcDbSymbolTableRecord
100
AcDbLayerTableRecord
  2
180
 70
     0
 62
   180
  6
CONTINUOUS
  0
LAYER
  5
EE
330
2
100
AcDbSymbolTableRecord
100
AcDbLayerTableRecord
  2
181
 70
     0
 62
   181
  6
CONTINUOUS
  0
LAYER
  5
EF
330
2
100
AcDbSymbolTableRecord
100
AcDbLayerTableRecord
  2
182
 70
     0
 62
   182
  6
CONTINUOUS
  0
LAYER
  5
F0
330
2
100
AcDbSymbolTableRecord
100
AcDbLayerTableRecord
  2
183
 70
     0
 62
   183
  6
CONTINUOUS
  0
LAYER
  5
F1
330
2
100
AcDbSymbolTableRecord
100
AcDbLayerTableRecord
  2
184
 70
     0
 62
   184
  6
CONTINUOUS
  0
LAYER
  5
F2
330
2
100
AcDbSymbolTableRecord
100
AcDbLayerTableRecord
  2
185
 70
     0
 62
   185
  6
CONTINUOUS
  0
LAYER
  5
F3
330
2
100
AcDbSymbolTableRecord
100
AcDbLayerTableRecord
  2
186
 70
     0
 62
   186
  6
CONTINUOUS
  0
LAYER
  5
F4
330
2
100
AcDbSymbolTableRecord
100
AcDbLayerTableRecord
  2
187
 70
     0
 62
   187
  6
CONTINUOUS
  0
LAYER
  5
F5
330
2
100
AcDbSymbolTableRecord
100
AcDbLayerTableRecord
  2
188
 70
     0
 62
   188
  6
CONTINUOUS
  0
LAYER
  5
F6
330
2
100
AcDbSymbolTableRecord
100
AcDbLayerTableRecord
  2
189
 70
     0
 62
   189
  6
CONTINUOUS
  0
LAYER
  5
F7
330
2
100
AcDbSymbolTableRecord
100
AcDbLayerTableRecord
  2
190
 70
     0
 62
   190
  6
CONTINUOUS
  0
LAYER
  5
F8
330
2
100
AcDbSymbolTableRecord
100
AcDbLayerTableRecord
  2
191
 70
     0
 62
   191
  6
CONTINUOUS
  0
LAYER
  5
F9
330
2
100
AcDbSymbolTableRecord
100
AcDbLayerTableRecord
  2
192
 70
     0
 62
   192
  6
CONTINUOUS
  0
LAYER
  5
FA
330
2
100
AcDbSymbolTableRecord
100
AcDbLayerTableRecord
  2
193
 70
     0
 62
   193
  6
CONTINUOUS
  0
LAYER
  5
FB
330
2
100
AcDbSymbolTableRecord
100
AcDbLayerTableRecord
  2
194
 70
     0
 62
   194
  6
CONTINUOUS
  0
LAYER
  5
FC
330
2
100
AcDbSymbolTableRecord
100
AcDbLayerTableRecord
  2
195
 70
     0
 62
   195
  6
CONTINUOUS
  0
LAYER
  5
FD
330
2
100
AcDbSymbolTableRecord
100
AcDbLayerTableRecord
  2
196
 70
     0
 62
   196
  6
CONTINUOUS
  0
LAYER
  5
FE
330
2
100
AcDbSymbolTableRecord
100
AcDbLayerTableRecord
  2
197
 70
     0
 62
   197
  6
CONTINUOUS
  0
LAYER
  5
FF
330
2
100
AcDbSymbolTableRecord
100
AcDbLayerTableRecord
  2
198
 70
     0
 62
   198
  6
CONTINUOUS
  0
LAYER
  5
100
330
2
100
AcDbSymbolTableRecord
100
AcDbLayerTableRecord
  2
199
 70
     0
 62
   199
  6
CONTINUOUS
  0
LAYER
  5
101
330
2
100
AcDbSymbolTableRecord
100
AcDbLayerTableRecord
  2
200
 70
     0
 62
   200
  6
CONTINUOUS
  0
LAYER
  5
102
330
2
100
AcDbSymbolTableRecord
100
AcDbLayerTableRecord
  2
201
 70
     0
 62
   201
  6
CONTINUOUS
  0
LAYER
  5
103
330
2
100
AcDbSymbolTableRecord
100
AcDbLayerTableRecord
  2
202
 70
     0
 62
   202
  6
CONTINUOUS
  0
LAYER
  5
104
330
2
100
AcDbSymbolTableRecord
100
AcDbLayerTableRecord
  2
203
 70
     0
 62
   203
  6
CONTINUOUS
  0
LAYER
  5
105
330
2
100
AcDbSymbolTableRecord
100
AcDbLayerTableRecord
  2
204
 70
     0
 62
   204
  6
CONTINUOUS
  0
LAYER
  5
106
330
2
100
AcDbSymbolTableRecord
100
AcDbLayerTableRecord
  2
205
 70
     0
 62
   205
  6
CONTINUOUS
  0
LAYER
  5
107
330
2
100
AcDbSymbolTableRecord
100
AcDbLayerTableRecord
  2
206
 70
     0
 62
   206
  6
CONTINUOUS
  0
LAYER
  5
108
330
2
100
AcDbSymbolTableRecord
100
AcDbLayerTableRecord
  2
207
 70
     0
 62
   207
  6
CONTINUOUS
  0
LAYER
  5
109
330
2
100
AcDbSymbolTableRecord
100
AcDbLayerTableRecord
  2
208
 70
     0
 62
   208
  6
CONTINUOUS
  0
LAYER
  5
10A
330
2
100
AcDbSymbolTableRecord
100
AcDbLayerTableRecord
  2
209
 70
     0
 62
   209
  6
CONTINUOUS
  0
LAYER
  5
10B
330
2
100
AcDbSymbolTableRecord
100
AcDbLayerTableRecord
  2
210
 70
     0
 62
   210
  6
CONTINUOUS
  0
LAYER
  5
10C
330
2
100
AcDbSymbolTableRecord
100
AcDbLayerTableRecord
  2
211
 70
     0
 62
   211
  6
CONTINUOUS
  0
LAYER
  5
10D
330
2
100
AcDbSymbolTableRecord
100
AcDbLayerTableRecord
  2
212
 70
     0
 62
   212
  6
CONTINUOUS
  0
LAYER
  5
10E
330
2
100
AcDbSymbolTableRecord
100
AcDbLayerTableRecord
  2
213
 70
     0
 62
   213
  6
CONTINUOUS
  0
LAYER
  5
10F
330
2
100
AcDbSymbolTableRecord
100
AcDbLayerTableRecord
  2
214
 70
     0
 62
   214
  6
CONTINUOUS
  0
LAYER
  5
110
330
2
100
AcDbSymbolTableRecord
100
AcDbLayerTableRecord
  2
215
 70
     0
 62
   215
  6
CONTINUOUS
  0
LAYER
  5
111
330
2
100
AcDbSymbolTableRecord
100
AcDbLayerTableRecord
  2
216
 70
     0
 62
   216
  6
CONTINUOUS
  0
LAYER
  5
112
330
2
100
AcDbSymbolTableRecord
100
AcDbLayerTableRecord
  2
217
 70
     0
 62
   217
  6
CONTINUOUS
  0
LAYER
  5
113
330
2
100
AcDbSymbolTableRecord
100
AcDbLayerTableRecord
  2
218
 70
     0
 62
   218
  6
CONTINUOUS
  0
LAYER
  5
114
330
2
100
AcDbSymbolTableRecord
100
AcDbLayerTableRecord
  2
219
 70
     0
 62
   219
  6
CONTINUOUS
  0
LAYER
  5
115
330
2
100
AcDbSymbolTableRecord
100
AcDbLayerTableRecord
  2
220
 70
     0
 62
   220
  6
CONTINUOUS
  0
LAYER
  5
116
330
2
100
AcDbSymbolTableRecord
100
AcDbLayerTableRecord
  2
221
 70
     0
 62
   221
  6
CONTINUOUS
  0
LAYER
  5
117
330
2
100
AcDbSymbolTableRecord
100
AcDbLayerTableRecord
  2
222
 70
     0
 62
   222
  6
CONTINUOUS
  0
LAYER
  5
118
330
2
100
AcDbSymbolTableRecord
100
AcDbLayerTableRecord
  2
223
 70
     0
 62
   223
  6
CONTINUOUS
  0
LAYER
  5
119
330
2
100
AcDbSymbolTableRecord
100
AcDbLayerTableRecord
  2
224
 70
     0
 62
   224
  6
CONTINUOUS
  0
LAYER
  5
11A
330
2
100
AcDbSymbolTableRecord
100
AcDbLayerTableRecord
  2
225
 70
     0
 62
   225
  6
CONTINUOUS
  0
LAYER
  5
11B
330
2
100
AcDbSymbolTableRecord
100
AcDbLayerTableRecord
  2
226
 70
     0
 62
   226
  6
CONTINUOUS
  0
LAYER
  5
11C
330
2
100
AcDbSymbolTableRecord
100
AcDbLayerTableRecord
  2
227
 70
     0
 62
   227
  6
CONTINUOUS
  0
LAYER
  5
11D
330
2
100
AcDbSymbolTableRecord
100
AcDbLayerTableRecord
  2
228
 70
     0
 62
   228
  6
CONTINUOUS
  0
LAYER
  5
11E
330
2
100
AcDbSymbolTableRecord
100
AcDbLayerTableRecord
  2
229
 70
     0
 62
   229
  6
CONTINUOUS
  0
LAYER
  5
11F
330
2
100
AcDbSymbolTableRecord
100
AcDbLayerTableRecord
  2
230
 70
     0
 62
   230
  6
CONTINUOUS
  0
LAYER
  5
120
330
2
100
AcDbSymbolTableRecord
100
AcDbLayerTableRecord
  2
231
 70
     0
 62
   231
  6
CONTINUOUS
  0
LAYER
  5
121
330
2
100
AcDbSymbolTableRecord
100
AcDbLayerTableRecord
  2
232
 70
     0
 62
   232
  6
CONTINUOUS
  0
LAYER
  5
122
330
2
100
AcDbSymbolTableRecord
100
AcDbLayerTableRecord
  2
233
 70
     0
 62
   233
  6
CONTINUOUS
  0
LAYER
  5
123
330
2
100
AcDbSymbolTableRecord
100
AcDbLayerTableRecord
  2
234
 70
     0
 62
   234
  6
CONTINUOUS
  0
LAYER
  5
124
330
2
100
AcDbSymbolTableRecord
100
AcDbLayerTableRecord
  2
235
 70
     0
 62
   235
  6
CONTINUOUS
  0
LAYER
  5
125
330
2
100
AcDbSymbolTableRecord
100
AcDbLayerTableRecord
  2
236
 70
     0
 62
   236
  6
CONTINUOUS
  0
LAYER
  5
126
330
2
100
AcDbSymbolTableRecord
100
AcDbLayerTableRecord
  2
237
 70
     0
 62
   237
  6
CONTINUOUS
  0
LAYER
  5
127
330
2
100
AcDbSymbolTableRecord
100
AcDbLayerTableRecord
  2
238
 70
     0
 62
   238
  6
CONTINUOUS
  0
LAYER
  5
128
330
2
100
AcDbSymbolTableRecord
100
AcDbLayerTableRecord
  2
239
 70
     0
 62
   239
  6
CONTINUOUS
  0
LAYER
  5
129
330
2
100
AcDbSymbolTableRecord
100
AcDbLayerTableRecord
  2
240
 70
     0
 62
   240
  6
CONTINUOUS
  0
LAYER
  5
12A
330
2
100
AcDbSymbolTableRecord
100
AcDbLayerTableRecord
  2
241
 70
     0
 62
   241
  6
CONTINUOUS
  0
LAYER
  5
12B
330
2
100
AcDbSymbolTableRecord
100
AcDbLayerTableRecord
  2
242
 70
     0
 62
   242
  6
CONTINUOUS
  0
LAYER
  5
12C
330
2
100
AcDbSymbolTableRecord
100
AcDbLayerTableRecord
  2
243
 70
     0
 62
   243
  6
CONTINUOUS
  0
LAYER
  5
12D
330
2
100
AcDbSymbolTableRecord
100
AcDbLayerTableRecord
  2
244
 70
     0
 62
   244
  6
CONTINUOUS
  0
LAYER
  5
12E
330
2
100
AcDbSymbolTableRecord
100
AcDbLayerTableRecord
  2
245
 70
     0
 62
   245
  6
CONTINUOUS
  0
LAYER
  5
12F
330
2
100
AcDbSymbolTableRecord
100
AcDbLayerTableRecord
  2
246
 70
     0
 62
   246
  6
CONTINUOUS
  0
LAYER
  5
130
330
2
100
AcDbSymbolTableRecord
100
AcDbLayerTableRecord
  2
247
 70
     0
 62
   247
  6
CONTINUOUS
  0
LAYER
  5
131
330
2
100
AcDbSymbolTableRecord
100
AcDbLayerTableRecord
  2
248
 70
     0
 62
   248
  6
CONTINUOUS
  0
LAYER
  5
132
330
2
100
AcDbSymbolTableRecord
100
AcDbLayerTableRecord
  2
249
 70
     0
 62
   249
  6
CONTINUOUS
  0
LAYER
  5
133
330
2
100
AcDbSymbolTableRecord
100
AcDbLayerTableRecord
  2
250
 70
     0
 62
   250
  6
CONTINUOUS
  0
LAYER
  5
134
330
2
100
AcDbSymbolTableRecord
100
AcDbLayerTableRecord
  2
251
 70
     0
 62
   251
  6
CONTINUOUS
  0
LAYER
  5
135
330
2
100
AcDbSymbolTableRecord
100
AcDbLayerTableRecord
  2
252
 70
     0
 62
   252
  6
CONTINUOUS
  0
LAYER
  5
136
330
2
100
AcDbSymbolTableRecord
100
AcDbLayerTableRecord
  2
253
 70
     0
 62
   253
  6
CONTINUOUS
  0
LAYER
  5
137
330
2
100
AcDbSymbolTableRecord
100
AcDbLayerTableRecord
  2
254
 70
     0
 62
   254
  6
CONTINUOUS
  0
LAYER
  5
138
330
2
100
AcDbSymbolTableRecord
100
AcDbLayerTableRecord
  2
255
 70
     0
 62
   255
  6
CONTINUOUS
  0
ENDTAB
  0
TABLE
  2
STYLE
  5
3
330
0
100
AcDbSymbolTable
 70
     1
  0
STYLE
  5
11
330
3
100
AcDbSymbolTableRecord
100
AcDbTextStyleTableRecord
  2
STANDARD
 70
     0
 40
0.0
 41
1.0
 50
0.0
 71
     0
 42
0.2
  3
txt
  4

  0
ENDTAB
  0
TABLE
  2
VIEW
  5
6
330
0
100
AcDbSymbolTable
 70
     0
  0
ENDTAB
  0
TABLE
  2
UCS
  5
7
330
0
100
AcDbSymbolTable
 70
     0
  0
ENDTAB
  0
TABLE
  2
APPID
  5
9
330
0
100
AcDbSymbolTable
 70
     1
  0
APPID
  5
12
330
9
100
AcDbSymbolTableRecord
100
AcDbRegAppTableRecord
  2
ACAD
 70
     0
  0
ENDTAB
  0
TABLE
  2
DIMSTYLE
  5
A
330
0
100
AcDbSymbolTable
 70
     1
  0
DIMSTYLE
105
734
330
A
100
AcDbSymbolTableRecord
100
AcDbDimStyleTableRecord
  2
STANDARD
 70
     0
  3

  4

  5

  6

  7

 40
1.0
 41
0.18
 42
0.0625
 43
0.38
 44
0.18
 45
0.0
 46
0.0
 47
0.0
 48
0.0
140
0.18
141
0.09
142
0.0
143
25.4
144
1.0
145
0.0
146
1.0
147
0.09
 71
     0
 72
     0
 73
     1
 74
     1
 75
     0
 76
     0
 77
     0
 78
     0
170
     0
171
     2
172
     0
173
     0
174
     0
175
     0
176
     0
177
     0
178
     0
270
     2
271
     4
272
     4
273
     2
274
     2
340
11
275
     0
280
     0
281
     0
282
     0
283
     1
284
     0
285
     0
286
     0
287
     3
288
     0
  0
ENDTAB
  0
TABLE
  2
BLOCK_RECORD
  5
1
330
0
100
AcDbSymbolTable
 70
     0
  0
BLOCK_RECORD
  5
1E
102
{ACAD_XDICTIONARY
360
B0B
102
}
330
1
100
AcDbSymbolTableRecord
100
AcDbBlockTableRecord
  2
*MODEL_SPACE
  0
BLOCK_RECORD
  5
1A
102
{ACAD_XDICTIONARY
360
B0D
102
}
330
1
100
AcDbSymbolTableRecord
100
AcDbBlockTableRecord
  2
*PAPER_SPACE
  0
ENDTAB
  0
ENDSEC
  0
SECTION
  2
BLOCKS
  0
BLOCK
  5
13B
330
1E
100
AcDbEntity
  8
0
100
AcDbBlockBegin
  2
*MODEL_SPACE
 70
     0
 10
0.0
 20
0.0
 30
0.0
  3
*MODEL_SPACE
  1

  0
ENDBLK
  5
13C
330
1E
100
AcDbEntity
  8
0
100
AcDbBlockEnd
  0
BLOCK
  5
139
330
1A
100
AcDbEntity
 67
     1
  8
0
100
AcDbBlockBegin
  2
*PAPER_SPACE
 70
     0
 10
0.0
 20
0.0
 30
0.0
  3
*PAPER_SPACE
  1

  0
ENDBLK
  5
13A
330
1A
100
AcDbEntity
 67
     1
  8
0
100
AcDbBlockEnd
  0
ENDSEC
  0
SECTION
  2
ENTITIES
  0
LINE
  5
148
330
1E
100
AcDbEntity
  8
0
100
AcDbLine
 10
7.038857167542915
 20
1.445142244166528
 30
0.0
 11
7.038857167542915
 21
1.448760528739581
 31
0.0
  0
LINE
  5
149
330
1E
100
AcDbEntity
  8
0
100
AcDbLine
 10
7.038857167542915
 20
1.267846300086914
 30
0.0
 11
7.038857167542915
 21
1.271464584659968
 31
0.0
  0
LINE
  5
14A
330
1E
100
AcDbEntity
  8
0
100
AcDbLine
 10
7.013529175531542
 20
2.201363719934676
 30
0.0
 11
1.994968472706559
 21
2.201363719934677
 31
0.0
  0
LINE
  5
14B
330
1E
100
AcDbEntity
  8
0
100
AcDbLine
 10
1.994968472706559
 20
2.201363719934677
 30
0.0
 11
1.994968472706557
 21
0.515243108891821
 31
0.0
  0
LINE
  5
14C
330
1E
100
AcDbEntity
  8
0
100
AcDbLine
 10
1.994968472706557
 20
0.515243108891821
 30
0.0
 11
7.013529175531542
 21
0.5152431088918195
 31
0.0
  0
LINE
  5
14D
330
1E
100
AcDbEntity
  8
0
100
AcDbLine
 10
7.013529175531542
 20
0.5152431088918195
 30
0.0
 11
7.013529175531542
 21
0.8879264199163136
 31
0.0
  0
LINE
  5
14E
330
1E
100
AcDbEntity
  8
0
100
AcDbLine
 10
7.013529175531542
 20
0.8879264199163136
 30
0.0
 11
6.977346329801006
 21
0.8879264199163136
 31
0.0
  0
LINE
  5
155
330
1E
100
AcDbEntity
  8
0
100
AcDbLine
 10
6.915835492059101
 20
0.6853024838253269
 30
0.0
 11
2.6896791107328
 21
0.6853024838253285
 31
0.0
  0
LINE
  5
15F
330
1E
100
AcDbEntity
  8
0
100
AcDbLine
 10
2.534092874091506
 20
1.061604079422876
 30
0.0
 11
2.534092874091506
 21
1.655002749403623
 31
0.0
  0
LINE
  5
169
330
1E
100
AcDbEntity
  8
0
100
AcDbLine
 10
2.6896791107328
 20
2.031304345001172
 30
0.0
 11
6.915835492059101
 21
2.03130434500117
 31
0.0
  0
LINE
  5
171
330
1E
100
AcDbEntity
  8
0
100
AcDbLine
 10
6.977346329801009
 20
1.828680408910182
 30
0.0
 11
7.013529175531542
 21
1.828680408910182
 31
0.0
  0
LINE
  5
172
330
1E
100
AcDbEntity
  8
0
100
AcDbLine
 10
7.013529175531542
 20
1.828680408910182
 30
0.0
 11
7.013529175531542
 21
2.201363719934676
 31
0.0
  0
LINE
  5
173
330
1E
100
AcDbEntity
  8
0
100
AcDbLine
 10
2.078189017886785
 20
1.868481539213771
 30
0.0
 11
2.078189017886785
 21
1.427050821301262
 31
0.0
  0
LINE
  5
17B
330
1E
100
AcDbEntity
  8
0
100
AcDbLine
 10
2.110753579044265
 20
2.031304345001172
 30
0.0
 11
2.548566012383719
 21
2.031304345001172
 31
0.0
  0
LINE
  5
18A
330
1E
100
AcDbEntity
  8
0
100
AcDbLine
 10
2.4725820363496
 20
1.687567310561104
 30
0.0
 11
2.4725820363496
 21
1.427050821301262
 31
0.0
  0
LINE
  5
191
330
1E
100
AcDbEntity
  8
0
100
AcDbLine
 10
2.110753579044265
 20
1.394486260143783
 30
0.0
 11
2.44001747519212
 21
1.394486260143783
 31
0.0
  0
LINE
  5
1A6
330
1E
100
AcDbEntity
  8
0
100
AcDbLine
 10
2.548566012383719
 20
0.6853024838253285
 30
0.0
 11
2.110753579044264
 21
0.6853024838253285
 31
0.0
  0
LINE
  5
1AE
330
1E
100
AcDbEntity
  8
0
100
AcDbLine
 10
2.078189017886785
 20
1.267846300086916
 30
0.0
 11
2.078189017886783
 21
0.8481252896127294
 31
0.0
  0
LINE
  5
1B5
330
1E
100
AcDbEntity
  8
0
100
AcDbLine
 10
2.110753579044265
 20
1.300410861244396
 30
0.0
 11
2.44001747519212
 21
1.300410861244396
 31
0.0
  0
LINE
  5
1BC
330
1E
100
AcDbEntity
  8
0
100
AcDbLine
 10
2.4725820363496
 20
1.267846300086916
 30
0.0
 11
2.472582036349596
 21
1.029039518265395
 31
0.0
  0
LINE
  5
1BD
330
1E
100
AcDbEntity
  8
0
100
AcDbLine
 10
2.468963751776547
 20
1.687567310561104
 30
0.0
 11
2.4725820363496
 21
1.687567310561104
 31
0.0
  0
LINE
  5
1C5
330
1E
100
AcDbEntity
  8
0
100
AcDbLine
 10
2.465345467203492
 20
1.593491911661717
 30
0.0
 11
2.465345467203492
 21
1.430669105874317
 31
0.0
  0
LINE
  5
1C6
330
1E
100
AcDbEntity
  8
0
100
AcDbLine
 10
2.465345467203492
 20
1.430669105874317
 30
0.0
 11
2.4725820363496
 21
1.427050821301262
 31
0.0
  0
LINE
  5
1C7
330
1E
100
AcDbEntity
  8
0
100
AcDbLine
 10
2.085425587032891
 20
1.430669105874317
 30
0.0
 11
2.085425587032891
 21
1.593491911661717
 31
0.0
  0
LINE
  5
1D3
330
1E
100
AcDbEntity
  8
0
100
AcDbLine
 10
2.078189017886785
 20
1.427050821301262
 30
0.0
 11
2.085425587032891
 21
1.430669105874317
 31
0.0
  0
LINE
  5
1D4
330
1E
100
AcDbEntity
  8
0
100
AcDbLine
 10
2.432780906046012
 20
1.622438188246144
 30
0.0
 11
2.117990148190372
 21
1.622438188246144
 31
0.0
  0
LINE
  5
1D5
330
1E
100
AcDbEntity
  8
0
100
AcDbLine
 10
2.117990148190372
 20
1.622438188246144
 30
0.0
 11
2.117990148190372
 21
1.622438188246144
 31
0.0
  0
LINE
  5
1D6
330
1E
100
AcDbEntity
  8
0
100
AcDbLine
 10
2.117990148190372
 20
1.622438188246144
 30
0.0
 11
2.117990148190372
 21
1.430669105874317
 31
0.0
  0
LINE
  5
1D7
330
1E
100
AcDbEntity
  8
0
100
AcDbLine
 10
2.117990148190372
 20
1.430669105874317
 30
0.0
 11
2.432780906046012
 21
1.430669105874317
 31
0.0
  0
LINE
  5
1D8
330
1E
100
AcDbEntity
  8
0
100
AcDbLine
 10
2.432780906046012
 20
1.430669105874317
 30
0.0
 11
2.432780906046012
 21
1.622438188246144
 31
0.0
  0
LINE
  5
1D9
330
1E
100
AcDbEntity
  8
0
100
AcDbLine
 10
2.432780906046012
 20
1.622438188246144
 30
0.0
 11
2.432780906046012
 21
1.622438188246144
 31
0.0
  0
LINE
  5
1E7
330
1E
100
AcDbEntity
  8
0
100
AcDbLine
 10
7.04609373668902
 20
0.8879264199163136
 30
0.0
 11
7.04609373668902
 21
0.5152431088918195
 31
0.0
  0
LINE
  5
1F4
330
1E
100
AcDbEntity
  8
0
100
AcDbLine
 10
6.944781768643527
 20
1.260609730940807
 30
0.0
 11
6.944781768643527
 21
1.264228015513861
 31
0.0
  0
LINE
  5
1F5
330
1E
100
AcDbEntity
  8
0
100
AcDbLine
 10
1.962403911549076
 20
0.4862968323073943
 30
0.0
 11
1.962403911549078
 21
2.230309996519104
 31
0.0
  0
LINE
  5
1F6
330
1E
100
AcDbEntity
  8
0
100
AcDbLine
 10
7.013529175531542
 20
0.4862968323073928
 30
0.0
 11
1.962403911549076
 21
0.4862968323073943
 31
0.0
  0
LINE
  5
204
330
1E
100
AcDbEntity
  8
0
100
AcDbLine
 10
7.04609373668902
 20
2.201363719934676
 30
0.0
 11
7.04609373668902
 21
1.828680408910182
 31
0.0
  0
LINE
  5
205
330
1E
100
AcDbEntity
  8
0
100
AcDbLine
 10
1.962403911549078
 20
2.230309996519104
 30
0.0
 11
7.013529175531542
 21
2.230309996519102
 31
0.0
  0
LINE
  5
206
330
1E
100
AcDbEntity
  8
0
100
AcDbLine
 10
6.944781768643527
 20
1.452378813312635
 30
0.0
 11
6.944781768643527
 21
1.452378813312635
 31
0.0
  0
LINE
  5
213
330
1E
100
AcDbEntity
  8
0
100
AcDbLine
 10
2.566657435248985
 20
1.655002749403623
 30
0.0
 11
2.566657435248985
 21
1.061604079422876
 31
0.0
  0
LINE
  5
214
330
1E
100
AcDbEntity
  8
0
100
AcDbLine
 10
2.08542558703289
 20
1.123114917164782
 30
0.0
 11
2.085425587032891
 21
1.264228015513863
 31
0.0
  0
LINE
  5
215
330
1E
100
AcDbEntity
  8
0
100
AcDbLine
 10
2.085425587032891
 20
1.264228015513863
 30
0.0
 11
2.078189017886785
 21
1.267846300086916
 31
0.0
  0
LINE
  5
221
330
1E
100
AcDbEntity
  8
0
100
AcDbLine
 10
2.432780906046012
 20
1.090550356007303
 30
0.0
 11
2.11799014819037
 21
1.090550356007303
 31
0.0
  0
LINE
  5
222
330
1E
100
AcDbEntity
  8
0
100
AcDbLine
 10
2.432780906046012
 20
1.090550356007303
 30
0.0
 11
2.432780906046012
 21
1.090550356007303
 31
0.0
  0
LINE
  5
223
330
1E
100
AcDbEntity
  8
0
100
AcDbLine
 10
2.432780906046012
 20
1.090550356007303
 30
0.0
 11
2.432780906046012
 21
1.264228015513863
 31
0.0
  0
LINE
  5
224
330
1E
100
AcDbEntity
  8
0
100
AcDbLine
 10
2.432780906046012
 20
1.264228015513863
 30
0.0
 11
2.117990148190372
 21
1.264228015513863
 31
0.0
  0
LINE
  5
225
330
1E
100
AcDbEntity
  8
0
100
AcDbLine
 10
2.117990148190372
 20
1.264228015513863
 30
0.0
 11
2.11799014819037
 21
1.090550356007303
 31
0.0
  0
LINE
  5
226
330
1E
100
AcDbEntity
  8
0
100
AcDbLine
 10
2.11799014819037
 20
1.090550356007303
 30
0.0
 11
2.11799014819037
 21
1.090550356007303
 31
0.0
  0
LINE
  5
227
330
1E
100
AcDbEntity
  8
0
100
AcDbLine
 10
2.465345467203492
 20
1.264228015513863
 30
0.0
 11
2.465345467203492
 21
1.123114917164782
 31
0.0
  0
LINE
  5
22F
330
1E
100
AcDbEntity
  8
0
100
AcDbLine
 10
2.468963751776544
 20
1.029039518265395
 30
0.0
 11
2.472582036349596
 21
1.029039518265395
 31
0.0
  0
LINE
  5
230
330
1E
100
AcDbEntity
  8
0
100
AcDbLine
 10
2.4725820363496
 20
1.267846300086916
 30
0.0
 11
2.465345467203492
 21
1.264228015513863
 31
0.0
  0
LINE
  5
231
330
1E
100
AcDbEntity
  8
0
100
AcDbLine
 10
2.6896791107328
 20
1.090550356007303
 30
0.0
 11
6.915835492059101
 21
1.090550356007301
 31
0.0
  0
LINE
  5
25C
330
1E
100
AcDbEntity
  8
0
100
AcDbLine
 10
6.915835492059101
 20
1.622438188246142
 30
0.0
 11
2.6896791107328
 21
1.622438188246144
 31
0.0
  0
LINE
  5
26B
330
1E
100
AcDbEntity
  8
0
100
AcDbLine
 10
2.432780906046012
 20
1.40172282928989
 30
0.0
 11
2.117990148190372
 21
1.40172282928989
 31
0.0
  0
LINE
  5
26C
330
1E
100
AcDbEntity
  8
0
100
AcDbLine
 10
2.117990148190372
 20
1.40172282928989
 30
0.0
 11
2.110753579044265
 21
1.394486260143783
 31
0.0
  0
LINE
  5
26D
330
1E
100
AcDbEntity
  8
0
100
AcDbLine
 10
2.44001747519212
 20
1.394486260143783
 30
0.0
 11
2.432780906046012
 21
1.40172282928989
 31
0.0
  0
LINE
  5
26E
330
1E
100
AcDbEntity
  8
0
100
AcDbLine
 10
2.117990148190372
 20
1.29317429209829
 30
0.0
 11
2.432780906046012
 21
1.29317429209829
 31
0.0
  0
LINE
  5
26F
330
1E
100
AcDbEntity
  8
0
100
AcDbLine
 10
2.432780906046012
 20
1.29317429209829
 30
0.0
 11
2.44001747519212
 21
1.300410861244396
 31
0.0
  0
LINE
  5
270
330
1E
100
AcDbEntity
  8
0
100
AcDbLine
 10
2.110753579044265
 20
1.300410861244396
 30
0.0
 11
2.117990148190372
 21
1.29317429209829
 31
0.0
  0
LINE
  5
271
330
1E
100
AcDbEntity
  8
0
100
AcDbLine
 10
2.6896791107328
 20
1.090550356007303
 30
0.0
 11
2.6896791107328
 21
1.090550356007303
 31
0.0
  0
LINE
  5
272
330
1E
100
AcDbEntity
  8
0
100
AcDbLine
 10
6.915835492059101
 20
1.090550356007301
 30
0.0
 11
6.915835492059101
 21
1.090550356007301
 31
0.0
  0
LINE
  5
273
330
1E
100
AcDbEntity
  8
0
100
AcDbLine
 10
6.944781768643527
 20
1.452378813312635
 30
0.0
 11
6.944781768643527
 21
1.452378813312635
 31
0.0
  0
LINE
  5
274
330
1E
100
AcDbEntity
  8
0
100
AcDbLine
 10
6.915835492059101
 20
1.622438188246142
 30
0.0
 11
6.915835492059101
 21
1.622438188246142
 31
0.0
  0
LINE
  5
275
330
1E
100
AcDbEntity
  8
0
100
AcDbLine
 10
2.6896791107328
 20
1.622438188246144
 30
0.0
 11
2.6896791107328
 21
1.622438188246144
 31
0.0
  0
LINE
  5
276
330
1E
100
AcDbEntity
  8
0
100
AcDbLine
 10
6.944781768643527
 20
1.264228015513861
 30
0.0
 11
6.944781768643527
 21
1.264228015513861
 31
0.0
  0
LINE
  5
2BF
330
1E
100
AcDbEntity
  8
0
100
AcDbLine
 10
7.009910890958489
 20
1.419814252155154
 30
0.0
 11
6.977346329801009
 21
1.419814252155154
 31
0.0
  0
LINE
  5
2C0
330
1E
100
AcDbEntity
  8
0
100
AcDbLine
 10
7.009910890958489
 20
1.419814252155154
 30
0.0
 11
7.009910890958489
 21
1.423432536728208
 31
0.0
  0
LINE
  5
2C1
330
1E
100
AcDbEntity
  8
0
100
AcDbLine
 10
7.009910890958489
 20
1.423432536728208
 30
0.0
 11
6.977346329801009
 21
1.423432536728208
 31
0.0
  0
LINE
  5
2C2
330
1E
100
AcDbEntity
  8
0
100
AcDbLine
 10
6.977346329801009
 20
1.423432536728208
 30
0.0
 11
6.977346329801009
 21
1.419814252155154
 31
0.0
  0
LINE
  5
2C3
330
1E
100
AcDbEntity
  8
0
100
AcDbLine
 10
6.977346329801009
 20
1.293174292098288
 30
0.0
 11
7.009910890958489
 21
1.293174292098288
 31
0.0
  0
LINE
  5
2C4
330
1E
100
AcDbEntity
  8
0
100
AcDbLine
 10
7.009910890958489
 20
1.293174292098288
 30
0.0
 11
7.009910890958489
 21
1.296792576671341
 31
0.0
  0
LINE
  5
2C5
330
1E
100
AcDbEntity
  8
0
100
AcDbLine
 10
6.977346329801009
 20
1.296792576671341
 30
0.0
 11
7.009910890958489
 21
1.296792576671341
 31
0.0
  0
LINE
  5
2C6
330
1E
100
AcDbEntity
  8
0
100
AcDbLine
 10
6.977346329801009
 20
1.296792576671341
 30
0.0
 11
6.977346329801009
 21
1.293174292098288
 31
0.0
  0
LINE
  5
2C7
330
1E
100
AcDbEntity
  8
0
100
AcDbLine
 10
7.009910890958489
 20
1.419814252155154
 30
0.0
 11
7.009910890958489
 21
1.419814252155154
 31
0.0
  0
LINE
  5
2C8
330
1E
100
AcDbEntity
  8
0
100
AcDbLine
 10
6.977346329801009
 20
1.419814252155154
 30
0.0
 11
6.977346329801009
 21
1.419814252155154
 31
0.0
  0
LINE
  5
2C9
330
1E
100
AcDbEntity
  8
0
100
AcDbLine
 10
7.009910890958489
 20
1.296792576671341
 30
0.0
 11
7.009910890958489
 21
1.296792576671341
 31
0.0
  0
LINE
  5
2CA
330
1E
100
AcDbEntity
  8
0
100
AcDbLine
 10
6.977346329801009
 20
1.296792576671341
 30
0.0
 11
6.977346329801009
 21
1.296792576671341
 31
0.0
  0
LINE
  5
2E6
330
1E
100
AcDbEntity
  8
0
100
AcDbLine
 10
6.977346329801006
 20
0.9132544119276879
 30
0.0
 11
6.977346329801006
 21
0.8879264199163136
 31
0.0
  0
LINE
  5
2F5
330
1E
100
AcDbEntity
  8
0
100
AcDbLine
 10
6.977346329801009
 20
1.828680408910182
 30
0.0
 11
6.977346329801009
 21
1.803352416898809
 31
0.0
  0
LINE
  5
30B
330
1E
100
AcDbEntity
  8
0
100
AcDbLine
 10
6.944781768643527
 20
1.803352416898809
 30
0.0
 11
6.944781768643527
 21
1.825062124337129
 31
0.0
  0
LINE
  5
322
330
1E
100
AcDbEntity
  8
0
100
AcDbLine
 10
6.944781768643527
 20
0.8915447044893676
 30
0.0
 11
6.944781768643527
 21
0.9132544119276879
 31
0.0
  0
LINE
  5
472
330
1E
100
AcDbEntity
  8
0
100
AcDbLine
 10
7.013529175531542
 20
6.308116710350217
 30
0.0
 11
1.994968472706559
 21
6.308116710350218
 31
0.0
  0
LINE
  5
473
330
1E
100
AcDbEntity
  8
0
100
AcDbLine
 10
2.078189017886785
 20
7.310381537085993
 30
0.0
 11
7.002674321812381
 21
7.310381537085993
 31
0.0
  0
LINE
  5
474
330
1E
100
AcDbEntity
  8
0
100
AcDbLine
 10
2.078189017886785
 20
7.310381537085993
 30
0.0
 11
1.976877049841291
 21
7.310381537085993
 31
0.0
  0
LINE
  5
475
330
1E
100
AcDbEntity
  8
0
100
AcDbLine
 10
1.962403911549078
 20
6.3406812715077
 30
0.0
 11
1.976877049841291
 21
7.310381537085993
 31
0.0
  0
LINE
  5
476
330
1E
100
AcDbEntity
  8
0
100
AcDbLine
 10
7.031620598396807
 20
7.277816975928514
 30
0.0
 11
7.035238882969863
 21
6.991972494657298
 31
0.0
  0
LINE
  5
47E
330
1E
100
AcDbEntity
  8
0
100
AcDbLine
 10
7.038857167542915
 20
6.840004542589058
 30
0.0
 11
7.04609373668902
 21
6.340681271507699
 31
0.0
  0
LINE
  5
47F
330
1E
100
AcDbEntity
  8
0
100
AcDbLine
 10
1.962403911549078
 20
6.3406812715077
 30
0.0
 11
7.013529175531542
 21
6.340681271507699
 31
0.0
  0
LINE
  5
480
330
1E
100
AcDbEntity
  8
0
100
AcDbLine
 10
7.013529175531542
 20
6.340681271507699
 30
0.0
 11
7.006292606385437
 21
6.840004542589058
 31
0.0
  0
LINE
  5
481
330
1E
100
AcDbEntity
  8
0
100
AcDbLine
 10
7.006292606385437
 20
6.840004542589058
 30
0.0
 11
2.461727182630438
 21
6.84000454258906
 31
0.0
  0
LINE
  5
488
330
1E
100
AcDbEntity
  8
0
100
AcDbLine
 10
2.345942076292732
 20
6.80743998143158
 30
0.0
 11
2.342323791719679
 21
6.803821696858527
 31
0.0
  0
LINE
  5
48F
330
1E
100
AcDbEntity
  8
0
100
AcDbLine
 10
2.193974124224494
 20
6.760402281981887
 30
0.0
 11
2.089043871605945
 21
6.760402281981887
 31
0.0
  0
LINE
  5
490
330
1E
100
AcDbEntity
  8
0
100
AcDbLine
 10
2.078189017886785
 20
7.310381537085993
 30
0.0
 11
2.089043871605945
 21
6.760402281981887
 31
0.0
  0
LINE
  5
491
330
1E
100
AcDbEntity
  8
0
100
AcDbLine
 10
2.461727182630438
 20
6.868950819173487
 30
0.0
 11
7.006292606385437
 21
6.868950819173485
 31
0.0
  0
LINE
  5
498
330
1E
100
AcDbEntity
  8
0
100
AcDbLine
 10
2.089043871605945
 20
6.792966843139367
 30
0.0
 11
2.193974124224494
 21
6.792966843139367
 31
0.0
  0
LINE
  5
499
330
1E
100
AcDbEntity
  8
0
100
AcDbLine
 10
2.327850653427466
 20
6.8291496888699
 30
0.0
 11
2.331468938000519
 21
6.832767973442954
 31
0.0
  0
LINE
  5
4A6
330
1E
100
AcDbEntity
  8
0
100
AcDbLine
 10
6.955636622362688
 20
6.991972494657298
 30
0.0
 11
7.006292606385437
 21
6.991972494657298
 31
0.0
  0
LINE
  5
4A7
330
1E
100
AcDbEntity
  8
0
100
AcDbLine
 10
7.006292606385437
 20
6.991972494657298
 30
0.0
 11
7.002674321812381
 21
7.277816975928514
 31
0.0
  0
LINE
  5
4A8
330
1E
100
AcDbEntity
  8
0
100
AcDbLine
 10
7.002674321812381
 20
7.277816975928514
 30
0.0
 11
2.078189017886785
 21
7.277816975928514
 31
0.0
  0
LINE
  5
50A
330
1E
100
AcDbEntity
  8
0
100
AcDbLine
 10
10.75483542406869
 20
0.5152431088918195
 30
0.0
 11
10.75483542406869
 21
0.8879264199163136
 31
0.0
  0
LINE
  5
511
330
1E
100
AcDbEntity
  8
0
100
AcDbLine
 10
10.75483542406869
 20
1.061604079422875
 30
0.0
 11
10.75483542406869
 21
1.655002749403622
 31
0.0
  0
LINE
  5
517
330
1E
100
AcDbEntity
  8
0
100
AcDbLine
 10
10.75483542406869
 20
1.828680408910182
 30
0.0
 11
10.75483542406869
 21
2.201363719934676
 31
0.0
  0
LINE
  5
518
330
1E
100
AcDbEntity
  8
0
100
AcDbLine
 10
11.75710025080446
 20
1.123114917164781
 30
0.0
 11
11.75710025080446
 21
1.039894371984553
 31
0.0
  0
LINE
  5
519
330
1E
100
AcDbEntity
  8
0
100
AcDbLine
 10
11.75710025080446
 20
1.039894371984553
 30
0.0
 11
11.75710025080446
 21
0.858980143331887
 31
0.0
  0
LINE
  5
51A
330
1E
100
AcDbEntity
  8
0
100
AcDbLine
 10
11.75710025080446
 20
1.854008400921556
 30
0.0
 11
11.75710025080446
 21
1.676712456841942
 31
0.0
  0
LINE
  5
51B
330
1E
100
AcDbEntity
  8
0
100
AcDbLine
 10
11.75710025080446
 20
1.676712456841942
 30
0.0
 11
11.75710025080446
 21
1.593491911661716
 31
0.0
  0
LINE
  5
521
330
1E
100
AcDbEntity
  8
0
100
AcDbLine
 10
11.75710025080446
 20
1.510271366481488
 30
0.0
 11
11.75710025080446
 21
1.206335462345008
 31
0.0
  0
LINE
  5
532
330
1E
100
AcDbEntity
  8
0
100
AcDbLine
 10
11.43869120837577
 20
1.032657802838446
 30
0.0
 11
11.72453568964698
 21
1.039894371984553
 31
0.0
  0
LINE
  5
533
330
1E
100
AcDbEntity
  8
0
100
AcDbLine
 10
11.72453568964698
 20
1.039894371984553
 30
0.0
 11
11.72453568964698
 21
1.123114917164781
 31
0.0
  0
LINE
  5
53D
330
1E
100
AcDbEntity
  8
0
100
AcDbLine
 10
11.60513229873622
 20
1.249754877221648
 30
0.0
 11
11.16370158082371
 21
1.264228015513861
 31
0.0
  0
LINE
  5
53E
330
1E
100
AcDbEntity
  8
0
100
AcDbLine
 10
11.16370158082371
 20
1.264228015513861
 30
0.0
 11
11.13475530423929
 21
1.260609730940807
 31
0.0
  0
LINE
  5
54C
330
1E
100
AcDbEntity
  8
0
100
AcDbLine
 10
10.78739998522617
 20
0.8879264199163136
 30
0.0
 11
10.78739998522617
 21
0.5152431088918195
 31
0.0
  0
LINE
  5
54D
330
1E
100
AcDbEntity
  8
0
100
AcDbLine
 10
10.78739998522617
 20
0.5152431088918195
 30
0.0
 11
11.28672325630753
 21
0.5224796780379261
 31
0.0
  0
LINE
  5
54E
330
1E
100
AcDbEntity
  8
0
100
AcDbLine
 10
11.28672325630753
 20
0.5224796780379261
 30
0.0
 11
11.28672325630753
 21
0.5405711009031935
 31
0.0
  0
LINE
  5
54F
330
1E
100
AcDbEntity
  8
0
100
AcDbLine
 10
11.28672325630753
 20
0.5405711009031935
 30
0.0
 11
11.28672325630753
 21
0.5405711009031935
 31
0.0
  0
LINE
  5
557
330
1E
100
AcDbEntity
  8
0
100
AcDbLine
 10
11.22521241856562
 20
0.602081938645101
 30
0.0
 11
11.22521241856562
 21
0.815560728455247
 31
0.0
  0
LINE
  5
558
330
1E
100
AcDbEntity
  8
0
100
AcDbLine
 10
11.75710025080446
 20
0.6057002232181535
 30
0.0
 11
11.75710025080446
 21
0.4971516860265536
 31
0.0
  0
LINE
  5
559
330
1E
100
AcDbEntity
  8
0
100
AcDbLine
 10
11.75710025080446
 20
2.219455142799943
 30
0.0
 11
11.75710025080446
 21
2.110906605608343
 31
0.0
  0
LINE
  5
55A
330
1E
100
AcDbEntity
  8
0
100
AcDbLine
 10
11.28672325630753
 20
0.4899151168804467
 30
0.0
 11
10.78739998522617
 21
0.4862968323073928
 31
0.0
  0
LINE
  5
55B
330
1E
100
AcDbEntity
  8
0
100
AcDbLine
 10
11.75710025080446
 20
0.4971516860265536
 30
0.0
 11
11.28672325630753
 21
0.4899151168804467
 31
0.0
  0
LINE
  5
569
330
1E
100
AcDbEntity
  8
0
100
AcDbLine
 10
11.13475530423929
 20
1.452378813312635
 30
0.0
 11
11.16370158082371
 21
1.452378813312635
 31
0.0
  0
LINE
  5
56A
330
1E
100
AcDbEntity
  8
0
100
AcDbLine
 10
11.16370158082371
 20
1.452378813312635
 30
0.0
 11
11.60513229873622
 21
1.466851951604848
 31
0.0
  0
LINE
  5
574
330
1E
100
AcDbEntity
  8
0
100
AcDbLine
 10
11.72453568964698
 20
1.593491911661716
 30
0.0
 11
11.72453568964698
 21
1.676712456841942
 31
0.0
  0
LINE
  5
575
330
1E
100
AcDbEntity
  8
0
100
AcDbLine
 10
11.72453568964698
 20
1.676712456841942
 30
0.0
 11
11.43869120837577
 21
1.680330741414996
 31
0.0
  0
LINE
  5
581
330
1E
100
AcDbEntity
  8
0
100
AcDbLine
 10
11.22521241856562
 20
1.901046100371248
 30
0.0
 11
11.22521241856562
 21
2.114524890181395
 31
0.0
  0
LINE
  5
589
330
1E
100
AcDbEntity
  8
0
100
AcDbLine
 10
11.28672325630753
 20
2.176035727923304
 30
0.0
 11
11.28672325630753
 21
2.176035727923304
 31
0.0
  0
LINE
  5
58A
330
1E
100
AcDbEntity
  8
0
100
AcDbLine
 10
11.28672325630753
 20
2.176035727923304
 30
0.0
 11
11.28672325630753
 21
2.194127150788569
 31
0.0
  0
LINE
  5
58B
330
1E
100
AcDbEntity
  8
0
100
AcDbLine
 10
11.28672325630753
 20
2.194127150788569
 30
0.0
 11
10.78739998522617
 21
2.201363719934676
 31
0.0
  0
LINE
  5
58C
330
1E
100
AcDbEntity
  8
0
100
AcDbLine
 10
10.78739998522617
 20
2.201363719934676
 30
0.0
 11
10.78739998522617
 21
1.828680408910182
 31
0.0
  0
LINE
  5
58D
330
1E
100
AcDbEntity
  8
0
100
AcDbLine
 10
10.78739998522617
 20
2.230309996519102
 30
0.0
 11
11.28672325630753
 21
2.223073427372996
 31
0.0
  0
LINE
  5
58E
330
1E
100
AcDbEntity
  8
0
100
AcDbLine
 10
11.75710025080446
 20
2.219455142799943
 30
0.0
 11
11.28672325630753
 21
2.223073427372996
 31
0.0
  0
LINE
  5
594
330
1E
100
AcDbEntity
  8
0
100
AcDbLine
 10
10.78739998522617
 20
1.655002749403622
 30
0.0
 11
10.78739998522617
 21
1.061604079422875
 31
0.0
  0
LINE
  5
59A
330
1E
100
AcDbEntity
  8
0
100
AcDbLine
 10
11.16370158082371
 20
1.296792576671341
 30
0.0
 11
11.16370158082371
 21
1.419814252155154
 31
0.0
  0
LINE
  5
59B
330
1E
100
AcDbEntity
  8
0
100
AcDbLine
 10
11.75710025080446
 20
0.6057002232181535
 30
0.0
 11
11.38079865520691
 21
0.6057002232181535
 31
0.0
  0
LINE
  5
5AB
330
1E
100
AcDbEntity
  8
0
100
AcDbLine
 10
11.38079865520691
 20
0.858980143331887
 30
0.0
 11
11.75710025080446
 21
0.858980143331887
 31
0.0
  0
LINE
  5
5AC
330
1E
100
AcDbEntity
  8
0
100
AcDbLine
 10
11.75710025080446
 20
1.854008400921556
 30
0.0
 11
11.38079865520691
 21
1.857626685494608
 31
0.0
  0
LINE
  5
5BC
330
1E
100
AcDbEntity
  8
0
100
AcDbLine
 10
11.38079865520691
 20
2.107288321035289
 30
0.0
 11
11.75710025080446
 21
2.110906605608343
 31
0.0
  0
LINE
  5
5BD
330
1E
100
AcDbEntity
  8
0
100
AcDbLine
 10
11.28672325630753
 20
0.5695173774876202
 30
0.0
 11
11.28672325630753
 21
0.5695173774876202
 31
0.0
  0
LINE
  5
5BE
330
1E
100
AcDbEntity
  8
0
100
AcDbLine
 10
11.31928781746501
 20
0.5405711009031935
 30
0.0
 11
11.31928781746501
 21
0.5224796780379261
 31
0.0
  0
LINE
  5
5BF
330
1E
100
AcDbEntity
  8
0
100
AcDbLine
 10
11.2577769797231
 20
0.815560728455247
 30
0.0
 11
11.2577769797231
 21
0.602081938645101
 31
0.0
  0
LINE
  5
5C0
330
1E
100
AcDbEntity
  8
0
100
AcDbLine
 10
11.28672325630753
 20
2.143471166765823
 30
0.0
 11
11.28672325630753
 21
2.143471166765823
 31
0.0
  0
LINE
  5
5C1
330
1E
100
AcDbEntity
  8
0
100
AcDbLine
 10
11.31928781746501
 20
2.194127150788569
 30
0.0
 11
11.31928781746501
 21
2.176035727923304
 31
0.0
  0
LINE
  5
5C2
330
1E
100
AcDbEntity
  8
0
100
AcDbLine
 10
11.2577769797231
 20
2.114524890181395
 30
0.0
 11
11.2577769797231
 21
1.901046100371248
 31
0.0
  0
LINE
  5
5C3
330
1E
100
AcDbEntity
  8
0
100
AcDbLine
 10
11.72453568964698
 20
1.007329810827074
 30
0.0
 11
11.44230949294882
 21
1.00371152625402
 31
0.0
  0
LINE
  5
5E7
330
1E
100
AcDbEntity
  8
0
100
AcDbLine
 10
11.72453568964698
 20
1.217190316064167
 30
0.0
 11
11.72453568964698
 21
1.499416512762327
 31
0.0
  0
LINE
  5
5E8
330
1E
100
AcDbEntity
  8
0
100
AcDbLine
 10
11.44230949294882
 20
1.712895302572475
 30
0.0
 11
11.72453568964698
 21
1.709277017999422
 31
0.0
  0
LINE
  5
60C
330
1E
100
AcDbEntity
  8
0
100
AcDbLine
 10
11.16370158082371
 20
1.419814252155154
 30
0.0
 11
11.13475530423929
 21
1.423432536728208
 31
0.0
  0
LINE
  5
60D
330
1E
100
AcDbEntity
  8
0
100
AcDbLine
 10
11.13475530423929
 20
1.293174292098288
 30
0.0
 11
11.16370158082371
 21
1.296792576671341
 31
0.0
  0
LINE
  5
60E
330
1E
100
AcDbEntity
  8
0
100
AcDbLine
 10
11.60513229873622
 20
1.434287390447367
 30
0.0
 11
11.16370158082371
 21
1.419814252155154
 31
0.0
  0
LINE
  5
60F
330
1E
100
AcDbEntity
  8
0
100
AcDbLine
 10
11.16370158082371
 20
1.296792576671341
 30
0.0
 11
11.60513229873622
 21
1.278701153806075
 31
0.0
  0
LINE
  5
640
330
1E
100
AcDbEntity
  8
0
100
AcDbLine
 10
10.78378170065312
 20
1.680330741414996
 30
0.0
 11
10.78739998522617
 21
1.655002749403622
 31
0.0
  0
LINE
  5
737
330
1E
100
AcDbEntity
  8
0
100
AcDbLine
 10
10.78739998522617
 20
0.4862968323073928
 30
0.0
 11
10.77292684693395
 21
0.4899151168804467
 31
0.0
  0
LINE
  5
738
330
1E
100
AcDbEntity
  8
0
100
AcDbLine
 10
10.77292684693395
 20
0.4899151168804467
 30
0.0
 11
10.75845370864174
 21
0.5007699705996061
 31
0.0
  0
LINE
  5
739
330
1E
100
AcDbEntity
  8
0
100
AcDbLine
 10
10.75845370864174
 20
0.5007699705996061
 30
0.0
 11
10.75483542406869
 21
0.5152431088918195
 31
0.0
  0
LINE
  5
73A
330
1E
100
AcDbEntity
  8
0
100
AcDbLine
 10
10.78739998522617
 20
0.4862968323073928
 30
0.0
 11
10.78739998522617
 21
0.4899151168804467
 31
0.0
  0
LINE
  5
73B
330
1E
100
AcDbEntity
  8
0
100
AcDbLine
 10
10.78739998522617
 20
0.4899151168804467
 30
0.0
 11
10.78739998522617
 21
0.5007699705996061
 31
0.0
  0
LINE
  5
73C
330
1E
100
AcDbEntity
  8
0
100
AcDbLine
 10
10.78739998522617
 20
0.5007699705996061
 30
0.0
 11
10.78739998522617
 21
0.5152431088918195
 31
0.0
  0
LINE
  5
73D
330
1E
100
AcDbEntity
  8
0
100
AcDbLine
 10
10.78739998522617
 20
0.5152431088918195
 30
0.0
 11
10.77292684693395
 21
0.5152431088918195
 31
0.0
  0
LINE
  5
73E
330
1E
100
AcDbEntity
  8
0
100
AcDbLine
 10
10.77292684693395
 20
0.5152431088918195
 30
0.0
 11
10.75845370864174
 21
0.5152431088918195
 31
0.0
  0
LINE
  5
73F
330
1E
100
AcDbEntity
  8
0
100
AcDbLine
 10
10.75845370864174
 20
0.5152431088918195
 30
0.0
 11
10.75483542406869
 21
0.5152431088918195
 31
0.0
  0
LINE
  5
740
330
1E
100
AcDbEntity
  8
0
100
AcDbLine
 10
11.28672325630753
 20
0.4899151168804467
 30
0.0
 11
11.28672325630753
 21
0.4971516860265536
 31
0.0
  0
LINE
  5
741
330
1E
100
AcDbEntity
  8
0
100
AcDbLine
 10
11.28672325630753
 20
0.4971516860265536
 30
0.0
 11
11.28672325630753
 21
0.5080065397457128
 31
0.0
  0
LINE
  5
742
330
1E
100
AcDbEntity
  8
0
100
AcDbLine
 10
11.28672325630753
 20
0.5080065397457128
 30
0.0
 11
11.28672325630753
 21
0.5224796780379261
 31
0.0
  0
LINE
  5
743
330
1E
100
AcDbEntity
  8
0
100
AcDbLine
 10
10.78739998522617
 20
0.8879264199163136
 30
0.0
 11
10.77292684693395
 21
0.8879264199163136
 31
0.0
  0
LINE
  5
744
330
1E
100
AcDbEntity
  8
0
100
AcDbLine
 10
10.77292684693395
 20
0.8879264199163136
 30
0.0
 11
10.75845370864174
 21
0.8879264199163136
 31
0.0
  0
LINE
  5
745
330
1E
100
AcDbEntity
  8
0
100
AcDbLine
 10
10.75845370864174
 20
0.8879264199163136
 30
0.0
 11
10.75483542406869
 21
0.8879264199163136
 31
0.0
  0
LINE
  5
746
330
1E
100
AcDbEntity
  8
0
100
AcDbLine
 10
11.31928781746501
 20
0.5224796780379261
 30
0.0
 11
11.31566953289196
 21
0.5224796780379261
 31
0.0
  0
LINE
  5
747
330
1E
100
AcDbEntity
  8
0
100
AcDbLine
 10
11.31566953289196
 20
0.5224796780379261
 30
0.0
 11
11.3048146791728
 21
0.5224796780379261
 31
0.0
  0
LINE
  5
748
330
1E
100
AcDbEntity
  8
0
100
AcDbLine
 10
11.3048146791728
 20
0.5224796780379261
 30
0.0
 11
11.28672325630753
 21
0.5224796780379261
 31
0.0
  0
LINE
  5
749
330
1E
100
AcDbEntity
  8
0
100
AcDbLine
 10
11.13475530423929
 20
1.260609730940807
 30
0.0
 11
11.13475530423929
 21
1.278701153806075
 31
0.0
  0
LINE
  5
74A
330
1E
100
AcDbEntity
  8
0
100
AcDbLine
 10
11.13475530423929
 20
1.278701153806075
 30
0.0
 11
11.13475530423929
 21
1.289556007525234
 31
0.0
  0
LINE
  5
74B
330
1E
100
AcDbEntity
  8
0
100
AcDbLine
 10
11.13475530423929
 20
1.289556007525234
 30
0.0
 11
11.13475530423929
 21
1.293174292098288
 31
0.0
  0
LINE
  5
74C
330
1E
100
AcDbEntity
  8
0
100
AcDbLine
 10
11.31928781746501
 20
0.5405711009031935
 30
0.0
 11
11.31566953289196
 21
0.5405711009031935
 31
0.0
  0
LINE
  5
74D
330
1E
100
AcDbEntity
  8
0
100
AcDbLine
 10
11.31566953289196
 20
0.5405711009031935
 30
0.0
 11
11.3048146791728
 21
0.5405711009031935
 31
0.0
  0
LINE
  5
74E
330
1E
100
AcDbEntity
  8
0
100
AcDbLine
 10
11.3048146791728
 20
0.5405711009031935
 30
0.0
 11
11.28672325630753
 21
0.5405711009031935
 31
0.0
  0
LINE
  5
74F
330
1E
100
AcDbEntity
  8
0
100
AcDbLine
 10
11.16370158082371
 20
1.264228015513861
 30
0.0
 11
11.16370158082371
 21
1.278701153806075
 31
0.0
  0
LINE
  5
750
330
1E
100
AcDbEntity
  8
0
100
AcDbLine
 10
11.16370158082371
 20
1.278701153806075
 30
0.0
 11
11.16370158082371
 21
1.289556007525234
 31
0.0
  0
LINE
  5
751
330
1E
100
AcDbEntity
  8
0
100
AcDbLine
 10
11.16370158082371
 20
1.289556007525234
 30
0.0
 11
11.16370158082371
 21
1.296792576671341
 31
0.0
  0
LINE
  5
752
330
1E
100
AcDbEntity
  8
0
100
AcDbLine
 10
11.28672325630753
 20
0.5695173774876202
 30
0.0
 11
11.28672325630753
 21
0.565899092914566
 31
0.0
  0
LINE
  5
753
330
1E
100
AcDbEntity
  8
0
100
AcDbLine
 10
11.28672325630753
 20
0.565899092914566
 30
0.0
 11
11.28672325630753
 21
0.555044239195407
 31
0.0
  0
LINE
  5
754
330
1E
100
AcDbEntity
  8
0
100
AcDbLine
 10
11.28672325630753
 20
0.555044239195407
 30
0.0
 11
11.28672325630753
 21
0.5405711009031935
 31
0.0
  0
LINE
  5
755
330
1E
100
AcDbEntity
  8
0
100
AcDbLine
 10
11.60513229873622
 20
1.249754877221648
 30
0.0
 11
11.60513229873622
 21
1.264228015513861
 31
0.0
  0
LINE
  5
756
330
1E
100
AcDbEntity
  8
0
100
AcDbLine
 10
11.60513229873622
 20
1.264228015513861
 30
0.0
 11
11.60513229873622
 21
1.275082869233021
 31
0.0
  0
LINE
  5
757
330
1E
100
AcDbEntity
  8
0
100
AcDbLine
 10
11.60513229873622
 20
1.275082869233021
 30
0.0
 11
11.60513229873622
 21
1.278701153806075
 31
0.0
  0
LINE
  5
758
330
1E
100
AcDbEntity
  8
0
100
AcDbLine
 10
11.28672325630753
 20
0.5695173774876202
 30
0.0
 11
11.28672325630753
 21
0.565899092914566
 31
0.0
  0
LINE
  5
759
330
1E
100
AcDbEntity
  8
0
100
AcDbLine
 10
11.28672325630753
 20
0.565899092914566
 30
0.0
 11
11.28672325630753
 21
0.555044239195407
 31
0.0
  0
LINE
  5
75A
330
1E
100
AcDbEntity
  8
0
100
AcDbLine
 10
11.28672325630753
 20
0.555044239195407
 30
0.0
 11
11.28672325630753
 21
0.5405711009031935
 31
0.0
  0
LINE
  5
75B
330
1E
100
AcDbEntity
  8
0
100
AcDbLine
 10
11.72453568964698
 20
1.123114917164781
 30
0.0
 11
11.74262711251225
 21
1.123114917164781
 31
0.0
  0
LINE
  5
75C
330
1E
100
AcDbEntity
  8
0
100
AcDbLine
 10
11.74262711251225
 20
1.123114917164781
 30
0.0
 11
11.75348196623141
 21
1.123114917164781
 31
0.0
  0
LINE
  5
75D
330
1E
100
AcDbEntity
  8
0
100
AcDbLine
 10
11.75348196623141
 20
1.123114917164781
 30
0.0
 11
11.75710025080446
 21
1.123114917164781
 31
0.0
  0
LINE
  5
75E
330
1E
100
AcDbEntity
  8
0
100
AcDbLine
 10
11.2577769797231
 20
0.602081938645101
 30
0.0
 11
11.25054041057699
 21
0.602081938645101
 31
0.0
  0
LINE
  5
75F
330
1E
100
AcDbEntity
  8
0
100
AcDbLine
 10
11.25054041057699
 20
0.602081938645101
 30
0.0
 11
11.23968555685783
 21
0.602081938645101
 31
0.0
  0
LINE
  5
760
330
1E
100
AcDbEntity
  8
0
100
AcDbLine
 10
11.23968555685783
 20
0.602081938645101
 30
0.0
 11
11.22521241856562
 21
0.602081938645101
 31
0.0
  0
LINE
  5
761
330
1E
100
AcDbEntity
  8
0
100
AcDbLine
 10
11.72453568964698
 20
1.039894371984553
 30
0.0
 11
11.74262711251225
 21
1.039894371984553
 31
0.0
  0
LINE
  5
762
330
1E
100
AcDbEntity
  8
0
100
AcDbLine
 10
11.74262711251225
 20
1.039894371984553
 30
0.0
 11
11.75348196623141
 21
1.039894371984553
 31
0.0
  0
LINE
  5
763
330
1E
100
AcDbEntity
  8
0
100
AcDbLine
 10
11.75348196623141
 20
1.039894371984553
 30
0.0
 11
11.75710025080446
 21
1.039894371984553
 31
0.0
  0
LINE
  5
764
330
1E
100
AcDbEntity
  8
0
100
AcDbLine
 10
11.2577769797231
 20
0.815560728455247
 30
0.0
 11
11.25054041057699
 21
0.815560728455247
 31
0.0
  0
LINE
  5
765
330
1E
100
AcDbEntity
  8
0
100
AcDbLine
 10
11.25054041057699
 20
0.815560728455247
 30
0.0
 11
11.23968555685783
 21
0.815560728455247
 31
0.0
  0
LINE
  5
766
330
1E
100
AcDbEntity
  8
0
100
AcDbLine
 10
11.23968555685783
 20
0.815560728455247
 30
0.0
 11
11.22521241856562
 21
0.815560728455247
 31
0.0
  0
LINE
  5
767
330
1E
100
AcDbEntity
  8
0
100
AcDbLine
 10
11.44230949294882
 20
1.00371152625402
 30
0.0
 11
11.44230949294882
 21
1.007329810827074
 31
0.0
  0
LINE
  5
768
330
1E
100
AcDbEntity
  8
0
100
AcDbLine
 10
11.44230949294882
 20
1.007329810827074
 30
0.0
 11
11.44230949294882
 21
1.018184664546233
 31
0.0
  0
LINE
  5
769
330
1E
100
AcDbEntity
  8
0
100
AcDbLine
 10
11.44230949294882
 20
1.018184664546233
 30
0.0
 11
11.43869120837577
 21
1.032657802838446
 31
0.0
  0
LINE
  5
76A
330
1E
100
AcDbEntity
  8
0
100
AcDbLine
 10
11.72453568964698
 20
1.039894371984553
 30
0.0
 11
11.72453568964698
 21
1.02542123369234
 31
0.0
  0
LINE
  5
76B
330
1E
100
AcDbEntity
  8
0
100
AcDbLine
 10
11.72453568964698
 20
1.02542123369234
 30
0.0
 11
11.72453568964698
 21
1.010948095400127
 31
0.0
  0
LINE
  5
76C
330
1E
100
AcDbEntity
  8
0
100
AcDbLine
 10
11.72453568964698
 20
1.010948095400127
 30
0.0
 11
11.72453568964698
 21
1.007329810827074
 31
0.0
  0
LINE
  5
76D
330
1E
100
AcDbEntity
  8
0
100
AcDbLine
 10
10.75483542406869
 20
2.201363719934676
 30
0.0
 11
10.75845370864174
 21
2.215836858226889
 31
0.0
  0
LINE
  5
76E
330
1E
100
AcDbEntity
  8
0
100
AcDbLine
 10
10.75845370864174
 20
2.215836858226889
 30
0.0
 11
10.77292684693395
 21
2.22669171194605
 31
0.0
  0
LINE
  5
76F
330
1E
100
AcDbEntity
  8
0
100
AcDbLine
 10
10.77292684693395
 20
2.22669171194605
 30
0.0
 11
10.78739998522617
 21
2.230309996519102
 31
0.0
  0
LINE
  5
770
330
1E
100
AcDbEntity
  8
0
100
AcDbLine
 10
10.75483542406869
 20
2.201363719934676
 30
0.0
 11
10.75845370864174
 21
2.201363719934676
 31
0.0
  0
LINE
  5
771
330
1E
100
AcDbEntity
  8
0
100
AcDbLine
 10
10.75845370864174
 20
2.201363719934676
 30
0.0
 11
10.77292684693395
 21
2.201363719934676
 31
0.0
  0
LINE
  5
772
330
1E
100
AcDbEntity
  8
0
100
AcDbLine
 10
10.77292684693395
 20
2.201363719934676
 30
0.0
 11
10.78739998522617
 21
2.201363719934676
 31
0.0
  0
LINE
  5
773
330
1E
100
AcDbEntity
  8
0
100
AcDbLine
 10
10.78739998522617
 20
2.201363719934676
 30
0.0
 11
10.78739998522617
 21
2.215836858226889
 31
0.0
  0
LINE
  5
774
330
1E
100
AcDbEntity
  8
0
100
AcDbLine
 10
10.78739998522617
 20
2.215836858226889
 30
0.0
 11
10.78739998522617
 21
2.22669171194605
 31
0.0
  0
LINE
  5
775
330
1E
100
AcDbEntity
  8
0
100
AcDbLine
 10
10.78739998522617
 20
2.22669171194605
 30
0.0
 11
10.78739998522617
 21
2.230309996519102
 31
0.0
  0
LINE
  5
776
330
1E
100
AcDbEntity
  8
0
100
AcDbLine
 10
10.75483542406869
 20
1.828680408910182
 30
0.0
 11
10.75845370864174
 21
1.828680408910182
 31
0.0
  0
LINE
  5
777
330
1E
100
AcDbEntity
  8
0
100
AcDbLine
 10
10.75845370864174
 20
1.828680408910182
 30
0.0
 11
10.77292684693395
 21
1.828680408910182
 31
0.0
  0
LINE
  5
778
330
1E
100
AcDbEntity
  8
0
100
AcDbLine
 10
10.77292684693395
 20
1.828680408910182
 30
0.0
 11
10.78739998522617
 21
1.828680408910182
 31
0.0
  0
LINE
  5
779
330
1E
100
AcDbEntity
  8
0
100
AcDbLine
 10
11.28672325630753
 20
2.194127150788569
 30
0.0
 11
11.28672325630753
 21
2.208600289080782
 31
0.0
  0
LINE
  5
77A
330
1E
100
AcDbEntity
  8
0
100
AcDbLine
 10
11.28672325630753
 20
2.208600289080782
 30
0.0
 11
11.28672325630753
 21
2.219455142799943
 31
0.0
  0
LINE
  5
77B
330
1E
100
AcDbEntity
  8
0
100
AcDbLine
 10
11.28672325630753
 20
2.219455142799943
 30
0.0
 11
11.28672325630753
 21
2.223073427372996
 31
0.0
  0
LINE
  5
77C
330
1E
100
AcDbEntity
  8
0
100
AcDbLine
 10
11.13475530423929
 20
1.423432536728208
 30
0.0
 11
11.13475530423929
 21
1.427050821301261
 31
0.0
  0
LINE
  5
77D
330
1E
100
AcDbEntity
  8
0
100
AcDbLine
 10
11.13475530423929
 20
1.427050821301261
 30
0.0
 11
11.13475530423929
 21
1.437905675020422
 31
0.0
  0
LINE
  5
77E
330
1E
100
AcDbEntity
  8
0
100
AcDbLine
 10
11.13475530423929
 20
1.437905675020422
 30
0.0
 11
11.13475530423929
 21
1.452378813312635
 31
0.0
  0
LINE
  5
77F
330
1E
100
AcDbEntity
  8
0
100
AcDbLine
 10
11.28672325630753
 20
2.194127150788569
 30
0.0
 11
11.3048146791728
 21
2.194127150788569
 31
0.0
  0
LINE
  5
780
330
1E
100
AcDbEntity
  8
0
100
AcDbLine
 10
11.3048146791728
 20
2.194127150788569
 30
0.0
 11
11.31566953289196
 21
2.194127150788569
 31
0.0
  0
LINE
  5
781
330
1E
100
AcDbEntity
  8
0
100
AcDbLine
 10
11.31566953289196
 20
2.194127150788569
 30
0.0
 11
11.31928781746501
 21
2.194127150788569
 31
0.0
  0
LINE
  5
782
330
1E
100
AcDbEntity
  8
0
100
AcDbLine
 10
11.16370158082371
 20
1.419814252155154
 30
0.0
 11
11.16370158082371
 21
1.423432536728208
 31
0.0
  0
LINE
  5
783
330
1E
100
AcDbEntity
  8
0
100
AcDbLine
 10
11.16370158082371
 20
1.423432536728208
 30
0.0
 11
11.16370158082371
 21
1.437905675020422
 31
0.0
  0
LINE
  5
784
330
1E
100
AcDbEntity
  8
0
100
AcDbLine
 10
11.16370158082371
 20
1.437905675020422
 30
0.0
 11
11.16370158082371
 21
1.452378813312635
 31
0.0
  0
LINE
  5
785
330
1E
100
AcDbEntity
  8
0
100
AcDbLine
 10
11.28672325630753
 20
2.176035727923304
 30
0.0
 11
11.3048146791728
 21
2.176035727923304
 31
0.0
  0
LINE
  5
786
330
1E
100
AcDbEntity
  8
0
100
AcDbLine
 10
11.3048146791728
 20
2.176035727923304
 30
0.0
 11
11.31566953289196
 21
2.176035727923304
 31
0.0
  0
LINE
  5
787
330
1E
100
AcDbEntity
  8
0
100
AcDbLine
 10
11.31566953289196
 20
2.176035727923304
 30
0.0
 11
11.31928781746501
 21
2.176035727923304
 31
0.0
  0
LINE
  5
788
330
1E
100
AcDbEntity
  8
0
100
AcDbLine
 10
11.60513229873622
 20
1.434287390447367
 30
0.0
 11
11.60513229873622
 21
1.441523959593474
 31
0.0
  0
LINE
  5
789
330
1E
100
AcDbEntity
  8
0
100
AcDbLine
 10
11.60513229873622
 20
1.441523959593474
 30
0.0
 11
11.60513229873622
 21
1.452378813312635
 31
0.0
  0
LINE
  5
78A
330
1E
100
AcDbEntity
  8
0
100
AcDbLine
 10
11.60513229873622
 20
1.452378813312635
 30
0.0
 11
11.60513229873622
 21
1.466851951604848
 31
0.0
  0
LINE
  5
78B
330
1E
100
AcDbEntity
  8
0
100
AcDbLine
 10
11.28672325630753
 20
2.176035727923304
 30
0.0
 11
11.28672325630753
 21
2.16156258963109
 31
0.0
  0
LINE
  5
78C
330
1E
100
AcDbEntity
  8
0
100
AcDbLine
 10
11.28672325630753
 20
2.16156258963109
 30
0.0
 11
11.28672325630753
 21
2.150707735911929
 31
0.0
  0
LINE
  5
78D
330
1E
100
AcDbEntity
  8
0
100
AcDbLine
 10
11.28672325630753
 20
2.150707735911929
 30
0.0
 11
11.28672325630753
 21
2.143471166765823
 31
0.0
  0
LINE
  5
78E
330
1E
100
AcDbEntity
  8
0
100
AcDbLine
 10
11.75710025080446
 20
1.593491911661716
 30
0.0
 11
11.75348196623141
 21
1.593491911661716
 31
0.0
  0
LINE
  5
78F
330
1E
100
AcDbEntity
  8
0
100
AcDbLine
 10
11.75348196623141
 20
1.593491911661716
 30
0.0
 11
11.74262711251225
 21
1.593491911661716
 31
0.0
  0
LINE
  5
790
330
1E
100
AcDbEntity
  8
0
100
AcDbLine
 10
11.74262711251225
 20
1.593491911661716
 30
0.0
 11
11.72453568964698
 21
1.593491911661716
 31
0.0
  0
LINE
  5
791
330
1E
100
AcDbEntity
  8
0
100
AcDbLine
 10
11.28672325630753
 20
2.176035727923304
 30
0.0
 11
11.28672325630753
 21
2.16156258963109
 31
0.0
  0
LINE
  5
792
330
1E
100
AcDbEntity
  8
0
100
AcDbLine
 10
11.28672325630753
 20
2.16156258963109
 30
0.0
 11
11.28672325630753
 21
2.150707735911929
 31
0.0
  0
LINE
  5
793
330
1E
100
AcDbEntity
  8
0
100
AcDbLine
 10
11.28672325630753
 20
2.150707735911929
 30
0.0
 11
11.28672325630753
 21
2.143471166765823
 31
0.0
  0
LINE
  5
794
330
1E
100
AcDbEntity
  8
0
100
AcDbLine
 10
11.75710025080446
 20
1.676712456841942
 30
0.0
 11
11.75348196623141
 21
1.676712456841942
 31
0.0
  0
LINE
  5
795
330
1E
100
AcDbEntity
  8
0
100
AcDbLine
 10
11.75348196623141
 20
1.676712456841942
 30
0.0
 11
11.74262711251225
 21
1.676712456841942
 31
0.0
  0
LINE
  5
796
330
1E
100
AcDbEntity
  8
0
100
AcDbLine
 10
11.74262711251225
 20
1.676712456841942
 30
0.0
 11
11.72453568964698
 21
1.676712456841942
 31
0.0
  0
LINE
  5
797
330
1E
100
AcDbEntity
  8
0
100
AcDbLine
 10
11.22521241856562
 20
2.114524890181395
 30
0.0
 11
11.23968555685783
 21
2.114524890181395
 31
0.0
  0
LINE
  5
798
330
1E
100
AcDbEntity
  8
0
100
AcDbLine
 10
11.23968555685783
 20
2.114524890181395
 30
0.0
 11
11.25054041057699
 21
2.114524890181395
 31
0.0
  0
LINE
  5
799
330
1E
100
AcDbEntity
  8
0
100
AcDbLine
 10
11.25054041057699
 20
2.114524890181395
 30
0.0
 11
11.2577769797231
 21
2.114524890181395
 31
0.0
  0
LINE
  5
79A
330
1E
100
AcDbEntity
  8
0
100
AcDbLine
 10
11.72453568964698
 20
1.709277017999422
 30
0.0
 11
11.72453568964698
 21
1.702040448853316
 31
0.0
  0
LINE
  5
79B
330
1E
100
AcDbEntity
  8
0
100
AcDbLine
 10
11.72453568964698
 20
1.702040448853316
 30
0.0
 11
11.72453568964698
 21
1.691185595134155
 31
0.0
  0
LINE
  5
79C
330
1E
100
AcDbEntity
  8
0
100
AcDbLine
 10
11.72453568964698
 20
1.691185595134155
 30
0.0
 11
11.72453568964698
 21
1.676712456841942
 31
0.0
  0
LINE
  5
79D
330
1E
100
AcDbEntity
  8
0
100
AcDbLine
 10
11.44230949294882
 20
1.712895302572475
 30
0.0
 11
11.44230949294882
 21
1.709277017999422
 31
0.0
  0
LINE
  5
79E
330
1E
100
AcDbEntity
  8
0
100
AcDbLine
 10
11.44230949294882
 20
1.709277017999422
 30
0.0
 11
11.44230949294882
 21
1.698422164280261
 31
0.0
  0
LINE
  5
79F
330
1E
100
AcDbEntity
  8
0
100
AcDbLine
 10
11.44230949294882
 20
1.698422164280261
 30
0.0
 11
11.43869120837577
 21
1.680330741414996
 31
0.0
  0
LINE
  5
7A0
330
1E
100
AcDbEntity
  8
0
100
AcDbLine
 10
11.22521241856562
 20
1.901046100371248
 30
0.0
 11
11.23968555685783
 21
1.901046100371248
 31
0.0
  0
LINE
  5
7A1
330
1E
100
AcDbEntity
  8
0
100
AcDbLine
 10
11.23968555685783
 20
1.901046100371248
 30
0.0
 11
11.25054041057699
 21
1.901046100371248
 31
0.0
  0
LINE
  5
7A2
330
1E
100
AcDbEntity
  8
0
100
AcDbLine
 10
11.25054041057699
 20
1.901046100371248
 30
0.0
 11
11.2577769797231
 21
1.901046100371248
 31
0.0
  0
LINE
  5
7A3
330
1E
100
AcDbEntity
  8
0
100
AcDbLine
 10
10.75483542406869
 20
1.655002749403622
 30
0.0
 11
10.75845370864174
 21
1.655002749403622
 31
0.0
  0
LINE
  5
7A4
330
1E
100
AcDbEntity
  8
0
100
AcDbLine
 10
10.75845370864174
 20
1.655002749403622
 30
0.0
 11
10.77292684693395
 21
1.655002749403622
 31
0.0
  0
LINE
  5
7A5
330
1E
100
AcDbEntity
  8
0
100
AcDbLine
 10
10.77292684693395
 20
1.655002749403622
 30
0.0
 11
10.78739998522617
 21
1.655002749403622
 31
0.0
  0
LINE
  5
7A6
330
1E
100
AcDbEntity
  8
0
100
AcDbLine
 10
10.75483542406869
 20
1.061604079422875
 30
0.0
 11
10.75845370864174
 21
1.061604079422875
 31
0.0
  0
LINE
  5
7A7
330
1E
100
AcDbEntity
  8
0
100
AcDbLine
 10
10.75845370864174
 20
1.061604079422875
 30
0.0
 11
10.77292684693395
 21
1.061604079422875
 31
0.0
  0
LINE
  5
7A8
330
1E
100
AcDbEntity
  8
0
100
AcDbLine
 10
10.77292684693395
 20
1.061604079422875
 30
0.0
 11
10.78739998522617
 21
1.061604079422875
 31
0.0
  0
LINE
  5
7A9
330
1E
100
AcDbEntity
  8
0
100
AcDbLine
 10
11.75710025080446
 20
1.206335462345008
 30
0.0
 11
11.74986368165836
 21
1.206335462345008
 31
0.0
  0
LINE
  5
7AA
330
1E
100
AcDbEntity
  8
0
100
AcDbLine
 10
11.74986368165836
 20
1.206335462345008
 30
0.0
 11
11.73177225879309
 21
1.206335462345008
 31
0.0
  0
LINE
  5
7AB
330
1E
100
AcDbEntity
  8
0
100
AcDbLine
 10
11.75710025080446
 20
1.510271366481488
 30
0.0
 11
11.74986368165836
 21
1.510271366481488
 31
0.0
  0
LINE
  5
7AC
330
1E
100
AcDbEntity
  8
0
100
AcDbLine
 10
11.74986368165836
 20
1.510271366481488
 30
0.0
 11
11.73177225879309
 21
1.510271366481488
 31
0.0
  0
LINE
  5
7AD
330
1E
100
AcDbEntity
  8
0
100
AcDbLine
 10
10.78739998522617
 20
1.061604079422875
 30
0.0
 11
10.78378170065312
 21
1.032657802838446
 31
0.0
  0
LINE
  5
7AE
330
1E
100
AcDbEntity
  8
0
100
AcDbLine
 10
10.78378170065312
 20
1.032657802838446
 30
0.0
 11
10.78378170065312
 21
1.02542123369234
 31
0.0
  0
LINE
  5
7AF
330
1E
100
AcDbEntity
  8
0
100
AcDbLine
 10
11.75710025080446
 20
1.593491911661716
 30
0.0
 11
11.75348196623141
 21
1.557309065931182
 31
0.0
  0
LINE
  5
7B0
330
1E
100
AcDbEntity
  8
0
100
AcDbLine
 10
11.75348196623141
 20
1.557309065931182
 30
0.0
 11
11.74262711251225
 21
1.524744504773702
 31
0.0
  0
LINE
  5
7B1
330
1E
100
AcDbEntity
  8
0
100
AcDbLine
 10
11.74262711251225
 20
1.524744504773702
 30
0.0
 11
11.72453568964698
 21
1.495798228189275
 31
0.0
  0
LINE
  5
7B2
330
1E
100
AcDbEntity
  8
0
100
AcDbLine
 10
11.72453568964698
 20
1.495798228189275
 30
0.0
 11
11.69920769763561
 21
1.470470236177901
 31
0.0
  0
LINE
  5
7B3
330
1E
100
AcDbEntity
  8
0
100
AcDbLine
 10
11.69920769763561
 20
1.470470236177901
 30
0.0
 11
11.67026142105118
 21
1.452378813312635
 31
0.0
  0
LINE
  5
7B4
330
1E
100
AcDbEntity
  8
0
100
AcDbLine
 10
11.67026142105118
 20
1.452378813312635
 30
0.0
 11
11.64131514446676
 21
1.441523959593474
 31
0.0
  0
LINE
  5
7B5
330
1E
100
AcDbEntity
  8
0
100
AcDbLine
 10
11.64131514446676
 20
1.441523959593474
 30
0.0
 11
11.60513229873622
 21
1.434287390447367
 31
0.0
  0
LINE
  5
7B6
330
1E
100
AcDbEntity
  8
0
100
AcDbLine
 10
11.60513229873622
 20
1.278701153806075
 30
0.0
 11
11.64131514446676
 21
1.275082869233021
 31
0.0
  0
LINE
  5
7B7
330
1E
100
AcDbEntity
  8
0
100
AcDbLine
 10
11.64131514446676
 20
1.275082869233021
 30
0.0
 11
11.67026142105118
 21
1.264228015513861
 31
0.0
  0
LINE
  5
7B8
330
1E
100
AcDbEntity
  8
0
100
AcDbLine
 10
11.67026142105118
 20
1.264228015513861
 30
0.0
 11
11.69920769763561
 21
1.242518308075541
 31
0.0
  0
LINE
  5
7B9
330
1E
100
AcDbEntity
  8
0
100
AcDbLine
 10
11.69920769763561
 20
1.242518308075541
 30
0.0
 11
11.72453568964698
 21
1.220808600637221
 31
0.0
  0
LINE
  5
7BA
330
1E
100
AcDbEntity
  8
0
100
AcDbLine
 10
11.72453568964698
 20
1.220808600637221
 30
0.0
 11
11.74262711251225
 21
1.191862324052795
 31
0.0
  0
LINE
  5
7BB
330
1E
100
AcDbEntity
  8
0
100
AcDbLine
 10
11.74262711251225
 20
1.191862324052795
 30
0.0
 11
11.75348196623141
 21
1.159297762895314
 31
0.0
  0
LINE
  5
7BC
330
1E
100
AcDbEntity
  8
0
100
AcDbLine
 10
11.75348196623141
 20
1.159297762895314
 30
0.0
 11
11.75710025080446
 21
1.123114917164781
 31
0.0
  0
LINE
  5
7BD
330
1E
100
AcDbEntity
  8
0
100
AcDbLine
 10
11.13475530423929
 20
1.423432536728208
 30
0.0
 11
11.08048103564349
 21
1.430669105874315
 31
0.0
  0
LINE
  5
7BE
330
1E
100
AcDbEntity
  8
0
100
AcDbLine
 10
11.08048103564349
 20
1.430669105874315
 30
0.0
 11
11.02620676704769
 21
1.445142244166528
 31
0.0
  0
LINE
  5
7BF
330
1E
100
AcDbEntity
  8
0
100
AcDbLine
 10
11.02620676704769
 20
1.445142244166528
 30
0.0
 11
10.97555078302494
 21
1.466851951604848
 31
0.0
  0
LINE
  5
7C0
330
1E
100
AcDbEntity
  8
0
100
AcDbLine
 10
10.97555078302494
 20
1.466851951604848
 30
0.0
 11
10.92851308357525
 21
1.495798228189275
 31
0.0
  0
LINE
  5
7C1
330
1E
100
AcDbEntity
  8
0
100
AcDbLine
 10
10.92851308357525
 20
1.495798228189275
 30
0.0
 11
10.88509366869861
 21
1.531981073919808
 31
0.0
  0
LINE
  5
7C2
330
1E
100
AcDbEntity
  8
0
100
AcDbLine
 10
10.88509366869861
 20
1.531981073919808
 30
0.0
 11
10.84529253839502
 21
1.571782204223396
 31
0.0
  0
LINE
  5
7C3
330
1E
100
AcDbEntity
  8
0
100
AcDbLine
 10
10.84529253839502
 20
1.571782204223396
 30
0.0
 11
10.81634626181059
 21
1.618819903673088
 31
0.0
  0
LINE
  5
7C4
330
1E
100
AcDbEntity
  8
0
100
AcDbLine
 10
10.81634626181059
 20
1.618819903673088
 30
0.0
 11
10.79101826979922
 21
1.665857603122782
 31
0.0
  0
LINE
  5
7C5
330
1E
100
AcDbEntity
  8
0
100
AcDbLine
 10
10.79101826979922
 20
1.665857603122782
 30
0.0
 11
10.7693085623609
 21
1.720131871718582
 31
0.0
  0
LINE
  5
7C6
330
1E
100
AcDbEntity
  8
0
100
AcDbLine
 10
10.7693085623609
 20
1.720131871718582
 30
0.0
 11
10.75845370864174
 21
1.774406140314382
 31
0.0
  0
LINE
  5
7C7
330
1E
100
AcDbEntity
  8
0
100
AcDbLine
 10
10.75845370864174
 20
1.774406140314382
 30
0.0
 11
10.75483542406869
 21
1.828680408910182
 31
0.0
  0
LINE
  5
7C8
330
1E
100
AcDbEntity
  8
0
100
AcDbLine
 10
10.75483542406869
 20
0.8879264199163136
 30
0.0
 11
10.75845370864174
 21
0.9422006885121144
 31
0.0
  0
LINE
  5
7C9
330
1E
100
AcDbEntity
  8
0
100
AcDbLine
 10
10.75845370864174
 20
0.9422006885121144
 30
0.0
 11
10.7693085623609
 21
0.9964749571079137
 31
0.0
  0
LINE
  5
7CA
330
1E
100
AcDbEntity
  8
0
100
AcDbLine
 10
10.7693085623609
 20
0.9964749571079137
 30
0.0
 11
10.79101826979922
 21
1.050749225703714
 31
0.0
  0
LINE
  5
7CB
330
1E
100
AcDbEntity
  8
0
100
AcDbLine
 10
10.79101826979922
 20
1.050749225703714
 30
0.0
 11
10.81634626181059
 21
1.097786925153408
 31
0.0
  0
LINE
  5
7CC
330
1E
100
AcDbEntity
  8
0
100
AcDbLine
 10
10.81634626181059
 20
1.097786925153408
 30
0.0
 11
10.84529253839502
 21
1.144824624603101
 31
0.0
  0
LINE
  5
7CD
330
1E
100
AcDbEntity
  8
0
100
AcDbLine
 10
10.84529253839502
 20
1.144824624603101
 30
0.0
 11
10.88509366869861
 21
1.184625754906688
 31
0.0
  0
LINE
  5
7CE
330
1E
100
AcDbEntity
  8
0
100
AcDbLine
 10
10.88509366869861
 20
1.184625754906688
 30
0.0
 11
10.92851308357525
 21
1.220808600637221
 31
0.0
  0
LINE
  5
7CF
330
1E
100
AcDbEntity
  8
0
100
AcDbLine
 10
10.92851308357525
 20
1.220808600637221
 30
0.0
 11
10.97555078302494
 21
1.249754877221648
 31
0.0
  0
LINE
  5
7D0
330
1E
100
AcDbEntity
  8
0
100
AcDbLine
 10
10.97555078302494
 20
1.249754877221648
 30
0.0
 11
11.02620676704769
 21
1.271464584659968
 31
0.0
  0
LINE
  5
7D1
330
1E
100
AcDbEntity
  8
0
100
AcDbLine
 10
11.02620676704769
 20
1.271464584659968
 30
0.0
 11
11.08048103564349
 21
1.285937722952181
 31
0.0
  0
LINE
  5
7D2
330
1E
100
AcDbEntity
  8
0
100
AcDbLine
 10
11.08048103564349
 20
1.285937722952181
 30
0.0
 11
11.13475530423929
 21
1.293174292098288
 31
0.0
  0
LINE
  5
7D3
330
1E
100
AcDbEntity
  8
0
100
AcDbLine
 10
11.2577769797231
 20
1.901046100371248
 30
0.0
 11
11.26139526429616
 21
1.864863254640715
 31
0.0
  0
LINE
  5
7D4
330
1E
100
AcDbEntity
  8
0
100
AcDbLine
 10
11.26139526429616
 20
1.864863254640715
 30
0.0
 11
11.26863183344226
 21
1.828680408910182
 31
0.0
  0
LINE
  5
7D5
330
1E
100
AcDbEntity
  8
0
100
AcDbLine
 10
11.26863183344226
 20
1.828680408910182
 30
0.0
 11
11.28672325630753
 21
1.796115847752702
 31
0.0
  0
LINE
  5
7D6
330
1E
100
AcDbEntity
  8
0
100
AcDbLine
 10
11.28672325630753
 20
1.796115847752702
 30
0.0
 11
11.30843296374585
 21
1.770787855741328
 31
0.0
  0
LINE
  5
7D7
330
1E
100
AcDbEntity
  8
0
100
AcDbLine
 10
11.30843296374585
 20
1.770787855741328
 30
0.0
 11
11.33737924033027
 21
1.745459863729956
 31
0.0
  0
LINE
  5
7D8
330
1E
100
AcDbEntity
  8
0
100
AcDbLine
 10
11.33737924033027
 20
1.745459863729956
 30
0.0
 11
11.36994380148776
 21
1.727368440864688
 31
0.0
  0
LINE
  5
7D9
330
1E
100
AcDbEntity
  8
0
100
AcDbLine
 10
11.36994380148776
 20
1.727368440864688
 30
0.0
 11
11.40612664721829
 21
1.716513587145529
 31
0.0
  0
LINE
  5
7DA
330
1E
100
AcDbEntity
  8
0
100
AcDbLine
 10
11.40612664721829
 20
1.716513587145529
 30
0.0
 11
11.44230949294882
 21
1.712895302572475
 31
0.0
  0
LINE
  5
7DB
330
1E
100
AcDbEntity
  8
0
100
AcDbLine
 10
11.28672325630753
 20
2.143471166765823
 30
0.0
 11
11.27225011801532
 21
2.13985288219277
 31
0.0
  0
LINE
  5
7DC
330
1E
100
AcDbEntity
  8
0
100
AcDbLine
 10
11.27225011801532
 20
2.13985288219277
 30
0.0
 11
11.26139526429616
 21
2.128998028473609
 31
0.0
  0
LINE
  5
7DD
330
1E
100
AcDbEntity
  8
0
100
AcDbLine
 10
11.26139526429616
 20
2.128998028473609
 30
0.0
 11
11.2577769797231
 21
2.114524890181395
 31
0.0
  0
LINE
  5
7DE
330
1E
100
AcDbEntity
  8
0
100
AcDbLine
 10
11.72453568964698
 20
1.709277017999422
 30
0.0
 11
11.74262711251225
 21
1.702040448853316
 31
0.0
  0
LINE
  5
7DF
330
1E
100
AcDbEntity
  8
0
100
AcDbLine
 10
11.74262711251225
 20
1.702040448853316
 30
0.0
 11
11.75348196623141
 21
1.691185595134155
 31
0.0
  0
LINE
  5
7E0
330
1E
100
AcDbEntity
  8
0
100
AcDbLine
 10
11.75348196623141
 20
1.691185595134155
 30
0.0
 11
11.75710025080446
 21
1.676712456841942
 31
0.0
  0
LINE
  5
7E1
330
1E
100
AcDbEntity
  8
0
100
AcDbLine
 10
11.28672325630753
 20
2.223073427372996
 30
0.0
 11
11.3048146791728
 21
2.219455142799943
 31
0.0
  0
LINE
  5
7E2
330
1E
100
AcDbEntity
  8
0
100
AcDbLine
 10
11.3048146791728
 20
2.219455142799943
 30
0.0
 11
11.31566953289196
 21
2.208600289080782
 31
0.0
  0
LINE
  5
7E3
330
1E
100
AcDbEntity
  8
0
100
AcDbLine
 10
11.31566953289196
 20
2.208600289080782
 30
0.0
 11
11.31928781746501
 21
2.194127150788569
 31
0.0
  0
LINE
  5
7E4
330
1E
100
AcDbEntity
  8
0
100
AcDbLine
 10
11.31928781746501
 20
2.176035727923304
 30
0.0
 11
11.31566953289196
 21
2.16156258963109
 31
0.0
  0
LINE
  5
7E5
330
1E
100
AcDbEntity
  8
0
100
AcDbLine
 10
11.31566953289196
 20
2.16156258963109
 30
0.0
 11
11.3048146791728
 21
2.150707735911929
 31
0.0
  0
LINE
  5
7E6
330
1E
100
AcDbEntity
  8
0
100
AcDbLine
 10
11.3048146791728
 20
2.150707735911929
 30
0.0
 11
11.28672325630753
 21
2.143471166765823
 31
0.0
  0
LINE
  5
7E7
330
1E
100
AcDbEntity
  8
0
100
AcDbLine
 10
11.2577769797231
 20
0.602081938645101
 30
0.0
 11
11.26139526429616
 21
0.5876088003528861
 31
0.0
  0
LINE
  5
7E8
330
1E
100
AcDbEntity
  8
0
100
AcDbLine
 10
11.26139526429616
 20
0.5876088003528861
 30
0.0
 11
11.27225011801532
 21
0.576753946633727
 31
0.0
  0
LINE
  5
7E9
330
1E
100
AcDbEntity
  8
0
100
AcDbLine
 10
11.27225011801532
 20
0.576753946633727
 30
0.0
 11
11.28672325630753
 21
0.5695173774876202
 31
0.0
  0
LINE
  5
7EA
330
1E
100
AcDbEntity
  8
0
100
AcDbLine
 10
11.28672325630753
 20
0.5695173774876202
 30
0.0
 11
11.3048146791728
 21
0.565899092914566
 31
0.0
  0
LINE
  5
7EB
330
1E
100
AcDbEntity
  8
0
100
AcDbLine
 10
11.3048146791728
 20
0.565899092914566
 30
0.0
 11
11.31566953289196
 21
0.555044239195407
 31
0.0
  0
LINE
  5
7EC
330
1E
100
AcDbEntity
  8
0
100
AcDbLine
 10
11.31566953289196
 20
0.555044239195407
 30
0.0
 11
11.31928781746501
 21
0.5405711009031935
 31
0.0
  0
LINE
  5
7ED
330
1E
100
AcDbEntity
  8
0
100
AcDbLine
 10
11.31928781746501
 20
0.5224796780379261
 30
0.0
 11
11.31566953289196
 21
0.5080065397457128
 31
0.0
  0
LINE
  5
7EE
330
1E
100
AcDbEntity
  8
0
100
AcDbLine
 10
11.31566953289196
 20
0.5080065397457128
 30
0.0
 11
11.3048146791728
 21
0.4971516860265536
 31
0.0
  0
LINE
  5
7EF
330
1E
100
AcDbEntity
  8
0
100
AcDbLine
 10
11.3048146791728
 20
0.4971516860265536
 30
0.0
 11
11.28672325630753
 21
0.4899151168804467
 31
0.0
  0
LINE
  5
7F0
330
1E
100
AcDbEntity
  8
0
100
AcDbLine
 10
11.75710025080446
 20
1.039894371984553
 30
0.0
 11
11.75348196623141
 21
1.02542123369234
 31
0.0
  0
LINE
  5
7F1
330
1E
100
AcDbEntity
  8
0
100
AcDbLine
 10
11.75348196623141
 20
1.02542123369234
 30
0.0
 11
11.74262711251225
 21
1.010948095400127
 31
0.0
  0
LINE
  5
7F2
330
1E
100
AcDbEntity
  8
0
100
AcDbLine
 10
11.74262711251225
 20
1.010948095400127
 30
0.0
 11
11.72453568964698
 21
1.007329810827074
 31
0.0
  0
LINE
  5
7F3
330
1E
100
AcDbEntity
  8
0
100
AcDbLine
 10
11.44230949294882
 20
1.00371152625402
 30
0.0
 11
11.40612664721829
 21
1.000093241680967
 31
0.0
  0
LINE
  5
7F4
330
1E
100
AcDbEntity
  8
0
100
AcDbLine
 10
11.40612664721829
 20
1.000093241680967
 30
0.0
 11
11.36994380148776
 21
0.9892383879618069
 31
0.0
  0
LINE
  5
7F5
330
1E
100
AcDbEntity
  8
0
100
AcDbLine
 10
11.36994380148776
 20
0.9892383879618069
 30
0.0
 11
11.33737924033027
 21
0.9711469650965412
 31
0.0
  0
LINE
  5
7F6
330
1E
100
AcDbEntity
  8
0
100
AcDbLine
 10
11.33737924033027
 20
0.9711469650965412
 30
0.0
 11
11.30843296374585
 21
0.9458189730851669
 31
0.0
  0
LINE
  5
7F7
330
1E
100
AcDbEntity
  8
0
100
AcDbLine
 10
11.30843296374585
 20
0.9458189730851669
 30
0.0
 11
11.28672325630753
 21
0.9204909810737945
 31
0.0
  0
LINE
  5
7F8
330
1E
100
AcDbEntity
  8
0
100
AcDbLine
 10
11.28672325630753
 20
0.9204909810737945
 30
0.0
 11
11.26863183344226
 21
0.8879264199163136
 31
0.0
  0
LINE
  5
7F9
330
1E
100
AcDbEntity
  8
0
100
AcDbLine
 10
11.26863183344226
 20
0.8879264199163136
 30
0.0
 11
11.26139526429616
 21
0.8517435741857802
 31
0.0
  0
LINE
  5
7FA
330
1E
100
AcDbEntity
  8
0
100
AcDbLine
 10
11.26139526429616
 20
0.8517435741857802
 30
0.0
 11
11.2577769797231
 21
0.815560728455247
 31
0.0
  0
LINE
  5
7FB
330
1E
100
AcDbEntity
  8
0
100
AcDbLine
 10
11.38079865520691
 20
1.857626685494608
 30
0.0
 11
11.34823409404944
 21
1.861244970067662
 31
0.0
  0
LINE
  5
7FC
330
1E
100
AcDbEntity
  8
0
100
AcDbLine
 10
11.34823409404944
 20
1.861244970067662
 30
0.0
 11
11.31928781746501
 21
1.875718108359876
 31
0.0
  0
LINE
  5
7FD
330
1E
100
AcDbEntity
  8
0
100
AcDbLine
 10
11.31928781746501
 20
1.875718108359876
 30
0.0
 11
11.29395982545363
 21
1.893809531225141
 31
0.0
  0
LINE
  5
7FE
330
1E
100
AcDbEntity
  8
0
100
AcDbLine
 10
11.29395982545363
 20
1.893809531225141
 30
0.0
 11
11.27225011801532
 21
1.922755807809568
 31
0.0
  0
LINE
  5
7FF
330
1E
100
AcDbEntity
  8
0
100
AcDbLine
 10
11.27225011801532
 20
1.922755807809568
 30
0.0
 11
11.26139526429616
 21
1.951702084393995
 31
0.0
  0
LINE
  5
800
330
1E
100
AcDbEntity
  8
0
100
AcDbLine
 10
11.26139526429616
 20
1.951702084393995
 30
0.0
 11
11.2577769797231
 21
1.984266645551476
 31
0.0
  0
LINE
  5
801
330
1E
100
AcDbEntity
  8
0
100
AcDbLine
 10
11.2577769797231
 20
1.984266645551476
 30
0.0
 11
11.26139526429616
 21
2.016831206708956
 31
0.0
  0
LINE
  5
802
330
1E
100
AcDbEntity
  8
0
100
AcDbLine
 10
11.26139526429616
 20
2.016831206708956
 30
0.0
 11
11.27225011801532
 21
2.045777483293384
 31
0.0
  0
LINE
  5
803
330
1E
100
AcDbEntity
  8
0
100
AcDbLine
 10
11.27225011801532
 20
2.045777483293384
 30
0.0
 11
11.29395982545363
 21
2.071105475304756
 31
0.0
  0
LINE
  5
804
330
1E
100
AcDbEntity
  8
0
100
AcDbLine
 10
11.29395982545363
 20
2.071105475304756
 30
0.0
 11
11.31928781746501
 21
2.092815182743076
 31
0.0
  0
LINE
  5
805
330
1E
100
AcDbEntity
  8
0
100
AcDbLine
 10
11.31928781746501
 20
2.092815182743076
 30
0.0
 11
11.34823409404944
 21
2.103670036462237
 31
0.0
  0
LINE
  5
806
330
1E
100
AcDbEntity
  8
0
100
AcDbLine
 10
11.34823409404944
 20
2.103670036462237
 30
0.0
 11
11.38079865520691
 21
2.107288321035289
 31
0.0
  0
LINE
  5
807
330
1E
100
AcDbEntity
  8
0
100
AcDbLine
 10
11.38079865520691
 20
0.6057002232181535
 30
0.0
 11
11.34823409404944
 21
0.6129367923642601
 31
0.0
  0
LINE
  5
808
330
1E
100
AcDbEntity
  8
0
100
AcDbLine
 10
11.34823409404944
 20
0.6129367923642601
 30
0.0
 11
11.31928781746501
 21
0.6237916460834211
 31
0.0
  0
LINE
  5
809
330
1E
100
AcDbEntity
  8
0
100
AcDbLine
 10
11.31928781746501
 20
0.6237916460834211
 30
0.0
 11
11.29395982545363
 21
0.645501353521741
 31
0.0
  0
LINE
  5
80A
330
1E
100
AcDbEntity
  8
0
100
AcDbLine
 10
11.29395982545363
 20
0.645501353521741
 30
0.0
 11
11.27225011801532
 21
0.6708293455331136
 31
0.0
  0
LINE
  5
80B
330
1E
100
AcDbEntity
  8
0
100
AcDbLine
 10
11.27225011801532
 20
0.6708293455331136
 30
0.0
 11
11.26139526429616
 21
0.6997756221175403
 31
0.0
  0
LINE
  5
80C
330
1E
100
AcDbEntity
  8
0
100
AcDbLine
 10
11.26139526429616
 20
0.6997756221175403
 30
0.0
 11
11.2577769797231
 21
0.7323401832750211
 31
0.0
  0
LINE
  5
80D
330
1E
100
AcDbEntity
  8
0
100
AcDbLine
 10
11.2577769797231
 20
0.7323401832750211
 30
0.0
 11
11.26139526429616
 21
0.7649047444325002
 31
0.0
  0
LINE
  5
80E
330
1E
100
AcDbEntity
  8
0
100
AcDbLine
 10
11.26139526429616
 20
0.7649047444325002
 30
0.0
 11
11.27225011801532
 21
0.7938510210169269
 31
0.0
  0
LINE
  5
80F
330
1E
100
AcDbEntity
  8
0
100
AcDbLine
 10
11.27225011801532
 20
0.7938510210169269
 30
0.0
 11
11.29395982545363
 21
0.819179013028301
 31
0.0
  0
LINE
  5
810
330
1E
100
AcDbEntity
  8
0
100
AcDbLine
 10
11.29395982545363
 20
0.819179013028301
 30
0.0
 11
11.31928781746501
 21
0.8408887204666209
 31
0.0
  0
LINE
  5
811
330
1E
100
AcDbEntity
  8
0
100
AcDbLine
 10
11.31928781746501
 20
0.8408887204666209
 30
0.0
 11
11.34823409404944
 21
0.8517435741857802
 31
0.0
  0
LINE
  5
812
330
1E
100
AcDbEntity
  8
0
100
AcDbLine
 10
11.34823409404944
 20
0.8517435741857802
 30
0.0
 11
11.38079865520691
 21
0.858980143331887
 31
0.0
  0
LINE
  5
813
330
1E
100
AcDbEntity
  8
0
100
AcDbLine
 10
10.78739998522617
 20
1.061604079422875
 30
0.0
 11
10.79463655437228
 21
1.068840648568982
 31
0.0
  0
LINE
  5
814
330
1E
100
AcDbEntity
  8
0
100
AcDbLine
 10
10.79463655437228
 20
1.068840648568982
 30
0.0
 11
10.80187312351838
 21
1.076077217715088
 31
0.0
  0
LINE
  5
815
330
1E
100
AcDbEntity
  8
0
100
AcDbLine
 10
10.80187312351838
 20
1.640529611111408
 30
0.0
 11
10.79463655437228
 21
1.647766180257515
 31
0.0
  0
LINE
  5
816
330
1E
100
AcDbEntity
  8
0
100
AcDbLine
 10
10.79463655437228
 20
1.647766180257515
 30
0.0
 11
10.78739998522617
 21
1.655002749403622
 31
0.0
  0
LINE
  5
817
330
1E
100
AcDbEntity
  8
0
100
AcDbLine
 10
11.22521241856562
 20
2.114524890181395
 30
0.0
 11
11.22883070313868
 21
2.136234597619716
 31
0.0
  0
LINE
  5
818
330
1E
100
AcDbEntity
  8
0
100
AcDbLine
 10
11.22883070313868
 20
2.136234597619716
 30
0.0
 11
11.24330384143089
 21
2.157944305058036
 31
0.0
  0
LINE
  5
819
330
1E
100
AcDbEntity
  8
0
100
AcDbLine
 10
11.24330384143089
 20
2.157944305058036
 30
0.0
 11
11.26139526429616
 21
2.172417443350249
 31
0.0
  0
LINE
  5
81A
330
1E
100
AcDbEntity
  8
0
100
AcDbLine
 10
11.26139526429616
 20
2.172417443350249
 30
0.0
 11
11.28672325630753
 21
2.176035727923304
 31
0.0
  0
LINE
  5
81B
330
1E
100
AcDbEntity
  8
0
100
AcDbLine
 10
11.43869120837577
 20
1.680330741414996
 30
0.0
 11
11.39889007807218
 21
1.687567310561102
 31
0.0
  0
LINE
  5
81C
330
1E
100
AcDbEntity
  8
0
100
AcDbLine
 10
11.39889007807218
 20
1.687567310561102
 30
0.0
 11
11.3590889477686
 21
1.698422164280261
 31
0.0
  0
LINE
  5
81D
330
1E
100
AcDbEntity
  8
0
100
AcDbLine
 10
11.3590889477686
 20
1.698422164280261
 30
0.0
 11
11.31928781746501
 21
1.720131871718582
 31
0.0
  0
LINE
  5
81E
330
1E
100
AcDbEntity
  8
0
100
AcDbLine
 10
11.31928781746501
 20
1.720131871718582
 30
0.0
 11
11.28672325630753
 21
1.745459863729956
 31
0.0
  0
LINE
  5
81F
330
1E
100
AcDbEntity
  8
0
100
AcDbLine
 10
11.28672325630753
 20
1.745459863729956
 30
0.0
 11
11.26139526429616
 21
1.781642709460489
 31
0.0
  0
LINE
  5
820
330
1E
100
AcDbEntity
  8
0
100
AcDbLine
 10
11.26139526429616
 20
1.781642709460489
 30
0.0
 11
11.24330384143089
 21
1.817825555191022
 31
0.0
  0
LINE
  5
821
330
1E
100
AcDbEntity
  8
0
100
AcDbLine
 10
11.24330384143089
 20
1.817825555191022
 30
0.0
 11
11.22883070313868
 21
1.857626685494608
 31
0.0
  0
LINE
  5
822
330
1E
100
AcDbEntity
  8
0
100
AcDbLine
 10
11.22883070313868
 20
1.857626685494608
 30
0.0
 11
11.22521241856562
 21
1.901046100371248
 31
0.0
  0
LINE
  5
823
330
1E
100
AcDbEntity
  8
0
100
AcDbLine
 10
11.60513229873622
 20
1.466851951604848
 30
0.0
 11
11.6376968598937
 21
1.474088520750955
 31
0.0
  0
LINE
  5
824
330
1E
100
AcDbEntity
  8
0
100
AcDbLine
 10
11.6376968598937
 20
1.474088520750955
 30
0.0
 11
11.66664313647813
 21
1.484943374470114
 31
0.0
  0
LINE
  5
825
330
1E
100
AcDbEntity
  8
0
100
AcDbLine
 10
11.66664313647813
 20
1.484943374470114
 30
0.0
 11
11.6919711284895
 21
1.506653081908434
 31
0.0
  0
LINE
  5
826
330
1E
100
AcDbEntity
  8
0
100
AcDbLine
 10
11.6919711284895
 20
1.506653081908434
 30
0.0
 11
11.71006255135477
 21
1.531981073919808
 31
0.0
  0
LINE
  5
827
330
1E
100
AcDbEntity
  8
0
100
AcDbLine
 10
11.71006255135477
 20
1.531981073919808
 30
0.0
 11
11.72091740507393
 21
1.560927350504235
 31
0.0
  0
LINE
  5
828
330
1E
100
AcDbEntity
  8
0
100
AcDbLine
 10
11.72091740507393
 20
1.560927350504235
 30
0.0
 11
11.72453568964698
 21
1.593491911661716
 31
0.0
  0
LINE
  5
829
330
1E
100
AcDbEntity
  8
0
100
AcDbLine
 10
10.78739998522617
 20
1.828680408910182
 30
0.0
 11
10.79101826979922
 21
1.770787855741328
 31
0.0
  0
LINE
  5
82A
330
1E
100
AcDbEntity
  8
0
100
AcDbLine
 10
10.79101826979922
 20
1.770787855741328
 30
0.0
 11
10.80549140809143
 21
1.716513587145529
 31
0.0
  0
LINE
  5
82B
330
1E
100
AcDbEntity
  8
0
100
AcDbLine
 10
10.80549140809143
 20
1.716513587145529
 30
0.0
 11
10.8235828309567
 21
1.665857603122782
 31
0.0
  0
LINE
  5
82C
330
1E
100
AcDbEntity
  8
0
100
AcDbLine
 10
10.8235828309567
 20
1.665857603122782
 30
0.0
 11
10.85252910754113
 21
1.615201619100036
 31
0.0
  0
LINE
  5
82D
330
1E
100
AcDbEntity
  8
0
100
AcDbLine
 10
10.85252910754113
 20
1.615201619100036
 30
0.0
 11
10.88871195327166
 21
1.571782204223396
 31
0.0
  0
LINE
  5
82E
330
1E
100
AcDbEntity
  8
0
100
AcDbLine
 10
10.88871195327166
 20
1.571782204223396
 30
0.0
 11
10.92851308357525
 21
1.535599358492862
 31
0.0
  0
LINE
  5
82F
330
1E
100
AcDbEntity
  8
0
100
AcDbLine
 10
10.92851308357525
 20
1.535599358492862
 30
0.0
 11
10.97555078302494
 21
1.503034797335381
 31
0.0
  0
LINE
  5
830
330
1E
100
AcDbEntity
  8
0
100
AcDbLine
 10
10.97555078302494
 20
1.503034797335381
 30
0.0
 11
11.02620676704769
 21
1.477706805324007
 31
0.0
  0
LINE
  5
831
330
1E
100
AcDbEntity
  8
0
100
AcDbLine
 10
11.02620676704769
 20
1.477706805324007
 30
0.0
 11
11.08048103564349
 21
1.463233667031794
 31
0.0
  0
LINE
  5
832
330
1E
100
AcDbEntity
  8
0
100
AcDbLine
 10
11.08048103564349
 20
1.463233667031794
 30
0.0
 11
11.13475530423929
 21
1.452378813312635
 31
0.0
  0
LINE
  5
833
330
1E
100
AcDbEntity
  8
0
100
AcDbLine
 10
11.28672325630753
 20
0.5405711009031935
 30
0.0
 11
11.26139526429616
 21
0.5441893854762461
 31
0.0
  0
LINE
  5
834
330
1E
100
AcDbEntity
  8
0
100
AcDbLine
 10
11.26139526429616
 20
0.5441893854762461
 30
0.0
 11
11.24330384143089
 21
0.5586625237684594
 31
0.0
  0
LINE
  5
835
330
1E
100
AcDbEntity
  8
0
100
AcDbLine
 10
11.24330384143089
 20
0.5586625237684594
 30
0.0
 11
11.22883070313868
 21
0.576753946633727
 31
0.0
  0
LINE
  5
836
330
1E
100
AcDbEntity
  8
0
100
AcDbLine
 10
11.22883070313868
 20
0.576753946633727
 30
0.0
 11
11.22521241856562
 21
0.602081938645101
 31
0.0
  0
LINE
  5
837
330
1E
100
AcDbEntity
  8
0
100
AcDbLine
 10
11.13475530423929
 20
1.260609730940807
 30
0.0
 11
11.08048103564349
 21
1.253373161794701
 31
0.0
  0
LINE
  5
838
330
1E
100
AcDbEntity
  8
0
100
AcDbLine
 10
11.08048103564349
 20
1.253373161794701
 30
0.0
 11
11.02620676704769
 21
1.238900023502487
 31
0.0
  0
LINE
  5
839
330
1E
100
AcDbEntity
  8
0
100
AcDbLine
 10
11.02620676704769
 20
1.238900023502487
 30
0.0
 11
10.97555078302494
 21
1.213572031491115
 31
0.0
  0
LINE
  5
83A
330
1E
100
AcDbEntity
  8
0
100
AcDbLine
 10
10.97555078302494
 20
1.213572031491115
 30
0.0
 11
10.92851308357525
 21
1.181007470333634
 31
0.0
  0
LINE
  5
83B
330
1E
100
AcDbEntity
  8
0
100
AcDbLine
 10
10.92851308357525
 20
1.181007470333634
 30
0.0
 11
10.88871195327166
 21
1.144824624603101
 31
0.0
  0
LINE
  5
83C
330
1E
100
AcDbEntity
  8
0
100
AcDbLine
 10
10.88871195327166
 20
1.144824624603101
 30
0.0
 11
10.85252910754113
 21
1.101405209726461
 31
0.0
  0
LINE
  5
83D
330
1E
100
AcDbEntity
  8
0
100
AcDbLine
 10
10.85252910754113
 20
1.101405209726461
 30
0.0
 11
10.8235828309567
 21
1.050749225703714
 31
0.0
  0
LINE
  5
83E
330
1E
100
AcDbEntity
  8
0
100
AcDbLine
 10
10.8235828309567
 20
1.050749225703714
 30
0.0
 11
10.80549140809143
 21
1.000093241680967
 31
0.0
  0
LINE
  5
83F
330
1E
100
AcDbEntity
  8
0
100
AcDbLine
 10
10.80549140809143
 20
1.000093241680967
 30
0.0
 11
10.79101826979922
 21
0.9422006885121144
 31
0.0
  0
LINE
  5
840
330
1E
100
AcDbEntity
  8
0
100
AcDbLine
 10
10.79101826979922
 20
0.9422006885121144
 30
0.0
 11
10.78739998522617
 21
0.8879264199163136
 31
0.0
  0
LINE
  5
841
330
1E
100
AcDbEntity
  8
0
100
AcDbLine
 10
11.72453568964698
 20
1.123114917164781
 30
0.0
 11
11.72091740507393
 21
1.155679478322261
 31
0.0
  0
LINE
  5
842
330
1E
100
AcDbEntity
  8
0
100
AcDbLine
 10
11.72091740507393
 20
1.155679478322261
 30
0.0
 11
11.71006255135477
 21
1.184625754906688
 31
0.0
  0
LINE
  5
843
330
1E
100
AcDbEntity
  8
0
100
AcDbLine
 10
11.71006255135477
 20
1.184625754906688
 30
0.0
 11
11.6919711284895
 21
1.209953746918061
 31
0.0
  0
LINE
  5
844
330
1E
100
AcDbEntity
  8
0
100
AcDbLine
 10
11.6919711284895
 20
1.209953746918061
 30
0.0
 11
11.66664313647813
 21
1.23166345435638
 31
0.0
  0
LINE
  5
845
330
1E
100
AcDbEntity
  8
0
100
AcDbLine
 10
11.66664313647813
 20
1.23166345435638
 30
0.0
 11
11.6376968598937
 21
1.242518308075541
 31
0.0
  0
LINE
  5
846
330
1E
100
AcDbEntity
  8
0
100
AcDbLine
 10
11.6376968598937
 20
1.242518308075541
 30
0.0
 11
11.60513229873622
 21
1.249754877221648
 31
0.0
  0
LINE
  5
847
330
1E
100
AcDbEntity
  8
0
100
AcDbLine
 10
11.22521241856562
 20
0.815560728455247
 30
0.0
 11
11.22883070313868
 21
0.858980143331887
 31
0.0
  0
LINE
  5
848
330
1E
100
AcDbEntity
  8
0
100
AcDbLine
 10
11.22883070313868
 20
0.858980143331887
 30
0.0
 11
11.24330384143089
 21
0.8987812736354744
 31
0.0
  0
LINE
  5
849
330
1E
100
AcDbEntity
  8
0
100
AcDbLine
 10
11.24330384143089
 20
0.8987812736354744
 30
0.0
 11
11.26139526429616
 21
0.9349641193660078
 31
0.0
  0
LINE
  5
84A
330
1E
100
AcDbEntity
  8
0
100
AcDbLine
 10
11.26139526429616
 20
0.9349641193660078
 30
0.0
 11
11.28672325630753
 21
0.9675286805234868
 31
0.0
  0
LINE
  5
84B
330
1E
100
AcDbEntity
  8
0
100
AcDbLine
 10
11.28672325630753
 20
0.9675286805234868
 30
0.0
 11
11.31928781746501
 21
0.9964749571079137
 31
0.0
  0
LINE
  5
84C
330
1E
100
AcDbEntity
  8
0
100
AcDbLine
 10
11.31928781746501
 20
0.9964749571079137
 30
0.0
 11
11.3590889477686
 21
1.018184664546233
 31
0.0
  0
LINE
  5
84D
330
1E
100
AcDbEntity
  8
0
100
AcDbLine
 10
11.3590889477686
 20
1.018184664546233
 30
0.0
 11
11.39889007807218
 21
1.029039518265394
 31
0.0
  0
LINE
  5
84E
330
1E
100
AcDbEntity
  8
0
100
AcDbLine
 10
11.39889007807218
 20
1.029039518265394
 30
0.0
 11
11.43869120837577
 21
1.032657802838446
 31
0.0
  0
LINE
  5
84F
330
1E
100
AcDbEntity
  8
0
100
AcDbLine
 10
11.75710025080446
 20
1.206335462345008
 30
0.0
 11
11.75710025080446
 21
1.162916047468368
 31
0.0
  0
LINE
  5
850
330
1E
100
AcDbEntity
  8
0
100
AcDbLine
 10
11.75710025080446
 20
1.162916047468368
 30
0.0
 11
11.75710025080446
 21
1.123114917164781
 31
0.0
  0
LINE
  5
851
330
1E
100
AcDbEntity
  8
0
100
AcDbLine
 10
11.75710025080446
 20
1.593491911661716
 30
0.0
 11
11.75710025080446
 21
1.553690781358128
 31
0.0
  0
LINE
  5
852
330
1E
100
AcDbEntity
  8
0
100
AcDbLine
 10
11.75710025080446
 20
1.553690781358128
 30
0.0
 11
11.75710025080446
 21
1.510271366481488
 31
0.0
  0
LINE
  5
853
330
1E
100
AcDbEntity
  8
0
100
AcDbLine
 10
10.75483542406869
 20
1.655002749403622
 30
0.0
 11
10.75483542406869
 21
1.716513587145529
 31
0.0
  0
LINE
  5
854
330
1E
100
AcDbEntity
  8
0
100
AcDbLine
 10
10.75483542406869
 20
1.716513587145529
 30
0.0
 11
10.75483542406869
 21
1.825062124337129
 31
0.0
  0
LINE
  5
855
330
1E
100
AcDbEntity
  8
0
100
AcDbLine
 10
10.75483542406869
 20
0.8915447044893676
 30
0.0
 11
10.75483542406869
 21
0.9422006885121144
 31
0.0
  0
LINE
  5
856
330
1E
100
AcDbEntity
  8
0
100
AcDbLine
 10
10.75483542406869
 20
0.9422006885121144
 30
0.0
 11
10.75483542406869
 21
1.000093241680967
 31
0.0
  0
LINE
  5
857
330
1E
100
AcDbEntity
  8
0
100
AcDbLine
 10
10.75483542406869
 20
1.000093241680967
 30
0.0
 11
10.75483542406869
 21
1.061604079422875
 31
0.0
  0
LINE
  5
858
330
1E
100
AcDbEntity
  8
0
100
AcDbLine
 10
1.962403911549078
 20
6.3406812715077
 30
0.0
 11
1.966022196122132
 21
6.326208133215486
 31
0.0
  0
LINE
  5
859
330
1E
100
AcDbEntity
  8
0
100
AcDbLine
 10
1.966022196122132
 20
6.326208133215486
 30
0.0
 11
1.973258765268239
 21
6.315353279496325
 31
0.0
  0
LINE
  5
85A
330
1E
100
AcDbEntity
  8
0
100
AcDbLine
 10
1.973258765268239
 20
6.315353279496325
 30
0.0
 11
1.980495334414345
 21
6.311734994923273
 31
0.0
  0
LINE
  5
85B
330
1E
100
AcDbEntity
  8
0
100
AcDbLine
 10
1.980495334414345
 20
6.311734994923273
 30
0.0
 11
1.994968472706559
 21
6.308116710350218
 31
0.0
  0
LINE
  5
85C
330
1E
100
AcDbEntity
  8
0
100
AcDbLine
 10
7.013529175531542
 20
6.308116710350217
 30
0.0
 11
7.013529175531542
 21
6.311734994923272
 31
0.0
  0
LINE
  5
85D
330
1E
100
AcDbEntity
  8
0
100
AcDbLine
 10
7.013529175531542
 20
6.311734994923272
 30
0.0
 11
7.013529175531542
 21
6.322589848642431
 31
0.0
  0
LINE
  5
85E
330
1E
100
AcDbEntity
  8
0
100
AcDbLine
 10
7.013529175531542
 20
6.322589848642431
 30
0.0
 11
7.013529175531542
 21
6.340681271507699
 31
0.0
  0
LINE
  5
85F
330
1E
100
AcDbEntity
  8
0
100
AcDbLine
 10
7.013529175531542
 20
6.308116710350217
 30
0.0
 11
7.028002313823755
 21
6.311734994923272
 31
0.0
  0
LINE
  5
860
330
1E
100
AcDbEntity
  8
0
100
AcDbLine
 10
7.028002313823755
 20
6.311734994923272
 30
0.0
 11
7.042475452115969
 21
6.322589848642431
 31
0.0
  0
LINE
  5
861
330
1E
100
AcDbEntity
  8
0
100
AcDbLine
 10
7.042475452115969
 20
6.322589848642431
 30
0.0
 11
7.04609373668902
 21
6.340681271507699
 31
0.0
  0
LINE
  5
862
330
1E
100
AcDbEntity
  8
0
100
AcDbLine
 10
7.04609373668902
 20
6.340681271507699
 30
0.0
 11
7.042475452115969
 21
6.340681271507699
 31
0.0
  0
LINE
  5
863
330
1E
100
AcDbEntity
  8
0
100
AcDbLine
 10
7.042475452115969
 20
6.340681271507699
 30
0.0
 11
7.028002313823755
 21
6.340681271507699
 31
0.0
  0
LINE
  5
864
330
1E
100
AcDbEntity
  8
0
100
AcDbLine
 10
7.028002313823755
 20
6.340681271507699
 30
0.0
 11
7.013529175531542
 21
6.340681271507699
 31
0.0
  0
LINE
  5
865
330
1E
100
AcDbEntity
  8
0
100
AcDbLine
 10
7.038857167542915
 20
6.840004542589058
 30
0.0
 11
7.035238882969863
 21
6.840004542589058
 31
0.0
  0
LINE
  5
866
330
1E
100
AcDbEntity
  8
0
100
AcDbLine
 10
7.035238882969863
 20
6.840004542589058
 30
0.0
 11
7.024384029250702
 21
6.840004542589058
 31
0.0
  0
LINE
  5
867
330
1E
100
AcDbEntity
  8
0
100
AcDbLine
 10
7.024384029250702
 20
6.840004542589058
 30
0.0
 11
7.006292606385437
 21
6.840004542589058
 31
0.0
  0
LINE
  5
868
330
1E
100
AcDbEntity
  8
0
100
AcDbLine
 10
7.038857167542915
 20
6.840004542589058
 30
0.0
 11
7.035238882969863
 21
6.854477680881272
 31
0.0
  0
LINE
  5
869
330
1E
100
AcDbEntity
  8
0
100
AcDbLine
 10
7.035238882969863
 20
6.854477680881272
 30
0.0
 11
7.024384029250702
 21
6.865332534600432
 31
0.0
  0
LINE
  5
86A
330
1E
100
AcDbEntity
  8
0
100
AcDbLine
 10
7.024384029250702
 20
6.865332534600432
 30
0.0
 11
7.006292606385437
 21
6.868950819173485
 31
0.0
  0
LINE
  5
86B
330
1E
100
AcDbEntity
  8
0
100
AcDbLine
 10
7.002674321812381
 20
7.310381537085993
 30
0.0
 11
7.017147460104594
 21
7.303144967939886
 31
0.0
  0
LINE
  5
86C
330
1E
100
AcDbEntity
  8
0
100
AcDbLine
 10
7.017147460104594
 20
7.303144967939886
 30
0.0
 11
7.028002313823755
 21
7.292290114220728
 31
0.0
  0
LINE
  5
86D
330
1E
100
AcDbEntity
  8
0
100
AcDbLine
 10
7.028002313823755
 20
7.292290114220728
 30
0.0
 11
7.031620598396807
 21
7.277816975928514
 31
0.0
  0
LINE
  5
86E
330
1E
100
AcDbEntity
  8
0
100
AcDbLine
 10
7.002674321812381
 20
7.277816975928514
 30
0.0
 11
7.017147460104594
 21
7.277816975928514
 31
0.0
  0
LINE
  5
86F
330
1E
100
AcDbEntity
  8
0
100
AcDbLine
 10
7.017147460104594
 20
7.277816975928514
 30
0.0
 11
7.028002313823755
 21
7.277816975928514
 31
0.0
  0
LINE
  5
870
330
1E
100
AcDbEntity
  8
0
100
AcDbLine
 10
7.028002313823755
 20
7.277816975928514
 30
0.0
 11
7.031620598396807
 21
7.277816975928514
 31
0.0
  0
LINE
  5
871
330
1E
100
AcDbEntity
  8
0
100
AcDbLine
 10
7.006292606385437
 20
6.991972494657298
 30
0.0
 11
7.020765744677651
 21
6.991972494657298
 31
0.0
  0
LINE
  5
872
330
1E
100
AcDbEntity
  8
0
100
AcDbLine
 10
7.020765744677651
 20
6.991972494657298
 30
0.0
 11
7.031620598396807
 21
6.991972494657298
 31
0.0
  0
LINE
  5
873
330
1E
100
AcDbEntity
  8
0
100
AcDbLine
 10
7.031620598396807
 20
6.991972494657298
 30
0.0
 11
7.035238882969863
 21
6.991972494657298
 31
0.0
  0
LINE
  5
874
330
1E
100
AcDbEntity
  8
0
100
AcDbLine
 10
7.006292606385437
 20
6.868950819173485
 30
0.0
 11
7.006292606385437
 21
6.908751949477072
 31
0.0
  0
LINE
  5
875
330
1E
100
AcDbEntity
  8
0
100
AcDbLine
 10
7.006292606385437
 20
6.908751949477072
 30
0.0
 11
7.006292606385437
 21
6.948553079780658
 31
0.0
  0
LINE
  5
876
330
1E
100
AcDbEntity
  8
0
100
AcDbLine
 10
7.006292606385437
 20
6.948553079780658
 30
0.0
 11
7.006292606385437
 21
6.991972494657298
 31
0.0
  0
LINE
  5
877
330
1E
100
AcDbEntity
  8
0
100
AcDbLine
 10
7.002674321812381
 20
7.277816975928514
 30
0.0
 11
7.002674321812381
 21
7.292290114220728
 31
0.0
  0
LINE
  5
878
330
1E
100
AcDbEntity
  8
0
100
AcDbLine
 10
7.002674321812381
 20
7.292290114220728
 30
0.0
 11
7.002674321812381
 21
7.303144967939886
 31
0.0
  0
LINE
  5
879
330
1E
100
AcDbEntity
  8
0
100
AcDbLine
 10
7.002674321812381
 20
7.303144967939886
 30
0.0
 11
7.002674321812381
 21
7.310381537085993
 31
0.0
  0
LINE
  5
87A
330
1E
100
AcDbEntity
  8
0
100
AcDbLine
 10
2.193974124224494
 20
6.760402281981887
 30
0.0
 11
2.193974124224494
 21
6.778493704847154
 31
0.0
  0
LINE
  5
87B
330
1E
100
AcDbEntity
  8
0
100
AcDbLine
 10
2.193974124224494
 20
6.778493704847154
 30
0.0
 11
2.193974124224494
 21
6.789348558566314
 31
0.0
  0
LINE
  5
87C
330
1E
100
AcDbEntity
  8
0
100
AcDbLine
 10
2.193974124224494
 20
6.789348558566314
 30
0.0
 11
2.193974124224494
 21
6.792966843139367
 31
0.0
  0
LINE
  5
87D
330
1E
100
AcDbEntity
  8
0
100
AcDbLine
 10
2.342323791719679
 20
6.803821696858527
 30
0.0
 11
2.335087222573571
 21
6.81829483515074
 31
0.0
  0
LINE
  5
87E
330
1E
100
AcDbEntity
  8
0
100
AcDbLine
 10
2.335087222573571
 20
6.81829483515074
 30
0.0
 11
2.327850653427466
 21
6.825531404296847
 31
0.0
  0
LINE
  5
87F
330
1E
100
AcDbEntity
  8
0
100
AcDbLine
 10
2.327850653427466
 20
6.825531404296847
 30
0.0
 11
2.327850653427466
 21
6.8291496888699
 31
0.0
  0
LINE
  5
880
330
1E
100
AcDbEntity
  8
0
100
AcDbLine
 10
2.345942076292732
 20
6.80743998143158
 30
0.0
 11
2.338705507146627
 21
6.81829483515074
 31
0.0
  0
LINE
  5
881
330
1E
100
AcDbEntity
  8
0
100
AcDbLine
 10
2.338705507146627
 20
6.81829483515074
 30
0.0
 11
2.331468938000519
 21
6.8291496888699
 31
0.0
  0
LINE
  5
882
330
1E
100
AcDbEntity
  8
0
100
AcDbLine
 10
2.331468938000519
 20
6.8291496888699
 30
0.0
 11
2.331468938000519
 21
6.832767973442954
 31
0.0
  0
LINE
  5
883
330
1E
100
AcDbEntity
  8
0
100
AcDbLine
 10
2.461727182630438
 20
6.84000454258906
 30
0.0
 11
2.461727182630438
 21
6.854477680881274
 31
0.0
  0
LINE
  5
884
330
1E
100
AcDbEntity
  8
0
100
AcDbLine
 10
2.461727182630438
 20
6.854477680881274
 30
0.0
 11
2.461727182630438
 21
6.865332534600434
 31
0.0
  0
LINE
  5
885
330
1E
100
AcDbEntity
  8
0
100
AcDbLine
 10
2.461727182630438
 20
6.865332534600434
 30
0.0
 11
2.461727182630438
 21
6.868950819173487
 31
0.0
  0
LINE
  5
886
330
1E
100
AcDbEntity
  8
0
100
AcDbLine
 10
7.006292606385437
 20
6.840004542589058
 30
0.0
 11
7.006292606385437
 21
6.854477680881272
 31
0.0
  0
LINE
  5
887
330
1E
100
AcDbEntity
  8
0
100
AcDbLine
 10
7.006292606385437
 20
6.854477680881272
 30
0.0
 11
7.006292606385437
 21
6.865332534600432
 31
0.0
  0
LINE
  5
888
330
1E
100
AcDbEntity
  8
0
100
AcDbLine
 10
7.006292606385437
 20
6.865332534600432
 30
0.0
 11
7.006292606385437
 21
6.868950819173485
 31
0.0
  0
LINE
  5
889
330
1E
100
AcDbEntity
  8
0
100
AcDbLine
 10
2.331468938000519
 20
6.832767973442954
 30
0.0
 11
2.371270068304106
 21
6.854477680881274
 31
0.0
  0
LINE
  5
88A
330
1E
100
AcDbEntity
  8
0
100
AcDbLine
 10
2.371270068304106
 20
6.854477680881274
 30
0.0
 11
2.418307767753799
 21
6.865332534600434
 31
0.0
  0
LINE
  5
88B
330
1E
100
AcDbEntity
  8
0
100
AcDbLine
 10
2.418307767753799
 20
6.865332534600434
 30
0.0
 11
2.461727182630438
 21
6.868950819173487
 31
0.0
  0
LINE
  5
88C
330
1E
100
AcDbEntity
  8
0
100
AcDbLine
 10
2.193974124224494
 20
6.792966843139367
 30
0.0
 11
2.241011823674186
 21
6.79658512771242
 31
0.0
  0
LINE
  5
88D
330
1E
100
AcDbEntity
  8
0
100
AcDbLine
 10
2.241011823674186
 20
6.79658512771242
 30
0.0
 11
2.284431238550826
 21
6.811058266004634
 31
0.0
  0
LINE
  5
88E
330
1E
100
AcDbEntity
  8
0
100
AcDbLine
 10
2.284431238550826
 20
6.811058266004634
 30
0.0
 11
2.327850653427466
 21
6.8291496888699
 31
0.0
  0
LINE
  5
88F
330
1E
100
AcDbEntity
  8
0
100
AcDbLine
 10
6.952018337789636
 20
6.868950819173485
 30
0.0
 11
6.955636622362688
 21
6.908751949477072
 31
0.0
  0
LINE
  5
890
330
1E
100
AcDbEntity
  8
0
100
AcDbLine
 10
6.955636622362688
 20
6.908751949477072
 30
0.0
 11
6.955636622362688
 21
6.948553079780658
 31
0.0
  0
LINE
  5
891
330
1E
100
AcDbEntity
  8
0
100
AcDbLine
 10
6.955636622362688
 20
6.948553079780658
 30
0.0
 11
6.955636622362688
 21
6.991972494657298
 31
0.0
  0
LINE
  5
892
330
1E
100
AcDbEntity
  8
0
100
AcDbLine
 10
2.342323791719679
 20
6.803821696858527
 30
0.0
 11
2.295286092269987
 21
6.782111989420207
 31
0.0
  0
LINE
  5
893
330
1E
100
AcDbEntity
  8
0
100
AcDbLine
 10
2.295286092269987
 20
6.782111989420207
 30
0.0
 11
2.248248392820292
 21
6.767638851127993
 31
0.0
  0
LINE
  5
894
330
1E
100
AcDbEntity
  8
0
100
AcDbLine
 10
2.248248392820292
 20
6.767638851127993
 30
0.0
 11
2.193974124224494
 21
6.760402281981887
 31
0.0
  0
LINE
  5
895
330
1E
100
AcDbEntity
  8
0
100
AcDbLine
 10
2.461727182630438
 20
6.84000454258906
 30
0.0
 11
2.421926052326852
 21
6.836386258016007
 31
0.0
  0
LINE
  5
896
330
1E
100
AcDbEntity
  8
0
100
AcDbLine
 10
2.421926052326852
 20
6.836386258016007
 30
0.0
 11
2.382124922023267
 21
6.825531404296847
 31
0.0
  0
LINE
  5
897
330
1E
100
AcDbEntity
  8
0
100
AcDbLine
 10
2.382124922023267
 20
6.825531404296847
 30
0.0
 11
2.345942076292732
 21
6.80743998143158
 31
0.0
  0
LINE
  5
898
330
1E
100
AcDbEntity
  8
0
100
AcDbLine
 10
7.035238882969863
 20
6.991972494657298
 30
0.0
 11
7.038857167542915
 21
6.948553079780658
 31
0.0
  0
LINE
  5
899
330
1E
100
AcDbEntity
  8
0
100
AcDbLine
 10
7.038857167542915
 20
6.948553079780658
 30
0.0
 11
7.038857167542915
 21
6.908751949477072
 31
0.0
  0
LINE
  5
89A
330
1E
100
AcDbEntity
  8
0
100
AcDbLine
 10
7.038857167542915
 20
6.908751949477072
 30
0.0
 11
7.038857167542915
 21
6.872569103746539
 31
0.0
  0
LINE
  5
89B
330
1E
100
AcDbEntity
  8
0
100
AcDbLine
 10
7.038857167542915
 20
6.872569103746539
 30
0.0
 11
7.038857167542915
 21
6.840004542589058
 31
0.0
  0
LINE
  5
89C
330
1E
100
AcDbEntity
  8
0
100
AcDbLine
 10
1.994968472706557
 20
0.515243108891821
 30
0.0
 11
1.980495334414344
 21
0.5043882551726619
 31
0.0
  0
LINE
  5
89D
330
1E
100
AcDbEntity
  8
0
100
AcDbLine
 10
1.980495334414344
 20
0.5043882551726619
 30
0.0
 11
1.973258765268237
 21
0.493533401453501
 31
0.0
  0
LINE
  5
89E
330
1E
100
AcDbEntity
  8
0
100
AcDbLine
 10
1.973258765268237
 20
0.493533401453501
 30
0.0
 11
1.96602219612213
 21
0.4862968323073943
 31
0.0
  0
LINE
  5
89F
330
1E
100
AcDbEntity
  8
0
100
AcDbLine
 10
1.96602219612213
 20
0.4862968323073943
 30
0.0
 11
1.962403911549076
 21
0.4862968323073943
 31
0.0
  0
LINE
  5
8A0
330
1E
100
AcDbEntity
  8
0
100
AcDbLine
 10
7.013529175531542
 20
0.4862968323073928
 30
0.0
 11
7.013529175531542
 21
0.4899151168804467
 31
0.0
  0
LINE
  5
8A1
330
1E
100
AcDbEntity
  8
0
100
AcDbLine
 10
7.013529175531542
 20
0.4899151168804467
 30
0.0
 11
7.013529175531542
 21
0.5007699705996061
 31
0.0
  0
LINE
  5
8A2
330
1E
100
AcDbEntity
  8
0
100
AcDbLine
 10
7.013529175531542
 20
0.5007699705996061
 30
0.0
 11
7.013529175531542
 21
0.5152431088918195
 31
0.0
  0
LINE
  5
8A3
330
1E
100
AcDbEntity
  8
0
100
AcDbLine
 10
7.013529175531542
 20
0.4862968323073928
 30
0.0
 11
7.028002313823755
 21
0.4899151168804467
 31
0.0
  0
LINE
  5
8A4
330
1E
100
AcDbEntity
  8
0
100
AcDbLine
 10
7.028002313823755
 20
0.4899151168804467
 30
0.0
 11
7.042475452115969
 21
0.5007699705996061
 31
0.0
  0
LINE
  5
8A5
330
1E
100
AcDbEntity
  8
0
100
AcDbLine
 10
7.042475452115969
 20
0.5007699705996061
 30
0.0
 11
7.04609373668902
 21
0.5152431088918195
 31
0.0
  0
LINE
  5
8A6
330
1E
100
AcDbEntity
  8
0
100
AcDbLine
 10
7.04609373668902
 20
0.5152431088918195
 30
0.0
 11
7.042475452115969
 21
0.5152431088918195
 31
0.0
  0
LINE
  5
8A7
330
1E
100
AcDbEntity
  8
0
100
AcDbLine
 10
7.042475452115969
 20
0.5152431088918195
 30
0.0
 11
7.028002313823755
 21
0.5152431088918195
 31
0.0
  0
LINE
  5
8A8
330
1E
100
AcDbEntity
  8
0
100
AcDbLine
 10
7.028002313823755
 20
0.5152431088918195
 30
0.0
 11
7.013529175531542
 21
0.5152431088918195
 31
0.0
  0
LINE
  5
8A9
330
1E
100
AcDbEntity
  8
0
100
AcDbLine
 10
7.04609373668902
 20
0.8879264199163136
 30
0.0
 11
7.042475452115969
 21
0.8879264199163136
 31
0.0
  0
LINE
  5
8AA
330
1E
100
AcDbEntity
  8
0
100
AcDbLine
 10
7.042475452115969
 20
0.8879264199163136
 30
0.0
 11
7.028002313823755
 21
0.8879264199163136
 31
0.0
  0
LINE
  5
8AB
330
1E
100
AcDbEntity
  8
0
100
AcDbLine
 10
7.028002313823755
 20
0.8879264199163136
 30
0.0
 11
7.013529175531542
 21
0.8879264199163136
 31
0.0
  0
LINE
  5
8AC
330
1E
100
AcDbEntity
  8
0
100
AcDbLine
 10
7.038857167542915
 20
1.267846300086914
 30
0.0
 11
7.028002313823755
 21
1.285937722952181
 31
0.0
  0
LINE
  5
8AD
330
1E
100
AcDbEntity
  8
0
100
AcDbLine
 10
7.028002313823755
 20
1.285937722952181
 30
0.0
 11
7.009910890958489
 21
1.293174292098288
 31
0.0
  0
LINE
  5
8AE
330
1E
100
AcDbEntity
  8
0
100
AcDbLine
 10
7.042475452115969
 20
1.260609730940807
 30
0.0
 11
7.038857167542915
 21
1.264228015513861
 31
0.0
  0
LINE
  5
8AF
330
1E
100
AcDbEntity
  8
0
100
AcDbLine
 10
7.038857167542915
 20
1.264228015513861
 30
0.0
 11
7.038857167542915
 21
1.267846300086914
 31
0.0
  0
LINE
  5
8B0
330
1E
100
AcDbEntity
  8
0
100
AcDbLine
 10
7.038857167542915
 20
1.271464584659968
 30
0.0
 11
7.035238882969863
 21
1.282319438379127
 31
0.0
  0
LINE
  5
8B1
330
1E
100
AcDbEntity
  8
0
100
AcDbLine
 10
7.035238882969863
 20
1.282319438379127
 30
0.0
 11
7.024384029250702
 21
1.293174292098288
 31
0.0
  0
LINE
  5
8B2
330
1E
100
AcDbEntity
  8
0
100
AcDbLine
 10
7.024384029250702
 20
1.293174292098288
 30
0.0
 11
7.009910890958489
 21
1.296792576671341
 31
0.0
  0
LINE
  5
8B3
330
1E
100
AcDbEntity
  8
0
100
AcDbLine
 10
1.962403911549078
 20
2.230309996519104
 30
0.0
 11
1.966022196122132
 21
2.230309996519104
 31
0.0
  0
LINE
  5
8B4
330
1E
100
AcDbEntity
  8
0
100
AcDbLine
 10
1.966022196122132
 20
2.230309996519104
 30
0.0
 11
1.973258765268239
 21
2.223073427372997
 31
0.0
  0
LINE
  5
8B5
330
1E
100
AcDbEntity
  8
0
100
AcDbLine
 10
1.973258765268239
 20
2.223073427372997
 30
0.0
 11
1.980495334414345
 21
2.212218573653839
 31
0.0
  0
LINE
  5
8B6
330
1E
100
AcDbEntity
  8
0
100
AcDbLine
 10
1.980495334414345
 20
2.212218573653839
 30
0.0
 11
1.994968472706559
 21
2.201363719934677
 31
0.0
  0
LINE
  5
8B7
330
1E
100
AcDbEntity
  8
0
100
AcDbLine
 10
7.013529175531542
 20
2.201363719934676
 30
0.0
 11
7.013529175531542
 21
2.215836858226889
 31
0.0
  0
LINE
  5
8B8
330
1E
100
AcDbEntity
  8
0
100
AcDbLine
 10
7.013529175531542
 20
2.215836858226889
 30
0.0
 11
7.013529175531542
 21
2.22669171194605
 31
0.0
  0
LINE
  5
8B9
330
1E
100
AcDbEntity
  8
0
100
AcDbLine
 10
7.013529175531542
 20
2.22669171194605
 30
0.0
 11
7.013529175531542
 21
2.230309996519102
 31
0.0
  0
LINE
  5
8BA
330
1E
100
AcDbEntity
  8
0
100
AcDbLine
 10
7.013529175531542
 20
2.201363719934676
 30
0.0
 11
7.028002313823755
 21
2.201363719934676
 31
0.0
  0
LINE
  5
8BB
330
1E
100
AcDbEntity
  8
0
100
AcDbLine
 10
7.028002313823755
 20
2.201363719934676
 30
0.0
 11
7.042475452115969
 21
2.201363719934676
 31
0.0
  0
LINE
  5
8BC
330
1E
100
AcDbEntity
  8
0
100
AcDbLine
 10
7.042475452115969
 20
2.201363719934676
 30
0.0
 11
7.04609373668902
 21
2.201363719934676
 31
0.0
  0
LINE
  5
8BD
330
1E
100
AcDbEntity
  8
0
100
AcDbLine
 10
7.04609373668902
 20
2.201363719934676
 30
0.0
 11
7.042475452115969
 21
2.215836858226889
 31
0.0
  0
LINE
  5
8BE
330
1E
100
AcDbEntity
  8
0
100
AcDbLine
 10
7.042475452115969
 20
2.215836858226889
 30
0.0
 11
7.028002313823755
 21
2.22669171194605
 31
0.0
  0
LINE
  5
8BF
330
1E
100
AcDbEntity
  8
0
100
AcDbLine
 10
7.028002313823755
 20
2.22669171194605
 30
0.0
 11
7.013529175531542
 21
2.230309996519102
 31
0.0
  0
LINE
  5
8C0
330
1E
100
AcDbEntity
  8
0
100
AcDbLine
 10
7.013529175531542
 20
1.828680408910182
 30
0.0
 11
7.028002313823755
 21
1.828680408910182
 31
0.0
  0
LINE
  5
8C1
330
1E
100
AcDbEntity
  8
0
100
AcDbLine
 10
7.028002313823755
 20
1.828680408910182
 30
0.0
 11
7.042475452115969
 21
1.828680408910182
 31
0.0
  0
LINE
  5
8C2
330
1E
100
AcDbEntity
  8
0
100
AcDbLine
 10
7.042475452115969
 20
1.828680408910182
 30
0.0
 11
7.04609373668902
 21
1.828680408910182
 31
0.0
  0
LINE
  5
8C3
330
1E
100
AcDbEntity
  8
0
100
AcDbLine
 10
7.038857167542915
 20
1.448760528739581
 30
0.0
 11
7.038857167542915
 21
1.452378813312635
 31
0.0
  0
LINE
  5
8C4
330
1E
100
AcDbEntity
  8
0
100
AcDbLine
 10
7.038857167542915
 20
1.452378813312635
 30
0.0
 11
7.042475452115969
 21
1.452378813312635
 31
0.0
  0
LINE
  5
8C5
330
1E
100
AcDbEntity
  8
0
100
AcDbLine
 10
7.009910890958489
 20
1.423432536728208
 30
0.0
 11
7.028002313823755
 21
1.430669105874315
 31
0.0
  0
LINE
  5
8C6
330
1E
100
AcDbEntity
  8
0
100
AcDbLine
 10
7.028002313823755
 20
1.430669105874315
 30
0.0
 11
7.038857167542915
 21
1.448760528739581
 31
0.0
  0
LINE
  5
8C7
330
1E
100
AcDbEntity
  8
0
100
AcDbLine
 10
7.009910890958489
 20
1.419814252155154
 30
0.0
 11
7.024384029250702
 21
1.423432536728208
 31
0.0
  0
LINE
  5
8C8
330
1E
100
AcDbEntity
  8
0
100
AcDbLine
 10
7.024384029250702
 20
1.423432536728208
 30
0.0
 11
7.035238882969863
 21
1.434287390447367
 31
0.0
  0
LINE
  5
8C9
330
1E
100
AcDbEntity
  8
0
100
AcDbLine
 10
7.035238882969863
 20
1.434287390447367
 30
0.0
 11
7.038857167542915
 21
1.445142244166528
 31
0.0
  0
LINE
  5
8CA
330
1E
100
AcDbEntity
  8
0
100
AcDbLine
 10
2.534092874091506
 20
1.655002749403623
 30
0.0
 11
2.548566012383719
 21
1.655002749403623
 31
0.0
  0
LINE
  5
8CB
330
1E
100
AcDbEntity
  8
0
100
AcDbLine
 10
2.548566012383719
 20
1.655002749403623
 30
0.0
 11
2.563039150675932
 21
1.655002749403623
 31
0.0
  0
LINE
  5
8CC
330
1E
100
AcDbEntity
  8
0
100
AcDbLine
 10
2.563039150675932
 20
1.655002749403623
 30
0.0
 11
2.566657435248985
 21
1.655002749403623
 31
0.0
  0
LINE
  5
8CD
330
1E
100
AcDbEntity
  8
0
100
AcDbLine
 10
2.534092874091506
 20
1.061604079422876
 30
0.0
 11
2.548566012383719
 21
1.061604079422876
 31
0.0
  0
LINE
  5
8CE
330
1E
100
AcDbEntity
  8
0
100
AcDbLine
 10
2.548566012383719
 20
1.061604079422876
 30
0.0
 11
2.563039150675932
 21
1.061604079422876
 31
0.0
  0
LINE
  5
8CF
330
1E
100
AcDbEntity
  8
0
100
AcDbLine
 10
2.563039150675932
 20
1.061604079422876
 30
0.0
 11
2.566657435248985
 21
1.061604079422876
 31
0.0
  0
LINE
  5
8D0
330
1E
100
AcDbEntity
  8
0
100
AcDbLine
 10
2.468963751776544
 20
1.029039518265395
 30
0.0
 11
2.465345467203492
 21
1.014566379973182
 31
0.0
  0
LINE
  5
8D1
330
1E
100
AcDbEntity
  8
0
100
AcDbLine
 10
2.465345467203492
 20
1.014566379973182
 30
0.0
 11
2.454490613484331
 21
1.007329810827075
 31
0.0
  0
LINE
  5
8D2
330
1E
100
AcDbEntity
  8
0
100
AcDbLine
 10
2.454490613484331
 20
1.007329810827075
 30
0.0
 11
2.440017475192117
 21
1.003711526254021
 31
0.0
  0
LINE
  5
8D3
330
1E
100
AcDbEntity
  8
0
100
AcDbLine
 10
2.465345467203492
 20
1.123114917164782
 30
0.0
 11
2.465345467203492
 21
1.112260063445623
 31
0.0
  0
LINE
  5
8D4
330
1E
100
AcDbEntity
  8
0
100
AcDbLine
 10
2.465345467203492
 20
1.112260063445623
 30
0.0
 11
2.458108898057383
 21
1.101405209726462
 31
0.0
  0
LINE
  5
8D5
330
1E
100
AcDbEntity
  8
0
100
AcDbLine
 10
2.458108898057383
 20
1.101405209726462
 30
0.0
 11
2.450872328911278
 21
1.09778692515341
 31
0.0
  0
LINE
  5
8D6
330
1E
100
AcDbEntity
  8
0
100
AcDbLine
 10
2.450872328911278
 20
1.09778692515341
 30
0.0
 11
2.44363575976517
 21
1.094168640580356
 31
0.0
  0
LINE
  5
8D7
330
1E
100
AcDbEntity
  8
0
100
AcDbLine
 10
2.44363575976517
 20
1.094168640580356
 30
0.0
 11
2.432780906046012
 21
1.090550356007303
 31
0.0
  0
LINE
  5
8D8
330
1E
100
AcDbEntity
  8
0
100
AcDbLine
 10
2.465345467203492
 20
1.264228015513863
 30
0.0
 11
2.461727182630438
 21
1.264228015513863
 31
0.0
  0
LINE
  5
8D9
330
1E
100
AcDbEntity
  8
0
100
AcDbLine
 10
2.461727182630438
 20
1.264228015513863
 30
0.0
 11
2.450872328911278
 21
1.264228015513863
 31
0.0
  0
LINE
  5
8DA
330
1E
100
AcDbEntity
  8
0
100
AcDbLine
 10
2.450872328911278
 20
1.264228015513863
 30
0.0
 11
2.432780906046012
 21
1.264228015513863
 31
0.0
  0
LINE
  5
8DB
330
1E
100
AcDbEntity
  8
0
100
AcDbLine
 10
2.465345467203492
 20
1.264228015513863
 30
0.0
 11
2.461727182630438
 21
1.278701153806077
 31
0.0
  0
LINE
  5
8DC
330
1E
100
AcDbEntity
  8
0
100
AcDbLine
 10
2.461727182630438
 20
1.278701153806077
 30
0.0
 11
2.450872328911278
 21
1.289556007525236
 31
0.0
  0
LINE
  5
8DD
330
1E
100
AcDbEntity
  8
0
100
AcDbLine
 10
2.450872328911278
 20
1.289556007525236
 30
0.0
 11
2.432780906046012
 21
1.29317429209829
 31
0.0
  0
LINE
  5
8DE
330
1E
100
AcDbEntity
  8
0
100
AcDbLine
 10
2.432780906046012
 20
1.29317429209829
 30
0.0
 11
2.432780906046012
 21
1.289556007525236
 31
0.0
  0
LINE
  5
8DF
330
1E
100
AcDbEntity
  8
0
100
AcDbLine
 10
2.432780906046012
 20
1.289556007525236
 30
0.0
 11
2.432780906046012
 21
1.278701153806077
 31
0.0
  0
LINE
  5
8E0
330
1E
100
AcDbEntity
  8
0
100
AcDbLine
 10
2.432780906046012
 20
1.278701153806077
 30
0.0
 11
2.432780906046012
 21
1.264228015513863
 31
0.0
  0
LINE
  5
8E1
330
1E
100
AcDbEntity
  8
0
100
AcDbLine
 10
2.117990148190372
 20
1.29317429209829
 30
0.0
 11
2.117990148190372
 21
1.289556007525236
 31
0.0
  0
LINE
  5
8E2
330
1E
100
AcDbEntity
  8
0
100
AcDbLine
 10
2.117990148190372
 20
1.289556007525236
 30
0.0
 11
2.117990148190372
 21
1.278701153806077
 31
0.0
  0
LINE
  5
8E3
330
1E
100
AcDbEntity
  8
0
100
AcDbLine
 10
2.117990148190372
 20
1.278701153806077
 30
0.0
 11
2.117990148190372
 21
1.264228015513863
 31
0.0
  0
LINE
  5
8E4
330
1E
100
AcDbEntity
  8
0
100
AcDbLine
 10
2.117990148190372
 20
1.29317429209829
 30
0.0
 11
2.099898725325105
 21
1.289556007525236
 31
0.0
  0
LINE
  5
8E5
330
1E
100
AcDbEntity
  8
0
100
AcDbLine
 10
2.099898725325105
 20
1.289556007525236
 30
0.0
 11
2.089043871605945
 21
1.278701153806077
 31
0.0
  0
LINE
  5
8E6
330
1E
100
AcDbEntity
  8
0
100
AcDbLine
 10
2.089043871605945
 20
1.278701153806077
 30
0.0
 11
2.085425587032891
 21
1.264228015513863
 31
0.0
  0
LINE
  5
8E7
330
1E
100
AcDbEntity
  8
0
100
AcDbLine
 10
2.085425587032891
 20
1.264228015513863
 30
0.0
 11
2.089043871605945
 21
1.264228015513863
 31
0.0
  0
LINE
  5
8E8
330
1E
100
AcDbEntity
  8
0
100
AcDbLine
 10
2.089043871605945
 20
1.264228015513863
 30
0.0
 11
2.099898725325105
 21
1.264228015513863
 31
0.0
  0
LINE
  5
8E9
330
1E
100
AcDbEntity
  8
0
100
AcDbLine
 10
2.099898725325105
 20
1.264228015513863
 30
0.0
 11
2.117990148190372
 21
1.264228015513863
 31
0.0
  0
LINE
  5
8EA
330
1E
100
AcDbEntity
  8
0
100
AcDbLine
 10
2.08542558703289
 20
1.123114917164782
 30
0.0
 11
2.08542558703289
 21
1.112260063445623
 31
0.0
  0
LINE
  5
8EB
330
1E
100
AcDbEntity
  8
0
100
AcDbLine
 10
2.08542558703289
 20
1.112260063445623
 30
0.0
 11
2.092662156178996
 21
1.101405209726462
 31
0.0
  0
LINE
  5
8EC
330
1E
100
AcDbEntity
  8
0
100
AcDbLine
 10
2.092662156178996
 20
1.101405209726462
 30
0.0
 11
2.099898725325103
 21
1.09778692515341
 31
0.0
  0
LINE
  5
8ED
330
1E
100
AcDbEntity
  8
0
100
AcDbLine
 10
2.099898725325103
 20
1.09778692515341
 30
0.0
 11
2.10713529447121
 21
1.094168640580356
 31
0.0
  0
LINE
  5
8EE
330
1E
100
AcDbEntity
  8
0
100
AcDbLine
 10
2.10713529447121
 20
1.094168640580356
 30
0.0
 11
2.11799014819037
 21
1.090550356007303
 31
0.0
  0
LINE
  5
8EF
330
1E
100
AcDbEntity
  8
0
100
AcDbLine
 10
2.085425587032891
 20
1.593491911661717
 30
0.0
 11
2.085425587032891
 21
1.600728480807824
 31
0.0
  0
LINE
  5
8F0
330
1E
100
AcDbEntity
  8
0
100
AcDbLine
 10
2.085425587032891
 20
1.600728480807824
 30
0.0
 11
2.092662156178998
 21
1.611583334526983
 31
0.0
  0
LINE
  5
8F1
330
1E
100
AcDbEntity
  8
0
100
AcDbLine
 10
2.092662156178998
 20
1.611583334526983
 30
0.0
 11
2.099898725325105
 21
1.61881990367309
 31
0.0
  0
LINE
  5
8F2
330
1E
100
AcDbEntity
  8
0
100
AcDbLine
 10
2.099898725325105
 20
1.61881990367309
 30
0.0
 11
2.107135294471211
 21
1.622438188246144
 31
0.0
  0
LINE
  5
8F3
330
1E
100
AcDbEntity
  8
0
100
AcDbLine
 10
2.107135294471211
 20
1.622438188246144
 30
0.0
 11
2.117990148190372
 21
1.622438188246144
 31
0.0
  0
LINE
  5
8F4
330
1E
100
AcDbEntity
  8
0
100
AcDbLine
 10
2.085425587032891
 20
1.430669105874317
 30
0.0
 11
2.089043871605945
 21
1.430669105874317
 31
0.0
  0
LINE
  5
8F5
330
1E
100
AcDbEntity
  8
0
100
AcDbLine
 10
2.089043871605945
 20
1.430669105874317
 30
0.0
 11
2.099898725325105
 21
1.430669105874317
 31
0.0
  0
LINE
  5
8F6
330
1E
100
AcDbEntity
  8
0
100
AcDbLine
 10
2.099898725325105
 20
1.430669105874317
 30
0.0
 11
2.117990148190372
 21
1.430669105874317
 31
0.0
  0
LINE
  5
8F7
330
1E
100
AcDbEntity
  8
0
100
AcDbLine
 10
2.085425587032891
 20
1.430669105874317
 30
0.0
 11
2.089043871605945
 21
1.416195967582103
 31
0.0
  0
LINE
  5
8F8
330
1E
100
AcDbEntity
  8
0
100
AcDbLine
 10
2.089043871605945
 20
1.416195967582103
 30
0.0
 11
2.099898725325105
 21
1.405341113862942
 31
0.0
  0
LINE
  5
8F9
330
1E
100
AcDbEntity
  8
0
100
AcDbLine
 10
2.099898725325105
 20
1.405341113862942
 30
0.0
 11
2.117990148190372
 21
1.40172282928989
 31
0.0
  0
LINE
  5
8FA
330
1E
100
AcDbEntity
  8
0
100
AcDbLine
 10
2.117990148190372
 20
1.40172282928989
 30
0.0
 11
2.117990148190372
 21
1.405341113862942
 31
0.0
  0
LINE
  5
8FB
330
1E
100
AcDbEntity
  8
0
100
AcDbLine
 10
2.117990148190372
 20
1.405341113862942
 30
0.0
 11
2.117990148190372
 21
1.416195967582103
 31
0.0
  0
LINE
  5
8FC
330
1E
100
AcDbEntity
  8
0
100
AcDbLine
 10
2.117990148190372
 20
1.416195967582103
 30
0.0
 11
2.117990148190372
 21
1.430669105874317
 31
0.0
  0
LINE
  5
8FD
330
1E
100
AcDbEntity
  8
0
100
AcDbLine
 10
2.432780906046012
 20
1.40172282928989
 30
0.0
 11
2.432780906046012
 21
1.405341113862942
 31
0.0
  0
LINE
  5
8FE
330
1E
100
AcDbEntity
  8
0
100
AcDbLine
 10
2.432780906046012
 20
1.405341113862942
 30
0.0
 11
2.432780906046012
 21
1.416195967582103
 31
0.0
  0
LINE
  5
8FF
330
1E
100
AcDbEntity
  8
0
100
AcDbLine
 10
2.432780906046012
 20
1.416195967582103
 30
0.0
 11
2.432780906046012
 21
1.430669105874317
 31
0.0
  0
LINE
  5
900
330
1E
100
AcDbEntity
  8
0
100
AcDbLine
 10
2.432780906046012
 20
1.40172282928989
 30
0.0
 11
2.450872328911278
 21
1.405341113862942
 31
0.0
  0
LINE
  5
901
330
1E
100
AcDbEntity
  8
0
100
AcDbLine
 10
2.450872328911278
 20
1.405341113862942
 30
0.0
 11
2.461727182630438
 21
1.416195967582103
 31
0.0
  0
LINE
  5
902
330
1E
100
AcDbEntity
  8
0
100
AcDbLine
 10
2.461727182630438
 20
1.416195967582103
 30
0.0
 11
2.465345467203492
 21
1.430669105874317
 31
0.0
  0
LINE
  5
903
330
1E
100
AcDbEntity
  8
0
100
AcDbLine
 10
2.465345467203492
 20
1.430669105874317
 30
0.0
 11
2.461727182630438
 21
1.430669105874317
 31
0.0
  0
LINE
  5
904
330
1E
100
AcDbEntity
  8
0
100
AcDbLine
 10
2.461727182630438
 20
1.430669105874317
 30
0.0
 11
2.450872328911278
 21
1.430669105874317
 31
0.0
  0
LINE
  5
905
330
1E
100
AcDbEntity
  8
0
100
AcDbLine
 10
2.450872328911278
 20
1.430669105874317
 30
0.0
 11
2.432780906046012
 21
1.430669105874317
 31
0.0
  0
LINE
  5
906
330
1E
100
AcDbEntity
  8
0
100
AcDbLine
 10
2.465345467203492
 20
1.593491911661717
 30
0.0
 11
2.465345467203492
 21
1.600728480807824
 31
0.0
  0
LINE
  5
907
330
1E
100
AcDbEntity
  8
0
100
AcDbLine
 10
2.465345467203492
 20
1.600728480807824
 30
0.0
 11
2.458108898057386
 21
1.611583334526983
 31
0.0
  0
LINE
  5
908
330
1E
100
AcDbEntity
  8
0
100
AcDbLine
 10
2.458108898057386
 20
1.611583334526983
 30
0.0
 11
2.450872328911278
 21
1.61881990367309
 31
0.0
  0
LINE
  5
909
330
1E
100
AcDbEntity
  8
0
100
AcDbLine
 10
2.450872328911278
 20
1.61881990367309
 30
0.0
 11
2.443635759765173
 21
1.622438188246144
 31
0.0
  0
LINE
  5
90A
330
1E
100
AcDbEntity
  8
0
100
AcDbLine
 10
2.443635759765173
 20
1.622438188246144
 30
0.0
 11
2.432780906046012
 21
1.622438188246144
 31
0.0
  0
LINE
  5
90B
330
1E
100
AcDbEntity
  8
0
100
AcDbLine
 10
2.468963751776547
 20
1.687567310561104
 30
0.0
 11
2.465345467203492
 21
1.698422164280263
 31
0.0
  0
LINE
  5
90C
330
1E
100
AcDbEntity
  8
0
100
AcDbLine
 10
2.465345467203492
 20
1.698422164280263
 30
0.0
 11
2.454490613484334
 21
1.709277017999424
 31
0.0
  0
LINE
  5
90D
330
1E
100
AcDbEntity
  8
0
100
AcDbLine
 10
2.454490613484334
 20
1.709277017999424
 30
0.0
 11
2.44001747519212
 21
1.712895302572477
 31
0.0
  0
LINE
  5
90E
330
1E
100
AcDbEntity
  8
0
100
AcDbLine
 10
2.468963751776544
 20
1.029039518265395
 30
0.0
 11
2.468963751776544
 21
1.007329810827075
 31
0.0
  0
LINE
  5
90F
330
1E
100
AcDbEntity
  8
0
100
AcDbLine
 10
2.468963751776544
 20
1.007329810827075
 30
0.0
 11
2.472582036349596
 21
0.9856201033887559
 31
0.0
  0
LINE
  5
910
330
1E
100
AcDbEntity
  8
0
100
AcDbLine
 10
2.472582036349596
 20
0.9856201033887559
 30
0.0
 11
2.476200320922652
 21
0.9602921113773817
 31
0.0
  0
LINE
  5
911
330
1E
100
AcDbEntity
  8
0
100
AcDbLine
 10
2.476200320922652
 20
0.9602921113773817
 30
0.0
 11
2.479818605495705
 21
0.9313458347929552
 31
0.0
  0
LINE
  5
912
330
1E
100
AcDbEntity
  8
0
100
AcDbLine
 10
2.479818605495705
 20
0.9313458347929552
 30
0.0
 11
2.49791002836097
 21
0.8770715661971561
 31
0.0
  0
LINE
  5
913
330
1E
100
AcDbEntity
  8
0
100
AcDbLine
 10
2.497910028360974
 20
1.839535262629344
 30
0.0
 11
2.490673459214865
 21
1.821443839764077
 31
0.0
  0
LINE
  5
914
330
1E
100
AcDbEntity
  8
0
100
AcDbLine
 10
2.490673459214865
 20
1.821443839764077
 30
0.0
 11
2.479818605495705
 21
1.781642709460491
 31
0.0
  0
LINE
  5
915
330
1E
100
AcDbEntity
  8
0
100
AcDbLine
 10
2.479818605495705
 20
1.781642709460491
 30
0.0
 11
2.476200320922652
 21
1.756314717449117
 31
0.0
  0
LINE
  5
916
330
1E
100
AcDbEntity
  8
0
100
AcDbLine
 10
2.476200320922652
 20
1.756314717449117
 30
0.0
 11
2.4725820363496
 21
1.734605010010796
 31
0.0
  0
LINE
  5
917
330
1E
100
AcDbEntity
  8
0
100
AcDbLine
 10
2.4725820363496
 20
1.734605010010796
 30
0.0
 11
2.468963751776547
 21
1.709277017999424
 31
0.0
  0
LINE
  5
918
330
1E
100
AcDbEntity
  8
0
100
AcDbLine
 10
2.468963751776547
 20
1.709277017999424
 30
0.0
 11
2.468963751776547
 21
1.687567310561104
 31
0.0
  0
LINE
  5
919
330
1E
100
AcDbEntity
  8
0
100
AcDbLine
 10
6.977346329801006
 20
0.8879264199163136
 30
0.0
 11
6.955636622362688
 21
0.8879264199163136
 31
0.0
  0
LINE
  5
91A
330
1E
100
AcDbEntity
  8
0
100
AcDbLine
 10
6.955636622362688
 20
0.8879264199163136
 30
0.0
 11
6.944781768643527
 21
0.8915447044893676
 31
0.0
  0
LINE
  5
91B
330
1E
100
AcDbEntity
  8
0
100
AcDbLine
 10
6.977346329801006
 20
0.9132544119276879
 30
0.0
 11
6.959254906935741
 21
0.9132544119276879
 31
0.0
  0
LINE
  5
91C
330
1E
100
AcDbEntity
  8
0
100
AcDbLine
 10
6.959254906935741
 20
0.9132544119276879
 30
0.0
 11
6.94840005321658
 21
0.9132544119276879
 31
0.0
  0
LINE
  5
91D
330
1E
100
AcDbEntity
  8
0
100
AcDbLine
 10
6.94840005321658
 20
0.9132544119276879
 30
0.0
 11
6.944781768643527
 21
0.9132544119276879
 31
0.0
  0
LINE
  5
91E
330
1E
100
AcDbEntity
  8
0
100
AcDbLine
 10
6.977346329801009
 20
1.293174292098288
 30
0.0
 11
6.959254906935741
 21
1.289556007525234
 31
0.0
  0
LINE
  5
91F
330
1E
100
AcDbEntity
  8
0
100
AcDbLine
 10
6.959254906935741
 20
1.289556007525234
 30
0.0
 11
6.948400053216583
 21
1.278701153806075
 31
0.0
  0
LINE
  5
920
330
1E
100
AcDbEntity
  8
0
100
AcDbLine
 10
6.948400053216583
 20
1.278701153806075
 30
0.0
 11
6.944781768643527
 21
1.260609730940807
 31
0.0
  0
LINE
  5
921
330
1E
100
AcDbEntity
  8
0
100
AcDbLine
 10
6.977346329801009
 20
1.296792576671341
 30
0.0
 11
6.970109760654902
 21
1.293174292098288
 31
0.0
  0
LINE
  5
922
330
1E
100
AcDbEntity
  8
0
100
AcDbLine
 10
6.970109760654902
 20
1.293174292098288
 30
0.0
 11
6.959254906935741
 21
1.289556007525234
 31
0.0
  0
LINE
  5
923
330
1E
100
AcDbEntity
  8
0
100
AcDbLine
 10
6.959254906935741
 20
1.289556007525234
 30
0.0
 11
6.952018337789636
 21
1.282319438379127
 31
0.0
  0
LINE
  5
924
330
1E
100
AcDbEntity
  8
0
100
AcDbLine
 10
6.952018337789636
 20
1.282319438379127
 30
0.0
 11
6.948400053216583
 21
1.275082869233021
 31
0.0
  0
LINE
  5
925
330
1E
100
AcDbEntity
  8
0
100
AcDbLine
 10
6.948400053216583
 20
1.275082869233021
 30
0.0
 11
6.944781768643527
 21
1.264228015513861
 31
0.0
  0
LINE
  5
926
330
1E
100
AcDbEntity
  8
0
100
AcDbLine
 10
6.977346329801009
 20
1.419814252155154
 30
0.0
 11
6.970109760654902
 21
1.419814252155154
 31
0.0
  0
LINE
  5
927
330
1E
100
AcDbEntity
  8
0
100
AcDbLine
 10
6.970109760654902
 20
1.419814252155154
 30
0.0
 11
6.959254906935741
 21
1.427050821301261
 31
0.0
  0
LINE
  5
928
330
1E
100
AcDbEntity
  8
0
100
AcDbLine
 10
6.959254906935741
 20
1.427050821301261
 30
0.0
 11
6.952018337789636
 21
1.434287390447367
 31
0.0
  0
LINE
  5
929
330
1E
100
AcDbEntity
  8
0
100
AcDbLine
 10
6.952018337789636
 20
1.434287390447367
 30
0.0
 11
6.948400053216583
 21
1.441523959593474
 31
0.0
  0
LINE
  5
92A
330
1E
100
AcDbEntity
  8
0
100
AcDbLine
 10
6.948400053216583
 20
1.441523959593474
 30
0.0
 11
6.944781768643527
 21
1.452378813312635
 31
0.0
  0
LINE
  5
92B
330
1E
100
AcDbEntity
  8
0
100
AcDbLine
 10
6.977346329801009
 20
1.423432536728208
 30
0.0
 11
6.959254906935741
 21
1.427050821301261
 31
0.0
  0
LINE
  5
92C
330
1E
100
AcDbEntity
  8
0
100
AcDbLine
 10
6.959254906935741
 20
1.427050821301261
 30
0.0
 11
6.948400053216583
 21
1.437905675020422
 31
0.0
  0
LINE
  5
92D
330
1E
100
AcDbEntity
  8
0
100
AcDbLine
 10
6.948400053216583
 20
1.437905675020422
 30
0.0
 11
6.944781768643527
 21
1.452378813312635
 31
0.0
  0
LINE
  5
92E
330
1E
100
AcDbEntity
  8
0
100
AcDbLine
 10
6.977346329801009
 20
1.803352416898809
 30
0.0
 11
6.959254906935741
 21
1.803352416898809
 31
0.0
  0
LINE
  5
92F
330
1E
100
AcDbEntity
  8
0
100
AcDbLine
 10
6.959254906935741
 20
1.803352416898809
 30
0.0
 11
6.948400053216583
 21
1.803352416898809
 31
0.0
  0
LINE
  5
930
330
1E
100
AcDbEntity
  8
0
100
AcDbLine
 10
6.948400053216583
 20
1.803352416898809
 30
0.0
 11
6.944781768643527
 21
1.803352416898809
 31
0.0
  0
LINE
  5
931
330
1E
100
AcDbEntity
  8
0
100
AcDbLine
 10
6.977346329801009
 20
1.828680408910182
 30
0.0
 11
6.955636622362688
 21
1.825062124337129
 31
0.0
  0
LINE
  5
932
330
1E
100
AcDbEntity
  8
0
100
AcDbLine
 10
6.955636622362688
 20
1.825062124337129
 30
0.0
 11
6.944781768643527
 21
1.825062124337129
 31
0.0
  0
LINE
  5
933
330
1E
100
AcDbEntity
  8
0
100
AcDbLine
 10
2.566657435248985
 20
1.061604079422876
 30
0.0
 11
2.566657435248985
 21
1.032657802838448
 31
0.0
  0
LINE
  5
934
330
1E
100
AcDbEntity
  8
0
100
AcDbLine
 10
2.566657435248985
 20
1.032657802838448
 30
0.0
 11
2.570275719822037
 21
1.007329810827075
 31
0.0
  0
LINE
  5
935
330
1E
100
AcDbEntity
  8
0
100
AcDbLine
 10
2.570275719822037
 20
1.007329810827075
 30
0.0
 11
2.581130573541198
 21
0.9494372576582227
 31
0.0
  0
LINE
  5
936
330
1E
100
AcDbEntity
  8
0
100
AcDbLine
 10
2.581130573541198
 20
0.9494372576582227
 30
0.0
 11
2.591985427260359
 21
0.9132544119276893
 31
0.0
  0
LINE
  5
937
330
1E
100
AcDbEntity
  8
0
100
AcDbLine
 10
2.591985427260359
 20
0.9132544119276893
 30
0.0
 11
2.606458565552572
 21
0.8734532816241017
 31
0.0
  0
LINE
  5
938
330
1E
100
AcDbEntity
  8
0
100
AcDbLine
 10
2.606458565552572
 20
0.8734532816241017
 30
0.0
 11
2.624549988417838
 21
0.8264155821744093
 31
0.0
  0
LINE
  5
939
330
1E
100
AcDbEntity
  8
0
100
AcDbLine
 10
2.624549988417838
 20
0.8264155821744093
 30
0.0
 11
2.64625969585616
 21
0.7793778827247153
 31
0.0
  0
LINE
  5
93A
330
1E
100
AcDbEntity
  8
0
100
AcDbLine
 10
2.64625969585616
 20
0.7793778827247153
 30
0.0
 11
2.6896791107328
 21
0.6853024838253285
 31
0.0
  0
LINE
  5
93B
330
1E
100
AcDbEntity
  8
0
100
AcDbLine
 10
2.6896791107328
 20
1.090550356007303
 30
0.0
 11
2.664351118721425
 21
1.094168640580356
 31
0.0
  0
LINE
  5
93C
330
1E
100
AcDbEntity
  8
0
100
AcDbLine
 10
2.664351118721425
 20
1.094168640580356
 30
0.0
 11
2.642641411283104
 21
1.101405209726462
 31
0.0
  0
LINE
  5
93D
330
1E
100
AcDbEntity
  8
0
100
AcDbLine
 10
2.642641411283104
 20
1.101405209726462
 30
0.0
 11
2.624549988417838
 21
1.112260063445623
 31
0.0
  0
LINE
  5
93E
330
1E
100
AcDbEntity
  8
0
100
AcDbLine
 10
2.624549988417838
 20
1.112260063445623
 30
0.0
 11
2.606458565552572
 21
1.123114917164782
 31
0.0
  0
LINE
  5
93F
330
1E
100
AcDbEntity
  8
0
100
AcDbLine
 10
2.606458565552572
 20
1.123114917164782
 30
0.0
 11
2.591985427260359
 21
1.137588055456996
 31
0.0
  0
LINE
  5
940
330
1E
100
AcDbEntity
  8
0
100
AcDbLine
 10
2.591985427260359
 20
1.137588055456996
 30
0.0
 11
2.581130573541198
 21
1.155679478322263
 31
0.0
  0
LINE
  5
941
330
1E
100
AcDbEntity
  8
0
100
AcDbLine
 10
2.581130573541198
 20
1.155679478322263
 30
0.0
 11
2.573894004395093
 21
1.177389185760583
 31
0.0
  0
LINE
  5
942
330
1E
100
AcDbEntity
  8
0
100
AcDbLine
 10
2.573894004395093
 20
1.177389185760583
 30
0.0
 11
2.566657435248985
 21
1.195480608625849
 31
0.0
  0
LINE
  5
943
330
1E
100
AcDbEntity
  8
0
100
AcDbLine
 10
2.566657435248985
 20
1.195480608625849
 30
0.0
 11
2.566657435248985
 21
1.217190316064169
 31
0.0
  0
LINE
  5
944
330
1E
100
AcDbEntity
  8
0
100
AcDbLine
 10
2.6896791107328
 20
2.031304345001172
 30
0.0
 11
2.64625969585616
 21
1.937228946101783
 31
0.0
  0
LINE
  5
945
330
1E
100
AcDbEntity
  8
0
100
AcDbLine
 10
2.64625969585616
 20
1.937228946101783
 30
0.0
 11
2.624549988417838
 21
1.890191246652091
 31
0.0
  0
LINE
  5
946
330
1E
100
AcDbEntity
  8
0
100
AcDbLine
 10
2.624549988417838
 20
1.890191246652091
 30
0.0
 11
2.606458565552572
 21
1.843153547202397
 31
0.0
  0
LINE
  5
947
330
1E
100
AcDbEntity
  8
0
100
AcDbLine
 10
2.606458565552572
 20
1.843153547202397
 30
0.0
 11
2.591985427260359
 21
1.803352416898811
 31
0.0
  0
LINE
  5
948
330
1E
100
AcDbEntity
  8
0
100
AcDbLine
 10
2.591985427260359
 20
1.803352416898811
 30
0.0
 11
2.581130573541198
 21
1.767169571168277
 31
0.0
  0
LINE
  5
949
330
1E
100
AcDbEntity
  8
0
100
AcDbLine
 10
2.581130573541198
 20
1.767169571168277
 30
0.0
 11
2.57027571982204
 21
1.709277017999424
 31
0.0
  0
LINE
  5
94A
330
1E
100
AcDbEntity
  8
0
100
AcDbLine
 10
2.57027571982204
 20
1.709277017999424
 30
0.0
 11
2.566657435248985
 21
1.68394902598805
 31
0.0
  0
LINE
  5
94B
330
1E
100
AcDbEntity
  8
0
100
AcDbLine
 10
2.566657435248985
 20
1.68394902598805
 30
0.0
 11
2.566657435248985
 21
1.655002749403623
 31
0.0
  0
LINE
  5
94C
330
1E
100
AcDbEntity
  8
0
100
AcDbLine
 10
2.566657435248985
 20
1.499416512762329
 30
0.0
 11
2.57027571982204
 21
1.524744504773703
 31
0.0
  0
LINE
  5
94D
330
1E
100
AcDbEntity
  8
0
100
AcDbLine
 10
2.57027571982204
 20
1.524744504773703
 30
0.0
 11
2.573894004395093
 21
1.546454212212023
 31
0.0
  0
LINE
  5
94E
330
1E
100
AcDbEntity
  8
0
100
AcDbLine
 10
2.573894004395093
 20
1.546454212212023
 30
0.0
 11
2.584748858114254
 21
1.564545635077291
 31
0.0
  0
LINE
  5
94F
330
1E
100
AcDbEntity
  8
0
100
AcDbLine
 10
2.584748858114254
 20
1.564545635077291
 30
0.0
 11
2.595603711833411
 21
1.582637057942557
 31
0.0
  0
LINE
  5
950
330
1E
100
AcDbEntity
  8
0
100
AcDbLine
 10
2.595603711833411
 20
1.582637057942557
 30
0.0
 11
2.61369513469868
 21
1.59711019623477
 31
0.0
  0
LINE
  5
951
330
1E
100
AcDbEntity
  8
0
100
AcDbLine
 10
2.61369513469868
 20
1.59711019623477
 30
0.0
 11
2.631786557563946
 21
1.607965049953931
 31
0.0
  0
LINE
  5
952
330
1E
100
AcDbEntity
  8
0
100
AcDbLine
 10
2.631786557563946
 20
1.607965049953931
 30
0.0
 11
2.649877980429212
 21
1.615201619100037
 31
0.0
  0
LINE
  5
953
330
1E
100
AcDbEntity
  8
0
100
AcDbLine
 10
2.649877980429212
 20
1.615201619100037
 30
0.0
 11
2.667969403294482
 21
1.622438188246144
 31
0.0
  0
LINE
  5
954
330
1E
100
AcDbEntity
  8
0
100
AcDbLine
 10
2.667969403294482
 20
1.622438188246144
 30
0.0
 11
2.6896791107328
 21
1.622438188246144
 31
0.0
  0
LINE
  5
955
330
1E
100
AcDbEntity
  8
0
100
AcDbLine
 10
6.915835492059101
 20
0.6853024838253269
 30
0.0
 11
6.915835492059101
 21
0.6925390529714335
 31
0.0
  0
LINE
  5
956
330
1E
100
AcDbEntity
  8
0
100
AcDbLine
 10
6.915835492059101
 20
0.6925390529714335
 30
0.0
 11
6.930308630351314
 21
0.772141313578607
 31
0.0
  0
LINE
  5
957
330
1E
100
AcDbEntity
  8
0
100
AcDbLine
 10
6.930308630351314
 20
0.772141313578607
 30
0.0
 11
6.937545199497419
 21
0.8300338667474601
 31
0.0
  0
LINE
  5
958
330
1E
100
AcDbEntity
  8
0
100
AcDbLine
 10
6.937545199497419
 20
0.8300338667474601
 30
0.0
 11
6.944781768643527
 21
0.8915447044893676
 31
0.0
  0
LINE
  5
959
330
1E
100
AcDbEntity
  8
0
100
AcDbLine
 10
6.944781768643527
 20
1.123114917164781
 30
0.0
 11
6.944781768643527
 21
1.115878348018674
 31
0.0
  0
LINE
  5
95A
330
1E
100
AcDbEntity
  8
0
100
AcDbLine
 10
6.944781768643527
 20
1.115878348018674
 30
0.0
 11
6.941163484070475
 21
1.105023494299515
 31
0.0
  0
LINE
  5
95B
330
1E
100
AcDbEntity
  8
0
100
AcDbLine
 10
6.941163484070475
 20
1.105023494299515
 30
0.0
 11
6.933926914924366
 21
1.097786925153408
 31
0.0
  0
LINE
  5
95C
330
1E
100
AcDbEntity
  8
0
100
AcDbLine
 10
6.933926914924366
 20
1.097786925153408
 30
0.0
 11
6.923072061205205
 21
1.094168640580354
 31
0.0
  0
LINE
  5
95D
330
1E
100
AcDbEntity
  8
0
100
AcDbLine
 10
6.923072061205205
 20
1.094168640580354
 30
0.0
 11
6.915835492059101
 21
1.090550356007301
 31
0.0
  0
LINE
  5
95E
330
1E
100
AcDbEntity
  8
0
100
AcDbLine
 10
6.944781768643527
 20
1.825062124337129
 30
0.0
 11
6.941163484070475
 21
1.864863254640715
 31
0.0
  0
LINE
  5
95F
330
1E
100
AcDbEntity
  8
0
100
AcDbLine
 10
6.941163484070475
 20
1.864863254640715
 30
0.0
 11
6.937545199497423
 21
1.901046100371248
 31
0.0
  0
LINE
  5
960
330
1E
100
AcDbEntity
  8
0
100
AcDbLine
 10
6.937545199497423
 20
1.901046100371248
 30
0.0
 11
6.926690345778262
 21
1.966175222686208
 31
0.0
  0
LINE
  5
961
330
1E
100
AcDbEntity
  8
0
100
AcDbLine
 10
6.926690345778262
 20
1.966175222686208
 30
0.0
 11
6.915835492059101
 21
2.03130434500117
 31
0.0
  0
LINE
  5
962
330
1E
100
AcDbEntity
  8
0
100
AcDbLine
 10
6.915835492059101
 20
1.622438188246142
 30
0.0
 11
6.919453776632156
 21
1.622438188246142
 31
0.0
  0
LINE
  5
963
330
1E
100
AcDbEntity
  8
0
100
AcDbLine
 10
6.919453776632156
 20
1.622438188246142
 30
0.0
 11
6.930308630351314
 21
1.618819903673088
 31
0.0
  0
LINE
  5
964
330
1E
100
AcDbEntity
  8
0
100
AcDbLine
 10
6.930308630351314
 20
1.618819903673088
 30
0.0
 11
6.937545199497423
 21
1.611583334526982
 31
0.0
  0
LINE
  5
965
330
1E
100
AcDbEntity
  8
0
100
AcDbLine
 10
6.937545199497423
 20
1.611583334526982
 30
0.0
 11
6.944781768643527
 21
1.604346765380875
 31
0.0
  0
LINE
  5
966
330
1E
100
AcDbEntity
  8
0
100
AcDbLine
 10
6.944781768643527
 20
1.604346765380875
 30
0.0
 11
6.944781768643527
 21
1.593491911661716
 31
0.0
  0
LINE
  5
967
330
1E
100
AcDbEntity
  8
0
100
AcDbLine
 10
6.977346329801009
 20
1.803352416898809
 30
0.0
 11
6.977346329801009
 21
1.745459863729956
 31
0.0
  0
LINE
  5
968
330
1E
100
AcDbEntity
  8
0
100
AcDbLine
 10
6.977346329801009
 20
1.745459863729956
 30
0.0
 11
6.977346329801009
 21
1.687567310561102
 31
0.0
  0
LINE
  5
969
330
1E
100
AcDbEntity
  8
0
100
AcDbLine
 10
6.977346329801009
 20
1.687567310561102
 30
0.0
 11
6.977346329801009
 21
1.633293041965302
 31
0.0
  0
LINE
  5
96A
330
1E
100
AcDbEntity
  8
0
100
AcDbLine
 10
6.977346329801009
 20
1.633293041965302
 30
0.0
 11
6.977346329801009
 21
1.586255342515609
 31
0.0
  0
LINE
  5
96B
330
1E
100
AcDbEntity
  8
0
100
AcDbLine
 10
6.977346329801009
 20
1.586255342515609
 30
0.0
 11
6.977346329801009
 21
1.542835927638969
 31
0.0
  0
LINE
  5
96C
330
1E
100
AcDbEntity
  8
0
100
AcDbLine
 10
6.977346329801009
 20
1.542835927638969
 30
0.0
 11
6.977346329801009
 21
1.503034797335381
 31
0.0
  0
LINE
  5
96D
330
1E
100
AcDbEntity
  8
0
100
AcDbLine
 10
6.977346329801009
 20
1.503034797335381
 30
0.0
 11
6.977346329801009
 21
1.470470236177901
 31
0.0
  0
LINE
  5
96E
330
1E
100
AcDbEntity
  8
0
100
AcDbLine
 10
6.977346329801009
 20
1.470470236177901
 30
0.0
 11
6.977346329801009
 21
1.448760528739581
 31
0.0
  0
LINE
  5
96F
330
1E
100
AcDbEntity
  8
0
100
AcDbLine
 10
6.977346329801009
 20
1.448760528739581
 30
0.0
 11
6.977346329801009
 21
1.430669105874315
 31
0.0
  0
LINE
  5
970
330
1E
100
AcDbEntity
  8
0
100
AcDbLine
 10
6.977346329801009
 20
1.430669105874315
 30
0.0
 11
6.977346329801009
 21
1.423432536728208
 31
0.0
  0
LINE
  5
971
330
1E
100
AcDbEntity
  8
0
100
AcDbLine
 10
7.009910890958489
 20
1.423432536728208
 30
0.0
 11
7.009910890958489
 21
1.430669105874315
 31
0.0
  0
LINE
  5
972
330
1E
100
AcDbEntity
  8
0
100
AcDbLine
 10
7.009910890958489
 20
1.430669105874315
 30
0.0
 11
7.009910890958489
 21
1.445142244166528
 31
0.0
  0
LINE
  5
973
330
1E
100
AcDbEntity
  8
0
100
AcDbLine
 10
7.009910890958489
 20
1.445142244166528
 30
0.0
 11
7.009910890958489
 21
1.466851951604848
 31
0.0
  0
LINE
  5
974
330
1E
100
AcDbEntity
  8
0
100
AcDbLine
 10
7.009910890958489
 20
1.466851951604848
 30
0.0
 11
7.013529175531542
 21
1.495798228189275
 31
0.0
  0
LINE
  5
975
330
1E
100
AcDbEntity
  8
0
100
AcDbLine
 10
7.013529175531542
 20
1.495798228189275
 30
0.0
 11
7.013529175531542
 21
1.531981073919808
 31
0.0
  0
LINE
  5
976
330
1E
100
AcDbEntity
  8
0
100
AcDbLine
 10
7.013529175531542
 20
1.531981073919808
 30
0.0
 11
7.013529175531542
 21
1.571782204223396
 31
0.0
  0
LINE
  5
977
330
1E
100
AcDbEntity
  8
0
100
AcDbLine
 10
7.013529175531542
 20
1.571782204223396
 30
0.0
 11
7.013529175531542
 21
1.618819903673088
 31
0.0
  0
LINE
  5
978
330
1E
100
AcDbEntity
  8
0
100
AcDbLine
 10
7.013529175531542
 20
1.618819903673088
 30
0.0
 11
7.013529175531542
 21
1.665857603122782
 31
0.0
  0
LINE
  5
979
330
1E
100
AcDbEntity
  8
0
100
AcDbLine
 10
7.013529175531542
 20
1.665857603122782
 30
0.0
 11
7.013529175531542
 21
1.720131871718582
 31
0.0
  0
LINE
  5
97A
330
1E
100
AcDbEntity
  8
0
100
AcDbLine
 10
7.013529175531542
 20
1.720131871718582
 30
0.0
 11
7.013529175531542
 21
1.774406140314382
 31
0.0
  0
LINE
  5
97B
330
1E
100
AcDbEntity
  8
0
100
AcDbLine
 10
7.013529175531542
 20
1.774406140314382
 30
0.0
 11
7.013529175531542
 21
1.828680408910182
 31
0.0
  0
LINE
  5
97C
330
1E
100
AcDbEntity
  8
0
100
AcDbLine
 10
6.977346329801009
 20
1.293174292098288
 30
0.0
 11
6.977346329801009
 21
1.285937722952181
 31
0.0
  0
LINE
  5
97D
330
1E
100
AcDbEntity
  8
0
100
AcDbLine
 10
6.977346329801009
 20
1.285937722952181
 30
0.0
 11
6.977346329801009
 21
1.267846300086914
 31
0.0
  0
LINE
  5
97E
330
1E
100
AcDbEntity
  8
0
100
AcDbLine
 10
6.977346329801009
 20
1.267846300086914
 30
0.0
 11
6.977346329801009
 21
1.246136592648594
 31
0.0
  0
LINE
  5
97F
330
1E
100
AcDbEntity
  8
0
100
AcDbLine
 10
6.977346329801009
 20
1.246136592648594
 30
0.0
 11
6.977346329801009
 21
1.213572031491115
 31
0.0
  0
LINE
  5
980
330
1E
100
AcDbEntity
  8
0
100
AcDbLine
 10
6.977346329801009
 20
1.213572031491115
 30
0.0
 11
6.977346329801009
 21
1.173770901187527
 31
0.0
  0
LINE
  5
981
330
1E
100
AcDbEntity
  8
0
100
AcDbLine
 10
6.977346329801009
 20
1.173770901187527
 30
0.0
 11
6.977346329801006
 21
1.130351486310887
 31
0.0
  0
LINE
  5
982
330
1E
100
AcDbEntity
  8
0
100
AcDbLine
 10
6.977346329801006
 20
1.130351486310887
 30
0.0
 11
6.977346329801006
 21
1.079695502288141
 31
0.0
  0
LINE
  5
983
330
1E
100
AcDbEntity
  8
0
100
AcDbLine
 10
6.977346329801006
 20
1.079695502288141
 30
0.0
 11
6.977346329801006
 21
1.029039518265394
 31
0.0
  0
LINE
  5
984
330
1E
100
AcDbEntity
  8
0
100
AcDbLine
 10
6.977346329801006
 20
1.029039518265394
 30
0.0
 11
6.977346329801006
 21
0.9711469650965412
 31
0.0
  0
LINE
  5
985
330
1E
100
AcDbEntity
  8
0
100
AcDbLine
 10
6.977346329801006
 20
0.9711469650965412
 30
0.0
 11
6.977346329801006
 21
0.9132544119276879
 31
0.0
  0
LINE
  5
986
330
1E
100
AcDbEntity
  8
0
100
AcDbLine
 10
7.013529175531542
 20
0.8879264199163136
 30
0.0
 11
7.013529175531542
 21
0.9422006885121144
 31
0.0
  0
LINE
  5
987
330
1E
100
AcDbEntity
  8
0
100
AcDbLine
 10
7.013529175531542
 20
0.9422006885121144
 30
0.0
 11
7.013529175531542
 21
0.9964749571079137
 31
0.0
  0
LINE
  5
988
330
1E
100
AcDbEntity
  8
0
100
AcDbLine
 10
7.013529175531542
 20
0.9964749571079137
 30
0.0
 11
7.013529175531542
 21
1.050749225703714
 31
0.0
  0
LINE
  5
989
330
1E
100
AcDbEntity
  8
0
100
AcDbLine
 10
7.013529175531542
 20
1.050749225703714
 30
0.0
 11
7.013529175531542
 21
1.097786925153408
 31
0.0
  0
LINE
  5
98A
330
1E
100
AcDbEntity
  8
0
100
AcDbLine
 10
7.013529175531542
 20
1.097786925153408
 30
0.0
 11
7.013529175531542
 21
1.144824624603101
 31
0.0
  0
LINE
  5
98B
330
1E
100
AcDbEntity
  8
0
100
AcDbLine
 10
7.013529175531542
 20
1.144824624603101
 30
0.0
 11
7.013529175531542
 21
1.184625754906688
 31
0.0
  0
LINE
  5
98C
330
1E
100
AcDbEntity
  8
0
100
AcDbLine
 10
7.013529175531542
 20
1.184625754906688
 30
0.0
 11
7.013529175531542
 21
1.220808600637221
 31
0.0
  0
LINE
  5
98D
330
1E
100
AcDbEntity
  8
0
100
AcDbLine
 10
7.013529175531542
 20
1.220808600637221
 30
0.0
 11
7.009910890958489
 21
1.249754877221648
 31
0.0
  0
LINE
  5
98E
330
1E
100
AcDbEntity
  8
0
100
AcDbLine
 10
7.009910890958489
 20
1.249754877221648
 30
0.0
 11
7.009910890958489
 21
1.271464584659968
 31
0.0
  0
LINE
  5
98F
330
1E
100
AcDbEntity
  8
0
100
AcDbLine
 10
7.009910890958489
 20
1.271464584659968
 30
0.0
 11
7.009910890958489
 21
1.285937722952181
 31
0.0
  0
LINE
  5
990
330
1E
100
AcDbEntity
  8
0
100
AcDbLine
 10
7.009910890958489
 20
1.285937722952181
 30
0.0
 11
7.009910890958489
 21
1.293174292098288
 31
0.0
  0
LINE
  5
991
330
1E
100
AcDbEntity
  8
0
100
AcDbLine
 10
2.11799014819037
 20
1.090550356007303
 30
0.0
 11
2.114371863617316
 21
1.086932071434249
 31
0.0
  0
LINE
  5
992
330
1E
100
AcDbEntity
  8
0
100
AcDbLine
 10
2.114371863617316
 20
1.086932071434249
 30
0.0
 11
2.114371863617316
 21
1.07607721771509
 31
0.0
  0
LINE
  5
993
330
1E
100
AcDbEntity
  8
0
100
AcDbLine
 10
2.114371863617316
 20
1.07607721771509
 30
0.0
 11
2.114371863617316
 21
1.054367510276768
 31
0.0
  0
LINE
  5
994
330
1E
100
AcDbEntity
  8
0
100
AcDbLine
 10
2.114371863617316
 20
1.054367510276768
 30
0.0
 11
2.114371863617316
 21
1.029039518265395
 31
0.0
  0
LINE
  5
995
330
1E
100
AcDbEntity
  8
0
100
AcDbLine
 10
2.114371863617316
 20
1.029039518265395
 30
0.0
 11
2.110753579044264
 21
0.9928566725348627
 31
0.0
  0
LINE
  5
996
330
1E
100
AcDbEntity
  8
0
100
AcDbLine
 10
2.110753579044264
 20
0.9928566725348627
 30
0.0
 11
2.110753579044264
 21
0.9530555422312751
 31
0.0
  0
LINE
  5
997
330
1E
100
AcDbEntity
  8
0
100
AcDbLine
 10
2.110753579044264
 20
0.9530555422312751
 30
0.0
 11
2.110753579044264
 21
0.9060178427815827
 31
0.0
  0
LINE
  5
998
330
1E
100
AcDbEntity
  8
0
100
AcDbLine
 10
2.110753579044264
 20
0.9060178427815827
 30
0.0
 11
2.110753579044264
 21
0.855361858758836
 31
0.0
  0
LINE
  5
999
330
1E
100
AcDbEntity
  8
0
100
AcDbLine
 10
2.110753579044264
 20
0.855361858758836
 30
0.0
 11
2.110753579044264
 21
0.8010875901630353
 31
0.0
  0
LINE
  5
99A
330
1E
100
AcDbEntity
  8
0
100
AcDbLine
 10
2.110753579044264
 20
0.8010875901630353
 30
0.0
 11
2.110753579044264
 21
0.7431950369941819
 31
0.0
  0
LINE
  5
99B
330
1E
100
AcDbEntity
  8
0
100
AcDbLine
 10
2.110753579044264
 20
0.7431950369941819
 30
0.0
 11
2.110753579044264
 21
0.6853024838253285
 31
0.0
  0
LINE
  5
99C
330
1E
100
AcDbEntity
  8
0
100
AcDbLine
 10
2.440017475192117
 20
1.003711526254021
 30
0.0
 11
2.436399190619065
 21
1.036276087411502
 31
0.0
  0
LINE
  5
99D
330
1E
100
AcDbEntity
  8
0
100
AcDbLine
 10
2.436399190619065
 20
1.036276087411502
 30
0.0
 11
2.436399190619065
 21
1.057985794849822
 31
0.0
  0
LINE
  5
99E
330
1E
100
AcDbEntity
  8
0
100
AcDbLine
 10
2.436399190619065
 20
1.057985794849822
 30
0.0
 11
2.436399190619065
 21
1.07607721771509
 31
0.0
  0
LINE
  5
99F
330
1E
100
AcDbEntity
  8
0
100
AcDbLine
 10
2.436399190619065
 20
1.07607721771509
 30
0.0
 11
2.436399190619065
 21
1.086932071434249
 31
0.0
  0
LINE
  5
9A0
330
1E
100
AcDbEntity
  8
0
100
AcDbLine
 10
2.436399190619065
 20
1.086932071434249
 30
0.0
 11
2.432780906046012
 21
1.090550356007303
 31
0.0
  0
LINE
  5
9A1
330
1E
100
AcDbEntity
  8
0
100
AcDbLine
 10
2.548566012383719
 20
0.6853024838253285
 30
0.0
 11
2.534092874091506
 21
0.7142487604097552
 31
0.0
  0
LINE
  5
9A2
330
1E
100
AcDbEntity
  8
0
100
AcDbLine
 10
2.534092874091506
 20
0.7142487604097552
 30
0.0
 11
2.516001451226236
 21
0.7431950369941819
 31
0.0
  0
LINE
  5
9A3
330
1E
100
AcDbEntity
  8
0
100
AcDbLine
 10
2.516001451226236
 20
0.7431950369941819
 30
0.0
 11
2.501528312934023
 21
0.7721413135786087
 31
0.0
  0
LINE
  5
9A4
330
1E
100
AcDbEntity
  8
0
100
AcDbLine
 10
2.501528312934023
 20
0.7721413135786087
 30
0.0
 11
2.48705517464181
 21
0.8047058747360892
 31
0.0
  0
LINE
  5
9A5
330
1E
100
AcDbEntity
  8
0
100
AcDbLine
 10
2.48705517464181
 20
0.8047058747360892
 30
0.0
 11
2.476200320922652
 21
0.8300338667474619
 31
0.0
  0
LINE
  5
9A6
330
1E
100
AcDbEntity
  8
0
100
AcDbLine
 10
2.476200320922652
 20
0.8300338667474619
 30
0.0
 11
2.458108898057383
 21
0.8843081353432628
 31
0.0
  0
LINE
  5
9A7
330
1E
100
AcDbEntity
  8
0
100
AcDbLine
 10
2.458108898057383
 20
0.8843081353432628
 30
0.0
 11
2.450872328911278
 21
0.9096361273546351
 31
0.0
  0
LINE
  5
9A8
330
1E
100
AcDbEntity
  8
0
100
AcDbLine
 10
2.450872328911278
 20
0.9096361273546351
 30
0.0
 11
2.447254044338225
 21
0.9349641193660094
 31
0.0
  0
LINE
  5
9A9
330
1E
100
AcDbEntity
  8
0
100
AcDbLine
 10
2.447254044338225
 20
0.9349641193660094
 30
0.0
 11
2.440017475192117
 21
0.9602921113773817
 31
0.0
  0
LINE
  5
9AA
330
1E
100
AcDbEntity
  8
0
100
AcDbLine
 10
2.440017475192117
 20
0.9602921113773817
 30
0.0
 11
2.440017475192117
 21
0.9820018188157019
 31
0.0
  0
LINE
  5
9AB
330
1E
100
AcDbEntity
  8
0
100
AcDbLine
 10
2.440017475192117
 20
0.9820018188157019
 30
0.0
 11
2.440017475192117
 21
1.003711526254021
 31
0.0
  0
LINE
  5
9AC
330
1E
100
AcDbEntity
  8
0
100
AcDbLine
 10
2.44001747519212
 20
1.712895302572477
 30
0.0
 11
2.44001747519212
 21
1.734605010010796
 31
0.0
  0
LINE
  5
9AD
330
1E
100
AcDbEntity
  8
0
100
AcDbLine
 10
2.44001747519212
 20
1.734605010010796
 30
0.0
 11
2.44001747519212
 21
1.756314717449117
 31
0.0
  0
LINE
  5
9AE
330
1E
100
AcDbEntity
  8
0
100
AcDbLine
 10
2.44001747519212
 20
1.756314717449117
 30
0.0
 11
2.443635759765173
 21
1.781642709460491
 31
0.0
  0
LINE
  5
9AF
330
1E
100
AcDbEntity
  8
0
100
AcDbLine
 10
2.443635759765173
 20
1.781642709460491
 30
0.0
 11
2.450872328911278
 21
1.806970701471863
 31
0.0
  0
LINE
  5
9B0
330
1E
100
AcDbEntity
  8
0
100
AcDbLine
 10
2.450872328911278
 20
1.806970701471863
 30
0.0
 11
2.458108898057386
 21
1.832298693483237
 31
0.0
  0
LINE
  5
9B1
330
1E
100
AcDbEntity
  8
0
100
AcDbLine
 10
2.458108898057386
 20
1.832298693483237
 30
0.0
 11
2.476200320922652
 21
1.886572962079037
 31
0.0
  0
LINE
  5
9B2
330
1E
100
AcDbEntity
  8
0
100
AcDbLine
 10
2.476200320922652
 20
1.886572962079037
 30
0.0
 11
2.487055174641813
 21
1.911900954090411
 31
0.0
  0
LINE
  5
9B3
330
1E
100
AcDbEntity
  8
0
100
AcDbLine
 10
2.487055174641813
 20
1.911900954090411
 30
0.0
 11
2.501528312934027
 21
1.940847230674837
 31
0.0
  0
LINE
  5
9B4
330
1E
100
AcDbEntity
  8
0
100
AcDbLine
 10
2.501528312934027
 20
1.940847230674837
 30
0.0
 11
2.51600145122624
 21
1.969793507259264
 31
0.0
  0
LINE
  5
9B5
330
1E
100
AcDbEntity
  8
0
100
AcDbLine
 10
2.51600145122624
 20
1.969793507259264
 30
0.0
 11
2.530474589518453
 21
2.002358068416745
 31
0.0
  0
LINE
  5
9B6
330
1E
100
AcDbEntity
  8
0
100
AcDbLine
 10
2.530474589518453
 20
2.002358068416745
 30
0.0
 11
2.548566012383719
 21
2.031304345001172
 31
0.0
  0
LINE
  5
9B7
330
1E
100
AcDbEntity
  8
0
100
AcDbLine
 10
2.432780906046012
 20
1.622438188246144
 30
0.0
 11
2.436399190619065
 21
1.626056472819197
 31
0.0
  0
LINE
  5
9B8
330
1E
100
AcDbEntity
  8
0
100
AcDbLine
 10
2.436399190619065
 20
1.626056472819197
 30
0.0
 11
2.436399190619065
 21
1.636911326538357
 31
0.0
  0
LINE
  5
9B9
330
1E
100
AcDbEntity
  8
0
100
AcDbLine
 10
2.436399190619065
 20
1.636911326538357
 30
0.0
 11
2.436399190619065
 21
1.655002749403623
 31
0.0
  0
LINE
  5
9BA
330
1E
100
AcDbEntity
  8
0
100
AcDbLine
 10
2.436399190619065
 20
1.655002749403623
 30
0.0
 11
2.436399190619065
 21
1.680330741414997
 31
0.0
  0
LINE
  5
9BB
330
1E
100
AcDbEntity
  8
0
100
AcDbLine
 10
2.436399190619065
 20
1.680330741414997
 30
0.0
 11
2.44001747519212
 21
1.712895302572477
 31
0.0
  0
LINE
  5
9BC
330
1E
100
AcDbEntity
  8
0
100
AcDbLine
 10
2.110753579044265
 20
2.031304345001172
 30
0.0
 11
2.110753579044265
 21
1.973411791832317
 31
0.0
  0
LINE
  5
9BD
330
1E
100
AcDbEntity
  8
0
100
AcDbLine
 10
2.110753579044265
 20
1.973411791832317
 30
0.0
 11
2.110753579044265
 21
1.915519238663463
 31
0.0
  0
LINE
  5
9BE
330
1E
100
AcDbEntity
  8
0
100
AcDbLine
 10
2.110753579044265
 20
1.915519238663463
 30
0.0
 11
2.110753579044265
 21
1.861244970067664
 31
0.0
  0
LINE
  5
9BF
330
1E
100
AcDbEntity
  8
0
100
AcDbLine
 10
2.110753579044265
 20
1.861244970067664
 30
0.0
 11
2.110753579044265
 21
1.810588986044917
 31
0.0
  0
LINE
  5
9C0
330
1E
100
AcDbEntity
  8
0
100
AcDbLine
 10
2.110753579044265
 20
1.810588986044917
 30
0.0
 11
2.110753579044265
 21
1.763551286595223
 31
0.0
  0
LINE
  5
9C1
330
1E
100
AcDbEntity
  8
0
100
AcDbLine
 10
2.110753579044265
 20
1.763551286595223
 30
0.0
 11
2.110753579044265
 21
1.723750156291637
 31
0.0
  0
LINE
  5
9C2
330
1E
100
AcDbEntity
  8
0
100
AcDbLine
 10
2.110753579044265
 20
1.723750156291637
 30
0.0
 11
2.114371863617318
 21
1.687567310561104
 31
0.0
  0
LINE
  5
9C3
330
1E
100
AcDbEntity
  8
0
100
AcDbLine
 10
2.114371863617318
 20
1.687567310561104
 30
0.0
 11
2.114371863617318
 21
1.66223931854973
 31
0.0
  0
LINE
  5
9C4
330
1E
100
AcDbEntity
  8
0
100
AcDbLine
 10
2.114371863617318
 20
1.66223931854973
 30
0.0
 11
2.114371863617318
 21
1.64052961111141
 31
0.0
  0
LINE
  5
9C5
330
1E
100
AcDbEntity
  8
0
100
AcDbLine
 10
2.114371863617318
 20
1.64052961111141
 30
0.0
 11
2.114371863617318
 21
1.629674757392251
 31
0.0
  0
LINE
  5
9C6
330
1E
100
AcDbEntity
  8
0
100
AcDbLine
 10
2.114371863617318
 20
1.629674757392251
 30
0.0
 11
2.117990148190372
 21
1.622438188246144
 31
0.0
  0
LINE
  5
9C7
330
1E
100
AcDbEntity
  8
0
100
AcDbLine
 10
6.915835492059101
 20
1.622438188246142
 30
0.0
 11
6.915835492059101
 21
1.629674757392249
 31
0.0
  0
LINE
  5
9C8
330
1E
100
AcDbEntity
  8
0
100
AcDbLine
 10
6.915835492059101
 20
1.629674757392249
 30
0.0
 11
6.915835492059101
 21
1.640529611111408
 31
0.0
  0
LINE
  5
9C9
330
1E
100
AcDbEntity
  8
0
100
AcDbLine
 10
6.915835492059101
 20
1.640529611111408
 30
0.0
 11
6.915835492059101
 21
1.662239318549728
 31
0.0
  0
LINE
  5
9CA
330
1E
100
AcDbEntity
  8
0
100
AcDbLine
 10
6.915835492059101
 20
1.662239318549728
 30
0.0
 11
6.915835492059101
 21
1.687567310561102
 31
0.0
  0
LINE
  5
9CB
330
1E
100
AcDbEntity
  8
0
100
AcDbLine
 10
6.915835492059101
 20
1.687567310561102
 30
0.0
 11
6.915835492059101
 21
1.723750156291636
 31
0.0
  0
LINE
  5
9CC
330
1E
100
AcDbEntity
  8
0
100
AcDbLine
 10
6.915835492059101
 20
1.723750156291636
 30
0.0
 11
6.915835492059101
 21
1.763551286595222
 31
0.0
  0
LINE
  5
9CD
330
1E
100
AcDbEntity
  8
0
100
AcDbLine
 10
6.915835492059101
 20
1.763551286595222
 30
0.0
 11
6.915835492059101
 21
1.810588986044916
 31
0.0
  0
LINE
  5
9CE
330
1E
100
AcDbEntity
  8
0
100
AcDbLine
 10
6.915835492059101
 20
1.810588986044916
 30
0.0
 11
6.915835492059101
 21
1.861244970067662
 31
0.0
  0
LINE
  5
9CF
330
1E
100
AcDbEntity
  8
0
100
AcDbLine
 10
6.915835492059101
 20
1.861244970067662
 30
0.0
 11
6.915835492059101
 21
1.915519238663462
 31
0.0
  0
LINE
  5
9D0
330
1E
100
AcDbEntity
  8
0
100
AcDbLine
 10
6.915835492059101
 20
1.915519238663462
 30
0.0
 11
6.915835492059101
 21
1.973411791832315
 31
0.0
  0
LINE
  5
9D1
330
1E
100
AcDbEntity
  8
0
100
AcDbLine
 10
6.915835492059101
 20
1.973411791832315
 30
0.0
 11
6.915835492059101
 21
2.03130434500117
 31
0.0
  0
LINE
  5
9D2
330
1E
100
AcDbEntity
  8
0
100
AcDbLine
 10
2.6896791107328
 20
2.031304345001172
 30
0.0
 11
2.6896791107328
 21
1.973411791832317
 31
0.0
  0
LINE
  5
9D3
330
1E
100
AcDbEntity
  8
0
100
AcDbLine
 10
2.6896791107328
 20
1.973411791832317
 30
0.0
 11
2.6896791107328
 21
1.915519238663463
 31
0.0
  0
LINE
  5
9D4
330
1E
100
AcDbEntity
  8
0
100
AcDbLine
 10
2.6896791107328
 20
1.915519238663463
 30
0.0
 11
2.6896791107328
 21
1.861244970067664
 31
0.0
  0
LINE
  5
9D5
330
1E
100
AcDbEntity
  8
0
100
AcDbLine
 10
2.6896791107328
 20
1.861244970067664
 30
0.0
 11
2.6896791107328
 21
1.810588986044917
 31
0.0
  0
LINE
  5
9D6
330
1E
100
AcDbEntity
  8
0
100
AcDbLine
 10
2.6896791107328
 20
1.810588986044917
 30
0.0
 11
2.6896791107328
 21
1.763551286595223
 31
0.0
  0
LINE
  5
9D7
330
1E
100
AcDbEntity
  8
0
100
AcDbLine
 10
2.6896791107328
 20
1.763551286595223
 30
0.0
 11
2.6896791107328
 21
1.723750156291637
 31
0.0
  0
LINE
  5
9D8
330
1E
100
AcDbEntity
  8
0
100
AcDbLine
 10
2.6896791107328
 20
1.723750156291637
 30
0.0
 11
2.6896791107328
 21
1.687567310561104
 31
0.0
  0
LINE
  5
9D9
330
1E
100
AcDbEntity
  8
0
100
AcDbLine
 10
2.6896791107328
 20
1.687567310561104
 30
0.0
 11
2.6896791107328
 21
1.66223931854973
 31
0.0
  0
LINE
  5
9DA
330
1E
100
AcDbEntity
  8
0
100
AcDbLine
 10
2.6896791107328
 20
1.66223931854973
 30
0.0
 11
2.6896791107328
 21
1.64052961111141
 31
0.0
  0
LINE
  5
9DB
330
1E
100
AcDbEntity
  8
0
100
AcDbLine
 10
2.6896791107328
 20
1.64052961111141
 30
0.0
 11
2.6896791107328
 21
1.629674757392251
 31
0.0
  0
LINE
  5
9DC
330
1E
100
AcDbEntity
  8
0
100
AcDbLine
 10
2.6896791107328
 20
1.629674757392251
 30
0.0
 11
2.6896791107328
 21
1.622438188246144
 31
0.0
  0
LINE
  5
9DD
330
1E
100
AcDbEntity
  8
0
100
AcDbLine
 10
6.915835492059101
 20
0.6853024838253269
 30
0.0
 11
6.915835492059101
 21
0.7431950369941803
 31
0.0
  0
LINE
  5
9DE
330
1E
100
AcDbEntity
  8
0
100
AcDbLine
 10
6.915835492059101
 20
0.7431950369941803
 30
0.0
 11
6.915835492059101
 21
0.8010875901630335
 31
0.0
  0
LINE
  5
9DF
330
1E
100
AcDbEntity
  8
0
100
AcDbLine
 10
6.915835492059101
 20
0.8010875901630335
 30
0.0
 11
6.915835492059101
 21
0.8553618587588342
 31
0.0
  0
LINE
  5
9E0
330
1E
100
AcDbEntity
  8
0
100
AcDbLine
 10
6.915835492059101
 20
0.8553618587588342
 30
0.0
 11
6.915835492059101
 21
0.9060178427815809
 31
0.0
  0
LINE
  5
9E1
330
1E
100
AcDbEntity
  8
0
100
AcDbLine
 10
6.915835492059101
 20
0.9060178427815809
 30
0.0
 11
6.915835492059101
 21
0.9530555422312737
 31
0.0
  0
LINE
  5
9E2
330
1E
100
AcDbEntity
  8
0
100
AcDbLine
 10
6.915835492059101
 20
0.9530555422312737
 30
0.0
 11
6.915835492059101
 21
0.9928566725348611
 31
0.0
  0
LINE
  5
9E3
330
1E
100
AcDbEntity
  8
0
100
AcDbLine
 10
6.915835492059101
 20
0.9928566725348611
 30
0.0
 11
6.915835492059101
 21
1.029039518265394
 31
0.0
  0
LINE
  5
9E4
330
1E
100
AcDbEntity
  8
0
100
AcDbLine
 10
6.915835492059101
 20
1.029039518265394
 30
0.0
 11
6.915835492059101
 21
1.054367510276766
 31
0.0
  0
LINE
  5
9E5
330
1E
100
AcDbEntity
  8
0
100
AcDbLine
 10
6.915835492059101
 20
1.054367510276766
 30
0.0
 11
6.915835492059101
 21
1.076077217715088
 31
0.0
  0
LINE
  5
9E6
330
1E
100
AcDbEntity
  8
0
100
AcDbLine
 10
6.915835492059101
 20
1.076077217715088
 30
0.0
 11
6.915835492059101
 21
1.086932071434247
 31
0.0
  0
LINE
  5
9E7
330
1E
100
AcDbEntity
  8
0
100
AcDbLine
 10
6.915835492059101
 20
1.086932071434247
 30
0.0
 11
6.915835492059101
 21
1.090550356007301
 31
0.0
  0
LINE
  5
9E8
330
1E
100
AcDbEntity
  8
0
100
AcDbLine
 10
2.6896791107328
 20
1.090550356007303
 30
0.0
 11
2.6896791107328
 21
1.086932071434249
 31
0.0
  0
LINE
  5
9E9
330
1E
100
AcDbEntity
  8
0
100
AcDbLine
 10
2.6896791107328
 20
1.086932071434249
 30
0.0
 11
2.6896791107328
 21
1.07607721771509
 31
0.0
  0
LINE
  5
9EA
330
1E
100
AcDbEntity
  8
0
100
AcDbLine
 10
2.6896791107328
 20
1.07607721771509
 30
0.0
 11
2.6896791107328
 21
1.054367510276768
 31
0.0
  0
LINE
  5
9EB
330
1E
100
AcDbEntity
  8
0
100
AcDbLine
 10
2.6896791107328
 20
1.054367510276768
 30
0.0
 11
2.6896791107328
 21
1.029039518265395
 31
0.0
  0
LINE
  5
9EC
330
1E
100
AcDbEntity
  8
0
100
AcDbLine
 10
2.6896791107328
 20
1.029039518265395
 30
0.0
 11
2.6896791107328
 21
0.9928566725348627
 31
0.0
  0
LINE
  5
9ED
330
1E
100
AcDbEntity
  8
0
100
AcDbLine
 10
2.6896791107328
 20
0.9928566725348627
 30
0.0
 11
2.6896791107328
 21
0.9530555422312751
 31
0.0
  0
LINE
  5
9EE
330
1E
100
AcDbEntity
  8
0
100
AcDbLine
 10
2.6896791107328
 20
0.9530555422312751
 30
0.0
 11
2.6896791107328
 21
0.9060178427815827
 31
0.0
  0
LINE
  5
9EF
330
1E
100
AcDbEntity
  8
0
100
AcDbLine
 10
2.6896791107328
 20
0.9060178427815827
 30
0.0
 11
2.6896791107328
 21
0.855361858758836
 31
0.0
  0
LINE
  5
9F0
330
1E
100
AcDbEntity
  8
0
100
AcDbLine
 10
2.6896791107328
 20
0.855361858758836
 30
0.0
 11
2.6896791107328
 21
0.8010875901630353
 31
0.0
  0
LINE
  5
9F1
330
1E
100
AcDbEntity
  8
0
100
AcDbLine
 10
2.6896791107328
 20
0.8010875901630353
 30
0.0
 11
2.6896791107328
 21
0.7431950369941819
 31
0.0
  0
LINE
  5
9F2
330
1E
100
AcDbEntity
  8
0
100
AcDbLine
 10
2.6896791107328
 20
0.7431950369941819
 30
0.0
 11
2.6896791107328
 21
0.6853024838253285
 31
0.0
  0
LINE
  5
9F3
330
1E
100
AcDbEntity
  8
0
100
AcDbLine
 10
2.465345467203492
 20
1.123114917164782
 30
0.0
 11
2.465345467203492
 21
1.112260063445623
 31
0.0
  0
LINE
  5
9F4
330
1E
100
AcDbEntity
  8
0
100
AcDbLine
 10
2.465345467203492
 20
1.112260063445623
 30
0.0
 11
2.468963751776544
 21
1.094168640580356
 31
0.0
  0
LINE
  5
9F5
330
1E
100
AcDbEntity
  8
0
100
AcDbLine
 10
2.468963751776544
 20
1.094168640580356
 30
0.0
 11
2.468963751776544
 21
1.065222363995929
 31
0.0
  0
LINE
  5
9F6
330
1E
100
AcDbEntity
  8
0
100
AcDbLine
 10
2.468963751776544
 20
1.065222363995929
 30
0.0
 11
2.468963751776544
 21
1.029039518265395
 31
0.0
  0
LINE
  5
9F7
330
1E
100
AcDbEntity
  8
0
100
AcDbLine
 10
2.078189017886783
 20
0.8481252896127294
 30
0.0
 11
2.078189017886783
 21
0.9023995582085284
 31
0.0
  0
LINE
  5
9F8
330
1E
100
AcDbEntity
  8
0
100
AcDbLine
 10
2.078189017886783
 20
0.9023995582085284
 30
0.0
 11
2.078189017886783
 21
0.9530555422312751
 31
0.0
  0
LINE
  5
9F9
330
1E
100
AcDbEntity
  8
0
100
AcDbLine
 10
2.078189017886783
 20
0.9530555422312751
 30
0.0
 11
2.081807302459838
 21
1.000093241680969
 31
0.0
  0
LINE
  5
9FA
330
1E
100
AcDbEntity
  8
0
100
AcDbLine
 10
2.081807302459838
 20
1.000093241680969
 30
0.0
 11
2.081807302459838
 21
1.039894371984555
 31
0.0
  0
LINE
  5
9FB
330
1E
100
AcDbEntity
  8
0
100
AcDbLine
 10
2.081807302459838
 20
1.039894371984555
 30
0.0
 11
2.081807302459838
 21
1.072458933142035
 31
0.0
  0
LINE
  5
9FC
330
1E
100
AcDbEntity
  8
0
100
AcDbLine
 10
2.081807302459838
 20
1.072458933142035
 30
0.0
 11
2.081807302459838
 21
1.09778692515341
 31
0.0
  0
LINE
  5
9FD
330
1E
100
AcDbEntity
  8
0
100
AcDbLine
 10
2.081807302459838
 20
1.09778692515341
 30
0.0
 11
2.08542558703289
 21
1.112260063445623
 31
0.0
  0
LINE
  5
9FE
330
1E
100
AcDbEntity
  8
0
100
AcDbLine
 10
2.08542558703289
 20
1.112260063445623
 30
0.0
 11
2.08542558703289
 21
1.123114917164782
 31
0.0
  0
LINE
  5
9FF
330
1E
100
AcDbEntity
  8
0
100
AcDbLine
 10
6.944781768643527
 20
1.452378813312635
 30
0.0
 11
6.944781768643527
 21
1.463233667031794
 31
0.0
  0
LINE
  5
A00
330
1E
100
AcDbEntity
  8
0
100
AcDbLine
 10
6.944781768643527
 20
1.463233667031794
 30
0.0
 11
6.944781768643527
 21
1.481325089897062
 31
0.0
  0
LINE
  5
A01
330
1E
100
AcDbEntity
  8
0
100
AcDbLine
 10
6.944781768643527
 20
1.481325089897062
 30
0.0
 11
6.944781768643527
 21
1.506653081908434
 31
0.0
  0
LINE
  5
A02
330
1E
100
AcDbEntity
  8
0
100
AcDbLine
 10
6.944781768643527
 20
1.506653081908434
 30
0.0
 11
6.944781768643527
 21
1.542835927638969
 31
0.0
  0
LINE
  5
A03
330
1E
100
AcDbEntity
  8
0
100
AcDbLine
 10
6.944781768643527
 20
1.542835927638969
 30
0.0
 11
6.944781768643527
 21
1.586255342515609
 31
0.0
  0
LINE
  5
A04
330
1E
100
AcDbEntity
  8
0
100
AcDbLine
 10
6.944781768643527
 20
1.586255342515609
 30
0.0
 11
6.944781768643527
 21
1.633293041965302
 31
0.0
  0
LINE
  5
A05
330
1E
100
AcDbEntity
  8
0
100
AcDbLine
 10
6.944781768643527
 20
1.633293041965302
 30
0.0
 11
6.944781768643527
 21
1.687567310561102
 31
0.0
  0
LINE
  5
A06
330
1E
100
AcDbEntity
  8
0
100
AcDbLine
 10
6.944781768643527
 20
1.687567310561102
 30
0.0
 11
6.944781768643527
 21
1.745459863729956
 31
0.0
  0
LINE
  5
A07
330
1E
100
AcDbEntity
  8
0
100
AcDbLine
 10
6.944781768643527
 20
1.745459863729956
 30
0.0
 11
6.944781768643527
 21
1.803352416898809
 31
0.0
  0
LINE
  5
A08
330
1E
100
AcDbEntity
  8
0
100
AcDbLine
 10
7.04609373668902
 20
1.828680408910182
 30
0.0
 11
7.04609373668902
 21
1.770787855741328
 31
0.0
  0
LINE
  5
A09
330
1E
100
AcDbEntity
  8
0
100
AcDbLine
 10
7.04609373668902
 20
1.770787855741328
 30
0.0
 11
7.04609373668902
 21
1.716513587145529
 31
0.0
  0
LINE
  5
A0A
330
1E
100
AcDbEntity
  8
0
100
AcDbLine
 10
7.04609373668902
 20
1.716513587145529
 30
0.0
 11
7.04609373668902
 21
1.665857603122782
 31
0.0
  0
LINE
  5
A0B
330
1E
100
AcDbEntity
  8
0
100
AcDbLine
 10
7.04609373668902
 20
1.665857603122782
 30
0.0
 11
7.04609373668902
 21
1.615201619100036
 31
0.0
  0
LINE
  5
A0C
330
1E
100
AcDbEntity
  8
0
100
AcDbLine
 10
7.04609373668902
 20
1.615201619100036
 30
0.0
 11
7.042475452115969
 21
1.571782204223396
 31
0.0
  0
LINE
  5
A0D
330
1E
100
AcDbEntity
  8
0
100
AcDbLine
 10
7.042475452115969
 20
1.571782204223396
 30
0.0
 11
7.042475452115969
 21
1.535599358492862
 31
0.0
  0
LINE
  5
A0E
330
1E
100
AcDbEntity
  8
0
100
AcDbLine
 10
7.042475452115969
 20
1.535599358492862
 30
0.0
 11
7.042475452115969
 21
1.503034797335381
 31
0.0
  0
LINE
  5
A0F
330
1E
100
AcDbEntity
  8
0
100
AcDbLine
 10
7.042475452115969
 20
1.503034797335381
 30
0.0
 11
7.042475452115969
 21
1.477706805324007
 31
0.0
  0
LINE
  5
A10
330
1E
100
AcDbEntity
  8
0
100
AcDbLine
 10
7.042475452115969
 20
1.477706805324007
 30
0.0
 11
7.042475452115969
 21
1.463233667031794
 31
0.0
  0
LINE
  5
A11
330
1E
100
AcDbEntity
  8
0
100
AcDbLine
 10
7.042475452115969
 20
1.463233667031794
 30
0.0
 11
7.042475452115969
 21
1.452378813312635
 31
0.0
  0
LINE
  5
A12
330
1E
100
AcDbEntity
  8
0
100
AcDbLine
 10
6.944781768643527
 20
0.9132544119276879
 30
0.0
 11
6.944781768643527
 21
0.9711469650965412
 31
0.0
  0
LINE
  5
A13
330
1E
100
AcDbEntity
  8
0
100
AcDbLine
 10
6.944781768643527
 20
0.9711469650965412
 30
0.0
 11
6.944781768643527
 21
1.029039518265394
 31
0.0
  0
LINE
  5
A14
330
1E
100
AcDbEntity
  8
0
100
AcDbLine
 10
6.944781768643527
 20
1.029039518265394
 30
0.0
 11
6.944781768643527
 21
1.083313786861195
 31
0.0
  0
LINE
  5
A15
330
1E
100
AcDbEntity
  8
0
100
AcDbLine
 10
6.944781768643527
 20
1.083313786861195
 30
0.0
 11
6.944781768643527
 21
1.130351486310887
 31
0.0
  0
LINE
  5
A16
330
1E
100
AcDbEntity
  8
0
100
AcDbLine
 10
6.944781768643527
 20
1.130351486310887
 30
0.0
 11
6.944781768643527
 21
1.173770901187527
 31
0.0
  0
LINE
  5
A17
330
1E
100
AcDbEntity
  8
0
100
AcDbLine
 10
6.944781768643527
 20
1.173770901187527
 30
0.0
 11
6.944781768643527
 21
1.206335462345008
 31
0.0
  0
LINE
  5
A18
330
1E
100
AcDbEntity
  8
0
100
AcDbLine
 10
6.944781768643527
 20
1.206335462345008
 30
0.0
 11
6.944781768643527
 21
1.235281738929435
 31
0.0
  0
LINE
  5
A19
330
1E
100
AcDbEntity
  8
0
100
AcDbLine
 10
6.944781768643527
 20
1.235281738929435
 30
0.0
 11
6.944781768643527
 21
1.253373161794701
 31
0.0
  0
LINE
  5
A1A
330
1E
100
AcDbEntity
  8
0
100
AcDbLine
 10
6.944781768643527
 20
1.253373161794701
 30
0.0
 11
6.944781768643527
 21
1.260609730940807
 31
0.0
  0
LINE
  5
A1B
330
1E
100
AcDbEntity
  8
0
100
AcDbLine
 10
7.042475452115969
 20
1.260609730940807
 30
0.0
 11
7.042475452115969
 21
1.253373161794701
 31
0.0
  0
LINE
  5
A1C
330
1E
100
AcDbEntity
  8
0
100
AcDbLine
 10
7.042475452115969
 20
1.253373161794701
 30
0.0
 11
7.042475452115969
 21
1.238900023502487
 31
0.0
  0
LINE
  5
A1D
330
1E
100
AcDbEntity
  8
0
100
AcDbLine
 10
7.042475452115969
 20
1.238900023502487
 30
0.0
 11
7.042475452115969
 21
1.213572031491115
 31
0.0
  0
LINE
  5
A1E
330
1E
100
AcDbEntity
  8
0
100
AcDbLine
 10
7.042475452115969
 20
1.213572031491115
 30
0.0
 11
7.042475452115969
 21
1.181007470333634
 31
0.0
  0
LINE
  5
A1F
330
1E
100
AcDbEntity
  8
0
100
AcDbLine
 10
7.042475452115969
 20
1.181007470333634
 30
0.0
 11
7.042475452115969
 21
1.144824624603101
 31
0.0
  0
LINE
  5
A20
330
1E
100
AcDbEntity
  8
0
100
AcDbLine
 10
7.042475452115969
 20
1.144824624603101
 30
0.0
 11
7.04609373668902
 21
1.101405209726461
 31
0.0
  0
LINE
  5
A21
330
1E
100
AcDbEntity
  8
0
100
AcDbLine
 10
7.04609373668902
 20
1.101405209726461
 30
0.0
 11
7.04609373668902
 21
1.050749225703714
 31
0.0
  0
LINE
  5
A22
330
1E
100
AcDbEntity
  8
0
100
AcDbLine
 10
7.04609373668902
 20
1.050749225703714
 30
0.0
 11
7.04609373668902
 21
1.000093241680967
 31
0.0
  0
LINE
  5
A23
330
1E
100
AcDbEntity
  8
0
100
AcDbLine
 10
7.04609373668902
 20
1.000093241680967
 30
0.0
 11
7.04609373668902
 21
0.9422006885121144
 31
0.0
  0
LINE
  5
A24
330
1E
100
AcDbEntity
  8
0
100
AcDbLine
 10
7.04609373668902
 20
0.9422006885121144
 30
0.0
 11
7.04609373668902
 21
0.8879264199163136
 31
0.0
  0
LINE
  5
A25
330
1E
100
AcDbEntity
  8
0
100
AcDbLine
 10
2.085425587032891
 20
1.593491911661717
 30
0.0
 11
2.085425587032891
 21
1.600728480807824
 31
0.0
  0
LINE
  5
A26
330
1E
100
AcDbEntity
  8
0
100
AcDbLine
 10
2.085425587032891
 20
1.600728480807824
 30
0.0
 11
2.081807302459838
 21
1.61881990367309
 31
0.0
  0
LINE
  5
A27
330
1E
100
AcDbEntity
  8
0
100
AcDbLine
 10
2.081807302459838
 20
1.61881990367309
 30
0.0
 11
2.081807302459838
 21
1.644147895684464
 31
0.0
  0
LINE
  5
A28
330
1E
100
AcDbEntity
  8
0
100
AcDbLine
 10
2.081807302459838
 20
1.644147895684464
 30
0.0
 11
2.081807302459838
 21
1.676712456841943
 31
0.0
  0
LINE
  5
A29
330
1E
100
AcDbEntity
  8
0
100
AcDbLine
 10
2.081807302459838
 20
1.676712456841943
 30
0.0
 11
2.081807302459838
 21
1.716513587145531
 31
0.0
  0
LINE
  5
A2A
330
1E
100
AcDbEntity
  8
0
100
AcDbLine
 10
2.081807302459838
 20
1.716513587145531
 30
0.0
 11
2.078189017886785
 21
1.763551286595223
 31
0.0
  0
LINE
  5
A2B
330
1E
100
AcDbEntity
  8
0
100
AcDbLine
 10
2.078189017886785
 20
1.763551286595223
 30
0.0
 11
2.078189017886785
 21
1.81420727061797
 31
0.0
  0
LINE
  5
A2C
330
1E
100
AcDbEntity
  8
0
100
AcDbLine
 10
2.078189017886785
 20
1.81420727061797
 30
0.0
 11
2.078189017886785
 21
1.868481539213771
 31
0.0
  0
LINE
  5
A2D
330
1E
100
AcDbEntity
  8
0
100
AcDbLine
 10
2.468963751776547
 20
1.687567310561104
 30
0.0
 11
2.468963751776547
 21
1.651384464830571
 31
0.0
  0
LINE
  5
A2E
330
1E
100
AcDbEntity
  8
0
100
AcDbLine
 10
2.468963751776547
 20
1.651384464830571
 30
0.0
 11
2.468963751776547
 21
1.622438188246144
 31
0.0
  0
LINE
  5
A2F
330
1E
100
AcDbEntity
  8
0
100
AcDbLine
 10
2.468963751776547
 20
1.622438188246144
 30
0.0
 11
2.465345467203492
 21
1.604346765380876
 31
0.0
  0
LINE
  5
A30
330
1E
100
AcDbEntity
  8
0
100
AcDbLine
 10
2.465345467203492
 20
1.604346765380876
 30
0.0
 11
2.465345467203492
 21
1.593491911661717
 31
0.0
  0
LINE
  5
A31
330
1E
100
AcDbEntity
  8
0
100
AcDbLine
 10
2.44001747519212
 20
1.300410861244396
 30
0.0
 11
2.458108898057386
 21
1.296792576671342
 31
0.0
  0
LINE
  5
A32
330
1E
100
AcDbEntity
  8
0
100
AcDbLine
 10
2.458108898057386
 20
1.296792576671342
 30
0.0
 11
2.468963751776547
 21
1.285937722952183
 31
0.0
  0
LINE
  5
A33
330
1E
100
AcDbEntity
  8
0
100
AcDbLine
 10
2.468963751776547
 20
1.285937722952183
 30
0.0
 11
2.4725820363496
 21
1.267846300086916
 31
0.0
  0
LINE
  5
A34
330
1E
100
AcDbEntity
  8
0
100
AcDbLine
 10
2.078189017886785
 20
1.267846300086916
 30
0.0
 11
2.081807302459838
 21
1.285937722952183
 31
0.0
  0
LINE
  5
A35
330
1E
100
AcDbEntity
  8
0
100
AcDbLine
 10
2.081807302459838
 20
1.285937722952183
 30
0.0
 11
2.092662156178998
 21
1.296792576671342
 31
0.0
  0
LINE
  5
A36
330
1E
100
AcDbEntity
  8
0
100
AcDbLine
 10
2.092662156178998
 20
1.296792576671342
 30
0.0
 11
2.110753579044265
 21
1.300410861244396
 31
0.0
  0
LINE
  5
A37
330
1E
100
AcDbEntity
  8
0
100
AcDbLine
 10
2.110753579044264
 20
0.6853024838253285
 30
0.0
 11
2.09628044075205
 21
0.7359584678480752
 31
0.0
  0
LINE
  5
A38
330
1E
100
AcDbEntity
  8
0
100
AcDbLine
 10
2.09628044075205
 20
0.7359584678480752
 30
0.0
 11
2.08542558703289
 21
0.7829961672977693
 31
0.0
  0
LINE
  5
A39
330
1E
100
AcDbEntity
  8
0
100
AcDbLine
 10
2.08542558703289
 20
0.7829961672977693
 30
0.0
 11
2.081807302459838
 21
0.8155607284552486
 31
0.0
  0
LINE
  5
A3A
330
1E
100
AcDbEntity
  8
0
100
AcDbLine
 10
2.081807302459838
 20
0.8155607284552486
 30
0.0
 11
2.078189017886783
 21
0.8481252896127294
 31
0.0
  0
LINE
  5
A3B
330
1E
100
AcDbEntity
  8
0
100
AcDbLine
 10
2.505146597507079
 20
0.855361858758836
 30
0.0
 11
2.512383166653184
 21
0.8264155821744093
 31
0.0
  0
LINE
  5
A3C
330
1E
100
AcDbEntity
  8
0
100
AcDbLine
 10
2.512383166653184
 20
0.8264155821744093
 30
0.0
 11
2.523238020372345
 21
0.7974693055899827
 31
0.0
  0
LINE
  5
A3D
330
1E
100
AcDbEntity
  8
0
100
AcDbLine
 10
2.523238020372345
 20
0.7974693055899827
 30
0.0
 11
2.548566012383719
 21
0.6853024838253285
 31
0.0
  0
LINE
  5
A3E
330
1E
100
AcDbEntity
  8
0
100
AcDbLine
 10
2.472582036349596
 20
1.029039518265395
 30
0.0
 11
2.472582036349596
 21
0.9892383879618087
 31
0.0
  0
LINE
  5
A3F
330
1E
100
AcDbEntity
  8
0
100
AcDbLine
 10
2.472582036349596
 20
0.9892383879618087
 30
0.0
 11
2.479818605495705
 21
0.9494372576582227
 31
0.0
  0
LINE
  5
A40
330
1E
100
AcDbEntity
  8
0
100
AcDbLine
 10
2.479818605495705
 20
0.9494372576582227
 30
0.0
 11
2.48705517464181
 21
0.9096361273546351
 31
0.0
  0
LINE
  5
A41
330
1E
100
AcDbEntity
  8
0
100
AcDbLine
 10
2.48705517464181
 20
0.9096361273546351
 30
0.0
 11
2.49791002836097
 21
0.8698349970510495
 31
0.0
  0
LINE
  5
A42
330
1E
100
AcDbEntity
  8
0
100
AcDbLine
 10
2.49791002836097
 20
0.8698349970510495
 30
0.0
 11
2.505146597507079
 21
0.855361858758836
 31
0.0
  0
LINE
  5
A43
330
1E
100
AcDbEntity
  8
0
100
AcDbLine
 10
2.110753579044265
 20
1.394486260143783
 30
0.0
 11
2.092662156178998
 21
1.398104544716836
 31
0.0
  0
LINE
  5
A44
330
1E
100
AcDbEntity
  8
0
100
AcDbLine
 10
2.092662156178998
 20
1.398104544716836
 30
0.0
 11
2.081807302459838
 21
1.408959398435996
 31
0.0
  0
LINE
  5
A45
330
1E
100
AcDbEntity
  8
0
100
AcDbLine
 10
2.081807302459838
 20
1.408959398435996
 30
0.0
 11
2.078189017886785
 21
1.427050821301262
 31
0.0
  0
LINE
  5
A46
330
1E
100
AcDbEntity
  8
0
100
AcDbLine
 10
2.4725820363496
 20
1.427050821301262
 30
0.0
 11
2.468963751776547
 21
1.408959398435996
 31
0.0
  0
LINE
  5
A47
330
1E
100
AcDbEntity
  8
0
100
AcDbLine
 10
2.468963751776547
 20
1.408959398435996
 30
0.0
 11
2.458108898057386
 21
1.398104544716836
 31
0.0
  0
LINE
  5
A48
330
1E
100
AcDbEntity
  8
0
100
AcDbLine
 10
2.458108898057386
 20
1.398104544716836
 30
0.0
 11
2.44001747519212
 21
1.394486260143783
 31
0.0
  0
LINE
  5
A49
330
1E
100
AcDbEntity
  8
0
100
AcDbLine
 10
2.4725820363496
 20
1.687567310561104
 30
0.0
 11
2.4725820363496
 21
1.72736844086469
 31
0.0
  0
LINE
  5
A4A
330
1E
100
AcDbEntity
  8
0
100
AcDbLine
 10
2.4725820363496
 20
1.72736844086469
 30
0.0
 11
2.479818605495705
 21
1.767169571168277
 31
0.0
  0
LINE
  5
A4B
330
1E
100
AcDbEntity
  8
0
100
AcDbLine
 10
2.479818605495705
 20
1.767169571168277
 30
0.0
 11
2.487055174641813
 21
1.806970701471863
 31
0.0
  0
LINE
  5
A4C
330
1E
100
AcDbEntity
  8
0
100
AcDbLine
 10
2.487055174641813
 20
1.806970701471863
 30
0.0
 11
2.497910028360974
 21
1.846771831775451
 31
0.0
  0
LINE
  5
A4D
330
1E
100
AcDbEntity
  8
0
100
AcDbLine
 10
2.497910028360974
 20
1.846771831775451
 30
0.0
 11
2.505146597507079
 21
1.85762668549461
 31
0.0
  0
LINE
  5
A4E
330
1E
100
AcDbEntity
  8
0
100
AcDbLine
 10
2.548566012383719
 20
2.031304345001172
 30
0.0
 11
2.523238020372345
 21
1.919137523236517
 31
0.0
  0
LINE
  5
A4F
330
1E
100
AcDbEntity
  8
0
100
AcDbLine
 10
2.523238020372345
 20
1.919137523236517
 30
0.0
 11
2.512383166653187
 21
1.890191246652091
 31
0.0
  0
LINE
  5
A50
330
1E
100
AcDbEntity
  8
0
100
AcDbLine
 10
2.512383166653187
 20
1.890191246652091
 30
0.0
 11
2.505146597507079
 21
1.85762668549461
 31
0.0
  0
LINE
  5
A51
330
1E
100
AcDbEntity
  8
0
100
AcDbLine
 10
2.078189017886785
 20
1.868481539213771
 30
0.0
 11
2.081807302459838
 21
1.90104610037125
 31
0.0
  0
LINE
  5
A52
330
1E
100
AcDbEntity
  8
0
100
AcDbLine
 10
2.081807302459838
 20
1.90104610037125
 30
0.0
 11
2.085425587032891
 21
1.933610661528731
 31
0.0
  0
LINE
  5
A53
330
1E
100
AcDbEntity
  8
0
100
AcDbLine
 10
2.085425587032891
 20
1.933610661528731
 30
0.0
 11
2.096280440752052
 21
1.980648360978423
 31
0.0
  0
LINE
  5
A54
330
1E
100
AcDbEntity
  8
0
100
AcDbLine
 10
2.096280440752052
 20
1.980648360978423
 30
0.0
 11
2.110753579044265
 21
2.031304345001172
 31
0.0
  0
LINE
  5
A55
330
1E
100
AcDbEntity
  8
0
100
AcDbLine
 10
6.915835492059101
 20
2.03130434500117
 30
0.0
 11
6.937545199497423
 21
1.969793507259262
 31
0.0
  0
LINE
  5
A56
330
1E
100
AcDbEntity
  8
0
100
AcDbLine
 10
6.937545199497423
 20
1.969793507259262
 30
0.0
 11
6.959254906935741
 21
1.908282669517355
 31
0.0
  0
LINE
  5
A57
330
1E
100
AcDbEntity
  8
0
100
AcDbLine
 10
6.959254906935741
 20
1.908282669517355
 30
0.0
 11
6.970109760654902
 21
1.868481539213769
 31
0.0
  0
LINE
  5
A58
330
1E
100
AcDbEntity
  8
0
100
AcDbLine
 10
6.970109760654902
 20
1.868481539213769
 30
0.0
 11
6.977346329801009
 21
1.828680408910182
 31
0.0
  0
LINE
  5
A59
330
1E
100
AcDbEntity
  8
0
100
AcDbLine
 10
2.534092874091506
 20
1.655002749403623
 30
0.0
 11
2.541329443237613
 21
1.716513587145531
 31
0.0
  0
LINE
  5
A5A
330
1E
100
AcDbEntity
  8
0
100
AcDbLine
 10
2.541329443237613
 20
1.716513587145531
 30
0.0
 11
2.555802581529827
 21
1.774406140314384
 31
0.0
  0
LINE
  5
A5B
330
1E
100
AcDbEntity
  8
0
100
AcDbLine
 10
2.555802581529827
 20
1.774406140314384
 30
0.0
 11
2.588367142687307
 21
1.854008400921557
 31
0.0
  0
LINE
  5
A5C
330
1E
100
AcDbEntity
  8
0
100
AcDbLine
 10
2.588367142687307
 20
1.854008400921557
 30
0.0
 11
2.628168272990894
 21
1.929992376955677
 31
0.0
  0
LINE
  5
A5D
330
1E
100
AcDbEntity
  8
0
100
AcDbLine
 10
2.628168272990894
 20
1.929992376955677
 30
0.0
 11
2.675205972440586
 21
2.005976352989797
 31
0.0
  0
LINE
  5
A5E
330
1E
100
AcDbEntity
  8
0
100
AcDbLine
 10
2.675205972440586
 20
2.005976352989797
 30
0.0
 11
2.6896791107328
 21
2.031304345001172
 31
0.0
  0
LINE
  5
A5F
330
1E
100
AcDbEntity
  8
0
100
AcDbLine
 10
2.6896791107328
 20
0.6853024838253285
 30
0.0
 11
2.675205972440586
 21
0.7106304758367028
 31
0.0
  0
LINE
  5
A60
330
1E
100
AcDbEntity
  8
0
100
AcDbLine
 10
2.675205972440586
 20
0.7106304758367028
 30
0.0
 11
2.628168272990891
 21
0.7866144518708219
 31
0.0
  0
LINE
  5
A61
330
1E
100
AcDbEntity
  8
0
100
AcDbLine
 10
2.628168272990891
 20
0.7866144518708219
 30
0.0
 11
2.588367142687303
 21
0.8625984279049427
 31
0.0
  0
LINE
  5
A62
330
1E
100
AcDbEntity
  8
0
100
AcDbLine
 10
2.588367142687303
 20
0.8625984279049427
 30
0.0
 11
2.555802581529824
 21
0.942200688512116
 31
0.0
  0
LINE
  5
A63
330
1E
100
AcDbEntity
  8
0
100
AcDbLine
 10
2.555802581529824
 20
0.942200688512116
 30
0.0
 11
2.54132944323761
 21
1.000093241680969
 31
0.0
  0
LINE
  5
A64
330
1E
100
AcDbEntity
  8
0
100
AcDbLine
 10
2.54132944323761
 20
1.000093241680969
 30
0.0
 11
2.534092874091506
 21
1.061604079422876
 31
0.0
  0
LINE
  5
A65
330
1E
100
AcDbEntity
  8
0
100
AcDbLine
 10
6.977346329801006
 20
0.8879264199163136
 30
0.0
 11
6.962873191508793
 21
0.8264155821744076
 31
0.0
  0
LINE
  5
A66
330
1E
100
AcDbEntity
  8
0
100
AcDbLine
 10
6.962873191508793
 20
0.8264155821744076
 30
0.0
 11
6.944781768643527
 21
0.7649047444325002
 31
0.0
  0
LINE
  5
A67
330
1E
100
AcDbEntity
  8
0
100
AcDbLine
 10
6.944781768643527
 20
0.7649047444325002
 30
0.0
 11
6.915835492059101
 21
0.6853024838253269
 31
0.0
  0
ENDSEC
  0
SECTION
  2
OBJECTS
  0
DICTIONARY
  5
C
330
0
100
AcDbDictionary
  3
ACAD_GROUP
350
D
  3
ACAD_LAYOUT
350
19
  3
ACAD_MLINESTYLE
350
16
  3
ACAD_PLOTSETTINGS
350
18
  3
ACAD_PLOTSTYLENAME
350
E
  3
ACDBHEADERROUNDTRIPXREC
350
B78
  3
ACDBVARIABLEDICTIONARY
350
A9C
  0
DICTIONARY
  5
B0B
330
1E
100
AcDbDictionary
280
     1
  3
ACAD_LAYOUTSELFREF
360
B9A
  0
DICTIONARY
  5
B0D
330
1A
100
AcDbDictionary
280
     1
  3
ACAD_LAYOUTSELFREF
360
B99
  0
DICTIONARY
  5
D
102
{ACAD_REACTORS
330
C
102
}
330
C
100
AcDbDictionary
  0
DICTIONARY
  5
19
102
{ACAD_REACTORS
330
C
102
}
330
C
100
AcDbDictionary
  0
DICTIONARY
  5
16
102
{ACAD_REACTORS
330
C
102
}
330
C
100
AcDbDictionary
  3
STANDARD
350
17
  0
DICTIONARY
  5
18
102
{ACAD_REACTORS
330
C
102
}
330
C
100
AcDbDictionary
  0
ACDBDICTIONARYWDFLT
  5
E
102
{ACAD_REACTORS
330
C
102
}
330
C
100
AcDbDictionary
281
     1
  3
Normal
350
F
100
AcDbDictionaryWithDefault
340
F
  0
DICTIONARY
  5
B78
102
{ACAD_REACTORS
330
C
102
}
330
C
100
AcDbDictionary
  3
CEPSNTYPE
350
B82
  3
DIMSTYLEDATA
350
B86
  3
FINGERPRINTGUID
350
B83
  3
HYPERLINKBASE
350
B7B
  3
INSUNITS
350
B81
  3
LAYOUTDICT
350
B7D
  3
LWETCUNION
350
B80
  3
PLOTSETDICT
350
B7E
  3
PLOTSTYLNAMDICT
350
B7F
  3
PSVPSCALE
350
B85
  3
PUCSBASE
350
B89
  3
PUCSORGBACK
350
B8F
  3
PUCSORGBOTTOM
350
B8B
  3
PUCSORGFRONT
350
B8E
  3
PUCSORGLEFT
350
B8C
  3
PUCSORGRIGHT
350
B8D
  3
PUCSORGTOP
350
B8A
  3
PUCSORTHOREF
350
B87
  3
PUCSORTHOVIEW
350
B88
  3
STYLESHEET
350
B7C
  3
TSTACKALIGN
350
B79
  3
TSTACKSIZE
350
B7A
  3
UCSBASE
350
B92
  3
UCSORGBACK
350
B98
  3
UCSORGBOTTOM
350
B94
  3
UCSORGFRONT
350
B97
  3
UCSORGLEFT
350
B95
  3
UCSORGRIGHT
350
B96
  3
UCSORGTOP
350
B93
  3
UCSORTHOREF
350
B90
  3
UCSORTHOVIEW
350
B91
  3
VERSIONGUID
350
B84
  0
DICTIONARY
  5
A9C
102
{ACAD_REACTORS
330
C
102
}
330
C
100
AcDbDictionary
  3
SORTENTS
350
A9D
  0
XRECORD
  5
B9A
102
{ACAD_REACTORS
330
B0B
102
}
330
B0B
100
AcDbXrecord
340
1E
  0
XRECORD
  5
B99
102
{ACAD_REACTORS
330
B0D
102
}
330
B0D
100
AcDbXrecord
340
1A
  0
MLINESTYLE
  5
17
102
{ACAD_REACTORS
330
16
102
}
330
16
100
AcDbMlineStyle
  2
STANDARD
 70
     0
  3

 62
   256
 51
90.0
 52
90.0
 71
     2
 49
0.5
 62
   256
  6
BYLAYER
 49
-0.5
 62
   256
  6
BYLAYER
  0
ACDBPLACEHOLDER
  5
F
102
{ACAD_REACTORS
330
E
102
}
330
E
100
AcDbPlaceHolder
280
     0
  0
XRECORD
  5
B82
102
{ACAD_REACTORS
330
B78
102
}
330
B78
100
AcDbXrecord
 90
        0
  0
XRECORD
  5
B86
102
{ACAD_REACTORS
330
B78
102
}
330
B78
100
AcDbXrecord
1000
DSTYLE
1002
{
1070
   279
 70
     2
1002
}
  0
XRECORD
  5
B83
102
{ACAD_REACTORS
330
B78
102
}
330
B78
100
AcDbXrecord
  1
{284B5168-592F-4047-A9CA-96FF061F2C06}
  0
XRECORD
  5
B7B
102
{ACAD_REACTORS
330
B78
102
}
330
B78
100
AcDbXrecord
  1

  0
XRECORD
  5
B81
102
{ACAD_REACTORS
330
B78
102
}
330
B78
100
AcDbXrecord
 90
        0
  0
XRECORD
  5
B7D
102
{ACAD_REACTORS
330
B78
102
}
330
B78
100
AcDbXrecord
340
19
  0
XRECORD
  5
B80
102
{ACAD_REACTORS
330
B78
102
}
330
B78
100
AcDbXrecord
 90
    14877
  0
XRECORD
  5
B7E
102
{ACAD_REACTORS
330
B78
102
}
330
B78
100
AcDbXrecord
340
18
  0
XRECORD
  5
B7F
102
{ACAD_REACTORS
330
B78
102
}
330
B78
100
AcDbXrecord
340
E
  0
XRECORD
  5
B85
102
{ACAD_REACTORS
330
B78
102
}
330
B78
100
AcDbXrecord
 40
0.0
  0
XRECORD
  5
B89
102
{ACAD_REACTORS
330
B78
102
}
330
B78
100
AcDbXrecord
340
0
  0
XRECORD
  5
B8F
102
{ACAD_REACTORS
330
B78
102
}
330
B78
100
AcDbXrecord
 10
0.0
 20
0.0
 30
0.0
  0
XRECORD
  5
B8B
102
{ACAD_REACTORS
330
B78
102
}
330
B78
100
AcDbXrecord
 10
0.0
 20
0.0
 30
0.0
  0
XRECORD
  5
B8E
102
{ACAD_REACTORS
330
B78
102
}
330
B78
100
AcDbXrecord
 10
0.0
 20
0.0
 30
0.0
  0
XRECORD
  5
B8C
102
{ACAD_REACTORS
330
B78
102
}
330
B78
100
AcDbXrecord
 10
0.0
 20
0.0
 30
0.0
  0
XRECORD
  5
B8D
102
{ACAD_REACTORS
330
B78
102
}
330
B78
100
AcDbXrecord
 10
0.0
 20
0.0
 30
0.0
  0
XRECORD
  5
B8A
102
{ACAD_REACTORS
330
B78
102
}
330
B78
100
AcDbXrecord
 10
0.0
 20
0.0
 30
0.0
  0
XRECORD
  5
B87
102
{ACAD_REACTORS
330
B78
102
}
330
B78
100
AcDbXrecord
340
0
  0
XRECORD
  5
B88
102
{ACAD_REACTORS
330
B78
102
}
330
B78
100
AcDbXrecord
 70
     0
  0
XRECORD
  5
B7C
102
{ACAD_REACTORS
330
B78
102
}
330
B78
100
AcDbXrecord
  1

  0
XRECORD
  5
B79
102
{ACAD_REACTORS
330
B78
102
}
330
B78
100
AcDbXrecord
 90
        1
  0
XRECORD
  5
B7A
102
{ACAD_REACTORS
330
B78
102
}
330
B78
100
AcDbXrecord
 90
       70
  0
XRECORD
  5
B92
102
{ACAD_REACTORS
330
B78
102
}
330
B78
100
AcDbXrecord
340
0
  0
XRECORD
  5
B98
102
{ACAD_REACTORS
330
B78
102
}
330
B78
100
AcDbXrecord
 10
0.0
 20
0.0
 30
0.0
  0
XRECORD
  5
B94
102
{ACAD_REACTORS
330
B78
102
}
330
B78
100
AcDbXrecord
 10
0.0
 20
0.0
 30
0.0
  0
XRECORD
  5
B97
102
{ACAD_REACTORS
330
B78
102
}
330
B78
100
AcDbXrecord
 10
0.0
 20
0.0
 30
0.0
  0
XRECORD
  5
B95
102
{ACAD_REACTORS
330
B78
102
}
330
B78
100
AcDbXrecord
 10
0.0
 20
0.0
 30
0.0
  0
XRECORD
  5
B96
102
{ACAD_REACTORS
330
B78
102
}
330
B78
100
AcDbXrecord
 10
0.0
 20
0.0
 30
0.0
  0
XRECORD
  5
B93
102
{ACAD_REACTORS
330
B78
102
}
330
B78
100
AcDbXrecord
 10
0.0
 20
0.0
 30
0.0
  0
XRECORD
  5
B90
102
{ACAD_REACTORS
330
B78
102
}
330
B78
100
AcDbXrecord
340
0
  0
XRECORD
  5
B91
102
{ACAD_REACTORS
330
B78
102
}
330
B78
100
AcDbXrecord
 70
     0
  0
XRECORD
  5
B84
102
{ACAD_REACTORS
330
B78
102
}
330
B78
100
AcDbXrecord
  1
{3E006B51-9A0B-407F-9A0C-3F5177397AE3}
  0
DICTIONARYVAR
  5
A9D
102
{ACAD_REACTORS
330
A9C
102
}
330
A9C
100
DictionaryVariables
280
     0
  1
96
  0
ENDSEC
  0
EOF
