  0
SECTION
  2
HEADER
  9
$ACADVER
  1
AC1012
  9
$DWGCODEPAGE
  3
ANSI_1252
  9
$INSBASE
 10
0.0
 20
0.0
 30
0.0
  9
$EXTMIN
 10
-2.246062992125984
 20
0.0846456692913389
 30
0.0
  9
$EXTMAX
 10
0.9734251968503929
 20
2.909448818897637
 30
0.0
  9
$LIMMIN
 10
0.0
 20
0.0
  9
$LIMMAX
 10
12.0
 20
9.0
  9
$ORTHOMODE
 70
     1
  9
$REGENMODE
 70
     1
  9
$FILLMODE
 70
     1
  9
$QTEXTMODE
 70
     0
  9
$MIRRTEXT
 70
     1
  9
$DRAGMODE
 70
     2
  9
$LTSCALE
 40
1.0
  9
$OSMODE
 70
   547
  9
$ATTMODE
 70
     1
  9
$TEXTSIZE
 40
0.2
  9
$TRACEWID
 40
0.05
  9
$TEXTSTYLE
  7
STANDARD
  9
$CLAYER
  8
0
  9
$CELTYPE
  6
BYLAYER
  9
$CECOLOR
 62
   256
  9
$CELTSCALE
 40
1.0
  9
$DELOBJ
 70
     1
  9
$DISPSILH
 70
     0
  9
$DIMSCALE
 40
1.0
  9
$DIMASZ
 40
0.18
  9
$DIMEXO
 40
0.0625
  9
$DIMDLI
 40
0.38
  9
$DIMRND
 40
0.0
  9
$DIMDLE
 40
0.0
  9
$DIMEXE
 40
0.18
  9
$DIMTP
 40
0.0
  9
$DIMTM
 40
0.0
  9
$DIMTXT
 40
0.18
  9
$DIMCEN
 40
0.09
  9
$DIMTSZ
 40
0.0
  9
$DIMTOL
 70
     0
  9
$DIMLIM
 70
     0
  9
$DIMTIH
 70
     1
  9
$DIMTOH
 70
     1
  9
$DIMSE1
 70
     0
  9
$DIMSE2
 70
     0
  9
$DIMTAD
 70
     0
  9
$DIMZIN
 70
     0
  9
$DIMBLK
  1

  9
$DIMASO
 70
     1
  9
$DIMSHO
 70
     1
  9
$DIMPOST
  1

  9
$DIMAPOST
  1

  9
$DIMALT
 70
     0
  9
$DIMALTD
 70
     2
  9
$DIMALTF
 40
25.4
  9
$DIMLFAC
 40
1.0
  9
$DIMTOFL
 70
     0
  9
$DIMTVP
 40
0.0
  9
$DIMTIX
 70
     0
  9
$DIMSOXD
 70
     0
  9
$DIMSAH
 70
     0
  9
$DIMBLK1
  1

  9
$DIMBLK2
  1

  9
$DIMSTYLE
  2
STANDARD
  9
$DIMCLRD
 70
     0
  9
$DIMCLRE
 70
     0
  9
$DIMCLRT
 70
     0
  9
$DIMTFAC
 40
1.0
  9
$DIMGAP
 40
0.09
  9
$DIMJUST
 70
     0
  9
$DIMSD1
 70
     0
  9
$DIMSD2
 70
     0
  9
$DIMTOLJ
 70
     1
  9
$DIMTZIN
 70
     0
  9
$DIMALTZ
 70
     0
  9
$DIMALTTZ
 70
     0
  9
$DIMFIT
 70
     5
  9
$DIMUPT
 70
     0
  9
$DIMUNIT
 70
     2
  9
$DIMDEC
 70
     4
  9
$DIMTDEC
 70
     4
  9
$DIMALTU
 70
     2
  9
$DIMALTTD
 70
     2
  9
$DIMTXSTY
  7
STANDARD
  9
$DIMAUNIT
 70
     0
  9
$LUNITS
 70
     2
  9
$LUPREC
 70
     4
  9
$SKETCHINC
 40
0.1
  9
$FILLETRAD
 40
0.0
  9
$AUNITS
 70
     0
  9
$AUPREC
 70
     0
  9
$MENU
  1
acad
  9
$ELEVATION
 40
0.0
  9
$PELEVATION
 40
0.0
  9
$THICKNESS
 40
0.0
  9
$LIMCHECK
 70
     0
  9
$BLIPMODE
 70
     0
  9
$CHAMFERA
 40
0.0
  9
$CHAMFERB
 40
0.0
  9
$CHAMFERC
 40
0.0
  9
$CHAMFERD
 40
0.0
  9
$SKPOLY
 70
     0
  9
$TDCREATE
 40
2452226.552152777
  9
$TDUPDATE
 40
2454018.429603171
  9
$TDINDWG
 40
0.0022242130
  9
$TDUSRTIMER
 40
0.0022242130
  9
$USRTIMER
 70
     1
  9
$ANGBASE
 50
0.0
  9
$ANGDIR
 70
     0
  9
$PDMODE
 70
     0
  9
$PDSIZE
 40
0.0
  9
$PLINEWID
 40
0.0
  9
$COORDS
 70
     1
  9
$SPLFRAME
 70
     0
  9
$SPLINETYPE
 70
     6
  9
$SPLINESEGS
 70
     8
  9
$ATTDIA
 70
     0
  9
$ATTREQ
 70
     1
  9
$HANDLING
 70
  4097
  9
$HANDSEED
  5
3EA4
  9
$SURFTAB1
 70
     6
  9
$SURFTAB2
 70
     6
  9
$SURFTYPE
 70
     6
  9
$SURFU
 70
     6
  9
$SURFV
 70
     6
  9
$UCSNAME
  2

  9
$UCSORG
 10
0.0
 20
0.0
 30
0.0
  9
$UCSXDIR
 10
1.0
 20
0.0
 30
0.0
  9
$UCSYDIR
 10
0.0
 20
1.0
 30
0.0
  9
$PUCSNAME
  2

  9
$PUCSORG
 10
0.0
 20
0.0
 30
0.0
  9
$PUCSXDIR
 10
1.0
 20
0.0
 30
0.0
  9
$PUCSYDIR
 10
0.0
 20
1.0
 30
0.0
  9
$USERI1
 70
     0
  9
$USERI2
 70
     0
  9
$USERI3
 70
     0
  9
$USERI4
 70
     0
  9
$USERI5
 70
     0
  9
$USERR1
 40
0.0
  9
$USERR2
 40
0.0
  9
$USERR3
 40
0.0
  9
$USERR4
 40
0.0
  9
$USERR5
 40
0.0
  9
$WORLDVIEW
 70
     1
  9
$SHADEDGE
 70
     3
  9
$SHADEDIF
 70
    70
  9
$TILEMODE
 70
     1
  9
$MAXACTVP
 70
    16
  9
$PINSBASE
 10
0.0
 20
0.0
 30
0.0
  9
$PLIMCHECK
 70
     0
  9
$PEXTMIN
 10
1.000000000000000E+20
 20
1.000000000000000E+20
 30
1.000000000000000E+20
  9
$PEXTMAX
 10
-1.000000000000000E+20
 20
-1.000000000000000E+20
 30
-1.000000000000000E+20
  9
$PLIMMIN
 10
0.0
 20
0.0
  9
$PLIMMAX
 10
12.0
 20
9.0
  9
$UNITMODE
 70
     0
  9
$VISRETAIN
 70
     0
  9
$PLINEGEN
 70
     0
  9
$PSLTSCALE
 70
     1
  9
$TREEDEPTH
 70
  3020
  9
$PICKSTYLE
 70
     1
  9
$CMLSTYLE
  2
STANDARD
  9
$CMLJUST
 70
     0
  9
$CMLSCALE
 40
1.0
  9
$SAVEIMAGES
 70
     1
  0
ENDSEC
  0
SECTION
  2
CLASSES
  0
CLASS
  1
ACDBDICTIONARYWDFLT
  2
AcDbDictionaryWithDefault
  3
AutoCAD 2000
 90
    32768
280
     0
281
     0
  0
CLASS
  1
ACDBPLACEHOLDER
  2
AcDbPlaceHolder
  3
AutoCAD 2000
 90
    32768
280
     0
281
     0
  0
CLASS
  1
LAYOUT
  2
AcDbLayout
  3
AutoCAD 2000
 90
    32768
280
     0
281
     0
  0
CLASS
  1
LONG_TRANSACTION
  2
AcDbLongTransaction
  3
AutoCAD 2000
 90
    32768
280
     0
281
     0
  0
CLASS
  1
LWPOLYLINE
  2
AcDbPolyline
  3
AutoCAD 2000
 90
    32768
280
     0
281
     1
  0
CLASS
  1
HATCH
  2
AcDbHatch
  3
AutoCAD 2000
 90
    32768
280
     0
281
     1
  0
CLASS
  1
XRECORD
  2
AcDbXrecord
  3
AutoCAD 2000
 90
    32768
280
     0
281
     0
  0
CLASS
  1
LONG_TRANSACTION
  2
AcDbLongTransaction
  3
AutoCAD 2000
 90
    32768
280
     0
281
     0
  0
CLASS
  1
LWPOLYLINE
  2
AcDbPolyline
  3
AutoCAD 2000
 90
    32768
280
     0
281
     1
  0
CLASS
  1
HATCH
  2
AcDbHatch
  3
AutoCAD 2000
 90
    32768
280
     0
281
     1
  0
CLASS
  1
XRECORD
  2
AcDbXrecord
  3
AutoCAD 2000
 90
    32768
280
     0
281
     0
  0
CLASS
  1
LONG_TRANSACTION
  2
AcDbLongTransaction
  3
AutoCAD 2000
 90
    32768
280
     0
281
     0
  0
CLASS
  1
LWPOLYLINE
  2
AcDbPolyline
  3
AutoCAD 2000
 90
    32768
280
     0
281
     1
  0
CLASS
  1
HATCH
  2
AcDbHatch
  3
AutoCAD 2000
 90
    32768
280
     0
281
     1
  0
CLASS
  1
XRECORD
  2
AcDbXrecord
  3
AutoCAD 2000
 90
    32768
280
     0
281
     0
  0
ENDSEC
  0
SECTION
  2
TABLES
  0
TABLE
  2
VPORT
  5
8
330
0
100
AcDbSymbolTable
 70
     2
  0
VPORT
  5
3EA1
330
8
100
AcDbSymbolTableRecord
100
AcDbViewportTableRecord
  2
*ACTIVE
 70
     0
 10
0.0
 20
0.0
 11
1.0
 21
1.0
 12
-0.5798944615738289
 22
1.496849330211869
 13
0.0
 23
0.0
 14
1.0
 24
1.0
 15
0.0
 25
0.0
 16
0.0
 26
0.0
 36
1.0
 17
0.0
 27
0.0
 37
0.0
 40
2.847767435592922
 41
1.647569444444444
 42
50.0
 43
0.0
 44
0.0
 50
0.0
 51
0.0
 71
     0
 72
   100
 73
     1
 74
     1
 75
     0
 76
     0
 77
     0
 78
     0
  0
ENDTAB
  0
TABLE
  2
LTYPE
  5
5
330
0
100
AcDbSymbolTable
 70
    25
  0
LTYPE
  5
13
330
5
100
AcDbSymbolTableRecord
100
AcDbLinetypeTableRecord
  2
BYBLOCK
 70
     0
  3

 72
    65
 73
     0
 40
0.0
  0
LTYPE
  5
14
330
5
100
AcDbSymbolTableRecord
100
AcDbLinetypeTableRecord
  2
BYLAYER
 70
     0
  3

 72
    65
 73
     0
 40
0.0
  0
LTYPE
  5
15
330
5
100
AcDbSymbolTableRecord
100
AcDbLinetypeTableRecord
  2
CONTINUOUS
 70
     0
  3
Solid line
 72
    65
 73
     0
 40
0.0
  0
LTYPE
  5
22
330
5
100
AcDbSymbolTableRecord
100
AcDbLinetypeTableRecord
  2
BORDER
 70
     0
  3
__ __ . __ __ . __ __ . __ __ . __ __ . __ __ .
 72
    65
 73
     6
 40
1.75
 49
0.5
 74
     0
 49
-0.25
 74
     0
 49
0.5
 74
     0
 49
-0.25
 74
     0
 49
0.5
 74
     0
 49
-0.25
 74
     0
  0
LTYPE
  5
23
330
5
100
AcDbSymbolTableRecord
100
AcDbLinetypeTableRecord
  2
BORDER2
 70
     0
  3
__.__.__.__.__.__.__.__.__.__.__.__.__.__.__.__
 72
    65
 73
     6
 40
0.875
 49
0.25
 74
     0
 49
-0.125
 74
     0
 49
0.25
 74
     0
 49
-0.125
 74
     0
 49
0.25
 74
     0
 49
-0.125
 74
     0
  0
LTYPE
  5
24
330
5
100
AcDbSymbolTableRecord
100
AcDbLinetypeTableRecord
  2
BORDERX2
 70
     0
  3
____  ____  .  ____  ____  .  
 72
    65
 73
     6
 40
3.5
 49
1.0
 74
     0
 49
-0.5
 74
     0
 49
1.0
 74
     0
 49
-0.5
 74
     0
 49
1.0
 74
     0
 49
-0.5
 74
     0
  0
LTYPE
  5
25
330
5
100
AcDbSymbolTableRecord
100
AcDbLinetypeTableRecord
  2
CENTER
 70
     0
  3
____ _ ____ _ ____ _ ____ _ ____ _ ____ _ ____
 72
    65
 73
     4
 40
2.0
 49
1.25
 74
     0
 49
-0.25
 74
     0
 49
0.25
 74
     0
 49
-0.25
 74
     0
  0
LTYPE
  5
26
330
5
100
AcDbSymbolTableRecord
100
AcDbLinetypeTableRecord
  2
CENTER2
 70
     0
  3
____ _ ____ _ ____ _ ____ _ ____ _ ____ _ ____
 72
    65
 73
     4
 40
1.125
 49
0.75
 74
     0
 49
-0.125
 74
     0
 49
0.125
 74
     0
 49
-0.125
 74
     0
  0
LTYPE
  5
27
330
5
100
AcDbSymbolTableRecord
100
AcDbLinetypeTableRecord
  2
CENTERX2
 70
     0
  3
________  __  ________  __  ________  __  
 72
    65
 73
     4
 40
4.0
 49
2.5
 74
     0
 49
-0.5
 74
     0
 49
0.5
 74
     0
 49
-0.5
 74
     0
  0
LTYPE
  5
28
330
5
100
AcDbSymbolTableRecord
100
AcDbLinetypeTableRecord
  2
DASHDOT
 70
     0
  3
__ . __ . __ . __ . __ . __ . __ . 
 72
    65
 73
     4
 40
1.0
 49
0.5
 74
     0
 49
-0.25
 74
     0
 49
0.0
 74
     0
 49
-0.25
 74
     0
  0
LTYPE
  5
29
330
5
100
AcDbSymbolTableRecord
100
AcDbLinetypeTableRecord
  2
DASHDOT2
 70
     0
  3
_._._._._._._._._._._._._._._._.
 72
    65
 73
     4
 40
0.5
 49
0.25
 74
     0
 49
-0.125
 74
     0
 49
0.0
 74
     0
 49
-0.125
 74
     0
  0
LTYPE
  5
2A
330
5
100
AcDbSymbolTableRecord
100
AcDbLinetypeTableRecord
  2
DASHDOTX2
 70
     0
  3
____  .  ____  .  ____  .  ____  .  
 72
    65
 73
     4
 40
2.0
 49
1.0
 74
     0
 49
-0.5
 74
     0
 49
0.0
 74
     0
 49
-0.5
 74
     0
  0
LTYPE
  5
2B
330
5
100
AcDbSymbolTableRecord
100
AcDbLinetypeTableRecord
  2
DASHED
 70
     0
  3
__ __ __ __ __ __ __ __ __ __ __ __ 
 72
    65
 73
     2
 40
0.75
 49
0.5
 74
     0
 49
-0.25
 74
     0
  0
LTYPE
  5
2C
330
5
100
AcDbSymbolTableRecord
100
AcDbLinetypeTableRecord
  2
DASHED2
 70
     0
  3
_ _ _ _ _ _ _ _ _ _ _ _ _ _ _ _ _ _ 
 72
    65
 73
     2
 40
0.375
 49
0.25
 74
     0
 49
-0.125
 74
     0
  0
LTYPE
  5
2D
330
5
100
AcDbSymbolTableRecord
100
AcDbLinetypeTableRecord
  2
DASHEDX2
 70
     0
  3
____  ____  ____  ____  ____  ____  
 72
    65
 73
     2
 40
1.5
 49
1.0
 74
     0
 49
-0.5
 74
     0
  0
LTYPE
  5
2E
330
5
100
AcDbSymbolTableRecord
100
AcDbLinetypeTableRecord
  2
DIVIDE
 70
     0
  3
____ . . ____ . . ____ . . ____ . . 
 72
    65
 73
     6
 40
1.25
 49
0.5
 74
     0
 49
-0.25
 74
     0
 49
0.0
 74
     0
 49
-0.25
 74
     0
 49
0.0
 74
     0
 49
-0.25
 74
     0
  0
LTYPE
  5
2F
330
5
100
AcDbSymbolTableRecord
100
AcDbLinetypeTableRecord
  2
DIVIDE2
 70
     0
  3
__..__..__..__..__..__..__..__..__..
 72
    65
 73
     6
 40
0.625
 49
0.25
 74
     0
 49
-0.125
 74
     0
 49
0.0
 74
     0
 49
-0.125
 74
     0
 49
0.0
 74
     0
 49
-0.125
 74
     0
  0
LTYPE
  5
30
330
5
100
AcDbSymbolTableRecord
100
AcDbLinetypeTableRecord
  2
DIVIDEX2
 70
     0
  3
________  .  .  ________  .  .  ________  .  . 
 72
    65
 73
     6
 40
2.5
 49
1.0
 74
     0
 49
-0.5
 74
     0
 49
0.0
 74
     0
 49
-0.5
 74
     0
 49
0.0
 74
     0
 49
-0.5
 74
     0
  0
LTYPE
  5
31
330
5
100
AcDbSymbolTableRecord
100
AcDbLinetypeTableRecord
  2
DOT
 70
     0
  3
. . . . . . . . . . . . . . . . . . 
 72
    65
 73
     2
 40
0.25
 49
0.0
 74
     0
 49
-0.25
 74
     0
  0
LTYPE
  5
32
330
5
100
AcDbSymbolTableRecord
100
AcDbLinetypeTableRecord
  2
DOT2
 70
     0
  3
....................................
 72
    65
 73
     2
 40
0.125
 49
0.0
 74
     0
 49
-0.125
 74
     0
  0
LTYPE
  5
33
330
5
100
AcDbSymbolTableRecord
100
AcDbLinetypeTableRecord
  2
DOTX2
 70
     0
  3
.  .  .  .  .  .  .  .  .  .  .  .  .  
 72
    65
 73
     2
 40
0.5
 49
0.0
 74
     0
 49
-0.5
 74
     0
  0
LTYPE
  5
34
330
5
100
AcDbSymbolTableRecord
100
AcDbLinetypeTableRecord
  2
HIDDEN
 70
     0
  3
__ __ __ __ __ __ __ __ __ __ __ __ 
 72
    65
 73
     2
 40
0.375
 49
0.25
 74
     0
 49
-0.125
 74
     0
  0
LTYPE
  5
35
330
5
100
AcDbSymbolTableRecord
100
AcDbLinetypeTableRecord
  2
HIDDEN2
 70
     0
  3
_ _ _ _ _ _ _ _ _ _ _ _ _ _ _ _ _ _ 
 72
    65
 73
     2
 40
0.1875
 49
0.125
 74
     0
 49
-0.0625
 74
     0
  0
LTYPE
  5
36
330
5
100
AcDbSymbolTableRecord
100
AcDbLinetypeTableRecord
  2
HIDDENX2
 70
     0
  3
____ ____ ____ ____ ____ ____ ____ 
 72
    65
 73
     2
 40
0.75
 49
0.5
 74
     0
 49
-0.25
 74
     0
  0
LTYPE
  5
37
330
5
100
AcDbSymbolTableRecord
100
AcDbLinetypeTableRecord
  2
PHANTOM
 70
     0
  3
______  __  __  ______  __  __  
 72
    65
 73
     6
 40
2.5
 49
1.25
 74
     0
 49
-0.25
 74
     0
 49
0.25
 74
     0
 49
-0.25
 74
     0
 49
0.25
 74
     0
 49
-0.25
 74
     0
  0
LTYPE
  5
38
330
5
100
AcDbSymbolTableRecord
100
AcDbLinetypeTableRecord
  2
PHANTOM2
 70
     0
  3
___ _ _ ___ _ _ ___ _ _ ___ _ _ 
 72
    65
 73
     6
 40
1.25
 49
0.625
 74
     0
 49
-0.125
 74
     0
 49
0.125
 74
     0
 49
-0.125
 74
     0
 49
0.125
 74
     0
 49
-0.125
 74
     0
  0
LTYPE
  5
39
330
5
100
AcDbSymbolTableRecord
100
AcDbLinetypeTableRecord
  2
PHANTOMX2
 70
     0
  3
___ _ _ ___ _ _ ___ _ _ ___ _ _ 
 72
    65
 73
     6
 40
5.0
 49
2.5
 74
     0
 49
-0.5
 74
     0
 49
0.5
 74
     0
 49
-0.5
 74
     0
 49
0.5
 74
     0
 49
-0.5
 74
     0
  0
ENDTAB
  0
TABLE
  2
LAYER
  5
2
330
0
100
AcDbSymbolTable
 70
   257
  0
LAYER
  5
10
330
2
100
AcDbSymbolTableRecord
100
AcDbLayerTableRecord
  2
0
 70
     0
 62
     7
  6
CONTINUOUS
  0
LAYER
  5
3A
330
2
100
AcDbSymbolTableRecord
100
AcDbLayerTableRecord
  2
1
 70
     0
 62
     1
  6
CONTINUOUS
  0
LAYER
  5
3B
330
2
100
AcDbSymbolTableRecord
100
AcDbLayerTableRecord
  2
2
 70
     0
 62
     2
  6
CONTINUOUS
  0
LAYER
  5
3C
330
2
100
AcDbSymbolTableRecord
100
AcDbLayerTableRecord
  2
3
 70
     0
 62
     3
  6
CONTINUOUS
  0
LAYER
  5
3D
330
2
100
AcDbSymbolTableRecord
100
AcDbLayerTableRecord
  2
4
 70
     0
 62
     4
  6
CONTINUOUS
  0
LAYER
  5
3E
330
2
100
AcDbSymbolTableRecord
100
AcDbLayerTableRecord
  2
5
 70
     0
 62
     5
  6
CONTINUOUS
  0
LAYER
  5
3F
330
2
100
AcDbSymbolTableRecord
100
AcDbLayerTableRecord
  2
6
 70
     0
 62
     6
  6
CONTINUOUS
  0
LAYER
  5
40
330
2
100
AcDbSymbolTableRecord
100
AcDbLayerTableRecord
  2
7
 70
     0
 62
     7
  6
CONTINUOUS
  0
LAYER
  5
41
330
2
100
AcDbSymbolTableRecord
100
AcDbLayerTableRecord
  2
8
 70
     0
 62
     8
  6
CONTINUOUS
  0
LAYER
  5
42
330
2
100
AcDbSymbolTableRecord
100
AcDbLayerTableRecord
  2
9
 70
     0
 62
     9
  6
CONTINUOUS
  0
LAYER
  5
43
330
2
100
AcDbSymbolTableRecord
100
AcDbLayerTableRecord
  2
10
 70
     0
 62
    10
  6
CONTINUOUS
  0
LAYER
  5
44
330
2
100
AcDbSymbolTableRecord
100
AcDbLayerTableRecord
  2
11
 70
     0
 62
    11
  6
CONTINUOUS
  0
LAYER
  5
45
330
2
100
AcDbSymbolTableRecord
100
AcDbLayerTableRecord
  2
12
 70
     0
 62
    12
  6
CONTINUOUS
  0
LAYER
  5
46
330
2
100
AcDbSymbolTableRecord
100
AcDbLayerTableRecord
  2
13
 70
     0
 62
    13
  6
CONTINUOUS
  0
LAYER
  5
47
330
2
100
AcDbSymbolTableRecord
100
AcDbLayerTableRecord
  2
14
 70
     0
 62
    14
  6
CONTINUOUS
  0
LAYER
  5
48
330
2
100
AcDbSymbolTableRecord
100
AcDbLayerTableRecord
  2
15
 70
     0
 62
    15
  6
CONTINUOUS
  0
LAYER
  5
49
330
2
100
AcDbSymbolTableRecord
100
AcDbLayerTableRecord
  2
16
 70
     0
 62
    16
  6
CONTINUOUS
  0
LAYER
  5
4A
330
2
100
AcDbSymbolTableRecord
100
AcDbLayerTableRecord
  2
17
 70
     0
 62
    17
  6
CONTINUOUS
  0
LAYER
  5
4B
330
2
100
AcDbSymbolTableRecord
100
AcDbLayerTableRecord
  2
18
 70
     0
 62
    18
  6
CONTINUOUS
  0
LAYER
  5
4C
330
2
100
AcDbSymbolTableRecord
100
AcDbLayerTableRecord
  2
19
 70
     0
 62
    19
  6
CONTINUOUS
  0
LAYER
  5
4D
330
2
100
AcDbSymbolTableRecord
100
AcDbLayerTableRecord
  2
20
 70
     0
 62
    20
  6
CONTINUOUS
  0
LAYER
  5
4E
330
2
100
AcDbSymbolTableRecord
100
AcDbLayerTableRecord
  2
21
 70
     0
 62
    21
  6
CONTINUOUS
  0
LAYER
  5
4F
330
2
100
AcDbSymbolTableRecord
100
AcDbLayerTableRecord
  2
22
 70
     0
 62
    22
  6
CONTINUOUS
  0
LAYER
  5
50
330
2
100
AcDbSymbolTableRecord
100
AcDbLayerTableRecord
  2
23
 70
     0
 62
    23
  6
CONTINUOUS
  0
LAYER
  5
51
330
2
100
AcDbSymbolTableRecord
100
AcDbLayerTableRecord
  2
24
 70
     0
 62
    24
  6
CONTINUOUS
  0
LAYER
  5
52
330
2
100
AcDbSymbolTableRecord
100
AcDbLayerTableRecord
  2
25
 70
     0
 62
    25
  6
CONTINUOUS
  0
LAYER
  5
53
330
2
100
AcDbSymbolTableRecord
100
AcDbLayerTableRecord
  2
26
 70
     0
 62
    26
  6
CONTINUOUS
  0
LAYER
  5
54
330
2
100
AcDbSymbolTableRecord
100
AcDbLayerTableRecord
  2
27
 70
     0
 62
    27
  6
CONTINUOUS
  0
LAYER
  5
55
330
2
100
AcDbSymbolTableRecord
100
AcDbLayerTableRecord
  2
28
 70
     0
 62
    28
  6
CONTINUOUS
  0
LAYER
  5
56
330
2
100
AcDbSymbolTableRecord
100
AcDbLayerTableRecord
  2
29
 70
     0
 62
    29
  6
CONTINUOUS
  0
LAYER
  5
57
330
2
100
AcDbSymbolTableRecord
100
AcDbLayerTableRecord
  2
30
 70
     0
 62
    30
  6
CONTINUOUS
  0
LAYER
  5
58
330
2
100
AcDbSymbolTableRecord
100
AcDbLayerTableRecord
  2
31
 70
     0
 62
    31
  6
CONTINUOUS
  0
LAYER
  5
59
330
2
100
AcDbSymbolTableRecord
100
AcDbLayerTableRecord
  2
32
 70
     0
 62
    32
  6
CONTINUOUS
  0
LAYER
  5
5A
330
2
100
AcDbSymbolTableRecord
100
AcDbLayerTableRecord
  2
33
 70
     0
 62
    33
  6
CONTINUOUS
  0
LAYER
  5
5B
330
2
100
AcDbSymbolTableRecord
100
AcDbLayerTableRecord
  2
34
 70
     0
 62
    34
  6
CONTINUOUS
  0
LAYER
  5
5C
330
2
100
AcDbSymbolTableRecord
100
AcDbLayerTableRecord
  2
35
 70
     0
 62
    35
  6
CONTINUOUS
  0
LAYER
  5
5D
330
2
100
AcDbSymbolTableRecord
100
AcDbLayerTableRecord
  2
36
 70
     0
 62
    36
  6
CONTINUOUS
  0
LAYER
  5
5E
330
2
100
AcDbSymbolTableRecord
100
AcDbLayerTableRecord
  2
37
 70
     0
 62
    37
  6
CONTINUOUS
  0
LAYER
  5
5F
330
2
100
AcDbSymbolTableRecord
100
AcDbLayerTableRecord
  2
38
 70
     0
 62
    38
  6
CONTINUOUS
  0
LAYER
  5
60
330
2
100
AcDbSymbolTableRecord
100
AcDbLayerTableRecord
  2
39
 70
     0
 62
    39
  6
CONTINUOUS
  0
LAYER
  5
61
330
2
100
AcDbSymbolTableRecord
100
AcDbLayerTableRecord
  2
40
 70
     0
 62
    40
  6
CONTINUOUS
  0
LAYER
  5
62
330
2
100
AcDbSymbolTableRecord
100
AcDbLayerTableRecord
  2
41
 70
     0
 62
    41
  6
CONTINUOUS
  0
LAYER
  5
63
330
2
100
AcDbSymbolTableRecord
100
AcDbLayerTableRecord
  2
42
 70
     0
 62
    42
  6
CONTINUOUS
  0
LAYER
  5
64
330
2
100
AcDbSymbolTableRecord
100
AcDbLayerTableRecord
  2
43
 70
     0
 62
    43
  6
CONTINUOUS
  0
LAYER
  5
65
330
2
100
AcDbSymbolTableRecord
100
AcDbLayerTableRecord
  2
44
 70
     0
 62
    44
  6
CONTINUOUS
  0
LAYER
  5
66
330
2
100
AcDbSymbolTableRecord
100
AcDbLayerTableRecord
  2
45
 70
     0
 62
    45
  6
CONTINUOUS
  0
LAYER
  5
67
330
2
100
AcDbSymbolTableRecord
100
AcDbLayerTableRecord
  2
46
 70
     0
 62
    46
  6
CONTINUOUS
  0
LAYER
  5
68
330
2
100
AcDbSymbolTableRecord
100
AcDbLayerTableRecord
  2
47
 70
     0
 62
    47
  6
CONTINUOUS
  0
LAYER
  5
69
330
2
100
AcDbSymbolTableRecord
100
AcDbLayerTableRecord
  2
48
 70
     0
 62
    48
  6
CONTINUOUS
  0
LAYER
  5
6A
330
2
100
AcDbSymbolTableRecord
100
AcDbLayerTableRecord
  2
49
 70
     0
 62
    49
  6
CONTINUOUS
  0
LAYER
  5
6B
330
2
100
AcDbSymbolTableRecord
100
AcDbLayerTableRecord
  2
50
 70
     0
 62
    50
  6
CONTINUOUS
  0
LAYER
  5
6C
330
2
100
AcDbSymbolTableRecord
100
AcDbLayerTableRecord
  2
51
 70
     0
 62
    51
  6
CONTINUOUS
  0
LAYER
  5
6D
330
2
100
AcDbSymbolTableRecord
100
AcDbLayerTableRecord
  2
52
 70
     0
 62
    52
  6
CONTINUOUS
  0
LAYER
  5
6E
330
2
100
AcDbSymbolTableRecord
100
AcDbLayerTableRecord
  2
53
 70
     0
 62
    53
  6
CONTINUOUS
  0
LAYER
  5
6F
330
2
100
AcDbSymbolTableRecord
100
AcDbLayerTableRecord
  2
54
 70
     0
 62
    54
  6
CONTINUOUS
  0
LAYER
  5
70
330
2
100
AcDbSymbolTableRecord
100
AcDbLayerTableRecord
  2
55
 70
     0
 62
    55
  6
CONTINUOUS
  0
LAYER
  5
71
330
2
100
AcDbSymbolTableRecord
100
AcDbLayerTableRecord
  2
56
 70
     0
 62
    56
  6
CONTINUOUS
  0
LAYER
  5
72
330
2
100
AcDbSymbolTableRecord
100
AcDbLayerTableRecord
  2
57
 70
     0
 62
    57
  6
CONTINUOUS
  0
LAYER
  5
73
330
2
100
AcDbSymbolTableRecord
100
AcDbLayerTableRecord
  2
58
 70
     0
 62
    58
  6
CONTINUOUS
  0
LAYER
  5
74
330
2
100
AcDbSymbolTableRecord
100
AcDbLayerTableRecord
  2
59
 70
     0
 62
    59
  6
CONTINUOUS
  0
LAYER
  5
75
330
2
100
AcDbSymbolTableRecord
100
AcDbLayerTableRecord
  2
60
 70
     0
 62
    60
  6
CONTINUOUS
  0
LAYER
  5
76
330
2
100
AcDbSymbolTableRecord
100
AcDbLayerTableRecord
  2
61
 70
     0
 62
    61
  6
CONTINUOUS
  0
LAYER
  5
77
330
2
100
AcDbSymbolTableRecord
100
AcDbLayerTableRecord
  2
62
 70
     0
 62
    62
  6
CONTINUOUS
  0
LAYER
  5
78
330
2
100
AcDbSymbolTableRecord
100
AcDbLayerTableRecord
  2
63
 70
     0
 62
    63
  6
CONTINUOUS
  0
LAYER
  5
79
330
2
100
AcDbSymbolTableRecord
100
AcDbLayerTableRecord
  2
64
 70
     0
 62
    64
  6
CONTINUOUS
  0
LAYER
  5
7A
330
2
100
AcDbSymbolTableRecord
100
AcDbLayerTableRecord
  2
65
 70
     0
 62
    65
  6
CONTINUOUS
  0
LAYER
  5
7B
330
2
100
AcDbSymbolTableRecord
100
AcDbLayerTableRecord
  2
66
 70
     0
 62
    66
  6
CONTINUOUS
  0
LAYER
  5
7C
330
2
100
AcDbSymbolTableRecord
100
AcDbLayerTableRecord
  2
67
 70
     0
 62
    67
  6
CONTINUOUS
  0
LAYER
  5
7D
330
2
100
AcDbSymbolTableRecord
100
AcDbLayerTableRecord
  2
68
 70
     0
 62
    68
  6
CONTINUOUS
  0
LAYER
  5
7E
330
2
100
AcDbSymbolTableRecord
100
AcDbLayerTableRecord
  2
69
 70
     0
 62
    69
  6
CONTINUOUS
  0
LAYER
  5
7F
330
2
100
AcDbSymbolTableRecord
100
AcDbLayerTableRecord
  2
70
 70
     0
 62
    70
  6
CONTINUOUS
  0
LAYER
  5
80
330
2
100
AcDbSymbolTableRecord
100
AcDbLayerTableRecord
  2
71
 70
     0
 62
    71
  6
CONTINUOUS
  0
LAYER
  5
81
330
2
100
AcDbSymbolTableRecord
100
AcDbLayerTableRecord
  2
72
 70
     0
 62
    72
  6
CONTINUOUS
  0
LAYER
  5
82
330
2
100
AcDbSymbolTableRecord
100
AcDbLayerTableRecord
  2
73
 70
     0
 62
    73
  6
CONTINUOUS
  0
LAYER
  5
83
330
2
100
AcDbSymbolTableRecord
100
AcDbLayerTableRecord
  2
74
 70
     0
 62
    74
  6
CONTINUOUS
  0
LAYER
  5
84
330
2
100
AcDbSymbolTableRecord
100
AcDbLayerTableRecord
  2
75
 70
     0
 62
    75
  6
CONTINUOUS
  0
LAYER
  5
85
330
2
100
AcDbSymbolTableRecord
100
AcDbLayerTableRecord
  2
76
 70
     0
 62
    76
  6
CONTINUOUS
  0
LAYER
  5
86
330
2
100
AcDbSymbolTableRecord
100
AcDbLayerTableRecord
  2
77
 70
     0
 62
    77
  6
CONTINUOUS
  0
LAYER
  5
87
330
2
100
AcDbSymbolTableRecord
100
AcDbLayerTableRecord
  2
78
 70
     0
 62
    78
  6
CONTINUOUS
  0
LAYER
  5
88
330
2
100
AcDbSymbolTableRecord
100
AcDbLayerTableRecord
  2
79
 70
     0
 62
    79
  6
CONTINUOUS
  0
LAYER
  5
89
330
2
100
AcDbSymbolTableRecord
100
AcDbLayerTableRecord
  2
80
 70
     0
 62
    80
  6
CONTINUOUS
  0
LAYER
  5
8A
330
2
100
AcDbSymbolTableRecord
100
AcDbLayerTableRecord
  2
81
 70
     0
 62
    81
  6
CONTINUOUS
  0
LAYER
  5
8B
330
2
100
AcDbSymbolTableRecord
100
AcDbLayerTableRecord
  2
82
 70
     0
 62
    82
  6
CONTINUOUS
  0
LAYER
  5
8C
330
2
100
AcDbSymbolTableRecord
100
AcDbLayerTableRecord
  2
83
 70
     0
 62
    83
  6
CONTINUOUS
  0
LAYER
  5
8D
330
2
100
AcDbSymbolTableRecord
100
AcDbLayerTableRecord
  2
84
 70
     0
 62
    84
  6
CONTINUOUS
  0
LAYER
  5
8E
330
2
100
AcDbSymbolTableRecord
100
AcDbLayerTableRecord
  2
85
 70
     0
 62
    85
  6
CONTINUOUS
  0
LAYER
  5
8F
330
2
100
AcDbSymbolTableRecord
100
AcDbLayerTableRecord
  2
86
 70
     0
 62
    86
  6
CONTINUOUS
  0
LAYER
  5
90
330
2
100
AcDbSymbolTableRecord
100
AcDbLayerTableRecord
  2
87
 70
     0
 62
    87
  6
CONTINUOUS
  0
LAYER
  5
91
330
2
100
AcDbSymbolTableRecord
100
AcDbLayerTableRecord
  2
88
 70
     0
 62
    88
  6
CONTINUOUS
  0
LAYER
  5
92
330
2
100
AcDbSymbolTableRecord
100
AcDbLayerTableRecord
  2
89
 70
     0
 62
    89
  6
CONTINUOUS
  0
LAYER
  5
93
330
2
100
AcDbSymbolTableRecord
100
AcDbLayerTableRecord
  2
90
 70
     0
 62
    90
  6
CONTINUOUS
  0
LAYER
  5
94
330
2
100
AcDbSymbolTableRecord
100
AcDbLayerTableRecord
  2
91
 70
     0
 62
    91
  6
CONTINUOUS
  0
LAYER
  5
95
330
2
100
AcDbSymbolTableRecord
100
AcDbLayerTableRecord
  2
92
 70
     0
 62
    92
  6
CONTINUOUS
  0
LAYER
  5
96
330
2
100
AcDbSymbolTableRecord
100
AcDbLayerTableRecord
  2
93
 70
     0
 62
    93
  6
CONTINUOUS
  0
LAYER
  5
97
330
2
100
AcDbSymbolTableRecord
100
AcDbLayerTableRecord
  2
94
 70
     0
 62
    94
  6
CONTINUOUS
  0
LAYER
  5
98
330
2
100
AcDbSymbolTableRecord
100
AcDbLayerTableRecord
  2
95
 70
     0
 62
    95
  6
CONTINUOUS
  0
LAYER
  5
99
330
2
100
AcDbSymbolTableRecord
100
AcDbLayerTableRecord
  2
96
 70
     0
 62
    96
  6
CONTINUOUS
  0
LAYER
  5
9A
330
2
100
AcDbSymbolTableRecord
100
AcDbLayerTableRecord
  2
97
 70
     0
 62
    97
  6
CONTINUOUS
  0
LAYER
  5
9B
330
2
100
AcDbSymbolTableRecord
100
AcDbLayerTableRecord
  2
98
 70
     0
 62
    98
  6
CONTINUOUS
  0
LAYER
  5
9C
330
2
100
AcDbSymbolTableRecord
100
AcDbLayerTableRecord
  2
99
 70
     0
 62
    99
  6
CONTINUOUS
  0
LAYER
  5
9D
330
2
100
AcDbSymbolTableRecord
100
AcDbLayerTableRecord
  2
100
 70
     0
 62
   100
  6
CONTINUOUS
  0
LAYER
  5
9E
330
2
100
AcDbSymbolTableRecord
100
AcDbLayerTableRecord
  2
101
 70
     0
 62
   101
  6
CONTINUOUS
  0
LAYER
  5
9F
330
2
100
AcDbSymbolTableRecord
100
AcDbLayerTableRecord
  2
102
 70
     0
 62
   102
  6
CONTINUOUS
  0
LAYER
  5
A0
330
2
100
AcDbSymbolTableRecord
100
AcDbLayerTableRecord
  2
103
 70
     0
 62
   103
  6
CONTINUOUS
  0
LAYER
  5
A1
330
2
100
AcDbSymbolTableRecord
100
AcDbLayerTableRecord
  2
104
 70
     0
 62
   104
  6
CONTINUOUS
  0
LAYER
  5
A2
330
2
100
AcDbSymbolTableRecord
100
AcDbLayerTableRecord
  2
105
 70
     0
 62
   105
  6
CONTINUOUS
  0
LAYER
  5
A3
330
2
100
AcDbSymbolTableRecord
100
AcDbLayerTableRecord
  2
106
 70
     0
 62
   106
  6
CONTINUOUS
  0
LAYER
  5
A4
330
2
100
AcDbSymbolTableRecord
100
AcDbLayerTableRecord
  2
107
 70
     0
 62
   107
  6
CONTINUOUS
  0
LAYER
  5
A5
330
2
100
AcDbSymbolTableRecord
100
AcDbLayerTableRecord
  2
108
 70
     0
 62
   108
  6
CONTINUOUS
  0
LAYER
  5
A6
330
2
100
AcDbSymbolTableRecord
100
AcDbLayerTableRecord
  2
109
 70
     0
 62
   109
  6
CONTINUOUS
  0
LAYER
  5
A7
330
2
100
AcDbSymbolTableRecord
100
AcDbLayerTableRecord
  2
110
 70
     0
 62
   110
  6
CONTINUOUS
  0
LAYER
  5
A8
330
2
100
AcDbSymbolTableRecord
100
AcDbLayerTableRecord
  2
111
 70
     0
 62
   111
  6
CONTINUOUS
  0
LAYER
  5
A9
330
2
100
AcDbSymbolTableRecord
100
AcDbLayerTableRecord
  2
112
 70
     0
 62
   112
  6
CONTINUOUS
  0
LAYER
  5
AA
330
2
100
AcDbSymbolTableRecord
100
AcDbLayerTableRecord
  2
113
 70
     0
 62
   113
  6
CONTINUOUS
  0
LAYER
  5
AB
330
2
100
AcDbSymbolTableRecord
100
AcDbLayerTableRecord
  2
114
 70
     0
 62
   114
  6
CONTINUOUS
  0
LAYER
  5
AC
330
2
100
AcDbSymbolTableRecord
100
AcDbLayerTableRecord
  2
115
 70
     0
 62
   115
  6
CONTINUOUS
  0
LAYER
  5
AD
330
2
100
AcDbSymbolTableRecord
100
AcDbLayerTableRecord
  2
116
 70
     0
 62
   116
  6
CONTINUOUS
  0
LAYER
  5
AE
330
2
100
AcDbSymbolTableRecord
100
AcDbLayerTableRecord
  2
117
 70
     0
 62
   117
  6
CONTINUOUS
  0
LAYER
  5
AF
330
2
100
AcDbSymbolTableRecord
100
AcDbLayerTableRecord
  2
118
 70
     0
 62
   118
  6
CONTINUOUS
  0
LAYER
  5
B0
330
2
100
AcDbSymbolTableRecord
100
AcDbLayerTableRecord
  2
119
 70
     0
 62
   119
  6
CONTINUOUS
  0
LAYER
  5
B1
330
2
100
AcDbSymbolTableRecord
100
AcDbLayerTableRecord
  2
120
 70
     0
 62
   120
  6
CONTINUOUS
  0
LAYER
  5
B2
330
2
100
AcDbSymbolTableRecord
100
AcDbLayerTableRecord
  2
121
 70
     0
 62
   121
  6
CONTINUOUS
  0
LAYER
  5
B3
330
2
100
AcDbSymbolTableRecord
100
AcDbLayerTableRecord
  2
122
 70
     0
 62
   122
  6
CONTINUOUS
  0
LAYER
  5
B4
330
2
100
AcDbSymbolTableRecord
100
AcDbLayerTableRecord
  2
123
 70
     0
 62
   123
  6
CONTINUOUS
  0
LAYER
  5
B5
330
2
100
AcDbSymbolTableRecord
100
AcDbLayerTableRecord
  2
124
 70
     0
 62
   124
  6
CONTINUOUS
  0
LAYER
  5
B6
330
2
100
AcDbSymbolTableRecord
100
AcDbLayerTableRecord
  2
125
 70
     0
 62
   125
  6
CONTINUOUS
  0
LAYER
  5
B7
330
2
100
AcDbSymbolTableRecord
100
AcDbLayerTableRecord
  2
126
 70
     0
 62
   126
  6
CONTINUOUS
  0
LAYER
  5
B8
330
2
100
AcDbSymbolTableRecord
100
AcDbLayerTableRecord
  2
127
 70
     0
 62
   127
  6
CONTINUOUS
  0
LAYER
  5
B9
330
2
100
AcDbSymbolTableRecord
100
AcDbLayerTableRecord
  2
128
 70
     0
 62
   128
  6
CONTINUOUS
  0
LAYER
  5
BA
330
2
100
AcDbSymbolTableRecord
100
AcDbLayerTableRecord
  2
129
 70
     0
 62
   129
  6
CONTINUOUS
  0
LAYER
  5
BB
330
2
100
AcDbSymbolTableRecord
100
AcDbLayerTableRecord
  2
130
 70
     0
 62
   130
  6
CONTINUOUS
  0
LAYER
  5
BC
330
2
100
AcDbSymbolTableRecord
100
AcDbLayerTableRecord
  2
131
 70
     0
 62
   131
  6
CONTINUOUS
  0
LAYER
  5
BD
330
2
100
AcDbSymbolTableRecord
100
AcDbLayerTableRecord
  2
132
 70
     0
 62
   132
  6
CONTINUOUS
  0
LAYER
  5
BE
330
2
100
AcDbSymbolTableRecord
100
AcDbLayerTableRecord
  2
133
 70
     0
 62
   133
  6
CONTINUOUS
  0
LAYER
  5
BF
330
2
100
AcDbSymbolTableRecord
100
AcDbLayerTableRecord
  2
134
 70
     0
 62
   134
  6
CONTINUOUS
  0
LAYER
  5
C0
330
2
100
AcDbSymbolTableRecord
100
AcDbLayerTableRecord
  2
135
 70
     0
 62
   135
  6
CONTINUOUS
  0
LAYER
  5
C1
330
2
100
AcDbSymbolTableRecord
100
AcDbLayerTableRecord
  2
136
 70
     0
 62
   136
  6
CONTINUOUS
  0
LAYER
  5
C2
330
2
100
AcDbSymbolTableRecord
100
AcDbLayerTableRecord
  2
137
 70
     0
 62
   137
  6
CONTINUOUS
  0
LAYER
  5
C3
330
2
100
AcDbSymbolTableRecord
100
AcDbLayerTableRecord
  2
138
 70
     0
 62
   138
  6
CONTINUOUS
  0
LAYER
  5
C4
330
2
100
AcDbSymbolTableRecord
100
AcDbLayerTableRecord
  2
139
 70
     0
 62
   139
  6
CONTINUOUS
  0
LAYER
  5
C5
330
2
100
AcDbSymbolTableRecord
100
AcDbLayerTableRecord
  2
140
 70
     0
 62
   140
  6
CONTINUOUS
  0
LAYER
  5
C6
330
2
100
AcDbSymbolTableRecord
100
AcDbLayerTableRecord
  2
141
 70
     0
 62
   141
  6
CONTINUOUS
  0
LAYER
  5
C7
330
2
100
AcDbSymbolTableRecord
100
AcDbLayerTableRecord
  2
142
 70
     0
 62
   142
  6
CONTINUOUS
  0
LAYER
  5
C8
330
2
100
AcDbSymbolTableRecord
100
AcDbLayerTableRecord
  2
143
 70
     0
 62
   143
  6
CONTINUOUS
  0
LAYER
  5
C9
330
2
100
AcDbSymbolTableRecord
100
AcDbLayerTableRecord
  2
144
 70
     0
 62
   144
  6
CONTINUOUS
  0
LAYER
  5
CA
330
2
100
AcDbSymbolTableRecord
100
AcDbLayerTableRecord
  2
145
 70
     0
 62
   145
  6
CONTINUOUS
  0
LAYER
  5
CB
330
2
100
AcDbSymbolTableRecord
100
AcDbLayerTableRecord
  2
146
 70
     0
 62
   146
  6
CONTINUOUS
  0
LAYER
  5
CC
330
2
100
AcDbSymbolTableRecord
100
AcDbLayerTableRecord
  2
147
 70
     0
 62
   147
  6
CONTINUOUS
  0
LAYER
  5
CD
330
2
100
AcDbSymbolTableRecord
100
AcDbLayerTableRecord
  2
148
 70
     0
 62
   148
  6
CONTINUOUS
  0
LAYER
  5
CE
330
2
100
AcDbSymbolTableRecord
100
AcDbLayerTableRecord
  2
149
 70
     0
 62
   149
  6
CONTINUOUS
  0
LAYER
  5
CF
330
2
100
AcDbSymbolTableRecord
100
AcDbLayerTableRecord
  2
150
 70
     0
 62
   150
  6
CONTINUOUS
  0
LAYER
  5
D0
330
2
100
AcDbSymbolTableRecord
100
AcDbLayerTableRecord
  2
151
 70
     0
 62
   151
  6
CONTINUOUS
  0
LAYER
  5
D1
330
2
100
AcDbSymbolTableRecord
100
AcDbLayerTableRecord
  2
152
 70
     0
 62
   152
  6
CONTINUOUS
  0
LAYER
  5
D2
330
2
100
AcDbSymbolTableRecord
100
AcDbLayerTableRecord
  2
153
 70
     0
 62
   153
  6
CONTINUOUS
  0
LAYER
  5
D3
330
2
100
AcDbSymbolTableRecord
100
AcDbLayerTableRecord
  2
154
 70
     0
 62
   154
  6
CONTINUOUS
  0
LAYER
  5
D4
330
2
100
AcDbSymbolTableRecord
100
AcDbLayerTableRecord
  2
155
 70
     0
 62
   155
  6
CONTINUOUS
  0
LAYER
  5
D5
330
2
100
AcDbSymbolTableRecord
100
AcDbLayerTableRecord
  2
156
 70
     0
 62
   156
  6
CONTINUOUS
  0
LAYER
  5
D6
330
2
100
AcDbSymbolTableRecord
100
AcDbLayerTableRecord
  2
157
 70
     0
 62
   157
  6
CONTINUOUS
  0
LAYER
  5
D7
330
2
100
AcDbSymbolTableRecord
100
AcDbLayerTableRecord
  2
158
 70
     0
 62
   158
  6
CONTINUOUS
  0
LAYER
  5
D8
330
2
100
AcDbSymbolTableRecord
100
AcDbLayerTableRecord
  2
159
 70
     0
 62
   159
  6
CONTINUOUS
  0
LAYER
  5
D9
330
2
100
AcDbSymbolTableRecord
100
AcDbLayerTableRecord
  2
160
 70
     0
 62
   160
  6
CONTINUOUS
  0
LAYER
  5
DA
330
2
100
AcDbSymbolTableRecord
100
AcDbLayerTableRecord
  2
161
 70
     0
 62
   161
  6
CONTINUOUS
  0
LAYER
  5
DB
330
2
100
AcDbSymbolTableRecord
100
AcDbLayerTableRecord
  2
162
 70
     0
 62
   162
  6
CONTINUOUS
  0
LAYER
  5
DC
330
2
100
AcDbSymbolTableRecord
100
AcDbLayerTableRecord
  2
163
 70
     0
 62
   163
  6
CONTINUOUS
  0
LAYER
  5
DD
330
2
100
AcDbSymbolTableRecord
100
AcDbLayerTableRecord
  2
164
 70
     0
 62
   164
  6
CONTINUOUS
  0
LAYER
  5
DE
330
2
100
AcDbSymbolTableRecord
100
AcDbLayerTableRecord
  2
165
 70
     0
 62
   165
  6
CONTINUOUS
  0
LAYER
  5
DF
330
2
100
AcDbSymbolTableRecord
100
AcDbLayerTableRecord
  2
166
 70
     0
 62
   166
  6
CONTINUOUS
  0
LAYER
  5
E0
330
2
100
AcDbSymbolTableRecord
100
AcDbLayerTableRecord
  2
167
 70
     0
 62
   167
  6
CONTINUOUS
  0
LAYER
  5
E1
330
2
100
AcDbSymbolTableRecord
100
AcDbLayerTableRecord
  2
168
 70
     0
 62
   168
  6
CONTINUOUS
  0
LAYER
  5
E2
330
2
100
AcDbSymbolTableRecord
100
AcDbLayerTableRecord
  2
169
 70
     0
 62
   169
  6
CONTINUOUS
  0
LAYER
  5
E3
330
2
100
AcDbSymbolTableRecord
100
AcDbLayerTableRecord
  2
170
 70
     0
 62
   170
  6
CONTINUOUS
  0
LAYER
  5
E4
330
2
100
AcDbSymbolTableRecord
100
AcDbLayerTableRecord
  2
171
 70
     0
 62
   171
  6
CONTINUOUS
  0
LAYER
  5
E5
330
2
100
AcDbSymbolTableRecord
100
AcDbLayerTableRecord
  2
172
 70
     0
 62
   172
  6
CONTINUOUS
  0
LAYER
  5
E6
330
2
100
AcDbSymbolTableRecord
100
AcDbLayerTableRecord
  2
173
 70
     0
 62
   173
  6
CONTINUOUS
  0
LAYER
  5
E7
330
2
100
AcDbSymbolTableRecord
100
AcDbLayerTableRecord
  2
174
 70
     0
 62
   174
  6
CONTINUOUS
  0
LAYER
  5
E8
330
2
100
AcDbSymbolTableRecord
100
AcDbLayerTableRecord
  2
175
 70
     0
 62
   175
  6
CONTINUOUS
  0
LAYER
  5
E9
330
2
100
AcDbSymbolTableRecord
100
AcDbLayerTableRecord
  2
176
 70
     0
 62
   176
  6
CONTINUOUS
  0
LAYER
  5
EA
330
2
100
AcDbSymbolTableRecord
100
AcDbLayerTableRecord
  2
177
 70
     0
 62
   177
  6
CONTINUOUS
  0
LAYER
  5
EB
330
2
100
AcDbSymbolTableRecord
100
AcDbLayerTableRecord
  2
178
 70
     0
 62
   178
  6
CONTINUOUS
  0
LAYER
  5
EC
330
2
100
AcDbSymbolTableRecord
100
AcDbLayerTableRecord
  2
179
 70
     0
 62
   179
  6
CONTINUOUS
  0
LAYER
  5
ED
330
2
100
AcDbSymbolTableRecord
100
AcDbLayerTableRecord
  2
180
 70
     0
 62
   180
  6
CONTINUOUS
  0
LAYER
  5
EE
330
2
100
AcDbSymbolTableRecord
100
AcDbLayerTableRecord
  2
181
 70
     0
 62
   181
  6
CONTINUOUS
  0
LAYER
  5
EF
330
2
100
AcDbSymbolTableRecord
100
AcDbLayerTableRecord
  2
182
 70
     0
 62
   182
  6
CONTINUOUS
  0
LAYER
  5
F0
330
2
100
AcDbSymbolTableRecord
100
AcDbLayerTableRecord
  2
183
 70
     0
 62
   183
  6
CONTINUOUS
  0
LAYER
  5
F1
330
2
100
AcDbSymbolTableRecord
100
AcDbLayerTableRecord
  2
184
 70
     0
 62
   184
  6
CONTINUOUS
  0
LAYER
  5
F2
330
2
100
AcDbSymbolTableRecord
100
AcDbLayerTableRecord
  2
185
 70
     0
 62
   185
  6
CONTINUOUS
  0
LAYER
  5
F3
330
2
100
AcDbSymbolTableRecord
100
AcDbLayerTableRecord
  2
186
 70
     0
 62
   186
  6
CONTINUOUS
  0
LAYER
  5
F4
330
2
100
AcDbSymbolTableRecord
100
AcDbLayerTableRecord
  2
187
 70
     0
 62
   187
  6
CONTINUOUS
  0
LAYER
  5
F5
330
2
100
AcDbSymbolTableRecord
100
AcDbLayerTableRecord
  2
188
 70
     0
 62
   188
  6
CONTINUOUS
  0
LAYER
  5
F6
330
2
100
AcDbSymbolTableRecord
100
AcDbLayerTableRecord
  2
189
 70
     0
 62
   189
  6
CONTINUOUS
  0
LAYER
  5
F7
330
2
100
AcDbSymbolTableRecord
100
AcDbLayerTableRecord
  2
190
 70
     0
 62
   190
  6
CONTINUOUS
  0
LAYER
  5
F8
330
2
100
AcDbSymbolTableRecord
100
AcDbLayerTableRecord
  2
191
 70
     0
 62
   191
  6
CONTINUOUS
  0
LAYER
  5
F9
330
2
100
AcDbSymbolTableRecord
100
AcDbLayerTableRecord
  2
192
 70
     0
 62
   192
  6
CONTINUOUS
  0
LAYER
  5
FA
330
2
100
AcDbSymbolTableRecord
100
AcDbLayerTableRecord
  2
193
 70
     0
 62
   193
  6
CONTINUOUS
  0
LAYER
  5
FB
330
2
100
AcDbSymbolTableRecord
100
AcDbLayerTableRecord
  2
194
 70
     0
 62
   194
  6
CONTINUOUS
  0
LAYER
  5
FC
330
2
100
AcDbSymbolTableRecord
100
AcDbLayerTableRecord
  2
195
 70
     0
 62
   195
  6
CONTINUOUS
  0
LAYER
  5
FD
330
2
100
AcDbSymbolTableRecord
100
AcDbLayerTableRecord
  2
196
 70
     0
 62
   196
  6
CONTINUOUS
  0
LAYER
  5
FE
330
2
100
AcDbSymbolTableRecord
100
AcDbLayerTableRecord
  2
197
 70
     0
 62
   197
  6
CONTINUOUS
  0
LAYER
  5
FF
330
2
100
AcDbSymbolTableRecord
100
AcDbLayerTableRecord
  2
198
 70
     0
 62
   198
  6
CONTINUOUS
  0
LAYER
  5
100
330
2
100
AcDbSymbolTableRecord
100
AcDbLayerTableRecord
  2
199
 70
     0
 62
   199
  6
CONTINUOUS
  0
LAYER
  5
101
330
2
100
AcDbSymbolTableRecord
100
AcDbLayerTableRecord
  2
200
 70
     0
 62
   200
  6
CONTINUOUS
  0
LAYER
  5
102
330
2
100
AcDbSymbolTableRecord
100
AcDbLayerTableRecord
  2
201
 70
     0
 62
   201
  6
CONTINUOUS
  0
LAYER
  5
103
330
2
100
AcDbSymbolTableRecord
100
AcDbLayerTableRecord
  2
202
 70
     0
 62
   202
  6
CONTINUOUS
  0
LAYER
  5
104
330
2
100
AcDbSymbolTableRecord
100
AcDbLayerTableRecord
  2
203
 70
     0
 62
   203
  6
CONTINUOUS
  0
LAYER
  5
105
330
2
100
AcDbSymbolTableRecord
100
AcDbLayerTableRecord
  2
204
 70
     0
 62
   204
  6
CONTINUOUS
  0
LAYER
  5
106
330
2
100
AcDbSymbolTableRecord
100
AcDbLayerTableRecord
  2
205
 70
     0
 62
   205
  6
CONTINUOUS
  0
LAYER
  5
107
330
2
100
AcDbSymbolTableRecord
100
AcDbLayerTableRecord
  2
206
 70
     0
 62
   206
  6
CONTINUOUS
  0
LAYER
  5
108
330
2
100
AcDbSymbolTableRecord
100
AcDbLayerTableRecord
  2
207
 70
     0
 62
   207
  6
CONTINUOUS
  0
LAYER
  5
109
330
2
100
AcDbSymbolTableRecord
100
AcDbLayerTableRecord
  2
208
 70
     0
 62
   208
  6
CONTINUOUS
  0
LAYER
  5
10A
330
2
100
AcDbSymbolTableRecord
100
AcDbLayerTableRecord
  2
209
 70
     0
 62
   209
  6
CONTINUOUS
  0
LAYER
  5
10B
330
2
100
AcDbSymbolTableRecord
100
AcDbLayerTableRecord
  2
210
 70
     0
 62
   210
  6
CONTINUOUS
  0
LAYER
  5
10C
330
2
100
AcDbSymbolTableRecord
100
AcDbLayerTableRecord
  2
211
 70
     0
 62
   211
  6
CONTINUOUS
  0
LAYER
  5
10D
330
2
100
AcDbSymbolTableRecord
100
AcDbLayerTableRecord
  2
212
 70
     0
 62
   212
  6
CONTINUOUS
  0
LAYER
  5
10E
330
2
100
AcDbSymbolTableRecord
100
AcDbLayerTableRecord
  2
213
 70
     0
 62
   213
  6
CONTINUOUS
  0
LAYER
  5
10F
330
2
100
AcDbSymbolTableRecord
100
AcDbLayerTableRecord
  2
214
 70
     0
 62
   214
  6
CONTINUOUS
  0
LAYER
  5
110
330
2
100
AcDbSymbolTableRecord
100
AcDbLayerTableRecord
  2
215
 70
     0
 62
   215
  6
CONTINUOUS
  0
LAYER
  5
111
330
2
100
AcDbSymbolTableRecord
100
AcDbLayerTableRecord
  2
216
 70
     0
 62
   216
  6
CONTINUOUS
  0
LAYER
  5
112
330
2
100
AcDbSymbolTableRecord
100
AcDbLayerTableRecord
  2
217
 70
     0
 62
   217
  6
CONTINUOUS
  0
LAYER
  5
113
330
2
100
AcDbSymbolTableRecord
100
AcDbLayerTableRecord
  2
218
 70
     0
 62
   218
  6
CONTINUOUS
  0
LAYER
  5
114
330
2
100
AcDbSymbolTableRecord
100
AcDbLayerTableRecord
  2
219
 70
     0
 62
   219
  6
CONTINUOUS
  0
LAYER
  5
115
330
2
100
AcDbSymbolTableRecord
100
AcDbLayerTableRecord
  2
220
 70
     0
 62
   220
  6
CONTINUOUS
  0
LAYER
  5
116
330
2
100
AcDbSymbolTableRecord
100
AcDbLayerTableRecord
  2
221
 70
     0
 62
   221
  6
CONTINUOUS
  0
LAYER
  5
117
330
2
100
AcDbSymbolTableRecord
100
AcDbLayerTableRecord
  2
222
 70
     0
 62
   222
  6
CONTINUOUS
  0
LAYER
  5
118
330
2
100
AcDbSymbolTableRecord
100
AcDbLayerTableRecord
  2
223
 70
     0
 62
   223
  6
CONTINUOUS
  0
LAYER
  5
119
330
2
100
AcDbSymbolTableRecord
100
AcDbLayerTableRecord
  2
224
 70
     0
 62
   224
  6
CONTINUOUS
  0
LAYER
  5
11A
330
2
100
AcDbSymbolTableRecord
100
AcDbLayerTableRecord
  2
225
 70
     0
 62
   225
  6
CONTINUOUS
  0
LAYER
  5
11B
330
2
100
AcDbSymbolTableRecord
100
AcDbLayerTableRecord
  2
226
 70
     0
 62
   226
  6
CONTINUOUS
  0
LAYER
  5
11C
330
2
100
AcDbSymbolTableRecord
100
AcDbLayerTableRecord
  2
227
 70
     0
 62
   227
  6
CONTINUOUS
  0
LAYER
  5
11D
330
2
100
AcDbSymbolTableRecord
100
AcDbLayerTableRecord
  2
228
 70
     0
 62
   228
  6
CONTINUOUS
  0
LAYER
  5
11E
330
2
100
AcDbSymbolTableRecord
100
AcDbLayerTableRecord
  2
229
 70
     0
 62
   229
  6
CONTINUOUS
  0
LAYER
  5
11F
330
2
100
AcDbSymbolTableRecord
100
AcDbLayerTableRecord
  2
230
 70
     0
 62
   230
  6
CONTINUOUS
  0
LAYER
  5
120
330
2
100
AcDbSymbolTableRecord
100
AcDbLayerTableRecord
  2
231
 70
     0
 62
   231
  6
CONTINUOUS
  0
LAYER
  5
121
330
2
100
AcDbSymbolTableRecord
100
AcDbLayerTableRecord
  2
232
 70
     0
 62
   232
  6
CONTINUOUS
  0
LAYER
  5
122
330
2
100
AcDbSymbolTableRecord
100
AcDbLayerTableRecord
  2
233
 70
     0
 62
   233
  6
CONTINUOUS
  0
LAYER
  5
123
330
2
100
AcDbSymbolTableRecord
100
AcDbLayerTableRecord
  2
234
 70
     0
 62
   234
  6
CONTINUOUS
  0
LAYER
  5
124
330
2
100
AcDbSymbolTableRecord
100
AcDbLayerTableRecord
  2
235
 70
     0
 62
   235
  6
CONTINUOUS
  0
LAYER
  5
125
330
2
100
AcDbSymbolTableRecord
100
AcDbLayerTableRecord
  2
236
 70
     0
 62
   236
  6
CONTINUOUS
  0
LAYER
  5
126
330
2
100
AcDbSymbolTableRecord
100
AcDbLayerTableRecord
  2
237
 70
     0
 62
   237
  6
CONTINUOUS
  0
LAYER
  5
127
330
2
100
AcDbSymbolTableRecord
100
AcDbLayerTableRecord
  2
238
 70
     0
 62
   238
  6
CONTINUOUS
  0
LAYER
  5
128
330
2
100
AcDbSymbolTableRecord
100
AcDbLayerTableRecord
  2
239
 70
     0
 62
   239
  6
CONTINUOUS
  0
LAYER
  5
129
330
2
100
AcDbSymbolTableRecord
100
AcDbLayerTableRecord
  2
240
 70
     0
 62
   240
  6
CONTINUOUS
  0
LAYER
  5
12A
330
2
100
AcDbSymbolTableRecord
100
AcDbLayerTableRecord
  2
241
 70
     0
 62
   241
  6
CONTINUOUS
  0
LAYER
  5
12B
330
2
100
AcDbSymbolTableRecord
100
AcDbLayerTableRecord
  2
242
 70
     0
 62
   242
  6
CONTINUOUS
  0
LAYER
  5
12C
330
2
100
AcDbSymbolTableRecord
100
AcDbLayerTableRecord
  2
243
 70
     0
 62
   243
  6
CONTINUOUS
  0
LAYER
  5
12D
330
2
100
AcDbSymbolTableRecord
100
AcDbLayerTableRecord
  2
244
 70
     0
 62
   244
  6
CONTINUOUS
  0
LAYER
  5
12E
330
2
100
AcDbSymbolTableRecord
100
AcDbLayerTableRecord
  2
245
 70
     0
 62
   245
  6
CONTINUOUS
  0
LAYER
  5
12F
330
2
100
AcDbSymbolTableRecord
100
AcDbLayerTableRecord
  2
246
 70
     0
 62
   246
  6
CONTINUOUS
  0
LAYER
  5
130
330
2
100
AcDbSymbolTableRecord
100
AcDbLayerTableRecord
  2
247
 70
     0
 62
   247
  6
CONTINUOUS
  0
LAYER
  5
131
330
2
100
AcDbSymbolTableRecord
100
AcDbLayerTableRecord
  2
248
 70
     0
 62
   248
  6
CONTINUOUS
  0
LAYER
  5
132
330
2
100
AcDbSymbolTableRecord
100
AcDbLayerTableRecord
  2
249
 70
     0
 62
   249
  6
CONTINUOUS
  0
LAYER
  5
133
330
2
100
AcDbSymbolTableRecord
100
AcDbLayerTableRecord
  2
250
 70
     0
 62
   250
  6
CONTINUOUS
  0
LAYER
  5
134
330
2
100
AcDbSymbolTableRecord
100
AcDbLayerTableRecord
  2
251
 70
     0
 62
   251
  6
CONTINUOUS
  0
LAYER
  5
135
330
2
100
AcDbSymbolTableRecord
100
AcDbLayerTableRecord
  2
252
 70
     0
 62
   252
  6
CONTINUOUS
  0
LAYER
  5
136
330
2
100
AcDbSymbolTableRecord
100
AcDbLayerTableRecord
  2
253
 70
     0
 62
   253
  6
CONTINUOUS
  0
LAYER
  5
137
330
2
100
AcDbSymbolTableRecord
100
AcDbLayerTableRecord
  2
254
 70
     0
 62
   254
  6
CONTINUOUS
  0
LAYER
  5
138
330
2
100
AcDbSymbolTableRecord
100
AcDbLayerTableRecord
  2
255
 70
     0
 62
   255
  6
CONTINUOUS
  0
LAYER
  5
3E5C
330
2
100
AcDbSymbolTableRecord
100
AcDbLayerTableRecord
  2
DEFPOINTS
 70
     0
 62
     7
  6
CONTINUOUS
  0
ENDTAB
  0
TABLE
  2
STYLE
  5
3
330
0
100
AcDbSymbolTable
 70
     1
  0
STYLE
  5
11
330
3
100
AcDbSymbolTableRecord
100
AcDbTextStyleTableRecord
  2
STANDARD
 70
     0
 40
0.0
 41
1.0
 50
0.0
 71
     0
 42
0.2
  3
monotxt
  4

  0
ENDTAB
  0
TABLE
  2
VIEW
  5
6
330
0
100
AcDbSymbolTable
 70
     0
  0
ENDTAB
  0
TABLE
  2
UCS
  5
7
330
0
100
AcDbSymbolTable
 70
     0
  0
ENDTAB
  0
TABLE
  2
APPID
  5
9
330
0
100
AcDbSymbolTable
 70
     1
  0
APPID
  5
12
330
9
100
AcDbSymbolTableRecord
100
AcDbRegAppTableRecord
  2
ACAD
 70
     0
  0
ENDTAB
  0
TABLE
  2
DIMSTYLE
  5
A
330
0
100
AcDbSymbolTable
 70
     1
  0
DIMSTYLE
105
297A
330
A
100
AcDbSymbolTableRecord
100
AcDbDimStyleTableRecord
  2
STANDARD
 70
     0
  3

  4

  5

  6

  7

 40
1.0
 41
0.18
 42
0.0625
 43
0.38
 44
0.18
 45
0.0
 46
0.0
 47
0.0
 48
0.0
140
0.18
141
0.09
142
0.0
143
25.4
144
1.0
145
0.0
146
1.0
147
0.09
 71
     0
 72
     0
 73
     1
 74
     1
 75
     0
 76
     0
 77
     0
 78
     0
170
     0
171
     2
172
     0
173
     0
174
     0
175
     0
176
     0
177
     0
178
     0
270
     2
271
     4
272
     4
273
     2
274
     2
340
11
275
     0
280
     0
281
     0
282
     0
283
     1
284
     0
285
     0
286
     0
287
     3
288
     0
  0
ENDTAB
  0
TABLE
  2
BLOCK_RECORD
  5
1
330
0
100
AcDbSymbolTable
 70
     1
  0
BLOCK_RECORD
  5
1E
102
{ACAD_XDICTIONARY
360
3E25
102
}
330
1
100
AcDbSymbolTableRecord
100
AcDbBlockTableRecord
  2
*MODEL_SPACE
  0
BLOCK_RECORD
  5
1A
102
{ACAD_XDICTIONARY
360
3E27
102
}
330
1
100
AcDbSymbolTableRecord
100
AcDbBlockTableRecord
  2
*PAPER_SPACE
  0
ENDTAB
  0
ENDSEC
  0
SECTION
  2
BLOCKS
  0
BLOCK
  5
13B
330
1E
100
AcDbEntity
  8
0
100
AcDbBlockBegin
  2
*MODEL_SPACE
 70
     0
 10
0.0
 20
0.0
 30
0.0
  3
*MODEL_SPACE
  1

  0
ENDBLK
  5
13C
330
1E
100
AcDbEntity
  8
0
100
AcDbBlockEnd
  0
BLOCK
  5
139
330
1A
100
AcDbEntity
 67
     1
  8
0
100
AcDbBlockBegin
  2
*PAPER_SPACE
 70
     0
 10
0.0
 20
0.0
 30
0.0
  3
*PAPER_SPACE
  1

  0
ENDBLK
  5
13A
330
1A
100
AcDbEntity
 67
     1
  8
0
100
AcDbBlockEnd
  0
ENDSEC
  0
SECTION
  2
ENTITIES
  0
LINE
  5
21F7
330
1E
100
AcDbEntity
  8
3
100
AcDbLine
 10
-0.393700787401575
 20
0.7381889763779528
 30
0.0
 11
-0.393700787401575
 21
0.0885826771653546
 31
0.0
  0
LINE
  5
21F8
330
1E
100
AcDbEntity
  8
3
100
AcDbLine
 10
-0.393700787401575
 20
0.7381889763779528
 30
0.0
 11
-0.3001968503937009
 21
0.7391732283464574
 31
0.0
  0
LINE
  5
21F9
330
1E
100
AcDbEntity
  8
3
100
AcDbLine
 10
-0.3986220472440949
 20
0.0885826771653546
 30
0.0
 11
-0.3986220472440949
 21
0.7381889763779528
 31
0.0
  0
LINE
  5
21FA
330
1E
100
AcDbEntity
  8
3
100
AcDbLine
 10
0.9330708661417318
 20
0.1555118110236222
 30
0.0
 11
0.9330708661417318
 21
0.1545275590551185
 31
0.0
  0
LINE
  5
21FB
330
1E
100
AcDbEntity
  8
3
100
AcDbLine
 10
-0.1387795275590551
 20
0.184055118110237
 30
0.0
 11
-0.1387795275590551
 21
0.2234251968503944
 31
0.0
  0
LINE
  5
21FC
330
1E
100
AcDbEntity
  8
3
100
AcDbLine
 10
0.963582677165354
 20
0.1643700787401583
 30
0.0
 11
0.9734251968503929
 21
0.1643700787401583
 31
0.0
  0
LINE
  5
21FD
330
1E
100
AcDbEntity
  8
3
100
AcDbLine
 10
0.963582677165354
 20
0.1033464566929139
 30
0.0
 11
0.963582677165354
 21
0.1643700787401583
 31
0.0
  0
LINE
  5
21FE
330
1E
100
AcDbEntity
  8
3
100
AcDbLine
 10
0.9734251968503929
 20
0.1131889763779528
 30
0.0
 11
0.963582677165354
 21
0.1033464566929139
 31
0.0
  0
LINE
  5
21FF
330
1E
100
AcDbEntity
  8
3
100
AcDbLine
 10
0.9734251968503929
 20
0.1643700787401583
 30
0.0
 11
0.9734251968503929
 21
0.1131889763779528
 31
0.0
  0
LINE
  5
2200
330
1E
100
AcDbEntity
  8
3
100
AcDbLine
 10
0.9488188976377948
 20
0.0885826771653546
 30
0.0
 11
0.963582677165354
 21
0.1033464566929139
 31
0.0
  0
LINE
  5
2201
330
1E
100
AcDbEntity
  8
3
100
AcDbLine
 10
0.9488188976377948
 20
0.0885826771653546
 30
0.0
 11
-0.3001968503937009
 21
0.0885826771653546
 31
0.0
  0
LINE
  5
2202
330
1E
100
AcDbEntity
  8
3
100
AcDbLine
 10
-0.3001968503937009
 20
0.6889763779527565
 30
0.0
 11
-0.3001968503937009
 21
0.1870078740157481
 31
0.0
  0
LINE
  5
2203
330
1E
100
AcDbEntity
  8
3
100
AcDbLine
 10
-0.3001968503937009
 20
0.0885826771653546
 30
0.0
 11
-0.393700787401575
 21
0.0885826771653546
 31
0.0
  0
LINE
  5
2204
330
1E
100
AcDbEntity
  8
3
100
AcDbLine
 10
-0.3001968503937009
 20
0.6889763779527565
 30
0.0
 11
-0.3001968503937009
 21
0.7391732283464574
 31
0.0
  0
LINE
  5
220A
330
1E
100
AcDbEntity
  8
3
100
AcDbLine
 10
-0.3001968503937009
 20
0.809055118110237
 30
0.0
 11
-0.393700787401575
 21
0.7992125984251972
 31
0.0
  0
LINE
  5
220B
330
1E
100
AcDbEntity
  8
3
100
AcDbLine
 10
-0.3986220472440949
 20
0.7381889763779528
 30
0.0
 11
-0.3986220472440949
 21
0.7942913385826778
 31
0.0
  0
LINE
  5
220C
330
1E
100
AcDbEntity
  8
3
100
AcDbLine
 10
-0.1387795275590551
 20
0.7342519685039371
 30
0.0
 11
-0.1387795275590551
 21
0.6948818897637797
 31
0.0
  0
LINE
  5
220D
330
1E
100
AcDbEntity
  8
3
100
AcDbLine
 10
-0.3001968503937009
 20
0.6909448818897639
 30
0.0
 11
-0.2608267716535435
 21
0.7322834645669296
 31
0.0
  0
LINE
  5
220E
330
1E
100
AcDbEntity
  8
3
100
AcDbLine
 10
-0.3001968503937009
 20
0.7391732283464574
 30
0.0
 11
-0.3001968503937009
 21
0.8041338582677166
 31
0.0
  0
LINE
  5
220F
330
1E
100
AcDbEntity
  8
3
100
AcDbLine
 10
0.106299212598425
 20
0.8041338582677166
 30
0.0
 11
-0.3001968503937009
 21
0.8041338582677166
 31
0.0
  0
LINE
  5
2210
330
1E
100
AcDbEntity
  8
3
100
AcDbLine
 10
-0.3001968503937009
 20
0.809055118110237
 30
0.0
 11
0.1210629921259843
 21
0.809055118110237
 31
0.0
  0
LINE
  5
2211
330
1E
100
AcDbEntity
  8
3
100
AcDbLine
 10
0.1299212598425194
 20
0.809055118110237
 30
0.0
 11
0.1299212598425194
 21
0.7381889763779528
 31
0.0
  0
LINE
  5
2212
330
1E
100
AcDbEntity
  8
3
100
AcDbLine
 10
0.106299212598425
 20
0.7381889763779528
 30
0.0
 11
0.106299212598425
 21
0.8041338582677166
 31
0.0
  0
LINE
  5
2213
330
1E
100
AcDbEntity
  8
3
100
AcDbLine
 10
-1.639763779527559
 20
0.7332677165354334
 30
0.0
 11
-1.639763779527559
 21
0.0846456692913389
 31
0.0
  0
LINE
  5
2214
330
1E
100
AcDbEntity
  8
3
100
AcDbLine
 10
-2.241141732283464
 20
0.7332677165354334
 30
0.0
 11
-2.241141732283464
 21
0.0846456692913389
 31
0.0
  0
LINE
  5
2215
330
1E
100
AcDbEntity
  8
3
100
AcDbLine
 10
-1.644685039370078
 20
0.0846456692913389
 30
0.0
 11
-1.644685039370078
 21
0.7332677165354334
 31
0.0
  0
LINE
  5
2216
330
1E
100
AcDbEntity
  8
3
100
AcDbLine
 10
-2.241141732283464
 20
0.0846456692913389
 30
0.0
 11
-1.644685039370078
 21
0.0846456692913389
 31
0.0
  0
LINE
  5
2217
330
1E
100
AcDbEntity
  8
3
100
AcDbLine
 10
-2.241141732283464
 20
0.7332677165354334
 30
0.0
 11
-2.181102362204724
 21
0.7332677165354334
 31
0.0
  0
LINE
  5
2218
330
1E
100
AcDbEntity
  8
3
100
AcDbLine
 10
-2.246062992125984
 20
0.0846456692913389
 30
0.0
 11
-2.246062992125984
 21
0.7332677165354334
 31
0.0
  0
LINE
  5
2219
330
1E
100
AcDbEntity
  8
3
100
AcDbLine
 10
-2.037401574803149
 20
0.149606299212599
 30
0.0
 11
-1.847440944881889
 21
0.149606299212599
 31
0.0
  0
LINE
  5
221F
330
1E
100
AcDbEntity
  8
3
100
AcDbLine
 10
-2.182086614173228
 20
0.7352362204724417
 30
0.0
 11
-2.246062992125984
 21
0.7352362204724417
 31
0.0
  0
LINE
  5
2220
330
1E
100
AcDbEntity
  8
3
100
AcDbLine
 10
-2.213582677165354
 20
0.8041338582677166
 30
0.0
 11
-1.671259842519685
 21
0.8041338582677166
 31
0.0
  0
LINE
  5
2221
330
1E
100
AcDbEntity
  8
3
100
AcDbLine
 10
-2.072834645669291
 20
0.2293307086614176
 30
0.0
 11
-2.073818897637795
 21
0.2283464566929139
 31
0.0
  0
LINE
  5
222C
330
1E
100
AcDbEntity
  8
3
100
AcDbLine
 10
-1.812992125984252
 20
0.2293307086614176
 30
0.0
 11
-1.812007874015748
 21
0.2283464566929139
 31
0.0
  0
LINE
  5
222D
330
1E
100
AcDbEntity
  8
3
100
AcDbLine
 10
-1.704724409448818
 20
0.7903543307086621
 30
0.0
 11
-2.181102362204724
 21
0.7903543307086621
 31
0.0
  0
LINE
  5
222E
330
1E
100
AcDbEntity
  8
3
100
AcDbLine
 10
-2.181102362204724
 20
0.7952755905511815
 30
0.0
 11
-2.182086614173228
 21
0.8041338582677166
 31
0.0
  0
LINE
  5
222F
330
1E
100
AcDbEntity
  8
3
100
AcDbLine
 10
-2.181102362204724
 20
0.7332677165354334
 30
0.0
 11
-2.181102362204724
 21
0.7903543307086621
 31
0.0
  0
LINE
  5
2230
330
1E
100
AcDbEntity
  8
3
100
AcDbLine
 10
-1.703740157480314
 20
0.8041338582677166
 30
0.0
 11
-1.704724409448818
 21
0.7952755905511815
 31
0.0
  0
LINE
  5
2231
330
1E
100
AcDbEntity
  8
3
100
AcDbLine
 10
-1.704724409448818
 20
0.7332677165354334
 30
0.0
 11
-1.704724409448818
 21
0.7903543307086621
 31
0.0
  0
LINE
  5
2232
330
1E
100
AcDbEntity
  8
3
100
AcDbLine
 10
-1.639763779527559
 20
0.6870078740157482
 30
0.0
 11
-1.640748031496063
 21
0.7273622047244102
 31
0.0
  0
LINE
  5
2233
330
1E
100
AcDbEntity
  8
3
100
AcDbLine
 10
-2.182086614173228
 20
0.8041338582677166
 30
0.0
 11
-2.241141732283464
 21
0.8041338582677166
 31
0.0
  0
LINE
  5
2234
330
1E
100
AcDbEntity
  8
3
100
AcDbLine
 10
-2.246062992125984
 20
0.7352362204724417
 30
0.0
 11
-2.246062992125984
 21
0.7992125984251972
 31
0.0
  0
LINE
  5
2235
330
1E
100
AcDbEntity
  8
3
100
AcDbLine
 10
-1.703740157480314
 20
0.8041338582677166
 30
0.0
 11
-1.644685039370078
 21
0.8041338582677166
 31
0.0
  0
LINE
  5
2236
330
1E
100
AcDbEntity
  8
3
100
AcDbLine
 10
-1.639763779527559
 20
0.7352362204724417
 30
0.0
 11
-1.639763779527559
 21
0.7992125984251972
 31
0.0
  0
LINE
  5
2237
330
1E
100
AcDbEntity
  8
3
100
AcDbLine
 10
-0.396653543307087
 20
2.303149606299212
 30
0.0
 11
-0.3041338582677167
 21
2.303149606299212
 31
0.0
  0
LINE
  5
2238
330
1E
100
AcDbEntity
  8
3
100
AcDbLine
 10
-0.4015748031496065
 20
2.904527559055118
 30
0.0
 11
-0.4015748031496065
 21
2.843503937007874
 31
0.0
  0
LINE
  5
2239
330
1E
100
AcDbEntity
  8
3
100
AcDbLine
 10
-0.396653543307087
 20
2.909448818897637
 30
0.0
 11
-0.3041338582677167
 21
2.909448818897637
 31
0.0
  0
LINE
  5
223A
330
1E
100
AcDbEntity
  8
3
100
AcDbLine
 10
0.9704724409448818
 20
2.476377952755905
 30
0.0
 11
0.9704724409448818
 21
2.496062992125984
 31
0.0
  0
LINE
  5
223B
330
1E
100
AcDbEntity
  8
3
100
AcDbLine
 10
0.9704724409448818
 20
2.510826771653543
 30
0.0
 11
0.9704724409448818
 21
2.700787401574803
 31
0.0
  0
LINE
  5
223C
330
1E
100
AcDbEntity
  8
3
100
AcDbLine
 10
0.9704724409448818
 20
2.716535433070866
 30
0.0
 11
0.9704724409448818
 21
2.735236220472441
 31
0.0
  0
LINE
  5
2243
330
1E
100
AcDbEntity
  8
3
100
AcDbLine
 10
0.9704724409448818
 20
2.876968503937008
 30
0.0
 11
0.9606299212598422
 21
2.886811023622047
 31
0.0
  0
LINE
  5
2244
330
1E
100
AcDbEntity
  8
3
100
AcDbLine
 10
0.9704724409448818
 20
2.876968503937008
 30
0.0
 11
0.9704724409448818
 21
2.735236220472441
 31
0.0
  0
LINE
  5
2245
330
1E
100
AcDbEntity
  8
3
100
AcDbLine
 10
0.9606299212598422
 20
2.324803149606299
 30
0.0
 11
0.9704724409448818
 21
2.334645669291338
 31
0.0
  0
LINE
  5
2246
330
1E
100
AcDbEntity
  8
3
100
AcDbLine
 10
-0.3041338582677167
 20
2.909448818897637
 30
0.0
 11
0.9606299212598422
 21
2.886811023622047
 31
0.0
  0
LINE
  5
2247
330
1E
100
AcDbEntity
  8
3
100
AcDbLine
 10
0.1269685039370079
 20
2.876968503937008
 30
0.0
 11
0.1269685039370079
 21
2.334645669291338
 31
0.0
  0
LINE
  5
2248
330
1E
100
AcDbEntity
  8
3
100
AcDbLine
 10
0.5324803149606297
 20
2.72736220472441
 30
0.0
 11
0.9704724409448818
 21
2.735236220472441
 31
0.0
  0
LINE
  5
2249
330
1E
100
AcDbEntity
  8
3
100
AcDbLine
 10
0.9448818897637792
 20
2.887795275590551
 30
0.0
 11
0.9448818897637792
 21
2.324803149606299
 31
0.0
  0
LINE
  5
224A
330
1E
100
AcDbEntity
  8
3
100
AcDbLine
 10
-0.4015748031496065
 20
2.368110236220473
 30
0.0
 11
-0.4015748031496065
 21
2.308070866141732
 31
0.0
  0
LINE
  5
224B
330
1E
100
AcDbEntity
  8
3
100
AcDbLine
 10
0.9704724409448818
 20
2.476377952755905
 30
0.0
 11
0.5324803149606297
 21
2.484251968503937
 31
0.0
  0
LINE
  5
224C
330
1E
100
AcDbEntity
  8
3
100
AcDbLine
 10
0.9704724409448818
 20
2.476377952755905
 30
0.0
 11
0.9704724409448818
 21
2.334645669291338
 31
0.0
  0
LINE
  5
224D
330
1E
100
AcDbEntity
  8
3
100
AcDbLine
 10
-0.3041338582677167
 20
2.303149606299212
 30
0.0
 11
0.9606299212598422
 21
2.324803149606299
 31
0.0
  0
LINE
  5
224E
330
1E
100
AcDbEntity
  8
3
100
AcDbLine
 10
-0.396653543307087
 20
2.844488188976378
 30
0.0
 11
-0.396653543307087
 21
2.368110236220473
 31
0.0
  0
LINE
  5
224F
330
1E
100
AcDbEntity
  8
3
100
AcDbLine
 10
-0.4015748031496065
 20
2.368110236220473
 30
0.0
 11
-0.4015748031496065
 21
2.843503937007874
 31
0.0
  0
LINE
  5
2250
330
1E
100
AcDbEntity
  8
3
100
AcDbLine
 10
-0.396653543307087
 20
2.844488188976378
 30
0.0
 11
-0.3041338582677167
 21
2.845472440944882
 31
0.0
  0
LINE
  5
2251
330
1E
100
AcDbEntity
  8
3
100
AcDbLine
 10
-0.3041338582677167
 20
2.366141732283464
 30
0.0
 11
-0.396653543307087
 21
2.368110236220473
 31
0.0
  0
LINE
  5
2252
330
1E
100
AcDbEntity
  8
3
100
AcDbLine
 10
-0.3041338582677167
 20
2.845472440944882
 30
0.0
 11
-0.3041338582677167
 21
2.904527559055118
 31
0.0
  0
LINE
  5
2253
330
1E
100
AcDbEntity
  8
3
100
AcDbLine
 10
-0.3041338582677167
 20
2.909448818897637
 30
0.0
 11
0.1023622047244093
 21
2.90255905511811
 31
0.0
  0
LINE
  5
2254
330
1E
100
AcDbEntity
  8
3
100
AcDbLine
 10
0.1181102362204722
 20
2.896653543307087
 30
0.0
 11
-0.3041338582677167
 21
2.904527559055118
 31
0.0
  0
LINE
  5
2255
330
1E
100
AcDbEntity
  8
3
100
AcDbLine
 10
-0.3041338582677167
 20
2.366141732283464
 30
0.0
 11
-0.3041338582677167
 21
2.308070866141732
 31
0.0
  0
LINE
  5
2256
330
1E
100
AcDbEntity
  8
3
100
AcDbLine
 10
0.1023622047244093
 20
2.31003937007874
 30
0.0
 11
-0.3041338582677167
 21
2.303149606299212
 31
0.0
  0
LINE
  5
2257
330
1E
100
AcDbEntity
  8
3
100
AcDbLine
 10
-0.3041338582677167
 20
2.308070866141732
 30
0.0
 11
0.1181102362204722
 21
2.31496062992126
 31
0.0
  0
LINE
  5
2258
330
1E
100
AcDbEntity
  8
3
100
AcDbLine
 10
0.0501968503937005
 20
0.2677165354330713
 30
0.0
 11
0.0501968503937005
 21
0.3316929133858268
 31
0.0
  0
LINE
  5
2259
330
1E
100
AcDbEntity
  8
3
100
AcDbLine
 10
0.0797244094488185
 20
0.2677165354330713
 30
0.0
 11
0.0797244094488185
 21
0.3316929133858268
 31
0.0
  0
LINE
  5
225A
330
1E
100
AcDbEntity
  8
3
100
AcDbLine
 10
0.0797244094488185
 20
0.6427165354330713
 30
0.0
 11
0.0797244094488185
 21
0.5816929133858269
 31
0.0
  0
LINE
  5
225B
330
1E
100
AcDbEntity
  8
3
100
AcDbLine
 10
0.0196850393700787
 20
0.6427165354330713
 30
0.0
 11
0.0196850393700787
 21
0.5816929133858269
 31
0.0
  0
LINE
  5
225C
330
1E
100
AcDbEntity
  8
3
100
AcDbLine
 10
0.0944881889763778
 20
0.6427165354330713
 30
0.0
 11
0.0944881889763778
 21
0.2677165354330713
 31
0.0
  0
LINE
  5
225D
330
1E
100
AcDbEntity
  8
3
100
AcDbLine
 10
-0.4055118110236223
 20
0.7047244094488195
 30
0.0
 11
-0.4055118110236223
 21
0.2047244094488194
 31
0.0
  0
LINE
  5
225E
330
1E
100
AcDbEntity
  8
3
100
AcDbLine
 10
0.0944881889763778
 20
0.6427165354330713
 30
0.0
 11
0.0049212598425195
 21
0.6427165354330713
 31
0.0
  0
LINE
  5
225F
330
1E
100
AcDbEntity
  8
3
100
AcDbLine
 10
0.0944881889763778
 20
0.2677165354330713
 30
0.0
 11
0.0049212598425195
 21
0.2677165354330713
 31
0.0
  0
LINE
  5
2260
330
1E
100
AcDbEntity
  8
3
100
AcDbLine
 10
0.0344488188976375
 20
0.6427165354330713
 30
0.0
 11
0.0344488188976375
 21
0.5816929133858269
 31
0.0
  0
LINE
  5
2261
330
1E
100
AcDbEntity
  8
3
100
AcDbLine
 10
0.0649606299212597
 20
0.6427165354330713
 30
0.0
 11
0.0649606299212597
 21
0.5816929133858269
 31
0.0
  0
LINE
  5
2262
330
1E
100
AcDbEntity
  8
3
100
AcDbLine
 10
0.5324803149606297
 20
2.793307086614174
 30
0.0
 11
0.1269685039370079
 21
2.793307086614174
 31
0.0
  0
LINE
  5
2263
330
1E
100
AcDbEntity
  8
3
100
AcDbLine
 10
0.5324803149606297
 20
2.418307086614174
 30
0.0
 11
0.1269685039370079
 21
2.418307086614174
 31
0.0
  0
LINE
  5
2264
330
1E
100
AcDbEntity
  8
3
100
AcDbLine
 10
-0.4015748031496065
 20
2.856299212598425
 30
0.0
 11
-0.4015748031496065
 21
2.356299212598425
 31
0.0
  0
LINE
  5
2265
330
1E
100
AcDbEntity
  8
3
100
AcDbLine
 10
-0.125
 20
0.2047244094488194
 30
0.0
 11
-0.125
 21
0.7047244094488195
 31
0.0
  0
LINE
  5
2266
330
1E
100
AcDbEntity
  8
3
100
AcDbLine
 10
-0.0944881889763783
 20
0.2047244094488194
 30
0.0
 11
-0.0944881889763783
 21
0.7047244094488195
 31
0.0
  0
LINE
  5
2267
330
1E
100
AcDbEntity
  8
3
100
AcDbLine
 10
0.0049212598425195
 20
0.2047244094488194
 30
0.0
 11
0.0049212598425195
 21
0.7047244094488195
 31
0.0
  0
LINE
  5
2268
330
1E
100
AcDbEntity
  8
3
100
AcDbLine
 10
-0.0885826771653546
 20
0.2047244094488194
 30
0.0
 11
-0.0885826771653546
 21
0.7047244094488195
 31
0.0
  0
LINE
  5
2269
330
1E
100
AcDbEntity
  8
3
100
AcDbLine
 10
0.0049212598425195
 20
0.7047244094488195
 30
0.0
 11
-0.0885826771653546
 21
0.7047244094488195
 31
0.0
  0
LINE
  5
226A
330
1E
100
AcDbEntity
  8
3
100
AcDbLine
 10
0.0049212598425195
 20
0.2047244094488194
 30
0.0
 11
-0.0885826771653546
 21
0.2047244094488194
 31
0.0
  0
LINE
  5
226B
330
1E
100
AcDbEntity
  8
3
100
AcDbLine
 10
-0.0944881889763783
 20
0.7047244094488195
 30
0.0
 11
-0.125
 21
0.7047244094488195
 31
0.0
  0
LINE
  5
226C
330
1E
100
AcDbEntity
  8
3
100
AcDbLine
 10
-0.0944881889763783
 20
0.2047244094488194
 30
0.0
 11
-0.125
 21
0.2047244094488194
 31
0.0
  0
LINE
  5
226D
330
1E
100
AcDbEntity
  8
3
100
AcDbLine
 10
0.0501968503937005
 20
0.6427165354330713
 30
0.0
 11
0.0501968503937005
 21
0.5816929133858269
 31
0.0
  0
LINE
  5
226E
330
1E
100
AcDbEntity
  8
3
100
AcDbLine
 10
0.0196850393700787
 20
0.2677165354330713
 30
0.0
 11
0.0196850393700787
 21
0.3316929133858268
 31
0.0
  0
LINE
  5
226F
330
1E
100
AcDbEntity
  8
3
100
AcDbLine
 10
-2.053149606299212
 20
0.1643700787401583
 30
0.0
 11
-2.053149606299212
 21
0.2194881889763787
 31
0.0
  0
LINE
  5
2270
330
1E
100
AcDbEntity
  8
3
100
AcDbLine
 10
-1.83267716535433
 20
0.1643700787401583
 30
0.0
 11
-1.83267716535433
 21
0.2194881889763787
 31
0.0
  0
LINE
  5
2271
330
1E
100
AcDbEntity
  8
3
100
AcDbLine
 10
-1.83267716535433
 20
0.1643700787401583
 30
0.0
 11
-1.83267716535433
 21
0.2194881889763787
 31
0.0
  0
LINE
  5
2272
330
1E
100
AcDbEntity
  8
3
100
AcDbLine
 10
-2.036417322834645
 20
0.6633858267716537
 30
0.0
 11
-1.849409448818897
 21
0.6633858267716537
 31
0.0
  0
LINE
  5
2273
330
1E
100
AcDbEntity
  8
3
100
AcDbLine
 10
-2.036417322834645
 20
0.2460629921259843
 30
0.0
 11
-1.849409448818897
 21
0.2460629921259843
 31
0.0
  0
LINE
  5
2274
330
1E
100
AcDbEntity
  8
3
100
AcDbLine
 10
-0.8061023622047244
 20
0.6427165354330713
 30
0.0
 11
-0.4055118110236223
 21
0.6427165354330713
 31
0.0
  0
LINE
  5
2275
330
1E
100
AcDbEntity
  8
3
100
AcDbLine
 10
-0.8061023622047244
 20
0.2677165354330713
 30
0.0
 11
-0.4055118110236223
 21
0.2677165354330713
 31
0.0
  0
LINE
  5
2276
330
1E
100
AcDbEntity
  8
3
100
AcDbLine
 10
-0.8061023622047244
 20
0.6427165354330713
 30
0.0
 11
-0.8061023622047244
 21
0.2677165354330713
 31
0.0
  0
LINE
  5
2277
330
1E
100
AcDbEntity
  8
3
100
AcDbLine
 10
-0.5748031496062996
 20
0.6722440944881898
 30
0.0
 11
-0.5748031496062996
 21
0.6427165354330713
 31
0.0
  0
LINE
  5
2278
330
1E
100
AcDbEntity
  8
3
100
AcDbLine
 10
-0.6555118110236223
 20
0.6722440944881898
 30
0.0
 11
-0.6555118110236223
 21
0.6427165354330713
 31
0.0
  0
LINE
  5
2279
330
1E
100
AcDbEntity
  8
3
100
AcDbLine
 10
0.5324803149606297
 20
0.6427165354330713
 30
0.0
 11
0.5324803149606297
 21
0.2677165354330713
 31
0.0
  0
LINE
  5
227A
330
1E
100
AcDbEntity
  8
3
100
AcDbLine
 10
0.5324803149606297
 20
0.6427165354330713
 30
0.0
 11
0.0944881889763778
 21
0.6427165354330713
 31
0.0
  0
LINE
  5
227B
330
1E
100
AcDbEntity
  8
3
100
AcDbLine
 10
0.5324803149606297
 20
0.2677165354330713
 30
0.0
 11
0.0944881889763778
 21
0.2677165354330713
 31
0.0
  0
LINE
  5
227C
330
1E
100
AcDbEntity
  8
3
100
AcDbLine
 10
0.4074803149606297
 20
0.6427165354330713
 30
0.0
 11
0.4074803149606297
 21
0.2677165354330713
 31
0.0
  0
LINE
  5
227D
330
1E
100
AcDbEntity
  8
3
100
AcDbLine
 10
0.2824803149606296
 20
0.6427165354330713
 30
0.0
 11
0.2824803149606296
 21
0.2677165354330713
 31
0.0
  0
LINE
  5
227E
330
1E
100
AcDbEntity
  8
3
100
AcDbLine
 10
0.0049212598425195
 20
0.5816929133858269
 30
0.0
 11
0.0944881889763778
 21
0.5816929133858269
 31
0.0
  0
LINE
  5
227F
330
1E
100
AcDbEntity
  8
3
100
AcDbLine
 10
0.0049212598425195
 20
0.3316929133858268
 30
0.0
 11
0.0944881889763778
 21
0.3316929133858268
 31
0.0
  0
LINE
  5
2280
330
1E
100
AcDbEntity
  8
3
100
AcDbLine
 10
0.0649606299212597
 20
0.2677165354330713
 30
0.0
 11
0.0649606299212597
 21
0.3316929133858268
 31
0.0
  0
LINE
  5
2281
330
1E
100
AcDbEntity
  8
3
100
AcDbLine
 10
0.0344488188976375
 20
0.2677165354330713
 30
0.0
 11
0.0344488188976375
 21
0.3316929133858268
 31
0.0
  0
LINE
  5
2282
330
1E
100
AcDbEntity
  8
3
100
AcDbLine
 10
-0.5561023622047246
 20
2.418307086614174
 30
0.0
 11
-0.5561023622047246
 21
2.793307086614174
 31
0.0
  0
LINE
  5
2283
330
1E
100
AcDbEntity
  8
3
100
AcDbLine
 10
-0.6811023622047246
 20
2.418307086614174
 30
0.0
 11
-0.6811023622047246
 21
2.793307086614174
 31
0.0
  0
LINE
  5
2284
330
1E
100
AcDbEntity
  8
3
100
AcDbLine
 10
-0.6555118110236223
 20
0.2372047244094491
 30
0.0
 11
-0.5748031496062996
 21
0.2372047244094491
 31
0.0
  0
LINE
  5
2285
330
1E
100
AcDbEntity
  8
3
100
AcDbLine
 10
-0.6555118110236223
 20
0.6722440944881898
 30
0.0
 11
-0.5748031496062996
 21
0.6722440944881898
 31
0.0
  0
LINE
  5
2286
330
1E
100
AcDbEntity
  8
3
100
AcDbLine
 10
0.308070866141732
 20
0.6722440944881898
 30
0.0
 11
0.308070866141732
 21
0.6427165354330713
 31
0.0
  0
LINE
  5
2287
330
1E
100
AcDbEntity
  8
3
100
AcDbLine
 10
0.0049212598425195
 20
0.5246062992125991
 30
0.0
 11
-0.0885826771653546
 21
0.5246062992125991
 31
0.0
  0
LINE
  5
2288
330
1E
100
AcDbEntity
  8
3
100
AcDbLine
 10
0.3877952755905509
 20
0.6722440944881898
 30
0.0
 11
0.3877952755905509
 21
0.6427165354330713
 31
0.0
  0
LINE
  5
2289
330
1E
100
AcDbEntity
  8
3
100
AcDbLine
 10
0.3877952755905509
 20
0.2372047244094491
 30
0.0
 11
0.308070866141732
 21
0.2372047244094491
 31
0.0
  0
LINE
  5
228A
330
1E
100
AcDbEntity
  8
3
100
AcDbLine
 10
0.0049212598425195
 20
0.4350393700787408
 30
0.0
 11
-0.0885826771653546
 21
0.4350393700787408
 31
0.0
  0
LINE
  5
228B
330
1E
100
AcDbEntity
  8
3
100
AcDbLine
 10
-0.8061023622047244
 20
2.793307086614174
 30
0.0
 11
-0.4005905511811028
 21
2.793307086614174
 31
0.0
  0
LINE
  5
228C
330
1E
100
AcDbEntity
  8
3
100
AcDbLine
 10
-0.8061023622047244
 20
2.418307086614174
 30
0.0
 11
-0.4005905511811028
 21
2.418307086614174
 31
0.0
  0
LINE
  5
228D
330
1E
100
AcDbEntity
  8
3
100
AcDbLine
 10
-0.8061023622047244
 20
2.793307086614174
 30
0.0
 11
-0.8061023622047244
 21
2.418307086614174
 31
0.0
  0
LINE
  5
228E
330
1E
100
AcDbEntity
  8
3
100
AcDbLine
 10
-0.5561023622047246
 20
0.2677165354330713
 30
0.0
 11
-0.5561023622047246
 21
0.6427165354330713
 31
0.0
  0
LINE
  5
228F
330
1E
100
AcDbEntity
  8
3
100
AcDbLine
 10
-0.6811023622047246
 20
0.2677165354330713
 30
0.0
 11
-0.6811023622047246
 21
0.6427165354330713
 31
0.0
  0
LINE
  5
2290
330
1E
100
AcDbEntity
  8
3
100
AcDbLine
 10
-0.6555118110236223
 20
0.2372047244094491
 30
0.0
 11
-0.6555118110236223
 21
0.2677165354330713
 31
0.0
  0
LINE
  5
2291
330
1E
100
AcDbEntity
  8
3
100
AcDbLine
 10
-0.5748031496062996
 20
0.2372047244094491
 30
0.0
 11
-0.5748031496062996
 21
0.2677165354330713
 31
0.0
  0
LINE
  5
2292
330
1E
100
AcDbEntity
  8
3
100
AcDbLine
 10
0.5324803149606297
 20
2.793307086614174
 30
0.0
 11
0.5324803149606297
 21
2.418307086614174
 31
0.0
  0
LINE
  5
2293
330
1E
100
AcDbEntity
  8
3
100
AcDbLine
 10
0.2824803149606296
 20
2.418307086614174
 30
0.0
 11
0.2824803149606296
 21
2.793307086614174
 31
0.0
  0
LINE
  5
2294
330
1E
100
AcDbEntity
  8
3
100
AcDbLine
 10
0.4074803149606297
 20
2.418307086614174
 30
0.0
 11
0.4074803149606297
 21
2.793307086614174
 31
0.0
  0
LINE
  5
2295
330
1E
100
AcDbEntity
  8
3
100
AcDbLine
 10
0.3877952755905509
 20
0.2372047244094491
 30
0.0
 11
0.3877952755905509
 21
0.2677165354330713
 31
0.0
  0
LINE
  5
2296
330
1E
100
AcDbEntity
  8
3
100
AcDbLine
 10
0.308070866141732
 20
0.2372047244094491
 30
0.0
 11
0.308070866141732
 21
0.2677165354330713
 31
0.0
  0
LINE
  5
2297
330
1E
100
AcDbEntity
  8
3
100
AcDbLine
 10
0.3877952755905509
 20
0.6722440944881898
 30
0.0
 11
0.308070866141732
 21
0.6722440944881898
 31
0.0
  0
LINE
  5
22F9
330
1E
100
AcDbEntity
  8
3
100
AcDbLine
 10
0.1171259842519685
 20
2.31496062992126
 30
0.0
 11
0.1240157480314958
 21
2.323818897637795
 31
0.0
  0
LINE
  5
22FA
330
1E
100
AcDbEntity
  8
3
100
AcDbLine
 10
0.1240157480314958
 20
2.323818897637795
 30
0.0
 11
0.1269685039370079
 21
2.334645669291338
 31
0.0
  0
LINE
  5
2389
330
1E
100
AcDbEntity
  8
3
100
AcDbLine
 10
0.3021653543307083
 20
2.606299212598425
 30
0.0
 11
0.3061023622047241
 21
2.589566929133858
 31
0.0
  0
LINE
  5
239A
330
1E
100
AcDbEntity
  8
3
100
AcDbLine
 10
-0.3986220472440949
 20
0.7381889763779528
 30
0.0
 11
-0.393700787401575
 21
0.7381889763779528
 31
0.0
  0
LINE
  5
239B
330
1E
100
AcDbEntity
  8
3
100
AcDbLine
 10
-0.393700787401575
 20
0.7992125984251972
 30
0.0
 11
-0.3986220472440949
 21
0.7942913385826778
 31
0.0
  0
LINE
  5
239C
330
1E
100
AcDbEntity
  8
3
100
AcDbLine
 10
-0.3001968503937009
 20
0.8041338582677166
 30
0.0
 11
-0.3001968503937009
 21
0.809055118110237
 31
0.0
  0
LINE
  5
23A3
330
1E
100
AcDbEntity
  8
3
100
AcDbLine
 10
-2.181102362204724
 20
0.7903543307086621
 30
0.0
 11
-2.181102362204724
 21
0.7952755905511815
 31
0.0
  0
LINE
  5
23A4
330
1E
100
AcDbEntity
  8
3
100
AcDbLine
 10
-1.704724409448818
 20
0.7952755905511815
 30
0.0
 11
-1.704724409448818
 21
0.7903543307086621
 31
0.0
  0
LINE
  5
23A5
330
1E
100
AcDbEntity
  8
3
100
AcDbLine
 10
-2.241141732283464
 20
0.8041338582677166
 30
0.0
 11
-2.246062992125984
 21
0.7992125984251972
 31
0.0
  0
LINE
  5
23A6
330
1E
100
AcDbEntity
  8
3
100
AcDbLine
 10
-1.639763779527559
 20
0.7992125984251972
 30
0.0
 11
-1.644685039370078
 21
0.8041338582677166
 31
0.0
  0
LINE
  5
23A7
330
1E
100
AcDbEntity
  8
3
100
AcDbLine
 10
-0.4015748031496065
 20
2.308070866141732
 30
0.0
 11
-0.396653543307087
 21
2.303149606299212
 31
0.0
  0
LINE
  5
23A8
330
1E
100
AcDbEntity
  8
3
100
AcDbLine
 10
-0.396653543307087
 20
2.909448818897637
 30
0.0
 11
-0.4015748031496065
 21
2.904527559055118
 31
0.0
  0
LINE
  5
23A9
330
1E
100
AcDbEntity
  8
3
100
AcDbLine
 10
0.9704724409448818
 20
2.510826771653543
 30
0.0
 11
0.9704724409448818
 21
2.5
 31
0.0
  0
LINE
  5
23AA
330
1E
100
AcDbEntity
  8
3
100
AcDbLine
 10
0.9704724409448818
 20
2.5
 30
0.0
 11
0.9704724409448818
 21
2.496062992125984
 31
0.0
  0
LINE
  5
23B0
330
1E
100
AcDbEntity
  8
3
100
AcDbLine
 10
-0.4015748031496065
 20
2.843503937007874
 30
0.0
 11
-0.396653543307087
 21
2.844488188976378
 31
0.0
  0
LINE
  5
23B1
330
1E
100
AcDbEntity
  8
3
100
AcDbLine
 10
-0.396653543307087
 20
2.368110236220473
 30
0.0
 11
-0.4015748031496065
 21
2.368110236220473
 31
0.0
  0
LINE
  5
23B2
330
1E
100
AcDbEntity
  8
3
100
AcDbLine
 10
-0.3041338582677167
 20
2.904527559055118
 30
0.0
 11
-0.3041338582677167
 21
2.909448818897637
 31
0.0
  0
LINE
  5
23B3
330
1E
100
AcDbEntity
  8
3
100
AcDbLine
 10
0.1269685039370079
 20
2.876968503937008
 30
0.0
 11
0.1240157480314958
 21
2.889763779527559
 31
0.0
  0
LINE
  5
23B9
330
1E
100
AcDbEntity
  8
3
100
AcDbLine
 10
-0.3041338582677167
 20
2.303149606299212
 30
0.0
 11
-0.3041338582677167
 21
2.308070866141732
 31
0.0
  0
LINE
  5
23C0
330
1E
100
AcDbEntity
  8
3
100
AcDbLine
 10
-0.3001968503937009
 20
0.2214566929133861
 30
0.0
 11
-0.1387795275590551
 21
0.2234251968503944
 31
0.0
  0
LINE
  5
23C1
330
1E
100
AcDbEntity
  8
3
100
AcDbLine
 10
-0.1387795275590551
 20
0.6948818897637797
 30
0.0
 11
-0.2952755905511815
 21
0.696850393700788
 31
0.0
  0
LINE
  5
2C5F
330
1E
100
AcDbEntity
  8
3
100
AcDbLine
 10
0.1082677165354329
 20
2.311023622047244
 30
0.0
 11
0.1072834645669287
 21
2.31003937007874
 31
0.0
  0
LINE
  5
2C60
330
1E
100
AcDbEntity
  8
3
100
AcDbLine
 10
0.1072834645669287
 20
2.31003937007874
 30
0.0
 11
0.106299212598425
 21
2.31003937007874
 31
0.0
  0
LINE
  5
2C61
330
1E
100
AcDbEntity
  8
3
100
AcDbLine
 10
0.106299212598425
 20
2.31003937007874
 30
0.0
 11
0.1053149606299208
 21
2.31003937007874
 31
0.0
  0
LINE
  5
2C62
330
1E
100
AcDbEntity
  8
3
100
AcDbLine
 10
0.1053149606299208
 20
2.31003937007874
 30
0.0
 11
0.1043307086614171
 21
2.31003937007874
 31
0.0
  0
LINE
  5
2C63
330
1E
100
AcDbEntity
  8
3
100
AcDbLine
 10
0.1043307086614171
 20
2.31003937007874
 30
0.0
 11
0.1023622047244093
 21
2.31003937007874
 31
0.0
  0
LINE
  5
2C64
330
1E
100
AcDbEntity
  8
3
100
AcDbLine
 10
0.1181102362204722
 20
2.31496062992126
 30
0.0
 11
0.1171259842519685
 21
2.313976377952756
 31
0.0
  0
LINE
  5
2C65
330
1E
100
AcDbEntity
  8
3
100
AcDbLine
 10
0.1171259842519685
 20
2.313976377952756
 30
0.0
 11
0.1161417322834644
 21
2.313976377952756
 31
0.0
  0
LINE
  5
2C66
330
1E
100
AcDbEntity
  8
3
100
AcDbLine
 10
0.1161417322834644
 20
2.313976377952756
 30
0.0
 11
0.1151574803149606
 21
2.312992125984252
 31
0.0
  0
LINE
  5
2C67
330
1E
100
AcDbEntity
  8
3
100
AcDbLine
 10
0.1151574803149606
 20
2.312992125984252
 30
0.0
 11
0.1131889763779523
 21
2.312992125984252
 31
0.0
  0
LINE
  5
2C68
330
1E
100
AcDbEntity
  8
3
100
AcDbLine
 10
0.1131889763779523
 20
2.312992125984252
 30
0.0
 11
0.1122047244094486
 21
2.312007874015748
 31
0.0
  0
LINE
  5
2C69
330
1E
100
AcDbEntity
  8
3
100
AcDbLine
 10
0.1122047244094486
 20
2.312007874015748
 30
0.0
 11
0.1112204724409445
 21
2.312007874015748
 31
0.0
  0
LINE
  5
2C6A
330
1E
100
AcDbEntity
  8
3
100
AcDbLine
 10
0.1112204724409445
 20
2.312007874015748
 30
0.0
 11
0.1102362204724407
 21
2.311023622047244
 31
0.0
  0
LINE
  5
2C6B
330
1E
100
AcDbEntity
  8
3
100
AcDbLine
 10
0.1102362204724407
 20
2.311023622047244
 30
0.0
 11
0.1092519685039366
 21
2.311023622047244
 31
0.0
  0
LINE
  5
2C6C
330
1E
100
AcDbEntity
  8
3
100
AcDbLine
 10
0.1092519685039366
 20
2.311023622047244
 30
0.0
 11
0.1082677165354329
 21
2.311023622047244
 31
0.0
  0
LINE
  5
2C6D
330
1E
100
AcDbEntity
  8
3
100
AcDbLine
 10
0.1112204724409445
 20
2.900590551181102
 30
0.0
 11
0.1122047244094486
 21
2.900590551181102
 31
0.0
  0
LINE
  5
2C6E
330
1E
100
AcDbEntity
  8
3
100
AcDbLine
 10
0.1122047244094486
 20
2.900590551181102
 30
0.0
 11
0.1131889763779523
 21
2.899606299212599
 31
0.0
  0
LINE
  5
2C6F
330
1E
100
AcDbEntity
  8
3
100
AcDbLine
 10
0.1131889763779523
 20
2.899606299212599
 30
0.0
 11
0.1141732283464565
 21
2.899606299212599
 31
0.0
  0
LINE
  5
2C70
330
1E
100
AcDbEntity
  8
3
100
AcDbLine
 10
0.1141732283464565
 20
2.899606299212599
 30
0.0
 11
0.1151574803149606
 21
2.898622047244094
 31
0.0
  0
LINE
  5
2C71
330
1E
100
AcDbEntity
  8
3
100
AcDbLine
 10
0.1151574803149606
 20
2.898622047244094
 30
0.0
 11
0.1161417322834644
 21
2.898622047244094
 31
0.0
  0
LINE
  5
2C72
330
1E
100
AcDbEntity
  8
3
100
AcDbLine
 10
0.1161417322834644
 20
2.898622047244094
 30
0.0
 11
0.1171259842519685
 21
2.89763779527559
 31
0.0
  0
LINE
  5
2C73
330
1E
100
AcDbEntity
  8
3
100
AcDbLine
 10
0.1171259842519685
 20
2.89763779527559
 30
0.0
 11
0.1181102362204722
 21
2.896653543307087
 31
0.0
  0
LINE
  5
2C74
330
1E
100
AcDbEntity
  8
3
100
AcDbLine
 10
0.1023622047244093
 20
2.90255905511811
 30
0.0
 11
0.103346456692913
 21
2.90255905511811
 31
0.0
  0
LINE
  5
2C75
330
1E
100
AcDbEntity
  8
3
100
AcDbLine
 10
0.103346456692913
 20
2.90255905511811
 30
0.0
 11
0.1043307086614171
 21
2.90255905511811
 31
0.0
  0
LINE
  5
2C76
330
1E
100
AcDbEntity
  8
3
100
AcDbLine
 10
0.1043307086614171
 20
2.90255905511811
 30
0.0
 11
0.1053149606299208
 21
2.901574803149606
 31
0.0
  0
LINE
  5
2C77
330
1E
100
AcDbEntity
  8
3
100
AcDbLine
 10
0.1053149606299208
 20
2.901574803149606
 30
0.0
 11
0.106299212598425
 21
2.901574803149606
 31
0.0
  0
LINE
  5
2C78
330
1E
100
AcDbEntity
  8
3
100
AcDbLine
 10
0.106299212598425
 20
2.901574803149606
 30
0.0
 11
0.1072834645669287
 21
2.901574803149606
 31
0.0
  0
LINE
  5
2C79
330
1E
100
AcDbEntity
  8
3
100
AcDbLine
 10
0.1072834645669287
 20
2.901574803149606
 30
0.0
 11
0.1082677165354329
 21
2.901574803149606
 31
0.0
  0
LINE
  5
2C7A
330
1E
100
AcDbEntity
  8
3
100
AcDbLine
 10
0.1082677165354329
 20
2.901574803149606
 30
0.0
 11
0.1092519685039366
 21
2.901574803149606
 31
0.0
  0
LINE
  5
2C7B
330
1E
100
AcDbEntity
  8
3
100
AcDbLine
 10
0.1092519685039366
 20
2.901574803149606
 30
0.0
 11
0.1102362204724407
 21
2.900590551181102
 31
0.0
  0
LINE
  5
2C7C
330
1E
100
AcDbEntity
  8
3
100
AcDbLine
 10
0.1102362204724407
 20
2.900590551181102
 30
0.0
 11
0.1112204724409445
 21
2.900590551181102
 31
0.0
  0
LINE
  5
2C7D
330
1E
100
AcDbEntity
  8
3
100
AcDbLine
 10
0.1141732283464565
 20
0.8070866141732286
 30
0.0
 11
0.1131889763779523
 21
0.8070866141732286
 31
0.0
  0
LINE
  5
2C7E
330
1E
100
AcDbEntity
  8
3
100
AcDbLine
 10
0.1131889763779523
 20
0.8070866141732286
 30
0.0
 11
0.1122047244094486
 21
0.8061023622047249
 31
0.0
  0
LINE
  5
2C7F
330
1E
100
AcDbEntity
  8
3
100
AcDbLine
 10
0.1122047244094486
 20
0.8061023622047249
 30
0.0
 11
0.1112204724409445
 21
0.8061023622047249
 31
0.0
  0
LINE
  5
2C80
330
1E
100
AcDbEntity
  8
3
100
AcDbLine
 10
0.1112204724409445
 20
0.8061023622047249
 30
0.0
 11
0.1102362204724407
 21
0.8051181102362212
 31
0.0
  0
LINE
  5
2C81
330
1E
100
AcDbEntity
  8
3
100
AcDbLine
 10
0.1102362204724407
 20
0.8051181102362212
 30
0.0
 11
0.1092519685039366
 21
0.8051181102362212
 31
0.0
  0
LINE
  5
2C82
330
1E
100
AcDbEntity
  8
3
100
AcDbLine
 10
0.1092519685039366
 20
0.8051181102362212
 30
0.0
 11
0.1082677165354329
 21
0.8051181102362212
 31
0.0
  0
LINE
  5
2C83
330
1E
100
AcDbEntity
  8
3
100
AcDbLine
 10
0.1082677165354329
 20
0.8051181102362212
 30
0.0
 11
0.1072834645669287
 21
0.8041338582677166
 31
0.0
  0
LINE
  5
2C84
330
1E
100
AcDbEntity
  8
3
100
AcDbLine
 10
0.1072834645669287
 20
0.8041338582677166
 30
0.0
 11
0.106299212598425
 21
0.8041338582677166
 31
0.0
  0
LINE
  5
2C85
330
1E
100
AcDbEntity
  8
3
100
AcDbLine
 10
0.1299212598425194
 20
0.7381889763779528
 30
0.0
 11
0.0
 21
0.7362204724409454
 31
0.0
  0
LINE
  5
2C86
330
1E
100
AcDbEntity
  8
3
100
AcDbLine
 10
0.0
 20
0.7362204724409454
 30
0.0
 11
-0.1299212598425199
 21
0.7342519685039371
 31
0.0
  0
LINE
  5
2C87
330
1E
100
AcDbEntity
  8
3
100
AcDbLine
 10
-0.1299212598425199
 20
0.7342519685039371
 30
0.0
 11
-0.2608267716535435
 21
0.7322834645669296
 31
0.0
  0
LINE
  5
2C88
330
1E
100
AcDbEntity
  8
3
100
AcDbLine
 10
-0.2608267716535435
 20
0.7322834645669296
 30
0.0
 11
-0.1299212598425199
 21
0.7342519685039371
 31
0.0
  0
LINE
  5
2C89
330
1E
100
AcDbEntity
  8
3
100
AcDbLine
 10
-0.1299212598425199
 20
0.7342519685039371
 30
0.0
 11
0.0
 21
0.7362204724409454
 31
0.0
  0
LINE
  5
2C8A
330
1E
100
AcDbEntity
  8
3
100
AcDbLine
 10
0.0
 20
0.7362204724409454
 30
0.0
 11
0.1299212598425194
 21
0.7381889763779528
 31
0.0
  0
LINE
  5
2C8B
330
1E
100
AcDbEntity
  8
3
100
AcDbLine
 10
0.1299212598425194
 20
0.7381889763779528
 30
0.0
 11
0.0
 21
0.7362204724409454
 31
0.0
  0
LINE
  5
2C8C
330
1E
100
AcDbEntity
  8
3
100
AcDbLine
 10
0.0
 20
0.7362204724409454
 30
0.0
 11
-0.1299212598425199
 21
0.7342519685039371
 31
0.0
  0
LINE
  5
2C8D
330
1E
100
AcDbEntity
  8
3
100
AcDbLine
 10
-0.1299212598425199
 20
0.7342519685039371
 30
0.0
 11
-0.2608267716535435
 21
0.7322834645669296
 31
0.0
  0
LINE
  5
2C8E
330
1E
100
AcDbEntity
  8
3
100
AcDbLine
 10
0.1023622047244093
 20
2.31003937007874
 30
0.0
 11
0.1151574803149606
 21
2.312992125984252
 31
0.0
  0
LINE
  5
2C8F
330
1E
100
AcDbEntity
  8
3
100
AcDbLine
 10
0.1151574803149606
 20
2.312992125984252
 30
0.0
 11
0.1240157480314958
 21
2.322834645669291
 31
0.0
  0
LINE
  5
2C90
330
1E
100
AcDbEntity
  8
3
100
AcDbLine
 10
0.1240157480314958
 20
2.322834645669291
 30
0.0
 11
0.1269685039370079
 21
2.334645669291338
 31
0.0
  0
LINE
  5
2C91
330
1E
100
AcDbEntity
  8
3
100
AcDbLine
 10
0.1240157480314958
 20
2.889763779527559
 30
0.0
 11
0.1151574803149606
 21
2.898622047244094
 31
0.0
  0
LINE
  5
2C92
330
1E
100
AcDbEntity
  8
3
100
AcDbLine
 10
0.1151574803149606
 20
2.898622047244094
 30
0.0
 11
0.1023622047244093
 21
2.90255905511811
 31
0.0
  0
LINE
  5
2C93
330
1E
100
AcDbEntity
  8
3
100
AcDbLine
 10
0.9704724409448818
 20
2.716535433070866
 30
0.0
 11
0.9704724409448818
 21
2.711614173228347
 31
0.0
  0
LINE
  5
2C94
330
1E
100
AcDbEntity
  8
3
100
AcDbLine
 10
0.9704724409448818
 20
2.711614173228347
 30
0.0
 11
0.9704724409448818
 21
2.700787401574803
 31
0.0
  0
LINE
  5
2C95
330
1E
100
AcDbEntity
  8
3
100
AcDbLine
 10
0.106299212598425
 20
0.7381889763779528
 30
0.0
 11
0.1181102362204722
 21
0.7381889763779528
 31
0.0
  0
LINE
  5
2C96
330
1E
100
AcDbEntity
  8
3
100
AcDbLine
 10
0.1181102362204722
 20
0.7381889763779528
 30
0.0
 11
0.1269685039370079
 21
0.7381889763779528
 31
0.0
  0
LINE
  5
2C97
330
1E
100
AcDbEntity
  8
3
100
AcDbLine
 10
0.1269685039370079
 20
0.7381889763779528
 30
0.0
 11
0.1299212598425194
 21
0.7381889763779528
 31
0.0
  0
LINE
  5
2C98
330
1E
100
AcDbEntity
  8
3
100
AcDbLine
 10
0.3061023622047241
 20
2.589566929133858
 30
0.0
 11
0.3169291338582676
 21
2.575787401574803
 31
0.0
  0
LINE
  5
2C99
330
1E
100
AcDbEntity
  8
3
100
AcDbLine
 10
0.3169291338582676
 20
2.575787401574803
 30
0.0
 11
0.3326771653543306
 21
2.567913385826772
 31
0.0
  0
LINE
  5
2C9A
330
1E
100
AcDbEntity
  8
3
100
AcDbLine
 10
0.3326771653543306
 20
2.567913385826772
 30
0.0
 11
0.3503937007874014
 21
2.567913385826772
 31
0.0
  0
LINE
  5
2C9B
330
1E
100
AcDbEntity
  8
3
100
AcDbLine
 10
0.3503937007874014
 20
2.567913385826772
 30
0.0
 11
0.3661417322834644
 21
2.575787401574803
 31
0.0
  0
LINE
  5
2C9C
330
1E
100
AcDbEntity
  8
3
100
AcDbLine
 10
0.3661417322834644
 20
2.575787401574803
 30
0.0
 11
0.3769685039370079
 21
2.589566929133858
 31
0.0
  0
LINE
  5
2C9D
330
1E
100
AcDbEntity
  8
3
100
AcDbLine
 10
0.3769685039370079
 20
2.589566929133858
 30
0.0
 11
0.3809055118110236
 21
2.606299212598425
 31
0.0
  0
LINE
  5
2C9E
330
1E
100
AcDbEntity
  8
3
100
AcDbLine
 10
0.3809055118110236
 20
2.606299212598425
 30
0.0
 11
0.3769685039370079
 21
2.623031496062992
 31
0.0
  0
LINE
  5
2C9F
330
1E
100
AcDbEntity
  8
3
100
AcDbLine
 10
0.3769685039370079
 20
2.623031496062992
 30
0.0
 11
0.3661417322834644
 21
2.636811023622047
 31
0.0
  0
LINE
  5
2CA0
330
1E
100
AcDbEntity
  8
3
100
AcDbLine
 10
0.3661417322834644
 20
2.636811023622047
 30
0.0
 11
0.3503937007874014
 21
2.644685039370078
 31
0.0
  0
LINE
  5
2CA1
330
1E
100
AcDbEntity
  8
3
100
AcDbLine
 10
0.3503937007874014
 20
2.644685039370078
 30
0.0
 11
0.3326771653543306
 21
2.644685039370078
 31
0.0
  0
LINE
  5
2CA2
330
1E
100
AcDbEntity
  8
3
100
AcDbLine
 10
0.3326771653543306
 20
2.644685039370078
 30
0.0
 11
0.3169291338582676
 21
2.636811023622047
 31
0.0
  0
LINE
  5
2CA3
330
1E
100
AcDbEntity
  8
3
100
AcDbLine
 10
0.3169291338582676
 20
2.636811023622047
 30
0.0
 11
0.3061023622047241
 21
2.623031496062992
 31
0.0
  0
LINE
  5
2CA4
330
1E
100
AcDbEntity
  8
3
100
AcDbLine
 10
0.3061023622047241
 20
2.623031496062992
 30
0.0
 11
0.3021653543307083
 21
2.606299212598425
 31
0.0
  0
LINE
  5
2CA5
330
1E
100
AcDbEntity
  8
3
100
AcDbLine
 10
-0.6092519685039371
 20
2.644685039370078
 30
0.0
 11
-0.6269685039370079
 21
2.644685039370078
 31
0.0
  0
LINE
  5
2CA6
330
1E
100
AcDbEntity
  8
3
100
AcDbLine
 10
-0.6269685039370079
 20
2.644685039370078
 30
0.0
 11
-0.6427165354330709
 21
2.636811023622047
 31
0.0
  0
LINE
  5
2CA7
330
1E
100
AcDbEntity
  8
3
100
AcDbLine
 10
-0.6427165354330709
 20
2.636811023622047
 30
0.0
 11
-0.6535433070866144
 21
2.623031496062992
 31
0.0
  0
LINE
  5
2CA8
330
1E
100
AcDbEntity
  8
3
100
AcDbLine
 10
-0.6535433070866144
 20
2.623031496062992
 30
0.0
 11
-0.6574803149606301
 21
2.606299212598425
 31
0.0
  0
LINE
  5
2CA9
330
1E
100
AcDbEntity
  8
3
100
AcDbLine
 10
-0.6574803149606301
 20
2.606299212598425
 30
0.0
 11
-0.6535433070866144
 21
2.589566929133858
 31
0.0
  0
LINE
  5
2CAA
330
1E
100
AcDbEntity
  8
3
100
AcDbLine
 10
-0.6535433070866144
 20
2.589566929133858
 30
0.0
 11
-0.6427165354330709
 21
2.575787401574803
 31
0.0
  0
LINE
  5
2CAB
330
1E
100
AcDbEntity
  8
3
100
AcDbLine
 10
-0.6427165354330709
 20
2.575787401574803
 30
0.0
 11
-0.6269685039370079
 21
2.567913385826772
 31
0.0
  0
LINE
  5
2CAC
330
1E
100
AcDbEntity
  8
3
100
AcDbLine
 10
-0.6269685039370079
 20
2.567913385826772
 30
0.0
 11
-0.6092519685039371
 21
2.567913385826772
 31
0.0
  0
LINE
  5
2CAD
330
1E
100
AcDbEntity
  8
3
100
AcDbLine
 10
-0.6092519685039371
 20
2.567913385826772
 30
0.0
 11
-0.5935039370078741
 21
2.575787401574803
 31
0.0
  0
LINE
  5
2CAE
330
1E
100
AcDbEntity
  8
3
100
AcDbLine
 10
-0.5935039370078741
 20
2.575787401574803
 30
0.0
 11
-0.582677165354331
 21
2.589566929133858
 31
0.0
  0
LINE
  5
2CAF
330
1E
100
AcDbEntity
  8
3
100
AcDbLine
 10
-0.582677165354331
 20
2.589566929133858
 30
0.0
 11
-0.5787401574803153
 21
2.606299212598425
 31
0.0
  0
LINE
  5
2CB0
330
1E
100
AcDbEntity
  8
3
100
AcDbLine
 10
-0.5787401574803153
 20
2.606299212598425
 30
0.0
 11
-0.582677165354331
 21
2.623031496062992
 31
0.0
  0
LINE
  5
2CB1
330
1E
100
AcDbEntity
  8
3
100
AcDbLine
 10
-0.582677165354331
 20
2.623031496062992
 30
0.0
 11
-0.5935039370078741
 21
2.636811023622047
 31
0.0
  0
LINE
  5
2CB2
330
1E
100
AcDbEntity
  8
3
100
AcDbLine
 10
-0.5935039370078741
 20
2.636811023622047
 30
0.0
 11
-0.6092519685039371
 21
2.644685039370078
 31
0.0
  0
LINE
  5
2CB3
330
1E
100
AcDbEntity
  8
3
100
AcDbLine
 10
-1.71751968503937
 20
0.4173228346456695
 30
0.0
 11
-1.714566929133858
 21
0.4606299212598426
 31
0.0
  0
LINE
  5
2CB4
330
1E
100
AcDbEntity
  8
3
100
AcDbLine
 10
-1.714566929133858
 20
0.4606299212598426
 30
0.0
 11
-1.719488188976378
 21
0.5029527559055121
 31
0.0
  0
LINE
  5
2CB5
330
1E
100
AcDbEntity
  8
3
100
AcDbLine
 10
-1.719488188976378
 20
0.5029527559055121
 30
0.0
 11
-1.732283464566929
 21
0.5433070866141741
 31
0.0
  0
LINE
  5
2CB6
330
1E
100
AcDbEntity
  8
3
100
AcDbLine
 10
-1.732283464566929
 20
0.5433070866141741
 30
0.0
 11
-1.752952755905512
 21
0.5807086614173232
 31
0.0
  0
LINE
  5
2CB7
330
1E
100
AcDbEntity
  8
3
100
AcDbLine
 10
-1.752952755905512
 20
0.5807086614173232
 30
0.0
 11
-1.779527559055118
 21
0.6141732283464574
 31
0.0
  0
LINE
  5
2CB8
330
1E
100
AcDbEntity
  8
3
100
AcDbLine
 10
-1.779527559055118
 20
0.6141732283464574
 30
0.0
 11
-1.812007874015748
 21
0.6417322834645676
 31
0.0
  0
LINE
  5
2CB9
330
1E
100
AcDbEntity
  8
3
100
AcDbLine
 10
-1.812007874015748
 20
0.6417322834645676
 30
0.0
 11
-1.849409448818897
 21
0.6633858267716537
 31
0.0
  0
LINE
  5
2CBA
330
1E
100
AcDbEntity
  8
3
100
AcDbLine
 10
-2.168307086614173
 20
0.4173228346456695
 30
0.0
 11
-2.15748031496063
 21
0.3759842519685046
 31
0.0
  0
LINE
  5
2CBB
330
1E
100
AcDbEntity
  8
3
100
AcDbLine
 10
-2.15748031496063
 20
0.3759842519685046
 30
0.0
 11
-2.138779527559055
 21
0.3375984251968509
 31
0.0
  0
LINE
  5
2CBC
330
1E
100
AcDbEntity
  8
3
100
AcDbLine
 10
-2.138779527559055
 20
0.3375984251968509
 30
0.0
 11
-2.113188976377952
 21
0.3031496062992129
 31
0.0
  0
LINE
  5
2CBD
330
1E
100
AcDbEntity
  8
3
100
AcDbLine
 10
-2.113188976377952
 20
0.3031496062992129
 30
0.0
 11
-2.082677165354331
 21
0.2736220472440953
 31
0.0
  0
LINE
  5
2CBE
330
1E
100
AcDbEntity
  8
3
100
AcDbLine
 10
-2.082677165354331
 20
0.2736220472440953
 30
0.0
 11
-2.046259842519685
 21
0.2509842519685046
 31
0.0
  0
LINE
  5
2CBF
330
1E
100
AcDbEntity
  8
3
100
AcDbLine
 10
-2.046259842519685
 20
0.2509842519685046
 30
0.0
 11
-2.005905511811024
 21
0.2352362204724416
 31
0.0
  0
LINE
  5
2CC0
330
1E
100
AcDbEntity
  8
3
100
AcDbLine
 10
-2.005905511811024
 20
0.2352362204724416
 30
0.0
 11
-1.964566929133858
 21
0.2273622047244101
 31
0.0
  0
LINE
  5
2CC1
330
1E
100
AcDbEntity
  8
3
100
AcDbLine
 10
-1.964566929133858
 20
0.2273622047244101
 30
0.0
 11
-1.921259842519685
 21
0.2273622047244101
 31
0.0
  0
LINE
  5
2CC2
330
1E
100
AcDbEntity
  8
3
100
AcDbLine
 10
-1.921259842519685
 20
0.2273622047244101
 30
0.0
 11
-1.879921259842519
 21
0.2352362204724416
 31
0.0
  0
LINE
  5
2CC3
330
1E
100
AcDbEntity
  8
3
100
AcDbLine
 10
-1.879921259842519
 20
0.2352362204724416
 30
0.0
 11
-1.839566929133858
 21
0.2509842519685046
 31
0.0
  0
LINE
  5
2CC4
330
1E
100
AcDbEntity
  8
3
100
AcDbLine
 10
-1.839566929133858
 20
0.2509842519685046
 30
0.0
 11
-1.803149606299212
 21
0.2736220472440953
 31
0.0
  0
LINE
  5
2CC5
330
1E
100
AcDbEntity
  8
3
100
AcDbLine
 10
-1.803149606299212
 20
0.2736220472440953
 30
0.0
 11
-1.77263779527559
 21
0.3031496062992129
 31
0.0
  0
LINE
  5
2CC6
330
1E
100
AcDbEntity
  8
3
100
AcDbLine
 10
-1.77263779527559
 20
0.3031496062992129
 30
0.0
 11
-1.747047244094488
 21
0.3375984251968509
 31
0.0
  0
LINE
  5
2CC7
330
1E
100
AcDbEntity
  8
3
100
AcDbLine
 10
-1.747047244094488
 20
0.3375984251968509
 30
0.0
 11
-1.728346456692913
 21
0.3759842519685046
 31
0.0
  0
LINE
  5
2CC8
330
1E
100
AcDbEntity
  8
3
100
AcDbLine
 10
-1.728346456692913
 20
0.3759842519685046
 30
0.0
 11
-1.71751968503937
 21
0.4173228346456695
 31
0.0
  0
LINE
  5
2CC9
330
1E
100
AcDbEntity
  8
3
100
AcDbLine
 10
-2.036417322834645
 20
0.6633858267716537
 30
0.0
 11
-2.073818897637795
 21
0.6417322834645676
 31
0.0
  0
LINE
  5
2CCA
330
1E
100
AcDbEntity
  8
3
100
AcDbLine
 10
-2.073818897637795
 20
0.6417322834645676
 30
0.0
 11
-2.106299212598425
 21
0.6141732283464574
 31
0.0
  0
LINE
  5
2CCB
330
1E
100
AcDbEntity
  8
3
100
AcDbLine
 10
-2.106299212598425
 20
0.6141732283464574
 30
0.0
 11
-2.132874015748031
 21
0.5807086614173232
 31
0.0
  0
LINE
  5
2CCC
330
1E
100
AcDbEntity
  8
3
100
AcDbLine
 10
-2.132874015748031
 20
0.5807086614173232
 30
0.0
 11
-2.153543307086614
 21
0.5433070866141741
 31
0.0
  0
LINE
  5
2CCD
330
1E
100
AcDbEntity
  8
3
100
AcDbLine
 10
-2.153543307086614
 20
0.5433070866141741
 30
0.0
 11
-2.166338582677165
 21
0.5029527559055121
 31
0.0
  0
LINE
  5
2CCE
330
1E
100
AcDbEntity
  8
3
100
AcDbLine
 10
-2.166338582677165
 20
0.5029527559055121
 30
0.0
 11
-2.171259842519685
 21
0.4606299212598426
 31
0.0
  0
LINE
  5
2CCF
330
1E
100
AcDbEntity
  8
3
100
AcDbLine
 10
-2.171259842519685
 20
0.4606299212598426
 30
0.0
 11
-2.168307086614173
 21
0.4173228346456695
 31
0.0
  0
LINE
  5
2CD0
330
1E
100
AcDbEntity
  8
3
100
AcDbLine
 10
-2.158464566929134
 20
0.309055118110237
 30
0.0
 11
-2.128937007874015
 21
0.2736220472440953
 31
0.0
  0
LINE
  5
2CD1
330
1E
100
AcDbEntity
  8
3
100
AcDbLine
 10
-2.128937007874015
 20
0.2736220472440953
 30
0.0
 11
-2.093503937007874
 21
0.2431102362204731
 31
0.0
  0
LINE
  5
2CD2
330
1E
100
AcDbEntity
  8
3
100
AcDbLine
 10
-2.093503937007874
 20
0.2431102362204731
 30
0.0
 11
-2.053149606299212
 21
0.2194881889763787
 31
0.0
  0
LINE
  5
2CD3
330
1E
100
AcDbEntity
  8
3
100
AcDbLine
 10
-1.942913385826771
 20
0.7145669291338584
 30
0.0
 11
-1.989173228346457
 21
0.7106299212598426
 31
0.0
  0
LINE
  5
2CD4
330
1E
100
AcDbEntity
  8
3
100
AcDbLine
 10
-1.989173228346457
 20
0.7106299212598426
 30
0.0
 11
-2.034448818897637
 21
0.6978346456692917
 31
0.0
  0
LINE
  5
2CD5
330
1E
100
AcDbEntity
  8
3
100
AcDbLine
 10
-2.034448818897637
 20
0.6978346456692917
 30
0.0
 11
-2.076771653543307
 21
0.6771653543307093
 31
0.0
  0
LINE
  5
2CD6
330
1E
100
AcDbEntity
  8
3
100
AcDbLine
 10
-2.076771653543307
 20
0.6771653543307093
 30
0.0
 11
-2.114173228346456
 21
0.6496062992125991
 31
0.0
  0
LINE
  5
2CD7
330
1E
100
AcDbEntity
  8
3
100
AcDbLine
 10
-2.114173228346456
 20
0.6496062992125991
 30
0.0
 11
-2.146653543307087
 21
0.6161417322834648
 31
0.0
  0
LINE
  5
2CD8
330
1E
100
AcDbEntity
  8
3
100
AcDbLine
 10
-2.146653543307087
 20
0.6161417322834648
 30
0.0
 11
-2.172244094488188
 21
0.5767716535433074
 31
0.0
  0
LINE
  5
2CD9
330
1E
100
AcDbEntity
  8
3
100
AcDbLine
 10
-2.172244094488188
 20
0.5767716535433074
 30
0.0
 11
-2.190944881889763
 21
0.5334645669291343
 31
0.0
  0
LINE
  5
2CDA
330
1E
100
AcDbEntity
  8
3
100
AcDbLine
 10
-2.190944881889763
 20
0.5334645669291343
 30
0.0
 11
-2.200787401574803
 21
0.4881889763779528
 31
0.0
  0
LINE
  5
2CDB
330
1E
100
AcDbEntity
  8
3
100
AcDbLine
 10
-2.200787401574803
 20
0.4881889763779528
 30
0.0
 11
-2.202755905511811
 21
0.4409448818897639
 31
0.0
  0
LINE
  5
2CDC
330
1E
100
AcDbEntity
  8
3
100
AcDbLine
 10
-2.202755905511811
 20
0.4409448818897639
 30
0.0
 11
-2.195866141732283
 21
0.3946850393700796
 31
0.0
  0
LINE
  5
2CDD
330
1E
100
AcDbEntity
  8
3
100
AcDbLine
 10
-2.195866141732283
 20
0.3946850393700796
 30
0.0
 11
-2.181102362204724
 21
0.3503937007874018
 31
0.0
  0
LINE
  5
2CDE
330
1E
100
AcDbEntity
  8
3
100
AcDbLine
 10
-2.181102362204724
 20
0.3503937007874018
 30
0.0
 11
-2.158464566929134
 21
0.309055118110237
 31
0.0
  0
LINE
  5
2CDF
330
1E
100
AcDbEntity
  8
3
100
AcDbLine
 10
-1.83267716535433
 20
0.2194881889763787
 30
0.0
 11
-1.792322834645669
 21
0.2431102362204731
 31
0.0
  0
LINE
  5
2CE0
330
1E
100
AcDbEntity
  8
3
100
AcDbLine
 10
-1.792322834645669
 20
0.2431102362204731
 30
0.0
 11
-1.756889763779527
 21
0.2736220472440953
 31
0.0
  0
LINE
  5
2CE1
330
1E
100
AcDbEntity
  8
3
100
AcDbLine
 10
-1.756889763779527
 20
0.2736220472440953
 30
0.0
 11
-1.727362204724409
 21
0.309055118110237
 31
0.0
  0
LINE
  5
2CE2
330
1E
100
AcDbEntity
  8
3
100
AcDbLine
 10
-1.727362204724409
 20
0.309055118110237
 30
0.0
 11
-1.704724409448818
 21
0.3503937007874018
 31
0.0
  0
LINE
  5
2CE3
330
1E
100
AcDbEntity
  8
3
100
AcDbLine
 10
-1.704724409448818
 20
0.3503937007874018
 30
0.0
 11
-1.689960629921259
 21
0.3946850393700796
 31
0.0
  0
LINE
  5
2CE4
330
1E
100
AcDbEntity
  8
3
100
AcDbLine
 10
-1.689960629921259
 20
0.3946850393700796
 30
0.0
 11
-1.683070866141732
 21
0.4409448818897639
 31
0.0
  0
LINE
  5
2CE5
330
1E
100
AcDbEntity
  8
3
100
AcDbLine
 10
-1.683070866141732
 20
0.4409448818897639
 30
0.0
 11
-1.68503937007874
 21
0.4881889763779528
 31
0.0
  0
LINE
  5
2CE6
330
1E
100
AcDbEntity
  8
3
100
AcDbLine
 10
-1.68503937007874
 20
0.4881889763779528
 30
0.0
 11
-1.694881889763779
 21
0.5334645669291343
 31
0.0
  0
LINE
  5
2CE7
330
1E
100
AcDbEntity
  8
3
100
AcDbLine
 10
-1.694881889763779
 20
0.5334645669291343
 30
0.0
 11
-1.713582677165354
 21
0.5767716535433074
 31
0.0
  0
LINE
  5
2CE8
330
1E
100
AcDbEntity
  8
3
100
AcDbLine
 10
-1.713582677165354
 20
0.5767716535433074
 30
0.0
 11
-1.739173228346456
 21
0.6161417322834648
 31
0.0
  0
LINE
  5
2CE9
330
1E
100
AcDbEntity
  8
3
100
AcDbLine
 10
-1.739173228346456
 20
0.6161417322834648
 30
0.0
 11
-1.771653543307086
 21
0.6496062992125991
 31
0.0
  0
LINE
  5
2CEA
330
1E
100
AcDbEntity
  8
3
100
AcDbLine
 10
-1.771653543307086
 20
0.6496062992125991
 30
0.0
 11
-1.809055118110236
 21
0.6771653543307093
 31
0.0
  0
LINE
  5
2CEB
330
1E
100
AcDbEntity
  8
3
100
AcDbLine
 10
-1.809055118110236
 20
0.6771653543307093
 30
0.0
 11
-1.851377952755905
 21
0.6978346456692917
 31
0.0
  0
LINE
  5
2CEC
330
1E
100
AcDbEntity
  8
3
100
AcDbLine
 10
-1.851377952755905
 20
0.6978346456692917
 30
0.0
 11
-1.896653543307086
 21
0.7106299212598426
 31
0.0
  0
LINE
  5
2CED
330
1E
100
AcDbEntity
  8
3
100
AcDbLine
 10
-1.896653543307086
 20
0.7106299212598426
 30
0.0
 11
-1.942913385826771
 21
0.7145669291338584
 31
0.0
  0
LINE
  5
2CEE
330
1E
100
AcDbEntity
  8
3
100
AcDbLine
 10
-2.023622047244094
 20
0.4931102362204732
 30
0.0
 11
-2.031496062992125
 21
0.4685039370078741
 31
0.0
  0
LINE
  5
2CEF
330
1E
100
AcDbEntity
  8
3
100
AcDbLine
 10
-2.031496062992125
 20
0.4685039370078741
 30
0.0
 11
-2.031496062992125
 21
0.4409448818897639
 31
0.0
  0
LINE
  5
2CF0
330
1E
100
AcDbEntity
  8
3
100
AcDbLine
 10
-2.031496062992125
 20
0.4409448818897639
 30
0.0
 11
-2.023622047244094
 21
0.4163385826771658
 31
0.0
  0
LINE
  5
2CF1
330
1E
100
AcDbEntity
  8
3
100
AcDbLine
 10
-2.023622047244094
 20
0.4163385826771658
 30
0.0
 11
-2.008858267716535
 21
0.393700787401575
 31
0.0
  0
LINE
  5
2CF2
330
1E
100
AcDbEntity
  8
3
100
AcDbLine
 10
-2.008858267716535
 20
0.393700787401575
 30
0.0
 11
-1.988188976377952
 21
0.3769685039370083
 31
0.0
  0
LINE
  5
2CF3
330
1E
100
AcDbEntity
  8
3
100
AcDbLine
 10
-1.988188976377952
 20
0.3769685039370083
 30
0.0
 11
-1.96259842519685
 21
0.3671259842519685
 31
0.0
  0
LINE
  5
2CF4
330
1E
100
AcDbEntity
  8
3
100
AcDbLine
 10
-1.96259842519685
 20
0.3671259842519685
 30
0.0
 11
-1.936023622047244
 21
0.3651574803149611
 31
0.0
  0
LINE
  5
2CF5
330
1E
100
AcDbEntity
  8
3
100
AcDbLine
 10
-1.936023622047244
 20
0.3651574803149611
 30
0.0
 11
-1.910433070866141
 21
0.3710629921259843
 31
0.0
  0
LINE
  5
2CF6
330
1E
100
AcDbEntity
  8
3
100
AcDbLine
 10
-1.910433070866141
 20
0.3710629921259843
 30
0.0
 11
-1.886811023622047
 21
0.3848425196850398
 31
0.0
  0
LINE
  5
2CF7
330
1E
100
AcDbEntity
  8
3
100
AcDbLine
 10
-1.886811023622047
 20
0.3848425196850398
 30
0.0
 11
-1.869094488188976
 21
0.4045275590551185
 31
0.0
  0
LINE
  5
2CF8
330
1E
100
AcDbEntity
  8
3
100
AcDbLine
 10
-1.869094488188976
 20
0.4045275590551185
 30
0.0
 11
-1.857283464566929
 21
0.428149606299213
 31
0.0
  0
LINE
  5
2CF9
330
1E
100
AcDbEntity
  8
3
100
AcDbLine
 10
-1.857283464566929
 20
0.428149606299213
 30
0.0
 11
-1.853346456692913
 21
0.4547244094488195
 31
0.0
  0
LINE
  5
2CFA
330
1E
100
AcDbEntity
  8
3
100
AcDbLine
 10
-1.853346456692913
 20
0.4547244094488195
 30
0.0
 11
-1.857283464566929
 21
0.4812992125984259
 31
0.0
  0
LINE
  5
2CFB
330
1E
100
AcDbEntity
  8
3
100
AcDbLine
 10
-1.857283464566929
 20
0.4812992125984259
 30
0.0
 11
-1.869094488188976
 21
0.5049212598425204
 31
0.0
  0
LINE
  5
2CFC
330
1E
100
AcDbEntity
  8
3
100
AcDbLine
 10
-1.869094488188976
 20
0.5049212598425204
 30
0.0
 11
-1.886811023622047
 21
0.5246062992125991
 31
0.0
  0
LINE
  5
2CFD
330
1E
100
AcDbEntity
  8
3
100
AcDbLine
 10
-1.886811023622047
 20
0.5246062992125991
 30
0.0
 11
-1.910433070866141
 21
0.5383858267716537
 31
0.0
  0
LINE
  5
2CFE
330
1E
100
AcDbEntity
  8
3
100
AcDbLine
 10
-1.910433070866141
 20
0.5383858267716537
 30
0.0
 11
-1.936023622047244
 21
0.5442913385826778
 31
0.0
  0
LINE
  5
2CFF
330
1E
100
AcDbEntity
  8
3
100
AcDbLine
 10
-1.936023622047244
 20
0.5442913385826778
 30
0.0
 11
-1.96259842519685
 21
0.5423228346456695
 31
0.0
  0
LINE
  5
2D00
330
1E
100
AcDbEntity
  8
3
100
AcDbLine
 10
-1.96259842519685
 20
0.5423228346456695
 30
0.0
 11
-1.987204724409449
 21
0.5324803149606306
 31
0.0
  0
LINE
  5
2D01
330
1E
100
AcDbEntity
  8
3
100
AcDbLine
 10
-1.987204724409449
 20
0.5324803149606306
 30
0.0
 11
-2.008858267716535
 21
0.515748031496063
 31
0.0
  0
LINE
  5
2D02
330
1E
100
AcDbEntity
  8
3
100
AcDbLine
 10
-2.008858267716535
 20
0.515748031496063
 30
0.0
 11
-2.023622047244094
 21
0.4931102362204732
 31
0.0
  0
LINE
  5
2D03
330
1E
100
AcDbEntity
  8
3
100
AcDbLine
 10
-1.942913385826771
 20
0.425196850393701
 30
0.0
 11
-1.928149606299212
 21
0.4291338582677167
 31
0.0
  0
LINE
  5
2D04
330
1E
100
AcDbEntity
  8
3
100
AcDbLine
 10
-1.928149606299212
 20
0.4291338582677167
 30
0.0
 11
-1.917322834645669
 21
0.4399606299212602
 31
0.0
  0
LINE
  5
2D05
330
1E
100
AcDbEntity
  8
3
100
AcDbLine
 10
-1.917322834645669
 20
0.4399606299212602
 30
0.0
 11
-1.913385826771653
 21
0.4547244094488195
 31
0.0
  0
LINE
  5
2D06
330
1E
100
AcDbEntity
  8
3
100
AcDbLine
 10
-1.913385826771653
 20
0.4547244094488195
 30
0.0
 11
-1.917322834645669
 21
0.4694881889763787
 31
0.0
  0
LINE
  5
2D07
330
1E
100
AcDbEntity
  8
3
100
AcDbLine
 10
-1.917322834645669
 20
0.4694881889763787
 30
0.0
 11
-1.928149606299212
 21
0.4803149606299213
 31
0.0
  0
LINE
  5
2D08
330
1E
100
AcDbEntity
  8
3
100
AcDbLine
 10
-1.928149606299212
 20
0.4803149606299213
 30
0.0
 11
-1.942913385826771
 21
0.4842519685039371
 31
0.0
  0
LINE
  5
2D09
330
1E
100
AcDbEntity
  8
3
100
AcDbLine
 10
-1.942913385826771
 20
0.4842519685039371
 30
0.0
 11
-1.95767716535433
 21
0.4803149606299213
 31
0.0
  0
LINE
  5
2D0A
330
1E
100
AcDbEntity
  8
3
100
AcDbLine
 10
-1.95767716535433
 20
0.4803149606299213
 30
0.0
 11
-1.968503937007874
 21
0.4694881889763787
 31
0.0
  0
LINE
  5
2D0B
330
1E
100
AcDbEntity
  8
3
100
AcDbLine
 10
-1.968503937007874
 20
0.4694881889763787
 30
0.0
 11
-1.972440944881889
 21
0.4547244094488195
 31
0.0
  0
LINE
  5
2D0C
330
1E
100
AcDbEntity
  8
3
100
AcDbLine
 10
-1.972440944881889
 20
0.4547244094488195
 30
0.0
 11
-1.968503937007874
 21
0.4399606299212602
 31
0.0
  0
LINE
  5
2D0D
330
1E
100
AcDbEntity
  8
3
100
AcDbLine
 10
-1.968503937007874
 20
0.4399606299212602
 30
0.0
 11
-1.95767716535433
 21
0.4291338582677167
 31
0.0
  0
LINE
  5
2D0E
330
1E
100
AcDbEntity
  8
3
100
AcDbLine
 10
-1.95767716535433
 20
0.4291338582677167
 30
0.0
 11
-1.942913385826771
 21
0.425196850393701
 31
0.0
  0
LINE
  5
2D0F
330
1E
100
AcDbEntity
  8
3
100
AcDbLine
 10
0.1269685039370079
 20
2.876968503937008
 30
0.0
 11
0.1240157480314958
 21
2.887795275590551
 31
0.0
  0
LINE
  5
2D10
330
1E
100
AcDbEntity
  8
3
100
AcDbLine
 10
0.1240157480314958
 20
2.887795275590551
 30
0.0
 11
0.1171259842519685
 21
2.896653543307087
 31
0.0
  0
LINE
  5
2D11
330
1E
100
AcDbEntity
  8
3
100
AcDbLine
 10
-0.396653543307087
 20
2.909448818897637
 30
0.0
 11
-0.4005905511811028
 21
2.908464566929134
 31
0.0
  0
LINE
  5
2D12
330
1E
100
AcDbEntity
  8
3
100
AcDbLine
 10
-0.4005905511811028
 20
2.908464566929134
 30
0.0
 11
-0.4015748031496065
 21
2.904527559055118
 31
0.0
  0
LINE
  5
2D13
330
1E
100
AcDbEntity
  8
3
100
AcDbLine
 10
-2.135826771653543
 20
0.4547244094488195
 30
0.0
 11
-2.131889763779527
 21
0.4143700787401583
 31
0.0
  0
LINE
  5
2D14
330
1E
100
AcDbEntity
  8
3
100
AcDbLine
 10
-2.131889763779527
 20
0.4143700787401583
 30
0.0
 11
-2.119094488188976
 21
0.3759842519685046
 31
0.0
  0
LINE
  5
2D15
330
1E
100
AcDbEntity
  8
3
100
AcDbLine
 10
-2.119094488188976
 20
0.3759842519685046
 30
0.0
 11
-2.099409448818897
 21
0.3415354330708666
 31
0.0
  0
LINE
  5
2D16
330
1E
100
AcDbEntity
  8
3
100
AcDbLine
 10
-2.099409448818897
 20
0.3415354330708666
 30
0.0
 11
-2.071850393700787
 21
0.3110236220472444
 31
0.0
  0
LINE
  5
2D17
330
1E
100
AcDbEntity
  8
3
100
AcDbLine
 10
-2.071850393700787
 20
0.3110236220472444
 30
0.0
 11
-2.039370078740157
 21
0.28740157480315
 31
0.0
  0
LINE
  5
2D18
330
1E
100
AcDbEntity
  8
3
100
AcDbLine
 10
-2.039370078740157
 20
0.28740157480315
 30
0.0
 11
-2.002952755905512
 21
0.271653543307087
 31
0.0
  0
LINE
  5
2D19
330
1E
100
AcDbEntity
  8
3
100
AcDbLine
 10
-2.002952755905512
 20
0.271653543307087
 30
0.0
 11
-1.96259842519685
 21
0.2627952755905518
 31
0.0
  0
LINE
  5
2D1A
330
1E
100
AcDbEntity
  8
3
100
AcDbLine
 10
-1.96259842519685
 20
0.2627952755905518
 30
0.0
 11
-1.923228346456692
 21
0.2627952755905518
 31
0.0
  0
LINE
  5
2D1B
330
1E
100
AcDbEntity
  8
3
100
AcDbLine
 10
-1.923228346456692
 20
0.2627952755905518
 30
0.0
 11
-1.882874015748031
 21
0.271653543307087
 31
0.0
  0
LINE
  5
2D1C
330
1E
100
AcDbEntity
  8
3
100
AcDbLine
 10
-1.882874015748031
 20
0.271653543307087
 30
0.0
 11
-1.846456692913386
 21
0.28740157480315
 31
0.0
  0
LINE
  5
2D1D
330
1E
100
AcDbEntity
  8
3
100
AcDbLine
 10
-1.846456692913386
 20
0.28740157480315
 30
0.0
 11
-1.813976377952755
 21
0.3110236220472444
 31
0.0
  0
LINE
  5
2D1E
330
1E
100
AcDbEntity
  8
3
100
AcDbLine
 10
-1.813976377952755
 20
0.3110236220472444
 30
0.0
 11
-1.786417322834645
 21
0.3415354330708666
 31
0.0
  0
LINE
  5
2D1F
330
1E
100
AcDbEntity
  8
3
100
AcDbLine
 10
-1.786417322834645
 20
0.3415354330708666
 30
0.0
 11
-1.766732283464567
 21
0.3759842519685046
 31
0.0
  0
LINE
  5
2D20
330
1E
100
AcDbEntity
  8
3
100
AcDbLine
 10
-1.766732283464567
 20
0.3759842519685046
 30
0.0
 11
-1.753937007874015
 21
0.4143700787401583
 31
0.0
  0
LINE
  5
2D21
330
1E
100
AcDbEntity
  8
3
100
AcDbLine
 10
-1.753937007874015
 20
0.4143700787401583
 30
0.0
 11
-1.75
 21
0.4547244094488195
 31
0.0
  0
LINE
  5
2D22
330
1E
100
AcDbEntity
  8
3
100
AcDbLine
 10
-1.766732283464567
 20
0.5334645669291343
 30
0.0
 11
-1.786417322834645
 21
0.5679133858267722
 31
0.0
  0
LINE
  5
2D23
330
1E
100
AcDbEntity
  8
3
100
AcDbLine
 10
-1.786417322834645
 20
0.5679133858267722
 30
0.0
 11
-1.813976377952755
 21
0.5984251968503945
 31
0.0
  0
LINE
  5
2D24
330
1E
100
AcDbEntity
  8
3
100
AcDbLine
 10
-1.813976377952755
 20
0.5984251968503945
 30
0.0
 11
-1.846456692913386
 21
0.6220472440944889
 31
0.0
  0
LINE
  5
2D25
330
1E
100
AcDbEntity
  8
3
100
AcDbLine
 10
-1.846456692913386
 20
0.6220472440944889
 30
0.0
 11
-1.882874015748031
 21
0.6377952755905519
 31
0.0
  0
LINE
  5
2D26
330
1E
100
AcDbEntity
  8
3
100
AcDbLine
 10
-1.882874015748031
 20
0.6377952755905519
 30
0.0
 11
-1.923228346456692
 21
0.6466535433070871
 31
0.0
  0
LINE
  5
2D27
330
1E
100
AcDbEntity
  8
3
100
AcDbLine
 10
-1.923228346456692
 20
0.6466535433070871
 30
0.0
 11
-1.96259842519685
 21
0.6466535433070871
 31
0.0
  0
LINE
  5
2D28
330
1E
100
AcDbEntity
  8
3
100
AcDbLine
 10
-1.96259842519685
 20
0.6466535433070871
 30
0.0
 11
-2.002952755905512
 21
0.6377952755905519
 31
0.0
  0
LINE
  5
2D29
330
1E
100
AcDbEntity
  8
3
100
AcDbLine
 10
-2.002952755905512
 20
0.6377952755905519
 30
0.0
 11
-2.039370078740157
 21
0.6220472440944889
 31
0.0
  0
LINE
  5
2D2A
330
1E
100
AcDbEntity
  8
3
100
AcDbLine
 10
-2.039370078740157
 20
0.6220472440944889
 30
0.0
 11
-2.071850393700787
 21
0.5984251968503945
 31
0.0
  0
LINE
  5
2D2B
330
1E
100
AcDbEntity
  8
3
100
AcDbLine
 10
-2.071850393700787
 20
0.5984251968503945
 30
0.0
 11
-2.099409448818897
 21
0.5679133858267722
 31
0.0
  0
LINE
  5
2D2C
330
1E
100
AcDbEntity
  8
3
100
AcDbLine
 10
-2.099409448818897
 20
0.5679133858267722
 30
0.0
 11
-2.119094488188976
 21
0.5334645669291343
 31
0.0
  0
LINE
  5
2D2D
330
1E
100
AcDbEntity
  8
3
100
AcDbLine
 10
-2.119094488188976
 20
0.5334645669291343
 30
0.0
 11
-2.131889763779527
 21
0.4950787401574806
 31
0.0
  0
LINE
  5
2D2E
330
1E
100
AcDbEntity
  8
3
100
AcDbLine
 10
-2.131889763779527
 20
0.4950787401574806
 30
0.0
 11
-2.135826771653543
 21
0.4547244094488195
 31
0.0
  0
LINE
  5
2D2F
330
1E
100
AcDbEntity
  8
3
100
AcDbLine
 10
-1.75
 20
0.4547244094488195
 30
0.0
 11
-1.753937007874015
 21
0.4950787401574806
 31
0.0
  0
LINE
  5
2D30
330
1E
100
AcDbEntity
  8
3
100
AcDbLine
 10
-1.753937007874015
 20
0.4950787401574806
 30
0.0
 11
-1.766732283464567
 21
0.5334645669291343
 31
0.0
  0
LINE
  5
2D31
330
1E
100
AcDbEntity
  8
3
100
AcDbLine
 10
-1.847440944881889
 20
0.149606299212599
 30
0.0
 11
-1.836614173228346
 21
0.1535433070866148
 31
0.0
  0
LINE
  5
2D32
330
1E
100
AcDbEntity
  8
3
100
AcDbLine
 10
-1.836614173228346
 20
0.1535433070866148
 30
0.0
 11
-1.83267716535433
 21
0.1643700787401583
 31
0.0
  0
LINE
  5
2D33
330
1E
100
AcDbEntity
  8
3
100
AcDbLine
 10
-2.052165354330708
 20
0.1643700787401583
 30
0.0
 11
-2.048228346456693
 21
0.1535433070866148
 31
0.0
  0
LINE
  5
2D34
330
1E
100
AcDbEntity
  8
3
100
AcDbLine
 10
-2.048228346456693
 20
0.1535433070866148
 30
0.0
 11
-2.037401574803149
 21
0.149606299212599
 31
0.0
  0
LINE
  5
2D35
330
1E
100
AcDbEntity
  8
3
100
AcDbLine
 10
-1.644685039370078
 20
0.0846456692913389
 30
0.0
 11
-1.640748031496063
 21
0.0846456692913389
 31
0.0
  0
LINE
  5
2D36
330
1E
100
AcDbEntity
  8
3
100
AcDbLine
 10
-1.640748031496063
 20
0.0846456692913389
 30
0.0
 11
-1.639763779527559
 21
0.0846456692913389
 31
0.0
  0
LINE
  5
2D37
330
1E
100
AcDbEntity
  8
3
100
AcDbLine
 10
-2.246062992125984
 20
0.0846456692913389
 30
0.0
 11
-2.24507874015748
 21
0.0846456692913389
 31
0.0
  0
LINE
  5
2D38
330
1E
100
AcDbEntity
  8
3
100
AcDbLine
 10
-2.24507874015748
 20
0.0846456692913389
 30
0.0
 11
-2.241141732283464
 21
0.0846456692913389
 31
0.0
  0
LINE
  5
2D39
330
1E
100
AcDbEntity
  8
3
100
AcDbLine
 10
0.1210629921259843
 20
0.809055118110237
 30
0.0
 11
0.1279527559055116
 21
0.809055118110237
 31
0.0
  0
LINE
  5
2D3A
330
1E
100
AcDbEntity
  8
3
100
AcDbLine
 10
0.1279527559055116
 20
0.809055118110237
 30
0.0
 11
0.1299212598425194
 21
0.809055118110237
 31
0.0
  0
LINE
  5
2D3B
330
1E
100
AcDbEntity
  8
3
100
AcDbLine
 10
-0.1387795275590551
 20
0.4586614173228352
 30
0.0
 11
-0.1387795275590551
 21
0.5078740157480315
 31
0.0
  0
LINE
  5
2D3C
330
1E
100
AcDbEntity
  8
3
100
AcDbLine
 10
-0.1387795275590551
 20
0.5078740157480315
 30
0.0
 11
-0.1387795275590551
 21
0.5551181102362213
 31
0.0
  0
LINE
  5
2D3D
330
1E
100
AcDbEntity
  8
3
100
AcDbLine
 10
-0.1387795275590551
 20
0.5551181102362213
 30
0.0
 11
-0.1387795275590551
 21
0.5984251968503945
 31
0.0
  0
LINE
  5
2D3E
330
1E
100
AcDbEntity
  8
3
100
AcDbLine
 10
-0.1387795275590551
 20
0.5984251968503945
 30
0.0
 11
-0.1387795275590551
 21
0.6377952755905519
 31
0.0
  0
LINE
  5
2D3F
330
1E
100
AcDbEntity
  8
3
100
AcDbLine
 10
-0.1387795275590551
 20
0.6377952755905519
 30
0.0
 11
-0.1387795275590551
 21
0.6702755905511815
 31
0.0
  0
LINE
  5
2D40
330
1E
100
AcDbEntity
  8
3
100
AcDbLine
 10
-0.1387795275590551
 20
0.6702755905511815
 30
0.0
 11
-0.1387795275590551
 21
0.6948818897637797
 31
0.0
  0
LINE
  5
2D41
330
1E
100
AcDbEntity
  8
3
100
AcDbLine
 10
-0.1387795275590551
 20
0.2234251968503944
 30
0.0
 11
-0.1387795275590551
 21
0.2480314960629926
 31
0.0
  0
LINE
  5
2D42
330
1E
100
AcDbEntity
  8
3
100
AcDbLine
 10
-0.1387795275590551
 20
0.2480314960629926
 30
0.0
 11
-0.1387795275590551
 21
0.2805118110236222
 31
0.0
  0
LINE
  5
2D43
330
1E
100
AcDbEntity
  8
3
100
AcDbLine
 10
-0.1387795275590551
 20
0.2805118110236222
 30
0.0
 11
-0.1387795275590551
 21
0.3198818897637796
 31
0.0
  0
LINE
  5
2D44
330
1E
100
AcDbEntity
  8
3
100
AcDbLine
 10
-0.1387795275590551
 20
0.3198818897637796
 30
0.0
 11
-0.1387795275590551
 21
0.3631889763779528
 31
0.0
  0
LINE
  5
2D45
330
1E
100
AcDbEntity
  8
3
100
AcDbLine
 10
-0.1387795275590551
 20
0.3631889763779528
 30
0.0
 11
-0.1387795275590551
 21
0.4104330708661426
 31
0.0
  0
LINE
  5
2D46
330
1E
100
AcDbEntity
  8
3
100
AcDbLine
 10
-0.1387795275590551
 20
0.4104330708661426
 30
0.0
 11
-0.1387795275590551
 21
0.4586614173228352
 31
0.0
  0
LINE
  5
2D47
330
1E
100
AcDbEntity
  8
3
100
AcDbLine
 10
-0.3986220472440949
 20
0.0885826771653546
 30
0.0
 11
-0.396653543307087
 21
0.0885826771653546
 31
0.0
  0
LINE
  5
2D48
330
1E
100
AcDbEntity
  8
3
100
AcDbLine
 10
-0.396653543307087
 20
0.0885826771653546
 30
0.0
 11
-0.393700787401575
 21
0.0885826771653546
 31
0.0
  0
LINE
  5
2D49
330
1E
100
AcDbEntity
  8
3
100
AcDbLine
 10
0.9704724409448818
 20
2.716535433070866
 30
0.0
 11
0.9301181102362203
 21
2.716535433070866
 31
0.0
  0
LINE
  5
2D4A
330
1E
100
AcDbEntity
  8
3
100
AcDbLine
 10
0.9301181102362203
 20
2.716535433070866
 30
0.0
 11
0.9301181102362203
 21
2.496062992125984
 31
0.0
  0
LINE
  5
2D4B
330
1E
100
AcDbEntity
  8
3
100
AcDbLine
 10
0.9301181102362203
 20
2.496062992125984
 30
0.0
 11
0.9704724409448818
 21
2.496062992125984
 31
0.0
  0
LINE
  5
2D4C
330
1E
100
AcDbEntity
  8
3
100
AcDbLine
 10
-1.703740157480314
 20
0.7352362204724417
 30
0.0
 11
-1.704724409448818
 21
0.7332677165354334
 31
0.0
  0
LINE
  5
2D4D
330
1E
100
AcDbEntity
  8
3
100
AcDbLine
 10
-1.704724409448818
 20
0.7332677165354334
 30
0.0
 11
-1.644685039370078
 21
0.7332677165354334
 31
0.0
  0
LINE
  5
2D4E
330
1E
100
AcDbEntity
  8
3
100
AcDbLine
 10
-1.639763779527559
 20
0.7352362204724417
 30
0.0
 11
-1.703740157480314
 21
0.7352362204724417
 31
0.0
  0
LINE
  5
2D4F
330
1E
100
AcDbEntity
  8
3
100
AcDbLine
 10
-1.703740157480314
 20
0.7352362204724417
 30
0.0
 11
-1.703740157480314
 21
0.8041338582677166
 31
0.0
  0
LINE
  5
2D50
330
1E
100
AcDbEntity
  8
3
100
AcDbLine
 10
-2.181102362204724
 20
0.7332677165354334
 30
0.0
 11
-2.182086614173228
 21
0.7352362204724417
 31
0.0
  0
LINE
  5
2D51
330
1E
100
AcDbEntity
  8
3
100
AcDbLine
 10
-2.182086614173228
 20
0.7352362204724417
 30
0.0
 11
-2.182086614173228
 21
0.8041338582677166
 31
0.0
  0
LINE
  5
2D52
330
1E
100
AcDbEntity
  8
3
100
AcDbLine
 10
-0.3001968503937009
 20
0.0885826771653546
 30
0.0
 11
-0.3001968503937009
 21
0.1870078740157481
 31
0.0
  0
LINE
  5
2D53
330
1E
100
AcDbEntity
  8
3
100
AcDbLine
 10
-0.3001968503937009
 20
0.1870078740157481
 30
0.0
 11
0.963582677165354
 21
0.1643700787401583
 31
0.0
  0
ENDSEC
  0
SECTION
  2
OBJECTS
  0
DICTIONARY
  5
C
330
0
100
AcDbDictionary
  3
ACAD_GROUP
350
D
  3
ACAD_LAYOUT
350
19
  3
ACAD_MLINESTYLE
350
16
  3
ACAD_PLOTSETTINGS
350
18
1001
ACAD
1000
TREAT_AS_HARD
1070
     0
  0
DICTIONARY
  5
3E25
330
1E
100
AcDbDictionary
  3
ACAD_LAYOUTSELFREF
350
3EA3
1001
ACAD
1000
TREAT_AS_HARD
1070
     1
  0
DICTIONARY
  5
3E27
330
1A
100
AcDbDictionary
  3
ACAD_LAYOUTSELFREF
350
3EA2
1001
ACAD
1000
TREAT_AS_HARD
1070
     1
  0
DICTIONARY
  5
D
102
{ACAD_REACTORS
330
C
102
}
330
C
100
AcDbDictionary
1001
ACAD
1000
TREAT_AS_HARD
1070
     0
  0
DICTIONARY
  5
19
102
{ACAD_REACTORS
330
C
102
}
330
C
100
AcDbDictionary
1001
ACAD
1000
TREAT_AS_HARD
1070
     0
  0
DICTIONARY
  5
16
102
{ACAD_REACTORS
330
C
102
}
330
C
100
AcDbDictionary
  3
STANDARD
350
17
1001
ACAD
1000
TREAT_AS_HARD
1070
     0
  0
DICTIONARY
  5
18
102
{ACAD_REACTORS
330
C
102
}
330
C
100
AcDbDictionary
1001
ACAD
1000
TREAT_AS_HARD
1070
     0
  0
XRECORD
  5
3EA3
102
{ACAD_REACTORS
330
3E25
102
}
330
3E25
100
AcDbXrecord
340
1E
  0
XRECORD
  5
3EA2
102
{ACAD_REACTORS
330
3E27
102
}
330
3E27
100
AcDbXrecord
340
1A
  0
MLINESTYLE
  5
17
102
{ACAD_REACTORS
330
16
102
}
330
16
100
AcDbMlineStyle
  2
STANDARD
 70
     0
  3

 62
   256
 51
90.0
 52
90.0
 71
     2
 49
0.5
 62
   256
  6
BYLAYER
 49
-0.5
 62
   256
  6
BYLAYER
  0
ENDSEC
  0
EOF
