  0
SECTION
  2
HEADER
  9
$ACADVER
  1
AC1014
  9
$ACADMAINTVER
 70
     9
  9
$DWGCODEPAGE
  3
ANSI_1252
  9
$INSBASE
 10
0.0
 20
0.0
 30
0.0
  9
$EXTMIN
 10
4.888186
 20
2.351205
 30
0.0
  9
$EXTMAX
 10
41.77185399999999
 20
32.314519
 30
0.0
  9
$LIMMIN
 10
-0.5
 20
-0.5
  9
$LIMMAX
 10
5.0
 20
5.0
  9
$ORTHOMODE
 70
     0
  9
$REGENMODE
 70
     1
  9
$FILLMODE
 70
     1
  9
$QTEXTMODE
 70
     0
  9
$MIRRTEXT
 70
     1
  9
$DRAGMODE
 70
     2
  9
$LTSCALE
 40
1.0
  9
$OSMODE
 70
    37
  9
$ATTMODE
 70
     1
  9
$TEXTSIZE
 40
0.0
  9
$TRACEWID
 40
0.05
  9
$TEXTSTYLE
  7
STANDARD
  9
$CLAYER
  8
0
  9
$CELTYPE
  6
CONTINUOUS
  9
$CECOLOR
 62
   256
  9
$CELTSCALE
 40
1.0
  9
$DELOBJ
 70
     1
  9
$DISPSILH
 70
     0
  9
$DIMSCALE
 40
1.0
  9
$DIMASZ
 40
0.18
  9
$DIMEXO
 40
0.0625
  9
$DIMDLI
 40
0.38
  9
$DIMRND
 40
0.0
  9
$DIMDLE
 40
0.0
  9
$DIMEXE
 40
0.18
  9
$DIMTP
 40
0.0
  9
$DIMTM
 40
0.0
  9
$DIMTXT
 40
0.18
  9
$DIMCEN
 40
0.09
  9
$DIMTSZ
 40
0.0
  9
$DIMTOL
 70
     0
  9
$DIMLIM
 70
     0
  9
$DIMTIH
 70
     1
  9
$DIMTOH
 70
     1
  9
$DIMSE1
 70
     0
  9
$DIMSE2
 70
     0
  9
$DIMTAD
 70
     0
  9
$DIMZIN
 70
     0
  9
$DIMBLK
  1

  9
$DIMASO
 70
     1
  9
$DIMSHO
 70
     1
  9
$DIMPOST
  1

  9
$DIMAPOST
  1

  9
$DIMALT
 70
     0
  9
$DIMALTD
 70
     2
  9
$DIMALTF
 40
25.4
  9
$DIMLFAC
 40
1.0
  9
$DIMTOFL
 70
     0
  9
$DIMTVP
 40
0.0
  9
$DIMTIX
 70
     0
  9
$DIMSOXD
 70
     0
  9
$DIMSAH
 70
     0
  9
$DIMBLK1
  1

  9
$DIMBLK2
  1

  9
$DIMSTYLE
  2
STANDARD
  9
$DIMCLRD
 70
     0
  9
$DIMCLRE
 70
     0
  9
$DIMCLRT
 70
     0
  9
$DIMTFAC
 40
1.0
  9
$DIMGAP
 40
0.09
  9
$DIMJUST
 70
     0
  9
$DIMSD1
 70
     0
  9
$DIMSD2
 70
     0
  9
$DIMTOLJ
 70
     1
  9
$DIMTZIN
 70
     0
  9
$DIMALTZ
 70
     0
  9
$DIMALTTZ
 70
     0
  9
$DIMFIT
 70
     3
  9
$DIMUPT
 70
     0
  9
$DIMUNIT
 70
     2
  9
$DIMDEC
 70
     4
  9
$DIMTDEC
 70
     4
  9
$DIMALTU
 70
     2
  9
$DIMALTTD
 70
     2
  9
$DIMTXSTY
  7
STANDARD
  9
$DIMAUNIT
 70
     0
  9
$LUNITS
 70
     2
  9
$LUPREC
 70
     4
  9
$SKETCHINC
 40
0.1
  9
$FILLETRAD
 40
0.0
  9
$AUNITS
 70
     0
  9
$AUPREC
 70
     0
  9
$MENU
  1
acad
  9
$ELEVATION
 40
0.0
  9
$PELEVATION
 40
0.0
  9
$THICKNESS
 40
0.0
  9
$LIMCHECK
 70
     0
  9
$BLIPMODE
 70
     0
  9
$CHAMFERA
 40
0.0
  9
$CHAMFERB
 40
0.0
  9
$CHAMFERC
 40
0.0
  9
$CHAMFERD
 40
0.0
  9
$SKPOLY
 70
     0
  9
$TDCREATE
 40
2452866.685673102
  9
$TDUPDATE
 40
2452866.686761609
  9
$TDINDWG
 40
0.0011022454
  9
$TDUSRTIMER
 40
0.0011022454
  9
$USRTIMER
 70
     1
  9
$ANGBASE
 50
0.0
  9
$ANGDIR
 70
     0
  9
$PDMODE
 70
     0
  9
$PDSIZE
 40
0.0
  9
$PLINEWID
 40
0.0
  9
$COORDS
 70
     1
  9
$SPLFRAME
 70
     0
  9
$SPLINETYPE
 70
     6
  9
$SPLINESEGS
 70
     8
  9
$ATTDIA
 70
     0
  9
$ATTREQ
 70
     1
  9
$HANDLING
 70
-16383
  9
$HANDSEED
  5
7E5
  9
$SURFTAB1
 70
     6
  9
$SURFTAB2
 70
     6
  9
$SURFTYPE
 70
     6
  9
$SURFU
 70
     6
  9
$SURFV
 70
     6
  9
$UCSNAME
  2

  9
$UCSORG
 10
0.0
 20
0.0
 30
0.0
  9
$UCSXDIR
 10
1.0
 20
0.0
 30
0.0
  9
$UCSYDIR
 10
0.0
 20
1.0
 30
0.0
  9
$PUCSNAME
  2

  9
$PUCSORG
 10
0.0
 20
0.0
 30
0.0
  9
$PUCSXDIR
 10
1.0
 20
0.0
 30
0.0
  9
$PUCSYDIR
 10
0.0
 20
1.0
 30
0.0
  9
$USERI1
 70
     0
  9
$USERI2
 70
     0
  9
$USERI3
 70
     0
  9
$USERI4
 70
     0
  9
$USERI5
 70
     0
  9
$USERR1
 40
0.0
  9
$USERR2
 40
0.0
  9
$USERR3
 40
0.0
  9
$USERR4
 40
0.0
  9
$USERR5
 40
0.0
  9
$WORLDVIEW
 70
     1
  9
$SHADEDGE
 70
     3
  9
$SHADEDIF
 70
    70
  9
$TILEMODE
 70
     1
  9
$MAXACTVP
 70
    16
  9
$PINSBASE
 10
0.0
 20
0.0
 30
0.0
  9
$PLIMCHECK
 70
     0
  9
$PEXTMIN
 10
1.000000000000000E+20
 20
1.000000000000000E+20
 30
1.000000000000000E+20
  9
$PEXTMAX
 10
-1.000000000000000E+20
 20
-1.000000000000000E+20
 30
-1.000000000000000E+20
  9
$PLIMMIN
 10
-0.1666668268639272
 20
-0.166666657905879
  9
$PLIMMAX
 10
10.83333293284018
 20
8.333333101798229
  9
$UNITMODE
 70
     0
  9
$VISRETAIN
 70
     0
  9
$PLINEGEN
 70
     1
  9
$PSLTSCALE
 70
     0
  9
$TREEDEPTH
 70
  3020
  9
$PICKSTYLE
 70
     1
  9
$CMLSTYLE
  2
STANDARD
  9
$CMLJUST
 70
     0
  9
$CMLSCALE
 40
1.0
  9
$PROXYGRAPHICS
 70
     0
  9
$MEASUREMENT
 70
     0
  0
ENDSEC
  0
SECTION
  2
CLASSES
  0
CLASS
  1
LWPOLYLINE
  2
AcDbPolyline
  3
AutoCAD 2000
 90
        0
280
     0
281
     1
  0
CLASS
  1
IMAGE
  2
AcDbRasterImage
  3
ISM
 90
      127
280
     0
281
     1
  0
CLASS
  1
OLE2FRAME
  2
AcDbOle2Frame
  3
AutoCAD 2000
 90
        0
280
     0
281
     1
  0
CLASS
  1
HATCH
  2
AcDbHatch
  3
AutoCAD 2000
 90
        0
280
     0
281
     1
  0
CLASS
  1
DICTIONARYVAR
  2
AcDbDictionaryVar
  3
AutoCAD 2000
 90
        0
280
     0
281
     0
  0
CLASS
  1
RASTERVARIABLES
  2
AcDbRasterVariables
  3
ISM
 90
        0
280
     0
281
     0
  0
CLASS
  1
IMAGEDEF
  2
AcDbRasterImageDef
  3
ISM
 90
        0
280
     0
281
     0
  0
CLASS
  1
IMAGEDEF_REACTOR
  2
AcDbRasterImageDefReactor
  3
ISM
 90
        1
280
     0
281
     0
  0
CLASS
  1
IDBUFFER
  2
AcDbIdBuffer
  3
AutoCAD 2000
 90
        0
280
     0
281
     0
  0
CLASS
  1
SPATIAL_FILTER
  2
AcDbSpatialFilter
  3
AutoCAD 2000
 90
        0
280
     0
281
     0
  0
CLASS
  1
XRECORD
  2
AcDbXrecord
  3
AutoCAD 2000
 90
        0
280
     0
281
     0
  0
CLASS
  1
SORTENTSTABLE
  2
AcDbSortentsTable
  3
AutoCAD 2000
 90
        0
280
     0
281
     0
  0
CLASS
  1
LAYER_INDEX
  2
AcDbLayerIndex
  3
AutoCAD 2000
 90
        0
280
     0
281
     0
  0
CLASS
  1
SPATIAL_INDEX
  2
AcDbSpatialIndex
  3
AutoCAD 2000
 90
        0
280
     0
281
     0
  0
CLASS
  1
OBJECT_PTR
  2
CAseDLPNTableRecord
  3
ASE-LPNTableRecord
 90
        1
280
     0
281
     0
  0
CLASS
  1
LAYOUT
  2
AcDbLayout
  3
AutoCAD 2000
 90
        0
280
     0
281
     0
  0
CLASS
  1
PLOTSETTINGS
  2
AcDbPlotSettings
  3
AutoCAD 2000
 90
        0
280
     0
281
     0
  0
CLASS
  1
ACDBDICTIONARYWDFLT
  2
AcDbDictionaryWithDefault
  3
AutoCAD 2000
 90
        0
280
     0
281
     0
  0
CLASS
  1
ACDBPLACEHOLDER
  2
AcDbPlaceHolder
  3
AutoCAD 2000
 90
        0
280
     0
281
     0
  0
CLASS
  1
VBA_PROJECT
  2
AcDbVbaProject
  3
acadvba
 90
        0
280
     0
281
     0
  0
CLASS
  1
RTEXT
  2
RText
  3
RText|AutoCAD Express Tool|expresstools@autodesk.com
 90
        0
280
     0
281
     1
  0
CLASS
  1
ARCALIGNEDTEXT
  2
AcDbArcAlignedText
  3
ATEXT|AutoCAD Express Tool|expresstools@autodesk.com
 90
        0
280
     0
281
     1
  0
CLASS
  1
LONG_TRANSACTION
  2
AcDbLongTransaction
  3
AutoCAD 2000
 90
        0
280
     0
281
     0
  0
CLASS
  1
LWPOLYLINE
  2
AcDbPolyline
  3
AutoCAD 2000
 90
        0
280
     0
281
     1
  0
CLASS
  1
HATCH
  2
AcDbHatch
  3
AutoCAD 2000
 90
        0
280
     0
281
     1
  0
CLASS
  1
XRECORD
  2
AcDbXrecord
  3
AutoCAD 2000
 90
        0
280
     0
281
     0
  0
ENDSEC
  0
SECTION
  2
TABLES
  0
TABLE
  2
VPORT
  5
7
330
0
100
AcDbSymbolTable
 70
    18
  0
VPORT
  5
742
330
7
100
AcDbSymbolTableRecord
100
AcDbViewportTableRecord
  2
L1
 70
     0
 10
0.0
 20
0.0
 11
1.0
 21
1.0
 12
0.0
 22
0.0
 13
0.0
 23
0.0
 14
1.0
 24
1.0
 15
0.0
 25
0.0
 16
0.0
 26
0.0
 36
1.0
 17
0.0
 27
0.0
 37
0.0
 40
6.256152
 41
0.6885640000000001
 42
50.0
 43
22.647307
 44
-22.647307
 50
0.0
 51
0.0
 71
    16
 72
   100
 73
     1
 74
     1
 75
     0
 76
     0
 77
     0
 78
     0
  0
VPORT
  5
743
330
7
100
AcDbSymbolTableRecord
100
AcDbViewportTableRecord
  2
L2
 70
     0
 10
0.0
 20
0.0
 11
0.5
 21
1.0
 12
0.0
 22
0.0
 13
0.0
 23
0.0
 14
1.0
 24
1.0
 15
0.0
 25
0.0
 16
0.0
 26
-1.0
 36
0.0
 17
0.0
 27
0.0
 37
0.0
 40
45.294614
 41
0.688564
 42
50.0
 43
23.45889499999999
 44
-23.45889499999999
 50
0.0
 51
0.0
 71
    16
 72
   100
 73
     1
 74
     1
 75
     0
 76
     0
 77
     0
 78
     0
  0
VPORT
  5
744
330
7
100
AcDbSymbolTableRecord
100
AcDbViewportTableRecord
  2
L2
 70
     0
 10
0.5
 20
0.0
 11
1.0
 21
1.0
 12
0.0
 22
0.0
 13
0.0
 23
0.0
 14
1.0
 24
1.0
 15
0.0
 25
0.0
 16
1.0
 26
0.0
 36
0.0
 17
0.0
 27
0.0
 37
0.0
 40
45.294614
 41
0.688564
 42
50.0
 43
22.862313
 44
-22.862313
 50
0.0
 51
0.0
 71
    16
 72
   100
 73
     1
 74
     1
 75
     0
 76
     0
 77
     0
 78
     0
  0
VPORT
  5
745
330
7
100
AcDbSymbolTableRecord
100
AcDbViewportTableRecord
  2
L3
 70
     0
 10
0.0
 20
0.5
 11
1.0
 21
1.0
 12
0.0
 22
0.0
 13
0.0
 23
0.0
 14
1.0
 24
1.0
 15
0.0
 25
0.0
 16
0.0
 26
0.0
 36
1.0
 17
0.0
 27
0.0
 37
0.0
 40
6.256152
 41
0.6885640000000001
 42
50.0
 43
22.647307
 44
-22.647307
 50
0.0
 51
0.0
 71
    16
 72
   100
 73
     1
 74
     1
 75
     0
 76
     0
 77
     0
 78
     0
  0
VPORT
  5
746
330
7
100
AcDbSymbolTableRecord
100
AcDbViewportTableRecord
  2
L3
 70
     0
 10
0.0
 20
0.0
 11
1.0
 21
0.5
 12
0.0
 22
0.0
 13
0.0
 23
0.0
 14
1.0
 24
1.0
 15
0.0
 25
0.0
 16
0.0
 26
-1.0
 36
0.0
 17
0.0
 27
0.0
 37
0.0
 40
45.294614
 41
0.688564
 42
50.0
 43
23.45889499999999
 44
-23.45889499999999
 50
0.0
 51
0.0
 71
    16
 72
   100
 73
     1
 74
     1
 75
     0
 76
     0
 77
     0
 78
     0
  0
VPORT
  5
747
330
7
100
AcDbSymbolTableRecord
100
AcDbViewportTableRecord
  2
L4
 70
     0
 10
0.0
 20
0.5
 11
0.5
 21
1.0
 12
0.0
 22
0.0
 13
0.0
 23
0.0
 14
1.0
 24
1.0
 15
0.0
 25
0.0
 16
0.0
 26
0.0
 36
1.0
 17
0.0
 27
0.0
 37
0.0
 40
6.256152
 41
0.6885640000000001
 42
50.0
 43
22.647307
 44
-22.647307
 50
0.0
 51
0.0
 71
    16
 72
   100
 73
     1
 74
     1
 75
     0
 76
     0
 77
     0
 78
     0
  0
VPORT
  5
748
330
7
100
AcDbSymbolTableRecord
100
AcDbViewportTableRecord
  2
L4
 70
     0
 10
0.0
 20
0.0
 11
0.5
 21
0.5
 12
0.0
 22
0.0
 13
0.0
 23
0.0
 14
1.0
 24
1.0
 15
0.0
 25
0.0
 16
0.0
 26
-1.0
 36
0.0
 17
0.0
 27
0.0
 37
0.0
 40
45.294614
 41
0.688564
 42
50.0
 43
23.45889499999999
 44
-23.45889499999999
 50
0.0
 51
0.0
 71
    16
 72
   100
 73
     1
 74
     1
 75
     0
 76
     0
 77
     0
 78
     0
  0
VPORT
  5
749
330
7
100
AcDbSymbolTableRecord
100
AcDbViewportTableRecord
  2
L4
 70
     0
 10
0.5
 20
0.0
 11
1.0
 21
0.5
 12
0.0
 22
0.0
 13
0.0
 23
0.0
 14
1.0
 24
1.0
 15
0.0
 25
0.0
 16
1.0
 26
0.0
 36
0.0
 17
0.0
 27
0.0
 37
0.0
 40
45.294614
 41
0.688564
 42
50.0
 43
22.862313
 44
-22.862313
 50
0.0
 51
0.0
 71
    16
 72
   100
 73
     1
 74
     1
 75
     0
 76
     0
 77
     0
 78
     0
  0
VPORT
  5
74A
330
7
100
AcDbSymbolTableRecord
100
AcDbViewportTableRecord
  2
L4
 70
     0
 10
0.5
 20
0.5
 11
1.0
 21
1.0
 12
0.0
 22
0.0
 13
0.0
 23
0.0
 14
1.0
 24
1.0
 15
0.0
 25
0.0
 16
0.5773500000000001
 26
-0.5773500000000001
 36
0.5773500000000001
 17
0.0
 27
0.0
 37
0.0
 40
44.53157299999999
 41
0.688564
 42
50.0
 43
23.205649
 44
-23.205649
 50
0.0
 51
0.0
 71
    16
 72
   100
 73
     1
 74
     1
 75
     0
 76
     0
 77
     0
 78
     0
  0
VPORT
  5
74B
330
7
100
AcDbSymbolTableRecord
100
AcDbViewportTableRecord
  2
L6
 70
     0
 10
0.0
 20
0.5
 11
0.333333
 21
1.0
 12
0.0
 22
0.0
 13
0.0
 23
0.0
 14
1.0
 24
1.0
 15
0.0
 25
0.0
 16
0.718873
 26
-0.5850490000000001
 36
0.375419
 17
0.0
 27
0.0
 37
0.0
 40
47.02640699999999
 41
0.6885639999999999
 42
50.0
 43
24.33931199999999
 44
-24.33931199999999
 50
0.0
 51
0.0
 71
    16
 72
   100
 73
     1
 74
     1
 75
     0
 76
     0
 77
     0
 78
     0
  0
VPORT
  5
74C
330
7
100
AcDbSymbolTableRecord
100
AcDbViewportTableRecord
  2
L6
 70
     0
 10
0.0
 20
0.0
 11
0.333333
 21
0.5
 12
0.0
 22
0.0
 13
0.0
 23
0.0
 14
1.0
 24
1.0
 15
0.0
 25
0.0
 16
-1.0
 26
0.0
 36
0.0
 17
0.0
 27
0.0
 37
0.0
 40
45.294614
 41
0.688564
 42
50.0
 43
22.862313
 44
-22.862313
 50
0.0
 51
0.0
 71
    16
 72
   100
 73
     1
 74
     1
 75
     0
 76
     0
 77
     0
 78
     0
  0
VPORT
  5
74D
330
7
100
AcDbSymbolTableRecord
100
AcDbViewportTableRecord
  2
L6
 70
     0
 10
0.333333
 20
0.5
 11
0.666667
 21
1.0
 12
0.0
 22
0.0
 13
0.0
 23
0.0
 14
1.0
 24
1.0
 15
0.0
 25
0.0
 16
0.0
 26
0.0
 36
1.0
 17
0.0
 27
0.0
 37
0.0
 40
6.256152
 41
0.6885640000000001
 42
50.0
 43
22.647307
 44
-22.647307
 50
0.0
 51
0.0
 71
    16
 72
   100
 73
     1
 74
     1
 75
     0
 76
     0
 77
     0
 78
     0
  0
VPORT
  5
74E
330
7
100
AcDbSymbolTableRecord
100
AcDbViewportTableRecord
  2
L6
 70
     0
 10
0.333333
 20
0.0
 11
0.666667
 21
0.5
 12
0.0
 22
0.0
 13
0.0
 23
0.0
 14
1.0
 24
1.0
 15
0.0
 25
0.0
 16
0.0
 26
-1.0
 36
0.0
 17
0.0
 27
0.0
 37
0.0
 40
45.294614
 41
0.688564
 42
50.0
 43
23.45889499999999
 44
-23.45889499999999
 50
0.0
 51
0.0
 71
    16
 72
   100
 73
     1
 74
     1
 75
     0
 76
     0
 77
     0
 78
     0
  0
VPORT
  5
74F
330
7
100
AcDbSymbolTableRecord
100
AcDbViewportTableRecord
  2
L6
 70
     0
 10
0.666667
 20
0.5
 11
1.0
 21
1.0
 12
0.0
 22
0.0
 13
0.0
 23
0.0
 14
1.0
 24
1.0
 15
0.0
 25
0.0
 16
0.5773500000000001
 26
-0.5773500000000001
 36
0.5773500000000001
 17
0.0
 27
0.0
 37
0.0
 40
44.53157299999999
 41
0.688564
 42
50.0
 43
23.205649
 44
-23.205649
 50
0.0
 51
0.0
 71
    16
 72
   100
 73
     1
 74
     1
 75
     0
 76
     0
 77
     0
 78
     0
  0
VPORT
  5
750
330
7
100
AcDbSymbolTableRecord
100
AcDbViewportTableRecord
  2
L6
 70
     0
 10
0.666667
 20
0.0
 11
1.0
 21
0.5
 12
0.0
 22
0.0
 13
0.0
 23
0.0
 14
1.0
 24
1.0
 15
0.0
 25
0.0
 16
1.0
 26
0.0
 36
0.0
 17
0.0
 27
0.0
 37
0.0
 40
45.294614
 41
0.688564
 42
50.0
 43
22.862313
 44
-22.862313
 50
0.0
 51
0.0
 71
    16
 72
   100
 73
     1
 74
     1
 75
     0
 76
     0
 77
     0
 78
     0
  0
VPORT
  5
7BF
330
7
100
AcDbSymbolTableRecord
100
AcDbViewportTableRecord
  2
*ACTIVE
 70
     0
 10
0.0
 20
0.0
 11
1.0
 21
1.0
 12
23.33002
 22
17.33286199999999
 13
0.0
 23
0.0
 14
1.0
 24
1.0
 15
0.0
 25
0.0
 16
0.0
 26
0.0
 36
1.0
 17
0.0
 27
0.0
 37
0.0
 40
30.1866430484472
 41
1.457711442786069
 42
50.0
 43
22.647307
 44
-22.647307
 50
0.0
 51
0.0
 71
    16
 72
   100
 73
     1
 74
     1
 75
     0
 76
     0
 77
     0
 78
     0
  0
ENDTAB
  0
TABLE
  2
LTYPE
  5
4
330
0
100
AcDbSymbolTable
 70
     7
  0
LTYPE
  5
11
330
4
100
AcDbSymbolTableRecord
100
AcDbLinetypeTableRecord
  2
BYBLOCK
 70
     0
  3

 72
    65
 73
     0
 40
0.0
  0
LTYPE
  5
12
330
4
100
AcDbSymbolTableRecord
100
AcDbLinetypeTableRecord
  2
BYLAYER
 70
     0
  3

 72
    65
 73
     0
 40
0.0
  0
LTYPE
  5
13
330
4
100
AcDbSymbolTableRecord
100
AcDbLinetypeTableRecord
  2
CONTINUOUS
 70
     0
  3
Solid line
 72
    65
 73
     0
 40
0.0
  0
LTYPE
  5
22
330
4
100
AcDbSymbolTableRecord
100
AcDbLinetypeTableRecord
  2
DASHED
 70
     0
  3
__ __ __ __ __ __ __ __ __
 72
    65
 73
     2
 40
0.75
 49
0.5
 74
     0
 49
-0.25
 74
     0
  0
LTYPE
  5
23
330
4
100
AcDbSymbolTableRecord
100
AcDbLinetypeTableRecord
  2
HIDDEN
 70
     0
  3
_ _ _ _ _ _ _ _ _ _ _ _ _ _ _
 72
    65
 73
     2
 40
0.5
 49
0.25
 74
     0
 49
-0.25
 74
     0
  0
LTYPE
  5
24
330
4
100
AcDbSymbolTableRecord
100
AcDbLinetypeTableRecord
  2
PHANTOM
 70
     0
  3
____ _ _ ____ _ _ _____ _ _ ____
 72
    65
 73
     6
 40
2.5
 49
1.25
 74
     0
 49
-0.25
 74
     0
 49
0.25
 74
     0
 49
-0.25
 74
     0
 49
0.25
 74
     0
 49
-0.25
 74
     0
  0
LTYPE
  5
25
330
4
100
AcDbSymbolTableRecord
100
AcDbLinetypeTableRecord
  2
CENTER
 70
     0
  3
____ _ ____ _ ____ _ ____
 72
    65
 73
     4
 40
2.0
 49
1.25
 74
     0
 49
-0.25
 74
     0
 49
0.25
 74
     0
 49
-0.25
 74
     0
  0
LTYPE
  5
26
330
4
100
AcDbSymbolTableRecord
100
AcDbLinetypeTableRecord
  2
DOT
 70
     0
  3
.........................
 72
    65
 73
     2
 40
0.25
 49
0.0
 74
     0
 49
-0.25
 74
     0
  0
LTYPE
  5
27
330
4
100
AcDbSymbolTableRecord
100
AcDbLinetypeTableRecord
  2
DASHDOT
 70
     0
  3
_._._._._._._._._._._._._._._._.
 72
    65
 73
     4
 40
1.0
 49
0.5
 74
     0
 49
-0.25
 74
     0
 49
0.0
 74
     0
 49
-0.25
 74
     0
  0
ENDTAB
  0
TABLE
  2
LAYER
  5
2
330
0
100
AcDbSymbolTable
 70
     3
  0
LAYER
  5
14
330
2
100
AcDbSymbolTableRecord
100
AcDbLayerTableRecord
  2
0
 70
     0
 62
     7
  6
CONTINUOUS
  0
LAYER
  5
29
330
2
100
AcDbSymbolTableRecord
100
AcDbLayerTableRecord
  2
1
 70
     0
 62
     7
  6
CONTINUOUS
  0
LAYER
  5
2A
330
2
100
AcDbSymbolTableRecord
100
AcDbLayerTableRecord
  2
TOP
 70
     0
 62
     7
  6
CONTINUOUS
  0
ENDTAB
  0
TABLE
  2
STYLE
  5
3
330
0
100
AcDbSymbolTable
 70
     1
  0
STYLE
  5
17
330
3
100
AcDbSymbolTableRecord
100
AcDbTextStyleTableRecord
  2
STANDARD
 70
     0
 40
0.0
 41
1.0
 50
0.0
 71
     0
 42
0.0
  3
txt
  4

  0
ENDTAB
  0
TABLE
  2
VIEW
  5
5
330
0
100
AcDbSymbolTable
 70
     8
  0
VIEW
  5
739
330
5
100
AcDbSymbolTableRecord
100
AcDbViewTableRecord
  2
TOP
 70
     0
 40
6.256152
 10
0.0
 20
0.0
 41
12.234252
 11
0.0
 21
0.0
 31
1.0
 12
0.0
 22
0.0
 32
0.0
 42
50.0
 43
22.647307
 44
-22.647307
 50
0.0
 71
    16
  0
VIEW
  5
73A
330
5
100
AcDbSymbolTableRecord
100
AcDbViewTableRecord
  2
FRONT
 70
     0
 40
45.294614
 10
0.0
 20
0.0
 41
12.234252
 11
0.0
 21
-1.0
 31
0.0
 12
0.0
 22
0.0
 32
0.0
 42
50.0
 43
23.45889499999999
 44
-23.45889499999999
 50
0.0
 71
    16
  0
VIEW
  5
73B
330
5
100
AcDbSymbolTableRecord
100
AcDbViewTableRecord
  2
RIGHT
 70
     0
 40
45.294614
 10
0.0
 20
0.0
 41
6.256152
 11
1.0
 21
0.0
 31
0.0
 12
0.0
 22
0.0
 32
0.0
 42
50.0
 43
22.862313
 44
-22.862313
 50
0.0
 71
    16
  0
VIEW
  5
73C
330
5
100
AcDbSymbolTableRecord
100
AcDbViewTableRecord
  2
BACK
 70
     0
 40
45.294614
 10
0.0
 20
0.0
 41
12.234252
 11
0.0
 21
1.0
 31
0.0
 12
0.0
 22
0.0
 32
0.0
 42
50.0
 43
23.45889499999999
 44
-23.45889499999999
 50
0.0
 71
    16
  0
VIEW
  5
73D
330
5
100
AcDbSymbolTableRecord
100
AcDbViewTableRecord
  2
BOTTOM
 70
     0
 40
6.256152
 10
0.0
 20
0.0
 41
12.234252
 11
0.0
 21
0.0
 31
-1.0
 12
0.0
 22
0.0
 32
0.0
 42
50.0
 43
22.647307
 44
-22.647307
 50
180.0
 71
    16
  0
VIEW
  5
73E
330
5
100
AcDbSymbolTableRecord
100
AcDbViewTableRecord
  2
LEFT
 70
     0
 40
45.294614
 10
0.0
 20
0.0
 41
6.256152
 11
-1.0
 21
0.0
 31
0.0
 12
0.0
 22
0.0
 32
0.0
 42
50.0
 43
22.862313
 44
-22.862313
 50
0.0
 71
    16
  0
VIEW
  5
73F
330
5
100
AcDbSymbolTableRecord
100
AcDbViewTableRecord
  2
TFR-ISO
 70
     0
 40
44.53157299999999
 10
0.0
 20
0.0
 41
13.07469
 11
0.5773500000000001
 21
-0.5773500000000001
 31
0.5773500000000001
 12
0.0
 22
0.0
 32
0.0
 42
50.0
 43
23.205649
 44
-23.205649
 50
0.0
 71
    16
  0
VIEW
  5
740
330
5
100
AcDbSymbolTableRecord
100
AcDbViewTableRecord
  2
TFR-TRI
 70
     0
 40
47.02640699999999
 10
0.0
 20
0.0
 41
12.57479299999999
 11
0.718873
 21
-0.5850490000000001
 31
0.375419
 12
0.0
 22
0.0
 32
0.0
 42
50.0
 43
24.33931199999999
 44
-24.33931199999999
 50
0.0
 71
    16
  0
ENDTAB
  0
TABLE
  2
UCS
  5
6
330
0
100
AcDbSymbolTable
 70
     0
  0
ENDTAB
  0
TABLE
  2
APPID
  5
8
330
0
100
AcDbSymbolTable
 70
     1
  0
APPID
  5
16
330
8
100
AcDbSymbolTableRecord
100
AcDbRegAppTableRecord
  2
ACAD
 70
     0
  0
ENDTAB
  0
TABLE
  2
DIMSTYLE
  5
9
330
0
100
AcDbSymbolTable
 70
     1
  0
DIMSTYLE
105
18
330
9
100
AcDbSymbolTableRecord
100
AcDbDimStyleTableRecord
  2
STANDARD
 70
     0
  3

  4

  5

  6

  7

 40
1.0
 41
0.18
 42
0.0625
 43
0.38
 44
0.18
 45
0.0
 46
0.0
 47
0.0
 48
0.0
140
0.18
141
0.09
142
0.0
143
25.4
144
1.0
145
0.0
146
1.0
147
0.09
 71
     0
 72
     0
 73
     1
 74
     1
 75
     0
 76
     0
 77
     0
 78
     0
170
     0
171
     2
172
     0
173
     0
174
     0
175
     0
176
     0
177
     0
178
     0
270
     2
271
     4
272
     4
273
     2
274
     2
340
17
275
     0
280
     0
281
     0
282
     0
283
     1
284
     0
285
     0
286
     0
287
     3
288
     0
  0
ENDTAB
  0
TABLE
  2
BLOCK_RECORD
  5
1
330
0
100
AcDbSymbolTable
 70
     0
  0
BLOCK_RECORD
  5
A
102
{ACAD_XDICTIONARY
360
7E1
102
}
330
1
100
AcDbSymbolTableRecord
100
AcDbBlockTableRecord
  2
*MODEL_SPACE
  0
BLOCK_RECORD
  5
B
102
{ACAD_XDICTIONARY
360
7E3
102
}
330
1
100
AcDbSymbolTableRecord
100
AcDbBlockTableRecord
  2
*PAPER_SPACE
  0
ENDTAB
  0
ENDSEC
  0
SECTION
  2
BLOCKS
  0
BLOCK
  5
D
330
A
100
AcDbEntity
  8
0
100
AcDbBlockBegin
  2
*MODEL_SPACE
 70
     0
 10
0.0
 20
0.0
 30
0.0
  3
*MODEL_SPACE
  1

  0
ENDBLK
  5
E
330
A
100
AcDbEntity
  8
0
100
AcDbBlockEnd
  0
BLOCK
  5
F
330
B
100
AcDbEntity
 67
     1
  8
0
100
AcDbBlockBegin
  2
*PAPER_SPACE
 70
     0
 10
0.0
 20
0.0
 30
0.0
  3
*PAPER_SPACE
  1

  0
ENDBLK
  5
10
330
B
100
AcDbEntity
 67
     1
  8
0
100
AcDbBlockEnd
  0
ENDSEC
  0
SECTION
  2
ENTITIES
  0
LINE
  5
28
330
A
100
AcDbEntity
  8
TOP
  6
CONTINUOUS
 62
     3
100
AcDbLine
 10
5.166185999999999
 20
5.779205
 30
0.0
 11
15.841186
 21
5.779205
 31
0.0
  0
LINE
  5
2B
330
A
100
AcDbEntity
  8
TOP
  6
CONTINUOUS
 62
     3
100
AcDbLine
 10
15.02349099999999
 20
22.55151899999999
 30
0.0
 11
15.01089499999999
 21
22.5625
 31
0.0
  0
LINE
  5
2C
330
A
100
AcDbEntity
  8
TOP
  6
CONTINUOUS
 62
     3
100
AcDbLine
 10
4.983056
 20
31.171518
 30
0.0
 11
4.952183999999999
 21
31.171518
 31
0.0
  0
LINE
  5
2D
330
A
100
AcDbEntity
  8
TOP
  6
CONTINUOUS
 62
     3
100
AcDbLine
 10
15.841186
 20
5.779205
 30
0.0
 11
15.841186
 21
5.642204999999999
 31
0.0
  0
LINE
  5
2E
330
A
100
AcDbEntity
  8
TOP
  6
CONTINUOUS
 62
     3
100
AcDbLine
 10
6.074779999999999
 20
31.59082
 30
0.0
 11
6.147695999999999
 21
31.59082
 31
0.0
  0
LINE
  5
2F
330
A
100
AcDbEntity
  8
TOP
  6
CONTINUOUS
 62
     3
100
AcDbLine
 10
15.01089499999999
 20
22.5625
 30
0.0
 11
14.99368699999999
 21
22.566519
 31
0.0
  0
LINE
  5
30
330
A
100
AcDbEntity
  8
TOP
  6
CONTINUOUS
 62
     3
100
AcDbLine
 10
4.892546
 20
14.251519
 30
0.0
 11
4.888186
 21
14.251519
 31
0.0
  0
LINE
  5
31
330
A
100
AcDbEntity
  8
TOP
  6
CONTINUOUS
 62
     3
100
AcDbLine
 10
6.074779999999999
 20
5.872205
 30
0.0
 11
6.147695999999999
 21
5.872205
 31
0.0
  0
LINE
  5
32
330
A
100
AcDbEntity
  8
TOP
  6
CONTINUOUS
 62
     3
100
AcDbLine
 10
16.752686
 20
21.810661
 30
0.0
 11
16.752686
 21
21.81651899999999
 31
0.0
  0
LINE
  5
33
330
A
100
AcDbEntity
  8
TOP
  6
CONTINUOUS
 62
     3
100
AcDbLine
 10
17.720108
 20
21.84651899999999
 30
0.0
 11
17.734251
 21
21.84651899999999
 31
0.0
  0
LINE
  5
34
330
A
100
AcDbEntity
  8
TOP
  6
CONTINUOUS
 62
     3
100
AcDbLine
 10
17.720108
 20
22.53652
 30
0.0
 11
17.734251
 21
22.53652
 31
0.0
  0
LINE
  5
35
330
A
100
AcDbEntity
  8
TOP
  6
CONTINUOUS
 62
     3
100
AcDbLine
 10
17.682487
 20
22.57237599999999
 30
0.0
 11
17.682487
 21
22.58651899999999
 31
0.0
  0
LINE
  5
36
330
A
100
AcDbEntity
  8
TOP
  6
CONTINUOUS
 62
     3
100
AcDbLine
 10
16.909191
 20
22.55151899999999
 30
0.0
 11
16.909191
 21
22.5625
 31
0.0
  0
LINE
  5
37
330
A
100
AcDbEntity
  8
TOP
  6
CONTINUOUS
 62
     3
100
AcDbLine
 10
16.909191
 20
21.84651899999999
 30
0.0
 11
16.89198499999999
 21
21.84651899999999
 31
0.0
  0
LINE
  5
38
330
A
100
AcDbEntity
  8
TOP
  6
CONTINUOUS
 62
     3
100
AcDbLine
 10
6.383633999999999
 20
31.59082
 30
0.0
 11
6.408373
 21
31.59082
 31
0.0
  0
LINE
  5
39
330
A
100
AcDbEntity
  8
TOP
  6
CONTINUOUS
 62
     3
100
AcDbLine
 10
14.063885
 20
22.566519
 30
0.0
 11
14.047663
 21
22.5625
 31
0.0
  0
LINE
  5
3A
330
A
100
AcDbEntity
  8
TOP
  6
CONTINUOUS
 62
     3
100
AcDbLine
 10
16.909191
 20
21.82053799999999
 30
0.0
 11
16.909191
 21
21.81651899999999
 31
0.0
  0
LINE
  5
3B
330
A
100
AcDbEntity
  8
TOP
  6
CONTINUOUS
 62
     3
100
AcDbLine
 10
20.998186
 20
13.731519
 30
0.0
 11
20.998186
 21
13.75161199999999
 31
0.0
  0
LINE
  5
3C
330
A
100
AcDbEntity
  8
TOP
  6
CONTINUOUS
 62
     3
100
AcDbLine
 10
14.837179
 20
22.566519
 30
0.0
 11
14.85127499999999
 21
22.5625
 31
0.0
  0
LINE
  5
3D
330
A
100
AcDbEntity
  8
TOP
  6
CONTINUOUS
 62
     3
100
AcDbLine
 10
20.998186
 20
13.731519
 30
0.0
 11
20.998186
 21
13.231519
 31
0.0
  0
LINE
  5
3E
330
A
100
AcDbEntity
  8
TOP
  6
CONTINUOUS
 62
     3
100
AcDbLine
 10
20.998186
 20
32.191521
 30
0.0
 11
20.998186
 21
31.691519
 31
0.0
  0
LINE
  5
3F
330
A
100
AcDbEntity
  8
TOP
  6
CONTINUOUS
 62
     3
100
AcDbLine
 10
19.19818499999999
 20
3.399204999999999
 30
0.0
 11
18.657112
 21
3.399204999999999
 31
0.0
  0
LINE
  5
40
330
A
100
AcDbEntity
  8
TOP
  6
CONTINUOUS
 62
     3
100
AcDbLine
 10
16.368185
 20
21.65651899999999
 30
0.0
 11
16.368185
 21
22.726519
 31
0.0
  0
LINE
  5
41
330
A
100
AcDbEntity
  8
TOP
  6
CONTINUOUS
 62
     3
100
AcDbLine
 10
4.888186
 20
30.131493
 30
0.0
 11
4.888186
 21
30.011467
 31
0.0
  0
LINE
  5
42
330
A
100
AcDbEntity
  8
TOP
  6
CONTINUOUS
 62
     3
100
AcDbLine
 10
4.888186
 20
31.691519
 30
0.0
 11
4.888186
 21
31.671515
 31
0.0
  0
LINE
  5
43
330
A
100
AcDbEntity
  8
TOP
  6
CONTINUOUS
 62
     3
100
AcDbLine
 10
4.888186
 20
13.231519
 30
0.0
 11
4.888186
 21
13.21151399999999
 31
0.0
  0
LINE
  5
44
330
A
100
AcDbEntity
  8
TOP
  6
CONTINUOUS
 62
     3
100
AcDbLine
 10
15.90515899999999
 20
12.19151899999999
 30
0.0
 11
15.841153
 21
12.19151899999999
 31
0.0
  0
LINE
  5
45
330
A
100
AcDbEntity
  8
TOP
  6
CONTINUOUS
 62
     3
100
AcDbLine
 10
14.047663
 20
22.5625
 30
0.0
 11
14.03578699999999
 21
22.55151899999999
 31
0.0
  0
LINE
  5
46
330
A
100
AcDbEntity
  8
TOP
  6
CONTINUOUS
 62
     3
100
AcDbLine
 10
20.725964
 20
32.128521
 30
0.0
 11
20.720186
 21
32.128521
 31
0.0
  0
LINE
  5
47
330
A
100
AcDbEntity
  8
TOP
  6
CONTINUOUS
 62
     3
100
AcDbLine
 10
5.160408
 20
12.254519
 30
0.0
 11
5.166185999999999
 21
12.254519
 31
0.0
  0
LINE
  5
48
330
A
100
AcDbEntity
  8
TOP
  6
CONTINUOUS
 62
     3
100
AcDbLine
 10
5.160408
 20
12.19151899999999
 30
0.0
 11
5.144186999999999
 21
12.19151899999999
 31
0.0
  0
LINE
  5
49
330
A
100
AcDbEntity
  8
TOP
  6
CONTINUOUS
 62
     3
100
AcDbLine
 10
7.510977999999999
 20
5.872205
 30
0.0
 11
7.461497999999999
 21
5.872205
 31
0.0
  0
LINE
  5
4A
330
A
100
AcDbEntity
  8
TOP
  6
CONTINUOUS
 62
     3
100
AcDbLine
 10
38.606422
 20
12.06852
 30
0.0
 11
38.593437
 21
12.06852
 31
0.0
  0
LINE
  5
4B
330
A
100
AcDbEntity
  8
TOP
  6
CONTINUOUS
 62
     3
100
AcDbLine
 10
20.720009
 20
32.098518
 30
0.0
 11
20.74196399999999
 21
32.098518
 31
0.0
  0
LINE
  5
4C
330
A
100
AcDbEntity
  8
TOP
  6
CONTINUOUS
 62
     3
100
AcDbLine
 10
4.905332999999999
 20
31.171518
 30
0.0
 11
4.892546
 21
31.171518
 31
0.0
  0
LINE
  5
4D
330
A
100
AcDbEntity
  8
TOP
  6
CONTINUOUS
 62
     3
100
AcDbLine
 10
6.283894
 20
31.59082
 30
0.0
 11
6.309936
 21
31.615561
 31
0.0
  0
LINE
  5
4E
330
A
100
AcDbEntity
  8
TOP
  6
CONTINUOUS
 62
     3
100
AcDbLine
 10
38.345722
 20
12.19151899999999
 30
0.0
 11
38.31485
 21
12.19151899999999
 31
0.0
  0
LINE
  5
4F
330
A
100
AcDbEntity
  8
TOP
  6
CONTINUOUS
 62
     3
100
AcDbLine
 10
38.51449999999999
 20
12.06852
 30
0.0
 11
38.480854
 21
12.06852
 31
0.0
  0
LINE
  5
50
330
A
100
AcDbEntity
  8
TOP
  6
CONTINUOUS
 62
     3
100
AcDbLine
 10
5.160408
 20
32.191521
 30
0.0
 11
5.166185999999999
 21
32.191521
 31
0.0
  0
LINE
  5
51
330
A
100
AcDbEntity
  8
TOP
  6
CONTINUOUS
 62
     3
100
AcDbLine
 10
38.572777
 20
12.131519
 30
0.0
 11
38.593437
 21
12.131519
 31
0.0
  0
LINE
  5
52
330
A
100
AcDbEntity
  8
TOP
  6
CONTINUOUS
 62
     3
100
AcDbLine
 10
4.981186
 20
30.011238
 30
0.0
 11
4.981186
 21
30.131361
 31
0.0
  0
LINE
  5
53
330
A
100
AcDbEntity
  8
TOP
  6
CONTINUOUS
 62
     3
100
AcDbLine
 10
20.960697
 20
12.69151899999999
 30
0.0
 11
20.934189
 21
12.69151899999999
 31
0.0
  0
LINE
  5
54
330
A
100
AcDbEntity
  8
TOP
  6
CONTINUOUS
 62
     3
100
AcDbLine
 10
38.51449999999999
 20
32.314518
 30
0.0
 11
38.545853
 21
32.314518
 31
0.0
  0
LINE
  5
55
330
A
100
AcDbEntity
  8
TOP
  6
CONTINUOUS
 62
     3
100
AcDbLine
 10
20.837061
 20
12.69151899999999
 30
0.0
 11
20.80618999999999
 21
12.69151899999999
 31
0.0
  0
LINE
  5
56
330
A
100
AcDbEntity
  8
TOP
  6
CONTINUOUS
 62
     3
100
AcDbLine
 10
38.606422
 20
32.314518
 30
0.0
 11
38.61085099999999
 21
32.314518
 31
0.0
  0
LINE
  5
57
330
A
100
AcDbEntity
  8
TOP
  6
CONTINUOUS
 62
     3
100
AcDbLine
 10
20.74654999999999
 20
12.69151899999999
 30
0.0
 11
20.742186
 21
12.69151899999999
 31
0.0
  0
LINE
  5
58
330
A
100
AcDbEntity
  8
TOP
  6
CONTINUOUS
 62
     3
100
AcDbLine
 10
38.572777
 20
32.25151799999999
 30
0.0
 11
38.545853
 21
32.25151799999999
 31
0.0
  0
LINE
  5
59
330
A
100
AcDbEntity
  8
TOP
  6
CONTINUOUS
 62
     3
100
AcDbLine
 10
20.960697
 20
12.19151899999999
 30
0.0
 11
20.934189
 21
12.19151899999999
 31
0.0
  0
LINE
  5
5A
330
A
100
AcDbEntity
  8
TOP
  6
CONTINUOUS
 62
     3
100
AcDbLine
 10
38.61085099999999
 20
32.314518
 30
0.0
 11
38.61085099999999
 21
32.25151799999999
 31
0.0
  0
LINE
  5
5B
330
A
100
AcDbEntity
  8
TOP
  6
CONTINUOUS
 62
     3
100
AcDbLine
 10
20.837061
 20
12.19151899999999
 30
0.0
 11
20.80618999999999
 21
12.19151899999999
 31
0.0
  0
LINE
  5
5C
330
A
100
AcDbEntity
  8
TOP
  6
CONTINUOUS
 62
     3
100
AcDbLine
 10
13.598807
 20
5.948204999999999
 30
0.0
 11
15.317564
 21
5.948204999999999
 31
0.0
  0
LINE
  5
5D
330
A
100
AcDbEntity
  8
TOP
  6
CONTINUOUS
 62
     3
100
AcDbLine
 10
20.74654999999999
 20
12.19151899999999
 30
0.0
 11
20.742186
 21
12.19151899999999
 31
0.0
  0
LINE
  5
5E
330
A
100
AcDbEntity
  8
TOP
  6
CONTINUOUS
 62
     3
100
AcDbLine
 10
38.268002
 20
13.751519
 30
0.0
 11
38.288342
 21
13.751519
 31
0.0
  0
LINE
  5
5F
330
A
100
AcDbEntity
  8
TOP
  6
CONTINUOUS
 62
     3
100
AcDbLine
 10
20.960697
 20
13.731519
 30
0.0
 11
20.934189
 21
13.731519
 31
0.0
  0
LINE
  5
60
330
A
100
AcDbEntity
  8
TOP
  6
CONTINUOUS
 62
     3
100
AcDbLine
 10
20.780186
 20
5.594204999999999
 30
0.0
 11
20.837185
 21
5.594204999999999
 31
0.0
  0
LINE
  5
61
330
A
100
AcDbEntity
  8
TOP
  6
CONTINUOUS
 62
     3
100
AcDbLine
 10
38.31485
 20
12.19151899999999
 30
0.0
 11
38.288342
 21
12.19151899999999
 31
0.0
  0
LINE
  5
62
330
A
100
AcDbEntity
  8
TOP
  6
CONTINUOUS
 62
     3
100
AcDbLine
 10
38.378849
 20
13.751519
 30
0.0
 11
38.411976
 21
13.751519
 31
0.0
  0
LINE
  5
63
330
A
100
AcDbEntity
  8
TOP
  6
CONTINUOUS
 62
     3
100
AcDbLine
 10
20.837061
 20
13.731519
 30
0.0
 11
20.80618999999999
 21
13.731519
 31
0.0
  0
LINE
  5
64
330
A
100
AcDbEntity
  8
TOP
  6
CONTINUOUS
 62
     3
100
AcDbLine
 10
38.4897
 20
13.751519
 30
0.0
 11
38.502491
 21
13.751519
 31
0.0
  0
LINE
  5
65
330
A
100
AcDbEntity
  8
TOP
  6
CONTINUOUS
 62
     3
100
AcDbLine
 10
20.74654999999999
 20
13.731519
 30
0.0
 11
20.742186
 21
13.731519
 31
0.0
  0
LINE
  5
66
330
A
100
AcDbEntity
  8
TOP
  6
CONTINUOUS
 62
     3
100
AcDbLine
 10
38.268002
 20
14.251519
 30
0.0
 11
38.288342
 21
14.251519
 31
0.0
  0
LINE
  5
67
330
A
100
AcDbEntity
  8
TOP
  6
CONTINUOUS
 62
     3
100
AcDbLine
 10
38.378849
 20
14.251519
 30
0.0
 11
38.411976
 21
14.251519
 31
0.0
  0
LINE
  5
68
330
A
100
AcDbEntity
  8
TOP
  6
CONTINUOUS
 62
     3
100
AcDbLine
 10
20.837061
 20
13.231519
 30
0.0
 11
20.80618999999999
 21
13.231519
 31
0.0
  0
LINE
  5
69
330
A
100
AcDbEntity
  8
TOP
  6
CONTINUOUS
 62
     3
100
AcDbLine
 10
20.80618999999999
 20
12.19151899999999
 30
0.0
 11
20.77967999999999
 21
12.19151899999999
 31
0.0
  0
LINE
  5
6A
330
A
100
AcDbEntity
  8
TOP
  6
CONTINUOUS
 62
     3
100
AcDbLine
 10
38.4897
 20
14.251519
 30
0.0
 11
38.502491
 21
14.251519
 31
0.0
  0
LINE
  5
6B
330
A
100
AcDbEntity
  8
TOP
  6
CONTINUOUS
 62
     3
100
AcDbLine
 10
20.74654999999999
 20
13.231519
 30
0.0
 11
20.742186
 21
13.231519
 31
0.0
  0
LINE
  5
6C
330
A
100
AcDbEntity
  8
TOP
  6
CONTINUOUS
 62
     3
100
AcDbLine
 10
14.03144
 20
21.84651899999999
 30
0.0
 11
14.03578699999999
 21
21.83152
 31
0.0
  0
LINE
  5
6D
330
A
100
AcDbEntity
  8
TOP
  6
CONTINUOUS
 62
     3
100
AcDbLine
 10
5.166185999999999
 20
32.128521
 30
0.0
 11
5.160408
 21
32.128521
 31
0.0
  0
LINE
  5
6E
330
A
100
AcDbEntity
  8
TOP
  6
CONTINUOUS
 62
     3
100
AcDbLine
 10
38.268002
 20
12.711519
 30
0.0
 11
38.288342
 21
12.711519
 31
0.0
  0
LINE
  5
6F
330
A
100
AcDbEntity
  8
TOP
  6
CONTINUOUS
 62
     3
100
AcDbLine
 10
20.960697
 20
31.15152
 30
0.0
 11
20.934189
 21
31.15152
 31
0.0
  0
LINE
  5
70
330
A
100
AcDbEntity
  8
TOP
  6
CONTINUOUS
 62
     3
100
AcDbLine
 10
38.378849
 20
12.711519
 30
0.0
 11
38.411976
 21
12.711519
 31
0.0
  0
LINE
  5
71
330
A
100
AcDbEntity
  8
TOP
  6
CONTINUOUS
 62
     3
100
AcDbLine
 10
20.837061
 20
31.15152
 30
0.0
 11
20.80618999999999
 21
31.15152
 31
0.0
  0
LINE
  5
72
330
A
100
AcDbEntity
  8
TOP
  6
CONTINUOUS
 62
     3
100
AcDbLine
 10
38.4897
 20
12.711519
 30
0.0
 11
38.502491
 21
12.711519
 31
0.0
  0
LINE
  5
73
330
A
100
AcDbEntity
  8
TOP
  6
CONTINUOUS
 62
     3
100
AcDbLine
 10
20.74654999999999
 20
31.15152
 30
0.0
 11
20.742186
 21
31.15152
 31
0.0
  0
LINE
  5
74
330
A
100
AcDbEntity
  8
TOP
  6
CONTINUOUS
 62
     3
100
AcDbLine
 10
20.960697
 20
30.65152
 30
0.0
 11
20.934189
 21
30.65152
 31
0.0
  0
LINE
  5
75
330
A
100
AcDbEntity
  8
TOP
  6
CONTINUOUS
 62
     3
100
AcDbLine
 10
38.378849
 20
13.211519
 30
0.0
 11
38.411976
 21
13.211519
 31
0.0
  0
LINE
  5
76
330
A
100
AcDbEntity
  8
TOP
  6
CONTINUOUS
 62
     3
100
AcDbLine
 10
20.837061
 20
30.65152
 30
0.0
 11
20.80618999999999
 21
30.65152
 31
0.0
  0
LINE
  5
77
330
A
100
AcDbEntity
  8
TOP
  6
CONTINUOUS
 62
     3
100
AcDbLine
 10
38.4897
 20
13.211519
 30
0.0
 11
38.502491
 21
13.211519
 31
0.0
  0
LINE
  5
78
330
A
100
AcDbEntity
  8
TOP
  6
CONTINUOUS
 62
     3
100
AcDbLine
 10
20.74654999999999
 20
30.65152
 30
0.0
 11
20.742186
 21
30.65152
 31
0.0
  0
LINE
  5
79
330
A
100
AcDbEntity
  8
TOP
  6
CONTINUOUS
 62
     3
100
AcDbLine
 10
38.268002
 20
30.131519
 30
0.0
 11
38.288342
 21
30.131519
 31
0.0
  0
LINE
  5
7A
330
A
100
AcDbEntity
  8
TOP
  6
CONTINUOUS
 62
     3
100
AcDbLine
 10
20.960697
 20
32.191521
 30
0.0
 11
20.934189
 21
32.191521
 31
0.0
  0
LINE
  5
7B
330
A
100
AcDbEntity
  8
TOP
  6
CONTINUOUS
 62
     3
100
AcDbLine
 10
4.951185999999999
 20
12.711534
 30
0.0
 11
4.951185999999999
 21
12.691535
 31
0.0
  0
LINE
  5
7C
330
A
100
AcDbEntity
  8
TOP
  6
CONTINUOUS
 62
     3
100
AcDbLine
 10
38.378849
 20
30.131519
 30
0.0
 11
38.411976
 21
30.131519
 31
0.0
  0
LINE
  5
7D
330
A
100
AcDbEntity
  8
TOP
  6
CONTINUOUS
 62
     3
100
AcDbLine
 10
20.837061
 20
32.191521
 30
0.0
 11
20.80618999999999
 21
32.191521
 31
0.0
  0
LINE
  5
7E
330
A
100
AcDbEntity
  8
TOP
  6
CONTINUOUS
 62
     3
100
AcDbLine
 10
38.4897
 20
30.131519
 30
0.0
 11
38.502491
 21
30.131519
 31
0.0
  0
LINE
  5
7F
330
A
100
AcDbEntity
  8
TOP
  6
CONTINUOUS
 62
     3
100
AcDbLine
 10
20.74654999999999
 20
32.191521
 30
0.0
 11
20.742186
 21
32.191521
 31
0.0
  0
LINE
  5
80
330
A
100
AcDbEntity
  8
TOP
  6
CONTINUOUS
 62
     3
100
AcDbLine
 10
38.268002
 20
30.631519
 30
0.0
 11
38.288342
 21
30.631519
 31
0.0
  0
LINE
  5
81
330
A
100
AcDbEntity
  8
TOP
  6
CONTINUOUS
 62
     3
100
AcDbLine
 10
20.960697
 20
31.691519
 30
0.0
 11
20.934189
 21
31.691519
 31
0.0
  0
LINE
  5
82
330
A
100
AcDbEntity
  8
TOP
  6
CONTINUOUS
 62
     3
100
AcDbLine
 10
20.805185
 20
30.651539
 30
0.0
 11
20.805185
 21
30.63154
 31
0.0
  0
LINE
  5
83
330
A
100
AcDbEntity
  8
TOP
  6
CONTINUOUS
 62
     3
100
AcDbLine
 10
38.378849
 20
30.631519
 30
0.0
 11
38.411976
 21
30.631519
 31
0.0
  0
LINE
  5
84
330
A
100
AcDbEntity
  8
TOP
  6
CONTINUOUS
 62
     3
100
AcDbLine
 10
38.4897
 20
30.631519
 30
0.0
 11
38.502491
 21
30.631519
 31
0.0
  0
LINE
  5
85
330
A
100
AcDbEntity
  8
TOP
  6
CONTINUOUS
 62
     3
100
AcDbLine
 10
20.74654999999999
 20
31.691519
 30
0.0
 11
20.742186
 21
31.691519
 31
0.0
  0
LINE
  5
86
330
A
100
AcDbEntity
  8
TOP
  6
CONTINUOUS
 62
     3
100
AcDbLine
 10
20.935186
 20
13.211517
 30
0.0
 11
20.935186
 21
13.231516
 31
0.0
  0
LINE
  5
87
330
A
100
AcDbEntity
  8
TOP
  6
CONTINUOUS
 62
     3
100
AcDbLine
 10
7.358185999999999
 20
5.282205
 30
0.0
 11
7.358185999999999
 21
5.288044
 31
0.0
  0
LINE
  5
88
330
A
100
AcDbEntity
  8
TOP
  6
CONTINUOUS
 62
     3
100
AcDbLine
 10
38.268002
 20
31.171518
 30
0.0
 11
38.288342
 21
31.171518
 31
0.0
  0
LINE
  5
89
330
A
100
AcDbEntity
  8
TOP
  6
CONTINUOUS
 62
     3
100
AcDbLine
 10
4.925675
 20
12.19151899999999
 30
0.0
 11
4.952182999999999
 21
12.19151899999999
 31
0.0
  0
LINE
  5
8A
330
A
100
AcDbEntity
  8
TOP
  6
CONTINUOUS
 62
     3
100
AcDbLine
 10
20.998186
 20
13.751519
 30
0.0
 11
20.998186
 21
14.251519
 31
0.0
  0
LINE
  5
8B
330
A
100
AcDbEntity
  8
TOP
  6
CONTINUOUS
 62
     3
100
AcDbLine
 10
38.378849
 20
31.171518
 30
0.0
 11
38.411976
 21
31.171518
 31
0.0
  0
LINE
  5
8C
330
A
100
AcDbEntity
  8
TOP
  6
CONTINUOUS
 62
     3
100
AcDbLine
 10
5.04931
 20
12.19151899999999
 30
0.0
 11
5.080180999999999
 21
12.19151899999999
 31
0.0
  0
LINE
  5
8D
330
A
100
AcDbEntity
  8
TOP
  6
CONTINUOUS
 62
     3
100
AcDbLine
 10
7.300561
 20
31.689779
 30
0.0
 11
7.3253
 21
31.71452
 31
0.0
  0
LINE
  5
8E
330
A
100
AcDbEntity
  8
TOP
  6
CONTINUOUS
 62
     3
100
AcDbLine
 10
38.4897
 20
31.171518
 30
0.0
 11
38.502491
 21
31.171518
 31
0.0
  0
LINE
  5
8F
330
A
100
AcDbEntity
  8
TOP
  6
CONTINUOUS
 62
     3
100
AcDbLine
 10
5.139821999999999
 20
12.19151899999999
 30
0.0
 11
5.144186
 21
12.19151899999999
 31
0.0
  0
LINE
  5
90
330
A
100
AcDbEntity
  8
TOP
  6
CONTINUOUS
 62
     3
100
AcDbLine
 10
38.268002
 20
31.671518
 30
0.0
 11
38.288342
 21
31.671518
 31
0.0
  0
LINE
  5
91
330
A
100
AcDbEntity
  8
TOP
  6
CONTINUOUS
 62
     3
100
AcDbLine
 10
4.925675
 20
12.69151899999999
 30
0.0
 11
4.952182999999999
 21
12.69151899999999
 31
0.0
  0
LINE
  5
92
330
A
100
AcDbEntity
  8
TOP
  6
CONTINUOUS
 62
     3
100
AcDbLine
 10
5.04931
 20
12.69151899999999
 30
0.0
 11
5.080180999999999
 21
12.69151899999999
 31
0.0
  0
LINE
  5
93
330
A
100
AcDbEntity
  8
TOP
  6
CONTINUOUS
 62
     3
100
AcDbLine
 10
6.210977999999999
 20
31.615561
 30
0.0
 11
6.234415
 21
31.59082
 31
0.0
  0
LINE
  5
94
330
A
100
AcDbEntity
  8
TOP
  6
CONTINUOUS
 62
     3
100
AcDbLine
 10
38.4897
 20
31.671518
 30
0.0
 11
38.502491
 21
31.671518
 31
0.0
  0
LINE
  5
95
330
A
100
AcDbEntity
  8
TOP
  6
CONTINUOUS
 62
     3
100
AcDbLine
 10
5.139821999999999
 20
12.69151899999999
 30
0.0
 11
5.144186
 21
12.69151899999999
 31
0.0
  0
LINE
  5
96
330
A
100
AcDbEntity
  8
TOP
  6
CONTINUOUS
 62
     3
100
AcDbLine
 10
7.37478
 20
5.872205
 30
0.0
 11
7.399518999999999
 21
5.872205
 31
0.0
  0
LINE
  5
97
330
A
100
AcDbEntity
  8
TOP
  6
CONTINUOUS
 62
     3
100
AcDbLine
 10
4.925675
 20
13.231519
 30
0.0
 11
4.952182999999999
 21
13.231519
 31
0.0
  0
LINE
  5
98
330
A
100
AcDbEntity
  8
TOP
  6
CONTINUOUS
 62
     3
100
AcDbLine
 10
7.435457
 20
5.872205
 30
0.0
 11
7.461497999999999
 21
5.872205
 31
0.0
  0
LINE
  5
99
330
A
100
AcDbEntity
  8
TOP
  6
CONTINUOUS
 62
     3
100
AcDbLine
 10
5.04931
 20
13.231519
 30
0.0
 11
5.080180999999999
 21
13.231519
 31
0.0
  0
LINE
  5
9A
330
A
100
AcDbEntity
  8
TOP
  6
CONTINUOUS
 62
     3
100
AcDbLine
 10
7.3253
 20
5.872205
 30
0.0
 11
7.37478
 21
5.872205
 31
0.0
  0
LINE
  5
9B
330
A
100
AcDbEntity
  8
TOP
  6
CONTINUOUS
 62
     3
100
AcDbLine
 10
5.139821999999999
 20
13.231519
 30
0.0
 11
5.144186
 21
13.231519
 31
0.0
  0
LINE
  5
9C
330
A
100
AcDbEntity
  8
TOP
  6
CONTINUOUS
 62
     3
100
AcDbLine
 10
4.952183999999999
 20
14.251519
 30
0.0
 11
4.925673999999999
 21
14.251519
 31
0.0
  0
LINE
  5
9D
330
A
100
AcDbEntity
  8
TOP
  6
CONTINUOUS
 62
     3
100
AcDbLine
 10
7.572956999999999
 20
5.872205
 30
0.0
 11
7.622436
 21
5.872205
 31
0.0
  0
LINE
  5
9E
330
A
100
AcDbEntity
  8
TOP
  6
CONTINUOUS
 62
     3
100
AcDbLine
 10
4.925675
 20
13.731519
 30
0.0
 11
4.952182999999999
 21
13.731519
 31
0.0
  0
LINE
  5
9F
330
A
100
AcDbEntity
  8
TOP
  6
CONTINUOUS
 62
     3
100
AcDbLine
 10
7.300561
 20
5.872205
 30
0.0
 11
7.3253
 21
5.872205
 31
0.0
  0
LINE
  5
A0
330
A
100
AcDbEntity
  8
TOP
  6
CONTINUOUS
 62
     3
100
AcDbLine
 10
5.04931
 20
13.731519
 30
0.0
 11
5.080180999999999
 21
13.731519
 31
0.0
  0
LINE
  5
A1
330
A
100
AcDbEntity
  8
TOP
  6
CONTINUOUS
 62
     3
100
AcDbLine
 10
6.990924999999999
 20
5.872205
 30
0.0
 11
6.964883999999999
 21
5.872205
 31
0.0
  0
LINE
  5
A2
330
A
100
AcDbEntity
  8
TOP
  6
CONTINUOUS
 62
     3
100
AcDbLine
 10
5.139821999999999
 20
13.731519
 30
0.0
 11
5.144186
 21
13.731519
 31
0.0
  0
LINE
  5
A3
330
A
100
AcDbEntity
  8
TOP
  6
CONTINUOUS
 62
     3
100
AcDbLine
 10
7.200821
 20
5.872205
 30
0.0
 11
7.225560999999999
 21
5.872205
 31
0.0
  0
LINE
  5
A4
330
A
100
AcDbEntity
  8
TOP
  6
CONTINUOUS
 62
     3
100
AcDbLine
 10
4.925675
 20
30.65152
 30
0.0
 11
4.952182999999999
 21
30.65152
 31
0.0
  0
LINE
  5
A5
330
A
100
AcDbEntity
  8
TOP
  6
CONTINUOUS
 62
     3
100
AcDbLine
 10
6.780509
 20
5.872205
 30
0.0
 11
6.829988
 21
5.872205
 31
0.0
  0
LINE
  5
A6
330
A
100
AcDbEntity
  8
TOP
  6
CONTINUOUS
 62
     3
100
AcDbLine
 10
5.04931
 20
30.65152
 30
0.0
 11
5.080180999999999
 21
30.65152
 31
0.0
  0
LINE
  5
A7
330
A
100
AcDbEntity
  8
TOP
  6
CONTINUOUS
 62
     3
100
AcDbLine
 10
5.016180999999999
 20
13.731519
 30
0.0
 11
5.04931
 21
13.731519
 31
0.0
  0
LINE
  5
A8
330
A
100
AcDbEntity
  8
TOP
  6
CONTINUOUS
 62
     3
100
AcDbLine
 10
7.572956999999999
 20
31.71452
 30
0.0
 11
7.622436
 21
31.59082
 31
0.0
  0
LINE
  5
A9
330
A
100
AcDbEntity
  8
TOP
  6
CONTINUOUS
 62
     3
100
AcDbLine
 10
7.127123
 20
5.872205
 30
0.0
 11
7.028165
 21
5.872205
 31
0.0
  0
LINE
  5
AA
330
A
100
AcDbEntity
  8
TOP
  6
CONTINUOUS
 62
     3
100
AcDbLine
 10
5.139821999999999
 20
30.65152
 30
0.0
 11
5.144186
 21
30.65152
 31
0.0
  0
LINE
  5
AB
330
A
100
AcDbEntity
  8
TOP
  6
CONTINUOUS
 62
     3
100
AcDbLine
 10
6.891967
 20
5.872205
 30
0.0
 11
6.966186
 21
5.872205
 31
0.0
  0
LINE
  5
AC
330
A
100
AcDbEntity
  8
TOP
  6
CONTINUOUS
 62
     3
100
AcDbLine
 10
4.925675
 20
31.15152
 30
0.0
 11
4.952182999999999
 21
31.15152
 31
0.0
  0
LINE
  5
AD
330
A
100
AcDbEntity
  8
TOP
  6
CONTINUOUS
 62
     3
100
AcDbLine
 10
5.851862999999999
 20
5.872205
 30
0.0
 11
5.901341999999999
 21
5.872205
 31
0.0
  0
LINE
  5
AE
330
A
100
AcDbEntity
  8
TOP
  6
CONTINUOUS
 62
     3
100
AcDbLine
 10
38.25085399999999
 20
30.029093
 30
0.0
 11
38.25085399999999
 21
30.048557
 31
0.0
  0
LINE
  5
AF
330
A
100
AcDbEntity
  8
TOP
  6
CONTINUOUS
 62
     3
100
AcDbLine
 10
6.173738
 20
5.872205
 30
0.0
 11
6.147695999999999
 21
5.872205
 31
0.0
  0
LINE
  5
B0
330
A
100
AcDbEntity
  8
TOP
  6
CONTINUOUS
 62
     3
100
AcDbLine
 10
38.25085399999999
 20
30.113945
 30
0.0
 11
38.25085399999999
 21
30.126951
 31
0.0
  0
LINE
  5
B1
330
A
100
AcDbEntity
  8
TOP
  6
CONTINUOUS
 62
     3
100
AcDbLine
 10
4.925673999999999
 20
14.251519
 30
0.0
 11
4.905332999999999
 21
14.251519
 31
0.0
  0
LINE
  5
B2
330
A
100
AcDbEntity
  8
TOP
  6
CONTINUOUS
 62
     3
100
AcDbLine
 10
38.25085399999999
 20
31.671518
 30
0.0
 11
38.25085399999999
 21
31.691525
 31
0.0
  0
LINE
  5
B3
330
A
100
AcDbEntity
  8
TOP
  6
CONTINUOUS
 62
     3
100
AcDbLine
 10
38.25085399999999
 20
14.251519
 30
0.0
 11
38.25085399999999
 21
14.256086
 31
0.0
  0
LINE
  5
B4
330
A
100
AcDbEntity
  8
TOP
  6
CONTINUOUS
 62
     3
100
AcDbLine
 10
38.25085399999999
 20
14.31151999999999
 30
0.0
 11
38.25085399999999
 21
14.33448
 31
0.0
  0
LINE
  5
B5
330
A
100
AcDbEntity
  8
TOP
  6
CONTINUOUS
 62
     3
100
AcDbLine
 10
38.25085399999999
 20
30.011518
 30
0.0
 11
38.25085399999999
 21
14.37151899999999
 31
0.0
  0
LINE
  5
B6
330
A
100
AcDbEntity
  8
TOP
  6
CONTINUOUS
 62
     3
100
AcDbLine
 10
38.313854
 20
30.048557
 30
0.0
 11
38.313854
 21
30.07152
 31
0.0
  0
LINE
  5
B7
330
A
100
AcDbEntity
  8
TOP
  6
CONTINUOUS
 62
     3
100
AcDbLine
 10
7.383186
 20
3.627205
 30
0.0
 11
7.383186
 21
3.677204999999999
 31
0.0
  0
LINE
  5
B8
330
A
100
AcDbEntity
  8
TOP
  6
CONTINUOUS
 62
     3
100
AcDbLine
 10
38.313854
 20
14.288558
 30
0.0
 11
38.313854
 21
14.31151999999999
 31
0.0
  0
LINE
  5
B9
330
A
100
AcDbEntity
  8
TOP
  6
CONTINUOUS
 62
     3
100
AcDbLine
 10
4.925673999999999
 20
13.751519
 30
0.0
 11
4.905332999999999
 21
13.751519
 31
0.0
  0
LINE
  5
BA
330
A
100
AcDbEntity
  8
TOP
  6
CONTINUOUS
 62
     3
100
AcDbLine
 10
38.25085399999999
 20
31.689779
 30
0.0
 11
38.25085399999999
 21
31.615561
 31
0.0
  0
LINE
  5
BB
330
A
100
AcDbEntity
  8
TOP
  6
CONTINUOUS
 62
     3
100
AcDbLine
 10
41.67885199999999
 20
32.15588799999999
 30
0.0
 11
41.67885199999999
 21
32.13151899999999
 31
0.0
  0
LINE
  5
BC
330
A
100
AcDbEntity
  8
TOP
  6
CONTINUOUS
 62
     3
100
AcDbLine
 10
5.898185999999999
 20
5.169204999999999
 30
0.0
 11
5.898185999999999
 21
3.940026
 31
0.0
  0
LINE
  5
BD
330
A
100
AcDbEntity
  8
TOP
  6
CONTINUOUS
 62
     3
100
AcDbLine
 10
7.388186
 20
5.169204999999999
 30
0.0
 11
7.388186
 21
3.940026
 31
0.0
  0
LINE
  5
BE
330
A
100
AcDbEntity
  8
TOP
  6
CONTINUOUS
 62
     3
100
AcDbLine
 10
4.888186
 20
30.631519
 30
0.0
 11
4.888186
 21
30.131519
 31
0.0
  0
LINE
  5
BF
330
A
100
AcDbEntity
  8
TOP
  6
CONTINUOUS
 62
     3
100
AcDbLine
 10
20.805185
 20
31.69150399999999
 30
0.0
 11
20.805185
 21
31.67150499999999
 31
0.0
  0
LINE
  5
C0
330
A
100
AcDbEntity
  8
TOP
  6
CONTINUOUS
 62
     3
100
AcDbLine
 10
5.928186
 20
5.368441999999999
 30
0.0
 11
7.358185999999999
 21
5.368441999999999
 31
0.0
  0
LINE
  5
C1
330
A
100
AcDbEntity
  8
TOP
  6
CONTINUOUS
 62
     3
100
AcDbLine
 10
6.668186
 20
5.199205
 30
0.0
 11
6.668186
 21
4.669204999999999
 31
0.0
  0
LINE
  5
C2
330
A
100
AcDbEntity
  8
TOP
  6
CONTINUOUS
 62
     3
100
AcDbLine
 10
5.928186
 20
5.282205
 30
0.0
 11
5.928186
 21
5.288044
 31
0.0
  0
LINE
  5
C3
330
A
100
AcDbEntity
  8
TOP
  6
CONTINUOUS
 62
     3
100
AcDbLine
 10
7.388186
 20
5.312204999999999
 30
0.0
 11
7.382347
 21
5.312204999999999
 31
0.0
  0
LINE
  5
C4
330
A
100
AcDbEntity
  8
TOP
  6
CONTINUOUS
 62
     3
100
AcDbLine
 10
14.99368699999999
 20
21.81651899999999
 30
0.0
 11
15.01089499999999
 21
21.82053799999999
 31
0.0
  0
LINE
  5
C5
330
A
100
AcDbEntity
  8
TOP
  6
CONTINUOUS
 62
     3
100
AcDbLine
 10
7.358185999999999
 20
5.368441999999999
 30
0.0
 11
7.358185999999999
 21
5.381954
 31
0.0
  0
LINE
  5
C6
330
A
100
AcDbEntity
  8
TOP
  6
CONTINUOUS
 62
     3
100
AcDbLine
 10
7.362421999999999
 20
5.312204999999999
 30
0.0
 11
7.375935
 21
5.312204999999999
 31
0.0
  0
LINE
  5
C7
330
A
100
AcDbEntity
  8
TOP
  6
CONTINUOUS
 62
     3
100
AcDbLine
 10
5.928186
 20
5.288044
 30
0.0
 11
5.928186
 21
5.294456
 31
0.0
  0
LINE
  5
C8
330
A
100
AcDbEntity
  8
TOP
  6
CONTINUOUS
 62
     3
100
AcDbLine
 10
14.032131
 20
21.84651899999999
 30
0.0
 11
14.837179
 21
21.84651899999999
 31
0.0
  0
LINE
  5
C9
330
A
100
AcDbEntity
  8
TOP
  6
CONTINUOUS
 62
     3
100
AcDbLine
 10
5.934358999999999
 20
4.049204999999999
 30
0.0
 11
5.898185999999999
 21
4.049204999999999
 31
0.0
  0
LINE
  5
CA
330
A
100
AcDbEntity
  8
TOP
  6
CONTINUOUS
 62
     3
100
AcDbLine
 10
38.345722
 20
32.191521
 30
0.0
 11
38.31485
 21
32.191521
 31
0.0
  0
LINE
  5
CB
330
A
100
AcDbEntity
  8
TOP
  6
CONTINUOUS
 62
     3
100
AcDbLine
 10
6.618185999999999
 20
4.579204999999999
 30
0.0
 11
6.618185999999999
 21
4.485954
 31
0.0
  0
LINE
  5
CC
330
A
100
AcDbEntity
  8
TOP
  6
CONTINUOUS
 62
     3
100
AcDbLine
 10
6.618185999999999
 20
4.395796999999999
 30
0.0
 11
6.618185999999999
 21
4.253759999999999
 31
0.0
  0
LINE
  5
CD
330
A
100
AcDbEntity
  8
TOP
  6
CONTINUOUS
 62
     3
100
AcDbLine
 10
6.167411
 20
4.049204999999999
 30
0.0
 11
6.039252
 21
4.049204999999999
 31
0.0
  0
LINE
  5
CE
330
A
100
AcDbEntity
  8
TOP
  6
CONTINUOUS
 62
     3
100
AcDbLine
 10
6.085465
 20
3.999204999999999
 30
0.0
 11
5.989582999999999
 21
3.999204999999999
 31
0.0
  0
LINE
  5
CF
330
A
100
AcDbEntity
  8
TOP
  6
CONTINUOUS
 62
     3
100
AcDbLine
 10
5.898185999999999
 20
3.627205
 30
0.0
 11
5.903185999999999
 21
3.627205
 31
0.0
  0
LINE
  5
D0
330
A
100
AcDbEntity
  8
TOP
  6
CONTINUOUS
 62
     3
100
AcDbLine
 10
4.952183999999999
 20
31.171518
 30
0.0
 11
4.925673999999999
 21
31.171518
 31
0.0
  0
LINE
  5
D1
330
A
100
AcDbEntity
  8
TOP
  6
CONTINUOUS
 62
     3
100
AcDbLine
 10
41.237473
 20
12.18401899999999
 30
0.0
 11
41.172813
 21
12.18401899999999
 31
0.0
  0
LINE
  5
D2
330
A
100
AcDbEntity
  8
TOP
  6
CONTINUOUS
 62
     3
100
AcDbLine
 10
6.598186
 20
4.649205
 30
0.0
 11
5.898185999999999
 21
4.649205
 31
0.0
  0
LINE
  5
D3
330
A
100
AcDbEntity
  8
TOP
  6
CONTINUOUS
 62
     3
100
AcDbLine
 10
5.904024999999999
 20
5.364205
 30
0.0
 11
5.904024999999999
 21
5.312204999999999
 31
0.0
  0
LINE
  5
D4
330
A
100
AcDbEntity
  8
TOP
  6
CONTINUOUS
 62
     3
100
AcDbLine
 10
20.934189
 20
13.731519
 30
0.0
 11
20.90331799999999
 21
13.731519
 31
0.0
  0
LINE
  5
D5
330
A
100
AcDbEntity
  8
TOP
  6
CONTINUOUS
 62
     3
100
AcDbLine
 10
5.923949
 20
5.364205
 30
0.0
 11
5.910436999999999
 21
5.364205
 31
0.0
  0
LINE
  5
D6
330
A
100
AcDbEntity
  8
TOP
  6
CONTINUOUS
 62
     3
100
AcDbLine
 10
15.042846
 20
22.555653
 30
0.0
 11
15.046896
 21
22.53652
 31
0.0
  0
LINE
  5
D7
330
A
100
AcDbEntity
  8
TOP
  6
CONTINUOUS
 62
     3
100
AcDbLine
 10
5.853185999999999
 20
3.627205
 30
0.0
 11
5.853185999999999
 21
3.677204999999999
 31
0.0
  0
LINE
  5
D8
330
A
100
AcDbEntity
  8
TOP
  6
CONTINUOUS
 62
     3
100
AcDbLine
 10
4.892547
 20
32.191521
 30
0.0
 11
4.905333999999999
 21
32.191521
 31
0.0
  0
LINE
  5
D9
330
A
100
AcDbEntity
  8
TOP
  6
CONTINUOUS
 62
     3
100
AcDbLine
 10
14.027283
 20
21.811163
 30
0.0
 11
14.016062
 21
21.827385
 31
0.0
  0
LINE
  5
DA
330
A
100
AcDbEntity
  8
TOP
  6
CONTINUOUS
 62
     3
100
AcDbLine
 10
4.952183999999999
 20
13.751519
 30
0.0
 11
4.925673999999999
 21
13.751519
 31
0.0
  0
LINE
  5
DB
330
A
100
AcDbEntity
  8
TOP
  6
CONTINUOUS
 62
     3
100
AcDbLine
 10
4.983054
 20
32.191521
 30
0.0
 11
5.016180999999999
 21
32.191521
 31
0.0
  0
LINE
  5
DC
330
A
100
AcDbEntity
  8
TOP
  6
CONTINUOUS
 62
     3
100
AcDbLine
 10
5.106690999999999
 20
32.191521
 30
0.0
 11
5.127034
 21
32.191521
 31
0.0
  0
LINE
  5
DD
330
A
100
AcDbEntity
  8
TOP
  6
CONTINUOUS
 62
     3
100
AcDbLine
 10
15.905186
 20
32.028519
 30
0.0
 11
15.841187
 21
32.028519
 31
0.0
  0
LINE
  5
DE
330
A
100
AcDbEntity
  8
TOP
  6
CONTINUOUS
 62
     3
100
AcDbLine
 10
5.166185999999999
 20
31.671518
 30
0.0
 11
5.016186
 21
31.671518
 31
0.0
  0
LINE
  5
DF
330
A
100
AcDbEntity
  8
TOP
  6
CONTINUOUS
 62
     3
100
AcDbLine
 10
15.905186
 20
32.058517
 30
0.0
 11
15.841187
 21
32.058517
 31
0.0
  0
LINE
  5
E0
330
A
100
AcDbEntity
  8
TOP
  6
CONTINUOUS
 62
     3
100
AcDbLine
 10
19.983187
 20
3.627205
 30
0.0
 11
19.983187
 21
3.677204999999999
 31
0.0
  0
LINE
  5
E1
330
A
100
AcDbEntity
  8
TOP
  6
CONTINUOUS
 62
     3
100
AcDbLine
 10
20.936686
 20
30.011518
 30
0.0
 11
20.96216
 21
30.011518
 31
0.0
  0
LINE
  5
E2
330
A
100
AcDbEntity
  8
TOP
  6
CONTINUOUS
 62
     3
100
AcDbLine
 10
20.84318499999999
 20
30.131519
 30
0.0
 11
20.87018599999999
 21
30.131519
 31
0.0
  0
LINE
  5
E3
330
A
100
AcDbEntity
  8
TOP
  6
CONTINUOUS
 62
     3
100
AcDbLine
 10
20.96216
 20
14.37151899999999
 30
0.0
 11
20.936686
 21
14.37151899999999
 31
0.0
  0
LINE
  5
E4
330
A
100
AcDbEntity
  8
TOP
  6
CONTINUOUS
 62
     3
100
AcDbLine
 10
20.84318499999999
 20
14.251519
 30
0.0
 11
20.87018599999999
 21
14.251519
 31
0.0
  0
LINE
  5
E5
330
A
100
AcDbEntity
  8
TOP
  6
CONTINUOUS
 62
     3
100
AcDbLine
 10
16.690186
 20
31.71860099999999
 30
0.0
 11
16.690186
 21
31.344437
 31
0.0
  0
LINE
  5
E6
330
A
100
AcDbEntity
  8
TOP
  6
CONTINUOUS
 62
     3
100
AcDbLine
 10
18.498186
 20
5.169204999999999
 30
0.0
 11
18.498186
 21
3.940026
 31
0.0
  0
LINE
  5
E7
330
A
100
AcDbEntity
  8
TOP
  6
CONTINUOUS
 62
     3
100
AcDbLine
 10
20.720186
 20
12.132781
 30
0.0
 11
20.720186
 21
12.106855
 31
0.0
  0
LINE
  5
E8
330
A
100
AcDbEntity
  8
TOP
  6
CONTINUOUS
 62
     3
100
AcDbLine
 10
20.720186
 20
13.211519
 30
0.0
 11
20.720186
 21
13.751519
 31
0.0
  0
LINE
  5
E9
330
A
100
AcDbEntity
  8
TOP
  6
CONTINUOUS
 62
     3
100
AcDbLine
 10
20.720186
 20
31.171518
 30
0.0
 11
20.87018599999999
 21
31.171518
 31
0.0
  0
LINE
  5
EA
330
A
100
AcDbEntity
  8
TOP
  6
CONTINUOUS
 62
     3
100
AcDbLine
 10
20.742186
 20
32.191521
 30
0.0
 11
20.742186
 21
31.691519
 31
0.0
  0
LINE
  5
EB
330
A
100
AcDbEntity
  8
TOP
  6
CONTINUOUS
 62
     3
100
AcDbLine
 10
16.895096
 20
21.82053799999999
 30
0.0
 11
16.884779
 21
21.83152
 31
0.0
  0
LINE
  5
EC
330
A
100
AcDbEntity
  8
TOP
  6
CONTINUOUS
 62
     3
100
AcDbLine
 10
15.905186
 20
12.106855
 30
0.0
 11
15.905186
 21
12.086281
 31
0.0
  0
LINE
  5
ED
330
A
100
AcDbEntity
  8
TOP
  6
CONTINUOUS
 62
     3
100
AcDbLine
 10
19.268187
 20
5.199205
 30
0.0
 11
19.268187
 21
4.669204999999999
 31
0.0
  0
LINE
  5
EE
330
A
100
AcDbEntity
  8
TOP
  6
CONTINUOUS
 62
     3
100
AcDbLine
 10
5.938581
 20
31.59082
 30
0.0
 11
5.938581
 21
31.71452
 31
0.0
  0
LINE
  5
EF
330
A
100
AcDbEntity
  8
TOP
  6
CONTINUOUS
 62
     3
100
AcDbLine
 10
18.528185
 20
5.282205
 30
0.0
 11
18.528185
 21
5.288044
 31
0.0
  0
LINE
  5
F0
330
A
100
AcDbEntity
  8
TOP
  6
CONTINUOUS
 62
     3
100
AcDbLine
 10
7.435457
 20
31.615561
 30
0.0
 11
7.461497999999999
 21
31.59082
 31
0.0
  0
LINE
  5
F1
330
A
100
AcDbEntity
  8
TOP
  6
CONTINUOUS
 62
     3
100
AcDbLine
 10
19.98818599999999
 20
5.312204999999999
 30
0.0
 11
19.982347
 21
5.312204999999999
 31
0.0
  0
LINE
  5
F2
330
A
100
AcDbEntity
  8
TOP
  6
CONTINUOUS
 62
     3
100
AcDbLine
 10
7.3253
 20
31.71452
 30
0.0
 11
7.37478
 21
31.71452
 31
0.0
  0
LINE
  5
F3
330
A
100
AcDbEntity
  8
TOP
  6
CONTINUOUS
 62
     3
100
AcDbLine
 10
20.87018599999999
 20
13.751519
 30
0.0
 11
20.903316
 21
13.751519
 31
0.0
  0
LINE
  5
F4
330
A
100
AcDbEntity
  8
TOP
  6
CONTINUOUS
 62
     3
100
AcDbLine
 10
15.031311
 20
22.571875
 30
0.0
 11
15.042846
 21
22.555653
 31
0.0
  0
LINE
  5
F5
330
A
100
AcDbEntity
  8
TOP
  6
CONTINUOUS
 62
     3
100
AcDbLine
 10
20.934187
 20
14.251519
 30
0.0
 11
20.960697
 21
14.251519
 31
0.0
  0
LINE
  5
F6
330
A
100
AcDbEntity
  8
TOP
  6
CONTINUOUS
 62
     3
100
AcDbLine
 10
19.958185
 20
5.368441999999999
 30
0.0
 11
19.958185
 21
5.381954
 31
0.0
  0
LINE
  5
F7
330
A
100
AcDbEntity
  8
TOP
  6
CONTINUOUS
 62
     3
100
AcDbLine
 10
20.87018599999999
 20
12.711519
 30
0.0
 11
20.903316
 21
12.711519
 31
0.0
  0
LINE
  5
F8
330
A
100
AcDbEntity
  8
TOP
  6
CONTINUOUS
 62
     3
100
AcDbLine
 10
19.962423
 20
5.312204999999999
 30
0.0
 11
19.975935
 21
5.312204999999999
 31
0.0
  0
LINE
  5
F9
330
A
100
AcDbEntity
  8
TOP
  6
CONTINUOUS
 62
     3
100
AcDbLine
 10
20.98103899999999
 20
12.711519
 30
0.0
 11
20.99382599999999
 21
12.711519
 31
0.0
  0
LINE
  5
FA
330
A
100
AcDbEntity
  8
TOP
  6
CONTINUOUS
 62
     3
100
AcDbLine
 10
18.528185
 20
5.288044
 30
0.0
 11
18.528185
 21
5.294456
 31
0.0
  0
LINE
  5
FB
330
A
100
AcDbEntity
  8
TOP
  6
CONTINUOUS
 62
     3
100
AcDbLine
 10
20.934187
 20
13.211519
 30
0.0
 11
20.960697
 21
13.211519
 31
0.0
  0
LINE
  5
FC
330
A
100
AcDbEntity
  8
TOP
  6
CONTINUOUS
 62
     3
100
AcDbLine
 10
18.534359
 20
4.049204999999999
 30
0.0
 11
18.498186
 21
4.049204999999999
 31
0.0
  0
LINE
  5
FD
330
A
100
AcDbEntity
  8
TOP
  6
CONTINUOUS
 62
     3
100
AcDbLine
 10
20.87018599999999
 20
30.131519
 30
0.0
 11
20.903316
 21
30.131519
 31
0.0
  0
LINE
  5
FE
330
A
100
AcDbEntity
  8
TOP
  6
CONTINUOUS
 62
     3
100
AcDbLine
 10
19.21818499999999
 20
4.579204999999999
 30
0.0
 11
19.21818499999999
 21
4.485954
 31
0.0
  0
LINE
  5
FF
330
A
100
AcDbEntity
  8
TOP
  6
CONTINUOUS
 62
     3
100
AcDbLine
 10
13.598807
 20
22.685898
 30
0.0
 11
13.598807
 21
21.697142
 31
0.0
  0
LINE
  5
100
330
A
100
AcDbEntity
  8
TOP
  6
CONTINUOUS
 62
     3
100
AcDbLine
 10
20.98103899999999
 20
30.131519
 30
0.0
 11
20.99382599999999
 21
30.131519
 31
0.0
  0
LINE
  5
101
330
A
100
AcDbEntity
  8
TOP
  6
CONTINUOUS
 62
     3
100
AcDbLine
 10
19.21818499999999
 20
4.395796999999999
 30
0.0
 11
19.21818499999999
 21
4.253759999999999
 31
0.0
  0
LINE
  5
102
330
A
100
AcDbEntity
  8
TOP
  6
CONTINUOUS
 62
     3
100
AcDbLine
 10
20.89185
 20
2.444205
 30
0.0
 11
20.912424
 21
2.444205
 31
0.0
  0
LINE
  5
103
330
A
100
AcDbEntity
  8
TOP
  6
CONTINUOUS
 62
     3
100
AcDbLine
 10
20.934187
 20
30.631519
 30
0.0
 11
20.960697
 21
30.631519
 31
0.0
  0
LINE
  5
104
330
A
100
AcDbEntity
  8
TOP
  6
CONTINUOUS
 62
     3
100
AcDbLine
 10
18.76741
 20
4.049204999999999
 30
0.0
 11
18.63925199999999
 21
4.049204999999999
 31
0.0
  0
LINE
  5
105
330
A
100
AcDbEntity
  8
TOP
  6
CONTINUOUS
 62
     3
100
AcDbLine
 10
20.87018599999999
 20
31.171518
 30
0.0
 11
20.903316
 21
31.171518
 31
0.0
  0
LINE
  5
106
330
A
100
AcDbEntity
  8
TOP
  6
CONTINUOUS
 62
     3
100
AcDbLine
 10
18.685465
 20
3.999204999999999
 30
0.0
 11
18.58958399999999
 21
3.999204999999999
 31
0.0
  0
LINE
  5
107
330
A
100
AcDbEntity
  8
TOP
  6
CONTINUOUS
 62
     3
100
AcDbLine
 10
20.98103899999999
 20
31.171518
 30
0.0
 11
20.99382599999999
 21
31.171518
 31
0.0
  0
LINE
  5
108
330
A
100
AcDbEntity
  8
TOP
  6
CONTINUOUS
 62
     3
100
AcDbLine
 10
18.498186
 20
3.627205
 30
0.0
 11
18.50318499999999
 21
3.627205
 31
0.0
  0
LINE
  5
109
330
A
100
AcDbEntity
  8
TOP
  6
CONTINUOUS
 62
     3
100
AcDbLine
 10
20.934187
 20
31.671518
 30
0.0
 11
20.960697
 21
31.671518
 31
0.0
  0
LINE
  5
10A
330
A
100
AcDbEntity
  8
TOP
  6
CONTINUOUS
 62
     3
100
AcDbLine
 10
5.011186
 20
14.37151899999999
 30
0.0
 11
5.043186
 21
14.37151899999999
 31
0.0
  0
LINE
  5
10B
330
A
100
AcDbEntity
  8
TOP
  6
CONTINUOUS
 62
     3
100
AcDbLine
 10
5.127034
 20
12.69151899999999
 30
0.0
 11
5.139821999999999
 21
12.69151899999999
 31
0.0
  0
LINE
  5
10C
330
A
100
AcDbEntity
  8
TOP
  6
CONTINUOUS
 62
     3
100
AcDbLine
 10
4.924211999999999
 20
14.37151899999999
 30
0.0
 11
4.904664999999999
 21
14.37151899999999
 31
0.0
  0
LINE
  5
10D
330
A
100
AcDbEntity
  8
TOP
  6
CONTINUOUS
 62
     3
100
AcDbLine
 10
4.888186
 20
30.011518
 30
0.0
 11
4.892376999999999
 21
30.011518
 31
0.0
  0
LINE
  5
10E
330
A
100
AcDbEntity
  8
TOP
  6
CONTINUOUS
 62
     3
100
AcDbLine
 10
4.949685999999999
 20
30.011518
 30
0.0
 11
4.979351
 21
30.011518
 31
0.0
  0
LINE
  5
10F
330
A
100
AcDbEntity
  8
TOP
  6
CONTINUOUS
 62
     3
100
AcDbLine
 10
5.653185999999999
 20
5.457205
 30
0.0
 11
5.653185999999999
 21
3.677204999999999
 31
0.0
  0
LINE
  5
110
330
A
100
AcDbEntity
  8
TOP
  6
CONTINUOUS
 62
     3
100
AcDbLine
 10
19.98818599999999
 20
5.364205
 30
0.0
 11
19.98818599999999
 21
5.312204999999999
 31
0.0
  0
LINE
  5
111
330
A
100
AcDbEntity
  8
TOP
  6
CONTINUOUS
 62
     3
100
AcDbLine
 10
19.19818499999999
 20
4.649205
 30
0.0
 11
18.498186
 21
4.649205
 31
0.0
  0
LINE
  5
112
330
A
100
AcDbEntity
  8
TOP
  6
CONTINUOUS
 62
     3
100
AcDbLine
 10
5.166185999999999
 20
13.751519
 30
0.0
 11
5.166185999999999
 21
13.211519
 31
0.0
  0
LINE
  5
113
330
A
100
AcDbEntity
  8
TOP
  6
CONTINUOUS
 62
     3
100
AcDbLine
 10
18.50402499999999
 20
5.364205
 30
0.0
 11
18.50402499999999
 21
5.312204999999999
 31
0.0
  0
LINE
  5
114
330
A
100
AcDbEntity
  8
TOP
  6
CONTINUOUS
 62
     3
100
AcDbLine
 10
5.166185999999999
 20
32.276184
 30
0.0
 11
5.166185999999999
 21
32.296757
 31
0.0
  0
LINE
  5
115
330
A
100
AcDbEntity
  8
TOP
  6
CONTINUOUS
 62
     3
100
AcDbLine
 10
18.523949
 20
5.364205
 30
0.0
 11
18.51043699999999
 21
5.364205
 31
0.0
  0
LINE
  5
116
330
A
100
AcDbEntity
  8
TOP
  6
CONTINUOUS
 62
     3
100
AcDbLine
 10
18.45318599999999
 20
3.627205
 30
0.0
 11
18.45318599999999
 21
3.677204999999999
 31
0.0
  0
LINE
  5
117
330
A
100
AcDbEntity
  8
TOP
  6
CONTINUOUS
 62
     3
100
AcDbLine
 10
15.317564
 20
22.685898
 30
0.0
 11
13.598807
 21
22.685898
 31
0.0
  0
LINE
  5
118
330
A
100
AcDbEntity
  8
TOP
  6
CONTINUOUS
 62
     3
100
AcDbLine
 10
13.558186
 20
5.913204999999999
 30
0.0
 11
13.558186
 21
5.872205
 31
0.0
  0
LINE
  5
119
330
A
100
AcDbEntity
  8
TOP
  6
CONTINUOUS
 62
     3
100
AcDbLine
 10
15.358186
 20
21.63651799999999
 30
0.0
 11
13.558186
 21
21.63651799999999
 31
0.0
  0
LINE
  5
11A
330
A
100
AcDbEntity
  8
TOP
  6
CONTINUOUS
 62
     3
100
AcDbLine
 10
13.54404399999999
 20
5.916586999999999
 30
0.0
 11
13.558186
 21
5.913204999999999
 31
0.0
  0
LINE
  5
11B
330
A
100
AcDbEntity
  8
TOP
  6
CONTINUOUS
 62
     3
100
AcDbLine
 10
14.865371
 20
22.53652
 30
0.0
 11
14.865371
 21
21.84651899999999
 31
0.0
  0
LINE
  5
11C
330
A
100
AcDbEntity
  8
TOP
  6
CONTINUOUS
 62
     3
100
AcDbLine
 10
15.37232799999999
 20
5.916586999999999
 30
0.0
 11
15.378186
 21
5.913204999999999
 31
0.0
  0
LINE
  5
11D
330
A
100
AcDbEntity
  8
TOP
  6
CONTINUOUS
 62
     3
100
AcDbLine
 10
13.54404399999999
 20
21.64237799999999
 30
0.0
 11
13.558186
 21
21.63651799999999
 31
0.0
  0
LINE
  5
11E
330
A
100
AcDbEntity
  8
TOP
  6
CONTINUOUS
 62
     3
100
AcDbLine
 10
18.188187
 20
5.872205
 30
0.0
 11
18.188187
 21
5.913204999999999
 31
0.0
  0
LINE
  5
11F
330
A
100
AcDbEntity
  8
TOP
  6
CONTINUOUS
 62
     3
100
AcDbLine
 10
13.54404399999999
 20
22.740662
 30
0.0
 11
13.598807
 21
22.685898
 31
0.0
  0
LINE
  5
120
330
A
100
AcDbEntity
  8
TOP
  6
CONTINUOUS
 62
     3
100
AcDbLine
 10
18.202328
 20
5.916586999999999
 30
0.0
 11
18.208185
 21
5.913204999999999
 31
0.0
  0
LINE
  5
121
330
A
100
AcDbEntity
  8
TOP
  6
CONTINUOUS
 62
     3
100
AcDbLine
 10
20.960697
 20
30.631519
 30
0.0
 11
20.98103899999999
 21
30.631519
 31
0.0
  0
LINE
  5
122
330
A
100
AcDbEntity
  8
TOP
  6
CONTINUOUS
 62
     3
100
AcDbLine
 10
15.37232799999999
 20
21.64237799999999
 30
0.0
 11
15.378186
 21
21.65651899999999
 31
0.0
  0
LINE
  5
123
330
A
100
AcDbEntity
  8
TOP
  6
CONTINUOUS
 62
     3
100
AcDbLine
 10
16.374044
 20
5.916586999999999
 30
0.0
 11
16.388186
 21
5.913204999999999
 31
0.0
  0
LINE
  5
124
330
A
100
AcDbEntity
  8
TOP
  6
CONTINUOUS
 62
     3
100
AcDbLine
 10
5.166185999999999
 20
12.073071
 30
0.0
 11
5.166185999999999
 21
12.086281
 31
0.0
  0
LINE
  5
125
330
A
100
AcDbEntity
  8
TOP
  6
CONTINUOUS
 62
     3
100
AcDbLine
 10
5.166185999999999
 20
12.06852
 30
0.0
 11
5.166185999999999
 21
12.073071
 31
0.0
  0
LINE
  5
126
330
A
100
AcDbEntity
  8
TOP
  6
CONTINUOUS
 62
     3
100
AcDbLine
 10
20.998186
 20
2.461778999999999
 30
0.0
 11
20.998186
 21
2.448771999999999
 31
0.0
  0
LINE
  5
127
330
A
100
AcDbEntity
  8
TOP
  6
CONTINUOUS
 62
     3
100
AcDbLine
 10
38.502491
 20
30.631519
 30
0.0
 11
38.50685099999999
 21
30.631519
 31
0.0
  0
LINE
  5
128
330
A
100
AcDbEntity
  8
TOP
  6
CONTINUOUS
 62
     3
100
AcDbLine
 10
5.166185999999999
 20
12.132781
 30
0.0
 11
5.166185999999999
 21
12.161519
 31
0.0
  0
LINE
  5
129
330
A
100
AcDbEntity
  8
TOP
  6
CONTINUOUS
 62
     3
100
AcDbLine
 10
20.935186
 20
2.461778999999999
 30
0.0
 11
20.935186
 21
2.481243999999999
 31
0.0
  0
LINE
  5
12A
330
A
100
AcDbEntity
  8
TOP
  6
CONTINUOUS
 62
     3
100
AcDbLine
 10
4.983056
 20
30.631519
 30
0.0
 11
4.952183999999999
 21
30.631519
 31
0.0
  0
LINE
  5
12B
330
A
100
AcDbEntity
  8
TOP
  6
CONTINUOUS
 62
     3
100
AcDbLine
 10
4.888186
 20
2.448771999999999
 30
0.0
 11
4.888186
 21
2.461778999999999
 31
0.0
  0
LINE
  5
12C
330
A
100
AcDbEntity
  8
TOP
  6
CONTINUOUS
 62
     3
100
AcDbLine
 10
4.892546
 20
30.631519
 30
0.0
 11
4.888186
 21
30.631519
 31
0.0
  0
LINE
  5
12D
330
A
100
AcDbEntity
  8
TOP
  6
CONTINUOUS
 62
     3
100
AcDbLine
 10
4.951185999999999
 20
2.504204999999999
 30
0.0
 11
4.951185999999999
 21
5.744205
 31
0.0
  0
LINE
  5
12E
330
A
100
AcDbEntity
  8
TOP
  6
CONTINUOUS
 62
     3
100
AcDbLine
 10
15.02349099999999
 20
21.83152
 30
0.0
 11
15.028102
 21
21.84651899999999
 31
0.0
  0
LINE
  5
12F
330
A
100
AcDbEntity
  8
TOP
  6
CONTINUOUS
 62
     3
100
AcDbLine
 10
4.951185999999999
 20
2.448771999999999
 30
0.0
 11
4.951185999999999
 21
2.444205
 31
0.0
  0
LINE
  5
130
330
A
100
AcDbEntity
  8
TOP
  6
CONTINUOUS
 62
     3
100
AcDbLine
 10
14.063885
 20
22.57237599999999
 30
0.0
 11
14.063885
 21
22.58651899999999
 31
0.0
  0
LINE
  5
131
330
A
100
AcDbEntity
  8
TOP
  6
CONTINUOUS
 62
     3
100
AcDbLine
 10
5.049185999999999
 20
2.355757
 30
0.0
 11
5.049185999999999
 21
2.368965999999999
 31
0.0
  0
LINE
  5
132
330
A
100
AcDbEntity
  8
TOP
  6
CONTINUOUS
 62
     3
100
AcDbLine
 10
15.035424
 20
22.53652
 30
0.0
 11
15.028102
 21
22.53652
 31
0.0
  0
LINE
  5
133
330
A
100
AcDbEntity
  8
TOP
  6
CONTINUOUS
 62
     3
100
AcDbLine
 10
5.049185999999999
 20
2.351205
 30
0.0
 11
20.837185
 21
2.351205
 31
0.0
  0
LINE
  5
134
330
A
100
AcDbEntity
  8
TOP
  6
CONTINUOUS
 62
     3
100
AcDbLine
 10
20.837185
 20
2.389540999999999
 30
0.0
 11
20.837185
 21
2.415467
 31
0.0
  0
LINE
  5
135
330
A
100
AcDbEntity
  8
TOP
  6
CONTINUOUS
 62
     3
100
AcDbLine
 10
6.964883999999999
 20
5.872205
 30
0.0
 11
6.891967
 21
5.872205
 31
0.0
  0
LINE
  5
136
330
A
100
AcDbEntity
  8
TOP
  6
CONTINUOUS
 62
     3
100
AcDbLine
 10
4.952183999999999
 20
13.211519
 30
0.0
 11
4.925673999999999
 21
13.211519
 31
0.0
  0
LINE
  5
137
330
A
100
AcDbEntity
  8
TOP
  6
CONTINUOUS
 62
     3
100
AcDbLine
 10
14.99368699999999
 20
21.810661
 30
0.0
 11
14.99368699999999
 21
21.81651899999999
 31
0.0
  0
LINE
  5
138
330
A
100
AcDbEntity
  8
TOP
  6
CONTINUOUS
 62
     3
100
AcDbLine
 10
17.483187
 20
3.317204999999999
 30
0.0
 11
17.483187
 21
3.917205
 31
0.0
  0
LINE
  5
139
330
A
100
AcDbEntity
  8
TOP
  6
CONTINUOUS
 62
     3
100
AcDbLine
 10
14.837179
 20
22.53652
 30
0.0
 11
14.837179
 21
22.55151899999999
 31
0.0
  0
LINE
  5
13A
330
A
100
AcDbEntity
  8
TOP
  6
CONTINUOUS
 62
     3
100
AcDbLine
 10
4.983056
 20
13.211519
 30
0.0
 11
4.952183999999999
 21
13.211519
 31
0.0
  0
LINE
  5
13B
330
A
100
AcDbEntity
  8
TOP
  6
CONTINUOUS
 62
     3
100
AcDbLine
 10
16.699476
 20
22.53652
 30
0.0
 11
16.703526
 21
22.555653
 31
0.0
  0
LINE
  5
13C
330
A
100
AcDbEntity
  8
TOP
  6
CONTINUOUS
 62
     3
100
AcDbLine
 10
6.893186
 20
2.657204999999999
 30
0.0
 11
6.893186
 21
2.497205
 31
0.0
  0
LINE
  5
13D
330
A
100
AcDbEntity
  8
TOP
  6
CONTINUOUS
 62
     3
100
AcDbLine
 10
5.016180999999999
 20
30.65152
 30
0.0
 11
5.04931
 21
30.65152
 31
0.0
  0
LINE
  5
13E
330
A
100
AcDbEntity
  8
TOP
  6
CONTINUOUS
 62
     3
100
AcDbLine
 10
5.666185999999999
 20
31.59082
 30
0.0
 11
5.666185999999999
 21
31.71452
 31
0.0
  0
LINE
  5
13F
330
A
100
AcDbEntity
  8
TOP
  6
CONTINUOUS
 62
     3
100
AcDbLine
 10
15.046896
 20
22.53652
 30
0.0
 11
15.035424
 21
22.53652
 31
0.0
  0
LINE
  5
140
330
A
100
AcDbEntity
  8
TOP
  6
CONTINUOUS
 62
     3
100
AcDbLine
 10
4.925673999999999
 20
12.711519
 30
0.0
 11
4.905332999999999
 21
12.711519
 31
0.0
  0
LINE
  5
141
330
A
100
AcDbEntity
  8
TOP
  6
CONTINUOUS
 62
     3
100
AcDbLine
 10
6.393186
 20
2.657204999999999
 30
0.0
 11
6.393186
 21
2.497205
 31
0.0
  0
LINE
  5
142
330
A
100
AcDbEntity
  8
TOP
  6
CONTINUOUS
 62
     3
100
AcDbLine
 10
7.535716999999999
 20
31.615561
 30
0.0
 11
7.535716999999999
 21
31.689779
 31
0.0
  0
LINE
  5
143
330
A
100
AcDbEntity
  8
TOP
  6
CONTINUOUS
 62
     3
100
AcDbLine
 10
41.495853
 20
12.18401899999999
 30
0.0
 11
41.305855
 21
12.190654
 31
0.0
  0
LINE
  5
144
330
A
100
AcDbEntity
  8
TOP
  6
CONTINUOUS
 62
     3
100
AcDbLine
 10
5.016186
 20
14.251519
 30
0.0
 11
4.983056
 21
14.251519
 31
0.0
  0
LINE
  5
145
330
A
100
AcDbEntity
  8
TOP
  6
CONTINUOUS
 62
     3
100
AcDbLine
 10
7.461497999999999
 20
31.71452
 30
0.0
 11
7.435457
 21
31.689779
 31
0.0
  0
LINE
  5
146
330
A
100
AcDbEntity
  8
TOP
  6
CONTINUOUS
 62
     3
100
AcDbLine
 10
38.313854
 20
30.651539
 30
0.0
 11
38.313854
 21
30.63154
 31
0.0
  0
LINE
  5
147
330
A
100
AcDbEntity
  8
TOP
  6
CONTINUOUS
 62
     3
100
AcDbLine
 10
7.671915
 20
31.71452
 30
0.0
 11
7.671915
 21
31.59082
 31
0.0
  0
LINE
  5
148
330
A
100
AcDbEntity
  8
TOP
  6
CONTINUOUS
 62
     3
100
AcDbLine
 10
16.732323
 20
21.800325
 30
0.0
 11
16.71506099999999
 21
21.811163
 31
0.0
  0
LINE
  5
149
330
A
100
AcDbEntity
  8
TOP
  6
CONTINUOUS
 62
     3
100
AcDbLine
 10
20.905186
 20
2.414204999999999
 30
0.0
 11
20.837185
 21
2.414204999999999
 31
0.0
  0
LINE
  5
14A
330
A
100
AcDbEntity
  8
TOP
  6
CONTINUOUS
 62
     3
100
AcDbLine
 10
6.780509
 20
31.59082
 30
0.0
 11
6.829988
 21
31.59082
 31
0.0
  0
LINE
  5
14B
330
A
100
AcDbEntity
  8
TOP
  6
CONTINUOUS
 62
     3
100
AcDbLine
 10
40.59719799999999
 20
12.18401899999999
 30
0.0
 11
40.50585199999999
 21
12.18401899999999
 31
0.0
  0
LINE
  5
14C
330
A
100
AcDbEntity
  8
TOP
  6
CONTINUOUS
 62
     3
100
AcDbLine
 10
38.443851
 20
13.211517
 30
0.0
 11
38.443851
 21
13.231516
 31
0.0
  0
LINE
  5
14D
330
A
100
AcDbEntity
  8
TOP
  6
CONTINUOUS
 62
     3
100
AcDbLine
 10
20.905186
 20
2.351205
 30
0.0
 11
20.905186
 21
2.414204999999999
 31
0.0
  0
LINE
  5
14E
330
A
100
AcDbEntity
  8
TOP
  6
CONTINUOUS
 62
     3
100
AcDbLine
 10
6.754466999999999
 20
31.689779
 30
0.0
 11
6.754466999999999
 21
31.615561
 31
0.0
  0
LINE
  5
14F
330
A
100
AcDbEntity
  8
TOP
  6
CONTINUOUS
 62
     3
100
AcDbLine
 10
38.50685099999999
 20
13.751519
 30
0.0
 11
38.50685099999999
 21
14.251519
 31
0.0
  0
LINE
  5
150
330
A
100
AcDbEntity
  8
TOP
  6
CONTINUOUS
 62
     3
100
AcDbLine
 10
40.831242
 20
12.190654
 30
0.0
 11
40.90585299999999
 21
12.190654
 31
0.0
  0
LINE
  5
151
330
A
100
AcDbEntity
  8
TOP
  6
CONTINUOUS
 62
     3
100
AcDbLine
 10
6.234415
 20
31.59082
 30
0.0
 11
6.283894
 21
31.59082
 31
0.0
  0
LINE
  5
152
330
A
100
AcDbEntity
  8
TOP
  6
CONTINUOUS
 62
     3
100
AcDbLine
 10
38.25085399999999
 20
32.191521
 30
0.0
 11
38.25085399999999
 21
31.691519
 31
0.0
  0
LINE
  5
153
330
A
100
AcDbEntity
  8
TOP
  6
CONTINUOUS
 62
     3
100
AcDbLine
 10
20.865925
 20
5.594204999999999
 30
0.0
 11
20.89185
 21
5.594204999999999
 31
0.0
  0
LINE
  5
154
330
A
100
AcDbEntity
  8
TOP
  6
CONTINUOUS
 62
     3
100
AcDbLine
 10
6.829988
 20
31.71452
 30
0.0
 11
6.780509
 21
31.71452
 31
0.0
  0
LINE
  5
155
330
A
100
AcDbEntity
  8
TOP
  6
CONTINUOUS
 62
     3
100
AcDbLine
 10
18.202328
 20
22.740662
 30
0.0
 11
18.147564
 21
22.685898
 31
0.0
  0
LINE
  5
156
330
A
100
AcDbEntity
  8
TOP
  6
CONTINUOUS
 62
     3
100
AcDbLine
 10
20.930185
 20
2.444205
 30
0.0
 11
20.930185
 21
5.594204999999999
 31
0.0
  0
LINE
  5
157
330
A
100
AcDbEntity
  8
TOP
  6
CONTINUOUS
 62
     3
100
AcDbLine
 10
5.851862999999999
 20
31.71452
 30
0.0
 11
5.901341999999999
 21
31.59082
 31
0.0
  0
LINE
  5
158
330
A
100
AcDbEntity
  8
TOP
  6
CONTINUOUS
 62
     3
100
AcDbLine
 10
38.25085399999999
 20
31.615561
 30
0.0
 11
38.25085399999999
 21
31.689779
 31
0.0
  0
LINE
  5
159
330
A
100
AcDbEntity
  8
TOP
  6
CONTINUOUS
 62
     3
100
AcDbLine
 10
4.973946999999999
 20
2.444205
 30
0.0
 11
4.960738
 21
2.444205
 31
0.0
  0
LINE
  5
15A
330
A
100
AcDbEntity
  8
TOP
  6
CONTINUOUS
 62
     3
100
AcDbLine
 10
6.147695999999999
 20
31.59082
 30
0.0
 11
6.173738
 21
31.615561
 31
0.0
  0
LINE
  5
15B
330
A
100
AcDbEntity
  8
TOP
  6
CONTINUOUS
 62
     3
100
AcDbLine
 10
16.428808
 20
21.697142
 30
0.0
 11
16.374044
 21
21.64237799999999
 31
0.0
  0
LINE
  5
15C
330
A
100
AcDbEntity
  8
TOP
  6
CONTINUOUS
 62
     3
100
AcDbLine
 10
4.973946999999999
 20
5.594204999999999
 30
0.0
 11
4.994521999999999
 21
5.594204999999999
 31
0.0
  0
LINE
  5
15D
330
A
100
AcDbEntity
  8
TOP
  6
CONTINUOUS
 62
     3
100
AcDbLine
 10
14.063885
 20
21.81651899999999
 30
0.0
 11
14.99368699999999
 21
21.81651899999999
 31
0.0
  0
LINE
  5
15E
330
A
100
AcDbEntity
  8
TOP
  6
CONTINUOUS
 62
     3
100
AcDbLine
 10
38.25085399999999
 20
31.615561
 30
0.0
 11
38.25085399999999
 21
31.59082
 31
0.0
  0
LINE
  5
15F
330
A
100
AcDbEntity
  8
TOP
  6
CONTINUOUS
 62
     3
100
AcDbLine
 10
38.25085399999999
 20
31.689779
 30
0.0
 11
38.25085399999999
 21
31.71452
 31
0.0
  0
LINE
  5
160
330
A
100
AcDbEntity
  8
TOP
  6
CONTINUOUS
 62
     3
100
AcDbLine
 10
20.998186
 20
2.444205
 30
0.0
 11
20.935186
 21
2.444205
 31
0.0
  0
LINE
  5
161
330
A
100
AcDbEntity
  8
TOP
  6
CONTINUOUS
 62
     3
100
AcDbLine
 10
15.014049
 20
21.800325
 30
0.0
 11
14.99368699999999
 21
21.79651799999999
 31
0.0
  0
LINE
  5
162
330
A
100
AcDbEntity
  8
TOP
  6
CONTINUOUS
 62
     3
100
AcDbLine
 10
38.25085399999999
 20
31.59082
 30
0.0
 11
38.25085399999999
 21
31.71452
 31
0.0
  0
LINE
  5
163
330
A
100
AcDbEntity
  8
TOP
  6
CONTINUOUS
 62
     3
100
AcDbLine
 10
4.888186
 20
2.504204999999999
 30
0.0
 11
4.951185999999999
 21
2.504204999999999
 31
0.0
  0
LINE
  5
164
330
A
100
AcDbEntity
  8
TOP
  6
CONTINUOUS
 62
     3
100
AcDbLine
 10
38.25085399999999
 20
31.665039
 30
0.0
 11
38.25085399999999
 21
31.65332
 31
0.0
  0
LINE
  5
165
330
A
100
AcDbEntity
  8
TOP
  6
CONTINUOUS
 62
     3
100
AcDbLine
 10
14.016062
 20
22.555653
 30
0.0
 11
14.027283
 21
22.571875
 31
0.0
  0
LINE
  5
166
330
A
100
AcDbEntity
  8
TOP
  6
CONTINUOUS
 62
     3
100
AcDbLine
 10
4.952182999999999
 20
31.691519
 30
0.0
 11
4.983054
 21
31.691519
 31
0.0
  0
LINE
  5
167
330
A
100
AcDbEntity
  8
TOP
  6
CONTINUOUS
 62
     3
100
AcDbLine
 10
6.618189
 20
3.677204999999999
 30
0.0
 11
6.668182999999999
 21
3.677204999999999
 31
0.0
  0
LINE
  5
168
330
A
100
AcDbEntity
  8
TOP
  6
CONTINUOUS
 62
     3
100
AcDbLine
 10
14.99368699999999
 20
22.58651899999999
 30
0.0
 11
15.014049
 21
22.58271399999999
 31
0.0
  0
LINE
  5
169
330
A
100
AcDbEntity
  8
TOP
  6
CONTINUOUS
 62
     3
100
AcDbLine
 10
38.25085399999999
 20
31.615561
 30
0.0
 11
38.25085399999999
 21
31.59082
 31
0.0
  0
LINE
  5
16A
330
A
100
AcDbEntity
  8
TOP
  6
CONTINUOUS
 62
     3
100
AcDbLine
 10
15.905186
 20
5.794204999999999
 30
0.0
 11
15.841187
 21
5.794204999999999
 31
0.0
  0
LINE
  5
16B
330
A
100
AcDbEntity
  8
TOP
  6
CONTINUOUS
 62
     3
100
AcDbLine
 10
17.71058499999999
 20
22.55151899999999
 30
0.0
 11
17.698709
 21
22.5625
 31
0.0
  0
LINE
  5
16C
330
A
100
AcDbEntity
  8
TOP
  6
CONTINUOUS
 62
     3
100
AcDbLine
 10
38.25085399999999
 20
31.689779
 30
0.0
 11
38.25085399999999
 21
31.71452
 31
0.0
  0
LINE
  5
16D
330
A
100
AcDbEntity
  8
TOP
  6
CONTINUOUS
 62
     3
100
AcDbLine
 10
38.443851
 20
30.63154
 30
0.0
 11
38.443851
 21
30.651539
 31
0.0
  0
LINE
  5
16E
330
A
100
AcDbEntity
  8
TOP
  6
CONTINUOUS
 62
     3
100
AcDbLine
 10
16.895096
 20
22.5625
 30
0.0
 11
16.909191
 21
22.566519
 31
0.0
  0
LINE
  5
16F
330
A
100
AcDbEntity
  8
TOP
  6
CONTINUOUS
 62
     3
100
AcDbLine
 10
38.25085399999999
 20
31.59082
 30
0.0
 11
38.25085399999999
 21
31.615561
 31
0.0
  0
LINE
  5
170
330
A
100
AcDbEntity
  8
TOP
  6
CONTINUOUS
 62
     3
100
AcDbLine
 10
8.452835999999999
 20
3.612731
 30
0.0
 11
8.503085
 21
3.612731
 31
0.0
  0
LINE
  5
171
330
A
100
AcDbEntity
  8
TOP
  6
CONTINUOUS
 62
     3
100
AcDbLine
 10
14.032122
 20
21.84651899999999
 30
0.0
 11
14.026263
 21
21.84651899999999
 31
0.0
  0
LINE
  5
172
330
A
100
AcDbEntity
  8
TOP
  6
CONTINUOUS
 62
     3
100
AcDbLine
 10
40.49585299999999
 20
12.096519
 30
0.0
 11
40.50585199999999
 21
12.096519
 31
0.0
  0
LINE
  5
173
330
A
100
AcDbEntity
  8
TOP
  6
CONTINUOUS
 62
     3
100
AcDbLine
 10
8.452864999999999
 20
3.584204999999999
 30
0.0
 11
8.503061
 21
3.584204999999999
 31
0.0
  0
LINE
  5
174
330
A
100
AcDbEntity
  8
TOP
  6
CONTINUOUS
 62
     3
100
AcDbLine
 10
41.458061
 20
12.096519
 30
0.0
 11
41.429001
 21
12.096519
 31
0.0
  0
LINE
  5
175
330
A
100
AcDbEntity
  8
TOP
  6
CONTINUOUS
 62
     3
100
AcDbLine
 10
8.452773
 20
3.527152
 30
0.0
 11
8.503154999999999
 21
3.527152
 31
0.0
  0
LINE
  5
176
330
A
100
AcDbEntity
  8
TOP
  6
CONTINUOUS
 62
     3
100
AcDbLine
 10
41.29589099999999
 20
12.096519
 30
0.0
 11
41.237473
 21
12.096519
 31
0.0
  0
LINE
  5
177
330
A
100
AcDbEntity
  8
TOP
  6
CONTINUOUS
 62
     3
100
AcDbLine
 10
20.720186
 20
5.779205
 30
0.0
 11
20.720186
 21
5.642204999999999
 31
0.0
  0
LINE
  5
178
330
A
100
AcDbEntity
  8
TOP
  6
CONTINUOUS
 62
     3
100
AcDbLine
 10
41.02701999999999
 20
12.096519
 30
0.0
 11
40.947132
 21
12.096519
 31
0.0
  0
LINE
  5
179
330
A
100
AcDbEntity
  8
TOP
  6
CONTINUOUS
 62
     3
100
AcDbLine
 10
20.720186
 20
5.833868999999999
 30
0.0
 11
20.720186
 21
5.807943999999999
 31
0.0
  0
LINE
  5
17A
330
A
100
AcDbEntity
  8
TOP
  6
CONTINUOUS
 62
     3
100
AcDbLine
 10
4.892546
 20
13.211519
 30
0.0
 11
4.888186
 21
13.211519
 31
0.0
  0
LINE
  5
17B
330
A
100
AcDbEntity
  8
TOP
  6
CONTINUOUS
 62
     3
100
AcDbLine
 10
40.68776299999999
 20
12.096519
 30
0.0
 11
40.59719799999999
 21
12.096519
 31
0.0
  0
LINE
  5
17C
330
A
100
AcDbEntity
  8
TOP
  6
CONTINUOUS
 62
     3
100
AcDbLine
 10
20.720186
 20
5.809205
 30
0.0
 11
20.75992
 21
5.809205
 31
0.0
  0
LINE
  5
17D
330
A
100
AcDbEntity
  8
TOP
  6
CONTINUOUS
 62
     3
100
AcDbLine
 10
38.65171099999999
 20
12.096519
 30
0.0
 11
38.645851
 21
12.096519
 31
0.0
  0
LINE
  5
17E
330
A
100
AcDbEntity
  8
TOP
  6
CONTINUOUS
 62
     3
100
AcDbLine
 10
15.905186
 20
5.833868999999999
 30
0.0
 11
15.905186
 21
5.807943999999999
 31
0.0
  0
LINE
  5
17F
330
A
100
AcDbEntity
  8
TOP
  6
CONTINUOUS
 62
     3
100
AcDbLine
 10
41.458061
 20
12.18401899999999
 30
0.0
 11
41.429001
 21
12.18401899999999
 31
0.0
  0
LINE
  5
180
330
A
100
AcDbEntity
  8
TOP
  6
CONTINUOUS
 62
     3
100
AcDbLine
 10
41.29589099999999
 20
12.18401899999999
 30
0.0
 11
41.237473
 21
12.18401899999999
 31
0.0
  0
LINE
  5
181
330
A
100
AcDbEntity
  8
TOP
  6
CONTINUOUS
 62
     3
100
AcDbLine
 10
20.981037
 20
13.231519
 30
0.0
 11
20.960697
 21
13.231519
 31
0.0
  0
LINE
  5
182
330
A
100
AcDbEntity
  8
TOP
  6
CONTINUOUS
 62
     3
100
AcDbLine
 10
41.02701999999999
 20
12.18401899999999
 30
0.0
 11
40.947132
 21
12.18401899999999
 31
0.0
  0
LINE
  5
183
330
A
100
AcDbEntity
  8
TOP
  6
CONTINUOUS
 62
     3
100
AcDbLine
 10
4.888186
 20
5.749204999999999
 30
0.0
 11
4.888186
 21
5.744203999999999
 31
0.0
  0
LINE
  5
184
330
A
100
AcDbEntity
  8
TOP
  6
CONTINUOUS
 62
     3
100
AcDbLine
 10
40.68776299999999
 20
12.18401899999999
 30
0.0
 11
40.59719799999999
 21
12.18401899999999
 31
0.0
  0
LINE
  5
185
330
A
100
AcDbEntity
  8
TOP
  6
CONTINUOUS
 62
     3
100
AcDbLine
 10
15.841186
 20
5.872205
 30
0.0
 11
15.841186
 21
5.867652999999999
 31
0.0
  0
LINE
  5
186
330
A
100
AcDbEntity
  8
TOP
  6
CONTINUOUS
 62
     3
100
AcDbLine
 10
38.645851
 20
12.096519
 30
0.0
 11
38.645851
 21
12.184717
 31
0.0
  0
LINE
  5
187
330
A
100
AcDbEntity
  8
TOP
  6
CONTINUOUS
 62
     3
100
AcDbLine
 10
15.841186
 20
5.807943999999999
 30
0.0
 11
15.841186
 21
5.779205
 31
0.0
  0
LINE
  5
188
330
A
100
AcDbEntity
  8
TOP
  6
CONTINUOUS
 62
     3
100
AcDbLine
 10
40.44585399999999
 20
12.096519
 30
0.0
 11
40.44585399999999
 21
12.121519
 31
0.0
  0
LINE
  5
189
330
A
100
AcDbEntity
  8
TOP
  6
CONTINUOUS
 62
     3
100
AcDbLine
 10
38.645851
 20
12.190654
 30
0.0
 11
40.50585199999999
 21
12.190654
 31
0.0
  0
LINE
  5
18A
330
A
100
AcDbEntity
  8
TOP
  6
CONTINUOUS
 62
     3
100
AcDbLine
 10
5.296185999999999
 20
5.512204999999999
 30
0.0
 11
15.711185
 21
5.512204999999999
 31
0.0
  0
LINE
  5
18B
330
A
100
AcDbEntity
  8
TOP
  6
CONTINUOUS
 62
     3
100
AcDbLine
 10
40.753067
 20
12.190654
 30
0.0
 11
40.831242
 21
12.190654
 31
0.0
  0
LINE
  5
18C
330
A
100
AcDbEntity
  8
TOP
  6
CONTINUOUS
 62
     3
100
AcDbLine
 10
41.041157
 20
12.190654
 30
0.0
 11
41.100368
 21
12.190654
 31
0.0
  0
LINE
  5
18D
330
A
100
AcDbEntity
  8
TOP
  6
CONTINUOUS
 62
     3
100
AcDbLine
 10
41.23669099999999
 20
12.190654
 30
0.0
 11
41.26669699999999
 21
12.190654
 31
0.0
  0
LINE
  5
18E
330
A
100
AcDbEntity
  8
TOP
  6
CONTINUOUS
 62
     3
100
AcDbLine
 10
38.665852
 20
12.18401899999999
 30
0.0
 11
38.65171099999999
 21
12.184224
 31
0.0
  0
LINE
  5
18F
330
A
100
AcDbEntity
  8
TOP
  6
CONTINUOUS
 62
     3
100
AcDbLine
 10
20.960697
 20
13.231519
 30
0.0
 11
20.934189
 21
13.231519
 31
0.0
  0
LINE
  5
190
330
A
100
AcDbEntity
  8
TOP
  6
CONTINUOUS
 62
     3
100
AcDbLine
 10
38.61585199999999
 20
21.69652
 30
0.0
 11
38.50085399999999
 21
21.69652
 31
0.0
  0
LINE
  5
191
330
A
100
AcDbEntity
  8
TOP
  6
CONTINUOUS
 62
     3
100
AcDbLine
 10
38.500858
 20
21.70652
 30
0.0
 11
38.61584899999999
 21
21.70652
 31
0.0
  0
LINE
  5
192
330
A
100
AcDbEntity
  8
TOP
  6
CONTINUOUS
 62
     3
100
AcDbLine
 10
13.538186
 20
21.65651899999999
 30
0.0
 11
13.538186
 21
22.726519
 31
0.0
  0
LINE
  5
193
330
A
100
AcDbEntity
  8
TOP
  6
CONTINUOUS
 62
     3
100
AcDbLine
 10
38.20647
 20
21.64237799999999
 30
0.0
 11
38.174854
 21
21.697142
 31
0.0
  0
LINE
  5
194
330
A
100
AcDbEntity
  8
TOP
  6
CONTINUOUS
 62
     3
100
AcDbLine
 10
38.502491
 20
13.751519
 30
0.0
 11
38.50685099999999
 21
13.751519
 31
0.0
  0
LINE
  5
195
330
A
100
AcDbEntity
  8
TOP
  6
CONTINUOUS
 62
     3
100
AcDbLine
 10
38.37885299999999
 20
31.15152
 30
0.0
 11
38.543854
 21
31.15152
 31
0.0
  0
LINE
  5
196
330
A
100
AcDbEntity
  8
TOP
  6
CONTINUOUS
 62
     3
100
AcDbLine
 10
38.37885299999999
 20
13.731519
 30
0.0
 11
38.61585199999999
 21
13.731519
 31
0.0
  0
LINE
  5
197
330
A
100
AcDbEntity
  8
TOP
  6
CONTINUOUS
 62
     3
100
AcDbLine
 10
38.37885299999999
 20
12.69151899999999
 30
0.0
 11
38.543854
 21
12.69151899999999
 31
0.0
  0
LINE
  5
198
330
A
100
AcDbEntity
  8
TOP
  6
CONTINUOUS
 62
     3
100
AcDbLine
 10
41.67885199999999
 20
12.251519
 30
0.0
 11
41.67885199999999
 21
12.284519
 31
0.0
  0
LINE
  5
199
330
A
100
AcDbEntity
  8
TOP
  6
CONTINUOUS
 62
     3
100
AcDbLine
 10
41.618855
 20
32.191521
 30
0.0
 11
38.37885299999999
 21
32.191521
 31
0.0
  0
LINE
  5
19A
330
A
100
AcDbEntity
  8
TOP
  6
CONTINUOUS
 62
     3
100
AcDbLine
 10
15.035424
 20
21.84651899999999
 30
0.0
 11
15.028102
 21
21.84651899999999
 31
0.0
  0
LINE
  5
19B
330
A
100
AcDbEntity
  8
TOP
  6
CONTINUOUS
 62
     3
100
AcDbLine
 10
41.67885199999999
 20
32.191521
 30
0.0
 11
41.618805
 21
32.191521
 31
0.0
  0
LINE
  5
19C
330
A
100
AcDbEntity
  8
TOP
  6
CONTINUOUS
 62
     3
100
AcDbLine
 10
41.67885199999999
 20
12.207974
 30
0.0
 11
41.67885199999999
 21
12.22714999999999
 31
0.0
  0
LINE
  5
19D
330
A
100
AcDbEntity
  8
TOP
  6
CONTINUOUS
 62
     3
100
AcDbLine
 10
41.67885199999999
 20
32.17506399999999
 30
0.0
 11
41.67885199999999
 21
32.15588799999999
 31
0.0
  0
LINE
  5
19E
330
A
100
AcDbEntity
  8
TOP
  6
CONTINUOUS
 62
     3
100
AcDbLine
 10
41.754093
 20
32.098518
 30
0.0
 11
41.733517
 21
32.098518
 31
0.0
  0
LINE
  5
19F
330
A
100
AcDbEntity
  8
TOP
  6
CONTINUOUS
 62
     3
100
AcDbLine
 10
41.7673
 20
12.284519
 30
0.0
 11
41.754093
 21
12.284519
 31
0.0
  0
LINE
  5
1A0
330
A
100
AcDbEntity
  8
TOP
  6
CONTINUOUS
 62
     3
100
AcDbLine
 10
38.268002
 20
12.69151899999999
 30
0.0
 11
38.255215
 21
12.69151899999999
 31
0.0
  0
LINE
  5
1A1
330
A
100
AcDbEntity
  8
TOP
  6
CONTINUOUS
 62
     3
100
AcDbLine
 10
14.865371
 20
21.84651899999999
 30
0.0
 11
14.86159299999999
 21
21.83152
 31
0.0
  0
LINE
  5
1A2
330
A
100
AcDbEntity
  8
TOP
  6
CONTINUOUS
 62
     3
100
AcDbLine
 10
38.37885299999999
 20
13.731519
 30
0.0
 11
38.345722
 21
13.731519
 31
0.0
  0
LINE
  5
1A3
330
A
100
AcDbEntity
  8
TOP
  6
CONTINUOUS
 62
     3
100
AcDbLine
 10
38.268002
 20
13.731519
 30
0.0
 11
38.255215
 21
13.731519
 31
0.0
  0
LINE
  5
1A4
330
A
100
AcDbEntity
  8
TOP
  6
CONTINUOUS
 62
     3
100
AcDbLine
 10
4.951185999999999
 20
31.69150399999999
 30
0.0
 11
4.951185999999999
 21
31.67150499999999
 31
0.0
  0
LINE
  5
1A5
330
A
100
AcDbEntity
  8
TOP
  6
CONTINUOUS
 62
     3
100
AcDbLine
 10
38.31485
 20
13.231519
 30
0.0
 11
38.288342
 21
13.231519
 31
0.0
  0
LINE
  5
1A6
330
A
100
AcDbEntity
  8
TOP
  6
CONTINUOUS
 62
     3
100
AcDbLine
 10
5.081185999999999
 20
31.15152399999999
 30
0.0
 11
5.081185999999999
 21
31.17152
 31
0.0
  0
LINE
  5
1A7
330
A
100
AcDbEntity
  8
TOP
  6
CONTINUOUS
 62
     3
100
AcDbLine
 10
38.37885299999999
 20
31.15152
 30
0.0
 11
38.345722
 21
31.15152
 31
0.0
  0
LINE
  5
1A8
330
A
100
AcDbEntity
  8
TOP
  6
CONTINUOUS
 62
     3
100
AcDbLine
 10
20.99382599999999
 20
31.171518
 30
0.0
 11
20.998186
 21
31.171518
 31
0.0
  0
LINE
  5
1A9
330
A
100
AcDbEntity
  8
TOP
  6
CONTINUOUS
 62
     3
100
AcDbLine
 10
38.268002
 20
31.15152
 30
0.0
 11
38.255215
 21
31.15152
 31
0.0
  0
LINE
  5
1AA
330
A
100
AcDbEntity
  8
TOP
  6
CONTINUOUS
 62
     3
100
AcDbLine
 10
38.31485
 20
30.65152
 30
0.0
 11
38.288342
 21
30.65152
 31
0.0
  0
LINE
  5
1AB
330
A
100
AcDbEntity
  8
TOP
  6
CONTINUOUS
 62
     3
100
AcDbLine
 10
38.37885299999999
 20
32.191521
 30
0.0
 11
38.345722
 21
32.191521
 31
0.0
  0
LINE
  5
1AC
330
A
100
AcDbEntity
  8
TOP
  6
CONTINUOUS
 62
     3
100
AcDbLine
 10
38.268002
 20
32.191521
 30
0.0
 11
38.255215
 21
32.191521
 31
0.0
  0
LINE
  5
1AD
330
A
100
AcDbEntity
  8
TOP
  6
CONTINUOUS
 62
     3
100
AcDbLine
 10
38.31485
 20
31.691519
 30
0.0
 11
38.288342
 21
31.691519
 31
0.0
  0
LINE
  5
1AE
330
A
100
AcDbEntity
  8
TOP
  6
CONTINUOUS
 62
     3
100
AcDbLine
 10
38.328854
 20
30.131516
 30
0.0
 11
38.328854
 21
30.01132
 31
0.0
  0
LINE
  5
1AF
330
A
100
AcDbEntity
  8
TOP
  6
CONTINUOUS
 62
     3
100
AcDbLine
 10
14.063885
 20
21.810661
 30
0.0
 11
14.063885
 21
21.79651799999999
 31
0.0
  0
LINE
  5
1B0
330
A
100
AcDbEntity
  8
TOP
  6
CONTINUOUS
 62
     3
100
AcDbLine
 10
38.421852
 20
30.131516
 30
0.0
 11
38.421852
 21
30.01132
 31
0.0
  0
LINE
  5
1B1
330
A
100
AcDbEntity
  8
TOP
  6
CONTINUOUS
 62
     3
100
AcDbLine
 10
38.26733
 20
30.011518
 30
0.0
 11
38.28687999999999
 21
30.011518
 31
0.0
  0
LINE
  5
1B2
330
A
100
AcDbEntity
  8
TOP
  6
CONTINUOUS
 62
     3
100
AcDbLine
 10
38.37385199999999
 20
30.011518
 30
0.0
 11
38.44085299999999
 21
30.011518
 31
0.0
  0
LINE
  5
1B3
330
A
100
AcDbEntity
  8
TOP
  6
CONTINUOUS
 62
     3
100
AcDbLine
 10
38.312351
 20
14.37151899999999
 30
0.0
 11
38.28687999999999
 21
14.37151899999999
 31
0.0
  0
LINE
  5
1B4
330
A
100
AcDbEntity
  8
TOP
  6
CONTINUOUS
 62
     3
100
AcDbLine
 10
38.25085399999999
 20
30.631519
 30
0.0
 11
38.25085399999999
 21
30.651524
 31
0.0
  0
LINE
  5
1B5
330
A
100
AcDbEntity
  8
TOP
  6
CONTINUOUS
 62
     3
100
AcDbLine
 10
38.480854
 20
12.131519
 30
0.0
 11
38.343853
 21
12.131519
 31
0.0
  0
LINE
  5
1B6
330
A
100
AcDbEntity
  8
TOP
  6
CONTINUOUS
 62
     3
100
AcDbLine
 10
38.25085399999999
 20
12.691513
 30
0.0
 11
38.25085399999999
 21
12.711519
 31
0.0
  0
LINE
  5
1B7
330
A
100
AcDbEntity
  8
TOP
  6
CONTINUOUS
 62
     3
100
AcDbLine
 10
38.25085399999999
 20
30.011518
 30
0.0
 11
38.25085399999999
 21
30.016087
 31
0.0
  0
LINE
  5
1B8
330
A
100
AcDbEntity
  8
TOP
  6
CONTINUOUS
 62
     3
100
AcDbLine
 10
4.892546
 20
12.711519
 30
0.0
 11
4.888186
 21
12.711519
 31
0.0
  0
LINE
  5
1B9
330
A
100
AcDbEntity
  8
TOP
  6
CONTINUOUS
 62
     3
100
AcDbLine
 10
40.49585299999999
 20
12.121519
 30
0.0
 11
40.44585399999999
 21
12.121519
 31
0.0
  0
LINE
  5
1BA
330
A
100
AcDbEntity
  8
TOP
  6
CONTINUOUS
 62
     3
100
AcDbLine
 10
5.928186
 20
5.294456
 30
0.0
 11
5.928186
 21
5.307967999999999
 31
0.0
  0
LINE
  5
1BB
330
A
100
AcDbEntity
  8
TOP
  6
CONTINUOUS
 62
     3
100
AcDbLine
 10
41.495853
 20
12.096519
 30
0.0
 11
41.495853
 21
12.18401899999999
 31
0.0
  0
LINE
  5
1BC
330
A
100
AcDbEntity
  8
TOP
  6
CONTINUOUS
 62
     3
100
AcDbLine
 10
16.735477
 20
22.5625
 30
0.0
 11
16.722881
 21
22.55151899999999
 31
0.0
  0
LINE
  5
1BD
330
A
100
AcDbEntity
  8
TOP
  6
CONTINUOUS
 62
     3
100
AcDbLine
 10
17.682487
 20
21.81651899999999
 30
0.0
 11
17.682487
 21
21.810661
 31
0.0
  0
LINE
  5
1BE
330
A
100
AcDbEntity
  8
TOP
  6
CONTINUOUS
 62
     3
100
AcDbLine
 10
16.699476
 20
21.84651899999999
 30
0.0
 11
16.710947
 21
21.84651899999999
 31
0.0
  0
LINE
  5
1BF
330
A
100
AcDbEntity
  8
TOP
  6
CONTINUOUS
 62
     3
100
AcDbLine
 10
5.139821999999999
 20
32.191521
 30
0.0
 11
5.144186
 21
32.191521
 31
0.0
  0
LINE
  5
1C0
330
A
100
AcDbEntity
  8
TOP
  6
CONTINUOUS
 62
     3
100
AcDbLine
 10
16.699476
 20
22.53652
 30
0.0
 11
16.710947
 21
22.53652
 31
0.0
  0
LINE
  5
1C1
330
A
100
AcDbEntity
  8
TOP
  6
CONTINUOUS
 62
     3
100
AcDbLine
 10
19.98818599999999
 20
5.169204999999999
 30
0.0
 11
19.98818599999999
 21
3.940026
 31
0.0
  0
LINE
  5
1C2
330
A
100
AcDbEntity
  8
TOP
  6
CONTINUOUS
 62
     3
100
AcDbLine
 10
16.752686
 20
22.58651899999999
 30
0.0
 11
16.752686
 21
22.57237599999999
 31
0.0
  0
LINE
  5
1C3
330
A
100
AcDbEntity
  8
TOP
  6
CONTINUOUS
 62
     3
100
AcDbLine
 10
16.909191
 20
22.5625
 30
0.0
 11
16.909191
 21
22.566519
 31
0.0
  0
LINE
  5
1C4
330
A
100
AcDbEntity
  8
TOP
  6
CONTINUOUS
 62
     3
100
AcDbLine
 10
16.89198499999999
 20
21.84651899999999
 30
0.0
 11
16.881001
 21
21.84651899999999
 31
0.0
  0
LINE
  5
1C5
330
A
100
AcDbEntity
  8
TOP
  6
CONTINUOUS
 62
     3
100
AcDbLine
 10
20.998186
 20
31.15152
 30
0.0
 11
20.998186
 21
31.171524
 31
0.0
  0
LINE
  5
1C6
330
A
100
AcDbEntity
  8
TOP
  6
CONTINUOUS
 62
     3
100
AcDbLine
 10
20.998186
 20
14.251545
 30
0.0
 11
20.998186
 21
14.371571
 31
0.0
  0
LINE
  5
1C7
330
A
100
AcDbEntity
  8
TOP
  6
CONTINUOUS
 62
     3
100
AcDbLine
 10
20.998186
 20
12.69151899999999
 30
0.0
 11
20.998186
 21
12.711524
 31
0.0
  0
LINE
  5
1C8
330
A
100
AcDbEntity
  8
TOP
  6
CONTINUOUS
 62
     3
100
AcDbLine
 10
20.935186
 20
30.131493
 30
0.0
 11
20.935186
 21
30.011467
 31
0.0
  0
LINE
  5
1C9
330
A
100
AcDbEntity
  8
TOP
  6
CONTINUOUS
 62
     3
100
AcDbLine
 10
4.888186
 20
14.371571
 30
0.0
 11
4.888186
 21
14.251545
 31
0.0
  0
LINE
  5
1CA
330
A
100
AcDbEntity
  8
TOP
  6
CONTINUOUS
 62
     3
100
AcDbLine
 10
4.888186
 20
31.171524
 30
0.0
 11
4.888186
 21
31.15152
 31
0.0
  0
LINE
  5
1CB
330
A
100
AcDbEntity
  8
TOP
  6
CONTINUOUS
 62
     3
100
AcDbLine
 10
16.035187
 20
5.512204999999999
 30
0.0
 11
20.590185
 21
5.512204999999999
 31
0.0
  0
LINE
  5
1CC
330
A
100
AcDbEntity
  8
TOP
  6
CONTINUOUS
 62
     3
100
AcDbLine
 10
4.888186
 20
12.711524
 30
0.0
 11
4.888186
 21
12.69151899999999
 31
0.0
  0
LINE
  5
1CD
330
A
100
AcDbEntity
  8
TOP
  6
CONTINUOUS
 62
     3
100
AcDbLine
 10
15.90515899999999
 20
32.128521
 30
0.0
 11
15.841153
 21
32.128521
 31
0.0
  0
LINE
  5
1CE
330
A
100
AcDbEntity
  8
TOP
  6
CONTINUOUS
 62
     3
100
AcDbLine
 10
20.720186
 20
12.254519
 30
0.0
 11
20.725964
 21
12.254519
 31
0.0
  0
LINE
  5
1CF
330
A
100
AcDbEntity
  8
TOP
  6
CONTINUOUS
 62
     3
100
AcDbLine
 10
20.74196399999999
 20
12.284519
 30
0.0
 11
20.720009
 21
12.284519
 31
0.0
  0
LINE
  5
1D0
330
A
100
AcDbEntity
  8
TOP
  6
CONTINUOUS
 62
     3
100
AcDbLine
 10
14.837179
 20
21.82053799999999
 30
0.0
 11
14.837179
 21
21.81651899999999
 31
0.0
  0
LINE
  5
1D1
330
A
100
AcDbEntity
  8
TOP
  6
CONTINUOUS
 62
     3
100
AcDbLine
 10
38.313854
 20
14.36695199999999
 30
0.0
 11
38.313854
 21
14.37151899999999
 31
0.0
  0
LINE
  5
1D2
330
A
100
AcDbEntity
  8
TOP
  6
CONTINUOUS
 62
     3
100
AcDbLine
 10
20.742186
 20
12.19151899999999
 30
0.0
 11
20.725964
 21
12.19151899999999
 31
0.0
  0
LINE
  5
1D3
330
A
100
AcDbEntity
  8
TOP
  6
CONTINUOUS
 62
     3
100
AcDbLine
 10
14.865371
 20
21.84651899999999
 30
0.0
 11
15.028102
 21
21.84651899999999
 31
0.0
  0
LINE
  5
1D4
330
A
100
AcDbEntity
  8
TOP
  6
CONTINUOUS
 62
     3
100
AcDbLine
 10
38.480854
 20
12.131519
 30
0.0
 11
38.51449999999999
 21
12.131519
 31
0.0
  0
LINE
  5
1D5
330
A
100
AcDbEntity
  8
TOP
  6
CONTINUOUS
 62
     3
100
AcDbLine
 10
20.905186
 20
30.131361
 30
0.0
 11
20.905186
 21
30.011238
 31
0.0
  0
LINE
  5
1D6
330
A
100
AcDbEntity
  8
TOP
  6
CONTINUOUS
 62
     3
100
AcDbLine
 10
38.593437
 20
12.131519
 30
0.0
 11
38.606422
 21
12.131519
 31
0.0
  0
LINE
  5
1D7
330
A
100
AcDbEntity
  8
TOP
  6
CONTINUOUS
 62
     3
100
AcDbLine
 10
20.998186
 20
12.69151899999999
 30
0.0
 11
20.993824
 21
12.69151899999999
 31
0.0
  0
LINE
  5
1D8
330
A
100
AcDbEntity
  8
TOP
  6
CONTINUOUS
 62
     3
100
AcDbLine
 10
38.313854
 20
31.69150399999999
 30
0.0
 11
38.313854
 21
31.67150499999999
 31
0.0
  0
LINE
  5
1D9
330
A
100
AcDbEntity
  8
TOP
  6
CONTINUOUS
 62
     3
100
AcDbLine
 10
20.934189
 20
12.69151899999999
 30
0.0
 11
20.90331799999999
 21
12.69151899999999
 31
0.0
  0
LINE
  5
1DA
330
A
100
AcDbEntity
  8
TOP
  6
CONTINUOUS
 62
     3
100
AcDbLine
 10
5.166185999999999
 20
12.711519
 30
0.0
 11
5.016186
 21
12.711519
 31
0.0
  0
LINE
  5
1DB
330
A
100
AcDbEntity
  8
TOP
  6
CONTINUOUS
 62
     3
100
AcDbLine
 10
38.545853
 20
32.314518
 30
0.0
 11
38.572777
 21
32.314518
 31
0.0
  0
LINE
  5
1DC
330
A
100
AcDbEntity
  8
TOP
  6
CONTINUOUS
 62
     3
100
AcDbLine
 10
20.80618999999999
 20
12.69151899999999
 30
0.0
 11
20.77967999999999
 21
12.69151899999999
 31
0.0
  0
LINE
  5
1DD
330
A
100
AcDbEntity
  8
TOP
  6
CONTINUOUS
 62
     3
100
AcDbLine
 10
38.61085099999999
 20
32.25151799999999
 30
0.0
 11
38.606422
 21
32.25151799999999
 31
0.0
  0
LINE
  5
1DE
330
A
100
AcDbEntity
  8
TOP
  6
CONTINUOUS
 62
     3
100
AcDbLine
 10
38.545853
 20
32.25151799999999
 30
0.0
 11
38.51449999999999
 21
32.25151799999999
 31
0.0
  0
LINE
  5
1DF
330
A
100
AcDbEntity
  8
TOP
  6
CONTINUOUS
 62
     3
100
AcDbLine
 10
20.934189
 20
12.19151899999999
 30
0.0
 11
20.90331799999999
 21
12.19151899999999
 31
0.0
  0
LINE
  5
1E0
330
A
100
AcDbEntity
  8
TOP
  6
CONTINUOUS
 62
     3
100
AcDbLine
 10
38.37385199999999
 20
14.37151899999999
 30
0.0
 11
38.37385199999999
 21
30.011518
 31
0.0
  0
LINE
  5
1E1
330
A
100
AcDbEntity
  8
TOP
  6
CONTINUOUS
 62
     3
100
AcDbLine
 10
14.837179
 20
21.84651899999999
 30
0.0
 11
14.854387
 21
21.84651899999999
 31
0.0
  0
LINE
  5
1E2
330
A
100
AcDbEntity
  8
TOP
  6
CONTINUOUS
 62
     3
100
AcDbLine
 10
38.480854
 20
32.25151799999999
 30
0.0
 11
38.480854
 21
32.314518
 31
0.0
  0
LINE
  5
1E3
330
A
100
AcDbEntity
  8
TOP
  6
CONTINUOUS
 62
     3
100
AcDbLine
 10
38.288342
 20
13.751519
 30
0.0
 11
38.31485
 21
13.751519
 31
0.0
  0
LINE
  5
1E4
330
A
100
AcDbEntity
  8
TOP
  6
CONTINUOUS
 62
     3
100
AcDbLine
 10
38.411976
 20
13.751519
 30
0.0
 11
38.442848
 21
13.751519
 31
0.0
  0
LINE
  5
1E5
330
A
100
AcDbEntity
  8
TOP
  6
CONTINUOUS
 62
     3
100
AcDbLine
 10
20.80618999999999
 20
13.731519
 30
0.0
 11
20.77967999999999
 21
13.731519
 31
0.0
  0
LINE
  5
1E6
330
A
100
AcDbEntity
  8
TOP
  6
CONTINUOUS
 62
     3
100
AcDbLine
 10
20.998186
 20
13.231519
 30
0.0
 11
20.993824
 21
13.231519
 31
0.0
  0
LINE
  5
1E7
330
A
100
AcDbEntity
  8
TOP
  6
CONTINUOUS
 62
     3
100
AcDbLine
 10
38.288342
 20
14.251519
 30
0.0
 11
38.31485
 21
14.251519
 31
0.0
  0
LINE
  5
1E8
330
A
100
AcDbEntity
  8
TOP
  6
CONTINUOUS
 62
     3
100
AcDbLine
 10
20.934189
 20
13.231519
 30
0.0
 11
20.90331799999999
 21
13.231519
 31
0.0
  0
LINE
  5
1E9
330
A
100
AcDbEntity
  8
TOP
  6
CONTINUOUS
 62
     3
100
AcDbLine
 10
38.411976
 20
14.251519
 30
0.0
 11
38.442848
 21
14.251519
 31
0.0
  0
LINE
  5
1EA
330
A
100
AcDbEntity
  8
TOP
  6
CONTINUOUS
 62
     3
100
AcDbLine
 10
20.80618999999999
 20
13.231519
 30
0.0
 11
20.77967999999999
 21
13.231519
 31
0.0
  0
LINE
  5
1EB
330
A
100
AcDbEntity
  8
TOP
  6
CONTINUOUS
 62
     3
100
AcDbLine
 10
20.998186
 20
31.15152
 30
0.0
 11
20.993824
 21
31.15152
 31
0.0
  0
LINE
  5
1EC
330
A
100
AcDbEntity
  8
TOP
  6
CONTINUOUS
 62
     3
100
AcDbLine
 10
38.288342
 20
12.711519
 30
0.0
 11
38.31485
 21
12.711519
 31
0.0
  0
LINE
  5
1ED
330
A
100
AcDbEntity
  8
TOP
  6
CONTINUOUS
 62
     3
100
AcDbLine
 10
20.934189
 20
31.15152
 30
0.0
 11
20.90331799999999
 21
31.15152
 31
0.0
  0
LINE
  5
1EE
330
A
100
AcDbEntity
  8
TOP
  6
CONTINUOUS
 62
     3
100
AcDbLine
 10
14.854387
 20
21.84651899999999
 30
0.0
 11
14.865371
 21
21.84651899999999
 31
0.0
  0
LINE
  5
1EF
330
A
100
AcDbEntity
  8
TOP
  6
CONTINUOUS
 62
     3
100
AcDbLine
 10
20.998186
 20
30.65152
 30
0.0
 11
20.993824
 21
30.65152
 31
0.0
  0
LINE
  5
1F0
330
A
100
AcDbEntity
  8
TOP
  6
CONTINUOUS
 62
     3
100
AcDbLine
 10
38.288342
 20
13.211519
 30
0.0
 11
38.31485
 21
13.211519
 31
0.0
  0
LINE
  5
1F1
330
A
100
AcDbEntity
  8
TOP
  6
CONTINUOUS
 62
     3
100
AcDbLine
 10
20.934189
 20
30.65152
 30
0.0
 11
20.90331799999999
 21
30.65152
 31
0.0
  0
LINE
  5
1F2
330
A
100
AcDbEntity
  8
TOP
  6
CONTINUOUS
 62
     3
100
AcDbLine
 10
38.411976
 20
13.211519
 30
0.0
 11
38.442848
 21
13.211519
 31
0.0
  0
LINE
  5
1F3
330
A
100
AcDbEntity
  8
TOP
  6
CONTINUOUS
 62
     3
100
AcDbLine
 10
20.80618999999999
 20
30.65152
 30
0.0
 11
20.77967999999999
 21
30.65152
 31
0.0
  0
LINE
  5
1F4
330
A
100
AcDbEntity
  8
TOP
  6
CONTINUOUS
 62
     3
100
AcDbLine
 10
5.011186
 20
14.37151899999999
 30
0.0
 11
4.979351
 21
14.37151899999999
 31
0.0
  0
LINE
  5
1F5
330
A
100
AcDbEntity
  8
TOP
  6
CONTINUOUS
 62
     3
100
AcDbLine
 10
38.502491
 20
13.211519
 30
0.0
 11
38.50685099999999
 21
13.211519
 31
0.0
  0
LINE
  5
1F6
330
A
100
AcDbEntity
  8
TOP
  6
CONTINUOUS
 62
     3
100
AcDbLine
 10
20.998186
 20
32.191521
 30
0.0
 11
20.993824
 21
32.191521
 31
0.0
  0
LINE
  5
1F7
330
A
100
AcDbEntity
  8
TOP
  6
CONTINUOUS
 62
     3
100
AcDbLine
 10
38.288342
 20
30.131519
 30
0.0
 11
38.31485
 21
30.131519
 31
0.0
  0
LINE
  5
1F8
330
A
100
AcDbEntity
  8
TOP
  6
CONTINUOUS
 62
     3
100
AcDbLine
 10
20.934189
 20
32.191521
 30
0.0
 11
20.90331799999999
 21
32.191521
 31
0.0
  0
LINE
  5
1F9
330
A
100
AcDbEntity
  8
TOP
  6
CONTINUOUS
 62
     3
100
AcDbLine
 10
20.80618999999999
 20
32.191521
 30
0.0
 11
20.77967999999999
 21
32.191521
 31
0.0
  0
LINE
  5
1FA
330
A
100
AcDbEntity
  8
TOP
  6
CONTINUOUS
 62
     3
100
AcDbLine
 10
38.502491
 20
30.131519
 30
0.0
 11
38.50685099999999
 21
30.131519
 31
0.0
  0
LINE
  5
1FB
330
A
100
AcDbEntity
  8
TOP
  6
CONTINUOUS
 62
     3
100
AcDbLine
 10
20.998186
 20
31.691519
 30
0.0
 11
20.993824
 21
31.691519
 31
0.0
  0
LINE
  5
1FC
330
A
100
AcDbEntity
  8
TOP
  6
CONTINUOUS
 62
     3
100
AcDbLine
 10
38.288342
 20
30.631519
 30
0.0
 11
38.31485
 21
30.631519
 31
0.0
  0
LINE
  5
1FD
330
A
100
AcDbEntity
  8
TOP
  6
CONTINUOUS
 62
     3
100
AcDbLine
 10
20.934189
 20
31.691519
 30
0.0
 11
20.90331799999999
 21
31.691519
 31
0.0
  0
LINE
  5
1FE
330
A
100
AcDbEntity
  8
TOP
  6
CONTINUOUS
 62
     3
100
AcDbLine
 10
38.411976
 20
30.631519
 30
0.0
 11
38.442848
 21
30.631519
 31
0.0
  0
LINE
  5
1FF
330
A
100
AcDbEntity
  8
TOP
  6
CONTINUOUS
 62
     3
100
AcDbLine
 10
20.80618999999999
 20
31.691519
 30
0.0
 11
20.77967999999999
 21
31.691519
 31
0.0
  0
LINE
  5
200
330
A
100
AcDbEntity
  8
TOP
  6
CONTINUOUS
 62
     3
100
AcDbLine
 10
14.837179
 20
22.53652
 30
0.0
 11
14.854387
 21
22.53652
 31
0.0
  0
LINE
  5
201
330
A
100
AcDbEntity
  8
TOP
  6
CONTINUOUS
 62
     3
100
AcDbLine
 10
20.805185
 20
13.231516
 30
0.0
 11
20.805185
 21
13.211517
 31
0.0
  0
LINE
  5
202
330
A
100
AcDbEntity
  8
TOP
  6
CONTINUOUS
 62
     3
100
AcDbLine
 10
4.888186
 20
12.19151899999999
 30
0.0
 11
4.892547
 21
12.19151899999999
 31
0.0
  0
LINE
  5
203
330
A
100
AcDbEntity
  8
TOP
  6
CONTINUOUS
 62
     3
100
AcDbLine
 10
20.935186
 20
13.731499
 30
0.0
 11
20.935186
 21
13.751497
 31
0.0
  0
LINE
  5
204
330
A
100
AcDbEntity
  8
TOP
  6
CONTINUOUS
 62
     3
100
AcDbLine
 10
38.288342
 20
31.171518
 30
0.0
 11
38.31485
 21
31.171518
 31
0.0
  0
LINE
  5
205
330
A
100
AcDbEntity
  8
TOP
  6
CONTINUOUS
 62
     3
100
AcDbLine
 10
4.952182999999999
 20
12.19151899999999
 30
0.0
 11
4.983054
 21
12.19151899999999
 31
0.0
  0
LINE
  5
206
330
A
100
AcDbEntity
  8
TOP
  6
CONTINUOUS
 62
     3
100
AcDbLine
 10
20.998186
 20
12.711519
 30
0.0
 11
20.998186
 21
13.211519
 31
0.0
  0
LINE
  5
207
330
A
100
AcDbEntity
  8
TOP
  6
CONTINUOUS
 62
     3
100
AcDbLine
 10
38.411976
 20
31.171518
 30
0.0
 11
38.442848
 21
31.171518
 31
0.0
  0
LINE
  5
208
330
A
100
AcDbEntity
  8
TOP
  6
CONTINUOUS
 62
     3
100
AcDbLine
 10
5.080180999999999
 20
12.19151899999999
 30
0.0
 11
5.106690999999999
 21
12.19151899999999
 31
0.0
  0
LINE
  5
209
330
A
100
AcDbEntity
  8
TOP
  6
CONTINUOUS
 62
     3
100
AcDbLine
 10
5.938581
 20
5.872205
 30
0.0
 11
6.037539999999999
 21
5.872205
 31
0.0
  0
LINE
  5
20A
330
A
100
AcDbEntity
  8
TOP
  6
CONTINUOUS
 62
     3
100
AcDbLine
 10
38.502491
 20
31.171518
 30
0.0
 11
38.50685099999999
 21
31.171518
 31
0.0
  0
LINE
  5
20B
330
A
100
AcDbEntity
  8
TOP
  6
CONTINUOUS
 62
     3
100
AcDbLine
 10
4.888186
 20
12.69151899999999
 30
0.0
 11
4.892547
 21
12.69151899999999
 31
0.0
  0
LINE
  5
20C
330
A
100
AcDbEntity
  8
TOP
  6
CONTINUOUS
 62
     3
100
AcDbLine
 10
38.288342
 20
32.191521
 30
0.0
 11
38.268002
 21
32.191521
 31
0.0
  0
LINE
  5
20D
330
A
100
AcDbEntity
  8
TOP
  6
CONTINUOUS
 62
     3
100
AcDbLine
 10
38.288342
 20
31.671518
 30
0.0
 11
38.31485
 21
31.671518
 31
0.0
  0
LINE
  5
20E
330
A
100
AcDbEntity
  8
TOP
  6
CONTINUOUS
 62
     3
100
AcDbLine
 10
4.952182999999999
 20
12.69151899999999
 30
0.0
 11
4.983054
 21
12.69151899999999
 31
0.0
  0
LINE
  5
20F
330
A
100
AcDbEntity
  8
TOP
  6
CONTINUOUS
 62
     3
100
AcDbLine
 10
38.411976
 20
31.671518
 30
0.0
 11
38.442848
 21
31.671518
 31
0.0
  0
LINE
  5
210
330
A
100
AcDbEntity
  8
TOP
  6
CONTINUOUS
 62
     3
100
AcDbLine
 10
5.080180999999999
 20
12.69151899999999
 30
0.0
 11
5.106690999999999
 21
12.69151899999999
 31
0.0
  0
LINE
  5
211
330
A
100
AcDbEntity
  8
TOP
  6
CONTINUOUS
 62
     3
100
AcDbLine
 10
38.502491
 20
31.671518
 30
0.0
 11
38.50685099999999
 21
31.671518
 31
0.0
  0
LINE
  5
212
330
A
100
AcDbEntity
  8
TOP
  6
CONTINUOUS
 62
     3
100
AcDbLine
 10
4.888186
 20
13.231519
 30
0.0
 11
4.892547
 21
13.231519
 31
0.0
  0
LINE
  5
213
330
A
100
AcDbEntity
  8
TOP
  6
CONTINUOUS
 62
     3
100
AcDbLine
 10
6.283894
 20
5.872205
 30
0.0
 11
6.309936
 21
5.872205
 31
0.0
  0
LINE
  5
214
330
A
100
AcDbEntity
  8
TOP
  6
CONTINUOUS
 62
     3
100
AcDbLine
 10
4.952182999999999
 20
13.231519
 30
0.0
 11
4.983054
 21
13.231519
 31
0.0
  0
LINE
  5
215
330
A
100
AcDbEntity
  8
TOP
  6
CONTINUOUS
 62
     3
100
AcDbLine
 10
5.080180999999999
 20
13.231519
 30
0.0
 11
5.106690999999999
 21
13.231519
 31
0.0
  0
LINE
  5
216
330
A
100
AcDbEntity
  8
TOP
  6
CONTINUOUS
 62
     3
100
AcDbLine
 10
6.210977999999999
 20
5.872205
 30
0.0
 11
6.234415
 21
5.872205
 31
0.0
  0
LINE
  5
217
330
A
100
AcDbEntity
  8
TOP
  6
CONTINUOUS
 62
     3
100
AcDbLine
 10
7.373477
 20
5.872205
 30
0.0
 11
7.3253
 21
5.872205
 31
0.0
  0
LINE
  5
218
330
A
100
AcDbEntity
  8
TOP
  6
CONTINUOUS
 62
     3
100
AcDbLine
 10
4.888186
 20
13.731519
 30
0.0
 11
4.892547
 21
13.731519
 31
0.0
  0
LINE
  5
219
330
A
100
AcDbEntity
  8
TOP
  6
CONTINUOUS
 62
     3
100
AcDbLine
 10
5.666185999999999
 20
5.872205
 30
0.0
 11
5.740404999999999
 21
5.872205
 31
0.0
  0
LINE
  5
21A
330
A
100
AcDbEntity
  8
TOP
  6
CONTINUOUS
 62
     3
100
AcDbLine
 10
4.952182999999999
 20
13.731519
 30
0.0
 11
4.983054
 21
13.731519
 31
0.0
  0
LINE
  5
21B
330
A
100
AcDbEntity
  8
TOP
  6
CONTINUOUS
 62
     3
100
AcDbLine
 10
7.398216999999999
 20
5.872205
 30
0.0
 11
7.373477
 21
5.872205
 31
0.0
  0
LINE
  5
21C
330
A
100
AcDbEntity
  8
TOP
  6
CONTINUOUS
 62
     3
100
AcDbLine
 10
5.080180999999999
 20
13.731519
 30
0.0
 11
5.106690999999999
 21
13.731519
 31
0.0
  0
LINE
  5
21D
330
A
100
AcDbEntity
  8
TOP
  6
CONTINUOUS
 62
     3
100
AcDbLine
 10
38.443851
 20
31.15152399999999
 30
0.0
 11
38.443851
 21
31.17152
 31
0.0
  0
LINE
  5
21E
330
A
100
AcDbEntity
  8
TOP
  6
CONTINUOUS
 62
     3
100
AcDbLine
 10
6.582332
 20
5.872205
 30
0.0
 11
6.483373
 21
5.872205
 31
0.0
  0
LINE
  5
21F
330
A
100
AcDbEntity
  8
TOP
  6
CONTINUOUS
 62
     3
100
AcDbLine
 10
4.888186
 20
30.65152
 30
0.0
 11
4.892547
 21
30.65152
 31
0.0
  0
LINE
  5
220
330
A
100
AcDbEntity
  8
TOP
  6
CONTINUOUS
 62
     3
100
AcDbLine
 10
6.780509
 20
5.872205
 30
0.0
 11
6.754466999999999
 21
5.872205
 31
0.0
  0
LINE
  5
221
330
A
100
AcDbEntity
  8
TOP
  6
CONTINUOUS
 62
     3
100
AcDbLine
 10
4.952182999999999
 20
30.65152
 30
0.0
 11
4.983054
 21
30.65152
 31
0.0
  0
LINE
  5
222
330
A
100
AcDbEntity
  8
TOP
  6
CONTINUOUS
 62
     3
100
AcDbLine
 10
5.802383999999999
 20
5.872205
 30
0.0
 11
5.851862999999999
 21
5.872205
 31
0.0
  0
LINE
  5
223
330
A
100
AcDbEntity
  8
TOP
  6
CONTINUOUS
 62
     3
100
AcDbLine
 10
5.080180999999999
 20
30.65152
 30
0.0
 11
5.106690999999999
 21
30.65152
 31
0.0
  0
LINE
  5
224
330
A
100
AcDbEntity
  8
TOP
  6
CONTINUOUS
 62
     3
100
AcDbLine
 10
6.147695999999999
 20
5.872205
 30
0.0
 11
6.074779999999999
 21
5.872205
 31
0.0
  0
LINE
  5
225
330
A
100
AcDbEntity
  8
TOP
  6
CONTINUOUS
 62
     3
100
AcDbLine
 10
4.888186
 20
31.15152
 30
0.0
 11
4.892547
 21
31.15152
 31
0.0
  0
LINE
  5
226
330
A
100
AcDbEntity
  8
TOP
  6
CONTINUOUS
 62
     3
100
AcDbLine
 10
38.25085399999999
 20
13.731514
 30
0.0
 11
38.25085399999999
 21
13.751519
 31
0.0
  0
LINE
  5
227
330
A
100
AcDbEntity
  8
TOP
  6
CONTINUOUS
 62
     3
100
AcDbLine
 10
6.829988
 20
5.872205
 30
0.0
 11
6.780509
 21
5.872205
 31
0.0
  0
LINE
  5
228
330
A
100
AcDbEntity
  8
TOP
  6
CONTINUOUS
 62
     3
100
AcDbLine
 10
4.952182999999999
 20
31.15152
 30
0.0
 11
4.983054
 21
31.15152
 31
0.0
  0
LINE
  5
229
330
A
100
AcDbEntity
  8
TOP
  6
CONTINUOUS
 62
     3
100
AcDbLine
 10
5.827123
 20
5.872205
 30
0.0
 11
5.876603
 21
5.872205
 31
0.0
  0
LINE
  5
22A
330
A
100
AcDbEntity
  8
TOP
  6
CONTINUOUS
 62
     3
100
AcDbLine
 10
38.25085399999999
 20
30.048557
 30
0.0
 11
38.25085399999999
 21
30.07152
 31
0.0
  0
LINE
  5
22B
330
A
100
AcDbEntity
  8
TOP
  6
CONTINUOUS
 62
     3
100
AcDbLine
 10
38.25085399999999
 20
30.126951
 30
0.0
 11
38.25085399999999
 21
30.131519
 31
0.0
  0
LINE
  5
22C
330
A
100
AcDbEntity
  8
TOP
  6
CONTINUOUS
 62
     3
100
AcDbLine
 10
5.898185999999999
 20
3.627205
 30
0.0
 11
5.898185999999999
 21
3.617204999999999
 31
0.0
  0
LINE
  5
22D
330
A
100
AcDbEntity
  8
TOP
  6
CONTINUOUS
 62
     3
100
AcDbLine
 10
38.25085399999999
 20
32.19151699999999
 30
0.0
 11
38.25085399999999
 21
32.221519
 31
0.0
  0
LINE
  5
22E
330
A
100
AcDbEntity
  8
TOP
  6
CONTINUOUS
 62
     3
100
AcDbLine
 10
6.688185999999999
 20
4.599205
 30
0.0
 11
7.388186
 21
4.599205
 31
0.0
  0
LINE
  5
22F
330
A
100
AcDbEntity
  8
TOP
  6
CONTINUOUS
 62
     3
100
AcDbLine
 10
38.25085399999999
 20
14.256086
 30
0.0
 11
38.25085399999999
 21
14.269093
 31
0.0
  0
LINE
  5
230
330
A
100
AcDbEntity
  8
TOP
  6
CONTINUOUS
 62
     3
100
AcDbLine
 10
38.443851
 20
31.67150499999999
 30
0.0
 11
38.443851
 21
31.69150399999999
 31
0.0
  0
LINE
  5
231
330
A
100
AcDbEntity
  8
TOP
  6
CONTINUOUS
 62
     3
100
AcDbLine
 10
38.25085399999999
 20
14.33448
 30
0.0
 11
38.25085399999999
 21
14.353946
 31
0.0
  0
LINE
  5
232
330
A
100
AcDbEntity
  8
TOP
  6
CONTINUOUS
 62
     3
100
AcDbLine
 10
38.313854
 20
30.011518
 30
0.0
 11
38.313854
 21
30.016087
 31
0.0
  0
LINE
  5
233
330
A
100
AcDbEntity
  8
TOP
  6
CONTINUOUS
 62
     3
100
AcDbLine
 10
38.313854
 20
30.07152
 30
0.0
 11
38.313854
 21
30.094481
 31
0.0
  0
LINE
  5
234
330
A
100
AcDbEntity
  8
TOP
  6
CONTINUOUS
 62
     3
100
AcDbLine
 10
38.313854
 20
14.251519
 30
0.0
 11
38.313854
 21
14.256086
 31
0.0
  0
LINE
  5
235
330
A
100
AcDbEntity
  8
TOP
  6
CONTINUOUS
 62
     3
100
AcDbLine
 10
20.90331799999999
 20
31.15152
 30
0.0
 11
20.87019
 21
31.15152
 31
0.0
  0
LINE
  5
236
330
A
100
AcDbEntity
  8
TOP
  6
CONTINUOUS
 62
     3
100
AcDbLine
 10
38.313854
 20
14.31151999999999
 30
0.0
 11
38.313854
 21
14.33448
 31
0.0
  0
LINE
  5
237
330
A
100
AcDbEntity
  8
TOP
  6
CONTINUOUS
 62
     3
100
AcDbLine
 10
5.928186
 20
5.282205
 30
0.0
 11
7.358185999999999
 21
5.282205
 31
0.0
  0
LINE
  5
238
330
A
100
AcDbEntity
  8
TOP
  6
CONTINUOUS
 62
     3
100
AcDbLine
 10
5.928186
 20
5.394205
 30
0.0
 11
7.358185999999999
 21
5.394205
 31
0.0
  0
LINE
  5
239
330
A
100
AcDbEntity
  8
TOP
  6
CONTINUOUS
 62
     3
100
AcDbLine
 10
7.633186
 20
5.457205
 30
0.0
 11
7.633186
 21
3.677204999999999
 31
0.0
  0
LINE
  5
23A
330
A
100
AcDbEntity
  8
TOP
  6
CONTINUOUS
 62
     3
100
AcDbLine
 10
20.87518499999999
 20
30.011518
 30
0.0
 11
20.907021
 21
30.011518
 31
0.0
  0
LINE
  5
23B
330
A
100
AcDbEntity
  8
TOP
  6
CONTINUOUS
 62
     3
100
AcDbLine
 10
4.904664999999999
 20
14.37151899999999
 30
0.0
 11
4.892376999999999
 21
14.37151899999999
 31
0.0
  0
LINE
  5
23C
330
A
100
AcDbEntity
  8
TOP
  6
CONTINUOUS
 62
     3
100
AcDbLine
 10
13.54404399999999
 20
5.916586999999999
 30
0.0
 11
13.598807
 21
5.948204999999999
 31
0.0
  0
LINE
  5
23D
330
A
100
AcDbEntity
  8
TOP
  6
CONTINUOUS
 62
     3
100
AcDbLine
 10
38.313854
 20
13.751497
 30
0.0
 11
38.313854
 21
13.731499
 31
0.0
  0
LINE
  5
23E
330
A
100
AcDbEntity
  8
TOP
  6
CONTINUOUS
 62
     3
100
AcDbLine
 10
5.081185999999999
 20
12.691535
 30
0.0
 11
5.081185999999999
 21
12.711534
 31
0.0
  0
LINE
  5
23F
330
A
100
AcDbEntity
  8
TOP
  6
CONTINUOUS
 62
     3
100
AcDbLine
 10
6.668186
 20
4.163547
 30
0.0
 11
6.668186
 21
4.069205
 31
0.0
  0
LINE
  5
240
330
A
100
AcDbEntity
  8
TOP
  6
CONTINUOUS
 62
     3
100
AcDbLine
 10
20.742186
 20
31.15152
 30
0.0
 11
20.742186
 21
30.65152
 31
0.0
  0
LINE
  5
241
330
A
100
AcDbEntity
  8
TOP
  6
CONTINUOUS
 62
     3
100
AcDbLine
 10
38.502491
 20
14.251519
 30
0.0
 11
38.50685099999999
 21
14.251519
 31
0.0
  0
LINE
  5
242
330
A
100
AcDbEntity
  8
TOP
  6
CONTINUOUS
 62
     3
100
AcDbLine
 10
6.688185999999999
 20
3.449205
 30
0.0
 11
7.248819
 21
3.449205
 31
0.0
  0
LINE
  5
243
330
A
100
AcDbEntity
  8
TOP
  6
CONTINUOUS
 62
     3
100
AcDbLine
 10
38.313854
 20
13.231516
 30
0.0
 11
38.313854
 21
13.211517
 31
0.0
  0
LINE
  5
244
330
A
100
AcDbEntity
  8
TOP
  6
CONTINUOUS
 62
     3
100
AcDbLine
 10
5.928186
 20
5.394205
 30
0.0
 11
5.928186
 21
5.388366
 31
0.0
  0
LINE
  5
245
330
A
100
AcDbEntity
  8
TOP
  6
CONTINUOUS
 62
     3
100
AcDbLine
 10
41.733517
 20
32.098518
 30
0.0
 11
41.70759199999999
 21
32.098518
 31
0.0
  0
LINE
  5
246
330
A
100
AcDbEntity
  8
TOP
  6
CONTINUOUS
 62
     3
100
AcDbLine
 10
7.358185999999999
 20
5.381954
 30
0.0
 11
7.358185999999999
 21
5.388366
 31
0.0
  0
LINE
  5
247
330
A
100
AcDbEntity
  8
TOP
  6
CONTINUOUS
 62
     3
100
AcDbLine
 10
17.682487
 20
22.566519
 30
0.0
 11
16.752686
 21
22.566519
 31
0.0
  0
LINE
  5
248
330
A
100
AcDbEntity
  8
TOP
  6
CONTINUOUS
 62
     3
100
AcDbLine
 10
7.375935
 20
5.312204999999999
 30
0.0
 11
7.382347
 21
5.312204999999999
 31
0.0
  0
LINE
  5
249
330
A
100
AcDbEntity
  8
TOP
  6
CONTINUOUS
 62
     3
100
AcDbLine
 10
38.313854
 20
12.711534
 30
0.0
 11
38.313854
 21
12.691535
 31
0.0
  0
LINE
  5
24A
330
A
100
AcDbEntity
  8
TOP
  6
CONTINUOUS
 62
     3
100
AcDbLine
 10
20.80618999999999
 20
31.15152
 30
0.0
 11
20.77967999999999
 21
31.15152
 31
0.0
  0
LINE
  5
24B
330
A
100
AcDbEntity
  8
TOP
  6
CONTINUOUS
 62
     3
100
AcDbLine
 10
6.618185999999999
 20
3.379204999999999
 30
0.0
 11
6.618185999999999
 21
2.943862999999999
 31
0.0
  0
LINE
  5
24C
330
A
100
AcDbEntity
  8
TOP
  6
CONTINUOUS
 62
     3
100
AcDbLine
 10
16.752686
 20
21.81651899999999
 30
0.0
 11
17.682487
 21
21.81651899999999
 31
0.0
  0
LINE
  5
24D
330
A
100
AcDbEntity
  8
TOP
  6
CONTINUOUS
 62
     3
100
AcDbLine
 10
6.598186
 20
4.049204999999999
 30
0.0
 11
6.314259999999999
 21
4.049204999999999
 31
0.0
  0
LINE
  5
24E
330
A
100
AcDbEntity
  8
TOP
  6
CONTINUOUS
 62
     3
100
AcDbLine
 10
5.144186
 20
12.19151899999999
 30
0.0
 11
5.144186
 21
12.69151899999999
 31
0.0
  0
LINE
  5
24F
330
A
100
AcDbEntity
  8
TOP
  6
CONTINUOUS
 62
     3
100
AcDbLine
 10
6.598186
 20
3.449205
 30
0.0
 11
6.037551999999999
 21
3.449205
 31
0.0
  0
LINE
  5
250
330
A
100
AcDbEntity
  8
TOP
  6
CONTINUOUS
 62
     3
100
AcDbLine
 10
7.373477
 20
31.59082
 30
0.0
 11
7.3253
 21
31.59082
 31
0.0
  0
LINE
  5
251
330
A
100
AcDbEntity
  8
TOP
  6
CONTINUOUS
 62
     3
100
AcDbLine
 10
7.633186
 20
3.627205
 30
0.0
 11
7.633186
 21
3.617204999999999
 31
0.0
  0
LINE
  5
252
330
A
100
AcDbEntity
  8
TOP
  6
CONTINUOUS
 62
     3
100
AcDbLine
 10
6.598186
 20
3.999204999999999
 30
0.0
 11
6.204002
 21
3.999204999999999
 31
0.0
  0
LINE
  5
253
330
A
100
AcDbEntity
  8
TOP
  6
CONTINUOUS
 62
     3
100
AcDbLine
 10
38.288342
 20
31.691519
 30
0.0
 11
38.268002
 21
31.691519
 31
0.0
  0
LINE
  5
254
330
A
100
AcDbEntity
  8
TOP
  6
CONTINUOUS
 62
     3
100
AcDbLine
 10
5.898185999999999
 20
5.364205
 30
0.0
 11
5.904024999999999
 21
5.364205
 31
0.0
  0
LINE
  5
255
330
A
100
AcDbEntity
  8
TOP
  6
CONTINUOUS
 62
     3
100
AcDbLine
 10
14.063885
 20
22.566519
 30
0.0
 11
14.063885
 21
22.57237599999999
 31
0.0
  0
LINE
  5
256
330
A
100
AcDbEntity
  8
TOP
  6
CONTINUOUS
 62
     3
100
AcDbLine
 10
5.910436999999999
 20
5.364205
 30
0.0
 11
5.904024999999999
 21
5.364205
 31
0.0
  0
LINE
  5
257
330
A
100
AcDbEntity
  8
TOP
  6
CONTINUOUS
 62
     3
100
AcDbLine
 10
19.28818499999999
 20
4.599205
 30
0.0
 11
19.98818599999999
 21
4.599205
 31
0.0
  0
LINE
  5
258
330
A
100
AcDbEntity
  8
TOP
  6
CONTINUOUS
 62
     3
100
AcDbLine
 10
4.905333999999999
 20
32.191521
 30
0.0
 11
4.925675
 21
32.191521
 31
0.0
  0
LINE
  5
259
330
A
100
AcDbEntity
  8
TOP
  6
CONTINUOUS
 62
     3
100
AcDbLine
 10
5.016186
 20
30.131519
 30
0.0
 11
4.983056
 21
30.131519
 31
0.0
  0
LINE
  5
25A
330
A
100
AcDbEntity
  8
TOP
  6
CONTINUOUS
 62
     3
100
AcDbLine
 10
5.016180999999999
 20
32.191521
 30
0.0
 11
5.04931
 21
32.191521
 31
0.0
  0
LINE
  5
25B
330
A
100
AcDbEntity
  8
TOP
  6
CONTINUOUS
 62
     3
100
AcDbLine
 10
38.345722
 20
12.711519
 30
0.0
 11
38.378849
 21
12.711519
 31
0.0
  0
LINE
  5
25C
330
A
100
AcDbEntity
  8
TOP
  6
CONTINUOUS
 62
     3
100
AcDbLine
 10
5.127034
 20
32.191521
 30
0.0
 11
5.139821999999999
 21
32.191521
 31
0.0
  0
LINE
  5
25D
330
A
100
AcDbEntity
  8
TOP
  6
CONTINUOUS
 62
     3
100
AcDbLine
 10
15.905186
 20
12.324519
 30
0.0
 11
15.841187
 21
12.324519
 31
0.0
  0
LINE
  5
25E
330
A
100
AcDbEntity
  8
TOP
  6
CONTINUOUS
 62
     3
100
AcDbLine
 10
20.87518499999999
 20
30.011518
 30
0.0
 11
20.84318499999999
 21
30.011518
 31
0.0
  0
LINE
  5
25F
330
A
100
AcDbEntity
  8
TOP
  6
CONTINUOUS
 62
     3
100
AcDbLine
 10
5.923949
 20
5.364205
 30
0.0
 11
5.923949
 21
5.312204999999999
 31
0.0
  0
LINE
  5
260
330
A
100
AcDbEntity
  8
TOP
  6
CONTINUOUS
 62
     3
100
AcDbLine
 10
20.96216
 20
30.011518
 30
0.0
 11
20.981707
 21
30.011518
 31
0.0
  0
LINE
  5
261
330
A
100
AcDbEntity
  8
TOP
  6
CONTINUOUS
 62
     3
100
AcDbLine
 10
18.528185
 20
5.282205
 30
0.0
 11
19.958185
 21
5.282205
 31
0.0
  0
LINE
  5
262
330
A
100
AcDbEntity
  8
TOP
  6
CONTINUOUS
 62
     3
100
AcDbLine
 10
20.998186
 20
14.37151899999999
 30
0.0
 11
20.99399599999999
 21
14.37151899999999
 31
0.0
  0
LINE
  5
263
330
A
100
AcDbEntity
  8
TOP
  6
CONTINUOUS
 62
     3
100
AcDbLine
 10
18.528185
 20
5.394205
 30
0.0
 11
19.958185
 21
5.394205
 31
0.0
  0
LINE
  5
264
330
A
100
AcDbEntity
  8
TOP
  6
CONTINUOUS
 62
     3
100
AcDbLine
 10
20.936686
 20
14.37151899999999
 30
0.0
 11
20.907021
 21
14.37151899999999
 31
0.0
  0
LINE
  5
265
330
A
100
AcDbEntity
  8
TOP
  6
CONTINUOUS
 62
     3
100
AcDbLine
 10
20.233187
 20
5.457205
 30
0.0
 11
20.233187
 21
3.677204999999999
 31
0.0
  0
LINE
  5
266
330
A
100
AcDbEntity
  8
TOP
  6
CONTINUOUS
 62
     3
100
AcDbLine
 10
16.909191
 20
21.84651899999999
 30
0.0
 11
17.714239
 21
21.84651899999999
 31
0.0
  0
LINE
  5
267
330
A
100
AcDbEntity
  8
TOP
  6
CONTINUOUS
 62
     3
100
AcDbLine
 10
18.25318499999999
 20
5.457205
 30
0.0
 11
18.25318499999999
 21
3.677204999999999
 31
0.0
  0
LINE
  5
268
330
A
100
AcDbEntity
  8
TOP
  6
CONTINUOUS
 62
     3
100
AcDbLine
 10
38.421852
 20
14.371719
 30
0.0
 11
38.421852
 21
14.251523
 31
0.0
  0
LINE
  5
269
330
A
100
AcDbEntity
  8
TOP
  6
CONTINUOUS
 62
     3
100
AcDbLine
 10
20.720186
 20
30.631519
 30
0.0
 11
20.720186
 21
31.171518
 31
0.0
  0
LINE
  5
26A
330
A
100
AcDbEntity
  8
TOP
  6
CONTINUOUS
 62
     3
100
AcDbLine
 10
20.720186
 20
12.106855
 30
0.0
 11
20.720186
 21
12.086281
 31
0.0
  0
LINE
  5
26B
330
A
100
AcDbEntity
  8
TOP
  6
CONTINUOUS
 62
     3
100
AcDbLine
 10
19.28818499999999
 20
3.399204999999999
 30
0.0
 11
19.82926
 21
3.399204999999999
 31
0.0
  0
LINE
  5
26C
330
A
100
AcDbEntity
  8
TOP
  6
CONTINUOUS
 62
     3
100
AcDbLine
 10
38.443851
 20
13.731499
 30
0.0
 11
38.443851
 21
13.751497
 31
0.0
  0
LINE
  5
26D
330
A
100
AcDbEntity
  8
TOP
  6
CONTINUOUS
 62
     3
100
AcDbLine
 10
38.255215
 20
31.691519
 30
0.0
 11
38.25085399999999
 21
31.691519
 31
0.0
  0
LINE
  5
26E
330
A
100
AcDbEntity
  8
TOP
  6
CONTINUOUS
 62
     3
100
AcDbLine
 10
20.87018599999999
 20
31.171518
 30
0.0
 11
20.87018599999999
 21
31.671518
 31
0.0
  0
LINE
  5
26F
330
A
100
AcDbEntity
  8
TOP
  6
CONTINUOUS
 62
     3
100
AcDbLine
 10
19.268187
 20
4.163547
 30
0.0
 11
19.268187
 21
4.069205
 31
0.0
  0
LINE
  5
270
330
A
100
AcDbEntity
  8
TOP
  6
CONTINUOUS
 62
     3
100
AcDbLine
 10
5.144186
 20
30.65152
 30
0.0
 11
5.144186
 21
31.15152
 31
0.0
  0
LINE
  5
271
330
A
100
AcDbEntity
  8
TOP
  6
CONTINUOUS
 62
     3
100
AcDbLine
 10
19.28818499999999
 20
3.999204999999999
 30
0.0
 11
19.682369
 21
3.999204999999999
 31
0.0
  0
LINE
  5
272
330
A
100
AcDbEntity
  8
TOP
  6
CONTINUOUS
 62
     3
100
AcDbLine
 10
20.87518499999999
 20
30.011518
 30
0.0
 11
20.87518499999999
 21
14.37151899999999
 31
0.0
  0
LINE
  5
273
330
A
100
AcDbEntity
  8
TOP
  6
CONTINUOUS
 62
     3
100
AcDbLine
 10
19.28818499999999
 20
3.449205
 30
0.0
 11
19.84882
 21
3.449205
 31
0.0
  0
LINE
  5
274
330
A
100
AcDbEntity
  8
TOP
  6
CONTINUOUS
 62
     3
100
AcDbLine
 10
15.905186
 20
12.086281
 30
0.0
 11
15.905186
 21
12.073071
 31
0.0
  0
LINE
  5
275
330
A
100
AcDbEntity
  8
TOP
  6
CONTINUOUS
 62
     3
100
AcDbLine
 10
5.765144
 20
31.665039
 30
0.0
 11
5.739101999999999
 21
31.65332
 31
0.0
  0
LINE
  5
276
330
A
100
AcDbEntity
  8
TOP
  6
CONTINUOUS
 62
     3
100
AcDbLine
 10
19.958185
 20
5.282205
 30
0.0
 11
19.958185
 21
5.288044
 31
0.0
  0
LINE
  5
277
330
A
100
AcDbEntity
  8
TOP
  6
CONTINUOUS
 62
     3
100
AcDbLine
 10
20.720186
 20
32.314518
 30
0.0
 11
20.720186
 21
32.309967
 31
0.0
  0
LINE
  5
278
330
A
100
AcDbEntity
  8
TOP
  6
CONTINUOUS
 62
     3
100
AcDbLine
 10
18.528185
 20
5.368441999999999
 30
0.0
 11
19.958185
 21
5.368441999999999
 31
0.0
  0
LINE
  5
279
330
A
100
AcDbEntity
  8
TOP
  6
CONTINUOUS
 62
     3
100
AcDbLine
 10
20.720186
 20
32.250259
 30
0.0
 11
20.720186
 21
32.221519
 31
0.0
  0
LINE
  5
27A
330
A
100
AcDbEntity
  8
TOP
  6
CONTINUOUS
 62
     3
100
AcDbLine
 10
5.666185999999999
 20
31.71452
 30
0.0
 11
5.740404999999999
 21
31.71452
 31
0.0
  0
LINE
  5
27B
330
A
100
AcDbEntity
  8
TOP
  6
CONTINUOUS
 62
     3
100
AcDbLine
 10
18.528185
 20
5.394205
 30
0.0
 11
18.528185
 21
5.388366
 31
0.0
  0
LINE
  5
27C
330
A
100
AcDbEntity
  8
TOP
  6
CONTINUOUS
 62
     3
100
AcDbLine
 10
41.26669699999999
 20
12.190654
 30
0.0
 11
41.288372
 21
12.190654
 31
0.0
  0
LINE
  5
27D
330
A
100
AcDbEntity
  8
TOP
  6
CONTINUOUS
 62
     3
100
AcDbLine
 10
20.99382599999999
 20
13.751519
 30
0.0
 11
20.998186
 21
13.751519
 31
0.0
  0
LINE
  5
27E
330
A
100
AcDbEntity
  8
TOP
  6
CONTINUOUS
 62
     3
100
AcDbLine
 10
20.960697
 20
14.251519
 30
0.0
 11
20.98103899999999
 21
14.251519
 31
0.0
  0
LINE
  5
27F
330
A
100
AcDbEntity
  8
TOP
  6
CONTINUOUS
 62
     3
100
AcDbLine
 10
19.958185
 20
5.381954
 30
0.0
 11
19.958185
 21
5.388366
 31
0.0
  0
LINE
  5
280
330
A
100
AcDbEntity
  8
TOP
  6
CONTINUOUS
 62
     3
100
AcDbLine
 10
20.903316
 20
12.711519
 30
0.0
 11
20.934187
 21
12.711519
 31
0.0
  0
LINE
  5
281
330
A
100
AcDbEntity
  8
TOP
  6
CONTINUOUS
 62
     3
100
AcDbLine
 10
19.975935
 20
5.312204999999999
 30
0.0
 11
19.982347
 21
5.312204999999999
 31
0.0
  0
LINE
  5
282
330
A
100
AcDbEntity
  8
TOP
  6
CONTINUOUS
 62
     3
100
AcDbLine
 10
19.958185
 20
5.394205
 30
0.0
 11
19.958185
 21
5.388366
 31
0.0
  0
LINE
  5
283
330
A
100
AcDbEntity
  8
TOP
  6
CONTINUOUS
 62
     3
100
AcDbLine
 10
20.99382599999999
 20
12.711519
 30
0.0
 11
20.998186
 21
12.711519
 31
0.0
  0
LINE
  5
284
330
A
100
AcDbEntity
  8
TOP
  6
CONTINUOUS
 62
     3
100
AcDbLine
 10
18.528185
 20
5.294456
 30
0.0
 11
18.528185
 21
5.307967999999999
 31
0.0
  0
LINE
  5
285
330
A
100
AcDbEntity
  8
TOP
  6
CONTINUOUS
 62
     3
100
AcDbLine
 10
20.960697
 20
13.211519
 30
0.0
 11
20.98103899999999
 21
13.211519
 31
0.0
  0
LINE
  5
286
330
A
100
AcDbEntity
  8
TOP
  6
CONTINUOUS
 62
     3
100
AcDbLine
 10
20.903316
 20
30.131519
 30
0.0
 11
20.934187
 21
30.131519
 31
0.0
  0
LINE
  5
287
330
A
100
AcDbEntity
  8
TOP
  6
CONTINUOUS
 62
     3
100
AcDbLine
 10
20.903316
 20
31.171518
 30
0.0
 11
20.934187
 21
31.171518
 31
0.0
  0
LINE
  5
288
330
A
100
AcDbEntity
  8
TOP
  6
CONTINUOUS
 62
     3
100
AcDbLine
 10
16.368185
 20
5.872205
 30
0.0
 11
16.368185
 21
5.913204999999999
 31
0.0
  0
LINE
  5
289
330
A
100
AcDbEntity
  8
TOP
  6
CONTINUOUS
 62
     3
100
AcDbLine
 10
4.951185999999999
 20
5.744205
 30
0.0
 11
4.888186
 21
5.744205
 31
0.0
  0
LINE
  5
28A
330
A
100
AcDbEntity
  8
TOP
  6
CONTINUOUS
 62
     3
100
AcDbLine
 10
5.166185999999999
 20
13.751519
 30
0.0
 11
5.016186
 21
13.751519
 31
0.0
  0
LINE
  5
28B
330
A
100
AcDbEntity
  8
TOP
  6
CONTINUOUS
 62
     3
100
AcDbLine
 10
18.546793
 20
3.449205
 30
0.0
 11
18.51737599999999
 21
3.449205
 31
0.0
  0
LINE
  5
28C
330
A
100
AcDbEntity
  8
TOP
  6
CONTINUOUS
 62
     3
100
AcDbLine
 10
20.960697
 20
31.671518
 30
0.0
 11
20.98103899999999
 21
31.671518
 31
0.0
  0
LINE
  5
28D
330
A
100
AcDbEntity
  8
TOP
  6
CONTINUOUS
 62
     3
100
AcDbLine
 10
19.21818499999999
 20
3.379204999999999
 30
0.0
 11
19.21818499999999
 21
2.943862999999999
 31
0.0
  0
LINE
  5
28E
330
A
100
AcDbEntity
  8
TOP
  6
CONTINUOUS
 62
     3
100
AcDbLine
 10
41.49163099999999
 20
12.18401899999999
 30
0.0
 11
41.478996
 21
12.18401899999999
 31
0.0
  0
LINE
  5
28F
330
A
100
AcDbEntity
  8
TOP
  6
CONTINUOUS
 62
     3
100
AcDbLine
 10
19.21818499999999
 20
4.163547
 30
0.0
 11
19.21818499999999
 21
4.069205
 31
0.0
  0
LINE
  5
290
330
A
100
AcDbEntity
  8
TOP
  6
CONTINUOUS
 62
     3
100
AcDbLine
 10
19.19818499999999
 20
4.049204999999999
 30
0.0
 11
18.914261
 21
4.049204999999999
 31
0.0
  0
LINE
  5
291
330
A
100
AcDbEntity
  8
TOP
  6
CONTINUOUS
 62
     3
100
AcDbLine
 10
20.993824
 20
30.65152
 30
0.0
 11
20.981037
 21
30.65152
 31
0.0
  0
LINE
  5
292
330
A
100
AcDbEntity
  8
TOP
  6
CONTINUOUS
 62
     3
100
AcDbLine
 10
4.892376999999999
 20
30.011518
 30
0.0
 11
4.904664999999999
 21
30.011518
 31
0.0
  0
LINE
  5
293
330
A
100
AcDbEntity
  8
TOP
  6
CONTINUOUS
 62
     3
100
AcDbLine
 10
19.19818499999999
 20
3.449205
 30
0.0
 11
18.63755199999999
 21
3.449205
 31
0.0
  0
LINE
  5
294
330
A
100
AcDbEntity
  8
TOP
  6
CONTINUOUS
 62
     3
100
AcDbLine
 10
4.979351
 20
30.011518
 30
0.0
 11
5.011186
 21
30.011518
 31
0.0
  0
LINE
  5
295
330
A
100
AcDbEntity
  8
TOP
  6
CONTINUOUS
 62
     3
100
AcDbLine
 10
5.081185999999999
 20
31.67150499999999
 30
0.0
 11
5.081185999999999
 21
31.69150399999999
 31
0.0
  0
LINE
  5
296
330
A
100
AcDbEntity
  8
TOP
  6
CONTINUOUS
 62
     3
100
AcDbLine
 10
5.166185999999999
 20
32.221519
 30
0.0
 11
5.166185999999999
 21
31.671518
 31
0.0
  0
LINE
  5
297
330
A
100
AcDbEntity
  8
TOP
  6
CONTINUOUS
 62
     3
100
AcDbLine
 10
18.498186
 20
5.364205
 30
0.0
 11
18.50402499999999
 21
5.364205
 31
0.0
  0
LINE
  5
298
330
A
100
AcDbEntity
  8
TOP
  6
CONTINUOUS
 62
     3
100
AcDbLine
 10
18.51043699999999
 20
5.364205
 30
0.0
 11
18.50402499999999
 21
5.364205
 31
0.0
  0
LINE
  5
299
330
A
100
AcDbEntity
  8
TOP
  6
CONTINUOUS
 62
     3
100
AcDbLine
 10
5.011186
 20
14.37151899999999
 30
0.0
 11
5.011186
 21
30.011518
 31
0.0
  0
LINE
  5
29A
330
A
100
AcDbEntity
  8
TOP
  6
CONTINUOUS
 62
     3
100
AcDbLine
 10
5.166185999999999
 20
13.211519
 30
0.0
 11
5.016186
 21
13.211519
 31
0.0
  0
LINE
  5
29B
330
A
100
AcDbEntity
  8
TOP
  6
CONTINUOUS
 62
     3
100
AcDbLine
 10
15.358186
 20
5.872205
 30
0.0
 11
15.358186
 21
5.913204999999999
 31
0.0
  0
LINE
  5
29C
330
A
100
AcDbEntity
  8
TOP
  6
CONTINUOUS
 62
     3
100
AcDbLine
 10
15.841186
 20
12.161519
 30
0.0
 11
5.166185999999999
 21
12.161519
 31
0.0
  0
LINE
  5
29D
330
A
100
AcDbEntity
  8
TOP
  6
CONTINUOUS
 62
     3
100
AcDbLine
 10
15.358186
 20
5.913204999999999
 30
0.0
 11
15.37232799999999
 21
5.916586999999999
 31
0.0
  0
LINE
  5
29E
330
A
100
AcDbEntity
  8
TOP
  6
CONTINUOUS
 62
     3
100
AcDbLine
 10
5.016186
 20
31.671518
 30
0.0
 11
5.016186
 21
31.171518
 31
0.0
  0
LINE
  5
29F
330
A
100
AcDbEntity
  8
TOP
  6
CONTINUOUS
 62
     3
100
AcDbLine
 10
16.428808
 20
5.948204999999999
 30
0.0
 11
18.147564
 21
5.948204999999999
 31
0.0
  0
LINE
  5
2A0
330
A
100
AcDbEntity
  8
TOP
  6
CONTINUOUS
 62
     3
100
AcDbLine
 10
18.188187
 20
5.913204999999999
 30
0.0
 11
16.388186
 21
5.913204999999999
 31
0.0
  0
LINE
  5
2A1
330
A
100
AcDbEntity
  8
TOP
  6
CONTINUOUS
 62
     3
100
AcDbLine
 10
15.841186
 20
32.309967
 30
0.0
 11
15.841186
 21
32.314518
 31
0.0
  0
LINE
  5
2A2
330
A
100
AcDbEntity
  8
TOP
  6
CONTINUOUS
 62
     3
100
AcDbLine
 10
15.841186
 20
12.106855
 30
0.0
 11
15.841186
 21
12.086281
 31
0.0
  0
LINE
  5
2A3
330
A
100
AcDbEntity
  8
TOP
  6
CONTINUOUS
 62
     3
100
AcDbLine
 10
20.998186
 20
2.504204999999999
 30
0.0
 11
20.998186
 21
5.744205
 31
0.0
  0
LINE
  5
2A4
330
A
100
AcDbEntity
  8
TOP
  6
CONTINUOUS
 62
     3
100
AcDbLine
 10
14.86159299999999
 20
22.55151899999999
 30
0.0
 11
14.865371
 21
22.53652
 31
0.0
  0
LINE
  5
2A5
330
A
100
AcDbEntity
  8
TOP
  6
CONTINUOUS
 62
     3
100
AcDbLine
 10
5.166185999999999
 20
12.06852
 30
0.0
 11
15.841186
 21
12.06852
 31
0.0
  0
LINE
  5
2A6
330
A
100
AcDbEntity
  8
TOP
  6
CONTINUOUS
 62
     3
100
AcDbLine
 10
20.935186
 20
2.481243999999999
 30
0.0
 11
20.935186
 21
2.504204999999999
 31
0.0
  0
LINE
  5
2A7
330
A
100
AcDbEntity
  8
TOP
  6
CONTINUOUS
 62
     3
100
AcDbLine
 10
4.952183999999999
 20
30.631519
 30
0.0
 11
4.925673999999999
 21
30.631519
 31
0.0
  0
LINE
  5
2A8
330
A
100
AcDbEntity
  8
TOP
  6
CONTINUOUS
 62
     3
100
AcDbLine
 10
4.888186
 20
2.461778999999999
 30
0.0
 11
4.888186
 21
2.481243999999999
 31
0.0
  0
LINE
  5
2A9
330
A
100
AcDbEntity
  8
TOP
  6
CONTINUOUS
 62
     3
100
AcDbLine
 10
14.85127499999999
 20
21.82053799999999
 30
0.0
 11
14.837179
 21
21.81651899999999
 31
0.0
  0
LINE
  5
2AA
330
A
100
AcDbEntity
  8
TOP
  6
CONTINUOUS
 62
     3
100
AcDbLine
 10
4.951185999999999
 20
2.504204999999999
 30
0.0
 11
4.951185999999999
 21
2.481243999999999
 31
0.0
  0
LINE
  5
2AB
330
A
100
AcDbEntity
  8
TOP
  6
CONTINUOUS
 62
     3
100
AcDbLine
 10
14.99368699999999
 20
22.58651899999999
 30
0.0
 11
14.99368699999999
 21
22.57237599999999
 31
0.0
  0
LINE
  5
2AC
330
A
100
AcDbEntity
  8
TOP
  6
CONTINUOUS
 62
     3
100
AcDbLine
 10
15.90515899999999
 20
5.788204999999999
 30
0.0
 11
15.841153
 21
5.788204999999999
 31
0.0
  0
LINE
  5
2AD
330
A
100
AcDbEntity
  8
TOP
  6
CONTINUOUS
 62
     3
100
AcDbLine
 10
14.032122
 20
22.53652
 30
0.0
 11
14.026263
 21
22.53652
 31
0.0
  0
LINE
  5
2AE
330
A
100
AcDbEntity
  8
TOP
  6
CONTINUOUS
 62
     3
100
AcDbLine
 10
5.016186
 20
31.171518
 30
0.0
 11
4.983056
 21
31.171518
 31
0.0
  0
LINE
  5
2AF
330
A
100
AcDbEntity
  8
TOP
  6
CONTINUOUS
 62
     3
100
AcDbLine
 10
20.837185
 20
2.351205
 30
0.0
 11
20.837185
 21
2.355757
 31
0.0
  0
LINE
  5
2B0
330
A
100
AcDbEntity
  8
TOP
  6
CONTINUOUS
 62
     3
100
AcDbLine
 10
14.063885
 20
21.81651899999999
 30
0.0
 11
14.063885
 21
21.810661
 31
0.0
  0
LINE
  5
2B1
330
A
100
AcDbEntity
  8
TOP
  6
CONTINUOUS
 62
     3
100
AcDbLine
 10
20.837185
 20
2.415467
 30
0.0
 11
20.837185
 21
2.444205
 31
0.0
  0
LINE
  5
2B2
330
A
100
AcDbEntity
  8
TOP
  6
CONTINUOUS
 62
     3
100
AcDbLine
 10
14.837179
 20
21.84651899999999
 30
0.0
 11
14.837179
 21
21.83152
 31
0.0
  0
LINE
  5
2B3
330
A
100
AcDbEntity
  8
TOP
  6
CONTINUOUS
 62
     3
100
AcDbLine
 10
38.502491
 20
12.711519
 30
0.0
 11
38.50685099999999
 21
12.711519
 31
0.0
  0
LINE
  5
2B4
330
A
100
AcDbEntity
  8
TOP
  6
CONTINUOUS
 62
     3
100
AcDbLine
 10
8.503185999999999
 20
3.317204999999999
 30
0.0
 11
8.503185999999999
 21
3.917205
 31
0.0
  0
LINE
  5
2B5
330
A
100
AcDbEntity
  8
TOP
  6
CONTINUOUS
 62
     3
100
AcDbLine
 10
5.166185999999999
 20
30.631519
 30
0.0
 11
5.016186
 21
30.631519
 31
0.0
  0
LINE
  5
2B6
330
A
100
AcDbEntity
  8
TOP
  6
CONTINUOUS
 62
     3
100
AcDbLine
 10
18.202328
 20
22.740662
 30
0.0
 11
18.188187
 21
22.74651899999999
 31
0.0
  0
LINE
  5
2B7
330
A
100
AcDbEntity
  8
TOP
  6
CONTINUOUS
 62
     3
100
AcDbLine
 10
38.25085399999999
 20
13.731519
 30
0.0
 11
38.25085399999999
 21
13.231519
 31
0.0
  0
LINE
  5
2B8
330
A
100
AcDbEntity
  8
TOP
  6
CONTINUOUS
 62
     3
100
AcDbLine
 10
14.837179
 20
22.55151899999999
 30
0.0
 11
14.837179
 21
22.5625
 31
0.0
  0
LINE
  5
2B9
330
A
100
AcDbEntity
  8
TOP
  6
CONTINUOUS
 62
     3
100
AcDbLine
 10
19.493185
 20
2.657204999999999
 30
0.0
 11
19.493185
 21
2.497205
 31
0.0
  0
LINE
  5
2BA
330
A
100
AcDbEntity
  8
TOP
  6
CONTINUOUS
 62
     3
100
AcDbLine
 10
16.909191
 20
22.53652
 30
0.0
 11
16.909191
 21
21.84651899999999
 31
0.0
  0
LINE
  5
2BB
330
A
100
AcDbEntity
  8
TOP
  6
CONTINUOUS
 62
     3
100
AcDbLine
 10
18.993185
 20
2.657204999999999
 30
0.0
 11
18.993185
 21
2.497205
 31
0.0
  0
LINE
  5
2BC
330
A
100
AcDbEntity
  8
TOP
  6
CONTINUOUS
 62
     3
100
AcDbLine
 10
16.703526
 20
22.555653
 30
0.0
 11
16.71506099999999
 21
22.571875
 31
0.0
  0
LINE
  5
2BD
330
A
100
AcDbEntity
  8
TOP
  6
CONTINUOUS
 62
     3
100
AcDbLine
 10
7.3253
 20
31.59082
 30
0.0
 11
7.300561
 21
31.615561
 31
0.0
  0
LINE
  5
2BE
330
A
100
AcDbEntity
  8
TOP
  6
CONTINUOUS
 62
     3
100
AcDbLine
 10
4.905332999999999
 20
12.711519
 30
0.0
 11
4.892546
 21
12.711519
 31
0.0
  0
LINE
  5
2BF
330
A
100
AcDbEntity
  8
TOP
  6
CONTINUOUS
 62
     3
100
AcDbLine
 10
7.535716999999999
 20
31.689779
 30
0.0
 11
7.510977999999999
 21
31.71452
 31
0.0
  0
LINE
  5
2C0
330
A
100
AcDbEntity
  8
TOP
  6
CONTINUOUS
 62
     3
100
AcDbLine
 10
20.87019
 20
31.15152
 30
0.0
 11
20.837061
 21
31.15152
 31
0.0
  0
LINE
  5
2C1
330
A
100
AcDbEntity
  8
TOP
  6
CONTINUOUS
 62
     3
100
AcDbLine
 10
41.305855
 20
12.190654
 30
0.0
 11
41.305855
 21
12.19152
 31
0.0
  0
LINE
  5
2C2
330
A
100
AcDbEntity
  8
TOP
  6
CONTINUOUS
 62
     3
100
AcDbLine
 10
5.049185999999999
 20
5.594204999999999
 30
0.0
 11
5.106186
 21
5.594204999999999
 31
0.0
  0
LINE
  5
2C3
330
A
100
AcDbEntity
  8
TOP
  6
CONTINUOUS
 62
     3
100
AcDbLine
 10
6.964883999999999
 20
31.65332
 30
0.0
 11
6.891967
 21
31.65332
 31
0.0
  0
LINE
  5
2C4
330
A
100
AcDbEntity
  8
TOP
  6
CONTINUOUS
 62
     3
100
AcDbLine
 10
17.702295
 20
21.800325
 30
0.0
 11
17.682487
 21
21.79651799999999
 31
0.0
  0
LINE
  5
2C5
330
A
100
AcDbEntity
  8
TOP
  6
CONTINUOUS
 62
     3
100
AcDbLine
 10
16.752686
 20
22.58651899999999
 30
0.0
 11
17.682487
 21
22.58651899999999
 31
0.0
  0
LINE
  5
2C6
330
A
100
AcDbEntity
  8
TOP
  6
CONTINUOUS
 62
     3
100
AcDbLine
 10
6.854727999999999
 20
31.615561
 30
0.0
 11
6.854727999999999
 21
31.689779
 31
0.0
  0
LINE
  5
2C7
330
A
100
AcDbEntity
  8
TOP
  6
CONTINUOUS
 62
     3
100
AcDbLine
 10
16.71506099999999
 20
21.811163
 30
0.0
 11
16.703526
 21
21.827385
 31
0.0
  0
LINE
  5
2C8
330
A
100
AcDbEntity
  8
TOP
  6
CONTINUOUS
 62
     3
100
AcDbLine
 10
5.049185999999999
 20
2.414204999999999
 30
0.0
 11
4.981186
 21
2.414204999999999
 31
0.0
  0
LINE
  5
2C9
330
A
100
AcDbEntity
  8
TOP
  6
CONTINUOUS
 62
     3
100
AcDbLine
 10
5.802383999999999
 20
31.59082
 30
0.0
 11
5.851862999999999
 21
31.71452
 31
0.0
  0
LINE
  5
2CA
330
A
100
AcDbEntity
  8
TOP
  6
CONTINUOUS
 62
     3
100
AcDbLine
 10
4.981186
 20
2.351205
 30
0.0
 11
4.981186
 21
2.414204999999999
 31
0.0
  0
LINE
  5
2CB
330
A
100
AcDbEntity
  8
TOP
  6
CONTINUOUS
 62
     3
100
AcDbLine
 10
5.739101999999999
 20
31.65332
 30
0.0
 11
5.666185999999999
 21
31.65332
 31
0.0
  0
LINE
  5
2CC
330
A
100
AcDbEntity
  8
TOP
  6
CONTINUOUS
 62
     3
100
AcDbLine
 10
38.50685099999999
 20
12.711519
 30
0.0
 11
38.50685099999999
 21
13.211519
 31
0.0
  0
LINE
  5
2CD
330
A
100
AcDbEntity
  8
TOP
  6
CONTINUOUS
 62
     3
100
AcDbLine
 10
16.388186
 20
5.913204999999999
 30
0.0
 11
16.388186
 21
5.872205
 31
0.0
  0
LINE
  5
2CE
330
A
100
AcDbEntity
  8
TOP
  6
CONTINUOUS
 62
     3
100
AcDbLine
 10
16.881001
 20
21.84651899999999
 30
0.0
 11
16.881001
 21
22.53652
 31
0.0
  0
LINE
  5
2CF
330
A
100
AcDbEntity
  8
TOP
  6
CONTINUOUS
 62
     3
100
AcDbLine
 10
7.213841999999999
 20
31.71452
 30
0.0
 11
7.213841999999999
 21
31.59082
 31
0.0
  0
LINE
  5
2D0
330
A
100
AcDbEntity
  8
TOP
  6
CONTINUOUS
 62
     3
100
AcDbLine
 10
38.25085399999999
 20
31.71452
 30
0.0
 11
38.25085399999999
 21
31.59082
 31
0.0
  0
LINE
  5
2D1
330
A
100
AcDbEntity
  8
TOP
  6
CONTINUOUS
 62
     3
100
AcDbLine
 10
5.049185999999999
 20
2.444205
 30
0.0
 11
5.020446999999999
 21
2.444205
 31
0.0
  0
LINE
  5
2D2
330
A
100
AcDbEntity
  8
TOP
  6
CONTINUOUS
 62
     3
100
AcDbLine
 10
6.891967
 20
31.59082
 30
0.0
 11
6.891967
 21
31.71452
 31
0.0
  0
LINE
  5
2D3
330
A
100
AcDbEntity
  8
TOP
  6
CONTINUOUS
 62
     3
100
AcDbLine
 10
18.202328
 20
21.64237799999999
 30
0.0
 11
18.147564
 21
21.697142
 31
0.0
  0
LINE
  5
2D4
330
A
100
AcDbEntity
  8
TOP
  6
CONTINUOUS
 62
     3
100
AcDbLine
 10
4.960738
 20
2.444205
 30
0.0
 11
4.956185999999999
 21
2.444205
 31
0.0
  0
LINE
  5
2D5
330
A
100
AcDbEntity
  8
TOP
  6
CONTINUOUS
 62
     3
100
AcDbLine
 10
6.173738
 20
31.689779
 30
0.0
 11
6.147695999999999
 21
31.71452
 31
0.0
  0
LINE
  5
2D6
330
A
100
AcDbEntity
  8
TOP
  6
CONTINUOUS
 62
     3
100
AcDbLine
 10
16.374044
 20
22.740662
 30
0.0
 11
16.368185
 21
22.726519
 31
0.0
  0
LINE
  5
2D7
330
A
100
AcDbEntity
  8
TOP
  6
CONTINUOUS
 62
     3
100
AcDbLine
 10
4.994521999999999
 20
5.594204999999999
 30
0.0
 11
5.020446999999999
 21
5.594204999999999
 31
0.0
  0
LINE
  5
2D8
330
A
100
AcDbEntity
  8
TOP
  6
CONTINUOUS
 62
     3
100
AcDbLine
 10
14.99368699999999
 20
22.566519
 30
0.0
 11
14.063885
 21
22.566519
 31
0.0
  0
LINE
  5
2D9
330
A
100
AcDbEntity
  8
TOP
  6
CONTINUOUS
 62
     3
100
AcDbLine
 10
38.25085399999999
 20
31.71452
 30
0.0
 11
38.25085399999999
 21
31.59082
 31
0.0
  0
LINE
  5
2DA
330
A
100
AcDbEntity
  8
TOP
  6
CONTINUOUS
 62
     3
100
AcDbLine
 10
15.046896
 20
21.84651899999999
 30
0.0
 11
15.042846
 21
21.827385
 31
0.0
  0
LINE
  5
2DB
330
A
100
AcDbEntity
  8
TOP
  6
CONTINUOUS
 62
     3
100
AcDbLine
 10
17.682487
 20
22.58651899999999
 30
0.0
 11
17.702295
 21
22.58271399999999
 31
0.0
  0
LINE
  5
2DC
330
A
100
AcDbEntity
  8
TOP
  6
CONTINUOUS
 62
     3
100
AcDbLine
 10
38.25085399999999
 20
31.615561
 30
0.0
 11
38.25085399999999
 21
31.59082
 31
0.0
  0
LINE
  5
2DD
330
A
100
AcDbEntity
  8
TOP
  6
CONTINUOUS
 62
     3
100
AcDbLine
 10
20.935186
 20
2.504204999999999
 30
0.0
 11
20.998186
 21
2.504204999999999
 31
0.0
  0
LINE
  5
2DE
330
A
100
AcDbEntity
  8
TOP
  6
CONTINUOUS
 62
     3
100
AcDbLine
 10
14.99368699999999
 20
21.79651799999999
 30
0.0
 11
14.063885
 21
21.79651799999999
 31
0.0
  0
LINE
  5
2DF
330
A
100
AcDbEntity
  8
TOP
  6
CONTINUOUS
 62
     3
100
AcDbLine
 10
38.25085399999999
 20
31.615561
 30
0.0
 11
38.25085399999999
 21
31.689779
 31
0.0
  0
LINE
  5
2E0
330
A
100
AcDbEntity
  8
TOP
  6
CONTINUOUS
 62
     3
100
AcDbLine
 10
14.016062
 20
21.827385
 30
0.0
 11
14.012121
 21
21.84651899999999
 31
0.0
  0
LINE
  5
2E1
330
A
100
AcDbEntity
  8
TOP
  6
CONTINUOUS
 62
     3
100
AcDbLine
 10
4.892547
 20
31.691519
 30
0.0
 11
4.905333999999999
 21
31.691519
 31
0.0
  0
LINE
  5
2E2
330
A
100
AcDbEntity
  8
TOP
  6
CONTINUOUS
 62
     3
100
AcDbLine
 10
14.027283
 20
22.571875
 30
0.0
 11
14.044076
 21
22.58271399999999
 31
0.0
  0
LINE
  5
2E3
330
A
100
AcDbEntity
  8
TOP
  6
CONTINUOUS
 62
     3
100
AcDbLine
 10
4.983054
 20
31.691519
 30
0.0
 11
5.016180999999999
 21
31.691519
 31
0.0
  0
LINE
  5
2E4
330
A
100
AcDbEntity
  8
TOP
  6
CONTINUOUS
 62
     3
100
AcDbLine
 10
6.618189
 20
3.557205
 30
0.0
 11
6.668182999999999
 21
3.557205
 31
0.0
  0
LINE
  5
2E5
330
A
100
AcDbEntity
  8
TOP
  6
CONTINUOUS
 62
     3
100
AcDbLine
 10
17.698709
 20
21.82053799999999
 30
0.0
 11
17.71058499999999
 21
21.83152
 31
0.0
  0
LINE
  5
2E6
330
A
100
AcDbEntity
  8
TOP
  6
CONTINUOUS
 62
     3
100
AcDbLine
 10
5.106690999999999
 20
31.691519
 30
0.0
 11
5.127034
 21
31.691519
 31
0.0
  0
LINE
  5
2E7
330
A
100
AcDbEntity
  8
TOP
  6
CONTINUOUS
 62
     3
100
AcDbLine
 10
8.054275
 20
3.664204999999999
 30
0.0
 11
8.141723
 21
3.664204999999999
 31
0.0
  0
LINE
  5
2E8
330
A
100
AcDbEntity
  8
TOP
  6
CONTINUOUS
 62
     3
100
AcDbLine
 10
17.698709
 20
22.5625
 30
0.0
 11
17.682487
 21
22.566519
 31
0.0
  0
LINE
  5
2E9
330
A
100
AcDbEntity
  8
TOP
  6
CONTINUOUS
 62
     3
100
AcDbLine
 10
38.25085399999999
 20
31.71452
 30
0.0
 11
38.25085399999999
 21
31.59082
 31
0.0
  0
LINE
  5
2EA
330
A
100
AcDbEntity
  8
TOP
  6
CONTINUOUS
 62
     3
100
AcDbLine
 10
8.042699999999999
 20
3.612731
 30
0.0
 11
8.141249
 21
3.612731
 31
0.0
  0
LINE
  5
2EB
330
A
100
AcDbEntity
  8
TOP
  6
CONTINUOUS
 62
     3
100
AcDbLine
 10
16.752686
 20
22.566519
 30
0.0
 11
16.735477
 21
22.5625
 31
0.0
  0
LINE
  5
2EC
330
A
100
AcDbEntity
  8
TOP
  6
CONTINUOUS
 62
     3
100
AcDbLine
 10
38.25085399999999
 20
31.689779
 30
0.0
 11
38.25085399999999
 21
31.71452
 31
0.0
  0
LINE
  5
2ED
330
A
100
AcDbEntity
  8
TOP
  6
CONTINUOUS
 62
     3
100
AcDbLine
 10
8.048185999999999
 20
3.584204999999999
 30
0.0
 11
8.141374
 21
3.584204999999999
 31
0.0
  0
LINE
  5
2EE
330
A
100
AcDbEntity
  8
TOP
  6
CONTINUOUS
 62
     3
100
AcDbLine
 10
41.495853
 20
12.096519
 30
0.0
 11
41.49163099999999
 21
12.096519
 31
0.0
  0
LINE
  5
2EF
330
A
100
AcDbEntity
  8
TOP
  6
CONTINUOUS
 62
     3
100
AcDbLine
 10
41.429001
 20
12.096519
 30
0.0
 11
41.392063
 21
12.096519
 31
0.0
  0
LINE
  5
2F0
330
A
100
AcDbEntity
  8
TOP
  6
CONTINUOUS
 62
     3
100
AcDbLine
 10
20.998186
 20
5.749204999999999
 30
0.0
 11
20.998186
 21
5.744203999999999
 31
0.0
  0
LINE
  5
2F1
330
A
100
AcDbEntity
  8
TOP
  6
CONTINUOUS
 62
     3
100
AcDbLine
 10
17.702295
 20
22.58271399999999
 30
0.0
 11
17.71909
 21
22.571875
 31
0.0
  0
LINE
  5
2F2
330
A
100
AcDbEntity
  8
TOP
  6
CONTINUOUS
 62
     3
100
AcDbLine
 10
41.237473
 20
12.096519
 30
0.0
 11
41.172813
 21
12.096519
 31
0.0
  0
LINE
  5
2F3
330
A
100
AcDbEntity
  8
TOP
  6
CONTINUOUS
 62
     3
100
AcDbLine
 10
20.720186
 20
5.872205
 30
0.0
 11
20.720186
 21
5.867652999999999
 31
0.0
  0
LINE
  5
2F4
330
A
100
AcDbEntity
  8
TOP
  6
CONTINUOUS
 62
     3
100
AcDbLine
 10
40.947132
 20
12.096519
 30
0.0
 11
40.863483
 21
12.096519
 31
0.0
  0
LINE
  5
2F5
330
A
100
AcDbEntity
  8
TOP
  6
CONTINUOUS
 62
     3
100
AcDbLine
 10
20.720186
 20
5.807943999999999
 30
0.0
 11
20.720186
 21
5.779205
 31
0.0
  0
LINE
  5
2F6
330
A
100
AcDbEntity
  8
TOP
  6
CONTINUOUS
 62
     3
100
AcDbLine
 10
40.59719799999999
 20
12.096519
 30
0.0
 11
40.50585199999999
 21
12.096519
 31
0.0
  0
LINE
  5
2F7
330
A
100
AcDbEntity
  8
TOP
  6
CONTINUOUS
 62
     3
100
AcDbLine
 10
15.905186
 20
5.872205
 30
0.0
 11
15.905186
 21
5.867652999999999
 31
0.0
  0
LINE
  5
2F8
330
A
100
AcDbEntity
  8
TOP
  6
CONTINUOUS
 62
     3
100
AcDbLine
 10
38.268002
 20
13.211519
 30
0.0
 11
38.288342
 21
13.211519
 31
0.0
  0
LINE
  5
2F9
330
A
100
AcDbEntity
  8
TOP
  6
CONTINUOUS
 62
     3
100
AcDbLine
 10
41.495853
 20
12.18401899999999
 30
0.0
 11
41.49163099999999
 21
12.18401899999999
 31
0.0
  0
LINE
  5
2FA
330
A
100
AcDbEntity
  8
TOP
  6
CONTINUOUS
 62
     3
100
AcDbLine
 10
20.87518499999999
 20
14.37151899999999
 30
0.0
 11
20.84318499999999
 21
14.37151899999999
 31
0.0
  0
LINE
  5
2FB
330
A
100
AcDbEntity
  8
TOP
  6
CONTINUOUS
 62
     3
100
AcDbLine
 10
38.255043
 20
30.011518
 30
0.0
 11
38.26733
 21
30.011518
 31
0.0
  0
LINE
  5
2FC
330
A
100
AcDbEntity
  8
TOP
  6
CONTINUOUS
 62
     3
100
AcDbLine
 10
41.429001
 20
12.18401899999999
 30
0.0
 11
41.392063
 21
12.18401899999999
 31
0.0
  0
LINE
  5
2FD
330
A
100
AcDbEntity
  8
TOP
  6
CONTINUOUS
 62
     3
100
AcDbLine
 10
38.442848
 20
13.211519
 30
0.0
 11
38.469357
 21
13.211519
 31
0.0
  0
LINE
  5
2FE
330
A
100
AcDbEntity
  8
TOP
  6
CONTINUOUS
 62
     3
100
AcDbLine
 10
40.947132
 20
12.18401899999999
 30
0.0
 11
40.863483
 21
12.18401899999999
 31
0.0
  0
LINE
  5
2FF
330
A
100
AcDbEntity
  8
TOP
  6
CONTINUOUS
 62
     3
100
AcDbLine
 10
5.166185999999999
 20
5.872205
 30
0.0
 11
5.016186
 21
5.872205
 31
0.0
  0
LINE
  5
300
330
A
100
AcDbEntity
  8
TOP
  6
CONTINUOUS
 62
     3
100
AcDbLine
 10
15.841186
 20
5.867652999999999
 30
0.0
 11
15.841186
 21
5.854443999999999
 31
0.0
  0
LINE
  5
301
330
A
100
AcDbEntity
  8
TOP
  6
CONTINUOUS
 62
     3
100
AcDbLine
 10
38.645851
 20
12.184717
 30
0.0
 11
38.645851
 21
12.190654
 31
0.0
  0
LINE
  5
302
330
A
100
AcDbEntity
  8
TOP
  6
CONTINUOUS
 62
     3
100
AcDbLine
 10
5.166185999999999
 20
5.779205
 30
0.0
 11
5.166185999999999
 21
5.807943999999999
 31
0.0
  0
LINE
  5
303
330
A
100
AcDbEntity
  8
TOP
  6
CONTINUOUS
 62
     3
100
AcDbLine
 10
5.166185999999999
 20
5.867652999999999
 30
0.0
 11
5.166185999999999
 21
5.872205
 31
0.0
  0
LINE
  5
304
330
A
100
AcDbEntity
  8
TOP
  6
CONTINUOUS
 62
     3
100
AcDbLine
 10
40.50585199999999
 20
12.190654
 30
0.0
 11
40.589478
 21
12.190654
 31
0.0
  0
LINE
  5
305
330
A
100
AcDbEntity
  8
TOP
  6
CONTINUOUS
 62
     3
100
AcDbLine
 10
41.100368
 20
12.190654
 30
0.0
 11
41.15306499999999
 21
12.190654
 31
0.0
  0
LINE
  5
306
330
A
100
AcDbEntity
  8
TOP
  6
CONTINUOUS
 62
     3
100
AcDbLine
 10
16.368185
 20
5.913204999999999
 30
0.0
 11
16.374044
 21
5.916586999999999
 31
0.0
  0
LINE
  5
307
330
A
100
AcDbEntity
  8
TOP
  6
CONTINUOUS
 62
     3
100
AcDbLine
 10
38.65171099999999
 20
12.184224
 30
0.0
 11
38.645851
 21
12.184717
 31
0.0
  0
LINE
  5
308
330
A
100
AcDbEntity
  8
TOP
  6
CONTINUOUS
 62
     3
100
AcDbLine
 10
5.016186
 20
13.751519
 30
0.0
 11
4.983056
 21
13.751519
 31
0.0
  0
LINE
  5
309
330
A
100
AcDbEntity
  8
TOP
  6
CONTINUOUS
 62
     3
100
AcDbLine
 10
14.047663
 20
21.82053799999999
 30
0.0
 11
14.063885
 21
21.81651899999999
 31
0.0
  0
LINE
  5
30A
330
A
100
AcDbEntity
  8
TOP
  6
CONTINUOUS
 62
     3
100
AcDbLine
 10
38.174854
 20
21.697142
 30
0.0
 11
38.174854
 21
22.685898
 31
0.0
  0
LINE
  5
30B
330
A
100
AcDbEntity
  8
TOP
  6
CONTINUOUS
 62
     3
100
AcDbLine
 10
38.209854
 20
21.65651899999999
 30
0.0
 11
38.25085399999999
 21
21.65651899999999
 31
0.0
  0
LINE
  5
30C
330
A
100
AcDbEntity
  8
TOP
  6
CONTINUOUS
 62
     3
100
AcDbLine
 10
18.523949
 20
5.312204999999999
 30
0.0
 11
18.51043699999999
 21
5.312204999999999
 31
0.0
  0
LINE
  5
30D
330
A
100
AcDbEntity
  8
TOP
  6
CONTINUOUS
 62
     3
100
AcDbLine
 10
20.99382599999999
 20
30.631519
 30
0.0
 11
20.998186
 21
30.631519
 31
0.0
  0
LINE
  5
30E
330
A
100
AcDbEntity
  8
TOP
  6
CONTINUOUS
 62
     3
100
AcDbLine
 10
38.20647
 20
22.740662
 30
0.0
 11
38.174854
 21
22.685898
 31
0.0
  0
LINE
  5
30F
330
A
100
AcDbEntity
  8
TOP
  6
CONTINUOUS
 62
     3
100
AcDbLine
 10
17.73031
 20
22.555653
 30
0.0
 11
17.734251
 21
22.53652
 31
0.0
  0
LINE
  5
310
330
A
100
AcDbEntity
  8
TOP
  6
CONTINUOUS
 62
     3
100
AcDbLine
 10
38.20647
 20
21.64237799999999
 30
0.0
 11
38.209854
 21
21.65651899999999
 31
0.0
  0
LINE
  5
311
330
A
100
AcDbEntity
  8
TOP
  6
CONTINUOUS
 62
     3
100
AcDbLine
 10
38.37885299999999
 20
31.15152
 30
0.0
 11
38.37885299999999
 21
30.65152
 31
0.0
  0
LINE
  5
312
330
A
100
AcDbEntity
  8
TOP
  6
CONTINUOUS
 62
     3
100
AcDbLine
 10
38.37885299999999
 20
13.731519
 30
0.0
 11
38.37885299999999
 21
13.231519
 31
0.0
  0
LINE
  5
313
330
A
100
AcDbEntity
  8
TOP
  6
CONTINUOUS
 62
     3
100
AcDbLine
 10
38.37885299999999
 20
12.69151899999999
 30
0.0
 11
38.37885299999999
 21
12.19151899999999
 31
0.0
  0
LINE
  5
314
330
A
100
AcDbEntity
  8
TOP
  6
CONTINUOUS
 62
     3
100
AcDbLine
 10
38.25085399999999
 20
12.69151899999999
 30
0.0
 11
38.25085399999999
 21
12.19151899999999
 31
0.0
  0
LINE
  5
315
330
A
100
AcDbEntity
  8
TOP
  6
CONTINUOUS
 62
     3
100
AcDbLine
 10
38.25085399999999
 20
31.71452
 30
0.0
 11
38.25085399999999
 21
31.59082
 31
0.0
  0
LINE
  5
316
330
A
100
AcDbEntity
  8
TOP
  6
CONTINUOUS
 62
     3
100
AcDbLine
 10
16.428808
 20
5.948204999999999
 30
0.0
 11
16.374044
 21
5.916586999999999
 31
0.0
  0
LINE
  5
317
330
A
100
AcDbEntity
  8
TOP
  6
CONTINUOUS
 62
     3
100
AcDbLine
 10
8.141374
 20
3.584204999999999
 30
0.0
 11
8.237980999999999
 21
3.584204999999999
 31
0.0
  0
LINE
  5
318
330
A
100
AcDbEntity
  8
TOP
  6
CONTINUOUS
 62
     3
100
AcDbLine
 10
41.67885199999999
 20
32.098518
 30
0.0
 11
41.67885199999999
 21
12.284519
 31
0.0
  0
LINE
  5
319
330
A
100
AcDbEntity
  8
TOP
  6
CONTINUOUS
 62
     3
100
AcDbLine
 10
38.37885299999999
 20
32.191521
 30
0.0
 11
38.37885299999999
 21
31.691519
 31
0.0
  0
LINE
  5
31A
330
A
100
AcDbEntity
  8
TOP
  6
CONTINUOUS
 62
     3
100
AcDbLine
 10
41.67885199999999
 20
12.19151899999999
 30
0.0
 11
41.618805
 21
12.19151899999999
 31
0.0
  0
LINE
  5
31B
330
A
100
AcDbEntity
  8
TOP
  6
CONTINUOUS
 62
     3
100
AcDbLine
 10
41.77185399999999
 20
12.284519
 30
0.0
 11
41.77185399999999
 21
32.098518
 31
0.0
  0
LINE
  5
31C
330
A
100
AcDbEntity
  8
TOP
  6
CONTINUOUS
 62
     3
100
AcDbLine
 10
20.77967999999999
 20
30.65152
 30
0.0
 11
20.759338
 21
30.65152
 31
0.0
  0
LINE
  5
31D
330
A
100
AcDbEntity
  8
TOP
  6
CONTINUOUS
 62
     3
100
AcDbLine
 10
41.67885199999999
 20
12.22714999999999
 30
0.0
 11
41.67885199999999
 21
12.251518
 31
0.0
  0
LINE
  5
31E
330
A
100
AcDbEntity
  8
TOP
  6
CONTINUOUS
 62
     3
100
AcDbLine
 10
17.734251
 20
22.53652
 30
0.0
 11
17.734251
 21
21.84651899999999
 31
0.0
  0
LINE
  5
31F
330
A
100
AcDbEntity
  8
TOP
  6
CONTINUOUS
 62
     3
100
AcDbLine
 10
4.892546
 20
30.131519
 30
0.0
 11
4.888186
 21
30.131519
 31
0.0
  0
LINE
  5
320
330
A
100
AcDbEntity
  8
TOP
  6
CONTINUOUS
 62
     3
100
AcDbLine
 10
41.754093
 20
12.284519
 30
0.0
 11
41.733517
 21
12.284519
 31
0.0
  0
LINE
  5
321
330
A
100
AcDbEntity
  8
TOP
  6
CONTINUOUS
 62
     3
100
AcDbLine
 10
38.25085399999999
 20
31.702801
 30
0.0
 11
38.25085399999999
 21
31.665039
 31
0.0
  0
LINE
  5
322
330
A
100
AcDbEntity
  8
TOP
  6
CONTINUOUS
 62
     3
100
AcDbLine
 10
38.255215
 20
12.69151899999999
 30
0.0
 11
38.25085399999999
 21
12.69151899999999
 31
0.0
  0
LINE
  5
323
330
A
100
AcDbEntity
  8
TOP
  6
CONTINUOUS
 62
     3
100
AcDbLine
 10
38.288342
 20
12.19151899999999
 30
0.0
 11
38.268002
 21
12.19151899999999
 31
0.0
  0
LINE
  5
324
330
A
100
AcDbEntity
  8
TOP
  6
CONTINUOUS
 62
     3
100
AcDbLine
 10
38.411976
 20
12.711519
 30
0.0
 11
38.442848
 21
12.711519
 31
0.0
  0
LINE
  5
325
330
A
100
AcDbEntity
  8
TOP
  6
CONTINUOUS
 62
     3
100
AcDbLine
 10
38.345722
 20
13.731519
 30
0.0
 11
38.31485
 21
13.731519
 31
0.0
  0
LINE
  5
326
330
A
100
AcDbEntity
  8
TOP
  6
CONTINUOUS
 62
     3
100
AcDbLine
 10
38.442848
 20
13.751519
 30
0.0
 11
38.469357
 21
13.751519
 31
0.0
  0
LINE
  5
327
330
A
100
AcDbEntity
  8
TOP
  6
CONTINUOUS
 62
     3
100
AcDbLine
 10
38.255215
 20
13.731519
 30
0.0
 11
38.25085399999999
 21
13.731519
 31
0.0
  0
LINE
  5
328
330
A
100
AcDbEntity
  8
TOP
  6
CONTINUOUS
 62
     3
100
AcDbLine
 10
4.951185999999999
 20
31.17152
 30
0.0
 11
4.951185999999999
 21
31.15152399999999
 31
0.0
  0
LINE
  5
329
330
A
100
AcDbEntity
  8
TOP
  6
CONTINUOUS
 62
     3
100
AcDbLine
 10
20.759338
 20
30.65152
 30
0.0
 11
20.74654999999999
 21
30.65152
 31
0.0
  0
LINE
  5
32A
330
A
100
AcDbEntity
  8
TOP
  6
CONTINUOUS
 62
     3
100
AcDbLine
 10
38.288342
 20
13.231519
 30
0.0
 11
38.268002
 21
13.231519
 31
0.0
  0
LINE
  5
32B
330
A
100
AcDbEntity
  8
TOP
  6
CONTINUOUS
 62
     3
100
AcDbLine
 10
38.25085399999999
 20
31.71452
 30
0.0
 11
38.25085399999999
 21
31.59082
 31
0.0
  0
LINE
  5
32C
330
A
100
AcDbEntity
  8
TOP
  6
CONTINUOUS
 62
     3
100
AcDbLine
 10
38.345722
 20
31.15152
 30
0.0
 11
38.31485
 21
31.15152
 31
0.0
  0
LINE
  5
32D
330
A
100
AcDbEntity
  8
TOP
  6
CONTINUOUS
 62
     3
100
AcDbLine
 10
38.255215
 20
31.15152
 30
0.0
 11
38.25085399999999
 21
31.15152
 31
0.0
  0
LINE
  5
32E
330
A
100
AcDbEntity
  8
TOP
  6
CONTINUOUS
 62
     3
100
AcDbLine
 10
38.288342
 20
30.65152
 30
0.0
 11
38.268002
 21
30.65152
 31
0.0
  0
LINE
  5
32F
330
A
100
AcDbEntity
  8
TOP
  6
CONTINUOUS
 62
     3
100
AcDbLine
 10
38.209854
 20
22.726519
 30
0.0
 11
38.209854
 21
21.65651899999999
 31
0.0
  0
LINE
  5
330
330
A
100
AcDbEntity
  8
TOP
  6
CONTINUOUS
 62
     3
100
AcDbLine
 10
38.255215
 20
32.191521
 30
0.0
 11
38.25085399999999
 21
32.191521
 31
0.0
  0
LINE
  5
331
330
A
100
AcDbEntity
  8
TOP
  6
CONTINUOUS
 62
     3
100
AcDbLine
 10
38.328854
 20
14.371719
 30
0.0
 11
38.328854
 21
14.251523
 31
0.0
  0
LINE
  5
332
330
A
100
AcDbEntity
  8
TOP
  6
CONTINUOUS
 62
     3
100
AcDbLine
 10
38.28687999999999
 20
30.011518
 30
0.0
 11
38.312351
 21
30.011518
 31
0.0
  0
LINE
  5
333
330
A
100
AcDbEntity
  8
TOP
  6
CONTINUOUS
 62
     3
100
AcDbLine
 10
18.498186
 20
5.312204999999999
 30
0.0
 11
18.50402499999999
 21
5.312204999999999
 31
0.0
  0
LINE
  5
334
330
A
100
AcDbEntity
  8
TOP
  6
CONTINUOUS
 62
     3
100
AcDbLine
 10
38.37385199999999
 20
14.37151899999999
 30
0.0
 11
38.44085299999999
 21
14.37151899999999
 31
0.0
  0
LINE
  5
335
330
A
100
AcDbEntity
  8
TOP
  6
CONTINUOUS
 62
     3
100
AcDbLine
 10
38.28687999999999
 20
14.37151899999999
 30
0.0
 11
38.26733
 21
14.37151899999999
 31
0.0
  0
LINE
  5
336
330
A
100
AcDbEntity
  8
TOP
  6
CONTINUOUS
 62
     3
100
AcDbLine
 10
38.25085399999999
 20
31.151514
 30
0.0
 11
38.25085399999999
 21
31.171518
 31
0.0
  0
LINE
  5
337
330
A
100
AcDbEntity
  8
TOP
  6
CONTINUOUS
 62
     3
100
AcDbLine
 10
38.25085399999999
 20
31.71452
 30
0.0
 11
38.25085399999999
 21
31.689779
 31
0.0
  0
LINE
  5
338
330
A
100
AcDbEntity
  8
TOP
  6
CONTINUOUS
 62
     3
100
AcDbLine
 10
38.25085399999999
 20
30.016087
 30
0.0
 11
38.25085399999999
 21
30.029093
 31
0.0
  0
LINE
  5
339
330
A
100
AcDbEntity
  8
TOP
  6
CONTINUOUS
 62
     3
100
AcDbLine
 10
20.998186
 20
2.504204999999999
 30
0.0
 11
20.998186
 21
2.481243999999999
 31
0.0
  0
LINE
  5
33A
330
A
100
AcDbEntity
  8
TOP
  6
CONTINUOUS
 62
     3
100
AcDbLine
 10
5.080180999999999
 20
31.15152
 30
0.0
 11
5.106690999999999
 21
31.15152
 31
0.0
  0
LINE
  5
33B
330
A
100
AcDbEntity
  8
TOP
  6
CONTINUOUS
 62
     3
100
AcDbLine
 10
14.837179
 20
22.5625
 30
0.0
 11
14.837179
 21
22.566519
 31
0.0
  0
LINE
  5
33C
330
A
100
AcDbEntity
  8
TOP
  6
CONTINUOUS
 62
     3
100
AcDbLine
 10
5.139821999999999
 20
31.691519
 30
0.0
 11
5.144186
 21
31.691519
 31
0.0
  0
LINE
  5
33D
330
A
100
AcDbEntity
  8
TOP
  6
CONTINUOUS
 62
     3
100
AcDbLine
 10
16.722881
 20
22.55151899999999
 30
0.0
 11
16.718269
 21
22.53652
 31
0.0
  0
LINE
  5
33E
330
A
100
AcDbEntity
  8
TOP
  6
CONTINUOUS
 62
     3
100
AcDbLine
 10
17.682487
 20
21.810661
 30
0.0
 11
17.682487
 21
21.79651799999999
 31
0.0
  0
LINE
  5
33F
330
A
100
AcDbEntity
  8
TOP
  6
CONTINUOUS
 62
     3
100
AcDbLine
 10
16.710947
 20
21.84651899999999
 30
0.0
 11
16.718269
 21
21.84651899999999
 31
0.0
  0
LINE
  5
340
330
A
100
AcDbEntity
  8
TOP
  6
CONTINUOUS
 62
     3
100
AcDbLine
 10
16.710947
 20
22.53652
 30
0.0
 11
16.718269
 21
22.53652
 31
0.0
  0
LINE
  5
341
330
A
100
AcDbEntity
  8
TOP
  6
CONTINUOUS
 62
     3
100
AcDbLine
 10
16.752686
 20
22.57237599999999
 30
0.0
 11
16.752686
 21
22.566519
 31
0.0
  0
LINE
  5
342
330
A
100
AcDbEntity
  8
TOP
  6
CONTINUOUS
 62
     3
100
AcDbLine
 10
14.99368699999999
 20
21.79651799999999
 30
0.0
 11
14.99368699999999
 21
21.810661
 31
0.0
  0
LINE
  5
343
330
A
100
AcDbEntity
  8
TOP
  6
CONTINUOUS
 62
     3
100
AcDbLine
 10
16.909191
 20
22.53652
 30
0.0
 11
16.89198499999999
 21
22.53652
 31
0.0
  0
LINE
  5
344
330
A
100
AcDbEntity
  8
TOP
  6
CONTINUOUS
 62
     3
100
AcDbLine
 10
16.909191
 20
21.84651899999999
 30
0.0
 11
16.909191
 21
21.83152
 31
0.0
  0
LINE
  5
345
330
A
100
AcDbEntity
  8
TOP
  6
CONTINUOUS
 62
     3
100
AcDbLine
 10
20.998186
 20
31.671515
 30
0.0
 11
20.998186
 21
31.691519
 31
0.0
  0
LINE
  5
346
330
A
100
AcDbEntity
  8
TOP
  6
CONTINUOUS
 62
     3
100
AcDbLine
 10
20.998186
 20
30.011467
 30
0.0
 11
20.998186
 21
30.131493
 31
0.0
  0
LINE
  5
347
330
A
100
AcDbEntity
  8
TOP
  6
CONTINUOUS
 62
     3
100
AcDbLine
 10
20.998186
 20
13.21151399999999
 30
0.0
 11
20.998186
 21
13.231519
 31
0.0
  0
LINE
  5
348
330
A
100
AcDbEntity
  8
TOP
  6
CONTINUOUS
 62
     3
100
AcDbLine
 10
20.935186
 20
14.371571
 30
0.0
 11
20.935186
 21
14.251545
 31
0.0
  0
LINE
  5
349
330
A
100
AcDbEntity
  8
TOP
  6
CONTINUOUS
 62
     3
100
AcDbLine
 10
4.888186
 20
13.75161199999999
 30
0.0
 11
4.888186
 21
13.731519
 31
0.0
  0
LINE
  5
34A
330
A
100
AcDbEntity
  8
TOP
  6
CONTINUOUS
 62
     3
100
AcDbLine
 10
20.742186
 20
12.69151899999999
 30
0.0
 11
20.742186
 21
12.19151899999999
 31
0.0
  0
LINE
  5
34B
330
A
100
AcDbEntity
  8
TOP
  6
CONTINUOUS
 62
     3
100
AcDbLine
 10
38.443851
 20
12.691535
 30
0.0
 11
38.443851
 21
12.711534
 31
0.0
  0
LINE
  5
34C
330
A
100
AcDbEntity
  8
TOP
  6
CONTINUOUS
 62
     3
100
AcDbLine
 10
4.888186
 20
31.691519
 30
0.0
 11
4.888186
 21
32.191521
 31
0.0
  0
LINE
  5
34D
330
A
100
AcDbEntity
  8
TOP
  6
CONTINUOUS
 62
     3
100
AcDbLine
 10
4.888186
 20
13.231519
 30
0.0
 11
4.888186
 21
13.731519
 31
0.0
  0
LINE
  5
34E
330
A
100
AcDbEntity
  8
TOP
  6
CONTINUOUS
 62
     3
100
AcDbLine
 10
15.841153
 20
32.191521
 30
0.0
 11
15.90515899999999
 21
32.191521
 31
0.0
  0
LINE
  5
34F
330
A
100
AcDbEntity
  8
TOP
  6
CONTINUOUS
 62
     3
100
AcDbLine
 10
19.21818899999999
 20
3.557205
 30
0.0
 11
19.268183
 21
3.557205
 31
0.0
  0
LINE
  5
350
330
A
100
AcDbEntity
  8
TOP
  6
CONTINUOUS
 62
     3
100
AcDbLine
 10
20.725964
 20
12.254519
 30
0.0
 11
20.742186
 21
12.254519
 31
0.0
  0
LINE
  5
351
330
A
100
AcDbEntity
  8
TOP
  6
CONTINUOUS
 62
     3
100
AcDbLine
 10
5.166362
 20
12.284519
 30
0.0
 11
5.144407
 21
12.284519
 31
0.0
  0
LINE
  5
352
330
A
100
AcDbEntity
  8
TOP
  6
CONTINUOUS
 62
     3
100
AcDbLine
 10
38.313854
 20
32.19151699999999
 30
0.0
 11
38.313854
 21
32.221519
 31
0.0
  0
LINE
  5
353
330
A
100
AcDbEntity
  8
TOP
  6
CONTINUOUS
 62
     3
100
AcDbLine
 10
20.725964
 20
12.19151899999999
 30
0.0
 11
20.720186
 21
12.19151899999999
 31
0.0
  0
LINE
  5
354
330
A
100
AcDbEntity
  8
TOP
  6
CONTINUOUS
 62
     3
100
AcDbLine
 10
20.725964
 20
32.191521
 30
0.0
 11
20.742186
 21
32.191521
 31
0.0
  0
LINE
  5
355
330
A
100
AcDbEntity
  8
TOP
  6
CONTINUOUS
 62
     3
100
AcDbLine
 10
38.51449999999999
 20
12.131519
 30
0.0
 11
38.545853
 21
12.131519
 31
0.0
  0
LINE
  5
356
330
A
100
AcDbEntity
  8
TOP
  6
CONTINUOUS
 62
     3
100
AcDbLine
 10
38.606422
 20
12.131519
 30
0.0
 11
38.61085099999999
 21
12.131519
 31
0.0
  0
LINE
  5
357
330
A
100
AcDbEntity
  8
TOP
  6
CONTINUOUS
 62
     3
100
AcDbLine
 10
38.480854
 20
32.314518
 30
0.0
 11
38.343853
 21
32.314518
 31
0.0
  0
LINE
  5
358
330
A
100
AcDbEntity
  8
TOP
  6
CONTINUOUS
 62
     3
100
AcDbLine
 10
20.90331799999999
 20
12.69151899999999
 30
0.0
 11
20.87019
 21
12.69151899999999
 31
0.0
  0
LINE
  5
359
330
A
100
AcDbEntity
  8
TOP
  6
CONTINUOUS
 62
     3
100
AcDbLine
 10
38.572777
 20
32.314518
 30
0.0
 11
38.593437
 21
32.314518
 31
0.0
  0
LINE
  5
35A
330
A
100
AcDbEntity
  8
TOP
  6
CONTINUOUS
 62
     3
100
AcDbLine
 10
7.461497999999999
 20
5.872205
 30
0.0
 11
7.510977999999999
 21
5.872205
 31
0.0
  0
LINE
  5
35B
330
A
100
AcDbEntity
  8
TOP
  6
CONTINUOUS
 62
     3
100
AcDbLine
 10
38.606422
 20
32.25151799999999
 30
0.0
 11
38.593437
 21
32.25151799999999
 31
0.0
  0
LINE
  5
35C
330
A
100
AcDbEntity
  8
TOP
  6
CONTINUOUS
 62
     3
100
AcDbLine
 10
20.993824
 20
12.19151899999999
 30
0.0
 11
20.981037
 21
12.19151899999999
 31
0.0
  0
LINE
  5
35D
330
A
100
AcDbEntity
  8
TOP
  6
CONTINUOUS
 62
     3
100
AcDbLine
 10
38.51449999999999
 20
32.25151799999999
 30
0.0
 11
38.480854
 21
32.25151799999999
 31
0.0
  0
LINE
  5
35E
330
A
100
AcDbEntity
  8
TOP
  6
CONTINUOUS
 62
     3
100
AcDbLine
 10
20.90331799999999
 20
12.19151899999999
 30
0.0
 11
20.87019
 21
12.19151899999999
 31
0.0
  0
LINE
  5
35F
330
A
100
AcDbEntity
  8
TOP
  6
CONTINUOUS
 62
     3
100
AcDbLine
 10
38.50085399999999
 20
14.43152
 30
0.0
 11
38.50085399999999
 21
29.951519
 31
0.0
  0
LINE
  5
360
330
A
100
AcDbEntity
  8
TOP
  6
CONTINUOUS
 62
     3
100
AcDbLine
 10
20.77967999999999
 20
12.19151899999999
 30
0.0
 11
20.759338
 21
12.19151899999999
 31
0.0
  0
LINE
  5
361
330
A
100
AcDbEntity
  8
TOP
  6
CONTINUOUS
 62
     3
100
AcDbLine
 10
38.25085399999999
 20
13.751519
 30
0.0
 11
38.255215
 21
13.751519
 31
0.0
  0
LINE
  5
362
330
A
100
AcDbEntity
  8
TOP
  6
CONTINUOUS
 62
     3
100
AcDbLine
 10
20.993824
 20
13.731519
 30
0.0
 11
20.981037
 21
13.731519
 31
0.0
  0
LINE
  5
363
330
A
100
AcDbEntity
  8
TOP
  6
CONTINUOUS
 62
     3
100
AcDbLine
 10
20.759338
 20
13.731519
 30
0.0
 11
20.74654999999999
 21
13.731519
 31
0.0
  0
LINE
  5
364
330
A
100
AcDbEntity
  8
TOP
  6
CONTINUOUS
 62
     3
100
AcDbLine
 10
38.31485
 20
13.751519
 30
0.0
 11
38.345722
 21
13.751519
 31
0.0
  0
LINE
  5
365
330
A
100
AcDbEntity
  8
TOP
  6
CONTINUOUS
 62
     3
100
AcDbLine
 10
20.77967999999999
 20
13.731519
 30
0.0
 11
20.759338
 21
13.731519
 31
0.0
  0
LINE
  5
366
330
A
100
AcDbEntity
  8
TOP
  6
CONTINUOUS
 62
     3
100
AcDbLine
 10
38.25085399999999
 20
14.251519
 30
0.0
 11
38.255215
 21
14.251519
 31
0.0
  0
LINE
  5
367
330
A
100
AcDbEntity
  8
TOP
  6
CONTINUOUS
 62
     3
100
AcDbLine
 10
20.993824
 20
13.231519
 30
0.0
 11
20.981037
 21
13.231519
 31
0.0
  0
LINE
  5
368
330
A
100
AcDbEntity
  8
TOP
  6
CONTINUOUS
 62
     3
100
AcDbLine
 10
38.31485
 20
14.251519
 30
0.0
 11
38.345722
 21
14.251519
 31
0.0
  0
LINE
  5
369
330
A
100
AcDbEntity
  8
TOP
  6
CONTINUOUS
 62
     3
100
AcDbLine
 10
20.90331799999999
 20
13.231519
 30
0.0
 11
20.87019
 21
13.231519
 31
0.0
  0
LINE
  5
36A
330
A
100
AcDbEntity
  8
TOP
  6
CONTINUOUS
 62
     3
100
AcDbLine
 10
38.442848
 20
14.251519
 30
0.0
 11
38.469357
 21
14.251519
 31
0.0
  0
LINE
  5
36B
330
A
100
AcDbEntity
  8
TOP
  6
CONTINUOUS
 62
     3
100
AcDbLine
 10
20.77967999999999
 20
13.231519
 30
0.0
 11
20.759338
 21
13.231519
 31
0.0
  0
LINE
  5
36C
330
A
100
AcDbEntity
  8
TOP
  6
CONTINUOUS
 62
     3
100
AcDbLine
 10
38.25085399999999
 20
12.711519
 30
0.0
 11
38.255215
 21
12.711519
 31
0.0
  0
LINE
  5
36D
330
A
100
AcDbEntity
  8
TOP
  6
CONTINUOUS
 62
     3
100
AcDbLine
 10
20.993824
 20
31.15152
 30
0.0
 11
20.981037
 21
31.15152
 31
0.0
  0
LINE
  5
36E
330
A
100
AcDbEntity
  8
TOP
  6
CONTINUOUS
 62
     3
100
AcDbLine
 10
38.31485
 20
12.711519
 30
0.0
 11
38.345722
 21
12.711519
 31
0.0
  0
LINE
  5
36F
330
A
100
AcDbEntity
  8
TOP
  6
CONTINUOUS
 62
     3
100
AcDbLine
 10
38.442848
 20
12.711519
 30
0.0
 11
38.469357
 21
12.711519
 31
0.0
  0
LINE
  5
370
330
A
100
AcDbEntity
  8
TOP
  6
CONTINUOUS
 62
     3
100
AcDbLine
 10
20.77967999999999
 20
31.15152
 30
0.0
 11
20.759338
 21
31.15152
 31
0.0
  0
LINE
  5
371
330
A
100
AcDbEntity
  8
TOP
  6
CONTINUOUS
 62
     3
100
AcDbLine
 10
15.028102
 20
21.84651899999999
 30
0.0
 11
15.028102
 21
22.53652
 31
0.0
  0
LINE
  5
372
330
A
100
AcDbEntity
  8
TOP
  6
CONTINUOUS
 62
     3
100
AcDbLine
 10
38.25085399999999
 20
13.211519
 30
0.0
 11
38.255215
 21
13.211519
 31
0.0
  0
LINE
  5
373
330
A
100
AcDbEntity
  8
TOP
  6
CONTINUOUS
 62
     3
100
AcDbLine
 10
20.233187
 20
3.627205
 30
0.0
 11
20.233187
 21
3.677204999999999
 31
0.0
  0
LINE
  5
374
330
A
100
AcDbEntity
  8
TOP
  6
CONTINUOUS
 62
     3
100
AcDbLine
 10
38.31485
 20
13.211519
 30
0.0
 11
38.345722
 21
13.211519
 31
0.0
  0
LINE
  5
375
330
A
100
AcDbEntity
  8
TOP
  6
CONTINUOUS
 62
     3
100
AcDbLine
 10
20.90331799999999
 20
30.65152
 30
0.0
 11
20.87019
 21
30.65152
 31
0.0
  0
LINE
  5
376
330
A
100
AcDbEntity
  8
TOP
  6
CONTINUOUS
 62
     3
100
AcDbLine
 10
38.25085399999999
 20
30.131519
 30
0.0
 11
38.255215
 21
30.131519
 31
0.0
  0
LINE
  5
377
330
A
100
AcDbEntity
  8
TOP
  6
CONTINUOUS
 62
     3
100
AcDbLine
 10
20.993824
 20
32.191521
 30
0.0
 11
20.981037
 21
32.191521
 31
0.0
  0
LINE
  5
378
330
A
100
AcDbEntity
  8
TOP
  6
CONTINUOUS
 62
     3
100
AcDbLine
 10
4.951185999999999
 20
13.751497
 30
0.0
 11
4.951185999999999
 21
13.731499
 31
0.0
  0
LINE
  5
379
330
A
100
AcDbEntity
  8
TOP
  6
CONTINUOUS
 62
     3
100
AcDbLine
 10
38.31485
 20
30.131519
 30
0.0
 11
38.345722
 21
30.131519
 31
0.0
  0
LINE
  5
37A
330
A
100
AcDbEntity
  8
TOP
  6
CONTINUOUS
 62
     3
100
AcDbLine
 10
20.90331799999999
 20
32.191521
 30
0.0
 11
20.87019
 21
32.191521
 31
0.0
  0
LINE
  5
37B
330
A
100
AcDbEntity
  8
TOP
  6
CONTINUOUS
 62
     3
100
AcDbLine
 10
38.442848
 20
30.131519
 30
0.0
 11
38.469357
 21
30.131519
 31
0.0
  0
LINE
  5
37C
330
A
100
AcDbEntity
  8
TOP
  6
CONTINUOUS
 62
     3
100
AcDbLine
 10
20.77967999999999
 20
32.191521
 30
0.0
 11
20.759338
 21
32.191521
 31
0.0
  0
LINE
  5
37D
330
A
100
AcDbEntity
  8
TOP
  6
CONTINUOUS
 62
     3
100
AcDbLine
 10
38.25085399999999
 20
30.631519
 30
0.0
 11
38.255215
 21
30.631519
 31
0.0
  0
LINE
  5
37E
330
A
100
AcDbEntity
  8
TOP
  6
CONTINUOUS
 62
     3
100
AcDbLine
 10
38.31485
 20
30.631519
 30
0.0
 11
38.345722
 21
30.631519
 31
0.0
  0
LINE
  5
37F
330
A
100
AcDbEntity
  8
TOP
  6
CONTINUOUS
 62
     3
100
AcDbLine
 10
20.90331799999999
 20
31.691519
 30
0.0
 11
20.87019
 21
31.691519
 31
0.0
  0
LINE
  5
380
330
A
100
AcDbEntity
  8
TOP
  6
CONTINUOUS
 62
     3
100
AcDbLine
 10
20.935186
 20
31.15152399999999
 30
0.0
 11
20.935186
 21
31.17152
 31
0.0
  0
LINE
  5
381
330
A
100
AcDbEntity
  8
TOP
  6
CONTINUOUS
 62
     3
100
AcDbLine
 10
20.837061
 20
31.691519
 30
0.0
 11
20.80618999999999
 21
31.691519
 31
0.0
  0
LINE
  5
382
330
A
100
AcDbEntity
  8
TOP
  6
CONTINUOUS
 62
     3
100
AcDbLine
 10
20.805185
 20
13.751497
 30
0.0
 11
20.805185
 21
13.731499
 31
0.0
  0
LINE
  5
383
330
A
100
AcDbEntity
  8
TOP
  6
CONTINUOUS
 62
     3
100
AcDbLine
 10
20.805185
 20
12.711534
 30
0.0
 11
20.805185
 21
12.691535
 31
0.0
  0
LINE
  5
384
330
A
100
AcDbEntity
  8
TOP
  6
CONTINUOUS
 62
     3
100
AcDbLine
 10
38.25085399999999
 20
31.171518
 30
0.0
 11
38.255215
 21
31.171518
 31
0.0
  0
LINE
  5
385
330
A
100
AcDbEntity
  8
TOP
  6
CONTINUOUS
 62
     3
100
AcDbLine
 10
4.892547
 20
12.19151899999999
 30
0.0
 11
4.905333999999999
 21
12.19151899999999
 31
0.0
  0
LINE
  5
386
330
A
100
AcDbEntity
  8
TOP
  6
CONTINUOUS
 62
     3
100
AcDbLine
 10
20.998186
 20
30.131519
 30
0.0
 11
20.998186
 21
30.631519
 31
0.0
  0
LINE
  5
387
330
A
100
AcDbEntity
  8
TOP
  6
CONTINUOUS
 62
     3
100
AcDbLine
 10
38.61584899999999
 20
22.676519
 30
0.0
 11
38.500858
 21
22.676519
 31
0.0
  0
LINE
  5
388
330
A
100
AcDbEntity
  8
TOP
  6
CONTINUOUS
 62
     3
100
AcDbLine
 10
5.144186
 20
31.691519
 30
0.0
 11
5.144186
 21
32.191521
 31
0.0
  0
LINE
  5
389
330
A
100
AcDbEntity
  8
TOP
  6
CONTINUOUS
 62
     3
100
AcDbLine
 10
38.442848
 20
31.171518
 30
0.0
 11
38.469357
 21
31.171518
 31
0.0
  0
LINE
  5
38A
330
A
100
AcDbEntity
  8
TOP
  6
CONTINUOUS
 62
     3
100
AcDbLine
 10
5.106690999999999
 20
12.19151899999999
 30
0.0
 11
5.127034
 21
12.19151899999999
 31
0.0
  0
LINE
  5
38B
330
A
100
AcDbEntity
  8
TOP
  6
CONTINUOUS
 62
     3
100
AcDbLine
 10
4.892547
 20
12.69151899999999
 30
0.0
 11
4.905333999999999
 21
12.69151899999999
 31
0.0
  0
LINE
  5
38C
330
A
100
AcDbEntity
  8
TOP
  6
CONTINUOUS
 62
     3
100
AcDbLine
 10
38.31485
 20
31.671518
 30
0.0
 11
38.345722
 21
31.671518
 31
0.0
  0
LINE
  5
38D
330
A
100
AcDbEntity
  8
TOP
  6
CONTINUOUS
 62
     3
100
AcDbLine
 10
4.983054
 20
12.69151899999999
 30
0.0
 11
5.016180999999999
 21
12.69151899999999
 31
0.0
  0
LINE
  5
38E
330
A
100
AcDbEntity
  8
TOP
  6
CONTINUOUS
 62
     3
100
AcDbLine
 10
38.378849
 20
31.671518
 30
0.0
 11
38.411976
 21
31.671518
 31
0.0
  0
LINE
  5
38F
330
A
100
AcDbEntity
  8
TOP
  6
CONTINUOUS
 62
     3
100
AcDbLine
 10
5.106690999999999
 20
12.69151899999999
 30
0.0
 11
5.127034
 21
12.69151899999999
 31
0.0
  0
LINE
  5
390
330
A
100
AcDbEntity
  8
TOP
  6
CONTINUOUS
 62
     3
100
AcDbLine
 10
4.956188
 20
3.446204999999999
 30
0.0
 11
4.95119
 21
3.446204999999999
 31
0.0
  0
LINE
  5
391
330
A
100
AcDbEntity
  8
TOP
  6
CONTINUOUS
 62
     3
100
AcDbLine
 10
4.892547
 20
13.231519
 30
0.0
 11
4.905333999999999
 21
13.231519
 31
0.0
  0
LINE
  5
392
330
A
100
AcDbEntity
  8
TOP
  6
CONTINUOUS
 62
     3
100
AcDbLine
 10
5.765144
 20
5.872205
 30
0.0
 11
5.739101999999999
 21
5.872205
 31
0.0
  0
LINE
  5
393
330
A
100
AcDbEntity
  8
TOP
  6
CONTINUOUS
 62
     3
100
AcDbLine
 10
4.983054
 20
13.231519
 30
0.0
 11
5.016180999999999
 21
13.231519
 31
0.0
  0
LINE
  5
394
330
A
100
AcDbEntity
  8
TOP
  6
CONTINUOUS
 62
     3
100
AcDbLine
 10
6.383633999999999
 20
5.872205
 30
0.0
 11
6.408373
 21
5.872205
 31
0.0
  0
LINE
  5
395
330
A
100
AcDbEntity
  8
TOP
  6
CONTINUOUS
 62
     3
100
AcDbLine
 10
5.106690999999999
 20
13.231519
 30
0.0
 11
5.127034
 21
13.231519
 31
0.0
  0
LINE
  5
396
330
A
100
AcDbEntity
  8
TOP
  6
CONTINUOUS
 62
     3
100
AcDbLine
 10
7.622436
 20
5.872205
 30
0.0
 11
7.671915
 21
5.872205
 31
0.0
  0
LINE
  5
397
330
A
100
AcDbEntity
  8
TOP
  6
CONTINUOUS
 62
     3
100
AcDbLine
 10
4.892547
 20
13.731519
 30
0.0
 11
4.905333999999999
 21
13.731519
 31
0.0
  0
LINE
  5
398
330
A
100
AcDbEntity
  8
TOP
  6
CONTINUOUS
 62
     3
100
AcDbLine
 10
7.510977999999999
 20
5.872205
 30
0.0
 11
7.535716999999999
 21
5.872205
 31
0.0
  0
LINE
  5
399
330
A
100
AcDbEntity
  8
TOP
  6
CONTINUOUS
 62
     3
100
AcDbLine
 10
4.983054
 20
13.731519
 30
0.0
 11
5.016180999999999
 21
13.731519
 31
0.0
  0
LINE
  5
39A
330
A
100
AcDbEntity
  8
TOP
  6
CONTINUOUS
 62
     3
100
AcDbLine
 10
7.3253
 20
5.872205
 30
0.0
 11
7.300561
 21
5.872205
 31
0.0
  0
LINE
  5
39B
330
A
100
AcDbEntity
  8
TOP
  6
CONTINUOUS
 62
     3
100
AcDbLine
 10
5.106690999999999
 20
13.731519
 30
0.0
 11
5.127034
 21
13.731519
 31
0.0
  0
LINE
  5
39C
330
A
100
AcDbEntity
  8
TOP
  6
CONTINUOUS
 62
     3
100
AcDbLine
 10
7.461497999999999
 20
5.872205
 30
0.0
 11
7.435457
 21
5.872205
 31
0.0
  0
LINE
  5
39D
330
A
100
AcDbEntity
  8
TOP
  6
CONTINUOUS
 62
     3
100
AcDbLine
 10
20.98103899999999
 20
14.251519
 30
0.0
 11
20.99382599999999
 21
14.251519
 31
0.0
  0
LINE
  5
39E
330
A
100
AcDbEntity
  8
TOP
  6
CONTINUOUS
 62
     3
100
AcDbLine
 10
6.668186
 20
4.579204999999999
 30
0.0
 11
6.668186
 21
4.485954
 31
0.0
  0
LINE
  5
39F
330
A
100
AcDbEntity
  8
TOP
  6
CONTINUOUS
 62
     3
100
AcDbLine
 10
5.740404999999999
 20
5.872205
 30
0.0
 11
5.765144
 21
5.872205
 31
0.0
  0
LINE
  5
3A0
330
A
100
AcDbEntity
  8
TOP
  6
CONTINUOUS
 62
     3
100
AcDbLine
 10
4.983054
 20
30.65152
 30
0.0
 11
5.016180999999999
 21
30.65152
 31
0.0
  0
LINE
  5
3A1
330
A
100
AcDbEntity
  8
TOP
  6
CONTINUOUS
 62
     3
100
AcDbLine
 10
6.754466999999999
 20
5.872205
 30
0.0
 11
6.780509
 21
5.872205
 31
0.0
  0
LINE
  5
3A2
330
A
100
AcDbEntity
  8
TOP
  6
CONTINUOUS
 62
     3
100
AcDbLine
 10
5.106690999999999
 20
30.65152
 30
0.0
 11
5.127034
 21
30.65152
 31
0.0
  0
LINE
  5
3A3
330
A
100
AcDbEntity
  8
TOP
  6
CONTINUOUS
 62
     3
100
AcDbLine
 10
6.234415
 20
5.872205
 30
0.0
 11
6.283894
 21
5.872205
 31
0.0
  0
LINE
  5
3A4
330
A
100
AcDbEntity
  8
TOP
  6
CONTINUOUS
 62
     3
100
AcDbLine
 10
6.854727999999999
 20
5.872205
 30
0.0
 11
6.829988
 21
5.872205
 31
0.0
  0
LINE
  5
3A5
330
A
100
AcDbEntity
  8
TOP
  6
CONTINUOUS
 62
     3
100
AcDbLine
 10
4.983054
 20
31.15152
 30
0.0
 11
5.016180999999999
 21
31.15152
 31
0.0
  0
LINE
  5
3A6
330
A
100
AcDbEntity
  8
TOP
  6
CONTINUOUS
 62
     3
100
AcDbLine
 10
20.87518499999999
 20
5.872205
 30
0.0
 11
20.87018599999999
 21
5.872205
 31
0.0
  0
LINE
  5
3A7
330
A
100
AcDbEntity
  8
TOP
  6
CONTINUOUS
 62
     3
100
AcDbLine
 10
7.200821
 20
5.872205
 30
0.0
 11
7.225560999999999
 21
5.872205
 31
0.0
  0
LINE
  5
3A8
330
A
100
AcDbEntity
  8
TOP
  6
CONTINUOUS
 62
     3
100
AcDbLine
 10
38.25085399999999
 20
30.07152
 30
0.0
 11
38.25085399999999
 21
30.094481
 31
0.0
  0
LINE
  5
3A9
330
A
100
AcDbEntity
  8
TOP
  6
CONTINUOUS
 62
     3
100
AcDbLine
 10
7.388186
 20
3.627205
 30
0.0
 11
7.633186
 21
3.627205
 31
0.0
  0
LINE
  5
3AA
330
A
100
AcDbEntity
  8
TOP
  6
CONTINUOUS
 62
     3
100
AcDbLine
 10
38.25085399999999
 20
30.131519
 30
0.0
 11
38.25085399999999
 21
30.631519
 31
0.0
  0
LINE
  5
3AB
330
A
100
AcDbEntity
  8
TOP
  6
CONTINUOUS
 62
     3
100
AcDbLine
 10
5.898185999999999
 20
3.627205
 30
0.0
 11
5.653185999999999
 21
3.627205
 31
0.0
  0
LINE
  5
3AC
330
A
100
AcDbEntity
  8
TOP
  6
CONTINUOUS
 62
     3
100
AcDbLine
 10
38.25085399999999
 20
12.711519
 30
0.0
 11
38.25085399999999
 21
13.211519
 31
0.0
  0
LINE
  5
3AD
330
A
100
AcDbEntity
  8
TOP
  6
CONTINUOUS
 62
     3
100
AcDbLine
 10
38.25085399999999
 20
14.269093
 30
0.0
 11
38.25085399999999
 21
14.288558
 31
0.0
  0
LINE
  5
3AE
330
A
100
AcDbEntity
  8
TOP
  6
CONTINUOUS
 62
     3
100
AcDbLine
 10
20.720186
 20
32.314518
 30
0.0
 11
15.905186
 21
32.314518
 31
0.0
  0
LINE
  5
3AF
330
A
100
AcDbEntity
  8
TOP
  6
CONTINUOUS
 62
     3
100
AcDbLine
 10
38.25085399999999
 20
14.353946
 30
0.0
 11
38.25085399999999
 21
14.36695199999999
 31
0.0
  0
LINE
  5
3B0
330
A
100
AcDbEntity
  8
TOP
  6
CONTINUOUS
 62
     3
100
AcDbLine
 10
7.118960999999999
 20
4.049204999999999
 30
0.0
 11
7.247118999999999
 21
4.049204999999999
 31
0.0
  0
LINE
  5
3B1
330
A
100
AcDbEntity
  8
TOP
  6
CONTINUOUS
 62
     3
100
AcDbLine
 10
38.313854
 20
30.016087
 30
0.0
 11
38.313854
 21
30.029093
 31
0.0
  0
LINE
  5
3B2
330
A
100
AcDbEntity
  8
TOP
  6
CONTINUOUS
 62
     3
100
AcDbLine
 10
6.668186
 20
4.395796999999999
 30
0.0
 11
6.668186
 21
4.253759999999999
 31
0.0
  0
LINE
  5
3B3
330
A
100
AcDbEntity
  8
TOP
  6
CONTINUOUS
 62
     3
100
AcDbLine
 10
38.313854
 20
30.094481
 30
0.0
 11
38.313854
 21
30.113945
 31
0.0
  0
LINE
  5
3B4
330
A
100
AcDbEntity
  8
TOP
  6
CONTINUOUS
 62
     3
100
AcDbLine
 10
38.313854
 20
30.126951
 30
0.0
 11
38.313854
 21
30.131519
 31
0.0
  0
LINE
  5
3B5
330
A
100
AcDbEntity
  8
TOP
  6
CONTINUOUS
 62
     3
100
AcDbLine
 10
7.339578
 20
3.449205
 30
0.0
 11
7.368997
 21
3.449205
 31
0.0
  0
LINE
  5
3B6
330
A
100
AcDbEntity
  8
TOP
  6
CONTINUOUS
 62
     3
100
AcDbLine
 10
38.313854
 20
14.256086
 30
0.0
 11
38.313854
 21
14.269093
 31
0.0
  0
LINE
  5
3B7
330
A
100
AcDbEntity
  8
TOP
  6
CONTINUOUS
 62
     3
100
AcDbLine
 10
38.313854
 20
14.33448
 30
0.0
 11
38.313854
 21
14.353946
 31
0.0
  0
LINE
  5
3B8
330
A
100
AcDbEntity
  8
TOP
  6
CONTINUOUS
 62
     3
100
AcDbLine
 10
5.853185999999999
 20
3.677204999999999
 30
0.0
 11
5.653185999999999
 21
3.677204999999999
 31
0.0
  0
LINE
  5
3B9
330
A
100
AcDbEntity
  8
TOP
  6
CONTINUOUS
 62
     3
100
AcDbLine
 10
5.928186
 20
5.199205
 30
0.0
 11
7.358185999999999
 21
5.199205
 31
0.0
  0
LINE
  5
3BA
330
A
100
AcDbEntity
  8
TOP
  6
CONTINUOUS
 62
     3
100
AcDbLine
 10
7.433186
 20
3.677204999999999
 30
0.0
 11
7.633186
 21
3.677204999999999
 31
0.0
  0
LINE
  5
3BB
330
A
100
AcDbEntity
  8
TOP
  6
CONTINUOUS
 62
     3
100
AcDbLine
 10
5.081185999999999
 20
13.211517
 30
0.0
 11
5.081185999999999
 21
13.231516
 31
0.0
  0
LINE
  5
3BC
330
A
100
AcDbEntity
  8
TOP
  6
CONTINUOUS
 62
     3
100
AcDbLine
 10
4.888186
 20
14.251519
 30
0.0
 11
4.888186
 21
13.751519
 31
0.0
  0
LINE
  5
3BD
330
A
100
AcDbEntity
  8
TOP
  6
CONTINUOUS
 62
     3
100
AcDbLine
 10
6.688185999999999
 20
4.649205
 30
0.0
 11
7.388186
 21
4.649205
 31
0.0
  0
LINE
  5
3BE
330
A
100
AcDbEntity
  8
TOP
  6
CONTINUOUS
 62
     3
100
AcDbLine
 10
7.388186
 20
5.364205
 30
0.0
 11
7.382347
 21
5.364205
 31
0.0
  0
LINE
  5
3BF
330
A
100
AcDbEntity
  8
TOP
  6
CONTINUOUS
 62
     3
100
AcDbLine
 10
38.50685099999999
 20
30.131519
 30
0.0
 11
38.50685099999999
 21
30.631519
 31
0.0
  0
LINE
  5
3C0
330
A
100
AcDbEntity
  8
TOP
  6
CONTINUOUS
 62
     3
100
AcDbLine
 10
5.928186
 20
5.388366
 30
0.0
 11
7.358185999999999
 21
5.388366
 31
0.0
  0
LINE
  5
3C1
330
A
100
AcDbEntity
  8
TOP
  6
CONTINUOUS
 62
     3
100
AcDbLine
 10
5.928186
 20
5.368441999999999
 30
0.0
 11
5.928186
 21
5.381954
 31
0.0
  0
LINE
  5
3C2
330
A
100
AcDbEntity
  8
TOP
  6
CONTINUOUS
 62
     3
100
AcDbLine
 10
7.362421999999999
 20
5.364205
 30
0.0
 11
7.375935
 21
5.364205
 31
0.0
  0
LINE
  5
3C3
330
A
100
AcDbEntity
  8
TOP
  6
CONTINUOUS
 62
     3
100
AcDbLine
 10
7.358185999999999
 20
5.288044
 30
0.0
 11
7.358185999999999
 21
5.294456
 31
0.0
  0
LINE
  5
3C4
330
A
100
AcDbEntity
  8
TOP
  6
CONTINUOUS
 62
     3
100
AcDbLine
 10
7.433186
 20
3.627205
 30
0.0
 11
7.433186
 21
3.677204999999999
 31
0.0
  0
LINE
  5
3C5
330
A
100
AcDbEntity
  8
TOP
  6
CONTINUOUS
 62
     3
100
AcDbLine
 10
15.841186
 20
5.854443999999999
 30
0.0
 11
15.841186
 21
5.833868999999999
 31
0.0
  0
LINE
  5
3C6
330
A
100
AcDbEntity
  8
TOP
  6
CONTINUOUS
 62
     3
100
AcDbLine
 10
15.317564
 20
21.697142
 30
0.0
 11
15.317564
 21
22.685898
 31
0.0
  0
LINE
  5
3C7
330
A
100
AcDbEntity
  8
TOP
  6
CONTINUOUS
 62
     3
100
AcDbLine
 10
41.198673
 20
12.190654
 30
0.0
 11
41.23669099999999
 21
12.190654
 31
0.0
  0
LINE
  5
3C8
330
A
100
AcDbEntity
  8
TOP
  6
CONTINUOUS
 62
     3
100
AcDbLine
 10
6.618185999999999
 20
5.199205
 30
0.0
 11
6.618185999999999
 21
4.669204999999999
 31
0.0
  0
LINE
  5
3C9
330
A
100
AcDbEntity
  8
TOP
  6
CONTINUOUS
 62
     3
100
AcDbLine
 10
38.25085399999999
 20
31.71452
 30
0.0
 11
38.25085399999999
 21
31.702801
 31
0.0
  0
LINE
  5
3CA
330
A
100
AcDbEntity
  8
TOP
  6
CONTINUOUS
 62
     3
100
AcDbLine
 10
19.98818599999999
 20
3.627205
 30
0.0
 11
20.233187
 21
3.627205
 31
0.0
  0
LINE
  5
3CB
330
A
100
AcDbEntity
  8
TOP
  6
CONTINUOUS
 62
     3
100
AcDbLine
 10
18.498186
 20
3.627205
 30
0.0
 11
18.25318499999999
 21
3.627205
 31
0.0
  0
LINE
  5
3CC
330
A
100
AcDbEntity
  8
TOP
  6
CONTINUOUS
 62
     3
100
AcDbLine
 10
4.925675
 20
32.191521
 30
0.0
 11
4.952182999999999
 21
32.191521
 31
0.0
  0
LINE
  5
3CD
330
A
100
AcDbEntity
  8
TOP
  6
CONTINUOUS
 62
     3
100
AcDbLine
 10
5.04931
 20
32.191521
 30
0.0
 11
5.080180999999999
 21
32.191521
 31
0.0
  0
LINE
  5
3CE
330
A
100
AcDbEntity
  8
TOP
  6
CONTINUOUS
 62
     3
100
AcDbLine
 10
19.718962
 20
4.049204999999999
 30
0.0
 11
19.84712
 21
4.049204999999999
 31
0.0
  0
LINE
  5
3CF
330
A
100
AcDbEntity
  8
TOP
  6
CONTINUOUS
 62
     3
100
AcDbLine
 10
19.268187
 20
4.395796999999999
 30
0.0
 11
19.268187
 21
4.253759999999999
 31
0.0
  0
LINE
  5
3D0
330
A
100
AcDbEntity
  8
TOP
  6
CONTINUOUS
 62
     3
100
AcDbLine
 10
19.939577
 20
3.449205
 30
0.0
 11
19.968996
 21
3.449205
 31
0.0
  0
LINE
  5
3D1
330
A
100
AcDbEntity
  8
TOP
  6
CONTINUOUS
 62
     3
100
AcDbLine
 10
20.981707
 20
30.011518
 30
0.0
 11
20.99399599999999
 21
30.011518
 31
0.0
  0
LINE
  5
3D2
330
A
100
AcDbEntity
  8
TOP
  6
CONTINUOUS
 62
     3
100
AcDbLine
 10
20.99399599999999
 20
14.37151899999999
 30
0.0
 11
20.981707
 21
14.37151899999999
 31
0.0
  0
LINE
  5
3D3
330
A
100
AcDbEntity
  8
TOP
  6
CONTINUOUS
 62
     3
100
AcDbLine
 10
20.907021
 20
14.37151899999999
 30
0.0
 11
20.87518499999999
 21
14.37151899999999
 31
0.0
  0
LINE
  5
3D4
330
A
100
AcDbEntity
  8
TOP
  6
CONTINUOUS
 62
     3
100
AcDbLine
 10
18.45318599999999
 20
3.677204999999999
 30
0.0
 11
18.25318499999999
 21
3.677204999999999
 31
0.0
  0
LINE
  5
3D5
330
A
100
AcDbEntity
  8
TOP
  6
CONTINUOUS
 62
     3
100
AcDbLine
 10
18.51043699999999
 20
5.312204999999999
 30
0.0
 11
18.50402499999999
 21
5.312204999999999
 31
0.0
  0
LINE
  5
3D6
330
A
100
AcDbEntity
  8
TOP
  6
CONTINUOUS
 62
     3
100
AcDbLine
 10
20.720186
 20
12.161519
 30
0.0
 11
20.720186
 21
12.711519
 31
0.0
  0
LINE
  5
3D7
330
A
100
AcDbEntity
  8
TOP
  6
CONTINUOUS
 62
     3
100
AcDbLine
 10
18.528185
 20
5.199205
 30
0.0
 11
19.958185
 21
5.199205
 31
0.0
  0
LINE
  5
3D8
330
A
100
AcDbEntity
  8
TOP
  6
CONTINUOUS
 62
     3
100
AcDbLine
 10
20.720186
 20
12.086281
 30
0.0
 11
20.720186
 21
12.073071
 31
0.0
  0
LINE
  5
3D9
330
A
100
AcDbEntity
  8
TOP
  6
CONTINUOUS
 62
     3
100
AcDbLine
 10
20.033186
 20
3.677204999999999
 30
0.0
 11
20.233187
 21
3.677204999999999
 31
0.0
  0
LINE
  5
3DA
330
A
100
AcDbEntity
  8
TOP
  6
CONTINUOUS
 62
     3
100
AcDbLine
 10
20.87018599999999
 20
30.131519
 30
0.0
 11
20.87018599999999
 21
30.631519
 31
0.0
  0
LINE
  5
3DB
330
A
100
AcDbEntity
  8
TOP
  6
CONTINUOUS
 62
     3
100
AcDbLine
 10
20.720186
 20
31.671518
 30
0.0
 11
20.87018599999999
 21
31.671518
 31
0.0
  0
LINE
  5
3DC
330
A
100
AcDbEntity
  8
TOP
  6
CONTINUOUS
 62
     3
100
AcDbLine
 10
15.905186
 20
32.221519
 30
0.0
 11
20.720186
 21
32.221519
 31
0.0
  0
LINE
  5
3DD
330
A
100
AcDbEntity
  8
TOP
  6
CONTINUOUS
 62
     3
100
AcDbLine
 10
20.720186
 20
12.161519
 30
0.0
 11
15.905186
 21
12.161519
 31
0.0
  0
LINE
  5
3DE
330
A
100
AcDbEntity
  8
TOP
  6
CONTINUOUS
 62
     3
100
AcDbLine
 10
20.87018599999999
 20
12.711519
 30
0.0
 11
20.87018599999999
 21
13.211519
 31
0.0
  0
LINE
  5
3DF
330
A
100
AcDbEntity
  8
TOP
  6
CONTINUOUS
 62
     3
100
AcDbLine
 10
17.714251
 20
22.53652
 30
0.0
 11
17.714251
 21
21.84651899999999
 31
0.0
  0
LINE
  5
3E0
330
A
100
AcDbEntity
  8
TOP
  6
CONTINUOUS
 62
     3
100
AcDbLine
 10
6.074779999999999
 20
31.71452
 30
0.0
 11
6.074779999999999
 21
31.59082
 31
0.0
  0
LINE
  5
3E1
330
A
100
AcDbEntity
  8
TOP
  6
CONTINUOUS
 62
     3
100
AcDbLine
 10
5.765144
 20
31.702801
 30
0.0
 11
5.765144
 21
31.665039
 31
0.0
  0
LINE
  5
3E2
330
A
100
AcDbEntity
  8
TOP
  6
CONTINUOUS
 62
     3
100
AcDbLine
 10
7.37478
 20
31.71452
 30
0.0
 11
7.399518999999999
 21
31.689779
 31
0.0
  0
LINE
  5
3E3
330
A
100
AcDbEntity
  8
TOP
  6
CONTINUOUS
 62
     3
100
AcDbLine
 10
15.905186
 20
12.073071
 30
0.0
 11
15.905186
 21
12.06852
 31
0.0
  0
LINE
  5
3E4
330
A
100
AcDbEntity
  8
TOP
  6
CONTINUOUS
 62
     3
100
AcDbLine
 10
19.28818499999999
 20
4.649205
 30
0.0
 11
19.98818599999999
 21
4.649205
 31
0.0
  0
LINE
  5
3E5
330
A
100
AcDbEntity
  8
TOP
  6
CONTINUOUS
 62
     3
100
AcDbLine
 10
15.905186
 20
32.221519
 30
0.0
 11
15.905186
 21
32.250259
 31
0.0
  0
LINE
  5
3E6
330
A
100
AcDbEntity
  8
TOP
  6
CONTINUOUS
 62
     3
100
AcDbLine
 10
7.572956999999999
 20
31.59082
 30
0.0
 11
7.572956999999999
 21
31.71452
 31
0.0
  0
LINE
  5
3E7
330
A
100
AcDbEntity
  8
TOP
  6
CONTINUOUS
 62
     3
100
AcDbLine
 10
19.98818599999999
 20
5.364205
 30
0.0
 11
19.982347
 21
5.364205
 31
0.0
  0
LINE
  5
3E8
330
A
100
AcDbEntity
  8
TOP
  6
CONTINUOUS
 62
     3
100
AcDbLine
 10
15.905186
 20
32.309967
 30
0.0
 11
15.905186
 21
32.314518
 31
0.0
  0
LINE
  5
3E9
330
A
100
AcDbEntity
  8
TOP
  6
CONTINUOUS
 62
     3
100
AcDbLine
 10
20.720186
 20
32.309967
 30
0.0
 11
20.720186
 21
32.296757
 31
0.0
  0
LINE
  5
3EA
330
A
100
AcDbEntity
  8
TOP
  6
CONTINUOUS
 62
     3
100
AcDbLine
 10
38.25085399999999
 20
31.671518
 30
0.0
 11
38.255215
 21
31.671518
 31
0.0
  0
LINE
  5
3EB
330
A
100
AcDbEntity
  8
TOP
  6
CONTINUOUS
 62
     3
100
AcDbLine
 10
20.720186
 20
32.276184
 30
0.0
 11
20.720186
 21
32.250259
 31
0.0
  0
LINE
  5
3EC
330
A
100
AcDbEntity
  8
TOP
  6
CONTINUOUS
 62
     3
100
AcDbLine
 10
7.622436
 20
31.59082
 30
0.0
 11
7.671915
 21
31.71452
 31
0.0
  0
LINE
  5
3ED
330
A
100
AcDbEntity
  8
TOP
  6
CONTINUOUS
 62
     3
100
AcDbLine
 10
7.510977999999999
 20
31.59082
 30
0.0
 11
7.535716999999999
 21
31.615561
 31
0.0
  0
LINE
  5
3EE
330
A
100
AcDbEntity
  8
TOP
  6
CONTINUOUS
 62
     3
100
AcDbLine
 10
18.528185
 20
5.388366
 30
0.0
 11
19.958185
 21
5.388366
 31
0.0
  0
LINE
  5
3EF
330
A
100
AcDbEntity
  8
TOP
  6
CONTINUOUS
 62
     3
100
AcDbLine
 10
20.98103899999999
 20
13.751519
 30
0.0
 11
20.99382599999999
 21
13.751519
 31
0.0
  0
LINE
  5
3F0
330
A
100
AcDbEntity
  8
TOP
  6
CONTINUOUS
 62
     3
100
AcDbLine
 10
15.046896
 20
22.53652
 30
0.0
 11
15.046896
 21
21.84651899999999
 31
0.0
  0
LINE
  5
3F1
330
A
100
AcDbEntity
  8
TOP
  6
CONTINUOUS
 62
     3
100
AcDbLine
 10
18.528185
 20
5.368441999999999
 30
0.0
 11
18.528185
 21
5.381954
 31
0.0
  0
LINE
  5
3F2
330
A
100
AcDbEntity
  8
TOP
  6
CONTINUOUS
 62
     3
100
AcDbLine
 10
19.962423
 20
5.364205
 30
0.0
 11
19.975935
 21
5.364205
 31
0.0
  0
LINE
  5
3F3
330
A
100
AcDbEntity
  8
TOP
  6
CONTINUOUS
 62
     3
100
AcDbLine
 10
20.934187
 20
12.711519
 30
0.0
 11
20.960697
 21
12.711519
 31
0.0
  0
LINE
  5
3F4
330
A
100
AcDbEntity
  8
TOP
  6
CONTINUOUS
 62
     3
100
AcDbLine
 10
19.958185
 20
5.288044
 30
0.0
 11
19.958185
 21
5.294456
 31
0.0
  0
LINE
  5
3F5
330
A
100
AcDbEntity
  8
TOP
  6
CONTINUOUS
 62
     3
100
AcDbLine
 10
20.87018599999999
 20
13.211519
 30
0.0
 11
20.903316
 21
13.211519
 31
0.0
  0
LINE
  5
3F6
330
A
100
AcDbEntity
  8
TOP
  6
CONTINUOUS
 62
     3
100
AcDbLine
 10
20.98103899999999
 20
13.211519
 30
0.0
 11
20.99382599999999
 21
13.211519
 31
0.0
  0
LINE
  5
3F7
330
A
100
AcDbEntity
  8
TOP
  6
CONTINUOUS
 62
     3
100
AcDbLine
 10
20.934187
 20
30.131519
 30
0.0
 11
20.960697
 21
30.131519
 31
0.0
  0
LINE
  5
3F8
330
A
100
AcDbEntity
  8
TOP
  6
CONTINUOUS
 62
     3
100
AcDbLine
 10
5.011186
 20
5.872205
 30
0.0
 11
5.016186
 21
5.872205
 31
0.0
  0
LINE
  5
3F9
330
A
100
AcDbEntity
  8
TOP
  6
CONTINUOUS
 62
     3
100
AcDbLine
 10
20.87018599999999
 20
30.631519
 30
0.0
 11
20.903316
 21
30.631519
 31
0.0
  0
LINE
  5
3FA
330
A
100
AcDbEntity
  8
TOP
  6
CONTINUOUS
 62
     3
100
AcDbLine
 10
20.98103899999999
 20
30.631519
 30
0.0
 11
20.99382599999999
 21
30.631519
 31
0.0
  0
LINE
  5
3FB
330
A
100
AcDbEntity
  8
TOP
  6
CONTINUOUS
 62
     3
100
AcDbLine
 10
20.934187
 20
31.171518
 30
0.0
 11
20.960697
 21
31.171518
 31
0.0
  0
LINE
  5
3FC
330
A
100
AcDbEntity
  8
TOP
  6
CONTINUOUS
 62
     3
100
AcDbLine
 10
20.87018599999999
 20
31.671518
 30
0.0
 11
20.903316
 21
31.671518
 31
0.0
  0
LINE
  5
3FD
330
A
100
AcDbEntity
  8
TOP
  6
CONTINUOUS
 62
     3
100
AcDbLine
 10
20.98103899999999
 20
31.671518
 30
0.0
 11
20.99382599999999
 21
31.671518
 31
0.0
  0
LINE
  5
3FE
330
A
100
AcDbEntity
  8
TOP
  6
CONTINUOUS
 62
     3
100
AcDbLine
 10
4.979351
 20
14.37151899999999
 30
0.0
 11
4.949685999999999
 21
14.37151899999999
 31
0.0
  0
LINE
  5
3FF
330
A
100
AcDbEntity
  8
TOP
  6
CONTINUOUS
 62
     3
100
AcDbLine
 10
4.892376999999999
 20
14.37151899999999
 30
0.0
 11
4.888186
 21
14.37151899999999
 31
0.0
  0
LINE
  5
400
330
A
100
AcDbEntity
  8
TOP
  6
CONTINUOUS
 62
     3
100
AcDbLine
 10
4.904664999999999
 20
30.011518
 30
0.0
 11
4.924211999999999
 21
30.011518
 31
0.0
  0
LINE
  5
401
330
A
100
AcDbEntity
  8
TOP
  6
CONTINUOUS
 62
     3
100
AcDbLine
 10
5.011186
 20
30.011518
 30
0.0
 11
5.043186
 21
30.011518
 31
0.0
  0
LINE
  5
402
330
A
100
AcDbEntity
  8
TOP
  6
CONTINUOUS
 62
     3
100
AcDbLine
 10
14.406186
 20
31.71860099999999
 30
0.0
 11
14.406186
 21
31.344437
 31
0.0
  0
LINE
  5
403
330
A
100
AcDbEntity
  8
TOP
  6
CONTINUOUS
 62
     3
100
AcDbLine
 10
20.934187
 20
13.751519
 30
0.0
 11
20.960697
 21
13.751519
 31
0.0
  0
LINE
  5
404
330
A
100
AcDbEntity
  8
TOP
  6
CONTINUOUS
 62
     3
100
AcDbLine
 10
5.166185999999999
 20
32.221519
 30
0.0
 11
5.166185999999999
 21
32.250259
 31
0.0
  0
LINE
  5
405
330
A
100
AcDbEntity
  8
TOP
  6
CONTINUOUS
 62
     3
100
AcDbLine
 10
5.166185999999999
 20
32.309967
 30
0.0
 11
5.166185999999999
 21
32.314518
 31
0.0
  0
LINE
  5
406
330
A
100
AcDbEntity
  8
TOP
  6
CONTINUOUS
 62
     3
100
AcDbLine
 10
20.033186
 20
3.627205
 30
0.0
 11
20.033186
 21
3.677204999999999
 31
0.0
  0
LINE
  5
407
330
A
100
AcDbEntity
  8
TOP
  6
CONTINUOUS
 62
     3
100
AcDbLine
 10
5.016186
 20
13.211519
 30
0.0
 11
5.016186
 21
12.711519
 31
0.0
  0
LINE
  5
408
330
A
100
AcDbEntity
  8
TOP
  6
CONTINUOUS
 62
     3
100
AcDbLine
 10
13.538186
 20
5.872205
 30
0.0
 11
13.538186
 21
5.913204999999999
 31
0.0
  0
LINE
  5
409
330
A
100
AcDbEntity
  8
TOP
  6
CONTINUOUS
 62
     3
100
AcDbLine
 10
5.166185999999999
 20
12.711519
 30
0.0
 11
5.166185999999999
 21
12.161519
 31
0.0
  0
LINE
  5
40A
330
A
100
AcDbEntity
  8
TOP
  6
CONTINUOUS
 62
     3
100
AcDbLine
 10
14.03578699999999
 20
22.55151899999999
 30
0.0
 11
14.03144
 21
22.53652
 31
0.0
  0
LINE
  5
40B
330
A
100
AcDbEntity
  8
TOP
  6
CONTINUOUS
 62
     3
100
AcDbLine
 10
15.841186
 20
32.221519
 30
0.0
 11
15.841186
 21
12.161519
 31
0.0
  0
LINE
  5
40C
330
A
100
AcDbEntity
  8
TOP
  6
CONTINUOUS
 62
     3
100
AcDbLine
 10
15.317564
 20
5.948204999999999
 30
0.0
 11
15.37232799999999
 21
5.916586999999999
 31
0.0
  0
LINE
  5
40D
330
A
100
AcDbEntity
  8
TOP
  6
CONTINUOUS
 62
     3
100
AcDbLine
 10
5.166185999999999
 20
31.171518
 30
0.0
 11
5.016186
 21
31.171518
 31
0.0
  0
LINE
  5
40E
330
A
100
AcDbEntity
  8
TOP
  6
CONTINUOUS
 62
     3
100
AcDbLine
 10
15.317564
 20
21.697142
 30
0.0
 11
15.37232799999999
 21
21.64237799999999
 31
0.0
  0
LINE
  5
40F
330
A
100
AcDbEntity
  8
TOP
  6
CONTINUOUS
 62
     3
100
AcDbLine
 10
15.378186
 20
22.726519
 30
0.0
 11
15.37232799999999
 21
22.740662
 31
0.0
  0
LINE
  5
410
330
A
100
AcDbEntity
  8
TOP
  6
CONTINUOUS
 62
     3
100
AcDbLine
 10
15.37232799999999
 20
22.740662
 30
0.0
 11
15.358186
 21
22.74651899999999
 31
0.0
  0
LINE
  5
411
330
A
100
AcDbEntity
  8
TOP
  6
CONTINUOUS
 62
     3
100
AcDbLine
 10
14.85127499999999
 20
22.5625
 30
0.0
 11
14.86159299999999
 21
22.55151899999999
 31
0.0
  0
LINE
  5
412
330
A
100
AcDbEntity
  8
TOP
  6
CONTINUOUS
 62
     3
100
AcDbLine
 10
5.166185999999999
 20
12.086281
 30
0.0
 11
5.166185999999999
 21
12.106855
 31
0.0
  0
LINE
  5
413
330
A
100
AcDbEntity
  8
TOP
  6
CONTINUOUS
 62
     3
100
AcDbLine
 10
4.888186
 20
30.011518
 30
0.0
 11
4.888186
 21
14.37151899999999
 31
0.0
  0
LINE
  5
414
330
A
100
AcDbEntity
  8
TOP
  6
CONTINUOUS
 62
     3
100
AcDbLine
 10
20.935186
 20
2.504204999999999
 30
0.0
 11
20.935186
 21
5.744205
 31
0.0
  0
LINE
  5
415
330
A
100
AcDbEntity
  8
TOP
  6
CONTINUOUS
 62
     3
100
AcDbLine
 10
20.993824
 20
31.691519
 30
0.0
 11
20.981037
 21
31.691519
 31
0.0
  0
LINE
  5
416
330
A
100
AcDbEntity
  8
TOP
  6
CONTINUOUS
 62
     3
100
AcDbLine
 10
4.925673999999999
 20
30.631519
 30
0.0
 11
4.905332999999999
 21
30.631519
 31
0.0
  0
LINE
  5
417
330
A
100
AcDbEntity
  8
TOP
  6
CONTINUOUS
 62
     3
100
AcDbLine
 10
4.888186
 20
2.481243999999999
 30
0.0
 11
4.888186
 21
2.504204999999999
 31
0.0
  0
LINE
  5
418
330
A
100
AcDbEntity
  8
TOP
  6
CONTINUOUS
 62
     3
100
AcDbLine
 10
14.86159299999999
 20
21.83152
 30
0.0
 11
14.85127499999999
 21
21.82053799999999
 31
0.0
  0
LINE
  5
419
330
A
100
AcDbEntity
  8
TOP
  6
CONTINUOUS
 62
     3
100
AcDbLine
 10
4.983056
 20
30.131519
 30
0.0
 11
4.952183999999999
 21
30.131519
 31
0.0
  0
LINE
  5
41A
330
A
100
AcDbEntity
  8
TOP
  6
CONTINUOUS
 62
     3
100
AcDbLine
 10
4.951185999999999
 20
2.481243999999999
 30
0.0
 11
4.951185999999999
 21
2.461778999999999
 31
0.0
  0
LINE
  5
41B
330
A
100
AcDbEntity
  8
TOP
  6
CONTINUOUS
 62
     3
100
AcDbLine
 10
4.925673999999999
 20
30.131519
 30
0.0
 11
4.905332999999999
 21
30.131519
 31
0.0
  0
LINE
  5
41C
330
A
100
AcDbEntity
  8
TOP
  6
CONTINUOUS
 62
     3
100
AcDbLine
 10
14.99368699999999
 20
22.57237599999999
 30
0.0
 11
14.99368699999999
 21
22.566519
 31
0.0
  0
LINE
  5
41D
330
A
100
AcDbEntity
  8
TOP
  6
CONTINUOUS
 62
     3
100
AcDbLine
 10
20.837185
 20
2.444205
 30
0.0
 11
5.049185999999999
 21
2.444205
 31
0.0
  0
LINE
  5
41E
330
A
100
AcDbEntity
  8
TOP
  6
CONTINUOUS
 62
     3
100
AcDbLine
 10
4.983056
 20
31.671518
 30
0.0
 11
4.952183999999999
 21
31.671518
 31
0.0
  0
LINE
  5
41F
330
A
100
AcDbEntity
  8
TOP
  6
CONTINUOUS
 62
     3
100
AcDbLine
 10
14.026263
 20
22.53652
 30
0.0
 11
14.012121
 21
22.53652
 31
0.0
  0
LINE
  5
420
330
A
100
AcDbEntity
  8
TOP
  6
CONTINUOUS
 62
     3
100
AcDbLine
 10
5.049185999999999
 20
2.389540999999999
 30
0.0
 11
5.049185999999999
 21
2.415467
 31
0.0
  0
LINE
  5
421
330
A
100
AcDbEntity
  8
TOP
  6
CONTINUOUS
 62
     3
100
AcDbLine
 10
4.892546
 20
31.671518
 30
0.0
 11
4.888186
 21
31.671518
 31
0.0
  0
LINE
  5
422
330
A
100
AcDbEntity
  8
TOP
  6
CONTINUOUS
 62
     3
100
AcDbLine
 10
14.026263
 20
21.84651899999999
 30
0.0
 11
14.012121
 21
21.84651899999999
 31
0.0
  0
LINE
  5
423
330
A
100
AcDbEntity
  8
TOP
  6
CONTINUOUS
 62
     3
100
AcDbLine
 10
20.837185
 20
2.355757
 30
0.0
 11
20.837185
 21
2.368965999999999
 31
0.0
  0
LINE
  5
424
330
A
100
AcDbEntity
  8
TOP
  6
CONTINUOUS
 62
     3
100
AcDbLine
 10
4.925673999999999
 20
31.171518
 30
0.0
 11
4.905332999999999
 21
31.171518
 31
0.0
  0
LINE
  5
425
330
A
100
AcDbEntity
  8
TOP
  6
CONTINUOUS
 62
     3
100
AcDbLine
 10
4.892546
 20
31.171518
 30
0.0
 11
4.888186
 21
31.171518
 31
0.0
  0
LINE
  5
426
330
A
100
AcDbEntity
  8
TOP
  6
CONTINUOUS
 62
     3
100
AcDbLine
 10
4.983056
 20
14.251519
 30
0.0
 11
4.952183999999999
 21
14.251519
 31
0.0
  0
LINE
  5
427
330
A
100
AcDbEntity
  8
TOP
  6
CONTINUOUS
 62
     3
100
AcDbLine
 10
14.837179
 20
21.83152
 30
0.0
 11
14.837179
 21
21.82053799999999
 31
0.0
  0
LINE
  5
428
330
A
100
AcDbEntity
  8
TOP
  6
CONTINUOUS
 62
     3
100
AcDbLine
 10
4.983056
 20
13.751519
 30
0.0
 11
4.952183999999999
 21
13.751519
 31
0.0
  0
LINE
  5
429
330
A
100
AcDbEntity
  8
TOP
  6
CONTINUOUS
 62
     3
100
AcDbLine
 10
17.73031
 20
21.827385
 30
0.0
 11
17.71909
 21
21.811163
 31
0.0
  0
LINE
  5
42A
330
A
100
AcDbEntity
  8
TOP
  6
CONTINUOUS
 62
     3
100
AcDbLine
 10
4.892546
 20
13.751519
 30
0.0
 11
4.888186
 21
13.751519
 31
0.0
  0
LINE
  5
42B
330
A
100
AcDbEntity
  8
TOP
  6
CONTINUOUS
 62
     3
100
AcDbLine
 10
4.925673999999999
 20
13.211519
 30
0.0
 11
4.905332999999999
 21
13.211519
 31
0.0
  0
LINE
  5
42C
330
A
100
AcDbEntity
  8
TOP
  6
CONTINUOUS
 62
     3
100
AcDbLine
 10
16.71506099999999
 20
22.571875
 30
0.0
 11
16.732323
 21
22.58271399999999
 31
0.0
  0
LINE
  5
42D
330
A
100
AcDbEntity
  8
TOP
  6
CONTINUOUS
 62
     3
100
AcDbLine
 10
6.413185999999999
 20
2.477205
 30
0.0
 11
6.873185999999999
 21
2.477205
 31
0.0
  0
LINE
  5
42E
330
A
100
AcDbEntity
  8
TOP
  6
CONTINUOUS
 62
     3
100
AcDbLine
 10
6.037539999999999
 20
31.59082
 30
0.0
 11
6.037539999999999
 21
31.71452
 31
0.0
  0
LINE
  5
42F
330
A
100
AcDbEntity
  8
TOP
  6
CONTINUOUS
 62
     3
100
AcDbLine
 10
7.453185999999999
 20
5.47719
 30
0.0
 11
7.453185999999999
 21
5.512202
 31
0.0
  0
LINE
  5
430
330
A
100
AcDbEntity
  8
TOP
  6
CONTINUOUS
 62
     3
100
AcDbLine
 10
6.990924999999999
 20
31.665039
 30
0.0
 11
6.964883999999999
 21
31.65332
 31
0.0
  0
LINE
  5
431
330
A
100
AcDbEntity
  8
TOP
  6
CONTINUOUS
 62
     3
100
AcDbLine
 10
17.734251
 20
21.84651899999999
 30
0.0
 11
17.73031
 21
21.827385
 31
0.0
  0
LINE
  5
432
330
A
100
AcDbEntity
  8
TOP
  6
CONTINUOUS
 62
     3
100
AcDbLine
 10
5.049185999999999
 20
2.444205
 30
0.0
 11
5.049185999999999
 21
5.594204999999999
 31
0.0
  0
LINE
  5
433
330
A
100
AcDbEntity
  8
TOP
  6
CONTINUOUS
 62
     3
100
AcDbLine
 10
17.71909
 20
21.811163
 30
0.0
 11
17.702295
 21
21.800325
 31
0.0
  0
LINE
  5
434
330
A
100
AcDbEntity
  8
TOP
  6
CONTINUOUS
 62
     3
100
AcDbLine
 10
7.200821
 20
31.71452
 30
0.0
 11
7.225560999999999
 21
31.71452
 31
0.0
  0
LINE
  5
435
330
A
100
AcDbEntity
  8
TOP
  6
CONTINUOUS
 62
     3
100
AcDbLine
 10
17.682487
 20
21.79651799999999
 30
0.0
 11
16.752686
 21
21.79651799999999
 31
0.0
  0
LINE
  5
436
330
A
100
AcDbEntity
  8
TOP
  6
CONTINUOUS
 62
     3
100
AcDbLine
 10
20.053186
 20
5.47719
 30
0.0
 11
20.053186
 21
5.512202
 31
0.0
  0
LINE
  5
437
330
A
100
AcDbEntity
  8
TOP
  6
CONTINUOUS
 62
     3
100
AcDbLine
 10
5.740404999999999
 20
31.71452
 30
0.0
 11
5.765144
 21
31.702801
 31
0.0
  0
LINE
  5
438
330
A
100
AcDbEntity
  8
TOP
  6
CONTINUOUS
 62
     3
100
AcDbLine
 10
16.703526
 20
21.827385
 30
0.0
 11
16.699476
 21
21.84651899999999
 31
0.0
  0
LINE
  5
439
330
A
100
AcDbEntity
  8
TOP
  6
CONTINUOUS
 62
     3
100
AcDbLine
 10
20.837185
 20
2.351205
 30
0.0
 11
20.905186
 21
2.351205
 31
0.0
  0
LINE
  5
43A
330
A
100
AcDbEntity
  8
TOP
  6
CONTINUOUS
 62
     3
100
AcDbLine
 10
16.428808
 20
22.685898
 30
0.0
 11
16.428808
 21
21.697142
 31
0.0
  0
LINE
  5
43B
330
A
100
AcDbEntity
  8
TOP
  6
CONTINUOUS
 62
     3
100
AcDbLine
 10
6.210977999999999
 20
31.71452
 30
0.0
 11
6.210977999999999
 21
31.615561
 31
0.0
  0
LINE
  5
43C
330
A
100
AcDbEntity
  8
TOP
  6
CONTINUOUS
 62
     3
100
AcDbLine
 10
18.147564
 20
21.697142
 30
0.0
 11
18.147564
 21
22.685898
 31
0.0
  0
LINE
  5
43D
330
A
100
AcDbEntity
  8
TOP
  6
CONTINUOUS
 62
     3
100
AcDbLine
 10
20.837185
 20
2.444205
 30
0.0
 11
20.865925
 21
2.444205
 31
0.0
  0
LINE
  5
43E
330
A
100
AcDbEntity
  8
TOP
  6
CONTINUOUS
 62
     3
100
AcDbLine
 10
7.127123
 20
31.71452
 30
0.0
 11
7.028165
 21
31.71452
 31
0.0
  0
LINE
  5
43F
330
A
100
AcDbEntity
  8
TOP
  6
CONTINUOUS
 62
     3
100
AcDbLine
 10
18.208185
 20
22.726519
 30
0.0
 11
18.208185
 21
21.65651899999999
 31
0.0
  0
LINE
  5
440
330
A
100
AcDbEntity
  8
TOP
  6
CONTINUOUS
 62
     3
100
AcDbLine
 10
20.92563399999999
 20
2.444205
 30
0.0
 11
20.930185
 21
2.444205
 31
0.0
  0
LINE
  5
441
330
A
100
AcDbEntity
  8
TOP
  6
CONTINUOUS
 62
     3
100
AcDbLine
 10
16.718269
 20
21.84651899999999
 30
0.0
 11
16.881001
 21
21.84651899999999
 31
0.0
  0
LINE
  5
442
330
A
100
AcDbEntity
  8
TOP
  6
CONTINUOUS
 62
     3
100
AcDbLine
 10
6.891967
 20
31.71452
 30
0.0
 11
6.966186
 21
31.71452
 31
0.0
  0
LINE
  5
443
330
A
100
AcDbEntity
  8
TOP
  6
CONTINUOUS
 62
     3
100
AcDbLine
 10
16.881001
 20
22.53652
 30
0.0
 11
16.718269
 21
22.53652
 31
0.0
  0
LINE
  5
444
330
A
100
AcDbEntity
  8
TOP
  6
CONTINUOUS
 62
     3
100
AcDbLine
 10
20.912424
 20
5.594204999999999
 30
0.0
 11
20.92563399999999
 21
5.594204999999999
 31
0.0
  0
LINE
  5
445
330
A
100
AcDbEntity
  8
TOP
  6
CONTINUOUS
 62
     3
100
AcDbLine
 10
6.854727999999999
 20
31.689779
 30
0.0
 11
6.829988
 21
31.71452
 31
0.0
  0
LINE
  5
446
330
A
100
AcDbEntity
  8
TOP
  6
CONTINUOUS
 62
     3
100
AcDbLine
 10
5.020446999999999
 20
2.444205
 30
0.0
 11
4.994521999999999
 21
2.444205
 31
0.0
  0
LINE
  5
447
330
A
100
AcDbEntity
  8
TOP
  6
CONTINUOUS
 62
     3
100
AcDbLine
 10
18.208185
 20
22.726519
 30
0.0
 11
18.202328
 21
22.740662
 31
0.0
  0
LINE
  5
448
330
A
100
AcDbEntity
  8
TOP
  6
CONTINUOUS
 62
     3
100
AcDbLine
 10
5.827123
 20
31.65332
 30
0.0
 11
5.876603
 21
31.65332
 31
0.0
  0
LINE
  5
449
330
A
100
AcDbEntity
  8
TOP
  6
CONTINUOUS
 62
     3
100
AcDbLine
 10
38.25085399999999
 20
31.59082
 30
0.0
 11
38.25085399999999
 21
31.71452
 31
0.0
  0
LINE
  5
44A
330
A
100
AcDbEntity
  8
TOP
  6
CONTINUOUS
 62
     3
100
AcDbLine
 10
4.956185999999999
 20
5.594204999999999
 30
0.0
 11
4.960738
 21
5.594204999999999
 31
0.0
  0
LINE
  5
44B
330
A
100
AcDbEntity
  8
TOP
  6
CONTINUOUS
 62
     3
100
AcDbLine
 10
38.25085399999999
 20
31.59082
 30
0.0
 11
38.25085399999999
 21
31.71452
 31
0.0
  0
LINE
  5
44C
330
A
100
AcDbEntity
  8
TOP
  6
CONTINUOUS
 62
     3
100
AcDbLine
 10
6.309936
 20
31.615561
 30
0.0
 11
6.309936
 21
31.71452
 31
0.0
  0
LINE
  5
44D
330
A
100
AcDbEntity
  8
TOP
  6
CONTINUOUS
 62
     3
100
AcDbLine
 10
38.25085399999999
 20
31.615561
 30
0.0
 11
38.25085399999999
 21
31.59082
 31
0.0
  0
LINE
  5
44E
330
A
100
AcDbEntity
  8
TOP
  6
CONTINUOUS
 62
     3
100
AcDbLine
 10
5.020446999999999
 20
5.594204999999999
 30
0.0
 11
5.049185999999999
 21
5.594204999999999
 31
0.0
  0
LINE
  5
44F
330
A
100
AcDbEntity
  8
TOP
  6
CONTINUOUS
 62
     3
100
AcDbLine
 10
16.909191
 20
21.81651899999999
 30
0.0
 11
16.895096
 21
21.82053799999999
 31
0.0
  0
LINE
  5
450
330
A
100
AcDbEntity
  8
TOP
  6
CONTINUOUS
 62
     3
100
AcDbLine
 10
14.837179
 20
21.84651899999999
 30
0.0
 11
14.837179
 21
22.53652
 31
0.0
  0
LINE
  5
451
330
A
100
AcDbEntity
  8
TOP
  6
CONTINUOUS
 62
     3
100
AcDbLine
 10
38.25085399999999
 20
31.59082
 30
0.0
 11
38.25085399999999
 21
31.615561
 31
0.0
  0
LINE
  5
452
330
A
100
AcDbEntity
  8
TOP
  6
CONTINUOUS
 62
     3
100
AcDbLine
 10
16.722881
 20
21.83152
 30
0.0
 11
16.735477
 21
21.82053799999999
 31
0.0
  0
LINE
  5
453
330
A
100
AcDbEntity
  8
TOP
  6
CONTINUOUS
 62
     3
100
AcDbLine
 10
15.042846
 20
21.827385
 30
0.0
 11
15.031311
 21
21.811163
 31
0.0
  0
LINE
  5
454
330
A
100
AcDbEntity
  8
TOP
  6
CONTINUOUS
 62
     3
100
AcDbLine
 10
38.25085399999999
 20
31.59082
 30
0.0
 11
38.25085399999999
 21
31.71452
 31
0.0
  0
LINE
  5
455
330
A
100
AcDbEntity
  8
TOP
  6
CONTINUOUS
 62
     3
100
AcDbLine
 10
20.998186
 20
5.744205
 30
0.0
 11
20.935186
 21
5.744205
 31
0.0
  0
LINE
  5
456
330
A
100
AcDbEntity
  8
TOP
  6
CONTINUOUS
 62
     3
100
AcDbLine
 10
20.77967999999999
 20
12.69151899999999
 30
0.0
 11
20.759338
 21
12.69151899999999
 31
0.0
  0
LINE
  5
457
330
A
100
AcDbEntity
  8
TOP
  6
CONTINUOUS
 62
     3
100
AcDbLine
 10
14.063885
 20
21.79651799999999
 30
0.0
 11
14.044076
 21
21.800325
 31
0.0
  0
LINE
  5
458
330
A
100
AcDbEntity
  8
TOP
  6
CONTINUOUS
 62
     3
100
AcDbLine
 10
38.25085399999999
 20
31.615561
 30
0.0
 11
38.25085399999999
 21
31.689779
 31
0.0
  0
LINE
  5
459
330
A
100
AcDbEntity
  8
TOP
  6
CONTINUOUS
 62
     3
100
AcDbLine
 10
4.888186
 20
31.691519
 30
0.0
 11
4.892547
 21
31.691519
 31
0.0
  0
LINE
  5
45A
330
A
100
AcDbEntity
  8
TOP
  6
CONTINUOUS
 62
     3
100
AcDbLine
 10
14.012121
 20
21.84651899999999
 30
0.0
 11
14.012121
 21
22.53652
 31
0.0
  0
LINE
  5
45B
330
A
100
AcDbEntity
  8
TOP
  6
CONTINUOUS
 62
     3
100
AcDbLine
 10
4.905333999999999
 20
31.691519
 30
0.0
 11
4.925675
 21
31.691519
 31
0.0
  0
LINE
  5
45C
330
A
100
AcDbEntity
  8
TOP
  6
CONTINUOUS
 62
     3
100
AcDbLine
 10
5.004898999999999
 20
5.680191999999999
 30
0.0
 11
4.993959
 21
5.618149999999999
 31
0.0
  0
LINE
  5
45D
330
A
100
AcDbEntity
  8
TOP
  6
CONTINUOUS
 62
     3
100
AcDbLine
 10
14.044076
 20
22.58271399999999
 30
0.0
 11
14.063885
 21
22.58651899999999
 31
0.0
  0
LINE
  5
45E
330
A
100
AcDbEntity
  8
TOP
  6
CONTINUOUS
 62
     3
100
AcDbLine
 10
5.016186
 20
30.631519
 30
0.0
 11
5.016186
 21
30.131519
 31
0.0
  0
LINE
  5
45F
330
A
100
AcDbEntity
  8
TOP
  6
CONTINUOUS
 62
     3
100
AcDbLine
 10
5.016180999999999
 20
31.691519
 30
0.0
 11
5.04931
 21
31.691519
 31
0.0
  0
LINE
  5
460
330
A
100
AcDbEntity
  8
TOP
  6
CONTINUOUS
 62
     3
100
AcDbLine
 10
19.21818899999999
 20
3.677204999999999
 30
0.0
 11
19.268183
 21
3.677204999999999
 31
0.0
  0
LINE
  5
461
330
A
100
AcDbEntity
  8
TOP
  6
CONTINUOUS
 62
     3
100
AcDbLine
 10
5.080180999999999
 20
31.691519
 30
0.0
 11
5.106690999999999
 21
31.691519
 31
0.0
  0
LINE
  5
462
330
A
100
AcDbEntity
  8
TOP
  6
CONTINUOUS
 62
     3
100
AcDbLine
 10
17.71058499999999
 20
21.83152
 30
0.0
 11
17.714931
 21
21.84651899999999
 31
0.0
  0
LINE
  5
463
330
A
100
AcDbEntity
  8
TOP
  6
CONTINUOUS
 62
     3
100
AcDbLine
 10
38.25085399999999
 20
31.71452
 30
0.0
 11
38.25085399999999
 21
31.59082
 31
0.0
  0
LINE
  5
464
330
A
100
AcDbEntity
  8
TOP
  6
CONTINUOUS
 62
     3
100
AcDbLine
 10
8.141723
 20
3.664204999999999
 30
0.0
 11
8.232003
 21
3.664204999999999
 31
0.0
  0
LINE
  5
465
330
A
100
AcDbEntity
  8
TOP
  6
CONTINUOUS
 62
     3
100
AcDbLine
 10
8.452856
 20
3.664204999999999
 30
0.0
 11
8.503099999999999
 21
3.664204999999999
 31
0.0
  0
LINE
  5
466
330
A
100
AcDbEntity
  8
TOP
  6
CONTINUOUS
 62
     3
100
AcDbLine
 10
16.881001
 20
22.53652
 30
0.0
 11
16.884779
 21
22.55151899999999
 31
0.0
  0
LINE
  5
467
330
A
100
AcDbEntity
  8
TOP
  6
CONTINUOUS
 62
     3
100
AcDbLine
 10
38.25085399999999
 20
31.71452
 30
0.0
 11
38.25085399999999
 21
31.59082
 31
0.0
  0
LINE
  5
468
330
A
100
AcDbEntity
  8
TOP
  6
CONTINUOUS
 62
     3
100
AcDbLine
 10
8.141249
 20
3.612731
 30
0.0
 11
8.243441999999999
 21
3.612731
 31
0.0
  0
LINE
  5
469
330
A
100
AcDbEntity
  8
TOP
  6
CONTINUOUS
 62
     3
100
AcDbLine
 10
38.25085399999999
 20
31.615561
 30
0.0
 11
38.25085399999999
 21
31.71452
 31
0.0
  0
LINE
  5
46A
330
A
100
AcDbEntity
  8
TOP
  6
CONTINUOUS
 62
     3
100
AcDbLine
 10
8.142428
 20
3.527152
 30
0.0
 11
8.187725
 21
3.527152
 31
0.0
  0
LINE
  5
46B
330
A
100
AcDbEntity
  8
TOP
  6
CONTINUOUS
 62
     3
100
AcDbLine
 10
4.892547
 20
30.65152
 30
0.0
 11
4.905333999999999
 21
30.65152
 31
0.0
  0
LINE
  5
46C
330
A
100
AcDbEntity
  8
TOP
  6
CONTINUOUS
 62
     3
100
AcDbLine
 10
16.388186
 20
22.74651899999999
 30
0.0
 11
16.374044
 21
22.740662
 31
0.0
  0
LINE
  5
46D
330
A
100
AcDbEntity
  8
TOP
  6
CONTINUOUS
 62
     3
100
AcDbLine
 10
41.392063
 20
12.096519
 30
0.0
 11
41.347569
 21
12.096519
 31
0.0
  0
LINE
  5
46E
330
A
100
AcDbEntity
  8
TOP
  6
CONTINUOUS
 62
     3
100
AcDbLine
 10
41.172813
 20
12.096519
 30
0.0
 11
41.102463
 21
12.096519
 31
0.0
  0
LINE
  5
46F
330
A
100
AcDbEntity
  8
TOP
  6
CONTINUOUS
 62
     3
100
AcDbLine
 10
20.720186
 20
5.867652999999999
 30
0.0
 11
20.720186
 21
5.854443999999999
 31
0.0
  0
LINE
  5
470
330
A
100
AcDbEntity
  8
TOP
  6
CONTINUOUS
 62
     3
100
AcDbLine
 10
40.863483
 20
12.096519
 30
0.0
 11
40.776779
 21
12.096519
 31
0.0
  0
LINE
  5
471
330
A
100
AcDbEntity
  8
TOP
  6
CONTINUOUS
 62
     3
100
AcDbLine
 10
38.665852
 20
12.096519
 30
0.0
 11
40.44585399999999
 21
12.096519
 31
0.0
  0
LINE
  5
472
330
A
100
AcDbEntity
  8
TOP
  6
CONTINUOUS
 62
     3
100
AcDbLine
 10
15.905186
 20
5.867652999999999
 30
0.0
 11
15.905186
 21
5.854443999999999
 31
0.0
  0
LINE
  5
473
330
A
100
AcDbEntity
  8
TOP
  6
CONTINUOUS
 62
     3
100
AcDbLine
 10
15.905186
 20
5.779205
 30
0.0
 11
20.720186
 21
5.779205
 31
0.0
  0
LINE
  5
474
330
A
100
AcDbEntity
  8
TOP
  6
CONTINUOUS
 62
     3
100
AcDbLine
 10
41.392063
 20
12.18401899999999
 30
0.0
 11
41.347569
 21
12.18401899999999
 31
0.0
  0
LINE
  5
475
330
A
100
AcDbEntity
  8
TOP
  6
CONTINUOUS
 62
     3
100
AcDbLine
 10
38.543854
 20
12.69151899999999
 30
0.0
 11
38.543854
 21
13.231519
 31
0.0
  0
LINE
  5
476
330
A
100
AcDbEntity
  8
TOP
  6
CONTINUOUS
 62
     3
100
AcDbLine
 10
40.863483
 20
12.18401899999999
 30
0.0
 11
40.776779
 21
12.18401899999999
 31
0.0
  0
LINE
  5
477
330
A
100
AcDbEntity
  8
TOP
  6
CONTINUOUS
 62
     3
100
AcDbLine
 10
15.841186
 20
5.872205
 30
0.0
 11
5.166185999999999
 21
5.872205
 31
0.0
  0
LINE
  5
478
330
A
100
AcDbEntity
  8
TOP
  6
CONTINUOUS
 62
     3
100
AcDbLine
 10
40.50585199999999
 20
12.096519
 30
0.0
 11
40.50585199999999
 21
12.18401899999999
 31
0.0
  0
LINE
  5
479
330
A
100
AcDbEntity
  8
TOP
  6
CONTINUOUS
 62
     3
100
AcDbLine
 10
40.50585199999999
 20
12.18401899999999
 30
0.0
 11
38.665852
 21
12.18401899999999
 31
0.0
  0
LINE
  5
47A
330
A
100
AcDbEntity
  8
TOP
  6
CONTINUOUS
 62
     3
100
AcDbLine
 10
5.166185999999999
 20
5.807943999999999
 30
0.0
 11
5.166185999999999
 21
5.833868999999999
 31
0.0
  0
LINE
  5
47B
330
A
100
AcDbEntity
  8
TOP
  6
CONTINUOUS
 62
     3
100
AcDbLine
 10
5.166185999999999
 20
5.854443999999999
 30
0.0
 11
5.166185999999999
 21
5.867652999999999
 31
0.0
  0
LINE
  5
47C
330
A
100
AcDbEntity
  8
TOP
  6
CONTINUOUS
 62
     3
100
AcDbLine
 10
40.589478
 20
12.190654
 30
0.0
 11
40.672184
 21
12.190654
 31
0.0
  0
LINE
  5
47D
330
A
100
AcDbEntity
  8
TOP
  6
CONTINUOUS
 62
     3
100
AcDbLine
 10
5.166185999999999
 20
5.642204999999999
 30
0.0
 11
5.166185999999999
 21
5.779205
 31
0.0
  0
LINE
  5
47E
330
A
100
AcDbEntity
  8
TOP
  6
CONTINUOUS
 62
     3
100
AcDbLine
 10
40.90585299999999
 20
12.190654
 30
0.0
 11
40.97608199999999
 21
12.190654
 31
0.0
  0
LINE
  5
47F
330
A
100
AcDbEntity
  8
TOP
  6
CONTINUOUS
 62
     3
100
AcDbLine
 10
41.15306499999999
 20
12.190654
 30
0.0
 11
41.198673
 21
12.190654
 31
0.0
  0
LINE
  5
480
330
A
100
AcDbEntity
  8
TOP
  6
CONTINUOUS
 62
     3
100
AcDbLine
 10
41.288372
 20
12.190654
 30
0.0
 11
41.30147199999999
 21
12.190654
 31
0.0
  0
LINE
  5
481
330
A
100
AcDbEntity
  8
TOP
  6
CONTINUOUS
 62
     3
100
AcDbLine
 10
41.172813
 20
12.18401899999999
 30
0.0
 11
41.102463
 21
12.18401899999999
 31
0.0
  0
LINE
  5
482
330
A
100
AcDbEntity
  8
TOP
  6
CONTINUOUS
 62
     3
100
AcDbLine
 10
40.50585199999999
 20
12.18401899999999
 30
0.0
 11
40.50585199999999
 21
12.190654
 31
0.0
  0
LINE
  5
483
330
A
100
AcDbEntity
  8
TOP
  6
CONTINUOUS
 62
     3
100
AcDbLine
 10
4.951185999999999
 20
30.011467
 30
0.0
 11
4.951185999999999
 21
30.131493
 31
0.0
  0
LINE
  5
484
330
A
100
AcDbEntity
  8
TOP
  6
CONTINUOUS
 62
     3
100
AcDbLine
 10
38.209854
 20
22.74651899999999
 30
0.0
 11
38.25085399999999
 21
22.74651899999999
 31
0.0
  0
LINE
  5
485
330
A
100
AcDbEntity
  8
TOP
  6
CONTINUOUS
 62
     3
100
AcDbLine
 10
38.25085399999999
 20
21.63651799999999
 30
0.0
 11
38.209854
 21
21.63651799999999
 31
0.0
  0
LINE
  5
486
330
A
100
AcDbEntity
  8
TOP
  6
CONTINUOUS
 62
     3
100
AcDbLine
 10
38.20647
 20
22.740662
 30
0.0
 11
38.209854
 21
22.74651899999999
 31
0.0
  0
LINE
  5
487
330
A
100
AcDbEntity
  8
TOP
  6
CONTINUOUS
 62
     3
100
AcDbLine
 10
38.209854
 20
21.63651799999999
 30
0.0
 11
38.20647
 21
21.64237799999999
 31
0.0
  0
LINE
  5
488
330
A
100
AcDbEntity
  8
TOP
  6
CONTINUOUS
 62
     3
100
AcDbLine
 10
38.25085399999999
 20
31.71452
 30
0.0
 11
38.25085399999999
 21
31.689779
 31
0.0
  0
LINE
  5
489
330
A
100
AcDbEntity
  8
TOP
  6
CONTINUOUS
 62
     3
100
AcDbLine
 10
38.37885299999999
 20
30.65152
 30
0.0
 11
38.61585199999999
 21
30.65152
 31
0.0
  0
LINE
  5
48A
330
A
100
AcDbEntity
  8
TOP
  6
CONTINUOUS
 62
     3
100
AcDbLine
 10
20.87018599999999
 20
14.251519
 30
0.0
 11
20.903316
 21
14.251519
 31
0.0
  0
LINE
  5
48B
330
A
100
AcDbEntity
  8
TOP
  6
CONTINUOUS
 62
     3
100
AcDbLine
 10
38.37885299999999
 20
13.231519
 30
0.0
 11
38.543854
 21
13.231519
 31
0.0
  0
LINE
  5
48C
330
A
100
AcDbEntity
  8
TOP
  6
CONTINUOUS
 62
     3
100
AcDbLine
 10
41.618855
 20
12.19151899999999
 30
0.0
 11
38.37885299999999
 21
12.19151899999999
 31
0.0
  0
LINE
  5
48D
330
A
100
AcDbEntity
  8
TOP
  6
CONTINUOUS
 62
     3
100
AcDbLine
 10
41.67885199999999
 20
32.13151899999999
 30
0.0
 11
41.67885199999999
 21
32.098518
 31
0.0
  0
LINE
  5
48E
330
A
100
AcDbEntity
  8
TOP
  6
CONTINUOUS
 62
     3
100
AcDbLine
 10
38.37885299999999
 20
12.69151899999999
 30
0.0
 11
38.345722
 21
12.69151899999999
 31
0.0
  0
LINE
  5
48F
330
A
100
AcDbEntity
  8
TOP
  6
CONTINUOUS
 62
     3
100
AcDbLine
 10
38.37885299999999
 20
31.691519
 30
0.0
 11
38.543854
 21
31.691519
 31
0.0
  0
LINE
  5
490
330
A
100
AcDbEntity
  8
TOP
  6
CONTINUOUS
 62
     3
100
AcDbLine
 10
41.67885199999999
 20
12.19151899999999
 30
0.0
 11
41.67885199999999
 21
12.195728
 31
0.0
  0
LINE
  5
491
330
A
100
AcDbEntity
  8
TOP
  6
CONTINUOUS
 62
     3
100
AcDbLine
 10
41.67885199999999
 20
32.191521
 30
0.0
 11
41.67885199999999
 21
32.187309
 31
0.0
  0
LINE
  5
492
330
A
100
AcDbEntity
  8
TOP
  6
CONTINUOUS
 62
     3
100
AcDbLine
 10
41.77185399999999
 20
32.098518
 30
0.0
 11
41.7673
 21
32.098518
 31
0.0
  0
LINE
  5
493
330
A
100
AcDbEntity
  8
TOP
  6
CONTINUOUS
 62
     3
100
AcDbLine
 10
19.21818499999999
 20
5.199205
 30
0.0
 11
19.21818499999999
 21
4.669204999999999
 31
0.0
  0
LINE
  5
494
330
A
100
AcDbEntity
  8
TOP
  6
CONTINUOUS
 62
     3
100
AcDbLine
 10
16.368185
 20
21.65651899999999
 30
0.0
 11
16.374044
 21
21.64237799999999
 31
0.0
  0
LINE
  5
495
330
A
100
AcDbEntity
  8
TOP
  6
CONTINUOUS
 62
     3
100
AcDbLine
 10
41.70759199999999
 20
32.098518
 30
0.0
 11
41.67885199999999
 21
32.098518
 31
0.0
  0
LINE
  5
496
330
A
100
AcDbEntity
  8
TOP
  6
CONTINUOUS
 62
     3
100
AcDbLine
 10
15.841186
 20
32.250259
 30
0.0
 11
15.841186
 21
32.276184
 31
0.0
  0
LINE
  5
497
330
A
100
AcDbEntity
  8
TOP
  6
CONTINUOUS
 62
     3
100
AcDbLine
 10
41.733517
 20
12.284519
 30
0.0
 11
41.70759199999999
 21
12.284519
 31
0.0
  0
LINE
  5
498
330
A
100
AcDbEntity
  8
TOP
  6
CONTINUOUS
 62
     3
100
AcDbLine
 10
20.993824
 20
12.69151899999999
 30
0.0
 11
20.981037
 21
12.69151899999999
 31
0.0
  0
LINE
  5
499
330
A
100
AcDbEntity
  8
TOP
  6
CONTINUOUS
 62
     3
100
AcDbLine
 10
38.288342
 20
13.731519
 30
0.0
 11
38.268002
 21
13.731519
 31
0.0
  0
LINE
  5
49A
330
A
100
AcDbEntity
  8
TOP
  6
CONTINUOUS
 62
     3
100
AcDbLine
 10
38.31485
 20
12.69151899999999
 30
0.0
 11
38.288342
 21
12.69151899999999
 31
0.0
  0
LINE
  5
49B
330
A
100
AcDbEntity
  8
TOP
  6
CONTINUOUS
 62
     3
100
AcDbLine
 10
38.469357
 20
12.711519
 30
0.0
 11
38.4897
 21
12.711519
 31
0.0
  0
LINE
  5
49C
330
A
100
AcDbEntity
  8
TOP
  6
CONTINUOUS
 62
     3
100
AcDbLine
 10
38.37885299999999
 20
12.19151899999999
 30
0.0
 11
38.345722
 21
12.19151899999999
 31
0.0
  0
LINE
  5
49D
330
A
100
AcDbEntity
  8
TOP
  6
CONTINUOUS
 62
     3
100
AcDbLine
 10
38.268002
 20
12.19151899999999
 30
0.0
 11
38.255215
 21
12.19151899999999
 31
0.0
  0
LINE
  5
49E
330
A
100
AcDbEntity
  8
TOP
  6
CONTINUOUS
 62
     3
100
AcDbLine
 10
38.31485
 20
13.731519
 30
0.0
 11
38.288342
 21
13.731519
 31
0.0
  0
LINE
  5
49F
330
A
100
AcDbEntity
  8
TOP
  6
CONTINUOUS
 62
     3
100
AcDbLine
 10
38.37885299999999
 20
13.231519
 30
0.0
 11
38.345722
 21
13.231519
 31
0.0
  0
LINE
  5
4A0
330
A
100
AcDbEntity
  8
TOP
  6
CONTINUOUS
 62
     3
100
AcDbLine
 10
4.951185999999999
 20
30.651539
 30
0.0
 11
4.951185999999999
 21
30.63154
 31
0.0
  0
LINE
  5
4A1
330
A
100
AcDbEntity
  8
TOP
  6
CONTINUOUS
 62
     3
100
AcDbLine
 10
38.268002
 20
13.231519
 30
0.0
 11
38.255215
 21
13.231519
 31
0.0
  0
LINE
  5
4A2
330
A
100
AcDbEntity
  8
TOP
  6
CONTINUOUS
 62
     3
100
AcDbLine
 10
38.31485
 20
31.15152
 30
0.0
 11
38.288342
 21
31.15152
 31
0.0
  0
LINE
  5
4A3
330
A
100
AcDbEntity
  8
TOP
  6
CONTINUOUS
 62
     3
100
AcDbLine
 10
38.37885299999999
 20
30.65152
 30
0.0
 11
38.345722
 21
30.65152
 31
0.0
  0
LINE
  5
4A4
330
A
100
AcDbEntity
  8
TOP
  6
CONTINUOUS
 62
     3
100
AcDbLine
 10
38.268002
 20
30.65152
 30
0.0
 11
38.255215
 21
30.65152
 31
0.0
  0
LINE
  5
4A5
330
A
100
AcDbEntity
  8
TOP
  6
CONTINUOUS
 62
     3
100
AcDbLine
 10
38.25085399999999
 20
31.71452
 30
0.0
 11
38.25085399999999
 21
31.59082
 31
0.0
  0
LINE
  5
4A6
330
A
100
AcDbEntity
  8
TOP
  6
CONTINUOUS
 62
     3
100
AcDbLine
 10
38.31485
 20
32.191521
 30
0.0
 11
38.288342
 21
32.191521
 31
0.0
  0
LINE
  5
4A7
330
A
100
AcDbEntity
  8
TOP
  6
CONTINUOUS
 62
     3
100
AcDbLine
 10
20.720186
 20
13.751519
 30
0.0
 11
20.87018599999999
 21
13.751519
 31
0.0
  0
LINE
  5
4A8
330
A
100
AcDbEntity
  8
TOP
  6
CONTINUOUS
 62
     3
100
AcDbLine
 10
38.37885299999999
 20
31.691519
 30
0.0
 11
38.345722
 21
31.691519
 31
0.0
  0
LINE
  5
4A9
330
A
100
AcDbEntity
  8
TOP
  6
CONTINUOUS
 62
     3
100
AcDbLine
 10
38.268002
 20
31.691519
 30
0.0
 11
38.255215
 21
31.691519
 31
0.0
  0
LINE
  5
4AA
330
A
100
AcDbEntity
  8
TOP
  6
CONTINUOUS
 62
     3
100
AcDbLine
 10
38.50085399999999
 20
21.626518
 30
0.0
 11
38.61585199999999
 21
21.626518
 31
0.0
  0
LINE
  5
4AB
330
A
100
AcDbEntity
  8
TOP
  6
CONTINUOUS
 62
     3
100
AcDbLine
 10
38.25085399999999
 20
30.011518
 30
0.0
 11
38.255043
 21
30.011518
 31
0.0
  0
LINE
  5
4AC
330
A
100
AcDbEntity
  8
TOP
  6
CONTINUOUS
 62
     3
100
AcDbLine
 10
38.312351
 20
30.011518
 30
0.0
 11
38.342018
 21
30.011518
 31
0.0
  0
LINE
  5
4AD
330
A
100
AcDbEntity
  8
TOP
  6
CONTINUOUS
 62
     3
100
AcDbLine
 10
38.37385199999999
 20
14.37151899999999
 30
0.0
 11
38.342018
 21
14.37151899999999
 31
0.0
  0
LINE
  5
4AE
330
A
100
AcDbEntity
  8
TOP
  6
CONTINUOUS
 62
     3
100
AcDbLine
 10
38.26733
 20
14.37151899999999
 30
0.0
 11
38.255043
 21
14.37151899999999
 31
0.0
  0
LINE
  5
4AF
330
A
100
AcDbEntity
  8
TOP
  6
CONTINUOUS
 62
     3
100
AcDbLine
 10
20.720186
 20
5.872205
 30
0.0
 11
15.905186
 21
5.872205
 31
0.0
  0
LINE
  5
4B0
330
A
100
AcDbEntity
  8
TOP
  6
CONTINUOUS
 62
     3
100
AcDbLine
 10
38.343853
 20
12.06852
 30
0.0
 11
38.480854
 21
12.06852
 31
0.0
  0
LINE
  5
4B1
330
A
100
AcDbEntity
  8
TOP
  6
CONTINUOUS
 62
     3
100
AcDbLine
 10
38.313854
 20
12.161519
 30
0.0
 11
38.313854
 21
12.19152
 31
0.0
  0
LINE
  5
4B2
330
A
100
AcDbEntity
  8
TOP
  6
CONTINUOUS
 62
     3
100
AcDbLine
 10
38.25085399999999
 20
13.211519
 30
0.0
 11
38.25085399999999
 21
13.231524
 31
0.0
  0
LINE
  5
4B3
330
A
100
AcDbEntity
  8
TOP
  6
CONTINUOUS
 62
     3
100
AcDbLine
 10
41.67885199999999
 20
32.187309
 30
0.0
 11
41.67885199999999
 21
32.17506399999999
 31
0.0
  0
LINE
  5
4B4
330
A
100
AcDbEntity
  8
TOP
  6
CONTINUOUS
 62
     3
100
AcDbLine
 10
38.25085399999999
 20
31.615561
 30
0.0
 11
38.25085399999999
 21
31.689779
 31
0.0
  0
LINE
  5
4B5
330
A
100
AcDbEntity
  8
TOP
  6
CONTINUOUS
 62
     3
100
AcDbLine
 10
38.25085399999999
 20
31.59082
 30
0.0
 11
38.25085399999999
 21
31.615561
 31
0.0
  0
LINE
  5
4B6
330
A
100
AcDbEntity
  8
TOP
  6
CONTINUOUS
 62
     3
100
AcDbLine
 10
20.742186
 20
13.731519
 30
0.0
 11
20.742186
 21
13.231519
 31
0.0
  0
LINE
  5
4B7
330
A
100
AcDbEntity
  8
TOP
  6
CONTINUOUS
 62
     3
100
AcDbLine
 10
4.983056
 20
12.711519
 30
0.0
 11
4.952183999999999
 21
12.711519
 31
0.0
  0
LINE
  5
4B8
330
A
100
AcDbEntity
  8
TOP
  6
CONTINUOUS
 62
     3
100
AcDbLine
 10
20.837185
 20
2.368965999999999
 30
0.0
 11
20.837185
 21
2.389540999999999
 31
0.0
  0
LINE
  5
4B9
330
A
100
AcDbEntity
  8
TOP
  6
CONTINUOUS
 62
     3
100
AcDbLine
 10
18.147564
 20
22.685898
 30
0.0
 11
16.428808
 21
22.685898
 31
0.0
  0
LINE
  5
4BA
330
A
100
AcDbEntity
  8
TOP
  6
CONTINUOUS
 62
     3
100
AcDbLine
 10
4.905333999999999
 20
13.731519
 30
0.0
 11
4.925675
 21
13.731519
 31
0.0
  0
LINE
  5
4BB
330
A
100
AcDbEntity
  8
TOP
  6
CONTINUOUS
 62
     3
100
AcDbLine
 10
6.966186
 20
5.872205
 30
0.0
 11
6.990924999999999
 21
5.872205
 31
0.0
  0
LINE
  5
4BC
330
A
100
AcDbEntity
  8
TOP
  6
CONTINUOUS
 62
     3
100
AcDbLine
 10
5.127034
 20
13.731519
 30
0.0
 11
5.139821999999999
 21
13.731519
 31
0.0
  0
LINE
  5
4BD
330
A
100
AcDbEntity
  8
TOP
  6
CONTINUOUS
 62
     3
100
AcDbLine
 10
4.905333999999999
 20
30.65152
 30
0.0
 11
4.925675
 21
30.65152
 31
0.0
  0
LINE
  5
4BE
330
A
100
AcDbEntity
  8
TOP
  6
CONTINUOUS
 62
     3
100
AcDbLine
 10
6.383633999999999
 20
5.872205
 30
0.0
 11
6.408373
 21
5.872205
 31
0.0
  0
LINE
  5
4BF
330
A
100
AcDbEntity
  8
TOP
  6
CONTINUOUS
 62
     3
100
AcDbLine
 10
5.739101999999999
 20
5.872205
 30
0.0
 11
5.666185999999999
 21
5.872205
 31
0.0
  0
LINE
  5
4C0
330
A
100
AcDbEntity
  8
TOP
  6
CONTINUOUS
 62
     3
100
AcDbLine
 10
5.127034
 20
30.65152
 30
0.0
 11
5.139821999999999
 21
30.65152
 31
0.0
  0
LINE
  5
4C1
330
A
100
AcDbEntity
  8
TOP
  6
CONTINUOUS
 62
     3
100
AcDbLine
 10
15.841186
 20
32.276184
 30
0.0
 11
15.841186
 21
32.296757
 31
0.0
  0
LINE
  5
4C2
330
A
100
AcDbEntity
  8
TOP
  6
CONTINUOUS
 62
     3
100
AcDbLine
 10
4.892547
 20
31.15152
 30
0.0
 11
4.905333999999999
 21
31.15152
 31
0.0
  0
LINE
  5
4C3
330
A
100
AcDbEntity
  8
TOP
  6
CONTINUOUS
 62
     3
100
AcDbLine
 10
4.905333999999999
 20
31.15152
 30
0.0
 11
4.925675
 21
31.15152
 31
0.0
  0
LINE
  5
4C4
330
A
100
AcDbEntity
  8
TOP
  6
CONTINUOUS
 62
     3
100
AcDbLine
 10
5.016180999999999
 20
31.15152
 30
0.0
 11
5.04931
 21
31.15152
 31
0.0
  0
LINE
  5
4C5
330
A
100
AcDbEntity
  8
TOP
  6
CONTINUOUS
 62
     3
100
AcDbLine
 10
6.147695999999999
 20
5.872205
 30
0.0
 11
6.173738
 21
5.872205
 31
0.0
  0
LINE
  5
4C6
330
A
100
AcDbEntity
  8
TOP
  6
CONTINUOUS
 62
     3
100
AcDbLine
 10
38.25085399999999
 20
30.094481
 30
0.0
 11
38.25085399999999
 21
30.113945
 31
0.0
  0
LINE
  5
4C7
330
A
100
AcDbEntity
  8
TOP
  6
CONTINUOUS
 62
     3
100
AcDbLine
 10
7.388186
 20
3.627205
 30
0.0
 11
7.388186
 21
3.617204999999999
 31
0.0
  0
LINE
  5
4C8
330
A
100
AcDbEntity
  8
TOP
  6
CONTINUOUS
 62
     3
100
AcDbLine
 10
38.25085399999999
 20
31.171518
 30
0.0
 11
38.25085399999999
 21
31.671518
 31
0.0
  0
LINE
  5
4C9
330
A
100
AcDbEntity
  8
TOP
  6
CONTINUOUS
 62
     3
100
AcDbLine
 10
5.653185999999999
 20
3.627205
 30
0.0
 11
5.653185999999999
 21
3.617204999999999
 31
0.0
  0
LINE
  5
4CA
330
A
100
AcDbEntity
  8
TOP
  6
CONTINUOUS
 62
     3
100
AcDbLine
 10
38.25085399999999
 20
13.751519
 30
0.0
 11
38.25085399999999
 21
14.251519
 31
0.0
  0
LINE
  5
4CB
330
A
100
AcDbEntity
  8
TOP
  6
CONTINUOUS
 62
     3
100
AcDbLine
 10
38.25085399999999
 20
14.288558
 30
0.0
 11
38.25085399999999
 21
14.31151999999999
 31
0.0
  0
LINE
  5
4CC
330
A
100
AcDbEntity
  8
TOP
  6
CONTINUOUS
 62
     3
100
AcDbLine
 10
7.352013
 20
4.049204999999999
 30
0.0
 11
7.388186
 21
4.049204999999999
 31
0.0
  0
LINE
  5
4CD
330
A
100
AcDbEntity
  8
TOP
  6
CONTINUOUS
 62
     3
100
AcDbLine
 10
38.25085399999999
 20
14.36695199999999
 30
0.0
 11
38.25085399999999
 21
14.37151899999999
 31
0.0
  0
LINE
  5
4CE
330
A
100
AcDbEntity
  8
TOP
  6
CONTINUOUS
 62
     3
100
AcDbLine
 10
38.313854
 20
30.029093
 30
0.0
 11
38.313854
 21
30.048557
 31
0.0
  0
LINE
  5
4CF
330
A
100
AcDbEntity
  8
TOP
  6
CONTINUOUS
 62
     3
100
AcDbLine
 10
38.313854
 20
30.113945
 30
0.0
 11
38.313854
 21
30.126951
 31
0.0
  0
LINE
  5
4D0
330
A
100
AcDbEntity
  8
TOP
  6
CONTINUOUS
 62
     3
100
AcDbLine
 10
6.618185999999999
 20
3.979204999999999
 30
0.0
 11
6.618185999999999
 21
3.469205
 31
0.0
  0
LINE
  5
4D1
330
A
100
AcDbEntity
  8
TOP
  6
CONTINUOUS
 62
     3
100
AcDbLine
 10
7.388186
 20
3.627205
 30
0.0
 11
7.383186
 21
3.627205
 31
0.0
  0
LINE
  5
4D2
330
A
100
AcDbEntity
  8
TOP
  6
CONTINUOUS
 62
     3
100
AcDbLine
 10
38.313854
 20
14.269093
 30
0.0
 11
38.313854
 21
14.288558
 31
0.0
  0
LINE
  5
4D3
330
A
100
AcDbEntity
  8
TOP
  6
CONTINUOUS
 62
     3
100
AcDbLine
 10
7.200905999999999
 20
3.999204999999999
 30
0.0
 11
7.296788
 21
3.999204999999999
 31
0.0
  0
LINE
  5
4D4
330
A
100
AcDbEntity
  8
TOP
  6
CONTINUOUS
 62
     3
100
AcDbLine
 10
38.313854
 20
14.353946
 30
0.0
 11
38.313854
 21
14.36695199999999
 31
0.0
  0
LINE
  5
4D5
330
A
100
AcDbEntity
  8
TOP
  6
CONTINUOUS
 62
     3
100
AcDbLine
 10
5.898185999999999
 20
5.364205
 30
0.0
 11
5.898185999999999
 21
5.312204999999999
 31
0.0
  0
LINE
  5
4D6
330
A
100
AcDbEntity
  8
TOP
  6
CONTINUOUS
 62
     3
100
AcDbLine
 10
7.388186
 20
5.364205
 30
0.0
 11
7.388186
 21
5.312204999999999
 31
0.0
  0
LINE
  5
4D7
330
A
100
AcDbEntity
  8
TOP
  6
CONTINUOUS
 62
     3
100
AcDbLine
 10
5.673186
 20
5.477204999999999
 30
0.0
 11
7.613185999999999
 21
5.477204999999999
 31
0.0
  0
LINE
  5
4D8
330
A
100
AcDbEntity
  8
TOP
  6
CONTINUOUS
 62
     3
100
AcDbLine
 10
7.535716999999999
 20
5.872205
 30
0.0
 11
7.510977999999999
 21
5.872205
 31
0.0
  0
LINE
  5
4D9
330
A
100
AcDbEntity
  8
TOP
  6
CONTINUOUS
 62
     3
100
AcDbLine
 10
6.688185999999999
 20
3.399204999999999
 30
0.0
 11
7.229258999999999
 21
3.399204999999999
 31
0.0
  0
LINE
  5
4DA
330
A
100
AcDbEntity
  8
TOP
  6
CONTINUOUS
 62
     3
100
AcDbLine
 10
6.668186
 20
3.379204999999999
 30
0.0
 11
6.668186
 21
2.943862999999999
 31
0.0
  0
LINE
  5
4DB
330
A
100
AcDbEntity
  8
TOP
  6
CONTINUOUS
 62
     3
100
AcDbLine
 10
5.081185999999999
 20
13.731499
 30
0.0
 11
5.081185999999999
 21
13.751497
 31
0.0
  0
LINE
  5
4DC
330
A
100
AcDbEntity
  8
TOP
  6
CONTINUOUS
 62
     3
100
AcDbLine
 10
4.888186
 20
13.211519
 30
0.0
 11
4.888186
 21
12.711519
 31
0.0
  0
LINE
  5
4DD
330
A
100
AcDbEntity
  8
TOP
  6
CONTINUOUS
 62
     3
100
AcDbLine
 10
6.688185999999999
 20
4.049204999999999
 30
0.0
 11
6.972110999999999
 21
4.049204999999999
 31
0.0
  0
LINE
  5
4DE
330
A
100
AcDbEntity
  8
TOP
  6
CONTINUOUS
 62
     3
100
AcDbLine
 10
4.888186
 20
31.671518
 30
0.0
 11
4.888186
 21
31.171518
 31
0.0
  0
LINE
  5
4DF
330
A
100
AcDbEntity
  8
TOP
  6
CONTINUOUS
 62
     3
100
AcDbLine
 10
6.688185999999999
 20
3.999204999999999
 30
0.0
 11
7.082368999999999
 21
3.999204999999999
 31
0.0
  0
LINE
  5
4E0
330
A
100
AcDbEntity
  8
TOP
  6
CONTINUOUS
 62
     3
100
AcDbLine
 10
6.668186
 20
3.979204999999999
 30
0.0
 11
6.668186
 21
3.469205
 31
0.0
  0
LINE
  5
4E1
330
A
100
AcDbEntity
  8
TOP
  6
CONTINUOUS
 62
     3
100
AcDbLine
 10
5.923949
 20
5.312204999999999
 30
0.0
 11
5.910436999999999
 21
5.312204999999999
 31
0.0
  0
LINE
  5
4E2
330
A
100
AcDbEntity
  8
TOP
  6
CONTINUOUS
 62
     3
100
AcDbLine
 10
7.633186
 20
3.627205
 30
0.0
 11
7.633186
 21
3.677204999999999
 31
0.0
  0
LINE
  5
4E3
330
A
100
AcDbEntity
  8
TOP
  6
CONTINUOUS
 62
     3
100
AcDbLine
 10
5.928186
 20
5.288044
 30
0.0
 11
7.358185999999999
 21
5.288044
 31
0.0
  0
LINE
  5
4E4
330
A
100
AcDbEntity
  8
TOP
  6
CONTINUOUS
 62
     3
100
AcDbLine
 10
7.382347
 20
5.364205
 30
0.0
 11
7.382347
 21
5.312204999999999
 31
0.0
  0
LINE
  5
4E5
330
A
100
AcDbEntity
  8
TOP
  6
CONTINUOUS
 62
     3
100
AcDbLine
 10
15.841186
 20
32.221519
 30
0.0
 11
15.841186
 21
32.250259
 31
0.0
  0
LINE
  5
4E6
330
A
100
AcDbEntity
  8
TOP
  6
CONTINUOUS
 62
     3
100
AcDbLine
 10
7.362421999999999
 20
5.364205
 30
0.0
 11
7.362421999999999
 21
5.312204999999999
 31
0.0
  0
LINE
  5
4E7
330
A
100
AcDbEntity
  8
TOP
  6
CONTINUOUS
 62
     3
100
AcDbLine
 10
7.358185999999999
 20
5.394205
 30
0.0
 11
7.358185999999999
 21
5.388366
 31
0.0
  0
LINE
  5
4E8
330
A
100
AcDbEntity
  8
TOP
  6
CONTINUOUS
 62
     3
100
AcDbLine
 10
5.160408
 20
32.128521
 30
0.0
 11
5.144186999999999
 21
32.128521
 31
0.0
  0
LINE
  5
4E9
330
A
100
AcDbEntity
  8
TOP
  6
CONTINUOUS
 62
     3
100
AcDbLine
 10
15.905186
 20
5.807943999999999
 30
0.0
 11
15.905186
 21
5.779205
 31
0.0
  0
LINE
  5
4EA
330
A
100
AcDbEntity
  8
TOP
  6
CONTINUOUS
 62
     3
100
AcDbLine
 10
5.928186
 20
5.381954
 30
0.0
 11
5.928186
 21
5.388366
 31
0.0
  0
LINE
  5
4EB
330
A
100
AcDbEntity
  8
TOP
  6
CONTINUOUS
 62
     3
100
AcDbLine
 10
7.375935
 20
5.364205
 30
0.0
 11
7.382347
 21
5.364205
 31
0.0
  0
LINE
  5
4EC
330
A
100
AcDbEntity
  8
TOP
  6
CONTINUOUS
 62
     3
100
AcDbLine
 10
7.358185999999999
 20
5.294456
 30
0.0
 11
7.358185999999999
 21
5.307967999999999
 31
0.0
  0
LINE
  5
4ED
330
A
100
AcDbEntity
  8
TOP
  6
CONTINUOUS
 62
     3
100
AcDbLine
 10
6.598186
 20
4.599205
 30
0.0
 11
5.898185999999999
 21
4.599205
 31
0.0
  0
LINE
  5
4EE
330
A
100
AcDbEntity
  8
TOP
  6
CONTINUOUS
 62
     3
100
AcDbLine
 10
20.903316
 20
13.751519
 30
0.0
 11
20.934187
 21
13.751519
 31
0.0
  0
LINE
  5
4EF
330
A
100
AcDbEntity
  8
TOP
  6
CONTINUOUS
 62
     3
100
AcDbLine
 10
14.063885
 20
22.58651899999999
 30
0.0
 11
14.99368699999999
 21
22.58651899999999
 31
0.0
  0
LINE
  5
4F0
330
A
100
AcDbEntity
  8
TOP
  6
CONTINUOUS
 62
     3
100
AcDbLine
 10
5.903185999999999
 20
3.627205
 30
0.0
 11
5.903185999999999
 21
3.677204999999999
 31
0.0
  0
LINE
  5
4F1
330
A
100
AcDbEntity
  8
TOP
  6
CONTINUOUS
 62
     3
100
AcDbLine
 10
5.946793999999999
 20
3.449205
 30
0.0
 11
5.917374999999999
 21
3.449205
 31
0.0
  0
LINE
  5
4F2
330
A
100
AcDbEntity
  8
TOP
  6
CONTINUOUS
 62
     3
100
AcDbLine
 10
6.598186
 20
3.399204999999999
 30
0.0
 11
6.057113
 21
3.399204999999999
 31
0.0
  0
LINE
  5
4F3
330
A
100
AcDbEntity
  8
TOP
  6
CONTINUOUS
 62
     3
100
AcDbLine
 10
6.618185999999999
 20
4.163547
 30
0.0
 11
6.618185999999999
 21
4.069205
 31
0.0
  0
LINE
  5
4F4
330
A
100
AcDbEntity
  8
TOP
  6
CONTINUOUS
 62
     3
100
AcDbLine
 10
5.653185999999999
 20
3.627205
 30
0.0
 11
5.653185999999999
 21
3.677204999999999
 31
0.0
  0
LINE
  5
4F5
330
A
100
AcDbEntity
  8
TOP
  6
CONTINUOUS
 62
     3
100
AcDbLine
 10
5.898185999999999
 20
5.312204999999999
 30
0.0
 11
5.904024999999999
 21
5.312204999999999
 31
0.0
  0
LINE
  5
4F6
330
A
100
AcDbEntity
  8
TOP
  6
CONTINUOUS
 62
     3
100
AcDbLine
 10
20.981037
 20
12.69151899999999
 30
0.0
 11
20.960697
 21
12.69151899999999
 31
0.0
  0
LINE
  5
4F7
330
A
100
AcDbEntity
  8
TOP
  6
CONTINUOUS
 62
     3
100
AcDbLine
 10
4.952183999999999
 20
12.711519
 30
0.0
 11
4.925673999999999
 21
12.711519
 31
0.0
  0
LINE
  5
4F8
330
A
100
AcDbEntity
  8
TOP
  6
CONTINUOUS
 62
     3
100
AcDbLine
 10
5.910436999999999
 20
5.312204999999999
 30
0.0
 11
5.904024999999999
 21
5.312204999999999
 31
0.0
  0
LINE
  5
4F9
330
A
100
AcDbEntity
  8
TOP
  6
CONTINUOUS
 62
     3
100
AcDbLine
 10
20.233187
 20
3.627205
 30
0.0
 11
20.233187
 21
3.617204999999999
 31
0.0
  0
LINE
  5
4FA
330
A
100
AcDbEntity
  8
TOP
  6
CONTINUOUS
 62
     3
100
AcDbLine
 10
19.98818599999999
 20
3.627205
 30
0.0
 11
19.98818599999999
 21
3.617204999999999
 31
0.0
  0
LINE
  5
4FB
330
A
100
AcDbEntity
  8
TOP
  6
CONTINUOUS
 62
     3
100
AcDbLine
 10
18.498186
 20
3.627205
 30
0.0
 11
18.498186
 21
3.617204999999999
 31
0.0
  0
LINE
  5
4FC
330
A
100
AcDbEntity
  8
TOP
  6
CONTINUOUS
 62
     3
100
AcDbLine
 10
18.25318499999999
 20
3.627205
 30
0.0
 11
18.25318499999999
 21
3.617204999999999
 31
0.0
  0
LINE
  5
4FD
330
A
100
AcDbEntity
  8
TOP
  6
CONTINUOUS
 62
     3
100
AcDbLine
 10
19.268187
 20
4.579204999999999
 30
0.0
 11
19.268187
 21
4.485954
 31
0.0
  0
LINE
  5
4FE
330
A
100
AcDbEntity
  8
TOP
  6
CONTINUOUS
 62
     3
100
AcDbLine
 10
4.952182999999999
 20
32.191521
 30
0.0
 11
4.983054
 21
32.191521
 31
0.0
  0
LINE
  5
4FF
330
A
100
AcDbEntity
  8
TOP
  6
CONTINUOUS
 62
     3
100
AcDbLine
 10
19.952013
 20
4.049204999999999
 30
0.0
 11
19.98818599999999
 21
4.049204999999999
 31
0.0
  0
LINE
  5
500
330
A
100
AcDbEntity
  8
TOP
  6
CONTINUOUS
 62
     3
100
AcDbLine
 10
5.080180999999999
 20
32.191521
 30
0.0
 11
5.106690999999999
 21
32.191521
 31
0.0
  0
LINE
  5
501
330
A
100
AcDbEntity
  8
TOP
  6
CONTINUOUS
 62
     3
100
AcDbLine
 10
15.905186
 20
12.354519
 30
0.0
 11
15.841187
 21
12.354519
 31
0.0
  0
LINE
  5
502
330
A
100
AcDbEntity
  8
TOP
  6
CONTINUOUS
 62
     3
100
AcDbLine
 10
15.905186
 20
12.261519
 30
0.0
 11
15.841187
 21
12.261519
 31
0.0
  0
LINE
  5
503
330
A
100
AcDbEntity
  8
TOP
  6
CONTINUOUS
 62
     3
100
AcDbLine
 10
15.905186
 20
32.121521
 30
0.0
 11
15.841187
 21
32.121521
 31
0.0
  0
LINE
  5
504
330
A
100
AcDbEntity
  8
TOP
  6
CONTINUOUS
 62
     3
100
AcDbLine
 10
19.98818599999999
 20
3.627205
 30
0.0
 11
19.983187
 21
3.627205
 31
0.0
  0
LINE
  5
505
330
A
100
AcDbEntity
  8
TOP
  6
CONTINUOUS
 62
     3
100
AcDbLine
 10
5.938581
 20
31.71452
 30
0.0
 11
6.037539999999999
 21
31.59082
 31
0.0
  0
LINE
  5
506
330
A
100
AcDbEntity
  8
TOP
  6
CONTINUOUS
 62
     3
100
AcDbLine
 10
20.907021
 20
30.011518
 30
0.0
 11
20.936686
 21
30.011518
 31
0.0
  0
LINE
  5
507
330
A
100
AcDbEntity
  8
TOP
  6
CONTINUOUS
 62
     3
100
AcDbLine
 10
19.80090699999999
 20
3.999204999999999
 30
0.0
 11
19.896788
 21
3.999204999999999
 31
0.0
  0
LINE
  5
508
330
A
100
AcDbEntity
  8
TOP
  6
CONTINUOUS
 62
     3
100
AcDbLine
 10
20.99399599999999
 20
30.011518
 30
0.0
 11
20.998186
 21
30.011518
 31
0.0
  0
LINE
  5
509
330
A
100
AcDbEntity
  8
TOP
  6
CONTINUOUS
 62
     3
100
AcDbLine
 10
18.498186
 20
5.364205
 30
0.0
 11
18.498186
 21
5.312204999999999
 31
0.0
  0
LINE
  5
50A
330
A
100
AcDbEntity
  8
TOP
  6
CONTINUOUS
 62
     3
100
AcDbLine
 10
20.981707
 20
14.37151899999999
 30
0.0
 11
20.96216
 21
14.37151899999999
 31
0.0
  0
LINE
  5
50B
330
A
100
AcDbEntity
  8
TOP
  6
CONTINUOUS
 62
     3
100
AcDbLine
 10
18.27318599999999
 20
5.477204999999999
 30
0.0
 11
20.213186
 21
5.477204999999999
 31
0.0
  0
LINE
  5
50C
330
A
100
AcDbEntity
  8
TOP
  6
CONTINUOUS
 62
     3
100
AcDbLine
 10
17.340185
 20
31.71860099999999
 30
0.0
 11
17.340185
 21
31.344437
 31
0.0
  0
LINE
  5
50D
330
A
100
AcDbEntity
  8
TOP
  6
CONTINUOUS
 62
     3
100
AcDbLine
 10
20.720186
 20
12.161519
 30
0.0
 11
20.720186
 21
12.132781
 31
0.0
  0
LINE
  5
50E
330
A
100
AcDbEntity
  8
TOP
  6
CONTINUOUS
 62
     3
100
AcDbLine
 10
38.480854
 20
12.06852
 30
0.0
 11
38.480854
 21
12.131519
 31
0.0
  0
LINE
  5
50F
330
A
100
AcDbEntity
  8
TOP
  6
CONTINUOUS
 62
     3
100
AcDbLine
 10
20.720186
 20
12.073071
 30
0.0
 11
20.720186
 21
12.06852
 31
0.0
  0
LINE
  5
510
330
A
100
AcDbEntity
  8
TOP
  6
CONTINUOUS
 62
     3
100
AcDbLine
 10
20.720186
 20
30.631519
 30
0.0
 11
20.87018599999999
 21
30.631519
 31
0.0
  0
LINE
  5
511
330
A
100
AcDbEntity
  8
TOP
  6
CONTINUOUS
 62
     3
100
AcDbLine
 10
19.268187
 20
3.379204999999999
 30
0.0
 11
19.268187
 21
2.943862999999999
 31
0.0
  0
LINE
  5
512
330
A
100
AcDbEntity
  8
TOP
  6
CONTINUOUS
 62
     3
100
AcDbLine
 10
20.720186
 20
31.671518
 30
0.0
 11
20.720186
 21
32.221519
 31
0.0
  0
LINE
  5
513
330
A
100
AcDbEntity
  8
TOP
  6
CONTINUOUS
 62
     3
100
AcDbLine
 10
19.28818499999999
 20
4.049204999999999
 30
0.0
 11
19.572111
 21
4.049204999999999
 31
0.0
  0
LINE
  5
514
330
A
100
AcDbEntity
  8
TOP
  6
CONTINUOUS
 62
     3
100
AcDbLine
 10
15.905186
 20
12.161519
 30
0.0
 11
15.905186
 21
32.221519
 31
0.0
  0
LINE
  5
515
330
A
100
AcDbEntity
  8
TOP
  6
CONTINUOUS
 62
     3
100
AcDbLine
 10
5.144186
 20
13.231519
 30
0.0
 11
5.144186
 21
13.731519
 31
0.0
  0
LINE
  5
516
330
A
100
AcDbEntity
  8
TOP
  6
CONTINUOUS
 62
     3
100
AcDbLine
 10
20.720186
 20
13.211519
 30
0.0
 11
20.87018599999999
 21
13.211519
 31
0.0
  0
LINE
  5
517
330
A
100
AcDbEntity
  8
TOP
  6
CONTINUOUS
 62
     3
100
AcDbLine
 10
8.403185999999999
 20
3.317204999999999
 30
0.0
 11
8.403185999999999
 21
3.917205
 31
0.0
  0
LINE
  5
518
330
A
100
AcDbEntity
  8
TOP
  6
CONTINUOUS
 62
     3
100
AcDbLine
 10
20.87018599999999
 20
13.751519
 30
0.0
 11
20.87018599999999
 21
14.251519
 31
0.0
  0
LINE
  5
519
330
A
100
AcDbEntity
  8
TOP
  6
CONTINUOUS
 62
     3
100
AcDbLine
 10
19.268187
 20
3.979204999999999
 30
0.0
 11
19.268187
 21
3.469205
 31
0.0
  0
LINE
  5
51A
330
A
100
AcDbEntity
  8
TOP
  6
CONTINUOUS
 62
     3
100
AcDbLine
 10
15.905186
 20
12.132781
 30
0.0
 11
15.905186
 21
12.106855
 31
0.0
  0
LINE
  5
51B
330
A
100
AcDbEntity
  8
TOP
  6
CONTINUOUS
 62
     3
100
AcDbLine
 10
7.435457
 20
31.689779
 30
0.0
 11
7.435457
 21
31.615561
 31
0.0
  0
LINE
  5
51C
330
A
100
AcDbEntity
  8
TOP
  6
CONTINUOUS
 62
     3
100
AcDbLine
 10
6.173738
 20
31.615561
 30
0.0
 11
6.173738
 21
31.689779
 31
0.0
  0
LINE
  5
51D
330
A
100
AcDbEntity
  8
TOP
  6
CONTINUOUS
 62
     3
100
AcDbLine
 10
18.528185
 20
5.288044
 30
0.0
 11
19.958185
 21
5.288044
 31
0.0
  0
LINE
  5
51E
330
A
100
AcDbEntity
  8
TOP
  6
CONTINUOUS
 62
     3
100
AcDbLine
 10
15.905186
 20
32.250259
 30
0.0
 11
15.905186
 21
32.276184
 31
0.0
  0
LINE
  5
51F
330
A
100
AcDbEntity
  8
TOP
  6
CONTINUOUS
 62
     3
100
AcDbLine
 10
15.905186
 20
32.276184
 30
0.0
 11
15.905186
 21
32.296757
 31
0.0
  0
LINE
  5
520
330
A
100
AcDbEntity
  8
TOP
  6
CONTINUOUS
 62
     3
100
AcDbLine
 10
6.829988
 20
31.59082
 30
0.0
 11
6.854727999999999
 21
31.615561
 31
0.0
  0
LINE
  5
521
330
A
100
AcDbEntity
  8
TOP
  6
CONTINUOUS
 62
     3
100
AcDbLine
 10
19.982347
 20
5.364205
 30
0.0
 11
19.982347
 21
5.312204999999999
 31
0.0
  0
LINE
  5
522
330
A
100
AcDbEntity
  8
TOP
  6
CONTINUOUS
 62
     3
100
AcDbLine
 10
38.25085399999999
 20
31.689779
 30
0.0
 11
38.25085399999999
 21
31.71452
 31
0.0
  0
LINE
  5
523
330
A
100
AcDbEntity
  8
TOP
  6
CONTINUOUS
 62
     3
100
AcDbLine
 10
20.720186
 20
32.296757
 30
0.0
 11
20.720186
 21
32.276184
 31
0.0
  0
LINE
  5
524
330
A
100
AcDbEntity
  8
TOP
  6
CONTINUOUS
 62
     3
100
AcDbLine
 10
18.523949
 20
5.364205
 30
0.0
 11
18.523949
 21
5.312204999999999
 31
0.0
  0
LINE
  5
525
330
A
100
AcDbEntity
  8
TOP
  6
CONTINUOUS
 62
     3
100
AcDbLine
 10
20.998186
 20
14.37151899999999
 30
0.0
 11
20.998186
 21
30.011518
 31
0.0
  0
LINE
  5
526
330
A
100
AcDbEntity
  8
TOP
  6
CONTINUOUS
 62
     3
100
AcDbLine
 10
19.962423
 20
5.364205
 30
0.0
 11
19.962423
 21
5.312204999999999
 31
0.0
  0
LINE
  5
527
330
A
100
AcDbEntity
  8
TOP
  6
CONTINUOUS
 62
     3
100
AcDbLine
 10
15.014049
 20
22.58271399999999
 30
0.0
 11
15.031311
 21
22.571875
 31
0.0
  0
LINE
  5
528
330
A
100
AcDbEntity
  8
TOP
  6
CONTINUOUS
 62
     3
100
AcDbLine
 10
4.952183999999999
 20
30.131519
 30
0.0
 11
4.925673999999999
 21
30.131519
 31
0.0
  0
LINE
  5
529
330
A
100
AcDbEntity
  8
TOP
  6
CONTINUOUS
 62
     3
100
AcDbLine
 10
20.903316
 20
14.251519
 30
0.0
 11
20.934187
 21
14.251519
 31
0.0
  0
LINE
  5
52A
330
A
100
AcDbEntity
  8
TOP
  6
CONTINUOUS
 62
     3
100
AcDbLine
 10
18.528185
 20
5.381954
 30
0.0
 11
18.528185
 21
5.388366
 31
0.0
  0
LINE
  5
52B
330
A
100
AcDbEntity
  8
TOP
  6
CONTINUOUS
 62
     3
100
AcDbLine
 10
20.99382599999999
 20
14.251519
 30
0.0
 11
20.998186
 21
14.251519
 31
0.0
  0
LINE
  5
52C
330
A
100
AcDbEntity
  8
TOP
  6
CONTINUOUS
 62
     3
100
AcDbLine
 10
19.975935
 20
5.364205
 30
0.0
 11
19.982347
 21
5.364205
 31
0.0
  0
LINE
  5
52D
330
A
100
AcDbEntity
  8
TOP
  6
CONTINUOUS
 62
     3
100
AcDbLine
 10
20.960697
 20
12.711519
 30
0.0
 11
20.98103899999999
 21
12.711519
 31
0.0
  0
LINE
  5
52E
330
A
100
AcDbEntity
  8
TOP
  6
CONTINUOUS
 62
     3
100
AcDbLine
 10
19.958185
 20
5.294456
 30
0.0
 11
19.958185
 21
5.307967999999999
 31
0.0
  0
LINE
  5
52F
330
A
100
AcDbEntity
  8
TOP
  6
CONTINUOUS
 62
     3
100
AcDbLine
 10
20.903316
 20
13.211519
 30
0.0
 11
20.934187
 21
13.211519
 31
0.0
  0
LINE
  5
530
330
A
100
AcDbEntity
  8
TOP
  6
CONTINUOUS
 62
     3
100
AcDbLine
 10
19.19818499999999
 20
4.599205
 30
0.0
 11
18.498186
 21
4.599205
 31
0.0
  0
LINE
  5
531
330
A
100
AcDbEntity
  8
TOP
  6
CONTINUOUS
 62
     3
100
AcDbLine
 10
15.905186
 20
12.06852
 30
0.0
 11
20.720186
 21
12.06852
 31
0.0
  0
LINE
  5
532
330
A
100
AcDbEntity
  8
TOP
  6
CONTINUOUS
 62
     3
100
AcDbLine
 10
20.99382599999999
 20
13.211519
 30
0.0
 11
20.998186
 21
13.211519
 31
0.0
  0
LINE
  5
533
330
A
100
AcDbEntity
  8
TOP
  6
CONTINUOUS
 62
     3
100
AcDbLine
 10
7.200821
 20
31.59082
 30
0.0
 11
7.225560999999999
 21
31.59082
 31
0.0
  0
LINE
  5
534
330
A
100
AcDbEntity
  8
TOP
  6
CONTINUOUS
 62
     3
100
AcDbLine
 10
20.960697
 20
30.131519
 30
0.0
 11
20.98103899999999
 21
30.131519
 31
0.0
  0
LINE
  5
535
330
A
100
AcDbEntity
  8
TOP
  6
CONTINUOUS
 62
     3
100
AcDbLine
 10
20.99382599999999
 20
30.131519
 30
0.0
 11
20.998186
 21
30.131519
 31
0.0
  0
LINE
  5
536
330
A
100
AcDbEntity
  8
TOP
  6
CONTINUOUS
 62
     3
100
AcDbLine
 10
20.903316
 20
30.631519
 30
0.0
 11
20.934187
 21
30.631519
 31
0.0
  0
LINE
  5
537
330
A
100
AcDbEntity
  8
TOP
  6
CONTINUOUS
 62
     3
100
AcDbLine
 10
20.960697
 20
31.171518
 30
0.0
 11
20.98103899999999
 21
31.171518
 31
0.0
  0
LINE
  5
538
330
A
100
AcDbEntity
  8
TOP
  6
CONTINUOUS
 62
     3
100
AcDbLine
 10
18.50318499999999
 20
3.627205
 30
0.0
 11
18.50318499999999
 21
3.677204999999999
 31
0.0
  0
LINE
  5
539
330
A
100
AcDbEntity
  8
TOP
  6
CONTINUOUS
 62
     3
100
AcDbLine
 10
20.903316
 20
31.671518
 30
0.0
 11
20.934187
 21
31.671518
 31
0.0
  0
LINE
  5
53A
330
A
100
AcDbEntity
  8
TOP
  6
CONTINUOUS
 62
     3
100
AcDbLine
 10
20.99382599999999
 20
31.671518
 30
0.0
 11
20.998186
 21
31.671518
 31
0.0
  0
LINE
  5
53B
330
A
100
AcDbEntity
  8
TOP
  6
CONTINUOUS
 62
     3
100
AcDbLine
 10
4.949685999999999
 20
14.37151899999999
 30
0.0
 11
4.924211999999999
 21
14.37151899999999
 31
0.0
  0
LINE
  5
53C
330
A
100
AcDbEntity
  8
TOP
  6
CONTINUOUS
 62
     3
100
AcDbLine
 10
5.043186
 20
14.251519
 30
0.0
 11
5.016186
 21
14.251519
 31
0.0
  0
LINE
  5
53D
330
A
100
AcDbEntity
  8
TOP
  6
CONTINUOUS
 62
     3
100
AcDbLine
 10
4.924211999999999
 20
30.011518
 30
0.0
 11
4.949685999999999
 21
30.011518
 31
0.0
  0
LINE
  5
53E
330
A
100
AcDbEntity
  8
TOP
  6
CONTINUOUS
 62
     3
100
AcDbLine
 10
19.21818499999999
 20
3.979204999999999
 30
0.0
 11
19.21818499999999
 21
3.469205
 31
0.0
  0
LINE
  5
53F
330
A
100
AcDbEntity
  8
TOP
  6
CONTINUOUS
 62
     3
100
AcDbLine
 10
19.19818499999999
 20
3.999204999999999
 30
0.0
 11
18.804003
 21
3.999204999999999
 31
0.0
  0
LINE
  5
540
330
A
100
AcDbEntity
  8
TOP
  6
CONTINUOUS
 62
     3
100
AcDbLine
 10
5.043186
 20
30.131519
 30
0.0
 11
5.016186
 21
30.131519
 31
0.0
  0
LINE
  5
541
330
A
100
AcDbEntity
  8
TOP
  6
CONTINUOUS
 62
     3
100
AcDbLine
 10
18.25318499999999
 20
3.627205
 30
0.0
 11
18.25318499999999
 21
3.677204999999999
 31
0.0
  0
LINE
  5
542
330
A
100
AcDbEntity
  8
TOP
  6
CONTINUOUS
 62
     3
100
AcDbLine
 10
15.056186
 20
31.71860099999999
 30
0.0
 11
15.056186
 21
31.344437
 31
0.0
  0
LINE
  5
543
330
A
100
AcDbEntity
  8
TOP
  6
CONTINUOUS
 62
     3
100
AcDbLine
 10
5.166185999999999
 20
32.250259
 30
0.0
 11
5.166185999999999
 21
32.276184
 31
0.0
  0
LINE
  5
544
330
A
100
AcDbEntity
  8
TOP
  6
CONTINUOUS
 62
     3
100
AcDbLine
 10
6.990924999999999
 20
31.702801
 30
0.0
 11
6.990924999999999
 21
31.665039
 31
0.0
  0
LINE
  5
545
330
A
100
AcDbEntity
  8
TOP
  6
CONTINUOUS
 62
     3
100
AcDbLine
 10
5.166185999999999
 20
32.296757
 30
0.0
 11
5.166185999999999
 21
32.309967
 31
0.0
  0
LINE
  5
546
330
A
100
AcDbEntity
  8
TOP
  6
CONTINUOUS
 62
     3
100
AcDbLine
 10
5.166185999999999
 20
31.171518
 30
0.0
 11
5.166185999999999
 21
30.631519
 31
0.0
  0
LINE
  5
547
330
A
100
AcDbEntity
  8
TOP
  6
CONTINUOUS
 62
     3
100
AcDbLine
 10
14.032122
 20
21.84651899999999
 30
0.0
 11
14.032122
 21
22.53652
 31
0.0
  0
LINE
  5
548
330
A
100
AcDbEntity
  8
TOP
  6
CONTINUOUS
 62
     3
100
AcDbLine
 10
15.378186
 20
5.913204999999999
 30
0.0
 11
15.378186
 21
5.872205
 31
0.0
  0
LINE
  5
549
330
A
100
AcDbEntity
  8
TOP
  6
CONTINUOUS
 62
     3
100
AcDbLine
 10
5.016186
 20
14.251519
 30
0.0
 11
5.016186
 21
13.751519
 31
0.0
  0
LINE
  5
54A
330
A
100
AcDbEntity
  8
TOP
  6
CONTINUOUS
 62
     3
100
AcDbLine
 10
15.358186
 20
5.913204999999999
 30
0.0
 11
13.558186
 21
5.913204999999999
 31
0.0
  0
LINE
  5
54B
330
A
100
AcDbEntity
  8
TOP
  6
CONTINUOUS
 62
     3
100
AcDbLine
 10
5.166185999999999
 20
32.221519
 30
0.0
 11
15.841186
 21
32.221519
 31
0.0
  0
LINE
  5
54C
330
A
100
AcDbEntity
  8
TOP
  6
CONTINUOUS
 62
     3
100
AcDbLine
 10
13.538186
 20
5.913204999999999
 30
0.0
 11
13.54404399999999
 21
5.916586999999999
 31
0.0
  0
LINE
  5
54D
330
A
100
AcDbEntity
  8
TOP
  6
CONTINUOUS
 62
     3
100
AcDbLine
 10
13.54404399999999
 20
21.64237799999999
 30
0.0
 11
13.598807
 21
21.697142
 31
0.0
  0
LINE
  5
54E
330
A
100
AcDbEntity
  8
TOP
  6
CONTINUOUS
 62
     3
100
AcDbLine
 10
18.208185
 20
5.913204999999999
 30
0.0
 11
18.208185
 21
5.872205
 31
0.0
  0
LINE
  5
54F
330
A
100
AcDbEntity
  8
TOP
  6
CONTINUOUS
 62
     3
100
AcDbLine
 10
15.358186
 20
21.63651799999999
 30
0.0
 11
15.37232799999999
 21
21.64237799999999
 31
0.0
  0
LINE
  5
550
330
A
100
AcDbEntity
  8
TOP
  6
CONTINUOUS
 62
     3
100
AcDbLine
 10
13.538186
 20
21.65651899999999
 30
0.0
 11
13.54404399999999
 21
21.64237799999999
 31
0.0
  0
LINE
  5
551
330
A
100
AcDbEntity
  8
TOP
  6
CONTINUOUS
 62
     3
100
AcDbLine
 10
18.202328
 20
5.916586999999999
 30
0.0
 11
18.147564
 21
5.948204999999999
 31
0.0
  0
LINE
  5
552
330
A
100
AcDbEntity
  8
TOP
  6
CONTINUOUS
 62
     3
100
AcDbLine
 10
15.841186
 20
32.296757
 30
0.0
 11
15.841186
 21
32.309967
 31
0.0
  0
LINE
  5
553
330
A
100
AcDbEntity
  8
TOP
  6
CONTINUOUS
 62
     3
100
AcDbLine
 10
13.54404399999999
 20
22.740662
 30
0.0
 11
13.538186
 21
22.726519
 31
0.0
  0
LINE
  5
554
330
A
100
AcDbEntity
  8
TOP
  6
CONTINUOUS
 62
     3
100
AcDbLine
 10
15.841186
 20
32.314518
 30
0.0
 11
5.166185999999999
 21
32.314518
 31
0.0
  0
LINE
  5
555
330
A
100
AcDbEntity
  8
TOP
  6
CONTINUOUS
 62
     3
100
AcDbLine
 10
15.841186
 20
12.161519
 30
0.0
 11
15.841186
 21
12.132781
 31
0.0
  0
LINE
  5
556
330
A
100
AcDbEntity
  8
TOP
  6
CONTINUOUS
 62
     3
100
AcDbLine
 10
18.188187
 20
5.913204999999999
 30
0.0
 11
18.202328
 21
5.916586999999999
 31
0.0
  0
LINE
  5
557
330
A
100
AcDbEntity
  8
TOP
  6
CONTINUOUS
 62
     3
100
AcDbLine
 10
15.841186
 20
12.132781
 30
0.0
 11
15.841186
 21
12.106855
 31
0.0
  0
LINE
  5
558
330
A
100
AcDbEntity
  8
TOP
  6
CONTINUOUS
 62
     3
100
AcDbLine
 10
13.558186
 20
22.74651899999999
 30
0.0
 11
13.54404399999999
 21
22.740662
 31
0.0
  0
LINE
  5
559
330
A
100
AcDbEntity
  8
TOP
  6
CONTINUOUS
 62
     3
100
AcDbLine
 10
15.841186
 20
12.073071
 30
0.0
 11
15.841186
 21
12.06852
 31
0.0
  0
LINE
  5
55A
330
A
100
AcDbEntity
  8
TOP
  6
CONTINUOUS
 62
     3
100
AcDbLine
 10
20.998186
 20
2.481243999999999
 30
0.0
 11
20.998186
 21
2.461778999999999
 31
0.0
  0
LINE
  5
55B
330
A
100
AcDbEntity
  8
TOP
  6
CONTINUOUS
 62
     3
100
AcDbLine
 10
20.998186
 20
2.448771999999999
 30
0.0
 11
20.998186
 21
2.444205
 31
0.0
  0
LINE
  5
55C
330
A
100
AcDbEntity
  8
TOP
  6
CONTINUOUS
 62
     3
100
AcDbLine
 10
15.028102
 20
22.53652
 30
0.0
 11
15.02349099999999
 21
22.55151899999999
 31
0.0
  0
LINE
  5
55D
330
A
100
AcDbEntity
  8
TOP
  6
CONTINUOUS
 62
     3
100
AcDbLine
 10
20.935186
 20
2.444205
 30
0.0
 11
20.935186
 21
2.448771999999999
 31
0.0
  0
LINE
  5
55E
330
A
100
AcDbEntity
  8
TOP
  6
CONTINUOUS
 62
     3
100
AcDbLine
 10
20.935186
 20
2.448771999999999
 30
0.0
 11
20.935186
 21
2.461778999999999
 31
0.0
  0
LINE
  5
55F
330
A
100
AcDbEntity
  8
TOP
  6
CONTINUOUS
 62
     3
100
AcDbLine
 10
13.598807
 20
21.697142
 30
0.0
 11
15.317564
 21
21.697142
 31
0.0
  0
LINE
  5
560
330
A
100
AcDbEntity
  8
TOP
  6
CONTINUOUS
 62
     3
100
AcDbLine
 10
5.016186
 20
30.631519
 30
0.0
 11
4.983056
 21
30.631519
 31
0.0
  0
LINE
  5
561
330
A
100
AcDbEntity
  8
TOP
  6
CONTINUOUS
 62
     3
100
AcDbLine
 10
4.888186
 20
2.444205
 30
0.0
 11
4.888186
 21
2.448771999999999
 31
0.0
  0
LINE
  5
562
330
A
100
AcDbEntity
  8
TOP
  6
CONTINUOUS
 62
     3
100
AcDbLine
 10
4.905332999999999
 20
30.631519
 30
0.0
 11
4.892546
 21
30.631519
 31
0.0
  0
LINE
  5
563
330
A
100
AcDbEntity
  8
TOP
  6
CONTINUOUS
 62
     3
100
AcDbLine
 10
4.888186
 20
2.504204999999999
 30
0.0
 11
4.888186
 21
5.744205
 31
0.0
  0
LINE
  5
564
330
A
100
AcDbEntity
  8
TOP
  6
CONTINUOUS
 62
     3
100
AcDbLine
 10
15.01089499999999
 20
21.82053799999999
 30
0.0
 11
15.02349099999999
 21
21.83152
 31
0.0
  0
LINE
  5
565
330
A
100
AcDbEntity
  8
TOP
  6
CONTINUOUS
 62
     3
100
AcDbLine
 10
4.951185999999999
 20
2.461778999999999
 30
0.0
 11
4.951185999999999
 21
2.448771999999999
 31
0.0
  0
LINE
  5
566
330
A
100
AcDbEntity
  8
TOP
  6
CONTINUOUS
 62
     3
100
AcDbLine
 10
5.016186
 20
31.671518
 30
0.0
 11
4.983056
 21
31.671518
 31
0.0
  0
LINE
  5
567
330
A
100
AcDbEntity
  8
TOP
  6
CONTINUOUS
 62
     3
100
AcDbLine
 10
5.049185999999999
 20
2.351205
 30
0.0
 11
5.049185999999999
 21
2.355757
 31
0.0
  0
LINE
  5
568
330
A
100
AcDbEntity
  8
TOP
  6
CONTINUOUS
 62
     3
100
AcDbLine
 10
38.442848
 20
30.631519
 30
0.0
 11
38.469357
 21
30.631519
 31
0.0
  0
LINE
  5
569
330
A
100
AcDbEntity
  8
TOP
  6
CONTINUOUS
 62
     3
100
AcDbLine
 10
4.952183999999999
 20
31.671518
 30
0.0
 11
4.925673999999999
 21
31.671518
 31
0.0
  0
LINE
  5
56A
330
A
100
AcDbEntity
  8
TOP
  6
CONTINUOUS
 62
     3
100
AcDbLine
 10
5.049185999999999
 20
2.368965999999999
 30
0.0
 11
5.049185999999999
 21
2.389540999999999
 31
0.0
  0
LINE
  5
56B
330
A
100
AcDbEntity
  8
TOP
  6
CONTINUOUS
 62
     3
100
AcDbLine
 10
4.925673999999999
 20
31.671518
 30
0.0
 11
4.905332999999999
 21
31.671518
 31
0.0
  0
LINE
  5
56C
330
A
100
AcDbEntity
  8
TOP
  6
CONTINUOUS
 62
     3
100
AcDbLine
 10
4.905332999999999
 20
31.671518
 30
0.0
 11
4.892546
 21
31.671518
 31
0.0
  0
LINE
  5
56D
330
A
100
AcDbEntity
  8
TOP
  6
CONTINUOUS
 62
     3
100
AcDbLine
 10
5.049185999999999
 20
2.415467
 30
0.0
 11
5.049185999999999
 21
2.444205
 31
0.0
  0
LINE
  5
56E
330
A
100
AcDbEntity
  8
TOP
  6
CONTINUOUS
 62
     3
100
AcDbLine
 10
41.49163099999999
 20
12.096519
 30
0.0
 11
41.478996
 21
12.096519
 31
0.0
  0
LINE
  5
56F
330
A
100
AcDbEntity
  8
TOP
  6
CONTINUOUS
 62
     3
100
AcDbLine
 10
15.046896
 20
21.84651899999999
 30
0.0
 11
15.035424
 21
21.84651899999999
 31
0.0
  0
LINE
  5
570
330
A
100
AcDbEntity
  8
TOP
  6
CONTINUOUS
 62
     3
100
AcDbLine
 10
17.38318599999999
 20
3.317204999999999
 30
0.0
 11
17.38318599999999
 21
3.917205
 31
0.0
  0
LINE
  5
571
330
A
100
AcDbEntity
  8
TOP
  6
CONTINUOUS
 62
     3
100
AcDbLine
 10
4.905332999999999
 20
14.251519
 30
0.0
 11
4.892546
 21
14.251519
 31
0.0
  0
LINE
  5
572
330
A
100
AcDbEntity
  8
TOP
  6
CONTINUOUS
 62
     3
100
AcDbLine
 10
4.905332999999999
 20
13.751519
 30
0.0
 11
4.892546
 21
13.751519
 31
0.0
  0
LINE
  5
573
330
A
100
AcDbEntity
  8
TOP
  6
CONTINUOUS
 62
     3
100
AcDbLine
 10
5.016186
 20
13.211519
 30
0.0
 11
4.983056
 21
13.211519
 31
0.0
  0
LINE
  5
574
330
A
100
AcDbEntity
  8
TOP
  6
CONTINUOUS
 62
     3
100
AcDbLine
 10
19.013186
 20
2.477205
 30
0.0
 11
19.473186
 21
2.477205
 31
0.0
  0
LINE
  5
575
330
A
100
AcDbEntity
  8
TOP
  6
CONTINUOUS
 62
     3
100
AcDbLine
 10
17.714239
 20
22.53652
 30
0.0
 11
16.909191
 21
22.53652
 31
0.0
  0
LINE
  5
576
330
A
100
AcDbEntity
  8
TOP
  6
CONTINUOUS
 62
     3
100
AcDbLine
 10
5.016186
 20
12.711519
 30
0.0
 11
4.983056
 21
12.711519
 31
0.0
  0
LINE
  5
577
330
A
100
AcDbEntity
  8
TOP
  6
CONTINUOUS
 62
     3
100
AcDbLine
 10
7.398216999999999
 20
31.615561
 30
0.0
 11
7.373477
 21
31.59082
 31
0.0
  0
LINE
  5
578
330
A
100
AcDbEntity
  8
TOP
  6
CONTINUOUS
 62
     3
100
AcDbLine
 10
16.732323
 20
22.58271399999999
 30
0.0
 11
16.752686
 21
22.58651899999999
 31
0.0
  0
LINE
  5
579
330
A
100
AcDbEntity
  8
TOP
  6
CONTINUOUS
 62
     3
100
AcDbLine
 10
7.300561
 20
31.615561
 30
0.0
 11
7.300561
 21
31.689779
 31
0.0
  0
LINE
  5
57A
330
A
100
AcDbEntity
  8
TOP
  6
CONTINUOUS
 62
     3
100
AcDbLine
 10
17.71909
 20
22.571875
 30
0.0
 11
17.73031
 21
22.555653
 31
0.0
  0
LINE
  5
57B
330
A
100
AcDbEntity
  8
TOP
  6
CONTINUOUS
 62
     3
100
AcDbLine
 10
5.833186
 20
5.47719
 30
0.0
 11
5.833186
 21
5.512202
 31
0.0
  0
LINE
  5
57C
330
A
100
AcDbEntity
  8
TOP
  6
CONTINUOUS
 62
     3
100
AcDbLine
 10
6.582332
 20
31.71452
 30
0.0
 11
6.483373
 21
31.71452
 31
0.0
  0
LINE
  5
57D
330
A
100
AcDbEntity
  8
TOP
  6
CONTINUOUS
 62
     3
100
AcDbLine
 10
38.313854
 20
31.17152
 30
0.0
 11
38.313854
 21
31.15152399999999
 31
0.0
  0
LINE
  5
57E
330
A
100
AcDbEntity
  8
TOP
  6
CONTINUOUS
 62
     3
100
AcDbLine
 10
20.837185
 20
2.444205
 30
0.0
 11
20.837185
 21
5.594204999999999
 31
0.0
  0
LINE
  5
57F
330
A
100
AcDbEntity
  8
TOP
  6
CONTINUOUS
 62
     3
100
AcDbLine
 10
6.780509
 20
31.71452
 30
0.0
 11
6.754466999999999
 21
31.689779
 31
0.0
  0
LINE
  5
580
330
A
100
AcDbEntity
  8
TOP
  6
CONTINUOUS
 62
     3
100
AcDbLine
 10
16.752686
 20
21.79651799999999
 30
0.0
 11
16.732323
 21
21.800325
 31
0.0
  0
LINE
  5
581
330
A
100
AcDbEntity
  8
TOP
  6
CONTINUOUS
 62
     3
100
AcDbLine
 10
18.43318599999999
 20
5.47719
 30
0.0
 11
18.43318599999999
 21
5.512202
 31
0.0
  0
LINE
  5
582
330
A
100
AcDbEntity
  8
TOP
  6
CONTINUOUS
 62
     3
100
AcDbLine
 10
6.383633999999999
 20
31.71452
 30
0.0
 11
6.408373
 21
31.71452
 31
0.0
  0
LINE
  5
583
330
A
100
AcDbEntity
  8
TOP
  6
CONTINUOUS
 62
     3
100
AcDbLine
 10
4.981186
 20
2.351205
 30
0.0
 11
5.049185999999999
 21
2.351205
 31
0.0
  0
LINE
  5
584
330
A
100
AcDbEntity
  8
TOP
  6
CONTINUOUS
 62
     3
100
AcDbLine
 10
16.428808
 20
21.697142
 30
0.0
 11
18.147564
 21
21.697142
 31
0.0
  0
LINE
  5
585
330
A
100
AcDbEntity
  8
TOP
  6
CONTINUOUS
 62
     3
100
AcDbLine
 10
6.754466999999999
 20
31.615561
 30
0.0
 11
6.780509
 21
31.59082
 31
0.0
  0
LINE
  5
586
330
A
100
AcDbEntity
  8
TOP
  6
CONTINUOUS
 62
     3
100
AcDbLine
 10
38.50685099999999
 20
31.171518
 30
0.0
 11
38.50685099999999
 21
31.671518
 31
0.0
  0
LINE
  5
587
330
A
100
AcDbEntity
  8
TOP
  6
CONTINUOUS
 62
     3
100
AcDbLine
 10
20.865925
 20
2.444205
 30
0.0
 11
20.89185
 21
2.444205
 31
0.0
  0
LINE
  5
588
330
A
100
AcDbEntity
  8
TOP
  6
CONTINUOUS
 62
     3
100
AcDbLine
 10
16.388186
 20
22.74651899999999
 30
0.0
 11
18.188187
 21
22.74651899999999
 31
0.0
  0
LINE
  5
589
330
A
100
AcDbEntity
  8
TOP
  6
CONTINUOUS
 62
     3
100
AcDbLine
 10
20.912424
 20
2.444205
 30
0.0
 11
20.92563399999999
 21
2.444205
 31
0.0
  0
LINE
  5
58A
330
A
100
AcDbEntity
  8
TOP
  6
CONTINUOUS
 62
     3
100
AcDbLine
 10
6.147695999999999
 20
31.71452
 30
0.0
 11
6.074779999999999
 21
31.71452
 31
0.0
  0
LINE
  5
58B
330
A
100
AcDbEntity
  8
TOP
  6
CONTINUOUS
 62
     3
100
AcDbLine
 10
18.188187
 20
21.63651799999999
 30
0.0
 11
16.388186
 21
21.63651799999999
 31
0.0
  0
LINE
  5
58C
330
A
100
AcDbEntity
  8
TOP
  6
CONTINUOUS
 62
     3
100
AcDbLine
 10
20.837185
 20
5.594204999999999
 30
0.0
 11
20.865925
 21
5.594204999999999
 31
0.0
  0
LINE
  5
58D
330
A
100
AcDbEntity
  8
TOP
  6
CONTINUOUS
 62
     3
100
AcDbLine
 10
7.461497999999999
 20
31.59082
 30
0.0
 11
7.510977999999999
 21
31.59082
 31
0.0
  0
LINE
  5
58E
330
A
100
AcDbEntity
  8
TOP
  6
CONTINUOUS
 62
     3
100
AcDbLine
 10
20.89185
 20
5.594204999999999
 30
0.0
 11
20.912424
 21
5.594204999999999
 31
0.0
  0
LINE
  5
58F
330
A
100
AcDbEntity
  8
TOP
  6
CONTINUOUS
 62
     3
100
AcDbLine
 10
6.532853
 20
31.71452
 30
0.0
 11
6.532853
 21
31.59082
 31
0.0
  0
LINE
  5
590
330
A
100
AcDbEntity
  8
TOP
  6
CONTINUOUS
 62
     3
100
AcDbLine
 10
38.25085399999999
 20
31.15152
 30
0.0
 11
38.25085399999999
 21
30.65152
 31
0.0
  0
LINE
  5
591
330
A
100
AcDbEntity
  8
TOP
  6
CONTINUOUS
 62
     3
100
AcDbLine
 10
16.718269
 20
22.53652
 30
0.0
 11
16.718269
 21
21.84651899999999
 31
0.0
  0
LINE
  5
592
330
A
100
AcDbEntity
  8
TOP
  6
CONTINUOUS
 62
     3
100
AcDbLine
 10
20.92563399999999
 20
5.594204999999999
 30
0.0
 11
20.930185
 21
5.594204999999999
 31
0.0
  0
LINE
  5
593
330
A
100
AcDbEntity
  8
TOP
  6
CONTINUOUS
 62
     3
100
AcDbLine
 10
38.25085399999999
 20
31.689779
 30
0.0
 11
38.25085399999999
 21
31.615561
 31
0.0
  0
LINE
  5
594
330
A
100
AcDbEntity
  8
TOP
  6
CONTINUOUS
 62
     3
100
AcDbLine
 10
4.994521999999999
 20
2.444205
 30
0.0
 11
4.973946999999999
 21
2.444205
 31
0.0
  0
LINE
  5
595
330
A
100
AcDbEntity
  8
TOP
  6
CONTINUOUS
 62
     3
100
AcDbLine
 10
38.25085399999999
 20
31.59082
 30
0.0
 11
38.25085399999999
 21
31.615561
 31
0.0
  0
LINE
  5
596
330
A
100
AcDbEntity
  8
TOP
  6
CONTINUOUS
 62
     3
100
AcDbLine
 10
18.202328
 20
21.64237799999999
 30
0.0
 11
18.208185
 21
21.65651899999999
 31
0.0
  0
LINE
  5
597
330
A
100
AcDbEntity
  8
TOP
  6
CONTINUOUS
 62
     3
100
AcDbLine
 10
38.25085399999999
 20
31.665039
 30
0.0
 11
38.25085399999999
 21
31.65332
 31
0.0
  0
LINE
  5
598
330
A
100
AcDbEntity
  8
TOP
  6
CONTINUOUS
 62
     3
100
AcDbLine
 10
4.960738
 20
5.594204999999999
 30
0.0
 11
4.973946999999999
 21
5.594204999999999
 31
0.0
  0
LINE
  5
599
330
A
100
AcDbEntity
  8
TOP
  6
CONTINUOUS
 62
     3
100
AcDbLine
 10
38.25085399999999
 20
31.59082
 30
0.0
 11
38.25085399999999
 21
31.615561
 31
0.0
  0
LINE
  5
59A
330
A
100
AcDbEntity
  8
TOP
  6
CONTINUOUS
 62
     3
100
AcDbLine
 10
18.188187
 20
21.63651799999999
 30
0.0
 11
18.202328
 21
21.64237799999999
 31
0.0
  0
LINE
  5
59B
330
A
100
AcDbEntity
  8
TOP
  6
CONTINUOUS
 62
     3
100
AcDbLine
 10
16.374044
 20
21.64237799999999
 30
0.0
 11
16.388186
 21
21.63651799999999
 31
0.0
  0
LINE
  5
59C
330
A
100
AcDbEntity
  8
TOP
  6
CONTINUOUS
 62
     3
100
AcDbLine
 10
38.255215
 20
31.671518
 30
0.0
 11
38.268002
 21
31.671518
 31
0.0
  0
LINE
  5
59D
330
A
100
AcDbEntity
  8
TOP
  6
CONTINUOUS
 62
     3
100
AcDbLine
 10
4.905333999999999
 20
12.69151899999999
 30
0.0
 11
4.925675
 21
12.69151899999999
 31
0.0
  0
LINE
  5
59E
330
A
100
AcDbEntity
  8
TOP
  6
CONTINUOUS
 62
     3
100
AcDbLine
 10
16.884779
 20
21.83152
 30
0.0
 11
16.881001
 21
21.84651899999999
 31
0.0
  0
LINE
  5
59F
330
A
100
AcDbEntity
  8
TOP
  6
CONTINUOUS
 62
     3
100
AcDbLine
 10
16.718269
 20
21.84651899999999
 30
0.0
 11
16.722881
 21
21.83152
 31
0.0
  0
LINE
  5
5A0
330
A
100
AcDbEntity
  8
TOP
  6
CONTINUOUS
 62
     3
100
AcDbLine
 10
38.345722
 20
31.671518
 30
0.0
 11
38.378849
 21
31.671518
 31
0.0
  0
LINE
  5
5A1
330
A
100
AcDbEntity
  8
TOP
  6
CONTINUOUS
 62
     3
100
AcDbLine
 10
5.016180999999999
 20
12.69151899999999
 30
0.0
 11
5.04931
 21
12.69151899999999
 31
0.0
  0
LINE
  5
5A2
330
A
100
AcDbEntity
  8
TOP
  6
CONTINUOUS
 62
     3
100
AcDbLine
 10
16.735477
 20
21.82053799999999
 30
0.0
 11
16.752686
 21
21.81651899999999
 31
0.0
  0
LINE
  5
5A3
330
A
100
AcDbEntity
  8
TOP
  6
CONTINUOUS
 62
     3
100
AcDbLine
 10
14.837179
 20
22.53652
 30
0.0
 11
14.032131
 21
22.53652
 31
0.0
  0
LINE
  5
5A4
330
A
100
AcDbEntity
  8
TOP
  6
CONTINUOUS
 62
     3
100
AcDbLine
 10
38.442848
 20
31.671518
 30
0.0
 11
38.469357
 21
31.671518
 31
0.0
  0
LINE
  5
5A5
330
A
100
AcDbEntity
  8
TOP
  6
CONTINUOUS
 62
     3
100
AcDbLine
 10
5.04931
 20
31.15152
 30
0.0
 11
5.080180999999999
 21
31.15152
 31
0.0
  0
LINE
  5
5A6
330
A
100
AcDbEntity
  8
TOP
  6
CONTINUOUS
 62
     3
100
AcDbLine
 10
38.469357
 20
31.671518
 30
0.0
 11
38.4897
 21
31.671518
 31
0.0
  0
LINE
  5
5A7
330
A
100
AcDbEntity
  8
TOP
  6
CONTINUOUS
 62
     3
100
AcDbLine
 10
5.106690999999999
 20
31.15152
 30
0.0
 11
5.127034
 21
31.15152
 31
0.0
  0
LINE
  5
5A8
330
A
100
AcDbEntity
  8
TOP
  6
CONTINUOUS
 62
     3
100
AcDbLine
 10
5.127034
 20
31.15152
 30
0.0
 11
5.139821999999999
 21
31.15152
 31
0.0
  0
LINE
  5
5A9
330
A
100
AcDbEntity
  8
TOP
  6
CONTINUOUS
 62
     3
100
AcDbLine
 10
4.95119
 20
3.256205
 30
0.0
 11
4.956188
 21
3.256205
 31
0.0
  0
LINE
  5
5AA
330
A
100
AcDbEntity
  8
TOP
  6
CONTINUOUS
 62
     3
100
AcDbLine
 10
4.905333999999999
 20
13.231519
 30
0.0
 11
4.925675
 21
13.231519
 31
0.0
  0
LINE
  5
5AB
330
A
100
AcDbEntity
  8
TOP
  6
CONTINUOUS
 62
     3
100
AcDbLine
 10
38.25085399999999
 20
31.71452
 30
0.0
 11
38.25085399999999
 21
31.689779
 31
0.0
  0
LINE
  5
5AC
330
A
100
AcDbEntity
  8
TOP
  6
CONTINUOUS
 62
     3
100
AcDbLine
 10
14.012121
 20
22.53652
 30
0.0
 11
14.016062
 21
22.555653
 31
0.0
  0
LINE
  5
5AD
330
A
100
AcDbEntity
  8
TOP
  6
CONTINUOUS
 62
     3
100
AcDbLine
 10
4.925675
 20
31.691519
 30
0.0
 11
4.952182999999999
 21
31.691519
 31
0.0
  0
LINE
  5
5AE
330
A
100
AcDbEntity
  8
TOP
  6
CONTINUOUS
 62
     3
100
AcDbLine
 10
6.829988
 20
5.872205
 30
0.0
 11
6.854727999999999
 21
5.872205
 31
0.0
  0
LINE
  5
5AF
330
A
100
AcDbEntity
  8
TOP
  6
CONTINUOUS
 62
     3
100
AcDbLine
 10
5.016180999999999
 20
13.231519
 30
0.0
 11
5.04931
 21
13.231519
 31
0.0
  0
LINE
  5
5B0
330
A
100
AcDbEntity
  8
TOP
  6
CONTINUOUS
 62
     3
100
AcDbLine
 10
38.25085399999999
 20
31.71452
 30
0.0
 11
38.25085399999999
 21
31.702801
 31
0.0
  0
LINE
  5
5B1
330
A
100
AcDbEntity
  8
TOP
  6
CONTINUOUS
 62
     3
100
AcDbLine
 10
38.25085399999999
 20
31.71452
 30
0.0
 11
38.25085399999999
 21
31.615561
 31
0.0
  0
LINE
  5
5B2
330
A
100
AcDbEntity
  8
TOP
  6
CONTINUOUS
 62
     3
100
AcDbLine
 10
5.127034
 20
13.231519
 30
0.0
 11
5.139821999999999
 21
13.231519
 31
0.0
  0
LINE
  5
5B3
330
A
100
AcDbEntity
  8
TOP
  6
CONTINUOUS
 62
     3
100
AcDbLine
 10
17.682487
 20
21.81651899999999
 30
0.0
 11
17.698709
 21
21.82053799999999
 31
0.0
  0
LINE
  5
5B4
330
A
100
AcDbEntity
  8
TOP
  6
CONTINUOUS
 62
     3
100
AcDbLine
 10
5.127034
 20
31.691519
 30
0.0
 11
5.139821999999999
 21
31.691519
 31
0.0
  0
LINE
  5
5B5
330
A
100
AcDbEntity
  8
TOP
  6
CONTINUOUS
 62
     3
100
AcDbLine
 10
38.25085399999999
 20
31.71452
 30
0.0
 11
38.25085399999999
 21
31.59082
 31
0.0
  0
LINE
  5
5B6
330
A
100
AcDbEntity
  8
TOP
  6
CONTINUOUS
 62
     3
100
AcDbLine
 10
16.884779
 20
22.55151899999999
 30
0.0
 11
16.895096
 21
22.5625
 31
0.0
  0
LINE
  5
5B7
330
A
100
AcDbEntity
  8
TOP
  6
CONTINUOUS
 62
     3
100
AcDbLine
 10
38.25085399999999
 20
31.59082
 30
0.0
 11
38.25085399999999
 21
31.71452
 31
0.0
  0
LINE
  5
5B8
330
A
100
AcDbEntity
  8
TOP
  6
CONTINUOUS
 62
     3
100
AcDbLine
 10
8.403033999999999
 20
3.612731
 30
0.0
 11
8.452835999999999
 21
3.612731
 31
0.0
  0
LINE
  5
5B9
330
A
100
AcDbEntity
  8
TOP
  6
CONTINUOUS
 62
     3
100
AcDbLine
 10
38.25085399999999
 20
31.702801
 30
0.0
 11
38.25085399999999
 21
31.665039
 31
0.0
  0
LINE
  5
5BA
330
A
100
AcDbEntity
  8
TOP
  6
CONTINUOUS
 62
     3
100
AcDbLine
 10
8.403133
 20
3.584204999999999
 30
0.0
 11
8.452864999999999
 21
3.584204999999999
 31
0.0
  0
LINE
  5
5BB
330
A
100
AcDbEntity
  8
TOP
  6
CONTINUOUS
 62
     3
100
AcDbLine
 10
8.098489
 20
3.527152
 30
0.0
 11
8.142428
 21
3.527152
 31
0.0
  0
LINE
  5
5BC
330
A
100
AcDbEntity
  8
TOP
  6
CONTINUOUS
 62
     3
100
AcDbLine
 10
41.478996
 20
12.096519
 30
0.0
 11
41.458061
 21
12.096519
 31
0.0
  0
LINE
  5
5BD
330
A
100
AcDbEntity
  8
TOP
  6
CONTINUOUS
 62
     3
100
AcDbLine
 10
8.403138
 20
3.527152
 30
0.0
 11
8.452773
 21
3.527152
 31
0.0
  0
LINE
  5
5BE
330
A
100
AcDbEntity
  8
TOP
  6
CONTINUOUS
 62
     3
100
AcDbLine
 10
41.347569
 20
12.096519
 30
0.0
 11
41.29589099999999
 21
12.096519
 31
0.0
  0
LINE
  5
5BF
330
A
100
AcDbEntity
  8
TOP
  6
CONTINUOUS
 62
     3
100
AcDbLine
 10
41.102463
 20
12.096519
 30
0.0
 11
41.02701999999999
 21
12.096519
 31
0.0
  0
LINE
  5
5C0
330
A
100
AcDbEntity
  8
TOP
  6
CONTINUOUS
 62
     3
100
AcDbLine
 10
20.720186
 20
5.854443999999999
 30
0.0
 11
20.720186
 21
5.833868999999999
 31
0.0
  0
LINE
  5
5C1
330
A
100
AcDbEntity
  8
TOP
  6
CONTINUOUS
 62
     3
100
AcDbLine
 10
40.776779
 20
12.096519
 30
0.0
 11
40.68776299999999
 21
12.096519
 31
0.0
  0
LINE
  5
5C2
330
A
100
AcDbEntity
  8
TOP
  6
CONTINUOUS
 62
     3
100
AcDbLine
 10
20.720186
 20
5.872205
 30
0.0
 11
20.87018599999999
 21
5.872205
 31
0.0
  0
LINE
  5
5C3
330
A
100
AcDbEntity
  8
TOP
  6
CONTINUOUS
 62
     3
100
AcDbLine
 10
38.31485
 20
31.171518
 30
0.0
 11
38.345722
 21
31.171518
 31
0.0
  0
LINE
  5
5C4
330
A
100
AcDbEntity
  8
TOP
  6
CONTINUOUS
 62
     3
100
AcDbLine
 10
5.04931
 20
31.691519
 30
0.0
 11
5.080180999999999
 21
31.691519
 31
0.0
  0
LINE
  5
5C5
330
A
100
AcDbEntity
  8
TOP
  6
CONTINUOUS
 62
     3
100
AcDbLine
 10
38.665852
 20
12.096519
 30
0.0
 11
38.65171099999999
 21
12.096519
 31
0.0
  0
LINE
  5
5C6
330
A
100
AcDbEntity
  8
TOP
  6
CONTINUOUS
 62
     3
100
AcDbLine
 10
15.905186
 20
5.854443999999999
 30
0.0
 11
15.905186
 21
5.833868999999999
 31
0.0
  0
LINE
  5
5C7
330
A
100
AcDbEntity
  8
TOP
  6
CONTINUOUS
 62
     3
100
AcDbLine
 10
40.50585199999999
 20
12.19152
 30
0.0
 11
40.50585199999999
 21
12.190654
 31
0.0
  0
LINE
  5
5C8
330
A
100
AcDbEntity
  8
TOP
  6
CONTINUOUS
 62
     3
100
AcDbLine
 10
41.478996
 20
12.18401899999999
 30
0.0
 11
41.458061
 21
12.18401899999999
 31
0.0
  0
LINE
  5
5C9
330
A
100
AcDbEntity
  8
TOP
  6
CONTINUOUS
 62
     3
100
AcDbLine
 10
15.905186
 20
5.779205
 30
0.0
 11
15.905186
 21
5.642204999999999
 31
0.0
  0
LINE
  5
5CA
330
A
100
AcDbEntity
  8
TOP
  6
CONTINUOUS
 62
     3
100
AcDbLine
 10
41.347569
 20
12.18401899999999
 30
0.0
 11
41.29589099999999
 21
12.18401899999999
 31
0.0
  0
LINE
  5
5CB
330
A
100
AcDbEntity
  8
TOP
  6
CONTINUOUS
 62
     3
100
AcDbLine
 10
41.102463
 20
12.18401899999999
 30
0.0
 11
41.02701999999999
 21
12.18401899999999
 31
0.0
  0
LINE
  5
5CC
330
A
100
AcDbEntity
  8
TOP
  6
CONTINUOUS
 62
     3
100
AcDbLine
 10
40.776779
 20
12.18401899999999
 30
0.0
 11
40.68776299999999
 21
12.18401899999999
 31
0.0
  0
LINE
  5
5CD
330
A
100
AcDbEntity
  8
TOP
  6
CONTINUOUS
 62
     3
100
AcDbLine
 10
5.166185999999999
 20
5.809205
 30
0.0
 11
5.126451999999999
 21
5.809205
 31
0.0
  0
LINE
  5
5CE
330
A
100
AcDbEntity
  8
TOP
  6
CONTINUOUS
 62
     3
100
AcDbLine
 10
38.645851
 20
12.19152
 30
0.0
 11
38.645851
 21
12.190654
 31
0.0
  0
LINE
  5
5CF
330
A
100
AcDbEntity
  8
TOP
  6
CONTINUOUS
 62
     3
100
AcDbLine
 10
15.841186
 20
5.833868999999999
 30
0.0
 11
15.841186
 21
5.807943999999999
 31
0.0
  0
LINE
  5
5D0
330
A
100
AcDbEntity
  8
TOP
  6
CONTINUOUS
 62
     3
100
AcDbLine
 10
38.665852
 20
12.18401899999999
 30
0.0
 11
38.665852
 21
12.096519
 31
0.0
  0
LINE
  5
5D1
330
A
100
AcDbEntity
  8
TOP
  6
CONTINUOUS
 62
     3
100
AcDbLine
 10
5.166185999999999
 20
5.833868999999999
 30
0.0
 11
5.166185999999999
 21
5.854443999999999
 31
0.0
  0
LINE
  5
5D2
330
A
100
AcDbEntity
  8
TOP
  6
CONTINUOUS
 62
     3
100
AcDbLine
 10
40.672184
 20
12.190654
 30
0.0
 11
40.753067
 21
12.190654
 31
0.0
  0
LINE
  5
5D3
330
A
100
AcDbEntity
  8
TOP
  6
CONTINUOUS
 62
     3
100
AcDbLine
 10
40.97608199999999
 20
12.190654
 30
0.0
 11
41.041157
 21
12.190654
 31
0.0
  0
LINE
  5
5D4
330
A
100
AcDbEntity
  8
TOP
  6
CONTINUOUS
 62
     3
100
AcDbLine
 10
15.031311
 20
21.811163
 30
0.0
 11
15.014049
 21
21.800325
 31
0.0
  0
LINE
  5
5D5
330
A
100
AcDbEntity
  8
TOP
  6
CONTINUOUS
 62
     3
100
AcDbLine
 10
41.30147199999999
 20
12.190654
 30
0.0
 11
41.305855
 21
12.190654
 31
0.0
  0
LINE
  5
5D6
330
A
100
AcDbEntity
  8
TOP
  6
CONTINUOUS
 62
     3
100
AcDbLine
 10
38.50085399999999
 20
22.68652
 30
0.0
 11
38.61585199999999
 21
22.68652
 31
0.0
  0
LINE
  5
5D7
330
A
100
AcDbEntity
  8
TOP
  6
CONTINUOUS
 62
     3
100
AcDbLine
 10
38.25085399999999
 20
22.726519
 30
0.0
 11
38.209854
 21
22.726519
 31
0.0
  0
LINE
  5
5D8
330
A
100
AcDbEntity
  8
TOP
  6
CONTINUOUS
 62
     3
100
AcDbLine
 10
20.720186
 20
12.711519
 30
0.0
 11
20.87018599999999
 21
12.711519
 31
0.0
  0
LINE
  5
5D9
330
A
100
AcDbEntity
  8
TOP
  6
CONTINUOUS
 62
     3
100
AcDbLine
 10
38.209854
 20
22.726519
 30
0.0
 11
38.20647
 21
22.740662
 31
0.0
  0
LINE
  5
5DA
330
A
100
AcDbEntity
  8
TOP
  6
CONTINUOUS
 62
     3
100
AcDbLine
 10
38.543854
 20
31.15152
 30
0.0
 11
38.543854
 21
31.691519
 31
0.0
  0
LINE
  5
5DB
330
A
100
AcDbEntity
  8
TOP
  6
CONTINUOUS
 62
     3
100
AcDbLine
 10
38.61585199999999
 20
13.731519
 30
0.0
 11
38.61585199999999
 21
30.65152
 31
0.0
  0
LINE
  5
5DC
330
A
100
AcDbEntity
  8
TOP
  6
CONTINUOUS
 62
     3
100
AcDbLine
 10
41.67885199999999
 20
12.195728
 30
0.0
 11
41.67885199999999
 21
12.207974
 31
0.0
  0
LINE
  5
5DD
330
A
100
AcDbEntity
  8
TOP
  6
CONTINUOUS
 62
     3
100
AcDbLine
 10
5.928186
 20
5.307967999999999
 30
0.0
 11
7.358185999999999
 21
5.307967999999999
 31
0.0
  0
LINE
  5
5DE
330
A
100
AcDbEntity
  8
TOP
  6
CONTINUOUS
 62
     3
100
AcDbLine
 10
41.7673
 20
32.098518
 30
0.0
 11
41.754093
 21
32.098518
 31
0.0
  0
LINE
  5
5DF
330
A
100
AcDbEntity
  8
TOP
  6
CONTINUOUS
 62
     3
100
AcDbLine
 10
41.77185399999999
 20
12.284519
 30
0.0
 11
41.7673
 21
12.284519
 31
0.0
  0
LINE
  5
5E0
330
A
100
AcDbEntity
  8
TOP
  6
CONTINUOUS
 62
     3
100
AcDbLine
 10
41.70759199999999
 20
12.284519
 30
0.0
 11
41.67885199999999
 21
12.284519
 31
0.0
  0
LINE
  5
5E1
330
A
100
AcDbEntity
  8
TOP
  6
CONTINUOUS
 62
     3
100
AcDbLine
 10
38.345722
 20
12.69151899999999
 30
0.0
 11
38.31485
 21
12.69151899999999
 31
0.0
  0
LINE
  5
5E2
330
A
100
AcDbEntity
  8
TOP
  6
CONTINUOUS
 62
     3
100
AcDbLine
 10
38.288342
 20
12.69151899999999
 30
0.0
 11
38.268002
 21
12.69151899999999
 31
0.0
  0
LINE
  5
5E3
330
A
100
AcDbEntity
  8
TOP
  6
CONTINUOUS
 62
     3
100
AcDbLine
 10
4.951185999999999
 20
2.444205
 30
0.0
 11
4.888186
 21
2.444205
 31
0.0
  0
LINE
  5
5E4
330
A
100
AcDbEntity
  8
TOP
  6
CONTINUOUS
 62
     3
100
AcDbLine
 10
38.255215
 20
12.19151899999999
 30
0.0
 11
38.25085399999999
 21
12.19151899999999
 31
0.0
  0
LINE
  5
5E5
330
A
100
AcDbEntity
  8
TOP
  6
CONTINUOUS
 62
     3
100
AcDbLine
 10
38.25085399999999
 20
31.59082
 30
0.0
 11
38.25085399999999
 21
31.71452
 31
0.0
  0
LINE
  5
5E6
330
A
100
AcDbEntity
  8
TOP
  6
CONTINUOUS
 62
     3
100
AcDbLine
 10
38.345722
 20
13.231519
 30
0.0
 11
38.31485
 21
13.231519
 31
0.0
  0
LINE
  5
5E7
330
A
100
AcDbEntity
  8
TOP
  6
CONTINUOUS
 62
     3
100
AcDbLine
 10
5.081185999999999
 20
30.63154
 30
0.0
 11
5.081185999999999
 21
30.651539
 31
0.0
  0
LINE
  5
5E8
330
A
100
AcDbEntity
  8
TOP
  6
CONTINUOUS
 62
     3
100
AcDbLine
 10
20.935186
 20
12.691535
 30
0.0
 11
20.935186
 21
12.711534
 31
0.0
  0
LINE
  5
5E9
330
A
100
AcDbEntity
  8
TOP
  6
CONTINUOUS
 62
     3
100
AcDbLine
 10
14.044076
 20
21.800325
 30
0.0
 11
14.027283
 21
21.811163
 31
0.0
  0
LINE
  5
5EA
330
A
100
AcDbEntity
  8
TOP
  6
CONTINUOUS
 62
     3
100
AcDbLine
 10
38.255215
 20
13.231519
 30
0.0
 11
38.25085399999999
 21
13.231519
 31
0.0
  0
LINE
  5
5EB
330
A
100
AcDbEntity
  8
TOP
  6
CONTINUOUS
 62
     3
100
AcDbLine
 10
38.288342
 20
31.15152
 30
0.0
 11
38.268002
 21
31.15152
 31
0.0
  0
LINE
  5
5EC
330
A
100
AcDbEntity
  8
TOP
  6
CONTINUOUS
 62
     3
100
AcDbLine
 10
38.345722
 20
30.65152
 30
0.0
 11
38.31485
 21
30.65152
 31
0.0
  0
LINE
  5
5ED
330
A
100
AcDbEntity
  8
TOP
  6
CONTINUOUS
 62
     3
100
AcDbLine
 10
38.255215
 20
30.65152
 30
0.0
 11
38.25085399999999
 21
30.65152
 31
0.0
  0
LINE
  5
5EE
330
A
100
AcDbEntity
  8
TOP
  6
CONTINUOUS
 62
     3
100
AcDbLine
 10
38.345722
 20
31.691519
 30
0.0
 11
38.31485
 21
31.691519
 31
0.0
  0
LINE
  5
5EF
330
A
100
AcDbEntity
  8
TOP
  6
CONTINUOUS
 62
     3
100
AcDbLine
 10
38.50085399999999
 20
22.756519
 30
0.0
 11
38.61585199999999
 21
22.756519
 31
0.0
  0
LINE
  5
5F0
330
A
100
AcDbEntity
  8
TOP
  6
CONTINUOUS
 62
     3
100
AcDbLine
 10
20.960697
 20
13.751519
 30
0.0
 11
20.98103899999999
 21
13.751519
 31
0.0
  0
LINE
  5
5F1
330
A
100
AcDbEntity
  8
TOP
  6
CONTINUOUS
 62
     3
100
AcDbLine
 10
15.378186
 20
22.726519
 30
0.0
 11
15.378186
 21
21.65651899999999
 31
0.0
  0
LINE
  5
5F2
330
A
100
AcDbEntity
  8
TOP
  6
CONTINUOUS
 62
     3
100
AcDbLine
 10
38.342018
 20
30.011518
 30
0.0
 11
38.37385199999999
 21
30.011518
 31
0.0
  0
LINE
  5
5F3
330
A
100
AcDbEntity
  8
TOP
  6
CONTINUOUS
 62
     3
100
AcDbLine
 10
38.342018
 20
14.37151899999999
 30
0.0
 11
38.312351
 21
14.37151899999999
 31
0.0
  0
LINE
  5
5F4
330
A
100
AcDbEntity
  8
TOP
  6
CONTINUOUS
 62
     3
100
AcDbLine
 10
38.255043
 20
14.37151899999999
 30
0.0
 11
38.25085399999999
 21
14.37151899999999
 31
0.0
  0
LINE
  5
5F5
330
A
100
AcDbEntity
  8
TOP
  6
CONTINUOUS
 62
     3
100
AcDbLine
 10
38.25085399999999
 20
12.161519
 30
0.0
 11
38.25085399999999
 21
12.19152
 31
0.0
  0
LINE
  5
5F6
330
A
100
AcDbEntity
  8
TOP
  6
CONTINUOUS
 62
     3
100
AcDbLine
 10
18.528185
 20
5.307967999999999
 30
0.0
 11
19.958185
 21
5.307967999999999
 31
0.0
  0
LINE
  5
5F7
330
A
100
AcDbEntity
  8
TOP
  6
CONTINUOUS
 62
     3
100
AcDbLine
 10
20.892412
 20
5.618149999999999
 30
0.0
 11
20.88147399999999
 21
5.680191999999999
 31
0.0
  0
LINE
  5
5F8
330
A
100
AcDbEntity
  8
TOP
  6
CONTINUOUS
 62
     3
100
AcDbLine
 10
6.396654999999999
 20
31.71452
 30
0.0
 11
6.396654999999999
 21
31.59082
 31
0.0
  0
LINE
  5
5F9
330
A
100
AcDbEntity
  8
TOP
  6
CONTINUOUS
 62
     3
100
AcDbLine
 10
17.714931
 20
22.53652
 30
0.0
 11
17.71058499999999
 21
22.55151899999999
 31
0.0
  0
LINE
  5
5FA
330
A
100
AcDbEntity
  8
TOP
  6
CONTINUOUS
 62
     3
100
AcDbLine
 10
40.49585299999999
 20
12.096519
 30
0.0
 11
40.49585299999999
 21
12.121519
 31
0.0
  0
LINE
  5
5FB
330
A
100
AcDbEntity
  8
TOP
  6
CONTINUOUS
 62
     3
100
AcDbLine
 10
15.905186
 20
12.161519
 30
0.0
 11
15.905186
 21
12.132781
 31
0.0
  0
LINE
  5
5FC
330
A
100
AcDbEntity
  8
TOP
  6
CONTINUOUS
 62
     3
100
AcDbLine
 10
7.077644
 20
31.71452
 30
0.0
 11
7.077644
 21
31.59082
 31
0.0
  0
LINE
  5
5FD
330
A
100
AcDbEntity
  8
TOP
  6
CONTINUOUS
 62
     3
100
AcDbLine
 10
15.905186
 20
32.296757
 30
0.0
 11
15.905186
 21
32.309967
 31
0.0
  0
LINE
  5
5FE
330
A
100
AcDbEntity
  8
TOP
  6
CONTINUOUS
 62
     3
100
AcDbLine
 10
7.510977999999999
 20
31.71452
 30
0.0
 11
7.461497999999999
 21
31.71452
 31
0.0
  0
LINE
  5
5FF
330
A
100
AcDbEntity
  8
TOP
  6
CONTINUOUS
 62
     3
100
AcDbLine
 10
16.752686
 20
21.79651799999999
 30
0.0
 11
16.752686
 21
21.810661
 31
0.0
  0
LINE
  5
600
330
A
100
AcDbEntity
  8
TOP
  6
CONTINUOUS
 62
     3
100
AcDbLine
 10
17.714251
 20
21.84651899999999
 30
0.0
 11
17.720108
 21
21.84651899999999
 31
0.0
  0
LINE
  5
601
330
A
100
AcDbEntity
  8
TOP
  6
CONTINUOUS
 62
     3
100
AcDbLine
 10
17.714251
 20
22.53652
 30
0.0
 11
17.720108
 21
22.53652
 31
0.0
  0
LINE
  5
602
330
A
100
AcDbEntity
  8
TOP
  6
CONTINUOUS
 62
     3
100
AcDbLine
 10
17.682487
 20
22.566519
 30
0.0
 11
17.682487
 21
22.57237599999999
 31
0.0
  0
LINE
  5
603
330
A
100
AcDbEntity
  8
TOP
  6
CONTINUOUS
 62
     3
100
AcDbLine
 10
16.909191
 20
22.53652
 30
0.0
 11
16.909191
 21
22.55151899999999
 31
0.0
  0
LINE
  5
604
330
A
100
AcDbEntity
  8
TOP
  6
CONTINUOUS
 62
     3
100
AcDbLine
 10
16.89198499999999
 20
22.53652
 30
0.0
 11
16.881001
 21
22.53652
 31
0.0
  0
LINE
  5
605
330
A
100
AcDbEntity
  8
TOP
  6
CONTINUOUS
 62
     3
100
AcDbLine
 10
16.909191
 20
21.83152
 30
0.0
 11
16.909191
 21
21.82053799999999
 31
0.0
  0
LINE
  5
606
330
A
100
AcDbEntity
  8
TOP
  6
CONTINUOUS
 62
     3
100
AcDbLine
 10
20.998186
 20
31.15152
 30
0.0
 11
20.998186
 21
30.65152
 31
0.0
  0
LINE
  5
607
330
A
100
AcDbEntity
  8
TOP
  6
CONTINUOUS
 62
     3
100
AcDbLine
 10
20.998186
 20
30.631426
 30
0.0
 11
20.998186
 21
30.65152
 31
0.0
  0
LINE
  5
608
330
A
100
AcDbEntity
  8
TOP
  6
CONTINUOUS
 62
     3
100
AcDbLine
 10
20.998186
 20
12.69151899999999
 30
0.0
 11
20.998186
 21
12.19151899999999
 31
0.0
  0
LINE
  5
609
330
A
100
AcDbEntity
  8
TOP
  6
CONTINUOUS
 62
     3
100
AcDbLine
 10
4.888186
 20
30.65152
 30
0.0
 11
4.888186
 21
30.631426
 31
0.0
  0
LINE
  5
60A
330
A
100
AcDbEntity
  8
TOP
  6
CONTINUOUS
 62
     3
100
AcDbLine
 10
4.888186
 20
30.65152
 30
0.0
 11
4.888186
 21
31.15152
 31
0.0
  0
LINE
  5
60B
330
A
100
AcDbEntity
  8
TOP
  6
CONTINUOUS
 62
     3
100
AcDbLine
 10
4.888186
 20
12.19151899999999
 30
0.0
 11
4.888186
 21
12.69151899999999
 31
0.0
  0
LINE
  5
60C
330
A
100
AcDbEntity
  8
TOP
  6
CONTINUOUS
 62
     3
100
AcDbLine
 10
4.951185999999999
 20
14.251545
 30
0.0
 11
4.951185999999999
 21
14.371571
 31
0.0
  0
LINE
  5
60D
330
A
100
AcDbEntity
  8
TOP
  6
CONTINUOUS
 62
     3
100
AcDbLine
 10
15.841153
 20
12.254519
 30
0.0
 11
15.90515899999999
 21
12.254519
 31
0.0
  0
LINE
  5
60E
330
A
100
AcDbEntity
  8
TOP
  6
CONTINUOUS
 62
     3
100
AcDbLine
 10
20.742186
 20
32.128521
 30
0.0
 11
20.725964
 21
32.128521
 31
0.0
  0
LINE
  5
60F
330
A
100
AcDbEntity
  8
TOP
  6
CONTINUOUS
 62
     3
100
AcDbLine
 10
5.144186999999999
 20
12.254519
 30
0.0
 11
5.160408
 21
12.254519
 31
0.0
  0
LINE
  5
610
330
A
100
AcDbEntity
  8
TOP
  6
CONTINUOUS
 62
     3
100
AcDbLine
 10
5.166185999999999
 20
12.19151899999999
 30
0.0
 11
5.160408
 21
12.19151899999999
 31
0.0
  0
LINE
  5
611
330
A
100
AcDbEntity
  8
TOP
  6
CONTINUOUS
 62
     3
100
AcDbLine
 10
38.61085099999999
 20
12.06852
 30
0.0
 11
38.606422
 21
12.06852
 31
0.0
  0
LINE
  5
612
330
A
100
AcDbEntity
  8
TOP
  6
CONTINUOUS
 62
     3
100
AcDbLine
 10
5.144407
 20
32.098518
 30
0.0
 11
5.166362
 21
32.098518
 31
0.0
  0
LINE
  5
613
330
A
100
AcDbEntity
  8
TOP
  6
CONTINUOUS
 62
     3
100
AcDbLine
 10
38.593437
 20
12.06852
 30
0.0
 11
38.572777
 21
12.06852
 31
0.0
  0
LINE
  5
614
330
A
100
AcDbEntity
  8
TOP
  6
CONTINUOUS
 62
     3
100
AcDbLine
 10
20.720186
 20
32.191521
 30
0.0
 11
20.725964
 21
32.191521
 31
0.0
  0
LINE
  5
615
330
A
100
AcDbEntity
  8
TOP
  6
CONTINUOUS
 62
     3
100
AcDbLine
 10
38.572777
 20
12.06852
 30
0.0
 11
38.545853
 21
12.06852
 31
0.0
  0
LINE
  5
616
330
A
100
AcDbEntity
  8
TOP
  6
CONTINUOUS
 62
     3
100
AcDbLine
 10
38.545853
 20
12.06852
 30
0.0
 11
38.51449999999999
 21
12.06852
 31
0.0
  0
LINE
  5
617
330
A
100
AcDbEntity
  8
TOP
  6
CONTINUOUS
 62
     3
100
AcDbLine
 10
5.144186999999999
 20
32.191521
 30
0.0
 11
5.160408
 21
32.191521
 31
0.0
  0
LINE
  5
618
330
A
100
AcDbEntity
  8
TOP
  6
CONTINUOUS
 62
     3
100
AcDbLine
 10
20.905186
 20
14.3718
 30
0.0
 11
20.905186
 21
14.251678
 31
0.0
  0
LINE
  5
619
330
A
100
AcDbEntity
  8
TOP
  6
CONTINUOUS
 62
     3
100
AcDbLine
 10
38.545853
 20
12.131519
 30
0.0
 11
38.572777
 21
12.131519
 31
0.0
  0
LINE
  5
61A
330
A
100
AcDbEntity
  8
TOP
  6
CONTINUOUS
 62
     3
100
AcDbLine
 10
4.981186
 20
14.251678
 30
0.0
 11
4.981186
 21
14.3718
 31
0.0
  0
LINE
  5
61B
330
A
100
AcDbEntity
  8
TOP
  6
CONTINUOUS
 62
     3
100
AcDbLine
 10
13.558186
 20
22.74651899999999
 30
0.0
 11
15.358186
 21
22.74651899999999
 31
0.0
  0
LINE
  5
61C
330
A
100
AcDbEntity
  8
TOP
  6
CONTINUOUS
 62
     3
100
AcDbLine
 10
15.028102
 20
22.53652
 30
0.0
 11
14.865371
 21
22.53652
 31
0.0
  0
LINE
  5
61D
330
A
100
AcDbEntity
  8
TOP
  6
CONTINUOUS
 62
     3
100
AcDbLine
 10
38.61085099999999
 20
12.131519
 30
0.0
 11
38.61085099999999
 21
12.06852
 31
0.0
  0
LINE
  5
61E
330
A
100
AcDbEntity
  8
TOP
  6
CONTINUOUS
 62
     3
100
AcDbLine
 10
38.480854
 20
32.314518
 30
0.0
 11
38.51449999999999
 21
32.314518
 31
0.0
  0
LINE
  5
61F
330
A
100
AcDbEntity
  8
TOP
  6
CONTINUOUS
 62
     3
100
AcDbLine
 10
20.87019
 20
12.69151899999999
 30
0.0
 11
20.837061
 21
12.69151899999999
 31
0.0
  0
LINE
  5
620
330
A
100
AcDbEntity
  8
TOP
  6
CONTINUOUS
 62
     3
100
AcDbLine
 10
38.593437
 20
32.314518
 30
0.0
 11
38.606422
 21
32.314518
 31
0.0
  0
LINE
  5
621
330
A
100
AcDbEntity
  8
TOP
  6
CONTINUOUS
 62
     3
100
AcDbLine
 10
20.759338
 20
12.69151899999999
 30
0.0
 11
20.74654999999999
 21
12.69151899999999
 31
0.0
  0
LINE
  5
622
330
A
100
AcDbEntity
  8
TOP
  6
CONTINUOUS
 62
     3
100
AcDbLine
 10
20.998186
 20
12.19151899999999
 30
0.0
 11
20.993824
 21
12.19151899999999
 31
0.0
  0
LINE
  5
623
330
A
100
AcDbEntity
  8
TOP
  6
CONTINUOUS
 62
     3
100
AcDbLine
 10
15.317564
 20
22.685898
 30
0.0
 11
15.37232799999999
 21
22.740662
 31
0.0
  0
LINE
  5
624
330
A
100
AcDbEntity
  8
TOP
  6
CONTINUOUS
 62
     3
100
AcDbLine
 10
38.593437
 20
32.25151799999999
 30
0.0
 11
38.572777
 21
32.25151799999999
 31
0.0
  0
LINE
  5
625
330
A
100
AcDbEntity
  8
TOP
  6
CONTINUOUS
 62
     3
100
AcDbLine
 10
20.981037
 20
12.19151899999999
 30
0.0
 11
20.960697
 21
12.19151899999999
 31
0.0
  0
LINE
  5
626
330
A
100
AcDbEntity
  8
TOP
  6
CONTINUOUS
 62
     3
100
AcDbLine
 10
15.841186
 20
12.086281
 30
0.0
 11
15.841186
 21
12.073071
 31
0.0
  0
LINE
  5
627
330
A
100
AcDbEntity
  8
TOP
  6
CONTINUOUS
 62
     3
100
AcDbLine
 10
38.343853
 20
32.25151799999999
 30
0.0
 11
38.480854
 21
32.25151799999999
 31
0.0
  0
LINE
  5
628
330
A
100
AcDbEntity
  8
TOP
  6
CONTINUOUS
 62
     3
100
AcDbLine
 10
20.87019
 20
12.19151899999999
 30
0.0
 11
20.837061
 21
12.19151899999999
 31
0.0
  0
LINE
  5
629
330
A
100
AcDbEntity
  8
TOP
  6
CONTINUOUS
 62
     3
100
AcDbLine
 10
5.166185999999999
 20
12.106855
 30
0.0
 11
5.166185999999999
 21
12.132781
 31
0.0
  0
LINE
  5
62A
330
A
100
AcDbEntity
  8
TOP
  6
CONTINUOUS
 62
     3
100
AcDbLine
 10
20.759338
 20
12.19151899999999
 30
0.0
 11
20.74654999999999
 21
12.19151899999999
 31
0.0
  0
LINE
  5
62B
330
A
100
AcDbEntity
  8
TOP
  6
CONTINUOUS
 62
     3
100
AcDbLine
 10
20.998186
 20
13.731519
 30
0.0
 11
20.993824
 21
13.731519
 31
0.0
  0
LINE
  5
62C
330
A
100
AcDbEntity
  8
TOP
  6
CONTINUOUS
 62
     3
100
AcDbLine
 10
38.255215
 20
13.751519
 30
0.0
 11
38.268002
 21
13.751519
 31
0.0
  0
LINE
  5
62D
330
A
100
AcDbEntity
  8
TOP
  6
CONTINUOUS
 62
     3
100
AcDbLine
 10
20.981037
 20
13.731519
 30
0.0
 11
20.960697
 21
13.731519
 31
0.0
  0
LINE
  5
62E
330
A
100
AcDbEntity
  8
TOP
  6
CONTINUOUS
 62
     3
100
AcDbLine
 10
14.03578699999999
 20
21.83152
 30
0.0
 11
14.047663
 21
21.82053799999999
 31
0.0
  0
LINE
  5
62F
330
A
100
AcDbEntity
  8
TOP
  6
CONTINUOUS
 62
     3
100
AcDbLine
 10
20.90331799999999
 20
13.731519
 30
0.0
 11
20.87019
 21
13.731519
 31
0.0
  0
LINE
  5
630
330
A
100
AcDbEntity
  8
TOP
  6
CONTINUOUS
 62
     3
100
AcDbLine
 10
38.345722
 20
13.751519
 30
0.0
 11
38.378849
 21
13.751519
 31
0.0
  0
LINE
  5
631
330
A
100
AcDbEntity
  8
TOP
  6
CONTINUOUS
 62
     3
100
AcDbLine
 10
20.87019
 20
13.731519
 30
0.0
 11
20.837061
 21
13.731519
 31
0.0
  0
LINE
  5
632
330
A
100
AcDbEntity
  8
TOP
  6
CONTINUOUS
 62
     3
100
AcDbLine
 10
38.469357
 20
13.751519
 30
0.0
 11
38.4897
 21
13.751519
 31
0.0
  0
LINE
  5
633
330
A
100
AcDbEntity
  8
TOP
  6
CONTINUOUS
 62
     3
100
AcDbLine
 10
4.905332999999999
 20
30.131519
 30
0.0
 11
4.892546
 21
30.131519
 31
0.0
  0
LINE
  5
634
330
A
100
AcDbEntity
  8
TOP
  6
CONTINUOUS
 62
     3
100
AcDbLine
 10
38.255215
 20
14.251519
 30
0.0
 11
38.268002
 21
14.251519
 31
0.0
  0
LINE
  5
635
330
A
100
AcDbEntity
  8
TOP
  6
CONTINUOUS
 62
     3
100
AcDbLine
 10
38.345722
 20
14.251519
 30
0.0
 11
38.378849
 21
14.251519
 31
0.0
  0
LINE
  5
636
330
A
100
AcDbEntity
  8
TOP
  6
CONTINUOUS
 62
     3
100
AcDbLine
 10
20.87019
 20
13.231519
 30
0.0
 11
20.837061
 21
13.231519
 31
0.0
  0
LINE
  5
637
330
A
100
AcDbEntity
  8
TOP
  6
CONTINUOUS
 62
     3
100
AcDbLine
 10
38.469357
 20
14.251519
 30
0.0
 11
38.4897
 21
14.251519
 31
0.0
  0
LINE
  5
638
330
A
100
AcDbEntity
  8
TOP
  6
CONTINUOUS
 62
     3
100
AcDbLine
 10
20.759338
 20
13.231519
 30
0.0
 11
20.74654999999999
 21
13.231519
 31
0.0
  0
LINE
  5
639
330
A
100
AcDbEntity
  8
TOP
  6
CONTINUOUS
 62
     3
100
AcDbLine
 10
38.255215
 20
12.711519
 30
0.0
 11
38.268002
 21
12.711519
 31
0.0
  0
LINE
  5
63A
330
A
100
AcDbEntity
  8
TOP
  6
CONTINUOUS
 62
     3
100
AcDbLine
 10
20.981037
 20
31.15152
 30
0.0
 11
20.960697
 21
31.15152
 31
0.0
  0
LINE
  5
63B
330
A
100
AcDbEntity
  8
TOP
  6
CONTINUOUS
 62
     3
100
AcDbLine
 10
14.854387
 20
22.53652
 30
0.0
 11
14.865371
 21
22.53652
 31
0.0
  0
LINE
  5
63C
330
A
100
AcDbEntity
  8
TOP
  6
CONTINUOUS
 62
     3
100
AcDbLine
 10
20.759338
 20
31.15152
 30
0.0
 11
20.74654999999999
 21
31.15152
 31
0.0
  0
LINE
  5
63D
330
A
100
AcDbEntity
  8
TOP
  6
CONTINUOUS
 62
     3
100
AcDbLine
 10
38.255215
 20
13.211519
 30
0.0
 11
38.268002
 21
13.211519
 31
0.0
  0
LINE
  5
63E
330
A
100
AcDbEntity
  8
TOP
  6
CONTINUOUS
 62
     3
100
AcDbLine
 10
20.981037
 20
30.65152
 30
0.0
 11
20.960697
 21
30.65152
 31
0.0
  0
LINE
  5
63F
330
A
100
AcDbEntity
  8
TOP
  6
CONTINUOUS
 62
     3
100
AcDbLine
 10
4.905332999999999
 20
13.211519
 30
0.0
 11
4.892546
 21
13.211519
 31
0.0
  0
LINE
  5
640
330
A
100
AcDbEntity
  8
TOP
  6
CONTINUOUS
 62
     3
100
AcDbLine
 10
38.345722
 20
13.211519
 30
0.0
 11
38.378849
 21
13.211519
 31
0.0
  0
LINE
  5
641
330
A
100
AcDbEntity
  8
TOP
  6
CONTINUOUS
 62
     3
100
AcDbLine
 10
20.87019
 20
30.65152
 30
0.0
 11
20.837061
 21
30.65152
 31
0.0
  0
LINE
  5
642
330
A
100
AcDbEntity
  8
TOP
  6
CONTINUOUS
 62
     3
100
AcDbLine
 10
38.469357
 20
13.211519
 30
0.0
 11
38.4897
 21
13.211519
 31
0.0
  0
LINE
  5
643
330
A
100
AcDbEntity
  8
TOP
  6
CONTINUOUS
 62
     3
100
AcDbLine
 10
38.25085399999999
 20
31.59082
 30
0.0
 11
38.25085399999999
 21
31.71452
 31
0.0
  0
LINE
  5
644
330
A
100
AcDbEntity
  8
TOP
  6
CONTINUOUS
 62
     3
100
AcDbLine
 10
8.403055999999999
 20
3.664204999999999
 30
0.0
 11
8.452856
 21
3.664204999999999
 31
0.0
  0
LINE
  5
645
330
A
100
AcDbEntity
  8
TOP
  6
CONTINUOUS
 62
     3
100
AcDbLine
 10
4.888186
 20
32.191521
 30
0.0
 11
4.892547
 21
32.191521
 31
0.0
  0
LINE
  5
646
330
A
100
AcDbEntity
  8
TOP
  6
CONTINUOUS
 62
     3
100
AcDbLine
 10
38.255215
 20
30.131519
 30
0.0
 11
38.268002
 21
30.131519
 31
0.0
  0
LINE
  5
647
330
A
100
AcDbEntity
  8
TOP
  6
CONTINUOUS
 62
     3
100
AcDbLine
 10
20.981037
 20
32.191521
 30
0.0
 11
20.960697
 21
32.191521
 31
0.0
  0
LINE
  5
648
330
A
100
AcDbEntity
  8
TOP
  6
CONTINUOUS
 62
     3
100
AcDbLine
 10
4.951185999999999
 20
13.231516
 30
0.0
 11
4.951185999999999
 21
13.211517
 31
0.0
  0
LINE
  5
649
330
A
100
AcDbEntity
  8
TOP
  6
CONTINUOUS
 62
     3
100
AcDbLine
 10
38.345722
 20
30.131519
 30
0.0
 11
38.378849
 21
30.131519
 31
0.0
  0
LINE
  5
64A
330
A
100
AcDbEntity
  8
TOP
  6
CONTINUOUS
 62
     3
100
AcDbLine
 10
20.87019
 20
32.191521
 30
0.0
 11
20.837061
 21
32.191521
 31
0.0
  0
LINE
  5
64B
330
A
100
AcDbEntity
  8
TOP
  6
CONTINUOUS
 62
     3
100
AcDbLine
 10
38.411976
 20
30.131519
 30
0.0
 11
38.442848
 21
30.131519
 31
0.0
  0
LINE
  5
64C
330
A
100
AcDbEntity
  8
TOP
  6
CONTINUOUS
 62
     3
100
AcDbLine
 10
38.469357
 20
30.131519
 30
0.0
 11
38.4897
 21
30.131519
 31
0.0
  0
LINE
  5
64D
330
A
100
AcDbEntity
  8
TOP
  6
CONTINUOUS
 62
     3
100
AcDbLine
 10
20.759338
 20
32.191521
 30
0.0
 11
20.74654999999999
 21
32.191521
 31
0.0
  0
LINE
  5
64E
330
A
100
AcDbEntity
  8
TOP
  6
CONTINUOUS
 62
     3
100
AcDbLine
 10
16.699476
 20
21.84651899999999
 30
0.0
 11
16.699476
 21
22.53652
 31
0.0
  0
LINE
  5
64F
330
A
100
AcDbEntity
  8
TOP
  6
CONTINUOUS
 62
     3
100
AcDbLine
 10
38.255215
 20
30.631519
 30
0.0
 11
38.268002
 21
30.631519
 31
0.0
  0
LINE
  5
650
330
A
100
AcDbEntity
  8
TOP
  6
CONTINUOUS
 62
     3
100
AcDbLine
 10
20.981037
 20
31.691519
 30
0.0
 11
20.960697
 21
31.691519
 31
0.0
  0
LINE
  5
651
330
A
100
AcDbEntity
  8
TOP
  6
CONTINUOUS
 62
     3
100
AcDbLine
 10
20.805185
 20
31.17152
 30
0.0
 11
20.805185
 21
31.15152399999999
 31
0.0
  0
LINE
  5
652
330
A
100
AcDbEntity
  8
TOP
  6
CONTINUOUS
 62
     3
100
AcDbLine
 10
4.983054
 20
12.19151899999999
 30
0.0
 11
5.016180999999999
 21
12.19151899999999
 31
0.0
  0
LINE
  5
653
330
A
100
AcDbEntity
  8
TOP
  6
CONTINUOUS
 62
     3
100
AcDbLine
 10
20.935186
 20
30.63154
 30
0.0
 11
20.935186
 21
30.651539
 31
0.0
  0
LINE
  5
654
330
A
100
AcDbEntity
  8
TOP
  6
CONTINUOUS
 62
     3
100
AcDbLine
 10
38.345722
 20
30.631519
 30
0.0
 11
38.378849
 21
30.631519
 31
0.0
  0
LINE
  5
655
330
A
100
AcDbEntity
  8
TOP
  6
CONTINUOUS
 62
     3
100
AcDbLine
 10
20.87019
 20
31.691519
 30
0.0
 11
20.837061
 21
31.691519
 31
0.0
  0
LINE
  5
656
330
A
100
AcDbEntity
  8
TOP
  6
CONTINUOUS
 62
     3
100
AcDbLine
 10
20.935186
 20
31.67150499999999
 30
0.0
 11
20.935186
 21
31.69150399999999
 31
0.0
  0
LINE
  5
657
330
A
100
AcDbEntity
  8
TOP
  6
CONTINUOUS
 62
     3
100
AcDbLine
 10
20.77967999999999
 20
31.691519
 30
0.0
 11
20.759338
 21
31.691519
 31
0.0
  0
LINE
  5
658
330
A
100
AcDbEntity
  8
TOP
  6
CONTINUOUS
 62
     3
100
AcDbLine
 10
38.255215
 20
31.171518
 30
0.0
 11
38.268002
 21
31.171518
 31
0.0
  0
LINE
  5
659
330
A
100
AcDbEntity
  8
TOP
  6
CONTINUOUS
 62
     3
100
AcDbLine
 10
4.905333999999999
 20
12.19151899999999
 30
0.0
 11
4.925675
 21
12.19151899999999
 31
0.0
  0
LINE
  5
65A
330
A
100
AcDbEntity
  8
TOP
  6
CONTINUOUS
 62
     3
100
AcDbLine
 10
20.998186
 20
31.171518
 30
0.0
 11
20.998186
 21
31.671518
 31
0.0
  0
LINE
  5
65B
330
A
100
AcDbEntity
  8
TOP
  6
CONTINUOUS
 62
     3
100
AcDbLine
 10
16.428808
 20
22.685898
 30
0.0
 11
16.374044
 21
22.740662
 31
0.0
  0
LINE
  5
65C
330
A
100
AcDbEntity
  8
TOP
  6
CONTINUOUS
 62
     3
100
AcDbLine
 10
38.345722
 20
31.171518
 30
0.0
 11
38.378849
 21
31.171518
 31
0.0
  0
LINE
  5
65D
330
A
100
AcDbEntity
  8
TOP
  6
CONTINUOUS
 62
     3
100
AcDbLine
 10
5.016180999999999
 20
12.19151899999999
 30
0.0
 11
5.04931
 21
12.19151899999999
 31
0.0
  0
LINE
  5
65E
330
A
100
AcDbEntity
  8
TOP
  6
CONTINUOUS
 62
     3
100
AcDbLine
 10
6.966186
 20
31.71452
 30
0.0
 11
6.990924999999999
 21
31.702801
 31
0.0
  0
LINE
  5
65F
330
A
100
AcDbEntity
  8
TOP
  6
CONTINUOUS
 62
     3
100
AcDbLine
 10
5.139821999999999
 20
31.15152
 30
0.0
 11
5.144186
 21
31.15152
 31
0.0
  0
LINE
  5
660
330
A
100
AcDbEntity
  8
TOP
  6
CONTINUOUS
 62
     3
100
AcDbLine
 10
38.469357
 20
31.171518
 30
0.0
 11
38.4897
 21
31.171518
 31
0.0
  0
LINE
  5
661
330
A
100
AcDbEntity
  8
TOP
  6
CONTINUOUS
 62
     3
100
AcDbLine
 10
5.127034
 20
12.19151899999999
 30
0.0
 11
5.139821999999999
 21
12.19151899999999
 31
0.0
  0
LINE
  5
662
330
A
100
AcDbEntity
  8
TOP
  6
CONTINUOUS
 62
     3
100
AcDbLine
 10
20.759338
 20
31.691519
 30
0.0
 11
20.74654999999999
 21
31.691519
 31
0.0
  0
LINE
  5
663
330
A
100
AcDbEntity
  8
TOP
  6
CONTINUOUS
 62
     3
100
AcDbLine
 10
38.469357
 20
30.631519
 30
0.0
 11
38.4897
 21
30.631519
 31
0.0
  0
LINE
  5
664
330
A
100
AcDbEntity
  8
TOP
  6
CONTINUOUS
 62
     3
100
AcDbLine
 10
4.956185999999999
 20
5.594204999999999
 30
0.0
 11
4.956185999999999
 21
2.444205
 31
0.0
  0
ARC
  5
665
330
A
100
AcDbEntity
  8
TOP
  6
CONTINUOUS
 62
     3
100
AcDbCircle
 10
6.643186
 20
3.553704999999999
 30
0.0
 40
0.6315
100
AcDbArc
 50
352.057178
 51
404.093387
  0
ARC
  5
666
330
A
100
AcDbEntity
  8
TOP
  6
CONTINUOUS
 62
     3
100
AcDbCircle
 10
38.343853
 20
32.221519
 30
0.0
 40
0.093
100
AcDbArc
 50
90.0
 51
180.0
  0
ARC
  5
667
330
A
100
AcDbEntity
  8
TOP
  6
CONTINUOUS
 62
     3
100
AcDbCircle
 10
38.44085299999999
 20
14.43152
 30
0.0
 40
0.06
100
AcDbArc
 50
270.0
 51
360.0
  0
ARC
  5
668
330
A
100
AcDbEntity
  8
TOP
  6
CONTINUOUS
 62
     3
100
AcDbCircle
 10
20.780186
 20
5.654205
 30
0.0
 40
0.06
100
AcDbArc
 50
180.0
 51
270.0
  0
ARC
  5
669
330
A
100
AcDbEntity
  8
TOP
  6
CONTINUOUS
 62
     3
100
AcDbCircle
 10
19.243185
 20
3.677204999999999
 30
0.0
 40
0.7400000000000001
100
AcDbArc
 50
0.0
 51
24.799518
  0
ARC
  5
66A
330
A
100
AcDbEntity
  8
TOP
  6
CONTINUOUS
 62
     3
100
AcDbCircle
 10
19.896788
 20
3.979204999999999
 30
0.0
 40
0.02
100
AcDbArc
 50
24.799519
 51
90.0
  0
ARC
  5
66B
330
A
100
AcDbEntity
  8
TOP
  6
CONTINUOUS
 62
     3
100
AcDbCircle
 10
6.643186
 20
3.617204999999999
 30
0.0
 40
0.7450000000000001
100
AcDbArc
 50
180.0
 51
360.0
  0
ARC
  5
66C
330
A
100
AcDbEntity
  8
TOP
  6
CONTINUOUS
 62
     3
100
AcDbCircle
 10
6.643186
 20
3.617204999999999
 30
0.0
 40
0.99
100
AcDbArc
 50
180.0
 51
360.0
  0
ARC
  5
66D
330
A
100
AcDbEntity
  8
TOP
  6
CONTINUOUS
 62
     3
100
AcDbCircle
 10
6.688185999999999
 20
4.485954
 30
0.0
 40
0.02
100
AcDbArc
 50
180.0
 51
266.815261
  0
ARC
  5
66E
330
A
100
AcDbEntity
  8
TOP
  6
CONTINUOUS
 62
     3
100
AcDbCircle
 10
6.643186
 20
3.553704999999999
 30
0.0
 40
0.6815
100
AcDbArc
 50
47.294871
 51
86.322051
  0
ARC
  5
66F
330
A
100
AcDbEntity
  8
TOP
  6
CONTINUOUS
 62
     3
100
AcDbCircle
 10
6.643186
 20
3.677204999999999
 30
0.0
 40
0.7400000000000001
100
AcDbArc
 50
32.986707
 51
86.416678
  0
ARC
  5
670
330
A
100
AcDbEntity
  8
TOP
  6
CONTINUOUS
 62
     3
100
AcDbCircle
 10
6.643186
 20
3.553704999999999
 30
0.0
 40
0.6815
100
AcDbArc
 50
353.08157
 51
397.340993
  0
ARC
  5
671
330
A
100
AcDbEntity
  8
TOP
  6
CONTINUOUS
 62
     3
100
AcDbCircle
 10
7.200905999999999
 20
3.979204999999999
 30
0.0
 40
0.02
100
AcDbArc
 50
90.0
 51
217.340992
  0
ARC
  5
672
330
A
100
AcDbEntity
  8
TOP
  6
CONTINUOUS
 62
     3
100
AcDbCircle
 10
5.928186
 20
5.364205
 30
0.0
 40
0.03
100
AcDbArc
 50
90.0
 51
180.0
  0
ARC
  5
673
330
A
100
AcDbEntity
  8
TOP
  6
CONTINUOUS
 62
     3
100
AcDbCircle
 10
7.358185999999999
 20
5.312204999999999
 30
0.0
 40
0.03
100
AcDbArc
 50
270.0
 51
360.0
  0
ARC
  5
674
330
A
100
AcDbEntity
  8
TOP
  6
CONTINUOUS
 62
     3
100
AcDbCircle
 10
5.673186
 20
5.457205
 30
0.0
 40
0.02
100
AcDbArc
 50
90.0
 51
180.0
  0
ARC
  5
675
330
A
100
AcDbEntity
  8
TOP
  6
CONTINUOUS
 62
     3
100
AcDbCircle
 10
7.229258999999999
 20
3.379204999999999
 30
0.0
 40
0.02
100
AcDbArc
 50
343.419401
 51
450.0
  0
ARC
  5
676
330
A
100
AcDbEntity
  8
TOP
  6
CONTINUOUS
 62
     3
100
AcDbCircle
 10
6.688185999999999
 20
2.943862999999999
 30
0.0
 40
0.02
100
AcDbArc
 50
180.0
 51
274.220185
  0
ARC
  5
677
330
A
100
AcDbEntity
  8
TOP
  6
CONTINUOUS
 62
     3
100
AcDbCircle
 10
6.972110999999999
 20
4.069205
 30
0.0
 40
0.02
100
AcDbArc
 50
270.0
 51
417.459239
  0
ARC
  5
678
330
A
100
AcDbEntity
  8
TOP
  6
CONTINUOUS
 62
     3
100
AcDbCircle
 10
7.082368999999999
 20
3.979204999999999
 30
0.0
 40
0.02
100
AcDbArc
 50
44.093389
 51
90.0
  0
ARC
  5
679
330
A
100
AcDbEntity
  8
TOP
  6
CONTINUOUS
 62
     3
100
AcDbCircle
 10
6.688185999999999
 20
3.469205
 30
0.0
 40
0.02
100
AcDbArc
 50
180.0
 51
270.0
  0
ARC
  5
67A
330
A
100
AcDbEntity
  8
TOP
  6
CONTINUOUS
 62
     3
100
AcDbCircle
 10
5.928186
 20
5.312204999999999
 30
0.0
 40
0.004237
100
AcDbArc
 50
180.0
 51
270.0
  0
ARC
  5
67B
330
A
100
AcDbEntity
  8
TOP
  6
CONTINUOUS
 62
     3
100
AcDbCircle
 10
7.358185999999999
 20
5.364205
 30
0.0
 40
0.004237
100
AcDbArc
 50
0.0
 51
90.0
  0
ARC
  5
67C
330
A
100
AcDbEntity
  8
TOP
  6
CONTINUOUS
 62
     3
100
AcDbCircle
 10
7.358185999999999
 20
5.364205
 30
0.0
 40
0.024161
100
AcDbArc
 50
0.0
 51
90.0
  0
ARC
  5
67D
330
A
100
AcDbEntity
  8
TOP
  6
CONTINUOUS
 62
     3
100
AcDbCircle
 10
6.598186
 20
2.943862999999999
 30
0.0
 40
0.02
100
AcDbArc
 50
265.779815
 51
360.0
  0
ARC
  5
67E
330
A
100
AcDbEntity
  8
TOP
  6
CONTINUOUS
 62
     3
100
AcDbCircle
 10
6.057113
 20
3.379204999999999
 30
0.0
 40
0.02
100
AcDbArc
 50
90.0
 51
196.580599
  0
ARC
  5
67F
330
A
100
AcDbEntity
  8
TOP
  6
CONTINUOUS
 62
     3
100
AcDbCircle
 10
6.314259999999999
 20
4.069205
 30
0.0
 40
0.02
100
AcDbArc
 50
122.540761
 51
270.0
  0
ARC
  5
680
330
A
100
AcDbEntity
  8
TOP
  6
CONTINUOUS
 62
     3
100
AcDbCircle
 10
6.037551999999999
 20
3.469205
 30
0.0
 40
0.02
100
AcDbArc
 50
187.942822
 51
270.0
  0
ARC
  5
681
330
A
100
AcDbEntity
  8
TOP
  6
CONTINUOUS
 62
     3
100
AcDbCircle
 10
6.598186
 20
3.979204999999999
 30
0.0
 40
0.02
100
AcDbArc
 50
0.0
 51
90.0
  0
ARC
  5
682
330
A
100
AcDbEntity
  8
TOP
  6
CONTINUOUS
 62
     3
100
AcDbCircle
 10
19.243185
 20
3.617204999999999
 30
0.0
 40
0.7450000000000001
100
AcDbArc
 50
180.0
 51
360.0
  0
ARC
  5
683
330
A
100
AcDbEntity
  8
TOP
  6
CONTINUOUS
 62
     3
100
AcDbCircle
 10
19.243185
 20
3.617204999999999
 30
0.0
 40
0.99
100
AcDbArc
 50
180.0
 51
360.0
  0
ARC
  5
684
330
A
100
AcDbEntity
  8
TOP
  6
CONTINUOUS
 62
     3
100
AcDbCircle
 10
19.28818499999999
 20
4.485954
 30
0.0
 40
0.02
100
AcDbArc
 50
180.0
 51
266.815261
  0
ARC
  5
685
330
A
100
AcDbEntity
  8
TOP
  6
CONTINUOUS
 62
     3
100
AcDbCircle
 10
19.19818499999999
 20
3.469205
 30
0.0
 40
0.02
100
AcDbArc
 50
270.0
 51
360.0
  0
ARC
  5
686
330
A
100
AcDbEntity
  8
TOP
  6
CONTINUOUS
 62
     3
100
AcDbCircle
 10
19.243185
 20
3.553704999999999
 30
0.0
 40
0.6815
100
AcDbArc
 50
47.294871
 51
86.322051
  0
ARC
  5
687
330
A
100
AcDbEntity
  8
TOP
  6
CONTINUOUS
 62
     3
100
AcDbCircle
 10
19.243185
 20
3.677204999999999
 30
0.0
 40
0.7400000000000001
100
AcDbArc
 50
32.986707
 51
86.416678
  0
ARC
  5
688
330
A
100
AcDbEntity
  8
TOP
  6
CONTINUOUS
 62
     3
100
AcDbCircle
 10
19.243185
 20
3.553704999999999
 30
0.0
 40
0.6815
100
AcDbArc
 50
353.08157
 51
397.340993
  0
ARC
  5
689
330
A
100
AcDbEntity
  8
TOP
  6
CONTINUOUS
 62
     3
100
AcDbCircle
 10
19.80090699999999
 20
3.979204999999999
 30
0.0
 40
0.02
100
AcDbArc
 50
90.0
 51
217.340992
  0
ARC
  5
68A
330
A
100
AcDbEntity
  8
TOP
  6
CONTINUOUS
 62
     3
100
AcDbCircle
 10
18.528185
 20
5.364205
 30
0.0
 40
0.03
100
AcDbArc
 50
90.0
 51
180.0
  0
ARC
  5
68B
330
A
100
AcDbEntity
  8
TOP
  6
CONTINUOUS
 62
     3
100
AcDbCircle
 10
19.958185
 20
5.312204999999999
 30
0.0
 40
0.03
100
AcDbArc
 50
270.0
 51
360.0
  0
ARC
  5
68C
330
A
100
AcDbEntity
  8
TOP
  6
CONTINUOUS
 62
     3
100
AcDbCircle
 10
18.27318599999999
 20
5.457205
 30
0.0
 40
0.02
100
AcDbArc
 50
90.0
 51
180.0
  0
ARC
  5
68D
330
A
100
AcDbEntity
  8
TOP
  6
CONTINUOUS
 62
     3
100
AcDbCircle
 10
19.82926
 20
3.379204999999999
 30
0.0
 40
0.02
100
AcDbArc
 50
343.419401
 51
450.0
  0
ARC
  5
68E
330
A
100
AcDbEntity
  8
TOP
  6
CONTINUOUS
 62
     3
100
AcDbCircle
 10
19.28818499999999
 20
2.943862999999999
 30
0.0
 40
0.02
100
AcDbArc
 50
180.0
 51
274.220185
  0
ARC
  5
68F
330
A
100
AcDbEntity
  8
TOP
  6
CONTINUOUS
 62
     3
100
AcDbCircle
 10
19.572111
 20
4.069205
 30
0.0
 40
0.02
100
AcDbArc
 50
270.0
 51
417.459239
  0
ARC
  5
690
330
A
100
AcDbEntity
  8
TOP
  6
CONTINUOUS
 62
     3
100
AcDbCircle
 10
20.84318499999999
 20
14.31151999999999
 30
0.0
 40
0.06
100
AcDbArc
 50
90.0
 51
270.0
  0
ARC
  5
691
330
A
100
AcDbEntity
  8
TOP
  6
CONTINUOUS
 62
     3
100
AcDbCircle
 10
19.28818499999999
 20
3.469205
 30
0.0
 40
0.02
100
AcDbArc
 50
180.0
 51
270.0
  0
ARC
  5
692
330
A
100
AcDbEntity
  8
TOP
  6
CONTINUOUS
 62
     3
100
AcDbCircle
 10
18.528185
 20
5.312204999999999
 30
0.0
 40
0.004237
100
AcDbArc
 50
180.0
 51
270.0
  0
ARC
  5
693
330
A
100
AcDbEntity
  8
TOP
  6
CONTINUOUS
 62
     3
100
AcDbCircle
 10
19.958185
 20
5.364205
 30
0.0
 40
0.004237
100
AcDbArc
 50
0.0
 51
90.0
  0
ARC
  5
694
330
A
100
AcDbEntity
  8
TOP
  6
CONTINUOUS
 62
     3
100
AcDbCircle
 10
19.958185
 20
5.364205
 30
0.0
 40
0.024161
100
AcDbArc
 50
0.0
 51
90.0
  0
ARC
  5
695
330
A
100
AcDbEntity
  8
TOP
  6
CONTINUOUS
 62
     3
100
AcDbCircle
 10
19.19818499999999
 20
2.943862999999999
 30
0.0
 40
0.02
100
AcDbArc
 50
265.779815
 51
360.0
  0
ARC
  5
696
330
A
100
AcDbEntity
  8
TOP
  6
CONTINUOUS
 62
     3
100
AcDbCircle
 10
18.657112
 20
3.379204999999999
 30
0.0
 40
0.02
100
AcDbArc
 50
90.0
 51
196.580599
  0
ARC
  5
697
330
A
100
AcDbEntity
  8
TOP
  6
CONTINUOUS
 62
     3
100
AcDbCircle
 10
18.914261
 20
4.069205
 30
0.0
 40
0.02
100
AcDbArc
 50
122.540761
 51
270.0
  0
ARC
  5
698
330
A
100
AcDbEntity
  8
TOP
  6
CONTINUOUS
 62
     3
100
AcDbCircle
 10
18.63755199999999
 20
3.469205
 30
0.0
 40
0.02
100
AcDbArc
 50
187.942822
 51
270.0
  0
ARC
  5
699
330
A
100
AcDbEntity
  8
TOP
  6
CONTINUOUS
 62
     3
100
AcDbCircle
 10
19.19818499999999
 20
3.979204999999999
 30
0.0
 40
0.02
100
AcDbArc
 50
0.0
 51
90.0
  0
ARC
  5
69A
330
A
100
AcDbEntity
  8
TOP
  6
CONTINUOUS
 62
     3
100
AcDbCircle
 10
14.731186
 20
31.531519
 30
0.0
 40
0.375
100
AcDbArc
 50
29.926436
 51
150.073564
  0
ARC
  5
69B
330
A
100
AcDbEntity
  8
TOP
  6
CONTINUOUS
 62
     3
100
AcDbCircle
 10
5.043186
 20
30.07152
 30
0.0
 40
0.06
100
AcDbArc
 50
270.0
 51
450.0
  0
ARC
  5
69C
330
A
100
AcDbEntity
  8
TOP
  6
CONTINUOUS
 62
     3
100
AcDbCircle
 10
8.453186
 20
3.917205
 30
0.0
 40
0.05
100
AcDbArc
 50
0.0
 51
180.0
  0
ARC
  5
69D
330
A
100
AcDbEntity
  8
TOP
  6
CONTINUOUS
 62
     3
100
AcDbCircle
 10
19.473186
 20
2.657204999999999
 30
0.0
 40
0.02
100
AcDbArc
 50
0.0
 51
5.90625
  0
ARC
  5
69E
330
A
100
AcDbEntity
  8
TOP
  6
CONTINUOUS
 62
     3
100
AcDbCircle
 10
19.243185
 20
3.553704999999999
 30
0.0
 40
0.6815
100
AcDbArc
 50
142.659007
 51
186.91843
  0
ARC
  5
69F
330
A
100
AcDbEntity
  8
TOP
  6
CONTINUOUS
 62
     3
100
AcDbCircle
 10
19.013186
 20
2.497205
 30
0.0
 40
0.02
100
AcDbArc
 50
180.0
 51
270.0
  0
ARC
  5
6A0
330
A
100
AcDbEntity
  8
TOP
  6
CONTINUOUS
 62
     3
100
AcDbCircle
 10
5.106186
 20
5.654205
 30
0.0
 40
0.06
100
AcDbArc
 50
270.0
 51
360.0
  0
ARC
  5
6A1
330
A
100
AcDbEntity
  8
TOP
  6
CONTINUOUS
 62
     3
100
AcDbCircle
 10
4.981186
 20
2.444205
 30
0.0
 40
0.03
100
AcDbArc
 50
180.0
 51
270.0
  0
ARC
  5
6A2
330
A
100
AcDbEntity
  8
TOP
  6
CONTINUOUS
 62
     3
100
AcDbCircle
 10
20.87018599999999
 20
5.744205
 30
0.0
 40
0.065
100
AcDbArc
 50
0.0
 51
280.0
  0
ARC
  5
6A3
330
A
100
AcDbEntity
  8
TOP
  6
CONTINUOUS
 62
     3
100
AcDbCircle
 10
7.358185999999999
 20
5.312204999999999
 30
0.0
 40
0.024161
100
AcDbArc
 50
270.0
 51
360.0
  0
ARC
  5
6A4
330
A
100
AcDbEntity
  8
TOP
  6
CONTINUOUS
 62
     3
100
AcDbCircle
 10
16.035187
 20
5.642204999999999
 30
0.0
 40
0.13
100
AcDbArc
 50
180.0
 51
270.0
  0
CIRCLE
  5
6A5
330
A
100
AcDbEntity
  8
TOP
  6
CONTINUOUS
 62
     3
100
AcDbCircle
 10
20.87018599999999
 20
5.744205
 30
0.0
 40
0.045
  0
ARC
  5
6A6
330
A
100
AcDbEntity
  8
TOP
  6
CONTINUOUS
 62
     3
100
AcDbCircle
 10
5.016186
 20
5.744205
 30
0.0
 40
0.128
100
AcDbArc
 50
239.480625
 51
259.9993749999999
  0
ARC
  5
6A7
330
A
100
AcDbEntity
  8
TOP
  6
CONTINUOUS
 62
     3
100
AcDbCircle
 10
41.67885199999999
 20
12.284519
 30
0.0
 40
0.03
100
AcDbArc
 50
270.0
 51
360.0
  0
ARC
  5
6A8
330
A
100
AcDbEntity
  8
TOP
  6
CONTINUOUS
 62
     3
100
AcDbCircle
 10
38.343853
 20
32.221519
 30
0.0
 40
0.03
100
AcDbArc
 50
90.0
 51
180.0
  0
ARC
  5
6A9
330
A
100
AcDbEntity
  8
TOP
  6
CONTINUOUS
 62
     3
100
AcDbCircle
 10
7.118960999999999
 20
4.069205
 30
0.0
 40
0.02
100
AcDbArc
 50
227.29487
 51
270.0
  0
ARC
  5
6AA
330
A
100
AcDbEntity
  8
TOP
  6
CONTINUOUS
 62
     3
100
AcDbCircle
 10
6.688185999999999
 20
4.395796999999999
 30
0.0
 40
0.02
100
AcDbArc
 50
86.416678
 51
180.0
  0
ARC
  5
6AB
330
A
100
AcDbEntity
  8
TOP
  6
CONTINUOUS
 62
     3
100
AcDbCircle
 10
7.339578
 20
3.469205
 30
0.0
 40
0.02
100
AcDbArc
 50
173.0815699999999
 51
270.0
  0
ARC
  5
6AC
330
A
100
AcDbEntity
  8
TOP
  6
CONTINUOUS
 62
     3
100
AcDbCircle
 10
6.643186
 20
3.677204999999999
 30
0.0
 40
0.7900000000000001
100
AcDbArc
 50
0.0
 51
19.431831
  0
ARC
  5
6AD
330
A
100
AcDbEntity
  8
TOP
  6
CONTINUOUS
 62
     3
100
AcDbCircle
 10
6.643186
 20
3.553704999999999
 30
0.0
 40
0.6315
100
AcDbArc
 50
57.45924099999999
 51
85.77981499999999
  0
ARC
  5
6AE
330
A
100
AcDbEntity
  8
TOP
  6
CONTINUOUS
 62
     3
100
AcDbCircle
 10
6.688185999999999
 20
4.669204999999999
 30
0.0
 40
0.02
100
AcDbArc
 50
180.0
 51
270.0
  0
ARC
  5
6AF
330
A
100
AcDbEntity
  8
TOP
  6
CONTINUOUS
 62
     3
100
AcDbCircle
 10
5.934358999999999
 20
4.069205
 30
0.0
 40
0.02
100
AcDbArc
 50
270.0
 51
331.056257
  0
ARC
  5
6B0
330
A
100
AcDbEntity
  8
TOP
  6
CONTINUOUS
 62
     3
100
AcDbCircle
 10
6.598186
 20
4.395796999999999
 30
0.0
 40
0.02
100
AcDbArc
 50
0.0
 51
93.58332199999999
  0
ARC
  5
6B1
330
A
100
AcDbEntity
  8
TOP
  6
CONTINUOUS
 62
     3
100
AcDbCircle
 10
6.167411
 20
4.069205
 30
0.0
 40
0.02
100
AcDbArc
 50
270.0
 51
312.70513
  0
ARC
  5
6B2
330
A
100
AcDbEntity
  8
TOP
  6
CONTINUOUS
 62
     3
100
AcDbCircle
 10
5.989582999999999
 20
3.979204999999999
 30
0.0
 40
0.02
100
AcDbArc
 50
90.0
 51
155.2004809999999
  0
ARC
  5
6B3
330
A
100
AcDbEntity
  8
TOP
  6
CONTINUOUS
 62
     3
100
AcDbCircle
 10
6.598186
 20
4.669204999999999
 30
0.0
 40
0.02
100
AcDbArc
 50
270.0
 51
360.0
  0
ARC
  5
6B4
330
A
100
AcDbEntity
  8
TOP
  6
CONTINUOUS
 62
     3
100
AcDbCircle
 10
19.718962
 20
4.069205
 30
0.0
 40
0.02
100
AcDbArc
 50
227.29487
 51
270.0
  0
ARC
  5
6B5
330
A
100
AcDbEntity
  8
TOP
  6
CONTINUOUS
 62
     3
100
AcDbCircle
 10
19.28818499999999
 20
4.395796999999999
 30
0.0
 40
0.02
100
AcDbArc
 50
86.416678
 51
180.0
  0
ARC
  5
6B6
330
A
100
AcDbEntity
  8
TOP
  6
CONTINUOUS
 62
     3
100
AcDbCircle
 10
17.01518599999999
 20
31.531519
 30
0.0
 40
0.375
100
AcDbArc
 50
209.9264359999999
 51
330.0735639999999
  0
ARC
  5
6B7
330
A
100
AcDbEntity
  8
TOP
  6
CONTINUOUS
 62
     3
100
AcDbCircle
 10
18.528185
 20
5.169204999999999
 30
0.0
 40
0.03
100
AcDbArc
 50
90.0
 51
180.0
  0
ARC
  5
6B8
330
A
100
AcDbEntity
  8
TOP
  6
CONTINUOUS
 62
     3
100
AcDbCircle
 10
19.243185
 20
3.677204999999999
 30
0.0
 40
0.7900000000000001
100
AcDbArc
 50
0.0
 51
19.431831
  0
ARC
  5
6B9
330
A
100
AcDbEntity
  8
TOP
  6
CONTINUOUS
 62
     3
100
AcDbCircle
 10
20.84318499999999
 20
30.07152
 30
0.0
 40
0.06
100
AcDbArc
 50
90.0
 51
270.0
  0
ARC
  5
6BA
330
A
100
AcDbEntity
  8
TOP
  6
CONTINUOUS
 62
     3
100
AcDbCircle
 10
19.243185
 20
3.553704999999999
 30
0.0
 40
0.6315
100
AcDbArc
 50
57.45924099999999
 51
85.77981499999999
  0
ARC
  5
6BB
330
A
100
AcDbEntity
  8
TOP
  6
CONTINUOUS
 62
     3
100
AcDbCircle
 10
19.28818499999999
 20
4.669204999999999
 30
0.0
 40
0.02
100
AcDbArc
 50
180.0
 51
270.0
  0
ARC
  5
6BC
330
A
100
AcDbEntity
  8
TOP
  6
CONTINUOUS
 62
     3
100
AcDbCircle
 10
19.958185
 20
5.312204999999999
 30
0.0
 40
0.024161
100
AcDbArc
 50
270.0
 51
360.0
  0
ARC
  5
6BD
330
A
100
AcDbEntity
  8
TOP
  6
CONTINUOUS
 62
     3
100
AcDbCircle
 10
18.534359
 20
4.069205
 30
0.0
 40
0.02
100
AcDbArc
 50
270.0
 51
331.056257
  0
ARC
  5
6BE
330
A
100
AcDbEntity
  8
TOP
  6
CONTINUOUS
 62
     3
100
AcDbCircle
 10
19.19818499999999
 20
4.579204999999999
 30
0.0
 40
0.02
100
AcDbArc
 50
0.0
 51
90.0
  0
ARC
  5
6BF
330
A
100
AcDbEntity
  8
TOP
  6
CONTINUOUS
 62
     3
100
AcDbCircle
 10
19.19818499999999
 20
4.395796999999999
 30
0.0
 40
0.02
100
AcDbArc
 50
0.0
 51
93.58332199999999
  0
ARC
  5
6C0
330
A
100
AcDbEntity
  8
TOP
  6
CONTINUOUS
 62
     3
100
AcDbCircle
 10
18.76741
 20
4.069205
 30
0.0
 40
0.02
100
AcDbArc
 50
270.0
 51
312.70513
  0
ARC
  5
6C1
330
A
100
AcDbEntity
  8
TOP
  6
CONTINUOUS
 62
     3
100
AcDbCircle
 10
18.58958399999999
 20
3.979204999999999
 30
0.0
 40
0.02
100
AcDbArc
 50
90.0
 51
155.2004809999999
  0
ARC
  5
6C2
330
A
100
AcDbEntity
  8
TOP
  6
CONTINUOUS
 62
     3
100
AcDbCircle
 10
14.731186
 20
31.531519
 30
0.0
 40
0.375
100
AcDbArc
 50
209.9264359999999
 51
330.0735639999999
  0
ARC
  5
6C3
330
A
100
AcDbEntity
  8
TOP
  6
CONTINUOUS
 62
     3
100
AcDbCircle
 10
19.19818499999999
 20
4.669204999999999
 30
0.0
 40
0.02
100
AcDbArc
 50
270.0
 51
360.0
  0
ARC
  5
6C4
330
A
100
AcDbEntity
  8
TOP
  6
CONTINUOUS
 62
     3
100
AcDbCircle
 10
6.598186
 20
4.579204999999999
 30
0.0
 40
0.02
100
AcDbArc
 50
0.0
 51
90.0
  0
ARC
  5
6C5
330
A
100
AcDbEntity
  8
TOP
  6
CONTINUOUS
 62
     3
100
AcDbCircle
 10
19.682369
 20
3.979204999999999
 30
0.0
 40
0.02
100
AcDbArc
 50
44.093389
 51
90.0
  0
ARC
  5
6C6
330
A
100
AcDbEntity
  8
TOP
  6
CONTINUOUS
 62
     3
100
AcDbCircle
 10
17.433186
 20
3.317204999999999
 30
0.0
 40
0.05
100
AcDbArc
 50
180.0
 51
360.0
  0
ARC
  5
6C7
330
A
100
AcDbEntity
  8
TOP
  6
CONTINUOUS
 62
     3
100
AcDbCircle
 10
6.873185999999999
 20
2.497205
 30
0.0
 40
0.02
100
AcDbArc
 50
270.0
 51
360.0
  0
ARC
  5
6C8
330
A
100
AcDbEntity
  8
TOP
  6
CONTINUOUS
 62
     3
100
AcDbCircle
 10
6.413185999999999
 20
2.657204999999999
 30
0.0
 40
0.02
100
AcDbArc
 50
174.09375
 51
180.0
  0
ARC
  5
6C9
330
A
100
AcDbEntity
  8
TOP
  6
CONTINUOUS
 62
     3
100
AcDbCircle
 10
4.981186
 20
2.444205
 30
0.0
 40
0.093
100
AcDbArc
 50
180.0
 51
270.0
  0
ARC
  5
6CA
330
A
100
AcDbEntity
  8
TOP
  6
CONTINUOUS
 62
     3
100
AcDbCircle
 10
5.016186
 20
5.744205
 30
0.0
 40
0.065
100
AcDbArc
 50
260.0
 51
540.0
  0
ARC
  5
6CB
330
A
100
AcDbEntity
  8
TOP
  6
CONTINUOUS
 62
     3
100
AcDbCircle
 10
19.19818499999999
 20
4.163547
 30
0.0
 40
0.02
100
AcDbArc
 50
0.0
 51
94.220185
  0
ARC
  5
6CC
330
A
100
AcDbEntity
  8
TOP
  6
CONTINUOUS
 62
     3
100
AcDbCircle
 10
15.711185
 20
5.642204999999999
 30
0.0
 40
0.13
100
AcDbArc
 50
270.0
 51
360.0
  0
CIRCLE
  5
6CD
330
A
100
AcDbEntity
  8
TOP
  6
CONTINUOUS
 62
     3
100
AcDbCircle
 10
5.016186
 20
5.744205
 30
0.0
 40
0.045
  0
ARC
  5
6CE
330
A
100
AcDbEntity
  8
TOP
  6
CONTINUOUS
 62
     3
100
AcDbCircle
 10
17.01518599999999
 20
31.531519
 30
0.0
 40
0.375
100
AcDbArc
 50
29.926436
 51
150.073564
  0
ARC
  5
6CF
330
A
100
AcDbEntity
  8
TOP
  6
CONTINUOUS
 62
     3
100
AcDbCircle
 10
19.243185
 20
3.677204999999999
 30
0.0
 40
0.7900000000000001
100
AcDbArc
 50
28.943743
 51
86.81526100000001
  0
ARC
  5
6D0
330
A
100
AcDbEntity
  8
TOP
  6
CONTINUOUS
 62
     3
100
AcDbCircle
 10
38.343853
 20
12.161519
 30
0.0
 40
0.03
100
AcDbArc
 50
180.0
 51
270.0
  0
ARC
  5
6D1
330
A
100
AcDbEntity
  8
TOP
  6
CONTINUOUS
 62
     3
100
AcDbCircle
 10
38.343853
 20
12.161519
 30
0.0
 40
0.093
100
AcDbArc
 50
180.0
 51
270.0
  0
ARC
  5
6D2
330
A
100
AcDbEntity
  8
TOP
  6
CONTINUOUS
 62
     3
100
AcDbCircle
 10
6.688185999999999
 20
4.579204999999999
 30
0.0
 40
0.02
100
AcDbArc
 50
90.0
 51
180.0
  0
ARC
  5
6D3
330
A
100
AcDbEntity
  8
TOP
  6
CONTINUOUS
 62
     3
100
AcDbCircle
 10
7.352013
 20
4.069205
 30
0.0
 40
0.02
100
AcDbArc
 50
208.943743
 51
270.0
  0
ARC
  5
6D4
330
A
100
AcDbEntity
  8
TOP
  6
CONTINUOUS
 62
     3
100
AcDbCircle
 10
7.296788
 20
3.979204999999999
 30
0.0
 40
0.02
100
AcDbArc
 50
24.799519
 51
90.0
  0
ARC
  5
6D5
330
A
100
AcDbEntity
  8
TOP
  6
CONTINUOUS
 62
     3
100
AcDbCircle
 10
5.928186
 20
5.312204999999999
 30
0.0
 40
0.03
100
AcDbArc
 50
180.0
 51
270.0
  0
ARC
  5
6D6
330
A
100
AcDbEntity
  8
TOP
  6
CONTINUOUS
 62
     3
100
AcDbCircle
 10
7.358185999999999
 20
5.364205
 30
0.0
 40
0.03
100
AcDbArc
 50
0.0
 51
90.0
  0
ARC
  5
6D7
330
A
100
AcDbEntity
  8
TOP
  6
CONTINUOUS
 62
     3
100
AcDbCircle
 10
7.613185999999999
 20
5.457205
 30
0.0
 40
0.02
100
AcDbArc
 50
0.0
 51
90.0
  0
ARC
  5
6D8
330
A
100
AcDbEntity
  8
TOP
  6
CONTINUOUS
 62
     3
100
AcDbCircle
 10
6.688185999999999
 20
3.379204999999999
 30
0.0
 40
0.02
100
AcDbArc
 50
90.0
 51
180.0
  0
ARC
  5
6D9
330
A
100
AcDbEntity
  8
TOP
  6
CONTINUOUS
 62
     3
100
AcDbCircle
 10
6.688185999999999
 20
4.069205
 30
0.0
 40
0.02
100
AcDbArc
 50
180.0
 51
270.0
  0
ARC
  5
6DA
330
A
100
AcDbEntity
  8
TOP
  6
CONTINUOUS
 62
     3
100
AcDbCircle
 10
6.688185999999999
 20
4.163547
 30
0.0
 40
0.02
100
AcDbArc
 50
85.77981499999999
 51
180.0
  0
ARC
  5
6DB
330
A
100
AcDbEntity
  8
TOP
  6
CONTINUOUS
 62
     3
100
AcDbCircle
 10
6.688185999999999
 20
3.979204999999999
 30
0.0
 40
0.02
100
AcDbArc
 50
90.0
 51
180.0
  0
ARC
  5
6DC
330
A
100
AcDbEntity
  8
TOP
  6
CONTINUOUS
 62
     3
100
AcDbCircle
 10
7.248819
 20
3.469205
 30
0.0
 40
0.02
100
AcDbArc
 50
270.0
 51
352.057178
  0
ARC
  5
6DD
330
A
100
AcDbEntity
  8
TOP
  6
CONTINUOUS
 62
     3
100
AcDbCircle
 10
5.928186
 20
5.364205
 30
0.0
 40
0.004237
100
AcDbArc
 50
90.0
 51
180.0
  0
ARC
  5
6DE
330
A
100
AcDbEntity
  8
TOP
  6
CONTINUOUS
 62
     3
100
AcDbCircle
 10
7.358185999999999
 20
5.312204999999999
 30
0.0
 40
0.004237
100
AcDbArc
 50
270.0
 51
360.0
  0
ARC
  5
6DF
330
A
100
AcDbEntity
  8
TOP
  6
CONTINUOUS
 62
     3
100
AcDbCircle
 10
6.643186
 20
3.677204999999999
 30
0.0
 40
0.7900000000000001
100
AcDbArc
 50
93.18473899999998
 51
151.0562569999999
  0
ARC
  5
6E0
330
A
100
AcDbEntity
  8
TOP
  6
CONTINUOUS
 62
     3
100
AcDbCircle
 10
6.643186
 20
3.553704999999999
 30
0.0
 40
0.6815
100
AcDbArc
 50
93.67794899999999
 51
132.7051289999999
  0
ARC
  5
6E1
330
A
100
AcDbEntity
  8
TOP
  6
CONTINUOUS
 62
     3
100
AcDbCircle
 10
6.643186
 20
3.677204999999999
 30
0.0
 40
0.7400000000000001
100
AcDbArc
 50
93.58332199999999
 51
147.013293
  0
ARC
  5
6E2
330
A
100
AcDbEntity
  8
TOP
  6
CONTINUOUS
 62
     3
100
AcDbCircle
 10
6.643186
 20
3.553704999999999
 30
0.0
 40
0.6815
100
AcDbArc
 50
142.659007
 51
186.91843
  0
ARC
  5
6E3
330
A
100
AcDbEntity
  8
TOP
  6
CONTINUOUS
 62
     3
100
AcDbCircle
 10
6.643186
 20
3.677204999999999
 30
0.0
 40
0.7400000000000001
100
AcDbArc
 50
155.200482
 51
180.0
  0
ARC
  5
6E4
330
A
100
AcDbEntity
  8
TOP
  6
CONTINUOUS
 62
     3
100
AcDbCircle
 10
5.946793999999999
 20
3.469205
 30
0.0
 40
0.02
100
AcDbArc
 50
270.0
 51
366.9184299999999
  0
ARC
  5
6E5
330
A
100
AcDbEntity
  8
TOP
  6
CONTINUOUS
 62
     3
100
AcDbCircle
 10
6.598186
 20
3.379204999999999
 30
0.0
 40
0.02
100
AcDbArc
 50
0.0
 51
90.0
  0
ARC
  5
6E6
330
A
100
AcDbEntity
  8
TOP
  6
CONTINUOUS
 62
     3
100
AcDbCircle
 10
6.598186
 20
4.163547
 30
0.0
 40
0.02
100
AcDbArc
 50
0.0
 51
94.220185
  0
ARC
  5
6E7
330
A
100
AcDbEntity
  8
TOP
  6
CONTINUOUS
 62
     3
100
AcDbCircle
 10
6.598186
 20
4.069205
 30
0.0
 40
0.02
100
AcDbArc
 50
270.0
 51
360.0
  0
ARC
  5
6E8
330
A
100
AcDbEntity
  8
TOP
  6
CONTINUOUS
 62
     3
100
AcDbCircle
 10
6.598186
 20
3.469205
 30
0.0
 40
0.02
100
AcDbArc
 50
270.0
 51
360.0
  0
ARC
  5
6E9
330
A
100
AcDbEntity
  8
TOP
  6
CONTINUOUS
 62
     3
100
AcDbCircle
 10
6.204002
 20
3.979204999999999
 30
0.0
 40
0.02
100
AcDbArc
 50
90.0
 51
135.906611
  0
ARC
  5
6EA
330
A
100
AcDbEntity
  8
TOP
  6
CONTINUOUS
 62
     3
100
AcDbCircle
 10
5.928186
 20
5.364205
 30
0.0
 40
0.024161
100
AcDbArc
 50
90.0
 51
180.0
  0
ARC
  5
6EB
330
A
100
AcDbEntity
  8
TOP
  6
CONTINUOUS
 62
     3
100
AcDbCircle
 10
19.28818499999999
 20
4.579204999999999
 30
0.0
 40
0.02
100
AcDbArc
 50
90.0
 51
180.0
  0
ARC
  5
6EC
330
A
100
AcDbEntity
  8
TOP
  6
CONTINUOUS
 62
     3
100
AcDbCircle
 10
19.952013
 20
4.069205
 30
0.0
 40
0.02
100
AcDbArc
 50
208.943743
 51
270.0
  0
ARC
  5
6ED
330
A
100
AcDbEntity
  8
TOP
  6
CONTINUOUS
 62
     3
100
AcDbCircle
 10
18.528185
 20
5.312204999999999
 30
0.0
 40
0.03
100
AcDbArc
 50
180.0
 51
270.0
  0
ARC
  5
6EE
330
A
100
AcDbEntity
  8
TOP
  6
CONTINUOUS
 62
     3
100
AcDbCircle
 10
19.958185
 20
5.364205
 30
0.0
 40
0.03
100
AcDbArc
 50
0.0
 51
90.0
  0
ARC
  5
6EF
330
A
100
AcDbEntity
  8
TOP
  6
CONTINUOUS
 62
     3
100
AcDbCircle
 10
20.213186
 20
5.457205
 30
0.0
 40
0.02
100
AcDbArc
 50
0.0
 51
90.0
  0
ARC
  5
6F0
330
A
100
AcDbEntity
  8
TOP
  6
CONTINUOUS
 62
     3
100
AcDbCircle
 10
19.28818499999999
 20
3.379204999999999
 30
0.0
 40
0.02
100
AcDbArc
 50
90.0
 51
180.0
  0
ARC
  5
6F1
330
A
100
AcDbEntity
  8
TOP
  6
CONTINUOUS
 62
     3
100
AcDbCircle
 10
19.28818499999999
 20
4.069205
 30
0.0
 40
0.02
100
AcDbArc
 50
180.0
 51
270.0
  0
ARC
  5
6F2
330
A
100
AcDbEntity
  8
TOP
  6
CONTINUOUS
 62
     3
100
AcDbCircle
 10
19.28818499999999
 20
4.163547
 30
0.0
 40
0.02
100
AcDbArc
 50
85.77981499999999
 51
180.0
  0
ARC
  5
6F3
330
A
100
AcDbEntity
  8
TOP
  6
CONTINUOUS
 62
     3
100
AcDbCircle
 10
19.28818499999999
 20
3.979204999999999
 30
0.0
 40
0.02
100
AcDbArc
 50
90.0
 51
180.0
  0
ARC
  5
6F4
330
A
100
AcDbEntity
  8
TOP
  6
CONTINUOUS
 62
     3
100
AcDbCircle
 10
19.84882
 20
3.469205
 30
0.0
 40
0.02
100
AcDbArc
 50
270.0
 51
352.057178
  0
ARC
  5
6F5
330
A
100
AcDbEntity
  8
TOP
  6
CONTINUOUS
 62
     3
100
AcDbCircle
 10
18.528185
 20
5.364205
 30
0.0
 40
0.004237
100
AcDbArc
 50
90.0
 51
180.0
  0
ARC
  5
6F6
330
A
100
AcDbEntity
  8
TOP
  6
CONTINUOUS
 62
     3
100
AcDbCircle
 10
19.958185
 20
5.312204999999999
 30
0.0
 40
0.004237
100
AcDbArc
 50
270.0
 51
360.0
  0
ARC
  5
6F7
330
A
100
AcDbEntity
  8
TOP
  6
CONTINUOUS
 62
     3
100
AcDbCircle
 10
19.243185
 20
3.677204999999999
 30
0.0
 40
0.7900000000000001
100
AcDbArc
 50
93.18473899999998
 51
151.0562569999999
  0
ARC
  5
6F8
330
A
100
AcDbEntity
  8
TOP
  6
CONTINUOUS
 62
     3
100
AcDbCircle
 10
19.243185
 20
3.553704999999999
 30
0.0
 40
0.6815
100
AcDbArc
 50
93.67794899999999
 51
132.7051289999999
  0
ARC
  5
6F9
330
A
100
AcDbEntity
  8
TOP
  6
CONTINUOUS
 62
     3
100
AcDbCircle
 10
19.243185
 20
3.677204999999999
 30
0.0
 40
0.7400000000000001
100
AcDbArc
 50
93.58332199999999
 51
147.013293
  0
ARC
  5
6FA
330
A
100
AcDbEntity
  8
TOP
  6
CONTINUOUS
 62
     3
100
AcDbCircle
 10
19.243185
 20
3.677204999999999
 30
0.0
 40
0.7400000000000001
100
AcDbArc
 50
155.200482
 51
180.0
  0
ARC
  5
6FB
330
A
100
AcDbEntity
  8
TOP
  6
CONTINUOUS
 62
     3
100
AcDbCircle
 10
18.546793
 20
3.469205
 30
0.0
 40
0.02
100
AcDbArc
 50
270.0
 51
366.9184299999999
  0
ARC
  5
6FC
330
A
100
AcDbEntity
  8
TOP
  6
CONTINUOUS
 62
     3
100
AcDbCircle
 10
19.19818499999999
 20
3.379204999999999
 30
0.0
 40
0.02
100
AcDbArc
 50
0.0
 51
90.0
  0
ARC
  5
6FD
330
A
100
AcDbEntity
  8
TOP
  6
CONTINUOUS
 62
     3
100
AcDbCircle
 10
19.19818499999999
 20
4.069205
 30
0.0
 40
0.02
100
AcDbArc
 50
270.0
 51
360.0
  0
ARC
  5
6FE
330
A
100
AcDbEntity
  8
TOP
  6
CONTINUOUS
 62
     3
100
AcDbCircle
 10
18.804003
 20
3.979204999999999
 30
0.0
 40
0.02
100
AcDbArc
 50
90.0
 51
135.906611
  0
ARC
  5
6FF
330
A
100
AcDbEntity
  8
TOP
  6
CONTINUOUS
 62
     3
100
AcDbCircle
 10
18.528185
 20
5.364205
 30
0.0
 40
0.024161
100
AcDbArc
 50
90.0
 51
180.0
  0
ARC
  5
700
330
A
100
AcDbEntity
  8
TOP
  6
CONTINUOUS
 62
     3
100
AcDbCircle
 10
5.043186
 20
14.31151999999999
 30
0.0
 40
0.06
100
AcDbArc
 50
270.0
 51
450.0
  0
CIRCLE
  5
701
330
A
100
AcDbEntity
  8
TOP
  6
CONTINUOUS
 62
     3
100
AcDbCircle
 10
17.743185
 20
3.617204999999999
 30
0.0
 40
0.1005
  0
ARC
  5
702
330
A
100
AcDbEntity
  8
TOP
  6
CONTINUOUS
 62
     3
100
AcDbCircle
 10
8.453186
 20
3.317204999999999
 30
0.0
 40
0.05
100
AcDbArc
 50
180.0
 51
360.0
  0
ARC
  5
703
330
A
100
AcDbEntity
  8
TOP
  6
CONTINUOUS
 62
     3
100
AcDbCircle
 10
19.473186
 20
2.497205
 30
0.0
 40
0.02
100
AcDbArc
 50
270.0
 51
360.0
  0
ARC
  5
704
330
A
100
AcDbEntity
  8
TOP
  6
CONTINUOUS
 62
     3
100
AcDbCircle
 10
19.013186
 20
2.657204999999999
 30
0.0
 40
0.02
100
AcDbArc
 50
174.09375
 51
180.0
  0
ARC
  5
705
330
A
100
AcDbEntity
  8
TOP
  6
CONTINUOUS
 62
     3
100
AcDbCircle
 10
20.905186
 20
2.444205
 30
0.0
 40
0.093
100
AcDbArc
 50
270.0
 51
360.0
  0
ARC
  5
706
330
A
100
AcDbEntity
  8
TOP
  6
CONTINUOUS
 62
     3
100
AcDbCircle
 10
20.87018599999999
 20
5.744205
 30
0.0
 40
0.128
100
AcDbArc
 50
0.0
 51
280.0
  0
ARC
  5
707
330
A
100
AcDbEntity
  8
TOP
  6
CONTINUOUS
 62
     3
100
AcDbCircle
 10
19.939577
 20
3.469205
 30
0.0
 40
0.02
100
AcDbArc
 50
173.0815699999999
 51
270.0
  0
ARC
  5
708
330
A
100
AcDbEntity
  8
TOP
  6
CONTINUOUS
 62
     3
100
AcDbCircle
 10
20.87518499999999
 20
5.749204999999999
 30
0.0
 40
0.123
100
AcDbArc
 50
0.0
 51
90.0
  0
ARC
  5
709
330
A
100
AcDbEntity
  8
TOP
  6
CONTINUOUS
 62
     3
100
AcDbCircle
 10
20.590185
 20
5.642204999999999
 30
0.0
 40
0.13
100
AcDbArc
 50
270.0
 51
360.0
  0
ARC
  5
70A
330
A
100
AcDbEntity
  8
TOP
  6
CONTINUOUS
 62
     3
100
AcDbCircle
 10
5.016186
 20
5.744205
 30
0.0
 40
0.065
100
AcDbArc
 50
180.0
 51
259.9987499999999
  0
ARC
  5
70B
330
A
100
AcDbEntity
  8
TOP
  6
CONTINUOUS
 62
     3
100
AcDbCircle
 10
41.67885199999999
 20
32.098518
 30
0.0
 40
0.093
100
AcDbArc
 50
0.0
 51
90.0
  0
ARC
  5
70C
330
A
100
AcDbEntity
  8
TOP
  6
CONTINUOUS
 62
     3
100
AcDbCircle
 10
19.243185
 20
3.553704999999999
 30
0.0
 40
0.6315
100
AcDbArc
 50
196.580599
 51
265.779815
  0
ARC
  5
70D
330
A
100
AcDbEntity
  8
TOP
  6
CONTINUOUS
 62
     3
100
AcDbCircle
 10
6.643186
 20
3.677204999999999
 30
0.0
 40
0.7900000000000001
100
AcDbArc
 50
28.943743
 51
86.81526100000001
  0
ARC
  5
70E
330
A
100
AcDbEntity
  8
TOP
  6
CONTINUOUS
 62
     3
100
AcDbCircle
 10
7.247118999999999
 20
4.069205
 30
0.0
 40
0.02
100
AcDbArc
 50
270.0
 51
392.986707
  0
ARC
  5
70F
330
A
100
AcDbEntity
  8
TOP
  6
CONTINUOUS
 62
     3
100
AcDbCircle
 10
6.688185999999999
 20
4.253759999999999
 30
0.0
 40
0.02
100
AcDbArc
 50
180.0
 51
266.3220499999999
  0
ARC
  5
710
330
A
100
AcDbEntity
  8
TOP
  6
CONTINUOUS
 62
     3
100
AcDbCircle
 10
6.643186
 20
3.677204999999999
 30
0.0
 40
0.7900000000000001
100
AcDbArc
 50
160.568169
 51
180.0
  0
ARC
  5
711
330
A
100
AcDbEntity
  8
TOP
  6
CONTINUOUS
 62
     3
100
AcDbCircle
 10
5.928186
 20
5.169204999999999
 30
0.0
 40
0.03
100
AcDbArc
 50
90.0
 51
180.0
  0
ARC
  5
712
330
A
100
AcDbEntity
  8
TOP
  6
CONTINUOUS
 62
     3
100
AcDbCircle
 10
7.358185999999999
 20
5.169204999999999
 30
0.0
 40
0.03
100
AcDbArc
 50
0.0
 51
90.0
  0
ARC
  5
713
330
A
100
AcDbEntity
  8
TOP
  6
CONTINUOUS
 62
     3
100
AcDbCircle
 10
6.643186
 20
3.553704999999999
 30
0.0
 40
0.6315
100
AcDbArc
 50
274.220185
 51
343.419401
  0
ARC
  5
714
330
A
100
AcDbEntity
  8
TOP
  6
CONTINUOUS
 62
     3
100
AcDbCircle
 10
6.598186
 20
4.485954
 30
0.0
 40
0.02
100
AcDbArc
 50
273.1847389999999
 51
360.0
  0
ARC
  5
715
330
A
100
AcDbEntity
  8
TOP
  6
CONTINUOUS
 62
     3
100
AcDbCircle
 10
6.598186
 20
4.253759999999999
 30
0.0
 40
0.02
100
AcDbArc
 50
273.67795
 51
360.0
  0
ARC
  5
716
330
A
100
AcDbEntity
  8
TOP
  6
CONTINUOUS
 62
     3
100
AcDbCircle
 10
6.039252
 20
4.069205
 30
0.0
 40
0.02
100
AcDbArc
 50
147.013293
 51
270.0
  0
ARC
  5
717
330
A
100
AcDbEntity
  8
TOP
  6
CONTINUOUS
 62
     3
100
AcDbCircle
 10
6.085465
 20
3.979204999999999
 30
0.0
 40
0.02
100
AcDbArc
 50
322.6590079999999
 51
450.0
  0
ARC
  5
718
330
A
100
AcDbEntity
  8
TOP
  6
CONTINUOUS
 62
     3
100
AcDbCircle
 10
6.643186
 20
3.553704999999999
 30
0.0
 40
0.6315
100
AcDbArc
 50
196.580599
 51
265.779815
  0
ARC
  5
719
330
A
100
AcDbEntity
  8
TOP
  6
CONTINUOUS
 62
     3
100
AcDbCircle
 10
6.643186
 20
3.553704999999999
 30
0.0
 40
0.6315
100
AcDbArc
 50
94.220185
 51
122.5407589999999
  0
ARC
  5
71A
330
A
100
AcDbEntity
  8
TOP
  6
CONTINUOUS
 62
     3
100
AcDbCircle
 10
6.643186
 20
3.553704999999999
 30
0.0
 40
0.6315
100
AcDbArc
 50
135.9066129999999
 51
187.942822
  0
ARC
  5
71B
330
A
100
AcDbEntity
  8
TOP
  6
CONTINUOUS
 62
     3
100
AcDbCircle
 10
5.928186
 20
5.312204999999999
 30
0.0
 40
0.024161
100
AcDbArc
 50
180.0
 51
270.0
  0
ARC
  5
71C
330
A
100
AcDbEntity
  8
TOP
  6
CONTINUOUS
 62
     3
100
AcDbCircle
 10
19.84712
 20
4.069205
 30
0.0
 40
0.02
100
AcDbArc
 50
270.0
 51
392.986707
  0
ARC
  5
71D
330
A
100
AcDbEntity
  8
TOP
  6
CONTINUOUS
 62
     3
100
AcDbCircle
 10
19.28818499999999
 20
4.253759999999999
 30
0.0
 40
0.02
100
AcDbArc
 50
180.0
 51
266.3220499999999
  0
ARC
  5
71E
330
A
100
AcDbEntity
  8
TOP
  6
CONTINUOUS
 62
     3
100
AcDbCircle
 10
19.243185
 20
3.677204999999999
 30
0.0
 40
0.7900000000000001
100
AcDbArc
 50
160.568169
 51
180.0
  0
ARC
  5
71F
330
A
100
AcDbEntity
  8
TOP
  6
CONTINUOUS
 62
     3
100
AcDbCircle
 10
19.958185
 20
5.169204999999999
 30
0.0
 40
0.03
100
AcDbArc
 50
0.0
 51
90.0
  0
ARC
  5
720
330
A
100
AcDbEntity
  8
TOP
  6
CONTINUOUS
 62
     3
100
AcDbCircle
 10
19.243185
 20
3.553704999999999
 30
0.0
 40
0.6315
100
AcDbArc
 50
274.220185
 51
343.419401
  0
ARC
  5
721
330
A
100
AcDbEntity
  8
TOP
  6
CONTINUOUS
 62
     3
100
AcDbCircle
 10
19.19818499999999
 20
4.485954
 30
0.0
 40
0.02
100
AcDbArc
 50
273.1847389999999
 51
360.0
  0
ARC
  5
722
330
A
100
AcDbEntity
  8
TOP
  6
CONTINUOUS
 62
     3
100
AcDbCircle
 10
19.19818499999999
 20
4.253759999999999
 30
0.0
 40
0.02
100
AcDbArc
 50
273.67795
 51
360.0
  0
ARC
  5
723
330
A
100
AcDbEntity
  8
TOP
  6
CONTINUOUS
 62
     3
100
AcDbCircle
 10
18.63925199999999
 20
4.069205
 30
0.0
 40
0.02
100
AcDbArc
 50
147.013293
 51
270.0
  0
ARC
  5
724
330
A
100
AcDbEntity
  8
TOP
  6
CONTINUOUS
 62
     3
100
AcDbCircle
 10
18.685465
 20
3.979204999999999
 30
0.0
 40
0.02
100
AcDbArc
 50
322.6590079999999
 51
450.0
  0
ARC
  5
725
330
A
100
AcDbEntity
  8
TOP
  6
CONTINUOUS
 62
     3
100
AcDbCircle
 10
19.243185
 20
3.553704999999999
 30
0.0
 40
0.6315
100
AcDbArc
 50
94.220185
 51
122.5407589999999
  0
ARC
  5
726
330
A
100
AcDbEntity
  8
TOP
  6
CONTINUOUS
 62
     3
100
AcDbCircle
 10
19.243185
 20
3.553704999999999
 30
0.0
 40
0.6315
100
AcDbArc
 50
135.9066129999999
 51
187.942822
  0
ARC
  5
727
330
A
100
AcDbEntity
  8
TOP
  6
CONTINUOUS
 62
     3
100
AcDbCircle
 10
18.528185
 20
5.312204999999999
 30
0.0
 40
0.024161
100
AcDbArc
 50
180.0
 51
270.0
  0
ARC
  5
728
330
A
100
AcDbEntity
  8
TOP
  6
CONTINUOUS
 62
     3
100
AcDbCircle
 10
17.433186
 20
3.917205
 30
0.0
 40
0.05
100
AcDbArc
 50
0.0
 51
180.0
  0
CIRCLE
  5
729
330
A
100
AcDbEntity
  8
TOP
  6
CONTINUOUS
 62
     3
100
AcDbCircle
 10
8.143186
 20
3.617204999999999
 30
0.0
 40
0.1005
  0
ARC
  5
72A
330
A
100
AcDbEntity
  8
TOP
  6
CONTINUOUS
 62
     3
100
AcDbCircle
 10
6.873185999999999
 20
2.657204999999999
 30
0.0
 40
0.02
100
AcDbArc
 50
0.0
 51
5.90625
  0
ARC
  5
72B
330
A
100
AcDbEntity
  8
TOP
  6
CONTINUOUS
 62
     3
100
AcDbCircle
 10
6.413185999999999
 20
2.497205
 30
0.0
 40
0.02
100
AcDbArc
 50
180.0
 51
270.0
  0
ARC
  5
72C
330
A
100
AcDbEntity
  8
TOP
  6
CONTINUOUS
 62
     3
100
AcDbCircle
 10
6.643186
 20
3.677204999999999
 30
0.0
 40
0.7400000000000001
100
AcDbArc
 50
0.0
 51
24.799518
  0
ARC
  5
72D
330
A
100
AcDbEntity
  8
TOP
  6
CONTINUOUS
 62
     3
100
AcDbCircle
 10
20.87018599999999
 20
5.744205
 30
0.0
 40
0.128
100
AcDbArc
 50
280.000625
 51
300.519375
  0
ARC
  5
72E
330
A
100
AcDbEntity
  8
TOP
  6
CONTINUOUS
 62
     3
100
AcDbCircle
 10
20.87018599999999
 20
5.744205
 30
0.0
 40
0.065
100
AcDbArc
 50
280.00125
 51
360.0
  0
ARC
  5
72F
330
A
100
AcDbEntity
  8
TOP
  6
CONTINUOUS
 62
     3
100
AcDbCircle
 10
5.011186
 20
5.749204999999999
 30
0.0
 40
0.123
100
AcDbArc
 50
90.0
 51
180.0
  0
ARC
  5
730
330
A
100
AcDbEntity
  8
TOP
  6
CONTINUOUS
 62
     3
100
AcDbCircle
 10
20.905186
 20
2.444205
 30
0.0
 40
0.03
100
AcDbArc
 50
270.0
 51
360.0
  0
ARC
  5
731
330
A
100
AcDbEntity
  8
TOP
  6
CONTINUOUS
 62
     3
100
AcDbCircle
 10
5.296185999999999
 20
5.642204999999999
 30
0.0
 40
0.13
100
AcDbArc
 50
180.0
 51
270.0
  0
ARC
  5
732
330
A
100
AcDbEntity
  8
TOP
  6
CONTINUOUS
 62
     3
100
AcDbCircle
 10
41.618855
 20
12.251519
 30
0.0
 40
0.06
100
AcDbArc
 50
270.0
 51
360.0
  0
ARC
  5
733
330
A
100
AcDbEntity
  8
TOP
  6
CONTINUOUS
 62
     3
100
AcDbCircle
 10
41.618855
 20
32.13151899999999
 30
0.0
 40
0.06
100
AcDbArc
 50
0.0
 51
90.0
  0
ARC
  5
734
330
A
100
AcDbEntity
  8
TOP
  6
CONTINUOUS
 62
     3
100
AcDbCircle
 10
41.67885199999999
 20
32.098518
 30
0.0
 40
0.03
100
AcDbArc
 50
0.0
 51
90.0
  0
ARC
  5
735
330
A
100
AcDbEntity
  8
TOP
  6
CONTINUOUS
 62
     3
100
AcDbCircle
 10
41.67885199999999
 20
12.284519
 30
0.0
 40
0.093
100
AcDbArc
 50
270.0
 51
360.0
  0
ARC
  5
736
330
A
100
AcDbEntity
  8
TOP
  6
CONTINUOUS
 62
     3
100
AcDbCircle
 10
19.243185
 20
3.553704999999999
 30
0.0
 40
0.6315
100
AcDbArc
 50
352.057178
 51
404.093387
  0
ARC
  5
737
330
A
100
AcDbEntity
  8
TOP
  6
CONTINUOUS
 62
     3
100
AcDbCircle
 10
38.44085299999999
 20
29.951519
 30
0.0
 40
0.06
100
AcDbArc
 50
0.0
 51
90.0
  0
ARC
  5
738
330
A
100
AcDbEntity
  8
TOP
  6
CONTINUOUS
 62
     3
100
AcDbCircle
 10
5.016186
 20
5.744205
 30
0.0
 40
0.128
100
AcDbArc
 50
260.0
 51
540.0
  0
VIEWPORT
  5
758
330
B
100
AcDbEntity
 67
     1
  8
0
  6
CONTINUOUS
100
AcDbViewport
 10
3.508706467661691
 20
2.25
 30
0.0
 40
8.017412935323381
 41
5.5
 68
     1
 69
     1
1001
ACAD
1000
MVIEW
1002
{
1070
    16
1010
0.0
1020
0.0
1030
0.0
1010
0.0
1020
0.0
1030
1.0
1040
0.0
1040
5.5
1040
3.508706467661691
1040
2.25
1040
50.0
1040
0.0
1040
0.0
1070
     0
1070
   100
1070
     1
1070
     1
1070
     0
1070
     0
1070
     0
1070
     0
1040
0.0
1040
0.0
1040
0.0
1040
1.0
1040
1.0
1040
0.0
1040
0.0
1070
     0
1002
{
1002
}
1002
}
  0
ENDSEC
  0
SECTION
  2
OBJECTS
  0
DICTIONARY
  5
19
330
0
100
AcDbDictionary
  3
ACAD_GROUP
350
1A
  3
ACAD_LAYOUT
350
1E
  3
ACAD_MLINESTYLE
350
1B
  3
ACAD_PLOTSETTINGS
350
21
  3
ACAD_PLOTSTYLENAME
350
1F
  3
ACDBHEADERROUNDTRIPXREC
350
7C0
  0
DICTIONARY
  5
7E1
330
A
100
AcDbDictionary
280
     1
  3
ACAD_LAYOUTSELFREF
360
7E2
  0
DICTIONARY
  5
7E3
330
B
100
AcDbDictionary
280
     1
  3
ACAD_LAYOUTSELFREF
360
7E4
  0
DICTIONARY
  5
1A
102
{ACAD_REACTORS
330
19
102
}
330
19
100
AcDbDictionary
  0
DICTIONARY
  5
1E
102
{ACAD_REACTORS
330
19
102
}
330
19
100
AcDbDictionary
  0
DICTIONARY
  5
1B
102
{ACAD_REACTORS
330
19
102
}
330
19
100
AcDbDictionary
  3
STANDARD
350
1C
  0
DICTIONARY
  5
21
102
{ACAD_REACTORS
330
19
102
}
330
19
100
AcDbDictionary
  0
ACDBDICTIONARYWDFLT
  5
1F
102
{ACAD_REACTORS
330
19
102
}
330
19
100
AcDbDictionary
281
     1
  3
Normal
350
1D
100
AcDbDictionaryWithDefault
340
1D
  0
DICTIONARY
  5
7C0
102
{ACAD_REACTORS
330
19
102
}
330
19
100
AcDbDictionary
  3
CEPSNTYPE
350
7CA
  3
DIMSTYLEDATA
350
7CE
  3
FINGERPRINTGUID
350
7CB
  3
HYPERLINKBASE
350
7C3
  3
INSUNITS
350
7C9
  3
LAYOUTDICT
350
7C5
  3
LWETCUNION
350
7C8
  3
PLOTSETDICT
350
7C6
  3
PLOTSTYLNAMDICT
350
7C7
  3
PSVPSCALE
350
7CD
  3
PUCSBASE
350
7D1
  3
PUCSORGBACK
350
7D7
  3
PUCSORGBOTTOM
350
7D3
  3
PUCSORGFRONT
350
7D6
  3
PUCSORGLEFT
350
7D4
  3
PUCSORGRIGHT
350
7D5
  3
PUCSORGTOP
350
7D2
  3
PUCSORTHOREF
350
7CF
  3
PUCSORTHOVIEW
350
7D0
  3
STYLESHEET
350
7C4
  3
TSTACKALIGN
350
7C1
  3
TSTACKSIZE
350
7C2
  3
UCSBASE
350
7DA
  3
UCSORGBACK
350
7E0
  3
UCSORGBOTTOM
350
7DC
  3
UCSORGFRONT
350
7DF
  3
UCSORGLEFT
350
7DD
  3
UCSORGRIGHT
350
7DE
  3
UCSORGTOP
350
7DB
  3
UCSORTHOREF
350
7D8
  3
UCSORTHOVIEW
350
7D9
  3
VERSIONGUID
350
7CC
  0
XRECORD
  5
7E2
102
{ACAD_REACTORS
330
7E1
102
}
330
7E1
100
AcDbXrecord
340
A
  0
XRECORD
  5
7E4
102
{ACAD_REACTORS
330
7E3
102
}
330
7E3
100
AcDbXrecord
340
B
  0
MLINESTYLE
  5
1C
102
{ACAD_REACTORS
330
1B
102
}
330
1B
100
AcDbMlineStyle
  2
STANDARD
 70
     0
  3

 62
     0
 51
90.0
 52
90.0
 71
     2
 49
0.5
 62
   256
  6
BYLAYER
 49
-0.5
 62
   256
  6
BYLAYER
  0
ACDBPLACEHOLDER
  5
1D
102
{ACAD_REACTORS
330
1F
102
}
330
1F
100
AcDbPlaceHolder
280
     0
  0
XRECORD
  5
7CA
102
{ACAD_REACTORS
330
7C0
102
}
330
7C0
100
AcDbXrecord
 90
        0
  0
XRECORD
  5
7CE
102
{ACAD_REACTORS
330
7C0
102
}
330
7C0
100
AcDbXrecord
1000
DSTYLE
1002
{
1070
   278
 70
     0
1070
   371
 70
     0
1070
   372
 70
     0
1002
}
  0
XRECORD
  5
7CB
102
{ACAD_REACTORS
330
7C0
102
}
330
7C0
100
AcDbXrecord
  1

  0
XRECORD
  5
7C3
102
{ACAD_REACTORS
330
7C0
102
}
330
7C0
100
AcDbXrecord
  1

  0
XRECORD
  5
7C9
102
{ACAD_REACTORS
330
7C0
102
}
330
7C0
100
AcDbXrecord
 90
        0
  0
XRECORD
  5
7C5
102
{ACAD_REACTORS
330
7C0
102
}
330
7C0
100
AcDbXrecord
340
1E
  0
XRECORD
  5
7C8
102
{ACAD_REACTORS
330
7C0
102
}
330
7C0
100
AcDbXrecord
 90
    10752
  0
XRECORD
  5
7C6
102
{ACAD_REACTORS
330
7C0
102
}
330
7C0
100
AcDbXrecord
340
21
  0
XRECORD
  5
7C7
102
{ACAD_REACTORS
330
7C0
102
}
330
7C0
100
AcDbXrecord
340
1F
  0
XRECORD
  5
7CD
102
{ACAD_REACTORS
330
7C0
102
}
330
7C0
100
AcDbXrecord
 40
0.0
  0
XRECORD
  5
7D1
102
{ACAD_REACTORS
330
7C0
102
}
330
7C0
100
AcDbXrecord
340
0
  0
XRECORD
  5
7D7
102
{ACAD_REACTORS
330
7C0
102
}
330
7C0
100
AcDbXrecord
 10
0.0
 20
0.0
 30
0.0
  0
XRECORD
  5
7D3
102
{ACAD_REACTORS
330
7C0
102
}
330
7C0
100
AcDbXrecord
 10
0.0
 20
0.0
 30
0.0
  0
XRECORD
  5
7D6
102
{ACAD_REACTORS
330
7C0
102
}
330
7C0
100
AcDbXrecord
 10
0.0
 20
0.0
 30
0.0
  0
XRECORD
  5
7D4
102
{ACAD_REACTORS
330
7C0
102
}
330
7C0
100
AcDbXrecord
 10
0.0
 20
0.0
 30
0.0
  0
XRECORD
  5
7D5
102
{ACAD_REACTORS
330
7C0
102
}
330
7C0
100
AcDbXrecord
 10
0.0
 20
0.0
 30
0.0
  0
XRECORD
  5
7D2
102
{ACAD_REACTORS
330
7C0
102
}
330
7C0
100
AcDbXrecord
 10
0.0
 20
0.0
 30
0.0
  0
XRECORD
  5
7CF
102
{ACAD_REACTORS
330
7C0
102
}
330
7C0
100
AcDbXrecord
340
0
  0
XRECORD
  5
7D0
102
{ACAD_REACTORS
330
7C0
102
}
330
7C0
100
AcDbXrecord
 70
     0
  0
XRECORD
  5
7C4
102
{ACAD_REACTORS
330
7C0
102
}
330
7C0
100
AcDbXrecord
  1

  0
XRECORD
  5
7C1
102
{ACAD_REACTORS
330
7C0
102
}
330
7C0
100
AcDbXrecord
 90
        1
  0
XRECORD
  5
7C2
102
{ACAD_REACTORS
330
7C0
102
}
330
7C0
100
AcDbXrecord
 90
       70
  0
XRECORD
  5
7DA
102
{ACAD_REACTORS
330
7C0
102
}
330
7C0
100
AcDbXrecord
340
0
  0
XRECORD
  5
7E0
102
{ACAD_REACTORS
330
7C0
102
}
330
7C0
100
AcDbXrecord
 10
0.0
 20
0.0
 30
0.0
  0
XRECORD
  5
7DC
102
{ACAD_REACTORS
330
7C0
102
}
330
7C0
100
AcDbXrecord
 10
0.0
 20
0.0
 30
0.0
  0
XRECORD
  5
7DF
102
{ACAD_REACTORS
330
7C0
102
}
330
7C0
100
AcDbXrecord
 10
0.0
 20
0.0
 30
0.0
  0
XRECORD
  5
7DD
102
{ACAD_REACTORS
330
7C0
102
}
330
7C0
100
AcDbXrecord
 10
0.0
 20
0.0
 30
0.0
  0
XRECORD
  5
7DE
102
{ACAD_REACTORS
330
7C0
102
}
330
7C0
100
AcDbXrecord
 10
0.0
 20
0.0
 30
0.0
  0
XRECORD
  5
7DB
102
{ACAD_REACTORS
330
7C0
102
}
330
7C0
100
AcDbXrecord
 10
0.0
 20
0.0
 30
0.0
  0
XRECORD
  5
7D8
102
{ACAD_REACTORS
330
7C0
102
}
330
7C0
100
AcDbXrecord
340
0
  0
XRECORD
  5
7D9
102
{ACAD_REACTORS
330
7C0
102
}
330
7C0
100
AcDbXrecord
 70
     0
  0
XRECORD
  5
7CC
102
{ACAD_REACTORS
330
7C0
102
}
330
7C0
100
AcDbXrecord
  1
{3B862650-EED3-4D82-BA5B-AA3633CA4396}
  0
ENDSEC
  0
EOF
