  0
SECTION
  2
HEADER
  9
$ACADVER
  1
AC1012
  9
$DWGCODEPAGE
  3
ANSI_1252
  9
$INSBASE
 10
0.0
 20
0.0
 30
0.0
  9
$EXTMIN
 10
-10.47097451687707
 20
-0.8729849352659186
 30
-0.0000000000000129
  9
$EXTMAX
 10
8.51198966813552
 20
5.877941403238061
 30
0.0000000000000023
  9
$LIMMIN
 10
0.0
 20
0.0
  9
$LIMMAX
 10
12.0
 20
9.0
  9
$ORTHOMODE
 70
     0
  9
$REGENMODE
 70
     1
  9
$FILLMODE
 70
     1
  9
$QTEXTMODE
 70
     0
  9
$MIRRTEXT
 70
     1
  9
$DRAGMODE
 70
     2
  9
$LTSCALE
 40
1.0
  9
$OSMODE
 70
   547
  9
$ATTMODE
 70
     1
  9
$TEXTSIZE
 40
0.2
  9
$TRACEWID
 40
0.05
  9
$TEXTSTYLE
  7
STANDARD
  9
$CLAYER
  8
0
  9
$CELTYPE
  6
BYLAYER
  9
$CECOLOR
 62
   256
  9
$CELTSCALE
 40
1.0
  9
$DELOBJ
 70
     1
  9
$DISPSILH
 70
     0
  9
$DIMSCALE
 40
1.0
  9
$DIMASZ
 40
0.18
  9
$DIMEXO
 40
0.0625
  9
$DIMDLI
 40
0.38
  9
$DIMRND
 40
0.0
  9
$DIMDLE
 40
0.0
  9
$DIMEXE
 40
0.18
  9
$DIMTP
 40
0.0
  9
$DIMTM
 40
0.0
  9
$DIMTXT
 40
0.18
  9
$DIMCEN
 40
0.09
  9
$DIMTSZ
 40
0.0
  9
$DIMTOL
 70
     0
  9
$DIMLIM
 70
     0
  9
$DIMTIH
 70
     1
  9
$DIMTOH
 70
     1
  9
$DIMSE1
 70
     0
  9
$DIMSE2
 70
     0
  9
$DIMTAD
 70
     0
  9
$DIMZIN
 70
     0
  9
$DIMBLK
  1

  9
$DIMASO
 70
     1
  9
$DIMSHO
 70
     1
  9
$DIMPOST
  1

  9
$DIMAPOST
  1

  9
$DIMALT
 70
     0
  9
$DIMALTD
 70
     2
  9
$DIMALTF
 40
25.4
  9
$DIMLFAC
 40
1.0
  9
$DIMTOFL
 70
     0
  9
$DIMTVP
 40
0.0
  9
$DIMTIX
 70
     0
  9
$DIMSOXD
 70
     0
  9
$DIMSAH
 70
     0
  9
$DIMBLK1
  1

  9
$DIMBLK2
  1

  9
$DIMSTYLE
  2
STANDARD
  9
$DIMCLRD
 70
     0
  9
$DIMCLRE
 70
     0
  9
$DIMCLRT
 70
     0
  9
$DIMTFAC
 40
1.0
  9
$DIMGAP
 40
0.09
  9
$DIMJUST
 70
     0
  9
$DIMSD1
 70
     0
  9
$DIMSD2
 70
     0
  9
$DIMTOLJ
 70
     1
  9
$DIMTZIN
 70
     0
  9
$DIMALTZ
 70
     0
  9
$DIMALTTZ
 70
     0
  9
$DIMFIT
 70
     3
  9
$DIMUPT
 70
     0
  9
$DIMUNIT
 70
     2
  9
$DIMDEC
 70
     4
  9
$DIMTDEC
 70
     4
  9
$DIMALTU
 70
     2
  9
$DIMALTTD
 70
     2
  9
$DIMTXSTY
  7
STANDARD
  9
$DIMAUNIT
 70
     0
  9
$LUNITS
 70
     2
  9
$LUPREC
 70
     4
  9
$SKETCHINC
 40
0.1
  9
$FILLETRAD
 40
0.0
  9
$AUNITS
 70
     0
  9
$AUPREC
 70
     0
  9
$MENU
  1
acad
  9
$ELEVATION
 40
0.0
  9
$PELEVATION
 40
0.0
  9
$THICKNESS
 40
0.0
  9
$LIMCHECK
 70
     0
  9
$BLIPMODE
 70
     0
  9
$CHAMFERA
 40
0.0
  9
$CHAMFERB
 40
0.0
  9
$CHAMFERC
 40
0.0
  9
$CHAMFERD
 40
0.0
  9
$SKPOLY
 70
     0
  9
$TDCREATE
 40
2452219.392824074
  9
$TDUPDATE
 40
2453893.570743842
  9
$TDINDWG
 40
0.0077915162
  9
$TDUSRTIMER
 40
0.0077902546
  9
$USRTIMER
 70
     1
  9
$ANGBASE
 50
0.0
  9
$ANGDIR
 70
     0
  9
$PDMODE
 70
     0
  9
$PDSIZE
 40
0.0
  9
$PLINEWID
 40
0.0
  9
$COORDS
 70
     1
  9
$SPLFRAME
 70
     0
  9
$SPLINETYPE
 70
     6
  9
$SPLINESEGS
 70
     8
  9
$ATTDIA
 70
     0
  9
$ATTREQ
 70
     1
  9
$HANDLING
 70
  4097
  9
$HANDSEED
  5
3ADB
  9
$SURFTAB1
 70
     6
  9
$SURFTAB2
 70
     6
  9
$SURFTYPE
 70
     6
  9
$SURFU
 70
     6
  9
$SURFV
 70
     6
  9
$UCSNAME
  2

  9
$UCSORG
 10
0.0
 20
0.0
 30
0.0
  9
$UCSXDIR
 10
1.0
 20
0.0
 30
0.0
  9
$UCSYDIR
 10
0.0
 20
1.0
 30
0.0
  9
$PUCSNAME
  2

  9
$PUCSORG
 10
0.0
 20
0.0
 30
0.0
  9
$PUCSXDIR
 10
1.0
 20
0.0
 30
0.0
  9
$PUCSYDIR
 10
0.0
 20
1.0
 30
0.0
  9
$USERI1
 70
     0
  9
$USERI2
 70
     0
  9
$USERI3
 70
     0
  9
$USERI4
 70
     0
  9
$USERI5
 70
     0
  9
$USERR1
 40
0.0
  9
$USERR2
 40
0.0
  9
$USERR3
 40
0.0
  9
$USERR4
 40
0.0
  9
$USERR5
 40
0.0
  9
$WORLDVIEW
 70
     1
  9
$SHADEDGE
 70
     3
  9
$SHADEDIF
 70
    70
  9
$TILEMODE
 70
     1
  9
$MAXACTVP
 70
    16
  9
$PINSBASE
 10
0.0
 20
0.0
 30
0.0
  9
$PLIMCHECK
 70
     0
  9
$PEXTMIN
 10
1.000000000000000E+20
 20
1.000000000000000E+20
 30
1.000000000000000E+20
  9
$PEXTMAX
 10
-1.000000000000000E+20
 20
-1.000000000000000E+20
 30
-1.000000000000000E+20
  9
$PLIMMIN
 10
0.0
 20
0.0
  9
$PLIMMAX
 10
12.0
 20
9.0
  9
$UNITMODE
 70
     0
  9
$VISRETAIN
 70
     0
  9
$PLINEGEN
 70
     0
  9
$PSLTSCALE
 70
     1
  9
$TREEDEPTH
 70
  3020
  9
$PICKSTYLE
 70
     1
  9
$CMLSTYLE
  2
STANDARD
  9
$CMLJUST
 70
     0
  9
$CMLSCALE
 40
1.0
  9
$SAVEIMAGES
 70
     1
  0
ENDSEC
  0
SECTION
  2
CLASSES
  0
CLASS
  1
ACDBDICTIONARYWDFLT
  2
AcDbDictionaryWithDefault
  3
AutoCAD 2000
 90
    32768
280
     0
281
     0
  0
CLASS
  1
ACDBPLACEHOLDER
  2
AcDbPlaceHolder
  3
AutoCAD 2000
 90
    32768
280
     0
281
     0
  0
CLASS
  1
LAYOUT
  2
AcDbLayout
  3
AutoCAD 2000
 90
    32768
280
     0
281
     0
  0
CLASS
  1
LONG_TRANSACTION
  2
AcDbLongTransaction
  3
AutoCAD 2000
 90
    32768
280
     0
281
     0
  0
CLASS
  1
LWPOLYLINE
  2
AcDbPolyline
  3
AutoCAD 2000
 90
    32768
280
     0
281
     1
  0
CLASS
  1
HATCH
  2
AcDbHatch
  3
AutoCAD 2000
 90
    32768
280
     0
281
     1
  0
CLASS
  1
XRECORD
  2
AcDbXrecord
  3
AutoCAD 2000
 90
    32768
280
     0
281
     0
  0
CLASS
  1
LONG_TRANSACTION
  2
AcDbLongTransaction
  3
AutoCAD 2000
 90
    32768
280
     0
281
     0
  0
CLASS
  1
LWPOLYLINE
  2
AcDbPolyline
  3
AutoCAD 2000
 90
    32768
280
     0
281
     1
  0
CLASS
  1
HATCH
  2
AcDbHatch
  3
AutoCAD 2000
 90
    32768
280
     0
281
     1
  0
CLASS
  1
XRECORD
  2
AcDbXrecord
  3
AutoCAD 2000
 90
    32768
280
     0
281
     0
  0
CLASS
  1
LONG_TRANSACTION
  2
AcDbLongTransaction
  3
AutoCAD 2000
 90
    32768
280
     0
281
     0
  0
CLASS
  1
LWPOLYLINE
  2
AcDbPolyline
  3
AutoCAD 2000
 90
    32768
280
     0
281
     1
  0
CLASS
  1
HATCH
  2
AcDbHatch
  3
AutoCAD 2000
 90
    32768
280
     0
281
     1
  0
CLASS
  1
XRECORD
  2
AcDbXrecord
  3
AutoCAD 2000
 90
    32768
280
     0
281
     0
  0
CLASS
  1
LONG_TRANSACTION
  2
AcDbLongTransaction
  3
AutoCAD 2000
 90
    32768
280
     0
281
     0
  0
CLASS
  1
LWPOLYLINE
  2
AcDbPolyline
  3
AutoCAD 2000
 90
    32768
280
     0
281
     1
  0
CLASS
  1
HATCH
  2
AcDbHatch
  3
AutoCAD 2000
 90
    32768
280
     0
281
     1
  0
CLASS
  1
XRECORD
  2
AcDbXrecord
  3
AutoCAD 2000
 90
    32768
280
     0
281
     0
  0
CLASS
  1
LONG_TRANSACTION
  2
AcDbLongTransaction
  3
AutoCAD 2000
 90
    32768
280
     0
281
     0
  0
CLASS
  1
LWPOLYLINE
  2
AcDbPolyline
  3
AutoCAD 2000
 90
    32768
280
     0
281
     1
  0
CLASS
  1
HATCH
  2
AcDbHatch
  3
AutoCAD 2000
 90
    32768
280
     0
281
     1
  0
CLASS
  1
XRECORD
  2
AcDbXrecord
  3
AutoCAD 2000
 90
    32768
280
     0
281
     0
  0
ENDSEC
  0
SECTION
  2
TABLES
  0
TABLE
  2
VPORT
  5
8
330
0
100
AcDbSymbolTable
 70
     3
  0
VPORT
  5
3AD8
330
8
100
AcDbSymbolTableRecord
100
AcDbViewportTableRecord
  2
*ACTIVE
 70
     0
 10
0.0
 20
0.0
 11
1.0
 21
1.0
 12
-0.9794924243707789
 22
2.502478233986071
 13
0.0
 23
0.0
 14
1.0
 24
1.0
 15
0.0
 25
0.0
 16
0.0
 26
0.0
 36
1.0
 17
0.0
 27
0.0
 37
0.0
 40
10.97554147207905
 41
1.740671641791045
 42
50.0
 43
0.0
 44
0.0
 50
0.0
 51
0.0
 71
     0
 72
   100
 73
     1
 74
     1
 75
     0
 76
     0
 77
     0
 78
     0
  0
ENDTAB
  0
TABLE
  2
LTYPE
  5
5
330
0
100
AcDbSymbolTable
 70
    25
  0
LTYPE
  5
13
330
5
100
AcDbSymbolTableRecord
100
AcDbLinetypeTableRecord
  2
BYBLOCK
 70
     0
  3

 72
    65
 73
     0
 40
0.0
  0
LTYPE
  5
14
330
5
100
AcDbSymbolTableRecord
100
AcDbLinetypeTableRecord
  2
BYLAYER
 70
     0
  3

 72
    65
 73
     0
 40
0.0
  0
LTYPE
  5
15
330
5
100
AcDbSymbolTableRecord
100
AcDbLinetypeTableRecord
  2
CONTINUOUS
 70
     0
  3
Solid line
 72
    65
 73
     0
 40
0.0
  0
LTYPE
  5
22
330
5
100
AcDbSymbolTableRecord
100
AcDbLinetypeTableRecord
  2
BORDER
 70
     0
  3
__ __ . __ __ . __ __ . __ __ . __ __ . __ __ .
 72
    65
 73
     6
 40
1.75
 49
0.5
 74
     0
 49
-0.25
 74
     0
 49
0.5
 74
     0
 49
-0.25
 74
     0
 49
0.5
 74
     0
 49
-0.25
 74
     0
  0
LTYPE
  5
23
330
5
100
AcDbSymbolTableRecord
100
AcDbLinetypeTableRecord
  2
BORDER2
 70
     0
  3
__.__.__.__.__.__.__.__.__.__.__.__.__.__.__.__
 72
    65
 73
     6
 40
0.875
 49
0.25
 74
     0
 49
-0.125
 74
     0
 49
0.25
 74
     0
 49
-0.125
 74
     0
 49
0.25
 74
     0
 49
-0.125
 74
     0
  0
LTYPE
  5
24
330
5
100
AcDbSymbolTableRecord
100
AcDbLinetypeTableRecord
  2
BORDERX2
 70
     0
  3
____  ____  .  ____  ____  .  
 72
    65
 73
     6
 40
3.5
 49
1.0
 74
     0
 49
-0.5
 74
     0
 49
1.0
 74
     0
 49
-0.5
 74
     0
 49
1.0
 74
     0
 49
-0.5
 74
     0
  0
LTYPE
  5
25
330
5
100
AcDbSymbolTableRecord
100
AcDbLinetypeTableRecord
  2
CENTER
 70
     0
  3
____ _ ____ _ ____ _ ____ _ ____ _ ____ _ ____
 72
    65
 73
     4
 40
2.0
 49
1.25
 74
     0
 49
-0.25
 74
     0
 49
0.25
 74
     0
 49
-0.25
 74
     0
  0
LTYPE
  5
26
330
5
100
AcDbSymbolTableRecord
100
AcDbLinetypeTableRecord
  2
CENTER2
 70
     0
  3
____ _ ____ _ ____ _ ____ _ ____ _ ____ _ ____
 72
    65
 73
     4
 40
1.125
 49
0.75
 74
     0
 49
-0.125
 74
     0
 49
0.125
 74
     0
 49
-0.125
 74
     0
  0
LTYPE
  5
27
330
5
100
AcDbSymbolTableRecord
100
AcDbLinetypeTableRecord
  2
CENTERX2
 70
     0
  3
________  __  ________  __  ________  __  
 72
    65
 73
     4
 40
4.0
 49
2.5
 74
     0
 49
-0.5
 74
     0
 49
0.5
 74
     0
 49
-0.5
 74
     0
  0
LTYPE
  5
28
330
5
100
AcDbSymbolTableRecord
100
AcDbLinetypeTableRecord
  2
DASHDOT
 70
     0
  3
__ . __ . __ . __ . __ . __ . __ . 
 72
    65
 73
     4
 40
1.0
 49
0.5
 74
     0
 49
-0.25
 74
     0
 49
0.0
 74
     0
 49
-0.25
 74
     0
  0
LTYPE
  5
29
330
5
100
AcDbSymbolTableRecord
100
AcDbLinetypeTableRecord
  2
DASHDOT2
 70
     0
  3
_._._._._._._._._._._._._._._._.
 72
    65
 73
     4
 40
0.5
 49
0.25
 74
     0
 49
-0.125
 74
     0
 49
0.0
 74
     0
 49
-0.125
 74
     0
  0
LTYPE
  5
2A
330
5
100
AcDbSymbolTableRecord
100
AcDbLinetypeTableRecord
  2
DASHDOTX2
 70
     0
  3
____  .  ____  .  ____  .  ____  .  
 72
    65
 73
     4
 40
2.0
 49
1.0
 74
     0
 49
-0.5
 74
     0
 49
0.0
 74
     0
 49
-0.5
 74
     0
  0
LTYPE
  5
2B
330
5
100
AcDbSymbolTableRecord
100
AcDbLinetypeTableRecord
  2
DASHED
 70
     0
  3
__ __ __ __ __ __ __ __ __ __ __ __ 
 72
    65
 73
     2
 40
0.75
 49
0.5
 74
     0
 49
-0.25
 74
     0
  0
LTYPE
  5
2C
330
5
100
AcDbSymbolTableRecord
100
AcDbLinetypeTableRecord
  2
DASHED2
 70
     0
  3
_ _ _ _ _ _ _ _ _ _ _ _ _ _ _ _ _ _ 
 72
    65
 73
     2
 40
0.375
 49
0.25
 74
     0
 49
-0.125
 74
     0
  0
LTYPE
  5
2D
330
5
100
AcDbSymbolTableRecord
100
AcDbLinetypeTableRecord
  2
DASHEDX2
 70
     0
  3
____  ____  ____  ____  ____  ____  
 72
    65
 73
     2
 40
1.5
 49
1.0
 74
     0
 49
-0.5
 74
     0
  0
LTYPE
  5
2E
330
5
100
AcDbSymbolTableRecord
100
AcDbLinetypeTableRecord
  2
DIVIDE
 70
     0
  3
____ . . ____ . . ____ . . ____ . . 
 72
    65
 73
     6
 40
1.25
 49
0.5
 74
     0
 49
-0.25
 74
     0
 49
0.0
 74
     0
 49
-0.25
 74
     0
 49
0.0
 74
     0
 49
-0.25
 74
     0
  0
LTYPE
  5
2F
330
5
100
AcDbSymbolTableRecord
100
AcDbLinetypeTableRecord
  2
DIVIDE2
 70
     0
  3
__..__..__..__..__..__..__..__..__..
 72
    65
 73
     6
 40
0.625
 49
0.25
 74
     0
 49
-0.125
 74
     0
 49
0.0
 74
     0
 49
-0.125
 74
     0
 49
0.0
 74
     0
 49
-0.125
 74
     0
  0
LTYPE
  5
30
330
5
100
AcDbSymbolTableRecord
100
AcDbLinetypeTableRecord
  2
DIVIDEX2
 70
     0
  3
________  .  .  ________  .  .  ________  .  . 
 72
    65
 73
     6
 40
2.5
 49
1.0
 74
     0
 49
-0.5
 74
     0
 49
0.0
 74
     0
 49
-0.5
 74
     0
 49
0.0
 74
     0
 49
-0.5
 74
     0
  0
LTYPE
  5
31
330
5
100
AcDbSymbolTableRecord
100
AcDbLinetypeTableRecord
  2
DOT
 70
     0
  3
. . . . . . . . . . . . . . . . . . 
 72
    65
 73
     2
 40
0.25
 49
0.0
 74
     0
 49
-0.25
 74
     0
  0
LTYPE
  5
32
330
5
100
AcDbSymbolTableRecord
100
AcDbLinetypeTableRecord
  2
DOT2
 70
     0
  3
....................................
 72
    65
 73
     2
 40
0.125
 49
0.0
 74
     0
 49
-0.125
 74
     0
  0
LTYPE
  5
33
330
5
100
AcDbSymbolTableRecord
100
AcDbLinetypeTableRecord
  2
DOTX2
 70
     0
  3
.  .  .  .  .  .  .  .  .  .  .  .  .  
 72
    65
 73
     2
 40
0.5
 49
0.0
 74
     0
 49
-0.5
 74
     0
  0
LTYPE
  5
34
330
5
100
AcDbSymbolTableRecord
100
AcDbLinetypeTableRecord
  2
HIDDEN
 70
     0
  3
__ __ __ __ __ __ __ __ __ __ __ __ 
 72
    65
 73
     2
 40
0.375
 49
0.25
 74
     0
 49
-0.125
 74
     0
  0
LTYPE
  5
35
330
5
100
AcDbSymbolTableRecord
100
AcDbLinetypeTableRecord
  2
HIDDEN2
 70
     0
  3
_ _ _ _ _ _ _ _ _ _ _ _ _ _ _ _ _ _ 
 72
    65
 73
     2
 40
0.1875
 49
0.125
 74
     0
 49
-0.0625
 74
     0
  0
LTYPE
  5
36
330
5
100
AcDbSymbolTableRecord
100
AcDbLinetypeTableRecord
  2
HIDDENX2
 70
     0
  3
____ ____ ____ ____ ____ ____ ____ 
 72
    65
 73
     2
 40
0.75
 49
0.5
 74
     0
 49
-0.25
 74
     0
  0
LTYPE
  5
37
330
5
100
AcDbSymbolTableRecord
100
AcDbLinetypeTableRecord
  2
PHANTOM
 70
     0
  3
______  __  __  ______  __  __  
 72
    65
 73
     6
 40
2.5
 49
1.25
 74
     0
 49
-0.25
 74
     0
 49
0.25
 74
     0
 49
-0.25
 74
     0
 49
0.25
 74
     0
 49
-0.25
 74
     0
  0
LTYPE
  5
38
330
5
100
AcDbSymbolTableRecord
100
AcDbLinetypeTableRecord
  2
PHANTOM2
 70
     0
  3
___ _ _ ___ _ _ ___ _ _ ___ _ _ 
 72
    65
 73
     6
 40
1.25
 49
0.625
 74
     0
 49
-0.125
 74
     0
 49
0.125
 74
     0
 49
-0.125
 74
     0
 49
0.125
 74
     0
 49
-0.125
 74
     0
  0
LTYPE
  5
39
330
5
100
AcDbSymbolTableRecord
100
AcDbLinetypeTableRecord
  2
PHANTOMX2
 70
     0
  3
___ _ _ ___ _ _ ___ _ _ ___ _ _ 
 72
    65
 73
     6
 40
5.0
 49
2.5
 74
     0
 49
-0.5
 74
     0
 49
0.5
 74
     0
 49
-0.5
 74
     0
 49
0.5
 74
     0
 49
-0.5
 74
     0
  0
ENDTAB
  0
TABLE
  2
LAYER
  5
2
330
0
100
AcDbSymbolTable
 70
   257
  0
LAYER
  5
10
330
2
100
AcDbSymbolTableRecord
100
AcDbLayerTableRecord
  2
0
 70
     0
 62
     7
  6
CONTINUOUS
  0
LAYER
  5
3A
330
2
100
AcDbSymbolTableRecord
100
AcDbLayerTableRecord
  2
1
 70
     0
 62
     1
  6
CONTINUOUS
  0
LAYER
  5
3B
330
2
100
AcDbSymbolTableRecord
100
AcDbLayerTableRecord
  2
2
 70
     0
 62
     2
  6
CONTINUOUS
  0
LAYER
  5
3C
330
2
100
AcDbSymbolTableRecord
100
AcDbLayerTableRecord
  2
3
 70
     0
 62
     3
  6
CONTINUOUS
  0
LAYER
  5
3D
330
2
100
AcDbSymbolTableRecord
100
AcDbLayerTableRecord
  2
4
 70
     0
 62
     4
  6
CONTINUOUS
  0
LAYER
  5
3E
330
2
100
AcDbSymbolTableRecord
100
AcDbLayerTableRecord
  2
5
 70
     0
 62
     5
  6
CONTINUOUS
  0
LAYER
  5
3F
330
2
100
AcDbSymbolTableRecord
100
AcDbLayerTableRecord
  2
6
 70
     0
 62
     6
  6
CONTINUOUS
  0
LAYER
  5
40
330
2
100
AcDbSymbolTableRecord
100
AcDbLayerTableRecord
  2
7
 70
     0
 62
     7
  6
CONTINUOUS
  0
LAYER
  5
41
330
2
100
AcDbSymbolTableRecord
100
AcDbLayerTableRecord
  2
8
 70
     0
 62
     8
  6
CONTINUOUS
  0
LAYER
  5
42
330
2
100
AcDbSymbolTableRecord
100
AcDbLayerTableRecord
  2
9
 70
     0
 62
     9
  6
CONTINUOUS
  0
LAYER
  5
43
330
2
100
AcDbSymbolTableRecord
100
AcDbLayerTableRecord
  2
10
 70
     0
 62
    10
  6
CONTINUOUS
  0
LAYER
  5
44
330
2
100
AcDbSymbolTableRecord
100
AcDbLayerTableRecord
  2
11
 70
     0
 62
    11
  6
CONTINUOUS
  0
LAYER
  5
45
330
2
100
AcDbSymbolTableRecord
100
AcDbLayerTableRecord
  2
12
 70
     0
 62
    12
  6
CONTINUOUS
  0
LAYER
  5
46
330
2
100
AcDbSymbolTableRecord
100
AcDbLayerTableRecord
  2
13
 70
     0
 62
    13
  6
CONTINUOUS
  0
LAYER
  5
47
330
2
100
AcDbSymbolTableRecord
100
AcDbLayerTableRecord
  2
14
 70
     0
 62
    14
  6
CONTINUOUS
  0
LAYER
  5
48
330
2
100
AcDbSymbolTableRecord
100
AcDbLayerTableRecord
  2
15
 70
     0
 62
    15
  6
CONTINUOUS
  0
LAYER
  5
49
330
2
100
AcDbSymbolTableRecord
100
AcDbLayerTableRecord
  2
16
 70
     0
 62
    16
  6
CONTINUOUS
  0
LAYER
  5
4A
330
2
100
AcDbSymbolTableRecord
100
AcDbLayerTableRecord
  2
17
 70
     0
 62
    17
  6
CONTINUOUS
  0
LAYER
  5
4B
330
2
100
AcDbSymbolTableRecord
100
AcDbLayerTableRecord
  2
18
 70
     0
 62
    18
  6
CONTINUOUS
  0
LAYER
  5
4C
330
2
100
AcDbSymbolTableRecord
100
AcDbLayerTableRecord
  2
19
 70
     0
 62
    19
  6
CONTINUOUS
  0
LAYER
  5
4D
330
2
100
AcDbSymbolTableRecord
100
AcDbLayerTableRecord
  2
20
 70
     0
 62
    20
  6
CONTINUOUS
  0
LAYER
  5
4E
330
2
100
AcDbSymbolTableRecord
100
AcDbLayerTableRecord
  2
21
 70
     0
 62
    21
  6
CONTINUOUS
  0
LAYER
  5
4F
330
2
100
AcDbSymbolTableRecord
100
AcDbLayerTableRecord
  2
22
 70
     0
 62
    22
  6
CONTINUOUS
  0
LAYER
  5
50
330
2
100
AcDbSymbolTableRecord
100
AcDbLayerTableRecord
  2
23
 70
     0
 62
    23
  6
CONTINUOUS
  0
LAYER
  5
51
330
2
100
AcDbSymbolTableRecord
100
AcDbLayerTableRecord
  2
24
 70
     0
 62
    24
  6
CONTINUOUS
  0
LAYER
  5
52
330
2
100
AcDbSymbolTableRecord
100
AcDbLayerTableRecord
  2
25
 70
     0
 62
    25
  6
CONTINUOUS
  0
LAYER
  5
53
330
2
100
AcDbSymbolTableRecord
100
AcDbLayerTableRecord
  2
26
 70
     0
 62
    26
  6
CONTINUOUS
  0
LAYER
  5
54
330
2
100
AcDbSymbolTableRecord
100
AcDbLayerTableRecord
  2
27
 70
     0
 62
    27
  6
CONTINUOUS
  0
LAYER
  5
55
330
2
100
AcDbSymbolTableRecord
100
AcDbLayerTableRecord
  2
28
 70
     0
 62
    28
  6
CONTINUOUS
  0
LAYER
  5
56
330
2
100
AcDbSymbolTableRecord
100
AcDbLayerTableRecord
  2
29
 70
     0
 62
    29
  6
CONTINUOUS
  0
LAYER
  5
57
330
2
100
AcDbSymbolTableRecord
100
AcDbLayerTableRecord
  2
30
 70
     0
 62
    30
  6
CONTINUOUS
  0
LAYER
  5
58
330
2
100
AcDbSymbolTableRecord
100
AcDbLayerTableRecord
  2
31
 70
     0
 62
    31
  6
CONTINUOUS
  0
LAYER
  5
59
330
2
100
AcDbSymbolTableRecord
100
AcDbLayerTableRecord
  2
32
 70
     0
 62
    32
  6
CONTINUOUS
  0
LAYER
  5
5A
330
2
100
AcDbSymbolTableRecord
100
AcDbLayerTableRecord
  2
33
 70
     0
 62
    33
  6
CONTINUOUS
  0
LAYER
  5
5B
330
2
100
AcDbSymbolTableRecord
100
AcDbLayerTableRecord
  2
34
 70
     0
 62
    34
  6
CONTINUOUS
  0
LAYER
  5
5C
330
2
100
AcDbSymbolTableRecord
100
AcDbLayerTableRecord
  2
35
 70
     0
 62
    35
  6
CONTINUOUS
  0
LAYER
  5
5D
330
2
100
AcDbSymbolTableRecord
100
AcDbLayerTableRecord
  2
36
 70
     0
 62
    36
  6
CONTINUOUS
  0
LAYER
  5
5E
330
2
100
AcDbSymbolTableRecord
100
AcDbLayerTableRecord
  2
37
 70
     0
 62
    37
  6
CONTINUOUS
  0
LAYER
  5
5F
330
2
100
AcDbSymbolTableRecord
100
AcDbLayerTableRecord
  2
38
 70
     0
 62
    38
  6
CONTINUOUS
  0
LAYER
  5
60
330
2
100
AcDbSymbolTableRecord
100
AcDbLayerTableRecord
  2
39
 70
     0
 62
    39
  6
CONTINUOUS
  0
LAYER
  5
61
330
2
100
AcDbSymbolTableRecord
100
AcDbLayerTableRecord
  2
40
 70
     0
 62
    40
  6
CONTINUOUS
  0
LAYER
  5
62
330
2
100
AcDbSymbolTableRecord
100
AcDbLayerTableRecord
  2
41
 70
     0
 62
    41
  6
CONTINUOUS
  0
LAYER
  5
63
330
2
100
AcDbSymbolTableRecord
100
AcDbLayerTableRecord
  2
42
 70
     0
 62
    42
  6
CONTINUOUS
  0
LAYER
  5
64
330
2
100
AcDbSymbolTableRecord
100
AcDbLayerTableRecord
  2
43
 70
     0
 62
    43
  6
CONTINUOUS
  0
LAYER
  5
65
330
2
100
AcDbSymbolTableRecord
100
AcDbLayerTableRecord
  2
44
 70
     0
 62
    44
  6
CONTINUOUS
  0
LAYER
  5
66
330
2
100
AcDbSymbolTableRecord
100
AcDbLayerTableRecord
  2
45
 70
     0
 62
    45
  6
CONTINUOUS
  0
LAYER
  5
67
330
2
100
AcDbSymbolTableRecord
100
AcDbLayerTableRecord
  2
46
 70
     0
 62
    46
  6
CONTINUOUS
  0
LAYER
  5
68
330
2
100
AcDbSymbolTableRecord
100
AcDbLayerTableRecord
  2
47
 70
     0
 62
    47
  6
CONTINUOUS
  0
LAYER
  5
69
330
2
100
AcDbSymbolTableRecord
100
AcDbLayerTableRecord
  2
48
 70
     0
 62
    48
  6
CONTINUOUS
  0
LAYER
  5
6A
330
2
100
AcDbSymbolTableRecord
100
AcDbLayerTableRecord
  2
49
 70
     0
 62
    49
  6
CONTINUOUS
  0
LAYER
  5
6B
330
2
100
AcDbSymbolTableRecord
100
AcDbLayerTableRecord
  2
50
 70
     0
 62
    50
  6
CONTINUOUS
  0
LAYER
  5
6C
330
2
100
AcDbSymbolTableRecord
100
AcDbLayerTableRecord
  2
51
 70
     0
 62
    51
  6
CONTINUOUS
  0
LAYER
  5
6D
330
2
100
AcDbSymbolTableRecord
100
AcDbLayerTableRecord
  2
52
 70
     0
 62
    52
  6
CONTINUOUS
  0
LAYER
  5
6E
330
2
100
AcDbSymbolTableRecord
100
AcDbLayerTableRecord
  2
53
 70
     0
 62
    53
  6
CONTINUOUS
  0
LAYER
  5
6F
330
2
100
AcDbSymbolTableRecord
100
AcDbLayerTableRecord
  2
54
 70
     0
 62
    54
  6
CONTINUOUS
  0
LAYER
  5
70
330
2
100
AcDbSymbolTableRecord
100
AcDbLayerTableRecord
  2
55
 70
     0
 62
    55
  6
CONTINUOUS
  0
LAYER
  5
71
330
2
100
AcDbSymbolTableRecord
100
AcDbLayerTableRecord
  2
56
 70
     0
 62
    56
  6
CONTINUOUS
  0
LAYER
  5
72
330
2
100
AcDbSymbolTableRecord
100
AcDbLayerTableRecord
  2
57
 70
     0
 62
    57
  6
CONTINUOUS
  0
LAYER
  5
73
330
2
100
AcDbSymbolTableRecord
100
AcDbLayerTableRecord
  2
58
 70
     0
 62
    58
  6
CONTINUOUS
  0
LAYER
  5
74
330
2
100
AcDbSymbolTableRecord
100
AcDbLayerTableRecord
  2
59
 70
     0
 62
    59
  6
CONTINUOUS
  0
LAYER
  5
75
330
2
100
AcDbSymbolTableRecord
100
AcDbLayerTableRecord
  2
60
 70
     0
 62
    60
  6
CONTINUOUS
  0
LAYER
  5
76
330
2
100
AcDbSymbolTableRecord
100
AcDbLayerTableRecord
  2
61
 70
     0
 62
    61
  6
CONTINUOUS
  0
LAYER
  5
77
330
2
100
AcDbSymbolTableRecord
100
AcDbLayerTableRecord
  2
62
 70
     0
 62
    62
  6
CONTINUOUS
  0
LAYER
  5
78
330
2
100
AcDbSymbolTableRecord
100
AcDbLayerTableRecord
  2
63
 70
     0
 62
    63
  6
CONTINUOUS
  0
LAYER
  5
79
330
2
100
AcDbSymbolTableRecord
100
AcDbLayerTableRecord
  2
64
 70
     0
 62
    64
  6
CONTINUOUS
  0
LAYER
  5
7A
330
2
100
AcDbSymbolTableRecord
100
AcDbLayerTableRecord
  2
65
 70
     0
 62
    65
  6
CONTINUOUS
  0
LAYER
  5
7B
330
2
100
AcDbSymbolTableRecord
100
AcDbLayerTableRecord
  2
66
 70
     0
 62
    66
  6
CONTINUOUS
  0
LAYER
  5
7C
330
2
100
AcDbSymbolTableRecord
100
AcDbLayerTableRecord
  2
67
 70
     0
 62
    67
  6
CONTINUOUS
  0
LAYER
  5
7D
330
2
100
AcDbSymbolTableRecord
100
AcDbLayerTableRecord
  2
68
 70
     0
 62
    68
  6
CONTINUOUS
  0
LAYER
  5
7E
330
2
100
AcDbSymbolTableRecord
100
AcDbLayerTableRecord
  2
69
 70
     0
 62
    69
  6
CONTINUOUS
  0
LAYER
  5
7F
330
2
100
AcDbSymbolTableRecord
100
AcDbLayerTableRecord
  2
70
 70
     0
 62
    70
  6
CONTINUOUS
  0
LAYER
  5
80
330
2
100
AcDbSymbolTableRecord
100
AcDbLayerTableRecord
  2
71
 70
     0
 62
    71
  6
CONTINUOUS
  0
LAYER
  5
81
330
2
100
AcDbSymbolTableRecord
100
AcDbLayerTableRecord
  2
72
 70
     0
 62
    72
  6
CONTINUOUS
  0
LAYER
  5
82
330
2
100
AcDbSymbolTableRecord
100
AcDbLayerTableRecord
  2
73
 70
     0
 62
    73
  6
CONTINUOUS
  0
LAYER
  5
83
330
2
100
AcDbSymbolTableRecord
100
AcDbLayerTableRecord
  2
74
 70
     0
 62
    74
  6
CONTINUOUS
  0
LAYER
  5
84
330
2
100
AcDbSymbolTableRecord
100
AcDbLayerTableRecord
  2
75
 70
     0
 62
    75
  6
CONTINUOUS
  0
LAYER
  5
85
330
2
100
AcDbSymbolTableRecord
100
AcDbLayerTableRecord
  2
76
 70
     0
 62
    76
  6
CONTINUOUS
  0
LAYER
  5
86
330
2
100
AcDbSymbolTableRecord
100
AcDbLayerTableRecord
  2
77
 70
     0
 62
    77
  6
CONTINUOUS
  0
LAYER
  5
87
330
2
100
AcDbSymbolTableRecord
100
AcDbLayerTableRecord
  2
78
 70
     0
 62
    78
  6
CONTINUOUS
  0
LAYER
  5
88
330
2
100
AcDbSymbolTableRecord
100
AcDbLayerTableRecord
  2
79
 70
     0
 62
    79
  6
CONTINUOUS
  0
LAYER
  5
89
330
2
100
AcDbSymbolTableRecord
100
AcDbLayerTableRecord
  2
80
 70
     0
 62
    80
  6
CONTINUOUS
  0
LAYER
  5
8A
330
2
100
AcDbSymbolTableRecord
100
AcDbLayerTableRecord
  2
81
 70
     0
 62
    81
  6
CONTINUOUS
  0
LAYER
  5
8B
330
2
100
AcDbSymbolTableRecord
100
AcDbLayerTableRecord
  2
82
 70
     0
 62
    82
  6
CONTINUOUS
  0
LAYER
  5
8C
330
2
100
AcDbSymbolTableRecord
100
AcDbLayerTableRecord
  2
83
 70
     0
 62
    83
  6
CONTINUOUS
  0
LAYER
  5
8D
330
2
100
AcDbSymbolTableRecord
100
AcDbLayerTableRecord
  2
84
 70
     0
 62
    84
  6
CONTINUOUS
  0
LAYER
  5
8E
330
2
100
AcDbSymbolTableRecord
100
AcDbLayerTableRecord
  2
85
 70
     0
 62
    85
  6
CONTINUOUS
  0
LAYER
  5
8F
330
2
100
AcDbSymbolTableRecord
100
AcDbLayerTableRecord
  2
86
 70
     0
 62
    86
  6
CONTINUOUS
  0
LAYER
  5
90
330
2
100
AcDbSymbolTableRecord
100
AcDbLayerTableRecord
  2
87
 70
     0
 62
    87
  6
CONTINUOUS
  0
LAYER
  5
91
330
2
100
AcDbSymbolTableRecord
100
AcDbLayerTableRecord
  2
88
 70
     0
 62
    88
  6
CONTINUOUS
  0
LAYER
  5
92
330
2
100
AcDbSymbolTableRecord
100
AcDbLayerTableRecord
  2
89
 70
     0
 62
    89
  6
CONTINUOUS
  0
LAYER
  5
93
330
2
100
AcDbSymbolTableRecord
100
AcDbLayerTableRecord
  2
90
 70
     0
 62
    90
  6
CONTINUOUS
  0
LAYER
  5
94
330
2
100
AcDbSymbolTableRecord
100
AcDbLayerTableRecord
  2
91
 70
     0
 62
    91
  6
CONTINUOUS
  0
LAYER
  5
95
330
2
100
AcDbSymbolTableRecord
100
AcDbLayerTableRecord
  2
92
 70
     0
 62
    92
  6
CONTINUOUS
  0
LAYER
  5
96
330
2
100
AcDbSymbolTableRecord
100
AcDbLayerTableRecord
  2
93
 70
     0
 62
    93
  6
CONTINUOUS
  0
LAYER
  5
97
330
2
100
AcDbSymbolTableRecord
100
AcDbLayerTableRecord
  2
94
 70
     0
 62
    94
  6
CONTINUOUS
  0
LAYER
  5
98
330
2
100
AcDbSymbolTableRecord
100
AcDbLayerTableRecord
  2
95
 70
     0
 62
    95
  6
CONTINUOUS
  0
LAYER
  5
99
330
2
100
AcDbSymbolTableRecord
100
AcDbLayerTableRecord
  2
96
 70
     0
 62
    96
  6
CONTINUOUS
  0
LAYER
  5
9A
330
2
100
AcDbSymbolTableRecord
100
AcDbLayerTableRecord
  2
97
 70
     0
 62
    97
  6
CONTINUOUS
  0
LAYER
  5
9B
330
2
100
AcDbSymbolTableRecord
100
AcDbLayerTableRecord
  2
98
 70
     0
 62
    98
  6
CONTINUOUS
  0
LAYER
  5
9C
330
2
100
AcDbSymbolTableRecord
100
AcDbLayerTableRecord
  2
99
 70
     0
 62
    99
  6
CONTINUOUS
  0
LAYER
  5
9D
330
2
100
AcDbSymbolTableRecord
100
AcDbLayerTableRecord
  2
100
 70
     0
 62
   100
  6
CONTINUOUS
  0
LAYER
  5
9E
330
2
100
AcDbSymbolTableRecord
100
AcDbLayerTableRecord
  2
101
 70
     0
 62
   101
  6
CONTINUOUS
  0
LAYER
  5
9F
330
2
100
AcDbSymbolTableRecord
100
AcDbLayerTableRecord
  2
102
 70
     0
 62
   102
  6
CONTINUOUS
  0
LAYER
  5
A0
330
2
100
AcDbSymbolTableRecord
100
AcDbLayerTableRecord
  2
103
 70
     0
 62
   103
  6
CONTINUOUS
  0
LAYER
  5
A1
330
2
100
AcDbSymbolTableRecord
100
AcDbLayerTableRecord
  2
104
 70
     0
 62
   104
  6
CONTINUOUS
  0
LAYER
  5
A2
330
2
100
AcDbSymbolTableRecord
100
AcDbLayerTableRecord
  2
105
 70
     0
 62
   105
  6
CONTINUOUS
  0
LAYER
  5
A3
330
2
100
AcDbSymbolTableRecord
100
AcDbLayerTableRecord
  2
106
 70
     0
 62
   106
  6
CONTINUOUS
  0
LAYER
  5
A4
330
2
100
AcDbSymbolTableRecord
100
AcDbLayerTableRecord
  2
107
 70
     0
 62
   107
  6
CONTINUOUS
  0
LAYER
  5
A5
330
2
100
AcDbSymbolTableRecord
100
AcDbLayerTableRecord
  2
108
 70
     0
 62
   108
  6
CONTINUOUS
  0
LAYER
  5
A6
330
2
100
AcDbSymbolTableRecord
100
AcDbLayerTableRecord
  2
109
 70
     0
 62
   109
  6
CONTINUOUS
  0
LAYER
  5
A7
330
2
100
AcDbSymbolTableRecord
100
AcDbLayerTableRecord
  2
110
 70
     0
 62
   110
  6
CONTINUOUS
  0
LAYER
  5
A8
330
2
100
AcDbSymbolTableRecord
100
AcDbLayerTableRecord
  2
111
 70
     0
 62
   111
  6
CONTINUOUS
  0
LAYER
  5
A9
330
2
100
AcDbSymbolTableRecord
100
AcDbLayerTableRecord
  2
112
 70
     0
 62
   112
  6
CONTINUOUS
  0
LAYER
  5
AA
330
2
100
AcDbSymbolTableRecord
100
AcDbLayerTableRecord
  2
113
 70
     0
 62
   113
  6
CONTINUOUS
  0
LAYER
  5
AB
330
2
100
AcDbSymbolTableRecord
100
AcDbLayerTableRecord
  2
114
 70
     0
 62
   114
  6
CONTINUOUS
  0
LAYER
  5
AC
330
2
100
AcDbSymbolTableRecord
100
AcDbLayerTableRecord
  2
115
 70
     0
 62
   115
  6
CONTINUOUS
  0
LAYER
  5
AD
330
2
100
AcDbSymbolTableRecord
100
AcDbLayerTableRecord
  2
116
 70
     0
 62
   116
  6
CONTINUOUS
  0
LAYER
  5
AE
330
2
100
AcDbSymbolTableRecord
100
AcDbLayerTableRecord
  2
117
 70
     0
 62
   117
  6
CONTINUOUS
  0
LAYER
  5
AF
330
2
100
AcDbSymbolTableRecord
100
AcDbLayerTableRecord
  2
118
 70
     0
 62
   118
  6
CONTINUOUS
  0
LAYER
  5
B0
330
2
100
AcDbSymbolTableRecord
100
AcDbLayerTableRecord
  2
119
 70
     0
 62
   119
  6
CONTINUOUS
  0
LAYER
  5
B1
330
2
100
AcDbSymbolTableRecord
100
AcDbLayerTableRecord
  2
120
 70
     0
 62
   120
  6
CONTINUOUS
  0
LAYER
  5
B2
330
2
100
AcDbSymbolTableRecord
100
AcDbLayerTableRecord
  2
121
 70
     0
 62
   121
  6
CONTINUOUS
  0
LAYER
  5
B3
330
2
100
AcDbSymbolTableRecord
100
AcDbLayerTableRecord
  2
122
 70
     0
 62
   122
  6
CONTINUOUS
  0
LAYER
  5
B4
330
2
100
AcDbSymbolTableRecord
100
AcDbLayerTableRecord
  2
123
 70
     0
 62
   123
  6
CONTINUOUS
  0
LAYER
  5
B5
330
2
100
AcDbSymbolTableRecord
100
AcDbLayerTableRecord
  2
124
 70
     0
 62
   124
  6
CONTINUOUS
  0
LAYER
  5
B6
330
2
100
AcDbSymbolTableRecord
100
AcDbLayerTableRecord
  2
125
 70
     0
 62
   125
  6
CONTINUOUS
  0
LAYER
  5
B7
330
2
100
AcDbSymbolTableRecord
100
AcDbLayerTableRecord
  2
126
 70
     0
 62
   126
  6
CONTINUOUS
  0
LAYER
  5
B8
330
2
100
AcDbSymbolTableRecord
100
AcDbLayerTableRecord
  2
127
 70
     0
 62
   127
  6
CONTINUOUS
  0
LAYER
  5
B9
330
2
100
AcDbSymbolTableRecord
100
AcDbLayerTableRecord
  2
128
 70
     0
 62
   128
  6
CONTINUOUS
  0
LAYER
  5
BA
330
2
100
AcDbSymbolTableRecord
100
AcDbLayerTableRecord
  2
129
 70
     0
 62
   129
  6
CONTINUOUS
  0
LAYER
  5
BB
330
2
100
AcDbSymbolTableRecord
100
AcDbLayerTableRecord
  2
130
 70
     0
 62
   130
  6
CONTINUOUS
  0
LAYER
  5
BC
330
2
100
AcDbSymbolTableRecord
100
AcDbLayerTableRecord
  2
131
 70
     0
 62
   131
  6
CONTINUOUS
  0
LAYER
  5
BD
330
2
100
AcDbSymbolTableRecord
100
AcDbLayerTableRecord
  2
132
 70
     0
 62
   132
  6
CONTINUOUS
  0
LAYER
  5
BE
330
2
100
AcDbSymbolTableRecord
100
AcDbLayerTableRecord
  2
133
 70
     0
 62
   133
  6
CONTINUOUS
  0
LAYER
  5
BF
330
2
100
AcDbSymbolTableRecord
100
AcDbLayerTableRecord
  2
134
 70
     0
 62
   134
  6
CONTINUOUS
  0
LAYER
  5
C0
330
2
100
AcDbSymbolTableRecord
100
AcDbLayerTableRecord
  2
135
 70
     0
 62
   135
  6
CONTINUOUS
  0
LAYER
  5
C1
330
2
100
AcDbSymbolTableRecord
100
AcDbLayerTableRecord
  2
136
 70
     0
 62
   136
  6
CONTINUOUS
  0
LAYER
  5
C2
330
2
100
AcDbSymbolTableRecord
100
AcDbLayerTableRecord
  2
137
 70
     0
 62
   137
  6
CONTINUOUS
  0
LAYER
  5
C3
330
2
100
AcDbSymbolTableRecord
100
AcDbLayerTableRecord
  2
138
 70
     0
 62
   138
  6
CONTINUOUS
  0
LAYER
  5
C4
330
2
100
AcDbSymbolTableRecord
100
AcDbLayerTableRecord
  2
139
 70
     0
 62
   139
  6
CONTINUOUS
  0
LAYER
  5
C5
330
2
100
AcDbSymbolTableRecord
100
AcDbLayerTableRecord
  2
140
 70
     0
 62
   140
  6
CONTINUOUS
  0
LAYER
  5
C6
330
2
100
AcDbSymbolTableRecord
100
AcDbLayerTableRecord
  2
141
 70
     0
 62
   141
  6
CONTINUOUS
  0
LAYER
  5
C7
330
2
100
AcDbSymbolTableRecord
100
AcDbLayerTableRecord
  2
142
 70
     0
 62
   142
  6
CONTINUOUS
  0
LAYER
  5
C8
330
2
100
AcDbSymbolTableRecord
100
AcDbLayerTableRecord
  2
143
 70
     0
 62
   143
  6
CONTINUOUS
  0
LAYER
  5
C9
330
2
100
AcDbSymbolTableRecord
100
AcDbLayerTableRecord
  2
144
 70
     0
 62
   144
  6
CONTINUOUS
  0
LAYER
  5
CA
330
2
100
AcDbSymbolTableRecord
100
AcDbLayerTableRecord
  2
145
 70
     0
 62
   145
  6
CONTINUOUS
  0
LAYER
  5
CB
330
2
100
AcDbSymbolTableRecord
100
AcDbLayerTableRecord
  2
146
 70
     0
 62
   146
  6
CONTINUOUS
  0
LAYER
  5
CC
330
2
100
AcDbSymbolTableRecord
100
AcDbLayerTableRecord
  2
147
 70
     0
 62
   147
  6
CONTINUOUS
  0
LAYER
  5
CD
330
2
100
AcDbSymbolTableRecord
100
AcDbLayerTableRecord
  2
148
 70
     0
 62
   148
  6
CONTINUOUS
  0
LAYER
  5
CE
330
2
100
AcDbSymbolTableRecord
100
AcDbLayerTableRecord
  2
149
 70
     0
 62
   149
  6
CONTINUOUS
  0
LAYER
  5
CF
330
2
100
AcDbSymbolTableRecord
100
AcDbLayerTableRecord
  2
150
 70
     0
 62
   150
  6
CONTINUOUS
  0
LAYER
  5
D0
330
2
100
AcDbSymbolTableRecord
100
AcDbLayerTableRecord
  2
151
 70
     0
 62
   151
  6
CONTINUOUS
  0
LAYER
  5
D1
330
2
100
AcDbSymbolTableRecord
100
AcDbLayerTableRecord
  2
152
 70
     0
 62
   152
  6
CONTINUOUS
  0
LAYER
  5
D2
330
2
100
AcDbSymbolTableRecord
100
AcDbLayerTableRecord
  2
153
 70
     0
 62
   153
  6
CONTINUOUS
  0
LAYER
  5
D3
330
2
100
AcDbSymbolTableRecord
100
AcDbLayerTableRecord
  2
154
 70
     0
 62
   154
  6
CONTINUOUS
  0
LAYER
  5
D4
330
2
100
AcDbSymbolTableRecord
100
AcDbLayerTableRecord
  2
155
 70
     0
 62
   155
  6
CONTINUOUS
  0
LAYER
  5
D5
330
2
100
AcDbSymbolTableRecord
100
AcDbLayerTableRecord
  2
156
 70
     0
 62
   156
  6
CONTINUOUS
  0
LAYER
  5
D6
330
2
100
AcDbSymbolTableRecord
100
AcDbLayerTableRecord
  2
157
 70
     0
 62
   157
  6
CONTINUOUS
  0
LAYER
  5
D7
330
2
100
AcDbSymbolTableRecord
100
AcDbLayerTableRecord
  2
158
 70
     0
 62
   158
  6
CONTINUOUS
  0
LAYER
  5
D8
330
2
100
AcDbSymbolTableRecord
100
AcDbLayerTableRecord
  2
159
 70
     0
 62
   159
  6
CONTINUOUS
  0
LAYER
  5
D9
330
2
100
AcDbSymbolTableRecord
100
AcDbLayerTableRecord
  2
160
 70
     0
 62
   160
  6
CONTINUOUS
  0
LAYER
  5
DA
330
2
100
AcDbSymbolTableRecord
100
AcDbLayerTableRecord
  2
161
 70
     0
 62
   161
  6
CONTINUOUS
  0
LAYER
  5
DB
330
2
100
AcDbSymbolTableRecord
100
AcDbLayerTableRecord
  2
162
 70
     0
 62
   162
  6
CONTINUOUS
  0
LAYER
  5
DC
330
2
100
AcDbSymbolTableRecord
100
AcDbLayerTableRecord
  2
163
 70
     0
 62
   163
  6
CONTINUOUS
  0
LAYER
  5
DD
330
2
100
AcDbSymbolTableRecord
100
AcDbLayerTableRecord
  2
164
 70
     0
 62
   164
  6
CONTINUOUS
  0
LAYER
  5
DE
330
2
100
AcDbSymbolTableRecord
100
AcDbLayerTableRecord
  2
165
 70
     0
 62
   165
  6
CONTINUOUS
  0
LAYER
  5
DF
330
2
100
AcDbSymbolTableRecord
100
AcDbLayerTableRecord
  2
166
 70
     0
 62
   166
  6
CONTINUOUS
  0
LAYER
  5
E0
330
2
100
AcDbSymbolTableRecord
100
AcDbLayerTableRecord
  2
167
 70
     0
 62
   167
  6
CONTINUOUS
  0
LAYER
  5
E1
330
2
100
AcDbSymbolTableRecord
100
AcDbLayerTableRecord
  2
168
 70
     0
 62
   168
  6
CONTINUOUS
  0
LAYER
  5
E2
330
2
100
AcDbSymbolTableRecord
100
AcDbLayerTableRecord
  2
169
 70
     0
 62
   169
  6
CONTINUOUS
  0
LAYER
  5
E3
330
2
100
AcDbSymbolTableRecord
100
AcDbLayerTableRecord
  2
170
 70
     0
 62
   170
  6
CONTINUOUS
  0
LAYER
  5
E4
330
2
100
AcDbSymbolTableRecord
100
AcDbLayerTableRecord
  2
171
 70
     0
 62
   171
  6
CONTINUOUS
  0
LAYER
  5
E5
330
2
100
AcDbSymbolTableRecord
100
AcDbLayerTableRecord
  2
172
 70
     0
 62
   172
  6
CONTINUOUS
  0
LAYER
  5
E6
330
2
100
AcDbSymbolTableRecord
100
AcDbLayerTableRecord
  2
173
 70
     0
 62
   173
  6
CONTINUOUS
  0
LAYER
  5
E7
330
2
100
AcDbSymbolTableRecord
100
AcDbLayerTableRecord
  2
174
 70
     0
 62
   174
  6
CONTINUOUS
  0
LAYER
  5
E8
330
2
100
AcDbSymbolTableRecord
100
AcDbLayerTableRecord
  2
175
 70
     0
 62
   175
  6
CONTINUOUS
  0
LAYER
  5
E9
330
2
100
AcDbSymbolTableRecord
100
AcDbLayerTableRecord
  2
176
 70
     0
 62
   176
  6
CONTINUOUS
  0
LAYER
  5
EA
330
2
100
AcDbSymbolTableRecord
100
AcDbLayerTableRecord
  2
177
 70
     0
 62
   177
  6
CONTINUOUS
  0
LAYER
  5
EB
330
2
100
AcDbSymbolTableRecord
100
AcDbLayerTableRecord
  2
178
 70
     0
 62
   178
  6
CONTINUOUS
  0
LAYER
  5
EC
330
2
100
AcDbSymbolTableRecord
100
AcDbLayerTableRecord
  2
179
 70
     0
 62
   179
  6
CONTINUOUS
  0
LAYER
  5
ED
330
2
100
AcDbSymbolTableRecord
100
AcDbLayerTableRecord
  2
180
 70
     0
 62
   180
  6
CONTINUOUS
  0
LAYER
  5
EE
330
2
100
AcDbSymbolTableRecord
100
AcDbLayerTableRecord
  2
181
 70
     0
 62
   181
  6
CONTINUOUS
  0
LAYER
  5
EF
330
2
100
AcDbSymbolTableRecord
100
AcDbLayerTableRecord
  2
182
 70
     0
 62
   182
  6
CONTINUOUS
  0
LAYER
  5
F0
330
2
100
AcDbSymbolTableRecord
100
AcDbLayerTableRecord
  2
183
 70
     0
 62
   183
  6
CONTINUOUS
  0
LAYER
  5
F1
330
2
100
AcDbSymbolTableRecord
100
AcDbLayerTableRecord
  2
184
 70
     0
 62
   184
  6
CONTINUOUS
  0
LAYER
  5
F2
330
2
100
AcDbSymbolTableRecord
100
AcDbLayerTableRecord
  2
185
 70
     0
 62
   185
  6
CONTINUOUS
  0
LAYER
  5
F3
330
2
100
AcDbSymbolTableRecord
100
AcDbLayerTableRecord
  2
186
 70
     0
 62
   186
  6
CONTINUOUS
  0
LAYER
  5
F4
330
2
100
AcDbSymbolTableRecord
100
AcDbLayerTableRecord
  2
187
 70
     0
 62
   187
  6
CONTINUOUS
  0
LAYER
  5
F5
330
2
100
AcDbSymbolTableRecord
100
AcDbLayerTableRecord
  2
188
 70
     0
 62
   188
  6
CONTINUOUS
  0
LAYER
  5
F6
330
2
100
AcDbSymbolTableRecord
100
AcDbLayerTableRecord
  2
189
 70
     0
 62
   189
  6
CONTINUOUS
  0
LAYER
  5
F7
330
2
100
AcDbSymbolTableRecord
100
AcDbLayerTableRecord
  2
190
 70
     0
 62
   190
  6
CONTINUOUS
  0
LAYER
  5
F8
330
2
100
AcDbSymbolTableRecord
100
AcDbLayerTableRecord
  2
191
 70
     0
 62
   191
  6
CONTINUOUS
  0
LAYER
  5
F9
330
2
100
AcDbSymbolTableRecord
100
AcDbLayerTableRecord
  2
192
 70
     0
 62
   192
  6
CONTINUOUS
  0
LAYER
  5
FA
330
2
100
AcDbSymbolTableRecord
100
AcDbLayerTableRecord
  2
193
 70
     0
 62
   193
  6
CONTINUOUS
  0
LAYER
  5
FB
330
2
100
AcDbSymbolTableRecord
100
AcDbLayerTableRecord
  2
194
 70
     0
 62
   194
  6
CONTINUOUS
  0
LAYER
  5
FC
330
2
100
AcDbSymbolTableRecord
100
AcDbLayerTableRecord
  2
195
 70
     0
 62
   195
  6
CONTINUOUS
  0
LAYER
  5
FD
330
2
100
AcDbSymbolTableRecord
100
AcDbLayerTableRecord
  2
196
 70
     0
 62
   196
  6
CONTINUOUS
  0
LAYER
  5
FE
330
2
100
AcDbSymbolTableRecord
100
AcDbLayerTableRecord
  2
197
 70
     0
 62
   197
  6
CONTINUOUS
  0
LAYER
  5
FF
330
2
100
AcDbSymbolTableRecord
100
AcDbLayerTableRecord
  2
198
 70
     0
 62
   198
  6
CONTINUOUS
  0
LAYER
  5
100
330
2
100
AcDbSymbolTableRecord
100
AcDbLayerTableRecord
  2
199
 70
     0
 62
   199
  6
CONTINUOUS
  0
LAYER
  5
101
330
2
100
AcDbSymbolTableRecord
100
AcDbLayerTableRecord
  2
200
 70
     0
 62
   200
  6
CONTINUOUS
  0
LAYER
  5
102
330
2
100
AcDbSymbolTableRecord
100
AcDbLayerTableRecord
  2
201
 70
     0
 62
   201
  6
CONTINUOUS
  0
LAYER
  5
103
330
2
100
AcDbSymbolTableRecord
100
AcDbLayerTableRecord
  2
202
 70
     0
 62
   202
  6
CONTINUOUS
  0
LAYER
  5
104
330
2
100
AcDbSymbolTableRecord
100
AcDbLayerTableRecord
  2
203
 70
     0
 62
   203
  6
CONTINUOUS
  0
LAYER
  5
105
330
2
100
AcDbSymbolTableRecord
100
AcDbLayerTableRecord
  2
204
 70
     0
 62
   204
  6
CONTINUOUS
  0
LAYER
  5
106
330
2
100
AcDbSymbolTableRecord
100
AcDbLayerTableRecord
  2
205
 70
     0
 62
   205
  6
CONTINUOUS
  0
LAYER
  5
107
330
2
100
AcDbSymbolTableRecord
100
AcDbLayerTableRecord
  2
206
 70
     0
 62
   206
  6
CONTINUOUS
  0
LAYER
  5
108
330
2
100
AcDbSymbolTableRecord
100
AcDbLayerTableRecord
  2
207
 70
     0
 62
   207
  6
CONTINUOUS
  0
LAYER
  5
109
330
2
100
AcDbSymbolTableRecord
100
AcDbLayerTableRecord
  2
208
 70
     0
 62
   208
  6
CONTINUOUS
  0
LAYER
  5
10A
330
2
100
AcDbSymbolTableRecord
100
AcDbLayerTableRecord
  2
209
 70
     0
 62
   209
  6
CONTINUOUS
  0
LAYER
  5
10B
330
2
100
AcDbSymbolTableRecord
100
AcDbLayerTableRecord
  2
210
 70
     0
 62
   210
  6
CONTINUOUS
  0
LAYER
  5
10C
330
2
100
AcDbSymbolTableRecord
100
AcDbLayerTableRecord
  2
211
 70
     0
 62
   211
  6
CONTINUOUS
  0
LAYER
  5
10D
330
2
100
AcDbSymbolTableRecord
100
AcDbLayerTableRecord
  2
212
 70
     0
 62
   212
  6
CONTINUOUS
  0
LAYER
  5
10E
330
2
100
AcDbSymbolTableRecord
100
AcDbLayerTableRecord
  2
213
 70
     0
 62
   213
  6
CONTINUOUS
  0
LAYER
  5
10F
330
2
100
AcDbSymbolTableRecord
100
AcDbLayerTableRecord
  2
214
 70
     0
 62
   214
  6
CONTINUOUS
  0
LAYER
  5
110
330
2
100
AcDbSymbolTableRecord
100
AcDbLayerTableRecord
  2
215
 70
     0
 62
   215
  6
CONTINUOUS
  0
LAYER
  5
111
330
2
100
AcDbSymbolTableRecord
100
AcDbLayerTableRecord
  2
216
 70
     0
 62
   216
  6
CONTINUOUS
  0
LAYER
  5
112
330
2
100
AcDbSymbolTableRecord
100
AcDbLayerTableRecord
  2
217
 70
     0
 62
   217
  6
CONTINUOUS
  0
LAYER
  5
113
330
2
100
AcDbSymbolTableRecord
100
AcDbLayerTableRecord
  2
218
 70
     0
 62
   218
  6
CONTINUOUS
  0
LAYER
  5
114
330
2
100
AcDbSymbolTableRecord
100
AcDbLayerTableRecord
  2
219
 70
     0
 62
   219
  6
CONTINUOUS
  0
LAYER
  5
115
330
2
100
AcDbSymbolTableRecord
100
AcDbLayerTableRecord
  2
220
 70
     0
 62
   220
  6
CONTINUOUS
  0
LAYER
  5
116
330
2
100
AcDbSymbolTableRecord
100
AcDbLayerTableRecord
  2
221
 70
     0
 62
   221
  6
CONTINUOUS
  0
LAYER
  5
117
330
2
100
AcDbSymbolTableRecord
100
AcDbLayerTableRecord
  2
222
 70
     0
 62
   222
  6
CONTINUOUS
  0
LAYER
  5
118
330
2
100
AcDbSymbolTableRecord
100
AcDbLayerTableRecord
  2
223
 70
     0
 62
   223
  6
CONTINUOUS
  0
LAYER
  5
119
330
2
100
AcDbSymbolTableRecord
100
AcDbLayerTableRecord
  2
224
 70
     0
 62
   224
  6
CONTINUOUS
  0
LAYER
  5
11A
330
2
100
AcDbSymbolTableRecord
100
AcDbLayerTableRecord
  2
225
 70
     0
 62
   225
  6
CONTINUOUS
  0
LAYER
  5
11B
330
2
100
AcDbSymbolTableRecord
100
AcDbLayerTableRecord
  2
226
 70
     0
 62
   226
  6
CONTINUOUS
  0
LAYER
  5
11C
330
2
100
AcDbSymbolTableRecord
100
AcDbLayerTableRecord
  2
227
 70
     0
 62
   227
  6
CONTINUOUS
  0
LAYER
  5
11D
330
2
100
AcDbSymbolTableRecord
100
AcDbLayerTableRecord
  2
228
 70
     0
 62
   228
  6
CONTINUOUS
  0
LAYER
  5
11E
330
2
100
AcDbSymbolTableRecord
100
AcDbLayerTableRecord
  2
229
 70
     0
 62
   229
  6
CONTINUOUS
  0
LAYER
  5
11F
330
2
100
AcDbSymbolTableRecord
100
AcDbLayerTableRecord
  2
230
 70
     0
 62
   230
  6
CONTINUOUS
  0
LAYER
  5
120
330
2
100
AcDbSymbolTableRecord
100
AcDbLayerTableRecord
  2
231
 70
     0
 62
   231
  6
CONTINUOUS
  0
LAYER
  5
121
330
2
100
AcDbSymbolTableRecord
100
AcDbLayerTableRecord
  2
232
 70
     0
 62
   232
  6
CONTINUOUS
  0
LAYER
  5
122
330
2
100
AcDbSymbolTableRecord
100
AcDbLayerTableRecord
  2
233
 70
     0
 62
   233
  6
CONTINUOUS
  0
LAYER
  5
123
330
2
100
AcDbSymbolTableRecord
100
AcDbLayerTableRecord
  2
234
 70
     0
 62
   234
  6
CONTINUOUS
  0
LAYER
  5
124
330
2
100
AcDbSymbolTableRecord
100
AcDbLayerTableRecord
  2
235
 70
     0
 62
   235
  6
CONTINUOUS
  0
LAYER
  5
125
330
2
100
AcDbSymbolTableRecord
100
AcDbLayerTableRecord
  2
236
 70
     0
 62
   236
  6
CONTINUOUS
  0
LAYER
  5
126
330
2
100
AcDbSymbolTableRecord
100
AcDbLayerTableRecord
  2
237
 70
     0
 62
   237
  6
CONTINUOUS
  0
LAYER
  5
127
330
2
100
AcDbSymbolTableRecord
100
AcDbLayerTableRecord
  2
238
 70
     0
 62
   238
  6
CONTINUOUS
  0
LAYER
  5
128
330
2
100
AcDbSymbolTableRecord
100
AcDbLayerTableRecord
  2
239
 70
     0
 62
   239
  6
CONTINUOUS
  0
LAYER
  5
129
330
2
100
AcDbSymbolTableRecord
100
AcDbLayerTableRecord
  2
240
 70
     0
 62
   240
  6
CONTINUOUS
  0
LAYER
  5
12A
330
2
100
AcDbSymbolTableRecord
100
AcDbLayerTableRecord
  2
241
 70
     0
 62
   241
  6
CONTINUOUS
  0
LAYER
  5
12B
330
2
100
AcDbSymbolTableRecord
100
AcDbLayerTableRecord
  2
242
 70
     0
 62
   242
  6
CONTINUOUS
  0
LAYER
  5
12C
330
2
100
AcDbSymbolTableRecord
100
AcDbLayerTableRecord
  2
243
 70
     0
 62
   243
  6
CONTINUOUS
  0
LAYER
  5
12D
330
2
100
AcDbSymbolTableRecord
100
AcDbLayerTableRecord
  2
244
 70
     0
 62
   244
  6
CONTINUOUS
  0
LAYER
  5
12E
330
2
100
AcDbSymbolTableRecord
100
AcDbLayerTableRecord
  2
245
 70
     0
 62
   245
  6
CONTINUOUS
  0
LAYER
  5
12F
330
2
100
AcDbSymbolTableRecord
100
AcDbLayerTableRecord
  2
246
 70
     0
 62
   246
  6
CONTINUOUS
  0
LAYER
  5
130
330
2
100
AcDbSymbolTableRecord
100
AcDbLayerTableRecord
  2
247
 70
     0
 62
   247
  6
CONTINUOUS
  0
LAYER
  5
131
330
2
100
AcDbSymbolTableRecord
100
AcDbLayerTableRecord
  2
248
 70
     0
 62
   248
  6
CONTINUOUS
  0
LAYER
  5
132
330
2
100
AcDbSymbolTableRecord
100
AcDbLayerTableRecord
  2
249
 70
     0
 62
   249
  6
CONTINUOUS
  0
LAYER
  5
133
330
2
100
AcDbSymbolTableRecord
100
AcDbLayerTableRecord
  2
250
 70
     0
 62
   250
  6
CONTINUOUS
  0
LAYER
  5
134
330
2
100
AcDbSymbolTableRecord
100
AcDbLayerTableRecord
  2
251
 70
     0
 62
   251
  6
CONTINUOUS
  0
LAYER
  5
135
330
2
100
AcDbSymbolTableRecord
100
AcDbLayerTableRecord
  2
252
 70
     0
 62
   252
  6
CONTINUOUS
  0
LAYER
  5
136
330
2
100
AcDbSymbolTableRecord
100
AcDbLayerTableRecord
  2
253
 70
     0
 62
   253
  6
CONTINUOUS
  0
LAYER
  5
137
330
2
100
AcDbSymbolTableRecord
100
AcDbLayerTableRecord
  2
254
 70
     0
 62
   254
  6
CONTINUOUS
  0
LAYER
  5
138
330
2
100
AcDbSymbolTableRecord
100
AcDbLayerTableRecord
  2
255
 70
     0
 62
   255
  6
CONTINUOUS
  0
LAYER
  5
3A89
330
2
100
AcDbSymbolTableRecord
100
AcDbLayerTableRecord
  2
DEFPOINTS
 70
     0
 62
     7
  6
CONTINUOUS
  0
ENDTAB
  0
TABLE
  2
STYLE
  5
3
330
0
100
AcDbSymbolTable
 70
     1
  0
STYLE
  5
11
330
3
100
AcDbSymbolTableRecord
100
AcDbTextStyleTableRecord
  2
STANDARD
 70
     0
 40
0.0
 41
1.0
 50
0.0
 71
     0
 42
0.2
  3
monotxt
  4

  0
ENDTAB
  0
TABLE
  2
VIEW
  5
6
330
0
100
AcDbSymbolTable
 70
     0
  0
ENDTAB
  0
TABLE
  2
UCS
  5
7
330
0
100
AcDbSymbolTable
 70
     0
  0
ENDTAB
  0
TABLE
  2
APPID
  5
9
330
0
100
AcDbSymbolTable
 70
     1
  0
APPID
  5
12
330
9
100
AcDbSymbolTableRecord
100
AcDbRegAppTableRecord
  2
ACAD
 70
     0
  0
ENDTAB
  0
TABLE
  2
DIMSTYLE
  5
A
330
0
100
AcDbSymbolTable
 70
     1
  0
DIMSTYLE
105
2860
330
A
100
AcDbSymbolTableRecord
100
AcDbDimStyleTableRecord
  2
STANDARD
 70
     0
  3

  4

  5

  6

  7

 40
1.0
 41
0.18
 42
0.0625
 43
0.38
 44
0.18
 45
0.0
 46
0.0
 47
0.0
 48
0.0
140
0.18
141
0.09
142
0.0
143
25.4
144
1.0
145
0.0
146
1.0
147
0.09
 71
     0
 72
     0
 73
     1
 74
     1
 75
     0
 76
     0
 77
     0
 78
     0
170
     0
171
     2
172
     0
173
     0
174
     0
175
     0
176
     0
177
     0
178
     0
270
     2
271
     4
272
     4
273
     2
274
     2
340
11
275
     0
280
     0
281
     0
282
     0
283
     1
284
     0
285
     0
286
     0
287
     3
288
     0
  0
ENDTAB
  0
TABLE
  2
BLOCK_RECORD
  5
1
330
0
100
AcDbSymbolTable
 70
     1
  0
BLOCK_RECORD
  5
1E
102
{ACAD_XDICTIONARY
360
3A43
102
}
330
1
100
AcDbSymbolTableRecord
100
AcDbBlockTableRecord
  2
*MODEL_SPACE
  0
BLOCK_RECORD
  5
1A
102
{ACAD_XDICTIONARY
360
3A41
102
}
330
1
100
AcDbSymbolTableRecord
100
AcDbBlockTableRecord
  2
*PAPER_SPACE
  0
ENDTAB
  0
ENDSEC
  0
SECTION
  2
BLOCKS
  0
BLOCK
  5
13B
330
1E
100
AcDbEntity
  8
0
100
AcDbBlockBegin
  2
*MODEL_SPACE
 70
     0
 10
0.0
 20
0.0
 30
0.0
  3
*MODEL_SPACE
  1

  0
ENDBLK
  5
13C
330
1E
100
AcDbEntity
  8
0
100
AcDbBlockEnd
  0
BLOCK
  5
139
330
1A
100
AcDbEntity
 67
     1
  8
0
100
AcDbBlockBegin
  2
*PAPER_SPACE
 70
     0
 10
0.0
 20
0.0
 30
0.0
  3
*PAPER_SPACE
  1

  0
ENDBLK
  5
13A
330
1A
100
AcDbEntity
 67
     1
  8
0
100
AcDbBlockEnd
  0
ENDSEC
  0
SECTION
  2
ENTITIES
  0
LINE
  5
2621
330
1E
100
AcDbEntity
  8
7
100
AcDbLine
 10
-8.757205310858591
 20
5.637554111834648
 30
0.0
 11
6.794413226450183
 21
5.637554111834648
 31
0.0
  0
LINE
  5
2622
330
1E
100
AcDbEntity
  8
7
100
AcDbLine
 10
6.794413226450183
 20
5.877657561790569
 30
0.0
 11
-8.757205310858591
 21
5.877657561790569
 31
0.0
  0
LINE
  5
2623
330
1E
100
AcDbEntity
  8
7
100
AcDbLine
 10
-9.87900011802969
 20
4.755862754619476
 30
0.0
 11
-9.87900011802969
 21
3.850554664621748
 31
0.0
  0
LINE
  5
2624
330
1E
100
AcDbEntity
  8
7
100
AcDbLine
 10
-9.634960545943343
 20
3.850554664621748
 30
0.0
 11
-9.634960545943343
 21
4.755862754619476
 31
0.0
  0
LINE
  5
2625
330
1E
100
AcDbEntity
  8
7
100
AcDbLine
 10
7.672168461534937
 20
4.755862754619476
 30
0.0
 11
7.672168461534937
 21
3.850554664621748
 31
0.0
  0
LINE
  5
2626
330
1E
100
AcDbEntity
  8
7
100
AcDbLine
 10
7.916208033621284
 20
3.850554664621748
 30
0.0
 11
7.916208033621284
 21
4.755862754619476
 31
0.0
  0
LINE
  5
2640
330
1E
100
AcDbEntity
  8
7
100
AcDbLine
 10
-9.859319507377563
 20
4.948732739010289
 30
0.0
 11
-9.875063995899264
 21
4.755862754619476
 31
0.0
  0
LINE
  5
2681
330
1E
100
AcDbEntity
  8
7
100
AcDbLine
 10
-9.694002377899717
 20
4.755862754619476
 30
0.0
 11
-9.756980331986516
 21
4.755862754619476
 31
0.0
  0
LINE
  5
2695
330
1E
100
AcDbEntity
  8
7
100
AcDbLine
 10
-9.705810744290989
 20
3.866299153143449
 30
0.0
 11
-9.697938500030138
 21
3.878107519534719
 31
0.0
  0
LINE
  5
26A7
330
1E
100
AcDbEntity
  8
7
100
AcDbLine
 10
-9.709746866421413
 20
3.775768344143668
 30
0.0
 11
-9.800277675421185
 21
3.775768344143668
 31
0.0
  0
LINE
  5
26AE
330
1E
100
AcDbEntity
  8
7
100
AcDbLine
 10
-9.800277675421185
 20
3.185350024579932
 30
0.0
 11
-9.800277675421185
 21
3.775768344143668
 31
0.0
  0
LINE
  5
26CD
330
1E
100
AcDbEntity
  8
7
100
AcDbLine
 10
7.916208033621284
 20
4.755862754619476
 30
0.0
 11
7.900463545099588
 21
4.755862754619476
 31
0.0
  0
LINE
  5
26F0
330
1E
100
AcDbEntity
  8
7
100
AcDbLine
 10
7.841421713143207
 20
3.775768344143668
 30
0.0
 11
7.750890904143439
 21
3.775768344143668
 31
0.0
  0
LINE
  5
26F7
330
1E
100
AcDbEntity
  8
7
100
AcDbLine
 10
7.750890904143439
 20
3.157797169666964
 30
0.0
 11
7.750890904143439
 21
3.775768344143668
 31
0.0
  0
LINE
  5
270E
330
1E
100
AcDbEntity
  8
7
100
AcDbLine
 10
8.510562475315447
 20
3.157797169666964
 30
0.0
 11
8.510562475315447
 21
3.067266360667195
 31
0.0
  0
LINE
  5
270F
330
1E
100
AcDbEntity
  8
7
100
AcDbLine
 10
7.868974568056186
 20
3.157797169666964
 30
0.0
 11
8.510562475315447
 21
3.157797169666964
 31
0.0
  0
LINE
  5
2715
330
1E
100
AcDbEntity
  8
7
100
AcDbLine
 10
8.510562475315447
 20
3.067266360667195
 30
0.0
 11
7.841421713143207
 21
3.067266360667195
 31
0.0
  0
LINE
  5
273F
330
1E
100
AcDbEntity
  8
7
100
AcDbLine
 10
7.861102323795334
 20
3.823001809708771
 30
0.0
 11
7.868974568056186
 21
3.819065687578346
 31
0.0
  0
LINE
  5
2740
330
1E
100
AcDbEntity
  8
7
100
AcDbLine
 10
-9.800277675421185
 20
3.067266360667195
 30
0.0
 11
-10.46941843759342
 21
3.067266360667195
 31
0.0
  0
LINE
  5
274B
330
1E
100
AcDbEntity
  8
7
100
AcDbLine
 10
-10.46941843759342
 20
3.157797169666964
 30
0.0
 11
-9.831766652464592
 21
3.157797169666964
 31
0.0
  0
LINE
  5
274C
330
1E
100
AcDbEntity
  8
7
100
AcDbLine
 10
-10.46941843759342
 20
3.067266360667195
 30
0.0
 11
-10.46941843759342
 21
3.157797169666964
 31
0.0
  0
LINE
  5
276C
330
1E
100
AcDbEntity
  8
7
100
AcDbLine
 10
-9.823894408203742
 20
3.823001809708771
 30
0.0
 11
-9.831766652464592
 21
3.819065687578346
 31
0.0
  0
LINE
  5
2772
330
1E
100
AcDbEntity
  8
7
100
AcDbLine
 10
-8.757205310858591
 20
-0.7940694492796366
 30
0.0
 11
6.794413226450183
 21
-0.7940694492796366
 31
0.0
  0
LINE
  5
277D
330
1E
100
AcDbEntity
  8
7
100
AcDbLine
 10
-9.638896668073771
 20
-0.5539659993237187
 30
0.0
 11
-9.709746866421413
 21
-0.5539659993237187
 31
0.0
  0
LINE
  5
2791
330
1E
100
AcDbEntity
  8
7
100
AcDbLine
 10
7.680040705795786
 20
-0.7940694492796366
 30
0.0
 11
7.746954782013011
 21
-0.7940694492796366
 31
0.0
  0
LINE
  5
279C
330
1E
100
AcDbEntity
  8
7
100
AcDbLine
 10
-9.682194011508446
 20
-0.6208800755409439
 30
0.0
 11
-9.682194011508446
 21
-0.7271553730624172
 31
0.0
  0
LINE
  5
27AB
330
1E
100
AcDbEntity
  8
7
100
AcDbLine
 10
-9.709746866421413
 20
-0.475243556715224
 30
0.0
 11
-9.709746866421413
 21
-0.8727918918881361
 31
0.0
  0
LINE
  5
27BC
330
1E
100
AcDbEntity
  8
7
100
AcDbLine
 10
7.750890904143439
 20
-0.8727918918881361
 30
0.0
 11
7.750890904143439
 21
-0.475243556715224
 31
0.0
  0
LINE
  5
27C4
330
1E
100
AcDbEntity
  8
7
100
AcDbLine
 10
7.719401927100033
 20
-0.7271553730624172
 30
0.0
 11
7.719401927100033
 21
-0.6208800755409439
 31
0.0
  0
LINE
  5
27CA
330
1E
100
AcDbEntity
  8
7
100
AcDbLine
 10
8.238970048316124
 20
-0.5500298771932984
 30
0.0
 11
8.089397407359978
 21
-0.5500298771932984
 31
0.0
  0
LINE
  5
27D4
330
1E
100
AcDbEntity
  8
7
100
AcDbLine
 10
8.089397407359978
 20
-0.7980055714100618
 30
0.0
 11
8.238970048316124
 21
-0.7980055714100618
 31
0.0
  0
LINE
  5
27DE
330
1E
100
AcDbEntity
  8
7
100
AcDbLine
 10
8.510562475315447
 20
-0.475243556715224
 30
0.0
 11
8.510562475315447
 21
-0.8727918918881361
 31
0.0
  0
LINE
  5
280B
330
1E
100
AcDbEntity
  8
7
100
AcDbLine
 10
7.727274171360885
 20
-0.5893910984975382
 30
0.0
 11
7.719401927100033
 21
-0.6208800755409439
 31
0.0
  0
LINE
  5
2811
330
1E
100
AcDbEntity
  8
7
100
AcDbLine
 10
-9.800277675421185
 20
-0.475243556715224
 30
0.0
 11
-10.46941843759342
 21
-0.475243556715224
 31
0.0
  0
LINE
  5
2820
330
1E
100
AcDbEntity
  8
7
100
AcDbLine
 10
-10.05218949176838
 20
-0.5500298771932984
 30
0.0
 11
-10.20176213272453
 21
-0.5500298771932984
 31
0.0
  0
LINE
  5
282D
330
1E
100
AcDbEntity
  8
7
100
AcDbLine
 10
-10.20176213272453
 20
-0.7980055714100618
 30
0.0
 11
-10.05218949176838
 21
-0.7980055714100618
 31
0.0
  0
LINE
  5
2833
330
1E
100
AcDbEntity
  8
7
100
AcDbLine
 10
-10.46941843759342
 20
-0.8727918918881361
 30
0.0
 11
-10.46941843759342
 21
-0.475243556715224
 31
0.0
  0
LINE
  5
2863
330
1E
100
AcDbEntity
  8
7
100
AcDbLine
 10
-9.694002377899717
 20
-0.7822610828883616
 30
0.0
 11
-9.705810744290989
 21
-0.7901333271492162
 31
0.0
  0
LINE
  5
2864
330
1E
100
AcDbEntity
  8
7
100
AcDbLine
 10
-9.705810744290989
 20
-0.7901333271492162
 30
0.0
 11
-9.709746866421413
 21
-0.8058778156709127
 31
0.0
  0
LINE
  5
2865
330
1E
100
AcDbEntity
  8
7
100
AcDbLine
 10
-9.697938500030138
 20
-0.7783249607579364
 30
0.0
 11
-9.694002377899717
 21
-0.7783249607579364
 31
0.0
  0
LINE
  5
2866
330
1E
100
AcDbEntity
  8
7
100
AcDbLine
 10
-9.694002377899717
 20
-0.7783249607579364
 30
0.0
 11
-9.694002377899717
 21
-0.7743888386275115
 31
0.0
  0
LINE
  5
2867
330
1E
100
AcDbEntity
  8
7
100
AcDbLine
 10
-9.694002377899717
 20
-0.7743888386275115
 30
0.0
 11
-9.694002377899717
 21
-0.7665165943666659
 31
0.0
  0
LINE
  5
2868
330
1E
100
AcDbEntity
  8
7
100
AcDbLine
 10
-9.694002377899717
 20
-0.7665165943666659
 30
0.0
 11
-9.690066255769293
 21
-0.7547082279753852
 31
0.0
  0
LINE
  5
2869
330
1E
100
AcDbEntity
  8
7
100
AcDbLine
 10
-9.690066255769293
 20
-0.7547082279753852
 30
0.0
 11
-9.682194011508446
 21
-0.7271553730624172
 31
0.0
  0
LINE
  5
286A
330
1E
100
AcDbEntity
  8
7
100
AcDbLine
 10
-9.682194011508446
 20
-0.7271553730624172
 30
0.0
 11
-9.70187462216057
 21
-0.7271553730624172
 31
0.0
  0
LINE
  5
286B
330
1E
100
AcDbEntity
  8
7
100
AcDbLine
 10
-9.70187462216057
 20
-0.7271553730624172
 30
0.0
 11
-9.709746866421413
 21
-0.7271553730624172
 31
0.0
  0
LINE
  5
286C
330
1E
100
AcDbEntity
  8
7
100
AcDbLine
 10
-9.694002377899717
 20
-0.5815188542366943
 30
0.0
 11
-9.690066255769293
 21
-0.5933272206279657
 31
0.0
  0
LINE
  5
286D
330
1E
100
AcDbEntity
  8
7
100
AcDbLine
 10
-9.690066255769293
 20
-0.5933272206279657
 30
0.0
 11
-9.682194011508446
 21
-0.6208800755409439
 31
0.0
  0
LINE
  5
286E
330
1E
100
AcDbEntity
  8
7
100
AcDbLine
 10
-9.697938500030138
 20
-0.5697104878454145
 30
0.0
 11
-9.694002377899717
 21
-0.5697104878454145
 31
0.0
  0
LINE
  5
286F
330
1E
100
AcDbEntity
  8
7
100
AcDbLine
 10
-9.694002377899717
 20
-0.5697104878454145
 30
0.0
 11
-9.694002377899717
 21
-0.5736466099758398
 31
0.0
  0
LINE
  5
2870
330
1E
100
AcDbEntity
  8
7
100
AcDbLine
 10
-9.694002377899717
 20
-0.5736466099758398
 30
0.0
 11
-9.694002377899717
 21
-0.5815188542366943
 31
0.0
  0
LINE
  5
2871
330
1E
100
AcDbEntity
  8
7
100
AcDbLine
 10
-9.682194011508446
 20
-0.6208800755409439
 30
0.0
 11
-9.70187462216057
 21
-0.6208800755409439
 31
0.0
  0
LINE
  5
2872
330
1E
100
AcDbEntity
  8
7
100
AcDbLine
 10
-9.70187462216057
 20
-0.6208800755409439
 30
0.0
 11
-9.709746866421413
 21
-0.6208800755409439
 31
0.0
  0
LINE
  5
2873
330
1E
100
AcDbEntity
  8
7
100
AcDbLine
 10
-9.709746866421413
 20
-0.5421576329324443
 30
0.0
 11
-9.705810744290989
 21
-0.5579021214541391
 31
0.0
  0
LINE
  5
2874
330
1E
100
AcDbEntity
  8
7
100
AcDbLine
 10
-9.705810744290989
 20
-0.5579021214541391
 30
0.0
 11
-9.694002377899717
 21
-0.5657743657149897
 31
0.0
  0
LINE
  5
2875
330
1E
100
AcDbEntity
  8
7
100
AcDbLine
 10
-9.709746866421413
 20
-0.8727918918881361
 30
0.0
 11
-9.737299721334391
 21
-0.8727918918881361
 31
0.0
  0
LINE
  5
2876
330
1E
100
AcDbEntity
  8
7
100
AcDbLine
 10
-9.737299721334391
 20
-0.8727918918881361
 30
0.0
 11
-9.800277675421185
 21
-0.8727918918881361
 31
0.0
  0
LINE
  5
2877
330
1E
100
AcDbEntity
  8
7
100
AcDbLine
 10
-10.46941843759342
 20
-0.8727918918881361
 30
0.0
 11
-9.800277675421185
 21
-0.8727918918881361
 31
0.0
  0
LINE
  5
2878
330
1E
100
AcDbEntity
  8
7
100
AcDbLine
 10
-9.800277675421185
 20
-0.8727918918881361
 30
0.0
 11
-9.800277675421185
 21
-0.475243556715224
 31
0.0
  0
LINE
  5
2879
330
1E
100
AcDbEntity
  8
7
100
AcDbLine
 10
-9.930169705725212
 20
-0.6720496632364644
 30
0.0
 11
-9.945914194246913
 21
-0.613007831280088
 31
0.0
  0
LINE
  5
287A
330
1E
100
AcDbEntity
  8
7
100
AcDbLine
 10
-9.945914194246913
 20
-0.613007831280088
 30
0.0
 11
-9.989211537681581
 21
-0.5657743657149897
 31
0.0
  0
LINE
  5
287B
330
1E
100
AcDbEntity
  8
7
100
AcDbLine
 10
-9.989211537681581
 20
-0.5657743657149897
 30
0.0
 11
-10.05218949176838
 21
-0.5500298771932984
 31
0.0
  0
LINE
  5
287C
330
1E
100
AcDbEntity
  8
7
100
AcDbLine
 10
-10.05218949176838
 20
-0.7940694492796366
 30
0.0
 11
-9.993147659812008
 21
-0.7783249607579364
 31
0.0
  0
LINE
  5
287D
330
1E
100
AcDbEntity
  8
7
100
AcDbLine
 10
-9.993147659812008
 20
-0.7783249607579364
 30
0.0
 11
-9.945914194246913
 21
-0.7350276173232686
 31
0.0
  0
LINE
  5
287E
330
1E
100
AcDbEntity
  8
7
100
AcDbLine
 10
-9.945914194246913
 20
-0.7350276173232686
 30
0.0
 11
-9.930169705725212
 21
-0.6720496632364644
 31
0.0
  0
LINE
  5
287F
330
1E
100
AcDbEntity
  8
7
100
AcDbLine
 10
-10.20176213272453
 20
-0.5500298771932984
 30
0.0
 11
-10.2608039646809
 21
-0.5657743657149897
 31
0.0
  0
LINE
  5
2880
330
1E
100
AcDbEntity
  8
7
100
AcDbLine
 10
-10.2608039646809
 20
-0.5657743657149897
 30
0.0
 11
-10.308037430246
 21
-0.6090717091496676
 31
0.0
  0
LINE
  5
2881
330
1E
100
AcDbEntity
  8
7
100
AcDbLine
 10
-10.308037430246
 20
-0.6090717091496676
 30
0.0
 11
-10.3237819187677
 21
-0.6720496632364644
 31
0.0
  0
LINE
  5
2882
330
1E
100
AcDbEntity
  8
7
100
AcDbLine
 10
-10.3237819187677
 20
-0.6720496632364644
 30
0.0
 11
-10.308037430246
 21
-0.7310914951928345
 31
0.0
  0
LINE
  5
2883
330
1E
100
AcDbEntity
  8
7
100
AcDbLine
 10
-10.308037430246
 20
-0.7310914951928345
 30
0.0
 11
-10.26474008681132
 21
-0.7783249607579364
 31
0.0
  0
LINE
  5
2884
330
1E
100
AcDbEntity
  8
7
100
AcDbLine
 10
-10.26474008681132
 20
-0.7783249607579364
 30
0.0
 11
-10.20176213272453
 21
-0.7940694492796366
 31
0.0
  0
LINE
  5
2885
330
1E
100
AcDbEntity
  8
7
100
AcDbLine
 10
-9.800277675421185
 20
-0.475243556715224
 30
0.0
 11
-9.737299721334391
 21
-0.475243556715224
 31
0.0
  0
LINE
  5
2886
330
1E
100
AcDbEntity
  8
7
100
AcDbLine
 10
-9.737299721334391
 20
-0.475243556715224
 30
0.0
 11
-9.709746866421413
 21
-0.475243556715224
 31
0.0
  0
LINE
  5
2887
330
1E
100
AcDbEntity
  8
7
100
AcDbLine
 10
7.731210293491315
 20
-0.5657743657149897
 30
0.0
 11
7.74301865988259
 21
-0.5579021214541391
 31
0.0
  0
LINE
  5
2888
330
1E
100
AcDbEntity
  8
7
100
AcDbLine
 10
7.74301865988259
 20
-0.5579021214541391
 30
0.0
 11
7.746954782013011
 21
-0.5421576329324443
 31
0.0
  0
LINE
  5
2889
330
1E
100
AcDbEntity
  8
7
100
AcDbLine
 10
7.735146415621741
 20
-0.5697104878454145
 30
0.0
 11
7.735146415621741
 21
-0.5736466099758398
 31
0.0
  0
LINE
  5
288A
330
1E
100
AcDbEntity
  8
7
100
AcDbLine
 10
7.735146415621741
 20
-0.5736466099758398
 30
0.0
 11
7.731210293491315
 21
-0.5775827321062655
 31
0.0
  0
LINE
  5
288B
330
1E
100
AcDbEntity
  8
7
100
AcDbLine
 10
7.731210293491315
 20
-0.5775827321062655
 30
0.0
 11
7.727274171360885
 21
-0.5893910984975382
 31
0.0
  0
LINE
  5
288C
330
1E
100
AcDbEntity
  8
7
100
AcDbLine
 10
7.719401927100033
 20
-0.6208800755409439
 30
0.0
 11
7.74301865988259
 21
-0.6208800755409439
 31
0.0
  0
LINE
  5
288D
330
1E
100
AcDbEntity
  8
7
100
AcDbLine
 10
7.74301865988259
 20
-0.6208800755409439
 30
0.0
 11
7.750890904143439
 21
-0.6208800755409439
 31
0.0
  0
LINE
  5
288E
330
1E
100
AcDbEntity
  8
7
100
AcDbLine
 10
7.735146415621741
 20
-0.7783249607579364
 30
0.0
 11
7.735146415621741
 21
-0.7743888386275115
 31
0.0
  0
LINE
  5
288F
330
1E
100
AcDbEntity
  8
7
100
AcDbLine
 10
7.735146415621741
 20
-0.7743888386275115
 30
0.0
 11
7.731210293491315
 21
-0.7665165943666659
 31
0.0
  0
LINE
  5
2890
330
1E
100
AcDbEntity
  8
7
100
AcDbLine
 10
7.731210293491315
 20
-0.7665165943666659
 30
0.0
 11
7.727274171360885
 21
-0.7547082279753852
 31
0.0
  0
LINE
  5
2891
330
1E
100
AcDbEntity
  8
7
100
AcDbLine
 10
7.727274171360885
 20
-0.7547082279753852
 30
0.0
 11
7.719401927100033
 21
-0.7271553730624172
 31
0.0
  0
LINE
  5
2892
330
1E
100
AcDbEntity
  8
7
100
AcDbLine
 10
7.719401927100033
 20
-0.7271553730624172
 30
0.0
 11
7.74301865988259
 21
-0.7271553730624172
 31
0.0
  0
LINE
  5
2893
330
1E
100
AcDbEntity
  8
7
100
AcDbLine
 10
7.74301865988259
 20
-0.7271553730624172
 30
0.0
 11
7.750890904143439
 21
-0.7271553730624172
 31
0.0
  0
LINE
  5
2894
330
1E
100
AcDbEntity
  8
7
100
AcDbLine
 10
7.746954782013011
 20
-0.8058778156709127
 30
0.0
 11
7.74301865988259
 21
-0.7901333271492162
 31
0.0
  0
LINE
  5
2895
330
1E
100
AcDbEntity
  8
7
100
AcDbLine
 10
7.74301865988259
 20
-0.7901333271492162
 30
0.0
 11
7.731210293491315
 21
-0.7822610828883616
 31
0.0
  0
LINE
  5
2896
330
1E
100
AcDbEntity
  8
7
100
AcDbLine
 10
7.841421713143207
 20
-0.8727918918881361
 30
0.0
 11
7.778443759056408
 21
-0.8727918918881361
 31
0.0
  0
LINE
  5
2897
330
1E
100
AcDbEntity
  8
7
100
AcDbLine
 10
7.778443759056408
 20
-0.8727918918881361
 30
0.0
 11
7.750890904143439
 21
-0.8727918918881361
 31
0.0
  0
LINE
  5
2898
330
1E
100
AcDbEntity
  8
7
100
AcDbLine
 10
8.510562475315447
 20
-0.475243556715224
 30
0.0
 11
7.841421713143207
 21
-0.475243556715224
 31
0.0
  0
LINE
  5
2899
330
1E
100
AcDbEntity
  8
7
100
AcDbLine
 10
7.841421713143207
 20
-0.475243556715224
 30
0.0
 11
7.841421713143207
 21
-0.8727918918881361
 31
0.0
  0
LINE
  5
289A
330
1E
100
AcDbEntity
  8
7
100
AcDbLine
 10
7.841421713143207
 20
-0.8727918918881361
 30
0.0
 11
8.510562475315447
 21
-0.8727918918881361
 31
0.0
  0
LINE
  5
289B
330
1E
100
AcDbEntity
  8
7
100
AcDbLine
 10
7.750890904143439
 20
-0.475243556715224
 30
0.0
 11
7.778443759056408
 21
-0.475243556715224
 31
0.0
  0
LINE
  5
289C
330
1E
100
AcDbEntity
  8
7
100
AcDbLine
 10
7.778443759056408
 20
-0.475243556715224
 30
0.0
 11
7.841421713143207
 21
-0.475243556715224
 31
0.0
  0
LINE
  5
289D
330
1E
100
AcDbEntity
  8
7
100
AcDbLine
 10
8.238970048316124
 20
-0.7940694492796366
 30
0.0
 11
8.2980118802725
 21
-0.7783249607579364
 31
0.0
  0
LINE
  5
289E
330
1E
100
AcDbEntity
  8
7
100
AcDbLine
 10
8.2980118802725
 20
-0.7783249607579364
 30
0.0
 11
8.345245345837598
 21
-0.7350276173232686
 31
0.0
  0
LINE
  5
289F
330
1E
100
AcDbEntity
  8
7
100
AcDbLine
 10
8.345245345837598
 20
-0.7350276173232686
 30
0.0
 11
8.360989834359298
 21
-0.6720496632364644
 31
0.0
  0
LINE
  5
28A0
330
1E
100
AcDbEntity
  8
7
100
AcDbLine
 10
8.360989834359298
 20
-0.6720496632364644
 30
0.0
 11
8.345245345837598
 21
-0.613007831280088
 31
0.0
  0
LINE
  5
28A1
330
1E
100
AcDbEntity
  8
7
100
AcDbLine
 10
8.345245345837598
 20
-0.613007831280088
 30
0.0
 11
8.301948002402921
 21
-0.5657743657149897
 31
0.0
  0
LINE
  5
28A2
330
1E
100
AcDbEntity
  8
7
100
AcDbLine
 10
8.301948002402921
 20
-0.5657743657149897
 30
0.0
 11
8.238970048316124
 21
-0.5500298771932984
 31
0.0
  0
LINE
  5
28A3
330
1E
100
AcDbEntity
  8
7
100
AcDbLine
 10
8.089397407359978
 20
-0.5500298771932984
 30
0.0
 11
8.0303555754036
 21
-0.5657743657149897
 31
0.0
  0
LINE
  5
28A4
330
1E
100
AcDbEntity
  8
7
100
AcDbLine
 10
8.0303555754036
 20
-0.5657743657149897
 30
0.0
 11
7.983122109838504
 21
-0.6090717091496676
 31
0.0
  0
LINE
  5
28A5
330
1E
100
AcDbEntity
  8
7
100
AcDbLine
 10
7.983122109838504
 20
-0.6090717091496676
 30
0.0
 11
7.967377621316803
 21
-0.6720496632364644
 31
0.0
  0
LINE
  5
28A6
330
1E
100
AcDbEntity
  8
7
100
AcDbLine
 10
7.967377621316803
 20
-0.6720496632364644
 30
0.0
 11
7.983122109838504
 21
-0.7310914951928345
 31
0.0
  0
LINE
  5
28A7
330
1E
100
AcDbEntity
  8
7
100
AcDbLine
 10
7.983122109838504
 20
-0.7310914951928345
 30
0.0
 11
8.026419453273177
 21
-0.7783249607579364
 31
0.0
  0
LINE
  5
28A8
330
1E
100
AcDbEntity
  8
7
100
AcDbLine
 10
8.026419453273177
 20
-0.7783249607579364
 30
0.0
 11
8.089397407359978
 21
-0.7940694492796366
 31
0.0
  0
LINE
  5
28A9
330
1E
100
AcDbEntity
  8
7
100
AcDbLine
 10
7.719401927100033
 20
-0.6208800755409439
 30
0.0
 11
7.703657438578334
 21
-0.6720496632364644
 31
0.0
  0
LINE
  5
28AA
330
1E
100
AcDbEntity
  8
7
100
AcDbLine
 10
7.703657438578334
 20
-0.6720496632364644
 30
0.0
 11
7.719401927100033
 21
-0.7232192509319888
 31
0.0
  0
LINE
  5
28AB
330
1E
100
AcDbEntity
  8
7
100
AcDbLine
 10
7.735146415621741
 20
-0.5697104878454145
 30
0.0
 11
7.691849072187059
 21
-0.613007831280088
 31
0.0
  0
LINE
  5
28AC
330
1E
100
AcDbEntity
  8
7
100
AcDbLine
 10
7.691849072187059
 20
-0.613007831280088
 30
0.0
 11
7.676104583665363
 21
-0.6720496632364644
 31
0.0
  0
LINE
  5
28AD
330
1E
100
AcDbEntity
  8
7
100
AcDbLine
 10
7.676104583665363
 20
-0.6720496632364644
 30
0.0
 11
7.691849072187059
 21
-0.7310914951928345
 31
0.0
  0
LINE
  5
28AE
330
1E
100
AcDbEntity
  8
7
100
AcDbLine
 10
7.691849072187059
 20
-0.7310914951928345
 30
0.0
 11
7.735146415621741
 21
-0.7743888386275115
 31
0.0
  0
LINE
  5
28AF
330
1E
100
AcDbEntity
  8
7
100
AcDbLine
 10
6.794413226450183
 20
-0.7940694492796366
 30
0.0
 11
6.794413226450183
 21
-0.7783249607579364
 31
0.0
  0
LINE
  5
28B0
330
1E
100
AcDbEntity
  8
7
100
AcDbLine
 10
6.794413226450183
 20
-0.7783249607579364
 30
0.0
 11
6.794413226450183
 21
-0.7350276173232686
 31
0.0
  0
LINE
  5
28B1
330
1E
100
AcDbEntity
  8
7
100
AcDbLine
 10
6.794413226450183
 20
-0.7350276173232686
 30
0.0
 11
6.794413226450183
 21
-0.6720496632364644
 31
0.0
  0
LINE
  5
28B2
330
1E
100
AcDbEntity
  8
7
100
AcDbLine
 10
6.794413226450183
 20
-0.6720496632364644
 30
0.0
 11
6.794413226450183
 21
-0.613007831280088
 31
0.0
  0
LINE
  5
28B3
330
1E
100
AcDbEntity
  8
7
100
AcDbLine
 10
6.794413226450183
 20
-0.613007831280088
 30
0.0
 11
6.794413226450183
 21
-0.5697104878454145
 31
0.0
  0
LINE
  5
28B4
330
1E
100
AcDbEntity
  8
7
100
AcDbLine
 10
6.794413226450183
 20
-0.5697104878454145
 30
0.0
 11
6.794413226450183
 21
-0.5539659993237187
 31
0.0
  0
LINE
  5
28B5
330
1E
100
AcDbEntity
  8
7
100
AcDbLine
 10
-9.697938500030138
 20
-0.7743888386275115
 30
0.0
 11
-9.654641156595467
 21
-0.7310914951928345
 31
0.0
  0
LINE
  5
28B6
330
1E
100
AcDbEntity
  8
7
100
AcDbLine
 10
-9.654641156595467
 20
-0.7310914951928345
 30
0.0
 11
-9.638896668073771
 21
-0.6720496632364644
 31
0.0
  0
LINE
  5
28B7
330
1E
100
AcDbEntity
  8
7
100
AcDbLine
 10
-9.638896668073771
 20
-0.6720496632364644
 30
0.0
 11
-9.654641156595467
 21
-0.613007831280088
 31
0.0
  0
LINE
  5
28B8
330
1E
100
AcDbEntity
  8
7
100
AcDbLine
 10
-9.654641156595467
 20
-0.613007831280088
 30
0.0
 11
-9.697938500030138
 21
-0.5697104878454145
 31
0.0
  0
LINE
  5
28B9
330
1E
100
AcDbEntity
  8
7
100
AcDbLine
 10
-8.757205310858591
 20
-0.5539659993237187
 30
0.0
 11
-8.757205310858591
 21
-0.5697104878454145
 31
0.0
  0
LINE
  5
28BA
330
1E
100
AcDbEntity
  8
7
100
AcDbLine
 10
-8.757205310858591
 20
-0.5697104878454145
 30
0.0
 11
-8.757205310858591
 21
-0.613007831280088
 31
0.0
  0
LINE
  5
28BB
330
1E
100
AcDbEntity
  8
7
100
AcDbLine
 10
-8.757205310858591
 20
-0.613007831280088
 30
0.0
 11
-8.757205310858591
 21
-0.6720496632364644
 31
0.0
  0
LINE
  5
28BC
330
1E
100
AcDbEntity
  8
7
100
AcDbLine
 10
-8.757205310858591
 20
-0.6720496632364644
 30
0.0
 11
-8.757205310858591
 21
-0.7350276173232686
 31
0.0
  0
LINE
  5
28BD
330
1E
100
AcDbEntity
  8
7
100
AcDbLine
 10
-8.757205310858591
 20
-0.7350276173232686
 30
0.0
 11
-8.757205310858591
 21
-0.7783249607579364
 31
0.0
  0
LINE
  5
28BE
330
1E
100
AcDbEntity
  8
7
100
AcDbLine
 10
-8.757205310858591
 20
-0.7783249607579364
 30
0.0
 11
-8.757205310858591
 21
-0.7940694492796366
 31
0.0
  0
LINE
  5
28BF
330
1E
100
AcDbEntity
  8
7
100
AcDbLine
 10
-9.682194011508446
 20
-0.7232192509319888
 30
0.0
 11
-9.666449522986747
 21
-0.6720496632364644
 31
0.0
  0
LINE
  5
28C0
330
1E
100
AcDbEntity
  8
7
100
AcDbLine
 10
-9.666449522986747
 20
-0.6720496632364644
 30
0.0
 11
-9.682194011508446
 21
-0.6208800755409439
 31
0.0
  0
LINE
  5
28C1
330
1E
100
AcDbEntity
  8
7
100
AcDbLine
 10
7.746954782013011
 20
-0.5539659993237187
 30
0.0
 11
7.680040705795786
 21
-0.5539659993237187
 31
0.0
  0
LINE
  5
28C2
330
1E
100
AcDbEntity
  8
7
100
AcDbLine
 10
7.680040705795786
 20
-0.5539659993237187
 30
0.0
 11
7.58163765253516
 21
-0.5539659993237187
 31
0.0
  0
LINE
  5
28C3
330
1E
100
AcDbEntity
  8
7
100
AcDbLine
 10
7.58163765253516
 20
-0.5539659993237187
 30
0.0
 11
7.455681744361566
 21
-0.5539659993237187
 31
0.0
  0
LINE
  5
28C4
330
1E
100
AcDbEntity
  8
7
100
AcDbLine
 10
7.455681744361566
 20
-0.5539659993237187
 30
0.0
 11
7.310045225535851
 21
-0.5539659993237187
 31
0.0
  0
LINE
  5
28C5
330
1E
100
AcDbEntity
  8
7
100
AcDbLine
 10
7.310045225535851
 20
-0.5539659993237187
 30
0.0
 11
7.148664218188431
 21
-0.5539659993237187
 31
0.0
  0
LINE
  5
28C6
330
1E
100
AcDbEntity
  8
7
100
AcDbLine
 10
7.148664218188431
 20
-0.5539659993237187
 30
0.0
 11
6.975474844449728
 21
-0.5539659993237187
 31
0.0
  0
LINE
  5
28C7
330
1E
100
AcDbEntity
  8
7
100
AcDbLine
 10
6.975474844449728
 20
-0.5539659993237187
 30
0.0
 11
6.794413226450183
 21
-0.5539659993237187
 31
0.0
  0
LINE
  5
28C8
330
1E
100
AcDbEntity
  8
7
100
AcDbLine
 10
6.794413226450183
 20
-0.7940694492796366
 30
0.0
 11
6.975474844449728
 21
-0.7940694492796366
 31
0.0
  0
LINE
  5
28C9
330
1E
100
AcDbEntity
  8
7
100
AcDbLine
 10
6.975474844449728
 20
-0.7940694492796366
 30
0.0
 11
7.148664218188431
 21
-0.7940694492796366
 31
0.0
  0
LINE
  5
28CA
330
1E
100
AcDbEntity
  8
7
100
AcDbLine
 10
7.148664218188431
 20
-0.7940694492796366
 30
0.0
 11
7.310045225535851
 21
-0.7940694492796366
 31
0.0
  0
LINE
  5
28CB
330
1E
100
AcDbEntity
  8
7
100
AcDbLine
 10
7.310045225535851
 20
-0.7940694492796366
 30
0.0
 11
7.455681744361566
 21
-0.7940694492796366
 31
0.0
  0
LINE
  5
28CC
330
1E
100
AcDbEntity
  8
7
100
AcDbLine
 10
7.455681744361566
 20
-0.7940694492796366
 30
0.0
 11
7.58163765253516
 21
-0.7940694492796366
 31
0.0
  0
LINE
  5
28CD
330
1E
100
AcDbEntity
  8
7
100
AcDbLine
 10
7.58163765253516
 20
-0.7940694492796366
 30
0.0
 11
7.680040705795786
 21
-0.7940694492796366
 31
0.0
  0
LINE
  5
28CE
330
1E
100
AcDbEntity
  8
7
100
AcDbLine
 10
-9.709746866421413
 20
-0.7940694492796366
 30
0.0
 11
-9.638896668073771
 21
-0.7940694492796366
 31
0.0
  0
LINE
  5
28CF
330
1E
100
AcDbEntity
  8
7
100
AcDbLine
 10
-9.638896668073771
 20
-0.7940694492796366
 30
0.0
 11
-9.540493614813142
 21
-0.7940694492796366
 31
0.0
  0
LINE
  5
28D0
330
1E
100
AcDbEntity
  8
7
100
AcDbLine
 10
-9.540493614813142
 20
-0.7940694492796366
 30
0.0
 11
-9.418473828769977
 21
-0.7940694492796366
 31
0.0
  0
LINE
  5
28D1
330
1E
100
AcDbEntity
  8
7
100
AcDbLine
 10
-9.418473828769977
 20
-0.7940694492796366
 30
0.0
 11
-9.27283730994425
 21
-0.7940694492796366
 31
0.0
  0
LINE
  5
28D2
330
1E
100
AcDbEntity
  8
7
100
AcDbLine
 10
-9.27283730994425
 20
-0.7940694492796366
 30
0.0
 11
-9.111456302596828
 21
-0.7940694492796366
 31
0.0
  0
LINE
  5
28D3
330
1E
100
AcDbEntity
  8
7
100
AcDbLine
 10
-9.111456302596828
 20
-0.7940694492796366
 30
0.0
 11
-8.934330806727707
 21
-0.7940694492796366
 31
0.0
  0
LINE
  5
28D4
330
1E
100
AcDbEntity
  8
7
100
AcDbLine
 10
-8.934330806727707
 20
-0.7940694492796366
 30
0.0
 11
-8.757205310858591
 21
-0.7940694492796366
 31
0.0
  0
LINE
  5
28D5
330
1E
100
AcDbEntity
  8
7
100
AcDbLine
 10
6.794413226450183
 20
-0.5539659993237187
 30
0.0
 11
-8.757205310858591
 21
-0.5539659993237187
 31
0.0
  0
LINE
  5
28D6
330
1E
100
AcDbEntity
  8
7
100
AcDbLine
 10
-8.757205310858591
 20
-0.5539659993237187
 30
0.0
 11
-8.934330806727707
 21
-0.5539659993237187
 31
0.0
  0
LINE
  5
28D7
330
1E
100
AcDbEntity
  8
7
100
AcDbLine
 10
-8.934330806727707
 20
-0.5539659993237187
 30
0.0
 11
-9.111456302596828
 21
-0.5539659993237187
 31
0.0
  0
LINE
  5
28D8
330
1E
100
AcDbEntity
  8
7
100
AcDbLine
 10
-9.111456302596828
 20
-0.5539659993237187
 30
0.0
 11
-9.27283730994425
 21
-0.5539659993237187
 31
0.0
  0
LINE
  5
28D9
330
1E
100
AcDbEntity
  8
7
100
AcDbLine
 10
-9.27283730994425
 20
-0.5539659993237187
 30
0.0
 11
-9.418473828769977
 21
-0.5539659993237187
 31
0.0
  0
LINE
  5
28DA
330
1E
100
AcDbEntity
  8
7
100
AcDbLine
 10
-9.418473828769977
 20
-0.5539659993237187
 30
0.0
 11
-9.540493614813142
 21
-0.5539659993237187
 31
0.0
  0
LINE
  5
28DB
330
1E
100
AcDbEntity
  8
7
100
AcDbLine
 10
-9.540493614813142
 20
-0.5539659993237187
 30
0.0
 11
-9.638896668073771
 21
-0.5539659993237187
 31
0.0
  0
LINE
  5
28DC
330
1E
100
AcDbEntity
  8
7
100
AcDbLine
 10
-9.816022163942891
 20
3.850554664621748
 30
0.0
 11
-9.804213797551611
 21
3.850554664621748
 31
0.0
  0
LINE
  5
28DD
330
1E
100
AcDbEntity
  8
7
100
AcDbLine
 10
-9.804213797551611
 20
3.850554664621748
 30
0.0
 11
-9.800277675421185
 21
3.850554664621748
 31
0.0
  0
LINE
  5
28DE
330
1E
100
AcDbEntity
  8
7
100
AcDbLine
 10
-9.816022163942891
 20
3.850554664621748
 30
0.0
 11
-9.816022163942891
 21
3.842682420360898
 31
0.0
  0
LINE
  5
28DF
330
1E
100
AcDbEntity
  8
7
100
AcDbLine
 10
-9.816022163942891
 20
3.842682420360898
 30
0.0
 11
-9.816022163942891
 21
3.834810176100048
 31
0.0
  0
LINE
  5
28E0
330
1E
100
AcDbEntity
  8
7
100
AcDbLine
 10
-9.816022163942891
 20
3.834810176100048
 30
0.0
 11
-9.819958286073312
 21
3.826937931839196
 31
0.0
  0
LINE
  5
28E1
330
1E
100
AcDbEntity
  8
7
100
AcDbLine
 10
-9.819958286073312
 20
3.826937931839196
 30
0.0
 11
-9.823894408203742
 21
3.823001809708771
 31
0.0
  0
LINE
  5
28E2
330
1E
100
AcDbEntity
  8
7
100
AcDbLine
 10
-9.804213797551611
 20
3.787576710534949
 30
0.0
 11
-9.812086041812465
 21
3.807257321187075
 31
0.0
  0
LINE
  5
28E3
330
1E
100
AcDbEntity
  8
7
100
AcDbLine
 10
-9.812086041812465
 20
3.807257321187075
 30
0.0
 11
-9.831766652464592
 21
3.815129565447921
 31
0.0
  0
LINE
  5
28E4
330
1E
100
AcDbEntity
  8
7
100
AcDbLine
 10
-9.697938500030138
 20
3.850554664621748
 30
0.0
 11
-9.697938500030138
 21
3.846618542491326
 31
0.0
  0
LINE
  5
28E5
330
1E
100
AcDbEntity
  8
7
100
AcDbLine
 10
-9.697938500030138
 20
3.846618542491326
 30
0.0
 11
-9.694002377899717
 21
3.838746298230469
 31
0.0
  0
LINE
  5
28E6
330
1E
100
AcDbEntity
  8
7
100
AcDbLine
 10
-9.694002377899717
 20
3.838746298230469
 30
0.0
 11
-9.694002377899717
 21
3.834810176100048
 31
0.0
  0
LINE
  5
28E7
330
1E
100
AcDbEntity
  8
7
100
AcDbLine
 10
-9.694002377899717
 20
3.834810176100048
 30
0.0
 11
-9.694002377899717
 21
3.826937931839196
 31
0.0
  0
LINE
  5
28E8
330
1E
100
AcDbEntity
  8
7
100
AcDbLine
 10
-9.694002377899717
 20
3.826937931839196
 30
0.0
 11
-9.690066255769293
 21
3.823001809708771
 31
0.0
  0
LINE
  5
28E9
330
1E
100
AcDbEntity
  8
7
100
AcDbLine
 10
-9.690066255769293
 20
3.823001809708771
 30
0.0
 11
-9.682194011508446
 21
3.819065687578346
 31
0.0
  0
LINE
  5
28EA
330
1E
100
AcDbEntity
  8
7
100
AcDbLine
 10
-9.682194011508446
 20
3.815129565447921
 30
0.0
 11
-9.70187462216057
 21
3.807257321187075
 31
0.0
  0
LINE
  5
28EB
330
1E
100
AcDbEntity
  8
7
100
AcDbLine
 10
-9.70187462216057
 20
3.807257321187075
 30
0.0
 11
-9.709746866421413
 21
3.787576710534949
 31
0.0
  0
LINE
  5
28EC
330
1E
100
AcDbEntity
  8
7
100
AcDbLine
 10
-9.697938500030138
 20
3.850554664621748
 30
0.0
 11
-9.705810744290989
 21
3.850554664621748
 31
0.0
  0
LINE
  5
28ED
330
1E
100
AcDbEntity
  8
7
100
AcDbLine
 10
-9.705810744290989
 20
3.850554664621748
 30
0.0
 11
-9.709746866421413
 21
3.850554664621748
 31
0.0
  0
LINE
  5
28EE
330
1E
100
AcDbEntity
  8
7
100
AcDbLine
 10
-9.831766652464592
 20
3.157797169666964
 30
0.0
 11
-9.812086041812465
 21
3.165669413927814
 31
0.0
  0
LINE
  5
28EF
330
1E
100
AcDbEntity
  8
7
100
AcDbLine
 10
-9.812086041812465
 20
3.165669413927814
 30
0.0
 11
-9.804213797551611
 21
3.185350024579932
 31
0.0
  0
LINE
  5
28F0
330
1E
100
AcDbEntity
  8
7
100
AcDbLine
 10
-9.800277675421185
 20
3.071202482797618
 30
0.0
 11
-9.737299721334391
 21
3.09481921558016
 31
0.0
  0
LINE
  5
28F1
330
1E
100
AcDbEntity
  8
7
100
AcDbLine
 10
-9.737299721334391
 20
3.09481921558016
 30
0.0
 11
-9.713682988551845
 21
3.157797169666964
 31
0.0
  0
LINE
  5
28F2
330
1E
100
AcDbEntity
  8
7
100
AcDbLine
 10
7.857166201664911
 20
3.850554664621748
 30
0.0
 11
7.857166201664911
 21
3.846618542491326
 31
0.0
  0
LINE
  5
28F3
330
1E
100
AcDbEntity
  8
7
100
AcDbLine
 10
7.857166201664911
 20
3.846618542491326
 30
0.0
 11
7.857166201664911
 21
3.838746298230469
 31
0.0
  0
LINE
  5
28F4
330
1E
100
AcDbEntity
  8
7
100
AcDbLine
 10
7.857166201664911
 20
3.838746298230469
 30
0.0
 11
7.857166201664911
 21
3.834810176100048
 31
0.0
  0
LINE
  5
28F5
330
1E
100
AcDbEntity
  8
7
100
AcDbLine
 10
7.857166201664911
 20
3.834810176100048
 30
0.0
 11
7.857166201664911
 21
3.826937931839196
 31
0.0
  0
LINE
  5
28F6
330
1E
100
AcDbEntity
  8
7
100
AcDbLine
 10
7.857166201664911
 20
3.826937931839196
 30
0.0
 11
7.861102323795334
 21
3.823001809708771
 31
0.0
  0
LINE
  5
28F7
330
1E
100
AcDbEntity
  8
7
100
AcDbLine
 10
7.868974568056186
 20
3.815129565447921
 30
0.0
 11
7.849293957404064
 21
3.807257321187075
 31
0.0
  0
LINE
  5
28F8
330
1E
100
AcDbEntity
  8
7
100
AcDbLine
 10
7.849293957404064
 20
3.807257321187075
 30
0.0
 11
7.841421713143207
 21
3.787576710534949
 31
0.0
  0
LINE
  5
28F9
330
1E
100
AcDbEntity
  8
7
100
AcDbLine
 10
7.857166201664911
 20
3.850554664621748
 30
0.0
 11
7.845357835273636
 21
3.850554664621748
 31
0.0
  0
LINE
  5
28FA
330
1E
100
AcDbEntity
  8
7
100
AcDbLine
 10
7.845357835273636
 20
3.850554664621748
 30
0.0
 11
7.841421713143207
 21
3.850554664621748
 31
0.0
  0
LINE
  5
28FB
330
1E
100
AcDbEntity
  8
7
100
AcDbLine
 10
7.735146415621741
 20
3.850554664621748
 30
0.0
 11
7.746954782013011
 21
3.850554664621748
 31
0.0
  0
LINE
  5
28FC
330
1E
100
AcDbEntity
  8
7
100
AcDbLine
 10
7.746954782013011
 20
3.850554664621748
 30
0.0
 11
7.750890904143439
 21
3.850554664621748
 31
0.0
  0
LINE
  5
28FD
330
1E
100
AcDbEntity
  8
7
100
AcDbLine
 10
7.735146415621741
 20
3.850554664621748
 30
0.0
 11
7.735146415621741
 21
3.842682420360898
 31
0.0
  0
LINE
  5
28FE
330
1E
100
AcDbEntity
  8
7
100
AcDbLine
 10
7.735146415621741
 20
3.842682420360898
 30
0.0
 11
7.735146415621741
 21
3.834810176100048
 31
0.0
  0
LINE
  5
28FF
330
1E
100
AcDbEntity
  8
7
100
AcDbLine
 10
7.735146415621741
 20
3.834810176100048
 30
0.0
 11
7.731210293491315
 21
3.826937931839196
 31
0.0
  0
LINE
  5
2900
330
1E
100
AcDbEntity
  8
7
100
AcDbLine
 10
7.731210293491315
 20
3.826937931839196
 30
0.0
 11
7.727274171360885
 21
3.823001809708771
 31
0.0
  0
LINE
  5
2901
330
1E
100
AcDbEntity
  8
7
100
AcDbLine
 10
7.727274171360885
 20
3.823001809708771
 30
0.0
 11
7.719401927100033
 21
3.819065687578346
 31
0.0
  0
LINE
  5
2902
330
1E
100
AcDbEntity
  8
7
100
AcDbLine
 10
7.746954782013011
 20
3.787576710534949
 30
0.0
 11
7.73908253775216
 21
3.807257321187075
 31
0.0
  0
LINE
  5
2903
330
1E
100
AcDbEntity
  8
7
100
AcDbLine
 10
7.73908253775216
 20
3.807257321187075
 30
0.0
 11
7.719401927100033
 21
3.815129565447921
 31
0.0
  0
LINE
  5
2904
330
1E
100
AcDbEntity
  8
7
100
AcDbLine
 10
7.841421713143207
 20
3.185350024579932
 30
0.0
 11
7.849293957404064
 21
3.165669413927814
 31
0.0
  0
LINE
  5
2905
330
1E
100
AcDbEntity
  8
7
100
AcDbLine
 10
7.849293957404064
 20
3.165669413927814
 30
0.0
 11
7.868974568056186
 21
3.157797169666964
 31
0.0
  0
LINE
  5
2906
330
1E
100
AcDbEntity
  8
7
100
AcDbLine
 10
7.75482702627386
 20
3.157797169666964
 30
0.0
 11
7.778443759056408
 21
3.09481921558016
 31
0.0
  0
LINE
  5
2907
330
1E
100
AcDbEntity
  8
7
100
AcDbLine
 10
7.778443759056408
 20
3.09481921558016
 30
0.0
 11
7.841421713143207
 21
3.071202482797618
 31
0.0
  0
LINE
  5
2908
330
1E
100
AcDbEntity
  8
7
100
AcDbLine
 10
-9.831766652464592
 20
3.819065687578346
 30
0.0
 11
-9.843575018855863
 21
3.819065687578346
 31
0.0
  0
LINE
  5
2909
330
1E
100
AcDbEntity
  8
7
100
AcDbLine
 10
-9.843575018855863
 20
3.819065687578346
 30
0.0
 11
-9.847511140986288
 21
3.819065687578346
 31
0.0
  0
LINE
  5
290A
330
1E
100
AcDbEntity
  8
7
100
AcDbLine
 10
7.719401927100033
 20
3.819065687578346
 30
0.0
 11
7.707593560708758
 21
3.819065687578346
 31
0.0
  0
LINE
  5
290B
330
1E
100
AcDbEntity
  8
7
100
AcDbLine
 10
7.707593560708758
 20
3.819065687578346
 30
0.0
 11
7.703657438578334
 21
3.819065687578346
 31
0.0
  0
LINE
  5
290C
330
1E
100
AcDbEntity
  8
7
100
AcDbLine
 10
7.857166201664911
 20
3.878107519534719
 30
0.0
 11
7.857166201664911
 21
3.850554664621748
 31
0.0
  0
LINE
  5
290D
330
1E
100
AcDbEntity
  8
7
100
AcDbLine
 10
7.857166201664911
 20
3.850554664621748
 30
0.0
 11
7.900463545099588
 21
3.850554664621748
 31
0.0
  0
LINE
  5
290E
330
1E
100
AcDbEntity
  8
7
100
AcDbLine
 10
7.900463545099588
 20
3.850554664621748
 30
0.0
 11
7.916208033621284
 21
3.850554664621748
 31
0.0
  0
LINE
  5
290F
330
1E
100
AcDbEntity
  8
7
100
AcDbLine
 10
7.672168461534937
 20
3.850554664621748
 30
0.0
 11
7.691849072187059
 21
3.850554664621748
 31
0.0
  0
LINE
  5
2910
330
1E
100
AcDbEntity
  8
7
100
AcDbLine
 10
7.691849072187059
 20
3.850554664621748
 30
0.0
 11
7.735146415621741
 21
3.850554664621748
 31
0.0
  0
LINE
  5
2911
330
1E
100
AcDbEntity
  8
7
100
AcDbLine
 10
7.735146415621741
 20
3.850554664621748
 30
0.0
 11
7.735146415621741
 21
3.878107519534719
 31
0.0
  0
LINE
  5
2912
330
1E
100
AcDbEntity
  8
7
100
AcDbLine
 10
7.841421713143207
 20
3.846618542491326
 30
0.0
 11
7.841421713143207
 21
3.823001809708771
 31
0.0
  0
LINE
  5
2913
330
1E
100
AcDbEntity
  8
7
100
AcDbLine
 10
7.841421713143207
 20
3.823001809708771
 30
0.0
 11
7.841421713143207
 21
3.775768344143668
 31
0.0
  0
LINE
  5
2914
330
1E
100
AcDbEntity
  8
7
100
AcDbLine
 10
7.841421713143207
 20
3.775768344143668
 30
0.0
 11
7.841421713143207
 21
3.185350024579932
 31
0.0
  0
LINE
  5
2915
330
1E
100
AcDbEntity
  8
7
100
AcDbLine
 10
7.750890904143439
 20
3.775768344143668
 30
0.0
 11
7.750890904143439
 21
3.823001809708771
 31
0.0
  0
LINE
  5
2916
330
1E
100
AcDbEntity
  8
7
100
AcDbLine
 10
7.750890904143439
 20
3.823001809708771
 30
0.0
 11
7.750890904143439
 21
3.846618542491326
 31
0.0
  0
LINE
  5
2917
330
1E
100
AcDbEntity
  8
7
100
AcDbLine
 10
7.735146415621741
 20
3.878107519534719
 30
0.0
 11
7.74301865988259
 21
3.866299153143449
 31
0.0
  0
LINE
  5
2918
330
1E
100
AcDbEntity
  8
7
100
AcDbLine
 10
7.74301865988259
 20
3.866299153143449
 30
0.0
 11
7.746954782013011
 21
3.854490786752168
 31
0.0
  0
LINE
  5
2919
330
1E
100
AcDbEntity
  8
7
100
AcDbLine
 10
7.746954782013011
 20
3.854490786752168
 30
0.0
 11
7.750890904143439
 21
3.850554664621748
 31
0.0
  0
LINE
  5
291A
330
1E
100
AcDbEntity
  8
7
100
AcDbLine
 10
7.735146415621741
 20
3.878107519534719
 30
0.0
 11
7.778443759056408
 21
3.878107519534719
 31
0.0
  0
LINE
  5
291B
330
1E
100
AcDbEntity
  8
7
100
AcDbLine
 10
7.778443759056408
 20
3.878107519534719
 30
0.0
 11
7.817804980360664
 21
3.878107519534719
 31
0.0
  0
LINE
  5
291C
330
1E
100
AcDbEntity
  8
7
100
AcDbLine
 10
7.817804980360664
 20
3.878107519534719
 30
0.0
 11
7.857166201664911
 21
3.878107519534719
 31
0.0
  0
LINE
  5
291D
330
1E
100
AcDbEntity
  8
7
100
AcDbLine
 10
7.841421713143207
 20
3.850554664621748
 30
0.0
 11
7.841421713143207
 21
3.854490786752168
 31
0.0
  0
LINE
  5
291E
330
1E
100
AcDbEntity
  8
7
100
AcDbLine
 10
7.841421713143207
 20
3.854490786752168
 30
0.0
 11
7.845357835273636
 21
3.866299153143449
 31
0.0
  0
LINE
  5
291F
330
1E
100
AcDbEntity
  8
7
100
AcDbLine
 10
7.845357835273636
 20
3.866299153143449
 30
0.0
 11
7.853230079534485
 21
3.878107519534719
 31
0.0
  0
LINE
  5
2920
330
1E
100
AcDbEntity
  8
7
100
AcDbLine
 10
7.853230079534485
 20
3.878107519534719
 30
0.0
 11
7.857166201664911
 21
3.878107519534719
 31
0.0
  0
LINE
  5
2921
330
1E
100
AcDbEntity
  8
7
100
AcDbLine
 10
7.841421713143207
 20
3.846618542491326
 30
0.0
 11
7.790252125447686
 21
3.846618542491326
 31
0.0
  0
LINE
  5
2922
330
1E
100
AcDbEntity
  8
7
100
AcDbLine
 10
7.790252125447686
 20
3.846618542491326
 30
0.0
 11
7.750890904143439
 21
3.846618542491326
 31
0.0
  0
LINE
  5
2923
330
1E
100
AcDbEntity
  8
7
100
AcDbLine
 10
7.900463545099588
 20
4.755862754619476
 30
0.0
 11
7.857166201664911
 21
4.755862754619476
 31
0.0
  0
LINE
  5
2924
330
1E
100
AcDbEntity
  8
7
100
AcDbLine
 10
7.857166201664911
 20
4.755862754619476
 30
0.0
 11
7.794188247578112
 21
4.755862754619476
 31
0.0
  0
LINE
  5
2925
330
1E
100
AcDbEntity
  8
7
100
AcDbLine
 10
7.794188247578112
 20
4.755862754619476
 30
0.0
 11
7.735146415621741
 21
4.755862754619476
 31
0.0
  0
LINE
  5
2926
330
1E
100
AcDbEntity
  8
7
100
AcDbLine
 10
7.735146415621741
 20
4.755862754619476
 30
0.0
 11
7.691849072187059
 21
4.755862754619476
 31
0.0
  0
LINE
  5
2927
330
1E
100
AcDbEntity
  8
7
100
AcDbLine
 10
7.691849072187059
 20
4.755862754619476
 30
0.0
 11
7.672168461534937
 21
4.755862754619476
 31
0.0
  0
LINE
  5
2928
330
1E
100
AcDbEntity
  8
7
100
AcDbLine
 10
6.794413226450183
 20
5.637554111834648
 30
0.0
 11
6.794413226450183
 21
5.653298600356346
 31
0.0
  0
LINE
  5
2929
330
1E
100
AcDbEntity
  8
7
100
AcDbLine
 10
6.794413226450183
 20
5.653298600356346
 30
0.0
 11
6.794413226450183
 21
5.696595943791029
 31
0.0
  0
LINE
  5
292A
330
1E
100
AcDbEntity
  8
7
100
AcDbLine
 10
6.794413226450183
 20
5.696595943791029
 30
0.0
 11
6.794413226450183
 21
5.755637775747402
 31
0.0
  0
LINE
  5
292B
330
1E
100
AcDbEntity
  8
7
100
AcDbLine
 10
6.794413226450183
 20
5.755637775747402
 30
0.0
 11
6.794413226450183
 21
5.818615729834194
 31
0.0
  0
LINE
  5
292C
330
1E
100
AcDbEntity
  8
7
100
AcDbLine
 10
6.794413226450183
 20
5.818615729834194
 30
0.0
 11
6.794413226450183
 21
5.861913073268874
 31
0.0
  0
LINE
  5
292D
330
1E
100
AcDbEntity
  8
7
100
AcDbLine
 10
6.794413226450183
 20
5.861913073268874
 30
0.0
 11
6.794413226450183
 21
5.877657561790569
 31
0.0
  0
LINE
  5
292E
330
1E
100
AcDbEntity
  8
7
100
AcDbLine
 10
-9.697938500030138
 20
3.878107519534719
 30
0.0
 11
-9.697938500030138
 21
3.850554664621748
 31
0.0
  0
LINE
  5
292F
330
1E
100
AcDbEntity
  8
7
100
AcDbLine
 10
-9.697938500030138
 20
3.850554664621748
 30
0.0
 11
-9.650705034465046
 21
3.850554664621748
 31
0.0
  0
LINE
  5
2930
330
1E
100
AcDbEntity
  8
7
100
AcDbLine
 10
-9.650705034465046
 20
3.850554664621748
 30
0.0
 11
-9.634960545943343
 21
3.850554664621748
 31
0.0
  0
LINE
  5
2931
330
1E
100
AcDbEntity
  8
7
100
AcDbLine
 10
-9.87900011802969
 20
3.850554664621748
 30
0.0
 11
-9.859319507377563
 21
3.850554664621748
 31
0.0
  0
LINE
  5
2932
330
1E
100
AcDbEntity
  8
7
100
AcDbLine
 10
-9.859319507377563
 20
3.850554664621748
 30
0.0
 11
-9.816022163942891
 21
3.850554664621748
 31
0.0
  0
LINE
  5
2933
330
1E
100
AcDbEntity
  8
7
100
AcDbLine
 10
-9.816022163942891
 20
3.850554664621748
 30
0.0
 11
-9.816022163942891
 21
3.878107519534719
 31
0.0
  0
LINE
  5
2934
330
1E
100
AcDbEntity
  8
7
100
AcDbLine
 10
-9.709746866421413
 20
3.846618542491326
 30
0.0
 11
-9.709746866421413
 21
3.823001809708771
 31
0.0
  0
LINE
  5
2935
330
1E
100
AcDbEntity
  8
7
100
AcDbLine
 10
-9.709746866421413
 20
3.823001809708771
 30
0.0
 11
-9.709746866421413
 21
3.775768344143668
 31
0.0
  0
LINE
  5
2936
330
1E
100
AcDbEntity
  8
7
100
AcDbLine
 10
-9.709746866421413
 20
3.775768344143668
 30
0.0
 11
-9.709746866421413
 21
3.157797169666964
 31
0.0
  0
LINE
  5
2937
330
1E
100
AcDbEntity
  8
7
100
AcDbLine
 10
-9.800277675421185
 20
3.775768344143668
 30
0.0
 11
-9.800277675421185
 21
3.823001809708771
 31
0.0
  0
LINE
  5
2938
330
1E
100
AcDbEntity
  8
7
100
AcDbLine
 10
-9.800277675421185
 20
3.823001809708771
 30
0.0
 11
-9.800277675421185
 21
3.846618542491326
 31
0.0
  0
LINE
  5
2939
330
1E
100
AcDbEntity
  8
7
100
AcDbLine
 10
-9.816022163942891
 20
3.878107519534719
 30
0.0
 11
-9.808149919682039
 21
3.866299153143449
 31
0.0
  0
LINE
  5
293A
330
1E
100
AcDbEntity
  8
7
100
AcDbLine
 10
-9.808149919682039
 20
3.866299153143449
 30
0.0
 11
-9.804213797551611
 21
3.854490786752168
 31
0.0
  0
LINE
  5
293B
330
1E
100
AcDbEntity
  8
7
100
AcDbLine
 10
-9.804213797551611
 20
3.854490786752168
 30
0.0
 11
-9.800277675421185
 21
3.850554664621748
 31
0.0
  0
LINE
  5
293C
330
1E
100
AcDbEntity
  8
7
100
AcDbLine
 10
-9.816022163942891
 20
3.878107519534719
 30
0.0
 11
-9.776660942638644
 21
3.878107519534719
 31
0.0
  0
LINE
  5
293D
330
1E
100
AcDbEntity
  8
7
100
AcDbLine
 10
-9.776660942638644
 20
3.878107519534719
 30
0.0
 11
-9.733363599203961
 21
3.878107519534719
 31
0.0
  0
LINE
  5
293E
330
1E
100
AcDbEntity
  8
7
100
AcDbLine
 10
-9.733363599203961
 20
3.878107519534719
 30
0.0
 11
-9.697938500030138
 21
3.878107519534719
 31
0.0
  0
LINE
  5
293F
330
1E
100
AcDbEntity
  8
7
100
AcDbLine
 10
-9.709746866421413
 20
3.850554664621748
 30
0.0
 11
-9.709746866421413
 21
3.854490786752168
 31
0.0
  0
LINE
  5
2940
330
1E
100
AcDbEntity
  8
7
100
AcDbLine
 10
-9.709746866421413
 20
3.854490786752168
 30
0.0
 11
-9.705810744290989
 21
3.866299153143449
 31
0.0
  0
LINE
  5
2941
330
1E
100
AcDbEntity
  8
7
100
AcDbLine
 10
-9.709746866421413
 20
3.846618542491326
 30
0.0
 11
-9.760916454116943
 21
3.846618542491326
 31
0.0
  0
LINE
  5
2942
330
1E
100
AcDbEntity
  8
7
100
AcDbLine
 10
-9.760916454116943
 20
3.846618542491326
 30
0.0
 11
-9.800277675421185
 21
3.846618542491326
 31
0.0
  0
LINE
  5
2943
330
1E
100
AcDbEntity
  8
7
100
AcDbLine
 10
-8.757205310858591
 20
5.877657561790569
 30
0.0
 11
-8.757205310858591
 21
5.861913073268874
 31
0.0
  0
LINE
  5
2944
330
1E
100
AcDbEntity
  8
7
100
AcDbLine
 10
-8.757205310858591
 20
5.861913073268874
 30
0.0
 11
-8.757205310858591
 21
5.818615729834194
 31
0.0
  0
LINE
  5
2945
330
1E
100
AcDbEntity
  8
7
100
AcDbLine
 10
-8.757205310858591
 20
5.818615729834194
 30
0.0
 11
-8.757205310858591
 21
5.755637775747402
 31
0.0
  0
LINE
  5
2946
330
1E
100
AcDbEntity
  8
7
100
AcDbLine
 10
-8.757205310858591
 20
5.755637775747402
 30
0.0
 11
-8.757205310858591
 21
5.696595943791029
 31
0.0
  0
LINE
  5
2947
330
1E
100
AcDbEntity
  8
7
100
AcDbLine
 10
-8.757205310858591
 20
5.696595943791029
 30
0.0
 11
-8.757205310858591
 21
5.653298600356346
 31
0.0
  0
LINE
  5
2948
330
1E
100
AcDbEntity
  8
7
100
AcDbLine
 10
-8.757205310858591
 20
5.653298600356346
 30
0.0
 11
-8.757205310858591
 21
5.637554111834648
 31
0.0
  0
LINE
  5
2949
330
1E
100
AcDbEntity
  8
7
100
AcDbLine
 10
-9.634960545943343
 20
4.755862754619476
 30
0.0
 11
-9.650705034465046
 21
4.755862754619476
 31
0.0
  0
LINE
  5
294A
330
1E
100
AcDbEntity
  8
7
100
AcDbLine
 10
-9.650705034465046
 20
4.755862754619476
 30
0.0
 11
-9.694002377899717
 21
4.755862754619476
 31
0.0
  0
LINE
  5
294B
330
1E
100
AcDbEntity
  8
7
100
AcDbLine
 10
-9.756980331986516
 20
4.755862754619476
 30
0.0
 11
-9.816022163942891
 21
4.755862754619476
 31
0.0
  0
LINE
  5
294C
330
1E
100
AcDbEntity
  8
7
100
AcDbLine
 10
-9.816022163942891
 20
4.755862754619476
 30
0.0
 11
-9.863255629507989
 21
4.755862754619476
 31
0.0
  0
LINE
  5
294D
330
1E
100
AcDbEntity
  8
7
100
AcDbLine
 10
-9.863255629507989
 20
4.755862754619476
 30
0.0
 11
-9.87900011802969
 21
4.755862754619476
 31
0.0
  0
LINE
  5
294E
330
1E
100
AcDbEntity
  8
7
100
AcDbLine
 10
7.888655178708308
 20
3.819065687578346
 30
0.0
 11
7.880782934447456
 21
3.819065687578346
 31
0.0
  0
LINE
  5
294F
330
1E
100
AcDbEntity
  8
7
100
AcDbLine
 10
7.880782934447456
 20
3.819065687578346
 30
0.0
 11
7.868974568056186
 21
3.819065687578346
 31
0.0
  0
LINE
  5
2950
330
1E
100
AcDbEntity
  8
7
100
AcDbLine
 10
-9.666449522986747
 20
3.819065687578346
 30
0.0
 11
-9.670385645117164
 21
3.819065687578346
 31
0.0
  0
LINE
  5
2951
330
1E
100
AcDbEntity
  8
7
100
AcDbLine
 10
-9.670385645117164
 20
3.819065687578346
 30
0.0
 11
-9.682194011508446
 21
3.819065687578346
 31
0.0
  0
LINE
  5
2952
330
1E
100
AcDbEntity
  8
7
100
AcDbLine
 10
-9.666449522986747
 20
3.823001809708771
 30
0.0
 11
-9.646768912334621
 21
3.830874053969621
 31
0.0
  0
LINE
  5
2953
330
1E
100
AcDbEntity
  8
7
100
AcDbLine
 10
-9.646768912334621
 20
3.830874053969621
 30
0.0
 11
-9.638896668073771
 21
3.850554664621748
 31
0.0
  0
LINE
  5
2954
330
1E
100
AcDbEntity
  8
7
100
AcDbLine
 10
7.888655178708308
 20
3.823001809708771
 30
0.0
 11
7.908335789360435
 21
3.830874053969621
 31
0.0
  0
LINE
  5
2955
330
1E
100
AcDbEntity
  8
7
100
AcDbLine
 10
7.908335789360435
 20
3.830874053969621
 30
0.0
 11
7.916208033621284
 21
3.850554664621748
 31
0.0
  0
LINE
  5
2956
330
1E
100
AcDbEntity
  8
7
100
AcDbLine
 10
7.676104583665363
 20
3.850554664621748
 30
0.0
 11
7.683976827926212
 21
3.830874053969621
 31
0.0
  0
LINE
  5
2957
330
1E
100
AcDbEntity
  8
7
100
AcDbLine
 10
7.683976827926212
 20
3.830874053969621
 30
0.0
 11
7.703657438578334
 21
3.823001809708771
 31
0.0
  0
LINE
  5
2958
330
1E
100
AcDbEntity
  8
7
100
AcDbLine
 10
-9.875063995899264
 20
3.850554664621748
 30
0.0
 11
-9.867191751638415
 21
3.830874053969621
 31
0.0
  0
LINE
  5
2959
330
1E
100
AcDbEntity
  8
7
100
AcDbLine
 10
-9.867191751638415
 20
3.830874053969621
 30
0.0
 11
-9.847511140986288
 21
3.823001809708771
 31
0.0
  0
LINE
  5
295A
330
1E
100
AcDbEntity
  8
7
100
AcDbLine
 10
7.912271911490863
 20
4.755862754619476
 30
0.0
 11
7.89652742296916
 21
4.948732739010289
 31
0.0
  0
LINE
  5
295B
330
1E
100
AcDbEntity
  8
7
100
AcDbLine
 10
7.89652742296916
 20
4.948732739010289
 30
0.0
 11
7.845357835273636
 21
5.137666601270685
 31
0.0
  0
LINE
  5
295C
330
1E
100
AcDbEntity
  8
7
100
AcDbLine
 10
7.845357835273636
 20
5.137666601270685
 30
0.0
 11
7.762699270534715
 21
5.314792097139808
 31
0.0
  0
LINE
  5
295D
330
1E
100
AcDbEntity
  8
7
100
AcDbLine
 10
7.762699270534715
 20
5.314792097139808
 30
0.0
 11
7.652487850882812
 21
5.476173104487227
 31
0.0
  0
LINE
  5
295E
330
1E
100
AcDbEntity
  8
7
100
AcDbLine
 10
7.652487850882812
 20
5.476173104487227
 30
0.0
 11
7.514723576317942
 21
5.613937379052105
 31
0.0
  0
LINE
  5
295F
330
1E
100
AcDbEntity
  8
7
100
AcDbLine
 10
7.514723576317942
 20
5.613937379052105
 30
0.0
 11
7.353342568970523
 21
5.724148798703994
 31
0.0
  0
LINE
  5
2960
330
1E
100
AcDbEntity
  8
7
100
AcDbLine
 10
7.353342568970523
 20
5.724148798703994
 30
0.0
 11
7.176217073101399
 21
5.806807363442924
 31
0.0
  0
LINE
  5
2961
330
1E
100
AcDbEntity
  8
7
100
AcDbLine
 10
7.176217073101399
 20
5.806807363442924
 30
0.0
 11
6.987283210841003
 21
5.857976951138445
 31
0.0
  0
LINE
  5
2962
330
1E
100
AcDbEntity
  8
7
100
AcDbLine
 10
6.987283210841003
 20
5.857976951138445
 30
0.0
 11
6.794413226450183
 21
5.87372143966014
 31
0.0
  0
LINE
  5
2963
330
1E
100
AcDbEntity
  8
7
100
AcDbLine
 10
7.672168461534937
 20
4.755862754619476
 30
0.0
 11
7.656423973013236
 21
4.929052128358167
 31
0.0
  0
LINE
  5
2964
330
1E
100
AcDbEntity
  8
7
100
AcDbLine
 10
7.656423973013236
 20
4.929052128358167
 30
0.0
 11
7.605254385317712
 21
5.090433135705586
 31
0.0
  0
LINE
  5
2965
330
1E
100
AcDbEntity
  8
7
100
AcDbLine
 10
7.605254385317712
 20
5.090433135705586
 30
0.0
 11
7.522595820578796
 21
5.243941898792163
 31
0.0
  0
LINE
  5
2966
330
1E
100
AcDbEntity
  8
7
100
AcDbLine
 10
7.522595820578796
 20
5.243941898792163
 30
0.0
 11
7.416320523057319
 21
5.377770051226606
 31
0.0
  0
LINE
  5
2967
330
1E
100
AcDbEntity
  8
7
100
AcDbLine
 10
7.416320523057319
 20
5.377770051226606
 30
0.0
 11
7.28249237062287
 21
5.484045348748082
 31
0.0
  0
LINE
  5
2968
330
1E
100
AcDbEntity
  8
7
100
AcDbLine
 10
7.28249237062287
 20
5.484045348748082
 30
0.0
 11
7.128983607536302
 21
5.566703913487007
 31
0.0
  0
LINE
  5
2969
330
1E
100
AcDbEntity
  8
7
100
AcDbLine
 10
7.128983607536302
 20
5.566703913487007
 30
0.0
 11
6.967602600188879
 21
5.617873501182525
 31
0.0
  0
LINE
  5
296A
330
1E
100
AcDbEntity
  8
7
100
AcDbLine
 10
6.967602600188879
 20
5.617873501182525
 30
0.0
 11
6.794413226450183
 21
5.633617989704229
 31
0.0
  0
LINE
  5
296B
330
1E
100
AcDbEntity
  8
7
100
AcDbLine
 10
-8.757205310858591
 20
5.87372143966014
 30
0.0
 11
-8.950075295249408
 21
5.857976951138445
 31
0.0
  0
LINE
  5
296C
330
1E
100
AcDbEntity
  8
7
100
AcDbLine
 10
-8.950075295249408
 20
5.857976951138445
 30
0.0
 11
-9.139009157509802
 21
5.806807363442924
 31
0.0
  0
LINE
  5
296D
330
1E
100
AcDbEntity
  8
7
100
AcDbLine
 10
-9.139009157509802
 20
5.806807363442924
 30
0.0
 11
-9.316134653378929
 21
5.724148798703994
 31
0.0
  0
LINE
  5
296E
330
1E
100
AcDbEntity
  8
7
100
AcDbLine
 10
-9.316134653378929
 20
5.724148798703994
 30
0.0
 11
-9.477515660726348
 21
5.613937379052105
 31
0.0
  0
LINE
  5
296F
330
1E
100
AcDbEntity
  8
7
100
AcDbLine
 10
-9.477515660726348
 20
5.613937379052105
 30
0.0
 11
-9.615279935291216
 21
5.476173104487227
 31
0.0
  0
LINE
  5
2970
330
1E
100
AcDbEntity
  8
7
100
AcDbLine
 10
-9.615279935291216
 20
5.476173104487227
 30
0.0
 11
-9.72549135494312
 21
5.314792097139808
 31
0.0
  0
LINE
  5
2971
330
1E
100
AcDbEntity
  8
7
100
AcDbLine
 10
-9.72549135494312
 20
5.314792097139808
 30
0.0
 11
-9.808149919682039
 21
5.137666601270685
 31
0.0
  0
LINE
  5
2972
330
1E
100
AcDbEntity
  8
7
100
AcDbLine
 10
-9.808149919682039
 20
5.137666601270685
 30
0.0
 11
-9.859319507377563
 21
4.948732739010289
 31
0.0
  0
LINE
  5
2973
330
1E
100
AcDbEntity
  8
7
100
AcDbLine
 10
-9.568046469726118
 20
5.090433135705586
 30
0.0
 11
-9.619216057421642
 21
4.929052128358167
 31
0.0
  0
LINE
  5
2974
330
1E
100
AcDbEntity
  8
7
100
AcDbLine
 10
-9.619216057421642
 20
4.929052128358167
 30
0.0
 11
-9.634960545943343
 21
4.755862754619476
 31
0.0
  0
LINE
  5
2975
330
1E
100
AcDbEntity
  8
7
100
AcDbLine
 10
-8.757205310858591
 20
5.633617989704229
 30
0.0
 11
-8.930394684597288
 21
5.617873501182525
 31
0.0
  0
LINE
  5
2976
330
1E
100
AcDbEntity
  8
7
100
AcDbLine
 10
-8.930394684597288
 20
5.617873501182525
 30
0.0
 11
-9.091775691944707
 21
5.566703913487007
 31
0.0
  0
LINE
  5
2977
330
1E
100
AcDbEntity
  8
7
100
AcDbLine
 10
-9.091775691944707
 20
5.566703913487007
 30
0.0
 11
-9.245284455031278
 21
5.484045348748082
 31
0.0
  0
LINE
  5
2978
330
1E
100
AcDbEntity
  8
7
100
AcDbLine
 10
-9.245284455031278
 20
5.484045348748082
 30
0.0
 11
-9.379112607465728
 21
5.377770051226606
 31
0.0
  0
LINE
  5
2979
330
1E
100
AcDbEntity
  8
7
100
AcDbLine
 10
-9.379112607465728
 20
5.377770051226606
 30
0.0
 11
-9.485387904987193
 21
5.243941898792163
 31
0.0
  0
LINE
  5
297A
330
1E
100
AcDbEntity
  8
7
100
AcDbLine
 10
-9.485387904987193
 20
5.243941898792163
 30
0.0
 11
-9.568046469726118
 21
5.090433135705586
 31
0.0
  0
ENDSEC
  0
SECTION
  2
OBJECTS
  0
DICTIONARY
  5
C
330
0
100
AcDbDictionary
  3
ACAD_GROUP
350
D
  3
ACAD_LAYOUT
350
19
  3
ACAD_MLINESTYLE
350
16
  3
ACAD_PLOTSETTINGS
350
18
1001
ACAD
1000
TREAT_AS_HARD
1070
     0
1000
TREAT_AS_HARD
1070
     0
1000
TREAT_AS_HARD
1070
     0
  0
DICTIONARY
  5
3A43
330
1E
100
AcDbDictionary
  3
ACAD_LAYOUTSELFREF
350
3ADA
1001
ACAD
1000
TREAT_AS_HARD
1070
     1
1000
TREAT_AS_HARD
1070
     1
  0
DICTIONARY
  5
3A41
330
1A
100
AcDbDictionary
  3
ACAD_LAYOUTSELFREF
350
3AD9
1001
ACAD
1000
TREAT_AS_HARD
1070
     1
1000
TREAT_AS_HARD
1070
     1
  0
DICTIONARY
  5
D
102
{ACAD_REACTORS
330
C
102
}
330
C
100
AcDbDictionary
1001
ACAD
1000
TREAT_AS_HARD
1070
     0
1000
TREAT_AS_HARD
1070
     0
1000
TREAT_AS_HARD
1070
     0
  0
DICTIONARY
  5
19
102
{ACAD_REACTORS
330
C
102
}
330
C
100
AcDbDictionary
1001
ACAD
1000
TREAT_AS_HARD
1070
     0
1000
TREAT_AS_HARD
1070
     0
1000
TREAT_AS_HARD
1070
     0
  0
DICTIONARY
  5
16
102
{ACAD_REACTORS
330
C
102
}
330
C
100
AcDbDictionary
  3
STANDARD
350
17
1001
ACAD
1000
TREAT_AS_HARD
1070
     0
1000
TREAT_AS_HARD
1070
     0
1000
TREAT_AS_HARD
1070
     0
  0
DICTIONARY
  5
18
102
{ACAD_REACTORS
330
C
102
}
330
C
100
AcDbDictionary
1001
ACAD
1000
TREAT_AS_HARD
1070
     0
1000
TREAT_AS_HARD
1070
     0
1000
TREAT_AS_HARD
1070
     0
  0
XRECORD
  5
3ADA
102
{ACAD_REACTORS
330
3A43
102
}
330
3A43
100
AcDbXrecord
340
1E
  0
XRECORD
  5
3AD9
102
{ACAD_REACTORS
330
3A41
102
}
330
3A41
100
AcDbXrecord
340
1A
  0
MLINESTYLE
  5
17
102
{ACAD_REACTORS
330
16
102
}
330
16
100
AcDbMlineStyle
  2
STANDARD
 70
     0
  3

 62
   256
 51
90.0
 52
90.0
 71
     2
 49
0.5
 62
   256
  6
BYLAYER
 49
-0.5
 62
   256
  6
BYLAYER
  0
ENDSEC
  0
EOF
