  0
SECTION
  2
HEADER
  9
$ACADVER
  1
AC1014
  9
$ACADMAINTVER
 70
     9
  9
$DWGCODEPAGE
  3
ANSI_1252
  9
$INSBASE
 10
0.0
 20
0.0
 30
0.0
  9
$EXTMIN
 10
0.8211175799369812
 20
4.764835357666015
 30
0.0
  9
$EXTMAX
 10
21.69519996643066
 20
15.87926685065031
 30
0.0
  9
$LIMMIN
 10
-0.5
 20
-0.5
  9
$LIMMAX
 10
5.0
 20
5.0
  9
$ORTHOMODE
 70
     0
  9
$REGENMODE
 70
     1
  9
$FILLMODE
 70
     1
  9
$QTEXTMODE
 70
     0
  9
$MIRRTEXT
 70
     1
  9
$DRAGMODE
 70
     2
  9
$LTSCALE
 40
1.0
  9
$OSMODE
 70
   261
  9
$ATTMODE
 70
     1
  9
$TEXTSIZE
 40
0.0
  9
$TRACEWID
 40
0.05
  9
$TEXTSTYLE
  7
STANDARD
  9
$CLAYER
  8
0
  9
$CELTYPE
  6
CONTINUOUS
  9
$CECOLOR
 62
   256
  9
$CELTSCALE
 40
1.0
  9
$DELOBJ
 70
     1
  9
$DISPSILH
 70
     0
  9
$DIMSCALE
 40
1.0
  9
$DIMASZ
 40
0.18
  9
$DIMEXO
 40
0.0625
  9
$DIMDLI
 40
0.38
  9
$DIMRND
 40
0.0
  9
$DIMDLE
 40
0.0
  9
$DIMEXE
 40
0.18
  9
$DIMTP
 40
0.0
  9
$DIMTM
 40
0.0
  9
$DIMTXT
 40
0.18
  9
$DIMCEN
 40
0.09
  9
$DIMTSZ
 40
0.0
  9
$DIMTOL
 70
     0
  9
$DIMLIM
 70
     0
  9
$DIMTIH
 70
     1
  9
$DIMTOH
 70
     1
  9
$DIMSE1
 70
     0
  9
$DIMSE2
 70
     0
  9
$DIMTAD
 70
     0
  9
$DIMZIN
 70
     0
  9
$DIMBLK
  1

  9
$DIMASO
 70
     1
  9
$DIMSHO
 70
     1
  9
$DIMPOST
  1

  9
$DIMAPOST
  1

  9
$DIMALT
 70
     0
  9
$DIMALTD
 70
     2
  9
$DIMALTF
 40
25.4
  9
$DIMLFAC
 40
1.0
  9
$DIMTOFL
 70
     0
  9
$DIMTVP
 40
0.0
  9
$DIMTIX
 70
     0
  9
$DIMSOXD
 70
     0
  9
$DIMSAH
 70
     0
  9
$DIMBLK1
  1

  9
$DIMBLK2
  1

  9
$DIMSTYLE
  2
STANDARD
  9
$DIMCLRD
 70
     0
  9
$DIMCLRE
 70
     0
  9
$DIMCLRT
 70
     0
  9
$DIMTFAC
 40
1.0
  9
$DIMGAP
 40
0.09
  9
$DIMJUST
 70
     0
  9
$DIMSD1
 70
     0
  9
$DIMSD2
 70
     0
  9
$DIMTOLJ
 70
     1
  9
$DIMTZIN
 70
     0
  9
$DIMALTZ
 70
     0
  9
$DIMALTTZ
 70
     0
  9
$DIMFIT
 70
     3
  9
$DIMUPT
 70
     0
  9
$DIMUNIT
 70
     2
  9
$DIMDEC
 70
     4
  9
$DIMTDEC
 70
     4
  9
$DIMALTU
 70
     2
  9
$DIMALTTD
 70
     2
  9
$DIMTXSTY
  7
STANDARD
  9
$DIMAUNIT
 70
     0
  9
$LUNITS
 70
     2
  9
$LUPREC
 70
     4
  9
$SKETCHINC
 40
0.1
  9
$FILLETRAD
 40
0.0
  9
$AUNITS
 70
     0
  9
$AUPREC
 70
     0
  9
$MENU
  1
acad
  9
$ELEVATION
 40
0.0
  9
$PELEVATION
 40
0.0
  9
$THICKNESS
 40
0.0
  9
$LIMCHECK
 70
     0
  9
$BLIPMODE
 70
     0
  9
$CHAMFERA
 40
0.0
  9
$CHAMFERB
 40
0.0
  9
$CHAMFERC
 40
0.0
  9
$CHAMFERD
 40
0.0
  9
$SKPOLY
 70
     0
  9
$TDCREATE
 40
2452796.445173379
  9
$TDUPDATE
 40
2452796.445485150
  9
$TDINDWG
 40
0.0003130440
  9
$TDUSRTIMER
 40
0.0003130440
  9
$USRTIMER
 70
     1
  9
$ANGBASE
 50
0.0
  9
$ANGDIR
 70
     0
  9
$PDMODE
 70
     0
  9
$PDSIZE
 40
0.0
  9
$PLINEWID
 40
0.0
  9
$COORDS
 70
     1
  9
$SPLFRAME
 70
     0
  9
$SPLINETYPE
 70
     6
  9
$SPLINESEGS
 70
     8
  9
$ATTDIA
 70
     0
  9
$ATTREQ
 70
     1
  9
$HANDLING
 70
  4097
  9
$HANDSEED
  5
2CE
  9
$SURFTAB1
 70
     6
  9
$SURFTAB2
 70
     6
  9
$SURFTYPE
 70
     6
  9
$SURFU
 70
     6
  9
$SURFV
 70
     6
  9
$UCSNAME
  2

  9
$UCSORG
 10
0.0
 20
0.0
 30
0.0
  9
$UCSXDIR
 10
1.0
 20
0.0
 30
0.0
  9
$UCSYDIR
 10
0.0
 20
1.0
 30
0.0
  9
$PUCSNAME
  2

  9
$PUCSORG
 10
0.0
 20
0.0
 30
0.0
  9
$PUCSXDIR
 10
1.0
 20
0.0
 30
0.0
  9
$PUCSYDIR
 10
0.0
 20
1.0
 30
0.0
  9
$USERI1
 70
     0
  9
$USERI2
 70
     0
  9
$USERI3
 70
     0
  9
$USERI4
 70
     0
  9
$USERI5
 70
     0
  9
$USERR1
 40
0.0
  9
$USERR2
 40
0.0
  9
$USERR3
 40
0.0
  9
$USERR4
 40
0.0
  9
$USERR5
 40
0.0
  9
$WORLDVIEW
 70
     1
  9
$SHADEDGE
 70
     3
  9
$SHADEDIF
 70
    70
  9
$TILEMODE
 70
     1
  9
$MAXACTVP
 70
    16
  9
$PINSBASE
 10
0.0
 20
0.0
 30
0.0
  9
$PLIMCHECK
 70
     0
  9
$PEXTMIN
 10
1.000000000000000E+20
 20
1.000000000000000E+20
 30
1.000000000000000E+20
  9
$PEXTMAX
 10
-1.000000000000000E+20
 20
-1.000000000000000E+20
 30
-1.000000000000000E+20
  9
$PLIMMIN
 10
-0.1979161059762549
 20
-0.2112499935420479
  9
$PLIMMAX
 10
10.80208365372785
 20
8.288749766162061
  9
$UNITMODE
 70
     0
  9
$VISRETAIN
 70
     0
  9
$PLINEGEN
 70
     1
  9
$PSLTSCALE
 70
     0
  9
$TREEDEPTH
 70
  3020
  9
$PICKSTYLE
 70
     1
  9
$CMLSTYLE
  2
STANDARD
  9
$CMLJUST
 70
     0
  9
$CMLSCALE
 40
1.0
  9
$PROXYGRAPHICS
 70
     0
  9
$MEASUREMENT
 70
     0
  0
ENDSEC
  0
SECTION
  2
CLASSES
  0
CLASS
  1
LWPOLYLINE
  2
AcDbPolyline
  3
AutoCAD 2000
 90
        0
280
     0
281
     1
  0
CLASS
  1
IMAGE
  2
AcDbRasterImage
  3
ISM
 90
      127
280
     0
281
     1
  0
CLASS
  1
OLE2FRAME
  2
AcDbOle2Frame
  3
AutoCAD 2000
 90
        0
280
     0
281
     1
  0
CLASS
  1
HATCH
  2
AcDbHatch
  3
AutoCAD 2000
 90
        0
280
     0
281
     1
  0
CLASS
  1
DICTIONARYVAR
  2
AcDbDictionaryVar
  3
AutoCAD 2000
 90
        0
280
     0
281
     0
  0
CLASS
  1
RASTERVARIABLES
  2
AcDbRasterVariables
  3
ISM
 90
        0
280
     0
281
     0
  0
CLASS
  1
IMAGEDEF
  2
AcDbRasterImageDef
  3
ISM
 90
        0
280
     0
281
     0
  0
CLASS
  1
IMAGEDEF_REACTOR
  2
AcDbRasterImageDefReactor
  3
ISM
 90
        1
280
     0
281
     0
  0
CLASS
  1
IDBUFFER
  2
AcDbIdBuffer
  3
AutoCAD 2000
 90
        0
280
     0
281
     0
  0
CLASS
  1
SPATIAL_FILTER
  2
AcDbSpatialFilter
  3
AutoCAD 2000
 90
        0
280
     0
281
     0
  0
CLASS
  1
XRECORD
  2
AcDbXrecord
  3
AutoCAD 2000
 90
        0
280
     0
281
     0
  0
CLASS
  1
SORTENTSTABLE
  2
AcDbSortentsTable
  3
AutoCAD 2000
 90
        0
280
     0
281
     0
  0
CLASS
  1
LAYER_INDEX
  2
AcDbLayerIndex
  3
AutoCAD 2000
 90
        0
280
     0
281
     0
  0
CLASS
  1
SPATIAL_INDEX
  2
AcDbSpatialIndex
  3
AutoCAD 2000
 90
        0
280
     0
281
     0
  0
CLASS
  1
OBJECT_PTR
  2
CAseDLPNTableRecord
  3
ASE-LPNTableRecord
 90
        1
280
     0
281
     0
  0
CLASS
  1
LAYOUT
  2
AcDbLayout
  3
AutoCAD 2000
 90
        0
280
     0
281
     0
  0
CLASS
  1
PLOTSETTINGS
  2
AcDbPlotSettings
  3
AutoCAD 2000
 90
        0
280
     0
281
     0
  0
CLASS
  1
ACDBDICTIONARYWDFLT
  2
AcDbDictionaryWithDefault
  3
AutoCAD 2000
 90
        0
280
     0
281
     0
  0
CLASS
  1
ACDBPLACEHOLDER
  2
AcDbPlaceHolder
  3
AutoCAD 2000
 90
        0
280
     0
281
     0
  0
CLASS
  1
VBA_PROJECT
  2
AcDbVbaProject
  3
acadvba
 90
        0
280
     0
281
     0
  0
CLASS
  1
RTEXT
  2
RText
  3
RText|AutoCAD Express Tool|expresstools@autodesk.com
 90
        0
280
     0
281
     1
  0
CLASS
  1
ARCALIGNEDTEXT
  2
AcDbArcAlignedText
  3
ATEXT|AutoCAD Express Tool|expresstools@autodesk.com
 90
        0
280
     0
281
     1
  0
CLASS
  1
LONG_TRANSACTION
  2
AcDbLongTransaction
  3
AutoCAD 2000
 90
        0
280
     0
281
     0
  0
CLASS
  1
LWPOLYLINE
  2
AcDbPolyline
  3
AutoCAD 2000
 90
        0
280
     0
281
     1
  0
CLASS
  1
HATCH
  2
AcDbHatch
  3
AutoCAD 2000
 90
        0
280
     0
281
     1
  0
CLASS
  1
XRECORD
  2
AcDbXrecord
  3
AutoCAD 2000
 90
        0
280
     0
281
     0
  0
ENDSEC
  0
SECTION
  2
TABLES
  0
TABLE
  2
VPORT
  5
7
330
0
100
AcDbSymbolTable
 70
    25
  0
VPORT
  5
286
330
7
100
AcDbSymbolTableRecord
100
AcDbViewportTableRecord
  2
L1
 70
     0
 10
0.0
 20
0.0
 11
1.0
 21
1.0
 12
0.0
 22
0.0
 13
0.0
 23
0.0
 14
1.0
 24
1.0
 15
0.0
 25
0.0
 16
0.0
 26
0.0
 36
1.0
 17
0.0
 27
0.0
 37
0.0
 40
7.926304133858266
 41
0.688564
 42
50.0
 43
22.86983526390032
 44
-22.86983526390032
 50
0.0
 51
0.0
 71
    16
 72
   100
 73
     1
 74
     1
 75
     0
 76
     0
 77
     0
 78
     0
  0
VPORT
  5
287
330
7
100
AcDbSymbolTableRecord
100
AcDbViewportTableRecord
  2
L2
 70
     0
 10
0.0
 20
0.0
 11
0.5
 21
1.0
 12
0.0
 22
0.0
 13
0.0
 23
0.0
 14
1.0
 24
1.0
 15
0.0
 25
0.0
 16
0.0
 26
-1.0
 36
0.0
 17
0.0
 27
0.0
 37
0.0
 40
45.73967052780065
 41
0.688564
 42
50.0
 43
23.44633426093276
 44
-23.44633426093276
 50
0.0
 51
0.0
 71
    16
 72
   100
 73
     1
 74
     1
 75
     0
 76
     0
 77
     0
 78
     0
  0
VPORT
  5
288
330
7
100
AcDbSymbolTableRecord
100
AcDbViewportTableRecord
  2
L2
 70
     0
 10
0.5
 20
0.0
 11
1.0
 21
1.0
 12
0.0
 22
0.0
 13
0.0
 23
0.0
 14
1.0
 24
1.0
 15
0.0
 25
0.0
 16
1.0
 26
0.0
 36
0.0
 17
0.0
 27
0.0
 37
0.0
 40
45.73967052780065
 41
0.688564
 42
50.0
 43
23.21068588610736
 44
-23.21068588610736
 50
0.0
 51
0.0
 71
    16
 72
   100
 73
     1
 74
     1
 75
     0
 76
     0
 77
     0
 78
     0
  0
VPORT
  5
289
330
7
100
AcDbSymbolTableRecord
100
AcDbViewportTableRecord
  2
L3
 70
     0
 10
0.0
 20
0.5
 11
1.0
 21
1.0
 12
0.0
 22
0.0
 13
0.0
 23
0.0
 14
1.0
 24
1.0
 15
0.0
 25
0.0
 16
0.0
 26
0.0
 36
1.0
 17
0.0
 27
0.0
 37
0.0
 40
7.926304133858266
 41
0.688564
 42
50.0
 43
22.86983526390032
 44
-22.86983526390032
 50
0.0
 51
0.0
 71
    16
 72
   100
 73
     1
 74
     1
 75
     0
 76
     0
 77
     0
 78
     0
  0
VPORT
  5
28A
330
7
100
AcDbSymbolTableRecord
100
AcDbViewportTableRecord
  2
L3
 70
     0
 10
0.0
 20
0.0
 11
1.0
 21
0.5
 12
0.0
 22
0.0
 13
0.0
 23
0.0
 14
1.0
 24
1.0
 15
0.0
 25
0.0
 16
0.0
 26
-1.0
 36
0.0
 17
0.0
 27
0.0
 37
0.0
 40
45.73967052780065
 41
0.688564
 42
50.0
 43
23.44633426093276
 44
-23.44633426093276
 50
0.0
 51
0.0
 71
    16
 72
   100
 73
     1
 74
     1
 75
     0
 76
     0
 77
     0
 78
     0
  0
VPORT
  5
28B
330
7
100
AcDbSymbolTableRecord
100
AcDbViewportTableRecord
  2
L4
 70
     0
 10
0.0
 20
0.5
 11
0.5
 21
1.0
 12
0.0
 22
0.0
 13
0.0
 23
0.0
 14
1.0
 24
1.0
 15
0.0
 25
0.0
 16
0.0
 26
0.0
 36
1.0
 17
0.0
 27
0.0
 37
0.0
 40
7.926304133858266
 41
0.688564
 42
50.0
 43
22.86983526390032
 44
-22.86983526390032
 50
0.0
 51
0.0
 71
    16
 72
   100
 73
     1
 74
     1
 75
     0
 76
     0
 77
     0
 78
     0
  0
VPORT
  5
28C
330
7
100
AcDbSymbolTableRecord
100
AcDbViewportTableRecord
  2
L4
 70
     0
 10
0.0
 20
0.0
 11
0.5
 21
0.5
 12
0.0
 22
0.0
 13
0.0
 23
0.0
 14
1.0
 24
1.0
 15
0.0
 25
0.0
 16
0.0
 26
-1.0
 36
0.0
 17
0.0
 27
0.0
 37
0.0
 40
45.73967052780065
 41
0.688564
 42
50.0
 43
23.44633426093276
 44
-23.44633426093276
 50
0.0
 51
0.0
 71
    16
 72
   100
 73
     1
 74
     1
 75
     0
 76
     0
 77
     0
 78
     0
  0
VPORT
  5
28D
330
7
100
AcDbSymbolTableRecord
100
AcDbViewportTableRecord
  2
L4
 70
     0
 10
0.5
 20
0.0
 11
1.0
 21
0.5
 12
0.0
 22
0.0
 13
0.0
 23
0.0
 14
1.0
 24
1.0
 15
0.0
 25
0.0
 16
1.0
 26
0.0
 36
0.0
 17
0.0
 27
0.0
 37
0.0
 40
45.73967052780065
 41
0.688564
 42
50.0
 43
23.21068588610736
 44
-23.21068588610736
 50
0.0
 51
0.0
 71
    16
 72
   100
 73
     1
 74
     1
 75
     0
 76
     0
 77
     0
 78
     0
  0
VPORT
  5
28E
330
7
100
AcDbSymbolTableRecord
100
AcDbViewportTableRecord
  2
L4
 70
     0
 10
0.5
 20
0.5
 11
1.0
 21
1.0
 12
0.0
 22
0.0
 13
0.0
 23
0.0
 14
1.0
 24
1.0
 15
0.0
 25
0.0
 16
0.5773502691896259
 26
-0.5773502691896259
 36
0.5773502691896259
 17
0.0
 27
0.0
 37
0.0
 40
44.80128613809216
 41
0.688564
 42
50.0
 43
23.31247725727461
 44
-23.31247725727461
 50
0.0
 51
0.0
 71
    16
 72
   100
 73
     1
 74
     1
 75
     0
 76
     0
 77
     0
 78
     0
  0
VPORT
  5
28F
330
7
100
AcDbSymbolTableRecord
100
AcDbViewportTableRecord
  2
L6
 70
     0
 10
0.0
 20
0.5
 11
0.3333333333333334
 21
1.0
 12
0.0
 22
0.0
 13
0.0
 23
0.0
 14
1.0
 24
1.0
 15
0.0
 25
0.0
 16
0.7188730927569434
 26
-0.5850486126764432
 36
0.3754192287502549
 17
0.0
 27
0.0
 37
0.0
 40
47.28156778779488
 41
0.688564
 42
50.0
 43
24.4750051625393
 44
-24.4750051625393
 50
0.0
 51
0.0
 71
    16
 72
   100
 73
     1
 74
     1
 75
     0
 76
     0
 77
     0
 78
     0
  0
VPORT
  5
290
330
7
100
AcDbSymbolTableRecord
100
AcDbViewportTableRecord
  2
L6
 70
     0
 10
0.0
 20
0.0
 11
0.3333333333333334
 21
0.5
 12
0.0
 22
0.0
 13
0.0
 23
0.0
 14
1.0
 24
1.0
 15
0.0
 25
0.0
 16
-1.0
 26
0.0
 36
0.0
 17
0.0
 27
0.0
 37
0.0
 40
45.73967052780065
 41
0.688564
 42
50.0
 43
23.21068588610736
 44
-23.21068588610736
 50
0.0
 51
0.0
 71
    16
 72
   100
 73
     1
 74
     1
 75
     0
 76
     0
 77
     0
 78
     0
  0
VPORT
  5
291
330
7
100
AcDbSymbolTableRecord
100
AcDbViewportTableRecord
  2
L6
 70
     0
 10
0.3333333333333334
 20
0.5
 11
0.6666666666666666
 21
1.0
 12
0.0
 22
0.0
 13
0.0
 23
0.0
 14
1.0
 24
1.0
 15
0.0
 25
0.0
 16
0.0
 26
0.0
 36
1.0
 17
0.0
 27
0.0
 37
0.0
 40
7.926304133858266
 41
0.688564
 42
50.0
 43
22.86983526390032
 44
-22.86983526390032
 50
0.0
 51
0.0
 71
    16
 72
   100
 73
     1
 74
     1
 75
     0
 76
     0
 77
     0
 78
     0
  0
VPORT
  5
292
330
7
100
AcDbSymbolTableRecord
100
AcDbViewportTableRecord
  2
L6
 70
     0
 10
0.3333333333333334
 20
0.0
 11
0.6666666666666666
 21
0.5
 12
0.0
 22
0.0
 13
0.0
 23
0.0
 14
1.0
 24
1.0
 15
0.0
 25
0.0
 16
0.0
 26
-1.0
 36
0.0
 17
0.0
 27
0.0
 37
0.0
 40
45.73967052780065
 41
0.688564
 42
50.0
 43
23.44633426093276
 44
-23.44633426093276
 50
0.0
 51
0.0
 71
    16
 72
   100
 73
     1
 74
     1
 75
     0
 76
     0
 77
     0
 78
     0
  0
VPORT
  5
293
330
7
100
AcDbSymbolTableRecord
100
AcDbViewportTableRecord
  2
L6
 70
     0
 10
0.6666666666666666
 20
0.5
 11
1.0
 21
1.0
 12
0.0
 22
0.0
 13
0.0
 23
0.0
 14
1.0
 24
1.0
 15
0.0
 25
0.0
 16
0.5773502691896259
 26
-0.5773502691896259
 36
0.5773502691896259
 17
0.0
 27
0.0
 37
0.0
 40
44.80128613809216
 41
0.688564
 42
50.0
 43
23.31247725727461
 44
-23.31247725727461
 50
0.0
 51
0.0
 71
    16
 72
   100
 73
     1
 74
     1
 75
     0
 76
     0
 77
     0
 78
     0
  0
VPORT
  5
294
330
7
100
AcDbSymbolTableRecord
100
AcDbViewportTableRecord
  2
L6
 70
     0
 10
0.6666666666666666
 20
0.0
 11
1.0
 21
0.5
 12
0.0
 22
0.0
 13
0.0
 23
0.0
 14
1.0
 24
1.0
 15
0.0
 25
0.0
 16
1.0
 26
0.0
 36
0.0
 17
0.0
 27
0.0
 37
0.0
 40
45.73967052780065
 41
0.688564
 42
50.0
 43
23.21068588610736
 44
-23.21068588610736
 50
0.0
 51
0.0
 71
    16
 72
   100
 73
     1
 74
     1
 75
     0
 76
     0
 77
     0
 78
     0
  0
VPORT
  5
2A8
330
7
100
AcDbSymbolTableRecord
100
AcDbViewportTableRecord
  2
*ACTIVE
 70
     0
 10
0.0
 20
0.0
 11
1.0
 21
1.0
 12
11.25815877318382
 22
10.32205110415816
 13
0.0
 23
0.0
 14
1.0
 24
1.0
 15
0.0
 25
0.0
 16
0.0
 26
0.0
 36
1.0
 17
0.0
 27
0.0
 37
0.0
 40
13.9099671912592
 41
1.507955936352509
 42
50.0
 43
22.86983526390032
 44
-22.86983526390032
 50
0.0
 51
0.0
 71
    16
 72
   100
 73
     1
 74
     1
 75
     0
 76
     0
 77
     0
 78
     0
  0
ENDTAB
  0
TABLE
  2
LTYPE
  5
4
330
0
100
AcDbSymbolTable
 70
     7
  0
LTYPE
  5
11
330
4
100
AcDbSymbolTableRecord
100
AcDbLinetypeTableRecord
  2
BYBLOCK
 70
     0
  3

 72
    65
 73
     0
 40
0.0
  0
LTYPE
  5
12
330
4
100
AcDbSymbolTableRecord
100
AcDbLinetypeTableRecord
  2
BYLAYER
 70
     0
  3

 72
    65
 73
     0
 40
0.0
  0
LTYPE
  5
13
330
4
100
AcDbSymbolTableRecord
100
AcDbLinetypeTableRecord
  2
CONTINUOUS
 70
     0
  3
Solid line
 72
    65
 73
     0
 40
0.0
  0
LTYPE
  5
22
330
4
100
AcDbSymbolTableRecord
100
AcDbLinetypeTableRecord
  2
DASHED
 70
     0
  3
__ __ __ __ __ __ __ __ __
 72
    65
 73
     2
 40
0.75
 49
0.5
 74
     0
 49
-0.25
 74
     0
  0
LTYPE
  5
23
330
4
100
AcDbSymbolTableRecord
100
AcDbLinetypeTableRecord
  2
HIDDEN
 70
     0
  3
_ _ _ _ _ _ _ _ _ _ _ _ _ _ _
 72
    65
 73
     2
 40
0.5
 49
0.25
 74
     0
 49
-0.25
 74
     0
  0
LTYPE
  5
24
330
4
100
AcDbSymbolTableRecord
100
AcDbLinetypeTableRecord
  2
PHANTOM
 70
     0
  3
____ _ _ ____ _ _ _____ _ _ ____
 72
    65
 73
     6
 40
2.5
 49
1.25
 74
     0
 49
-0.25
 74
     0
 49
0.25
 74
     0
 49
-0.25
 74
     0
 49
0.25
 74
     0
 49
-0.25
 74
     0
  0
LTYPE
  5
25
330
4
100
AcDbSymbolTableRecord
100
AcDbLinetypeTableRecord
  2
CENTER
 70
     0
  3
____ _ ____ _ ____ _ ____
 72
    65
 73
     4
 40
2.0
 49
1.25
 74
     0
 49
-0.25
 74
     0
 49
0.25
 74
     0
 49
-0.25
 74
     0
  0
LTYPE
  5
26
330
4
100
AcDbSymbolTableRecord
100
AcDbLinetypeTableRecord
  2
DOT
 70
     0
  3
.........................
 72
    65
 73
     2
 40
0.25
 49
0.0
 74
     0
 49
-0.25
 74
     0
  0
LTYPE
  5
27
330
4
100
AcDbSymbolTableRecord
100
AcDbLinetypeTableRecord
  2
DASHDOT
 70
     0
  3
_._._._._._._._._._._._._._._._.
 72
    65
 73
     4
 40
1.0
 49
0.5
 74
     0
 49
-0.25
 74
     0
 49
0.0
 74
     0
 49
-0.25
 74
     0
  0
ENDTAB
  0
TABLE
  2
LAYER
  5
2
330
0
100
AcDbSymbolTable
 70
     3
  0
LAYER
  5
14
330
2
100
AcDbSymbolTableRecord
100
AcDbLayerTableRecord
  2
0
 70
     0
 62
     7
  6
CONTINUOUS
  0
LAYER
  5
29
330
2
100
AcDbSymbolTableRecord
100
AcDbLayerTableRecord
  2
1
 70
     0
 62
     7
  6
CONTINUOUS
  0
LAYER
  5
2A
330
2
100
AcDbSymbolTableRecord
100
AcDbLayerTableRecord
  2
TOP
 70
     0
 62
     7
  6
CONTINUOUS
  0
ENDTAB
  0
TABLE
  2
STYLE
  5
3
330
0
100
AcDbSymbolTable
 70
     1
  0
STYLE
  5
17
330
3
100
AcDbSymbolTableRecord
100
AcDbTextStyleTableRecord
  2
STANDARD
 70
     0
 40
0.0
 41
1.0
 50
0.0
 71
     0
 42
0.0
  3
txt
  4

  0
ENDTAB
  0
TABLE
  2
VIEW
  5
5
330
0
100
AcDbSymbolTable
 70
     8
  0
VIEW
  5
27D
330
5
100
AcDbSymbolTableRecord
100
AcDbViewTableRecord
  2
TOP
 70
     0
 40
7.926304133858266
 10
0.0
 20
0.0
 41
10.33464566929133
 11
0.0
 21
0.0
 31
1.0
 12
0.0
 22
0.0
 32
0.0
 42
50.0
 43
22.86983526390032
 44
-22.86983526390032
 50
0.0
 71
    16
  0
VIEW
  5
27E
330
5
100
AcDbSymbolTableRecord
100
AcDbViewTableRecord
  2
FRONT
 70
     0
 40
45.73967052780065
 10
0.0
 20
0.0
 41
10.33464566929133
 11
0.0
 21
-1.0
 31
0.0
 12
0.0
 22
0.0
 32
0.0
 42
50.0
 43
23.44633426093276
 44
-23.44633426093276
 50
0.0
 71
    16
  0
VIEW
  5
27F
330
5
100
AcDbSymbolTableRecord
100
AcDbViewTableRecord
  2
RIGHT
 70
     0
 40
45.73967052780065
 10
0.0
 20
0.0
 41
7.926304133858266
 11
1.0
 21
0.0
 31
0.0
 12
0.0
 22
0.0
 32
0.0
 42
50.0
 43
23.21068588610736
 44
-23.21068588610736
 50
0.0
 71
    16
  0
VIEW
  5
280
330
5
100
AcDbSymbolTableRecord
100
AcDbViewTableRecord
  2
BACK
 70
     0
 40
45.73967052780065
 10
0.0
 20
0.0
 41
10.33464566929133
 11
0.0
 21
1.0
 31
0.0
 12
0.0
 22
0.0
 32
0.0
 42
50.0
 43
23.44633426093276
 44
-23.44633426093276
 50
0.0
 71
    16
  0
VIEW
  5
281
330
5
100
AcDbSymbolTableRecord
100
AcDbViewTableRecord
  2
BOTTOM
 70
     0
 40
7.926304133858266
 10
0.0
 20
0.0
 41
10.33464566929133
 11
0.0
 21
0.0
 31
-1.0
 12
0.0
 22
0.0
 32
0.0
 42
50.0
 43
22.86983526390032
 44
-22.86983526390032
 50
180.0
 71
    16
  0
VIEW
  5
282
330
5
100
AcDbSymbolTableRecord
100
AcDbViewTableRecord
  2
LEFT
 70
     0
 40
45.73967052780065
 10
0.0
 20
0.0
 41
7.926304133858266
 11
-1.0
 21
0.0
 31
0.0
 12
0.0
 22
0.0
 32
0.0
 42
50.0
 43
23.21068588610736
 44
-23.21068588610736
 50
0.0
 71
    16
  0
VIEW
  5
283
330
5
100
AcDbSymbolTableRecord
100
AcDbViewTableRecord
  2
TFR-ISO
 70
     0
 40
44.80128613809216
 10
0.0
 20
0.0
 41
12.91244143671423
 11
0.5773502691896259
 21
-0.5773502691896259
 31
0.5773502691896259
 12
0.0
 22
0.0
 32
0.0
 42
50.0
 43
23.31247725727461
 44
-23.31247725727461
 50
0.0
 71
    16
  0
VIEW
  5
284
330
5
100
AcDbSymbolTableRecord
100
AcDbViewTableRecord
  2
TFR-TRI
 70
     0
 40
47.28156778779488
 10
0.0
 20
0.0
 41
12.67110328082996
 11
0.7188730927569434
 21
-0.5850486126764432
 31
0.3754192287502549
 12
0.0
 22
0.0
 32
0.0
 42
50.0
 43
24.4750051625393
 44
-24.4750051625393
 50
0.0
 71
    16
  0
ENDTAB
  0
TABLE
  2
UCS
  5
6
330
0
100
AcDbSymbolTable
 70
     0
  0
ENDTAB
  0
TABLE
  2
APPID
  5
8
330
0
100
AcDbSymbolTable
 70
     2
  0
APPID
  5
16
330
8
100
AcDbSymbolTableRecord
100
AcDbRegAppTableRecord
  2
ACAD
 70
     0
  0
APPID
  5
29E
330
8
100
AcDbSymbolTableRecord
100
AcDbRegAppTableRecord
  2
DCO15
 70
     0
  0
ENDTAB
  0
TABLE
  2
DIMSTYLE
  5
9
330
0
100
AcDbSymbolTable
 70
     1
  0
DIMSTYLE
105
18
330
9
100
AcDbSymbolTableRecord
100
AcDbDimStyleTableRecord
  2
STANDARD
 70
     0
  3

  4

  5

  6

  7

 40
1.0
 41
0.18
 42
0.0625
 43
0.38
 44
0.18
 45
0.0
 46
0.0
 47
0.0
 48
0.0
140
0.18
141
0.09
142
0.0
143
25.4
144
1.0
145
0.0
146
1.0
147
0.09
 71
     0
 72
     0
 73
     1
 74
     1
 75
     0
 76
     0
 77
     0
 78
     0
170
     0
171
     2
172
     0
173
     0
174
     0
175
     0
176
     0
177
     0
178
     0
270
     2
271
     4
272
     4
273
     2
274
     2
340
17
275
     0
280
     0
281
     0
282
     0
283
     1
284
     0
285
     0
286
     0
287
     0
288
     0
  0
ENDTAB
  0
TABLE
  2
BLOCK_RECORD
  5
1
330
0
100
AcDbSymbolTable
 70
     0
  0
BLOCK_RECORD
  5
A
102
{ACAD_XDICTIONARY
360
2CA
102
}
330
1
100
AcDbSymbolTableRecord
100
AcDbBlockTableRecord
  2
*MODEL_SPACE
  0
BLOCK_RECORD
  5
B
102
{ACAD_XDICTIONARY
360
2CC
102
}
330
1
100
AcDbSymbolTableRecord
100
AcDbBlockTableRecord
  2
*PAPER_SPACE
  0
ENDTAB
  0
ENDSEC
  0
SECTION
  2
BLOCKS
  0
BLOCK
  5
D
330
A
100
AcDbEntity
  8
0
100
AcDbBlockBegin
  2
*MODEL_SPACE
 70
     0
 71
     1
 10
0.0
 20
0.0
 30
0.0
  3
*MODEL_SPACE
  1

  0
ENDBLK
  5
E
330
A
100
AcDbEntity
  8
0
100
AcDbBlockEnd
  0
BLOCK
  5
F
330
B
100
AcDbEntity
 67
     1
  8
0
100
AcDbBlockBegin
  2
*PAPER_SPACE
 70
     0
 71
     1
 10
0.0
 20
0.0
 30
0.0
  3
*PAPER_SPACE
  1

  0
ENDBLK
  5
10
330
B
100
AcDbEntity
 67
     1
  8
0
100
AcDbBlockEnd
  0
ENDSEC
  0
SECTION
  2
ENTITIES
  0
LINE
  5
28
330
A
100
AcDbEntity
  8
TOP
  6
CONTINUOUS
 62
     3
100
AcDbLine
 10
1.541117548942565
 20
8.969266891479492
 30
0.0
 11
1.538306593894958
 21
8.987799644470214
 31
0.0
  0
LINE
  5
2B
330
A
100
AcDbEntity
  8
TOP
  6
CONTINUOUS
 62
     3
100
AcDbLine
 10
19.18724632263183
 20
5.702335357666015
 30
0.0
 11
19.16361808776855
 21
5.702335357666015
 31
0.0
  0
LINE
  5
2C
330
A
100
AcDbEntity
  8
TOP
  6
CONTINUOUS
 62
     3
100
AcDbLine
 10
20.81769943237304
 20
13.25239181518554
 30
0.0
 11
20.81769943237304
 21
13.28614139556884
 31
0.0
  0
LINE
  5
2D
330
A
100
AcDbEntity
  8
TOP
  6
CONTINUOUS
 62
     3
100
AcDbLine
 10
20.75769996643066
 20
9.664475440979003
 30
0.0
 11
20.75769996643066
 21
9.689737319946289
 31
0.0
  0
LINE
  5
2E
330
A
100
AcDbEntity
  8
TOP
  6
CONTINUOUS
 62
     3
100
AcDbLine
 10
20.81769943237304
 20
11.65926647186279
 30
0.0
 11
20.75769996643066
 21
11.65926647186279
 31
0.0
  0
LINE
  5
2F
330
A
100
AcDbEntity
  8
TOP
  6
CONTINUOUS
 62
     3
100
AcDbLine
 10
20.81769943237304
 20
14.88333511352539
 30
0.0
 11
20.81769943237304
 21
14.89530277252197
 31
0.0
  0
LINE
  5
30
330
A
100
AcDbEntity
  8
TOP
  6
CONTINUOUS
 62
     3
100
AcDbLine
 10
21.19519996643066
 20
8.969266891479492
 30
0.0
 11
21.19976615905761
 21
8.969266891479492
 31
0.0
  0
LINE
  5
31
330
A
100
AcDbEntity
  8
TOP
  6
CONTINUOUS
 62
     3
100
AcDbLine
 10
19.10111808776855
 20
5.665684700012207
 30
0.0
 11
19.10111808776855
 21
5.640457153320312
 31
0.0
  0
LINE
  5
32
330
A
100
AcDbEntity
  8
TOP
  6
CONTINUOUS
 62
     3
100
AcDbLine
 10
20.75769996643066
 20
15.0987958908081
 30
0.0
 11
20.75769996643066
 21
15.12405776977539
 31
0.0
  0
LINE
  5
33
330
A
100
AcDbEntity
  8
TOP
  6
CONTINUOUS
 62
     3
100
AcDbLine
 10
20.90519905090332
 20
15.8792667388916
 30
0.0
 11
20.88019943237304
 21
15.8792667388916
 31
0.0
  0
LINE
  5
34
330
A
100
AcDbEntity
  8
TOP
  6
CONTINUOUS
 62
     3
100
AcDbLine
 10
19.11092376708984
 20
9.002877235412597
 30
0.0
 11
19.10325622558593
 21
8.985477447509765
 31
0.0
  0
LINE
  5
35
330
A
100
AcDbEntity
  8
TOP
  6
CONTINUOUS
 62
     3
100
AcDbLine
 10
20.87769889831542
 20
15.8192663192749
 30
0.0
 11
20.81769943237304
 21
15.8192663192749
 31
0.0
  0
LINE
  5
36
330
A
100
AcDbEntity
  8
TOP
  6
CONTINUOUS
 62
     3
100
AcDbLine
 10
1.541117548942565
 20
5.685192108154296
 30
0.0
 11
1.538306593894958
 21
5.694173336029052
 31
0.0
  0
LINE
  5
37
330
A
100
AcDbEntity
  8
TOP
  6
CONTINUOUS
 62
     3
100
AcDbLine
 10
20.81769943237304
 20
9.689737319946289
 30
0.0
 11
20.81769943237304
 21
9.719621658325195
 31
0.0
  0
LINE
  5
38
330
A
100
AcDbEntity
  8
TOP
  6
CONTINUOUS
 62
     3
100
AcDbLine
 10
19.10111808776855
 20
8.944381713867187
 30
0.0
 11
19.10111808776855
 21
8.925318717956542
 31
0.0
  0
LINE
  5
39
330
A
100
AcDbEntity
  8
TOP
  6
CONTINUOUS
 62
     3
100
AcDbLine
 10
21.19519996643066
 20
15.8792667388916
 30
0.0
 11
21.19976615905761
 21
15.8792667388916
 31
0.0
  0
LINE
  5
3A
330
A
100
AcDbEntity
  8
TOP
  6
CONTINUOUS
 62
     3
100
AcDbLine
 10
21.02519989013671
 20
8.969266891479492
 30
0.0
 11
21.02519989013671
 21
8.909266471862792
 31
0.0
  0
LINE
  5
3B
330
A
100
AcDbEntity
  8
TOP
  6
CONTINUOUS
 62
     3
100
AcDbLine
 10
19.12465667724609
 20
5.701574802398681
 30
0.0
 11
19.11092376708984
 21
5.698880195617675
 31
0.0
  0
LINE
  5
3C
330
A
100
AcDbEntity
  8
TOP
  6
CONTINUOUS
 62
     3
100
AcDbLine
 10
21.02519989013671
 20
15.8792667388916
 30
0.0
 11
21.00223922729492
 21
15.8792667388916
 31
0.0
  0
LINE
  5
3D
330
A
100
AcDbEntity
  8
TOP
  6
CONTINUOUS
 62
     3
100
AcDbLine
 10
20.75769996643066
 20
11.56891155242919
 30
0.0
 11
20.75769996643066
 21
11.5987958908081
 31
0.0
  0
LINE
  5
3E
330
A
100
AcDbEntity
  8
TOP
  6
CONTINUOUS
 62
     3
100
AcDbLine
 10
1.261117577552795
 20
13.40926647186279
 30
0.0
 11
0.8211175799369812
 21
13.40926647186279
 31
0.0
  0
LINE
  5
3F
330
A
100
AcDbEntity
  8
TOP
  6
CONTINUOUS
 62
     3
100
AcDbLine
 10
19.38111686706543
 20
14.8792667388916
 30
0.0
 11
19.82111740112304
 21
14.8792667388916
 31
0.0
  0
LINE
  5
40
330
A
100
AcDbEntity
  8
TOP
  6
CONTINUOUS
 62
     3
100
AcDbLine
 10
20.75769996643066
 20
11.38333511352539
 30
0.0
 11
20.75769996643066
 21
11.39530277252197
 31
0.0
  0
LINE
  5
41
330
A
100
AcDbEntity
  8
TOP
  6
CONTINUOUS
 62
     3
100
AcDbLine
 10
19.10246849060058
 20
5.619538307189941
 30
0.0
 11
19.10708236694335
 21
5.632210254669189
 31
0.0
  0
LINE
  5
42
330
A
100
AcDbEntity
  8
TOP
  6
CONTINUOUS
 62
     3
100
AcDbLine
 10
19.10111808776855
 20
15.86321449279785
 30
0.0
 11
19.10111808776855
 21
15.8441514968872
 31
0.0
  0
LINE
  5
43
330
A
100
AcDbEntity
  8
TOP
  6
CONTINUOUS
 62
     3
100
AcDbLine
 10
21.69063186645507
 20
15.8192663192749
 30
0.0
 11
21.69519996643066
 21
15.8192663192749
 31
0.0
  0
LINE
  5
44
330
A
100
AcDbEntity
  8
TOP
  6
CONTINUOUS
 62
     3
100
AcDbLine
 10
20.92815971374511
 20
8.909266471862792
 30
0.0
 11
20.9476261138916
 21
8.909266471862792
 31
0.0
  0
LINE
  5
45
330
A
100
AcDbEntity
  8
TOP
  6
CONTINUOUS
 62
     3
100
AcDbLine
 10
20.81769943237304
 20
15.75926685333252
 30
0.0
 11
20.81769943237304
 21
15.79032516479492
 31
0.0
  0
LINE
  5
46
330
A
100
AcDbEntity
  8
TOP
  6
CONTINUOUS
 62
     3
100
AcDbLine
 10
1.377271294593811
 20
5.702335357666015
 30
0.0
 11
1.397392630577087
 21
5.702335357666015
 31
0.0
  0
LINE
  5
47
330
A
100
AcDbEntity
  8
TOP
  6
CONTINUOUS
 62
     3
100
AcDbLine
 10
1.541117548942565
 20
5.665684700012207
 30
0.0
 11
1.541117548942565
 21
5.685192108154296
 31
0.0
  0
LINE
  5
48
330
A
100
AcDbEntity
  8
TOP
  6
CONTINUOUS
 62
     3
100
AcDbLine
 10
1.478617787361145
 20
15.7567663192749
 30
0.0
 11
1.499258875846862
 21
15.76027297973632
 31
0.0
  0
LINE
  5
49
330
A
100
AcDbEntity
  8
TOP
  6
CONTINUOUS
 62
     3
100
AcDbLine
 10
21.17762565612792
 20
15.8792667388916
 30
0.0
 11
21.15816116333007
 21
15.8792667388916
 31
0.0
  0
LINE
  5
4A
330
A
100
AcDbEntity
  8
TOP
  6
CONTINUOUS
 62
     3
100
AcDbLine
 10
20.81769943237304
 20
15.155198097229
 30
0.0
 11
20.81769943237304
 21
15.15926647186279
 31
0.0
  0
LINE
  5
4B
330
A
100
AcDbEntity
  8
TOP
  6
CONTINUOUS
 62
     3
100
AcDbLine
 10
20.82124137878417
 20
9.00895881652832
 30
0.0
 11
20.8184642791748
 21
9.019721984863281
 31
0.0
  0
LINE
  5
4C
330
A
100
AcDbEntity
  8
TOP
  6
CONTINUOUS
 62
     3
100
AcDbLine
 10
20.75769996643066
 20
8.913355827331542
 30
0.0
 11
20.75769996643066
 21
8.925343513488769
 31
0.0
  0
LINE
  5
4D
330
A
100
AcDbEntity
  8
TOP
  6
CONTINUOUS
 62
     3
100
AcDbLine
 10
19.81702804565429
 20
5.702335357666015
 30
0.0
 11
19.82111740112304
 21
5.702335357666015
 31
0.0
  0
LINE
  5
4E
330
A
100
AcDbEntity
  8
TOP
  6
CONTINUOUS
 62
     3
100
AcDbLine
 10
19.1153392791748
 20
5.638794422149658
 30
0.0
 11
19.12673187255859
 21
5.641571521759033
 31
0.0
  0
LINE
  5
4F
330
A
100
AcDbEntity
  8
TOP
  6
CONTINUOUS
 62
     3
100
AcDbLine
 10
21.69519996643066
 20
8.969266891479492
 30
0.0
 11
21.69519996643066
 21
8.909266471862792
 31
0.0
  0
LINE
  5
50
330
A
100
AcDbEntity
  8
TOP
  6
CONTINUOUS
 62
     3
100
AcDbLine
 10
20.81769943237304
 20
13.3487958908081
 30
0.0
 11
20.81769943237304
 21
13.37405776977539
 31
0.0
  0
LINE
  5
51
330
A
100
AcDbEntity
  8
TOP
  6
CONTINUOUS
 62
     3
100
AcDbLine
 10
19.42111778259277
 20
12.0042667388916
 30
0.0
 11
19.54111671447753
 21
12.0042667388916
 31
0.0
  0
LINE
  5
52
330
A
100
AcDbEntity
  8
TOP
  6
CONTINUOUS
 62
     3
100
AcDbLine
 10
0.8562647700309753
 20
5.702335357666015
 30
0.0
 11
0.8811175823211669
 21
5.702335357666015
 31
0.0
  0
LINE
  5
53
330
A
100
AcDbEntity
  8
TOP
  6
CONTINUOUS
 62
     3
100
AcDbLine
 10
21.15816116333007
 20
15.8192663192749
 30
0.0
 11
21.13519859313965
 21
15.8192663192749
 31
0.0
  0
LINE
  5
54
330
A
100
AcDbEntity
  8
TOP
  6
CONTINUOUS
 62
     3
100
AcDbLine
 10
17.86511802673339
 20
14.46926689147949
 30
0.0
 11
18.71511840820312
 21
14.46926689147949
 31
0.0
  0
LINE
  5
55
330
A
100
AcDbEntity
  8
TOP
  6
CONTINUOUS
 62
     3
100
AcDbLine
 10
20.75769996643066
 20
9.629266738891601
 30
0.0
 11
20.75769996643066
 21
9.63333511352539
 31
0.0
  0
LINE
  5
56
330
A
100
AcDbEntity
  8
TOP
  6
CONTINUOUS
 62
     3
100
AcDbLine
 10
20.81769943237304
 20
11.62405776977539
 30
0.0
 11
20.81769943237304
 21
11.64323043823242
 31
0.0
  0
LINE
  5
57
330
A
100
AcDbEntity
  8
TOP
  6
CONTINUOUS
 62
     3
100
AcDbLine
 10
19.28859329223632
 20
5.702335357666015
 30
0.0
 11
19.70111846923828
 21
5.702335357666015
 31
0.0
  0
LINE
  5
58
330
A
100
AcDbEntity
  8
TOP
  6
CONTINUOUS
 62
     3
100
AcDbLine
 10
1.47342836856842
 20
5.642335414886474
 30
0.0
 11
1.49611759185791
 21
5.642335414886474
 31
0.0
  0
LINE
  5
59
330
A
100
AcDbEntity
  8
TOP
  6
CONTINUOUS
 62
     3
100
AcDbLine
 10
21.19976615905761
 20
8.909266471862792
 30
0.0
 11
21.21277236938476
 21
8.909266471862792
 31
0.0
  0
LINE
  5
5A
330
A
100
AcDbEntity
  8
TOP
  6
CONTINUOUS
 62
     3
100
AcDbLine
 10
1.701117634773254
 20
5.43483543395996
 30
0.0
 11
1.701117634773254
 21
5.324835777282714
 31
0.0
  0
LINE
  5
5B
330
A
100
AcDbEntity
  8
TOP
  6
CONTINUOUS
 62
     3
100
AcDbLine
 10
21.65816116333008
 20
15.8192663192749
 30
0.0
 11
21.67762565612793
 21
15.8192663192749
 31
0.0
  0
LINE
  5
5C
330
A
100
AcDbEntity
  8
TOP
  6
CONTINUOUS
 62
     3
100
AcDbLine
 10
19.16361808776855
 20
9.031766891479492
 30
0.0
 11
19.14297676086425
 21
9.02825927734375
 31
0.0
  0
LINE
  5
5D
330
A
100
AcDbEntity
  8
TOP
  6
CONTINUOUS
 62
     3
100
AcDbLine
 10
2.321117401123046
 20
5.204835414886474
 30
0.0
 11
2.321117401123046
 21
4.824835777282714
 31
0.0
  0
LINE
  5
5E
330
A
100
AcDbEntity
  8
TOP
  6
CONTINUOUS
 62
     3
100
AcDbLine
 10
1.353642582893371
 20
5.702335357666015
 30
0.0
 11
0.9411175847053527
 21
5.702335357666015
 31
0.0
  0
LINE
  5
5F
330
A
100
AcDbEntity
  8
TOP
  6
CONTINUOUS
 62
     3
100
AcDbLine
 10
20.81769943237304
 20
9.63333511352539
 30
0.0
 11
20.81769943237304
 21
9.645302772521972
 31
0.0
  0
LINE
  5
60
330
A
100
AcDbEntity
  8
TOP
  6
CONTINUOUS
 62
     3
100
AcDbLine
 10
19.16361808776855
 20
15.7567663192749
 30
0.0
 11
1.478617787361145
 21
15.7567663192749
 31
0.0
  0
LINE
  5
61
330
A
100
AcDbEntity
  8
TOP
  6
CONTINUOUS
 62
     3
100
AcDbLine
 10
21.19063186645508
 20
8.969266891479492
 30
0.0
 11
21.17762565612792
 21
8.969266891479492
 31
0.0
  0
LINE
  5
62
330
A
100
AcDbEntity
  8
TOP
  6
CONTINUOUS
 62
     3
100
AcDbLine
 10
20.81769943237304
 20
15.03614139556884
 30
0.0
 11
20.81769943237304
 21
15.0689115524292
 31
0.0
  0
LINE
  5
63
330
A
100
AcDbEntity
  8
TOP
  6
CONTINUOUS
 62
     3
100
AcDbLine
 10
20.9476261138916
 20
15.8192663192749
 30
0.0
 11
20.96063232421875
 21
15.8192663192749
 31
0.0
  0
LINE
  5
64
330
A
100
AcDbEntity
  8
TOP
  6
CONTINUOUS
 62
     3
100
AcDbLine
 10
19.28859329223632
 20
5.642335414886474
 30
0.0
 11
19.28859329223632
 21
5.702335357666015
 31
0.0
  0
LINE
  5
65
330
A
100
AcDbEntity
  8
TOP
  6
CONTINUOUS
 62
     3
100
AcDbLine
 10
1.101117610931396
 20
13.7542667388916
 30
0.0
 11
1.221117615699768
 21
13.7542667388916
 31
0.0
  0
LINE
  5
66
330
A
100
AcDbEntity
  8
TOP
  6
CONTINUOUS
 62
     3
100
AcDbLine
 10
1.541117548942565
 20
15.8751859664917
 30
0.0
 11
1.541117548942565
 21
15.8792667388916
 31
0.0
  0
LINE
  5
67
330
A
100
AcDbEntity
  8
TOP
  6
CONTINUOUS
 62
     3
100
AcDbLine
 10
20.9651985168457
 20
8.969266891479492
 30
0.0
 11
20.9651985168457
 21
8.909266471862792
 31
0.0
  0
LINE
  5
68
330
A
100
AcDbEntity
  8
TOP
  6
CONTINUOUS
 62
     3
100
AcDbLine
 10
20.75769996643066
 20
9.909266471862792
 30
0.0
 11
20.75769996643066
 21
11.3792667388916
 31
0.0
  0
LINE
  5
69
330
A
100
AcDbEntity
  8
TOP
  6
CONTINUOUS
 62
     3
100
AcDbLine
 10
1.397392630577087
 20
5.642335414886474
 30
0.0
 11
1.411019802093505
 21
5.642335414886474
 31
0.0
  0
LINE
  5
6A
330
A
100
AcDbEntity
  8
TOP
  6
CONTINUOUS
 62
     3
100
AcDbLine
 10
0.8211175799369812
 20
9.029266357421875
 30
0.0
 11
0.8211175799369812
 21
9.629266738891601
 31
0.0
  0
LINE
  5
6B
330
A
100
AcDbEntity
  8
TOP
  6
CONTINUOUS
 62
     3
100
AcDbLine
 10
19.14434623718261
 20
15.75981140136718
 30
0.0
 11
19.16361808776855
 21
15.7567663192749
 31
0.0
  0
LINE
  5
6C
330
A
100
AcDbEntity
  8
TOP
  6
CONTINUOUS
 62
     3
100
AcDbLine
 10
20.81769943237304
 20
8.909266471862792
 30
0.0
 11
20.75769996643066
 21
8.909266471862792
 31
0.0
  0
LINE
  5
6D
330
A
100
AcDbEntity
  8
TOP
  6
CONTINUOUS
 62
     3
100
AcDbLine
 10
21.63519859313964
 20
15.8792667388916
 30
0.0
 11
21.25519943237304
 21
15.8792667388916
 31
0.0
  0
LINE
  5
6E
330
A
100
AcDbEntity
  8
TOP
  6
CONTINUOUS
 62
     3
100
AcDbLine
 10
20.84017562866211
 20
15.80608463287353
 30
0.0
 11
20.85457611083984
 21
15.81463146209716
 31
0.0
  0
LINE
  5
6F
330
A
100
AcDbEntity
  8
TOP
  6
CONTINUOUS
 62
     3
100
AcDbLine
 10
18.94111824035644
 20
5.43483543395996
 30
0.0
 11
18.94111824035644
 21
5.324835777282714
 31
0.0
  0
LINE
  5
70
330
A
100
AcDbEntity
  8
TOP
  6
CONTINUOUS
 62
     3
100
AcDbLine
 10
1.541117548942565
 20
5.554835319519042
 30
0.0
 11
1.541117548942565
 21
5.579835414886474
 31
0.0
  0
LINE
  5
71
330
A
100
AcDbEntity
  8
TOP
  6
CONTINUOUS
 62
     3
100
AcDbLine
 10
19.54111671447753
 20
11.03426647186279
 30
0.0
 11
19.42111778259277
 21
11.03426647186279
 31
0.0
  0
LINE
  5
72
330
A
100
AcDbEntity
  8
TOP
  6
CONTINUOUS
 62
     3
100
AcDbLine
 10
0.8211175799369812
 20
5.702335357666015
 30
0.0
 11
0.8252064585685729
 21
5.702335357666015
 31
0.0
  0
LINE
  5
73
330
A
100
AcDbEntity
  8
TOP
  6
CONTINUOUS
 62
     3
100
AcDbLine
 10
20.81769943237304
 20
9.629266738891601
 30
0.0
 11
20.75769996643066
 21
9.629266738891601
 31
0.0
  0
LINE
  5
74
330
A
100
AcDbEntity
  8
TOP
  6
CONTINUOUS
 62
     3
100
AcDbLine
 10
20.81769943237304
 20
11.53614139556884
 30
0.0
 11
20.81769943237304
 21
11.56891155242919
 31
0.0
  0
LINE
  5
75
330
A
100
AcDbEntity
  8
TOP
  6
CONTINUOUS
 62
     3
100
AcDbLine
 10
21.63519859313964
 20
8.909266471862792
 30
0.0
 11
21.25519943237304
 21
8.909266471862792
 31
0.0
  0
LINE
  5
76
330
A
100
AcDbEntity
  8
TOP
  6
CONTINUOUS
 62
     3
100
AcDbLine
 10
20.75769996643066
 20
14.914475440979
 30
0.0
 11
20.75769996643066
 21
14.93973731994628
 31
0.0
  0
LINE
  5
77
330
A
100
AcDbEntity
  8
TOP
  6
CONTINUOUS
 62
     3
100
AcDbLine
 10
21.69063186645507
 20
15.8792667388916
 30
0.0
 11
21.69519996643066
 21
15.8792667388916
 31
0.0
  0
LINE
  5
78
330
A
100
AcDbEntity
  8
TOP
  6
CONTINUOUS
 62
     3
100
AcDbLine
 10
19.10111808776855
 20
8.969266891479492
 30
0.0
 11
19.10111808776855
 21
8.944381713867187
 31
0.0
  0
LINE
  5
79
330
A
100
AcDbEntity
  8
TOP
  6
CONTINUOUS
 62
     3
100
AcDbLine
 10
20.75769996643066
 20
9.893230438232421
 30
0.0
 11
20.75769996643066
 21
9.905198097229003
 31
0.0
  0
LINE
  5
7A
330
A
100
AcDbEntity
  8
TOP
  6
CONTINUOUS
 62
     3
100
AcDbLine
 10
20.75769996643066
 20
13.18973731994629
 30
0.0
 11
20.75769996643066
 21
13.21962165832519
 31
0.0
  0
LINE
  5
7B
330
A
100
AcDbEntity
  8
TOP
  6
CONTINUOUS
 62
     3
100
AcDbLine
 10
21.17762565612792
 20
8.909266471862792
 30
0.0
 11
21.15816116333007
 21
8.909266471862792
 31
0.0
  0
LINE
  5
7C
330
A
100
AcDbEntity
  8
TOP
  6
CONTINUOUS
 62
     3
100
AcDbLine
 10
20.81769943237304
 20
14.93973731994628
 30
0.0
 11
20.81769943237304
 21
14.96962165832519
 31
0.0
  0
LINE
  5
7D
330
A
100
AcDbEntity
  8
TOP
  6
CONTINUOUS
 62
     3
100
AcDbLine
 10
20.96063232421875
 20
15.8792667388916
 30
0.0
 11
20.9651985168457
 21
15.8792667388916
 31
0.0
  0
LINE
  5
7E
330
A
100
AcDbEntity
  8
TOP
  6
CONTINUOUS
 62
     3
100
AcDbLine
 10
1.261117577552795
 20
15.15926647186279
 30
0.0
 11
0.8211175799369812
 21
15.15926647186279
 31
0.0
  0
LINE
  5
7F
330
A
100
AcDbEntity
  8
TOP
  6
CONTINUOUS
 62
     3
100
AcDbLine
 10
1.101117610931396
 20
12.5042667388916
 30
0.0
 11
1.221117615699768
 21
12.5042667388916
 31
0.0
  0
LINE
  5
80
330
A
100
AcDbEntity
  8
TOP
  6
CONTINUOUS
 62
     3
100
AcDbLine
 10
19.12673187255859
 20
5.641571521759033
 30
0.0
 11
19.14224624633789
 21
5.642322063446044
 31
0.0
  0
LINE
  5
81
330
A
100
AcDbEntity
  8
TOP
  6
CONTINUOUS
 62
     3
100
AcDbLine
 10
20.81769943237304
 20
9.905198097229003
 30
0.0
 11
20.81769943237304
 21
9.909266471862792
 31
0.0
  0
LINE
  5
82
330
A
100
AcDbEntity
  8
TOP
  6
CONTINUOUS
 62
     3
100
AcDbLine
 10
1.541117548942565
 20
15.8192663192749
 30
0.0
 11
1.541117548942565
 21
15.8441514968872
 31
0.0
  0
LINE
  5
83
330
A
100
AcDbEntity
  8
TOP
  6
CONTINUOUS
 62
     3
100
AcDbLine
 10
21.00223922729492
 20
8.969266891479492
 30
0.0
 11
20.98277282714843
 21
8.969266891479492
 31
0.0
  0
LINE
  5
84
330
A
100
AcDbEntity
  8
TOP
  6
CONTINUOUS
 62
     3
100
AcDbLine
 10
20.75769996643066
 20
15.75926685333252
 30
0.0
 11
20.75769996643066
 21
15.79032516479492
 31
0.0
  0
LINE
  5
85
330
A
100
AcDbEntity
  8
TOP
  6
CONTINUOUS
 62
     3
100
AcDbLine
 10
21.13519859313965
 20
15.8192663192749
 30
0.0
 11
21.13519859313965
 21
15.8792667388916
 31
0.0
  0
LINE
  5
86
330
A
100
AcDbEntity
  8
TOP
  6
CONTINUOUS
 62
     3
100
AcDbLine
 10
1.261117577552795
 20
9.909266471862792
 30
0.0
 11
0.8211175799369812
 21
9.909266471862792
 31
0.0
  0
LINE
  5
87
330
A
100
AcDbEntity
  8
TOP
  6
CONTINUOUS
 62
     3
100
AcDbLine
 10
19.10392761230468
 20
15.80073356628417
 30
0.0
 11
19.11292648315429
 21
15.78270626068115
 31
0.0
  0
LINE
  5
88
330
A
100
AcDbEntity
  8
TOP
  6
CONTINUOUS
 62
     3
100
AcDbLine
 10
20.9476261138916
 20
8.969266891479492
 30
0.0
 11
20.96063232421875
 21
8.969266891479492
 31
0.0
  0
LINE
  5
89
330
A
100
AcDbEntity
  8
TOP
  6
CONTINUOUS
 62
     3
100
AcDbLine
 10
21.19063186645508
 20
15.8192663192749
 30
0.0
 11
21.17762565612792
 21
15.8192663192749
 31
0.0
  0
LINE
  5
8A
330
A
100
AcDbEntity
  8
TOP
  6
CONTINUOUS
 62
     3
100
AcDbLine
 10
1.416130065917968
 20
5.642335414886474
 30
0.0
 11
1.416130065917968
 21
5.702335357666015
 31
0.0
  0
LINE
  5
8B
330
A
100
AcDbEntity
  8
TOP
  6
CONTINUOUS
 62
     3
100
AcDbLine
 10
19.82111740112304
 20
5.642335414886474
 30
0.0
 11
19.82111740112304
 21
5.702335357666015
 31
0.0
  0
LINE
  5
8C
330
A
100
AcDbEntity
  8
TOP
  6
CONTINUOUS
 62
     3
100
AcDbLine
 10
19.26496315002441
 20
5.642335414886474
 30
0.0
 11
19.24484252929687
 21
5.642335414886474
 31
0.0
  0
LINE
  5
8D
330
A
100
AcDbEntity
  8
TOP
  6
CONTINUOUS
 62
     3
100
AcDbLine
 10
21.19976615905761
 20
15.8792667388916
 30
0.0
 11
21.21277236938476
 21
15.8792667388916
 31
0.0
  0
LINE
  5
8E
330
A
100
AcDbEntity
  8
TOP
  6
CONTINUOUS
 62
     3
100
AcDbLine
 10
19.54111671447753
 20
10.53426647186279
 30
0.0
 11
19.42111778259277
 21
10.53426647186279
 31
0.0
  0
LINE
  5
8F
330
A
100
AcDbEntity
  8
TOP
  6
CONTINUOUS
 62
     3
100
AcDbLine
 10
20.81769943237304
 20
11.39530277252197
 30
0.0
 11
20.81769943237304
 21
11.414475440979
 31
0.0
  0
LINE
  5
90
330
A
100
AcDbEntity
  8
TOP
  6
CONTINUOUS
 62
     3
100
AcDbLine
 10
20.81769943237304
 20
11.414475440979
 30
0.0
 11
20.81769943237304
 21
11.43973731994629
 31
0.0
  0
LINE
  5
91
330
A
100
AcDbEntity
  8
TOP
  6
CONTINUOUS
 62
     3
100
AcDbLine
 10
20.81769943237304
 20
8.944414138793945
 30
0.0
 11
20.81769943237304
 21
8.969266891479492
 31
0.0
  0
LINE
  5
92
330
A
100
AcDbEntity
  8
TOP
  6
CONTINUOUS
 62
     3
100
AcDbLine
 10
20.81769943237304
 20
11.43973731994629
 30
0.0
 11
20.81769943237304
 21
11.46962165832519
 31
0.0
  0
LINE
  5
93
330
A
100
AcDbEntity
  8
TOP
  6
CONTINUOUS
 62
     3
100
AcDbLine
 10
21.67762565612793
 20
8.969266891479492
 30
0.0
 11
21.69063186645507
 21
8.969266891479492
 31
0.0
  0
LINE
  5
94
330
A
100
AcDbEntity
  8
TOP
  6
CONTINUOUS
 62
     3
100
AcDbLine
 10
20.75769996643066
 20
14.8792667388916
 30
0.0
 11
20.75769996643066
 21
14.88333511352539
 31
0.0
  0
LINE
  5
95
330
A
100
AcDbEntity
  8
TOP
  6
CONTINUOUS
 62
     3
100
AcDbLine
 10
21.69519996643066
 20
15.8192663192749
 30
0.0
 11
21.69519996643066
 21
15.8792667388916
 31
0.0
  0
LINE
  5
96
330
A
100
AcDbEntity
  8
TOP
  6
CONTINUOUS
 62
     3
100
AcDbLine
 10
21.63519859313964
 20
15.8792667388916
 30
0.0
 11
21.65816116333008
 21
15.8792667388916
 31
0.0
  0
LINE
  5
97
330
A
100
AcDbEntity
  8
TOP
  6
CONTINUOUS
 62
     3
100
AcDbLine
 10
0.9100592732429504
 20
5.642335414886474
 30
0.0
 11
0.9411175847053527
 21
5.642335414886474
 31
0.0
  0
LINE
  5
98
330
A
100
AcDbEntity
  8
TOP
  6
CONTINUOUS
 62
     3
100
AcDbLine
 10
20.75769996643066
 20
9.818911552429199
 30
0.0
 11
20.75769996643066
 21
9.848795890808105
 31
0.0
  0
LINE
  5
99
330
A
100
AcDbEntity
  8
TOP
  6
CONTINUOUS
 62
     3
100
AcDbLine
 10
20.75769996643066
 20
13.13333511352539
 30
0.0
 11
20.75769996643066
 21
13.14530277252197
 31
0.0
  0
LINE
  5
9A
330
A
100
AcDbEntity
  8
TOP
  6
CONTINUOUS
 62
     3
100
AcDbLine
 10
21.13519859313965
 20
8.969266891479492
 30
0.0
 11
21.13519859313965
 21
8.909266471862792
 31
0.0
  0
LINE
  5
9B
330
A
100
AcDbEntity
  8
TOP
  6
CONTINUOUS
 62
     3
100
AcDbLine
 10
21.19519996643066
 20
15.8192663192749
 30
0.0
 11
21.19976615905761
 21
15.8192663192749
 31
0.0
  0
LINE
  5
9C
330
A
100
AcDbEntity
  8
TOP
  6
CONTINUOUS
 62
     3
100
AcDbLine
 10
1.539711594581604
 20
5.619860172271728
 30
0.0
 11
1.540945529937744
 21
5.605458736419677
 31
0.0
  0
LINE
  5
9D
330
A
100
AcDbEntity
  8
TOP
  6
CONTINUOUS
 62
     3
100
AcDbLine
 10
20.90519905090332
 20
15.8792667388916
 30
0.0
 11
20.92815971374511
 21
15.8792667388916
 31
0.0
  0
LINE
  5
9E
330
A
100
AcDbEntity
  8
TOP
  6
CONTINUOUS
 62
     3
100
AcDbLine
 10
20.81769943237304
 20
9.909266471862792
 30
0.0
 11
20.81769943237304
 21
11.3792667388916
 31
0.0
  0
LINE
  5
9F
330
A
100
AcDbEntity
  8
TOP
  6
CONTINUOUS
 62
     3
100
AcDbLine
 10
19.82111740112304
 20
9.029266357421875
 30
0.0
 11
19.82111740112304
 21
9.629266738891601
 31
0.0
  0
LINE
  5
A0
330
A
100
AcDbEntity
  8
TOP
  6
CONTINUOUS
 62
     3
100
AcDbLine
 10
1.221117615699768
 20
12.28426647186279
 30
0.0
 11
1.101117610931396
 21
12.28426647186279
 31
0.0
  0
LINE
  5
A1
330
A
100
AcDbEntity
  8
TOP
  6
CONTINUOUS
 62
     3
100
AcDbLine
 10
20.81769943237304
 20
13.14530277252197
 30
0.0
 11
20.81769943237304
 21
13.164475440979
 31
0.0
  0
LINE
  5
A2
330
A
100
AcDbEntity
  8
TOP
  6
CONTINUOUS
 62
     3
100
AcDbLine
 10
1.541117548942565
 20
8.925318717956542
 30
0.0
 11
1.541117548942565
 21
8.944381713867187
 31
0.0
  0
LINE
  5
A3
330
A
100
AcDbEntity
  8
TOP
  6
CONTINUOUS
 62
     3
100
AcDbLine
 10
20.98277282714843
 20
8.909266471862792
 30
0.0
 11
20.96976661682128
 21
8.909266471862792
 31
0.0
  0
LINE
  5
A4
330
A
100
AcDbEntity
  8
TOP
  6
CONTINUOUS
 62
     3
100
AcDbLine
 10
20.75769996643066
 20
15.75926685333252
 30
0.0
 11
20.75769996643066
 21
15.15926647186279
 31
0.0
  0
LINE
  5
A5
330
A
100
AcDbEntity
  8
TOP
  6
CONTINUOUS
 62
     3
100
AcDbLine
 10
21.00223922729492
 20
15.8192663192749
 30
0.0
 11
20.98277282714843
 21
15.8192663192749
 31
0.0
  0
LINE
  5
A6
330
A
100
AcDbEntity
  8
TOP
  6
CONTINUOUS
 62
     3
100
AcDbLine
 10
20.81769943237304
 20
11.3792667388916
 30
0.0
 11
20.81769943237304
 21
11.38333511352539
 31
0.0
  0
LINE
  5
A7
330
A
100
AcDbEntity
  8
TOP
  6
CONTINUOUS
 62
     3
100
AcDbLine
 10
1.221117615699768
 20
15.78426647186279
 30
0.0
 11
1.101117610931396
 21
15.78426647186279
 31
0.0
  0
LINE
  5
A8
330
A
100
AcDbEntity
  8
TOP
  6
CONTINUOUS
 62
     3
100
AcDbLine
 10
19.70111846923828
 20
15.8792667388916
 30
0.0
 11
19.28859329223632
 21
15.8792667388916
 31
0.0
  0
LINE
  5
A9
330
A
100
AcDbEntity
  8
TOP
  6
CONTINUOUS
 62
     3
100
AcDbLine
 10
1.101117610931396
 20
15.5042667388916
 30
0.0
 11
1.221117615699768
 21
15.5042667388916
 31
0.0
  0
LINE
  5
AA
330
A
100
AcDbEntity
  8
TOP
  6
CONTINUOUS
 62
     3
100
AcDbLine
 10
20.75769996643066
 20
11.50239181518554
 30
0.0
 11
20.75769996643066
 21
11.53614139556884
 31
0.0
  0
LINE
  5
AB
330
A
100
AcDbEntity
  8
TOP
  6
CONTINUOUS
 62
     3
100
AcDbLine
 10
20.85799789428711
 20
8.972593307495117
 30
0.0
 11
20.84049606323242
 21
8.982192993164062
 31
0.0
  0
LINE
  5
AC
330
A
100
AcDbEntity
  8
TOP
  6
CONTINUOUS
 62
     3
100
AcDbLine
 10
0.8211175799369812
 20
5.642335414886474
 30
0.0
 11
0.8252064585685729
 21
5.642335414886474
 31
0.0
  0
LINE
  5
AD
330
A
100
AcDbEntity
  8
TOP
  6
CONTINUOUS
 62
     3
100
AcDbLine
 10
20.81769943237304
 20
15.87517738342285
 30
0.0
 11
20.81769943237304
 21
15.8792667388916
 31
0.0
  0
LINE
  5
AE
330
A
100
AcDbEntity
  8
TOP
  6
CONTINUOUS
 62
     3
100
AcDbLine
 10
2.381117343902587
 20
4.764835357666015
 30
0.0
 11
18.26111793518066
 21
4.764835357666015
 31
0.0
  0
LINE
  5
AF
330
A
100
AcDbEntity
  8
TOP
  6
CONTINUOUS
 62
     3
100
AcDbLine
 10
1.529309034347534
 20
5.699557781219482
 30
0.0
 11
1.515606999397277
 21
5.701734542846679
 31
0.0
  0
LINE
  5
B0
330
A
100
AcDbEntity
  8
TOP
  6
CONTINUOUS
 62
     3
100
AcDbLine
 10
19.54111671447753
 20
9.284266471862792
 30
0.0
 11
19.42111778259277
 21
9.284266471862792
 31
0.0
  0
LINE
  5
B1
330
A
100
AcDbEntity
  8
TOP
  6
CONTINUOUS
 62
     3
100
AcDbLine
 10
20.81769943237304
 20
8.909266471862792
 30
0.0
 11
20.81769943237304
 21
8.913355827331542
 31
0.0
  0
LINE
  5
B2
330
A
100
AcDbEntity
  8
TOP
  6
CONTINUOUS
 62
     3
100
AcDbLine
 10
1.221117615699768
 20
14.53426647186279
 30
0.0
 11
1.101117610931396
 21
14.53426647186279
 31
0.0
  0
LINE
  5
B3
330
A
100
AcDbEntity
  8
TOP
  6
CONTINUOUS
 62
     3
100
AcDbLine
 10
1.353642582893371
 20
5.642335414886474
 30
0.0
 11
1.377271294593811
 21
5.642335414886474
 31
0.0
  0
LINE
  5
B4
330
A
100
AcDbEntity
  8
TOP
  6
CONTINUOUS
 62
     3
100
AcDbLine
 10
21.69063186645507
 20
8.909266471862792
 30
0.0
 11
21.69519996643066
 21
8.909266471862792
 31
0.0
  0
LINE
  5
B5
330
A
100
AcDbEntity
  8
TOP
  6
CONTINUOUS
 62
     3
100
AcDbLine
 10
19.10111808776855
 20
5.554835796356201
 30
0.0
 11
19.10111808776855
 21
5.579835414886474
 31
0.0
  0
LINE
  5
B6
330
A
100
AcDbEntity
  8
TOP
  6
CONTINUOUS
 62
     3
100
AcDbLine
 10
0.8371945023536682
 20
5.642335414886474
 30
0.0
 11
0.8562647700309753
 21
5.642335414886474
 31
0.0
  0
LINE
  5
B7
330
A
100
AcDbEntity
  8
TOP
  6
CONTINUOUS
 62
     3
100
AcDbLine
 10
1.541117548942565
 20
5.611190795898437
 30
0.0
 11
1.541117548942565
 21
5.640457153320312
 31
0.0
  0
LINE
  5
B8
330
A
100
AcDbEntity
  8
TOP
  6
CONTINUOUS
 62
     3
100
AcDbLine
 10
20.75769996643066
 20
9.719621658325195
 30
0.0
 11
20.75769996643066
 21
9.752391815185546
 31
0.0
  0
LINE
  5
B9
330
A
100
AcDbEntity
  8
TOP
  6
CONTINUOUS
 62
     3
100
AcDbLine
 10
20.75769996643066
 20
11.65926647186279
 30
0.0
 11
20.75769996643066
 21
13.1292667388916
 31
0.0
  0
LINE
  5
BA
330
A
100
AcDbEntity
  8
TOP
  6
CONTINUOUS
 62
     3
100
AcDbLine
 10
21.21277236938476
 20
8.969266891479492
 30
0.0
 11
21.23223876953125
 21
8.969266891479492
 31
0.0
  0
LINE
  5
BB
330
A
100
AcDbEntity
  8
TOP
  6
CONTINUOUS
 62
     3
100
AcDbLine
 10
19.10111808776855
 20
5.579835414886474
 30
0.0
 11
1.541117548942565
 21
5.579835414886474
 31
0.0
  0
LINE
  5
BC
330
A
100
AcDbEntity
  8
TOP
  6
CONTINUOUS
 62
     3
100
AcDbLine
 10
20.90519905090332
 20
15.8192663192749
 30
0.0
 11
20.87769889831542
 21
15.8192663192749
 31
0.0
  0
LINE
  5
BD
330
A
100
AcDbEntity
  8
TOP
  6
CONTINUOUS
 62
     3
100
AcDbLine
 10
1.101117610931396
 20
10.7542667388916
 30
0.0
 11
1.221117615699768
 21
10.7542667388916
 31
0.0
  0
LINE
  5
BE
330
A
100
AcDbEntity
  8
TOP
  6
CONTINUOUS
 62
     3
100
AcDbLine
 10
1.416130065917968
 20
5.642335414886474
 30
0.0
 11
1.420737862586975
 21
5.642335414886474
 31
0.0
  0
LINE
  5
BF
330
A
100
AcDbEntity
  8
TOP
  6
CONTINUOUS
 62
     3
100
AcDbLine
 10
1.377271294593811
 20
5.642335414886474
 30
0.0
 11
1.397392630577087
 21
5.642335414886474
 31
0.0
  0
LINE
  5
C0
330
A
100
AcDbEntity
  8
TOP
  6
CONTINUOUS
 62
     3
100
AcDbLine
 10
20.81769943237304
 20
9.752391815185546
 30
0.0
 11
20.81769943237304
 21
9.786141395568847
 31
0.0
  0
LINE
  5
C1
330
A
100
AcDbEntity
  8
TOP
  6
CONTINUOUS
 62
     3
100
AcDbLine
 10
20.75769996643066
 20
13.405198097229
 30
0.0
 11
20.75769996643066
 21
13.40926647186279
 31
0.0
  0
LINE
  5
C2
330
A
100
AcDbEntity
  8
TOP
  6
CONTINUOUS
 62
     3
100
AcDbLine
 10
19.10111808776855
 20
8.913347244262695
 30
0.0
 11
19.10111808776855
 21
8.909266471862792
 31
0.0
  0
LINE
  5
C3
330
A
100
AcDbEntity
  8
TOP
  6
CONTINUOUS
 62
     3
100
AcDbLine
 10
21.02519989013671
 20
8.969266891479492
 30
0.0
 11
21.13519859313965
 21
8.969266891479492
 31
0.0
  0
LINE
  5
C4
330
A
100
AcDbEntity
  8
TOP
  6
CONTINUOUS
 62
     3
100
AcDbLine
 10
21.19519996643066
 20
15.8192663192749
 30
0.0
 11
21.19519996643066
 21
15.8792667388916
 31
0.0
  0
LINE
  5
C5
330
A
100
AcDbEntity
  8
TOP
  6
CONTINUOUS
 62
     3
100
AcDbLine
 10
19.10325622558593
 20
5.69325304031372
 30
0.0
 11
19.10111808776855
 21
5.685192108154296
 31
0.0
  0
LINE
  5
C6
330
A
100
AcDbEntity
  8
TOP
  6
CONTINUOUS
 62
     3
100
AcDbLine
 10
20.98277282714843
 20
15.8792667388916
 30
0.0
 11
20.96976661682128
 21
15.8792667388916
 31
0.0
  0
LINE
  5
C7
330
A
100
AcDbEntity
  8
TOP
  6
CONTINUOUS
 62
     3
100
AcDbLine
 10
20.75769996643066
 20
11.62405776977539
 30
0.0
 11
20.75769996643066
 21
11.64323043823242
 31
0.0
  0
LINE
  5
C8
330
A
100
AcDbEntity
  8
TOP
  6
CONTINUOUS
 62
     3
100
AcDbLine
 10
0.8211175799369812
 20
13.1292667388916
 30
0.0
 11
1.261117577552795
 21
13.1292667388916
 31
0.0
  0
LINE
  5
C9
330
A
100
AcDbEntity
  8
TOP
  6
CONTINUOUS
 62
     3
100
AcDbLine
 10
19.38111686706543
 20
15.15926647186279
 30
0.0
 11
19.82111740112304
 21
15.15926647186279
 31
0.0
  0
LINE
  5
CA
330
A
100
AcDbEntity
  8
TOP
  6
CONTINUOUS
 62
     3
100
AcDbLine
 10
1.761117577552795
 20
5.264835357666015
 30
0.0
 11
2.261117458343505
 21
5.264835357666015
 31
0.0
  0
LINE
  5
CB
330
A
100
AcDbEntity
  8
TOP
  6
CONTINUOUS
 62
     3
100
AcDbLine
 10
20.75769996643066
 20
11.414475440979
 30
0.0
 11
20.75769996643066
 21
11.43973731994629
 31
0.0
  0
LINE
  5
CC
330
A
100
AcDbEntity
  8
TOP
  6
CONTINUOUS
 62
     3
100
AcDbLine
 10
1.541117548942565
 20
15.8792667388916
 30
0.0
 11
19.10111808776855
 21
15.8792667388916
 31
0.0
  0
LINE
  5
CD
330
A
100
AcDbEntity
  8
TOP
  6
CONTINUOUS
 62
     3
100
AcDbLine
 10
20.96063232421875
 20
8.909266471862792
 30
0.0
 11
20.9651985168457
 21
8.909266471862792
 31
0.0
  0
LINE
  5
CE
330
A
100
AcDbEntity
  8
TOP
  6
CONTINUOUS
 62
     3
100
AcDbLine
 10
20.81769943237304
 20
15.8192663192749
 30
0.0
 11
20.81769943237304
 21
15.84411907196044
 31
0.0
  0
LINE
  5
CF
330
A
100
AcDbEntity
  8
TOP
  6
CONTINUOUS
 62
     3
100
AcDbLine
 10
1.411019802093505
 20
5.702335357666015
 30
0.0
 11
1.416130065917968
 21
5.702335357666015
 31
0.0
  0
LINE
  5
D0
330
A
100
AcDbEntity
  8
TOP
  6
CONTINUOUS
 62
     3
100
AcDbLine
 10
1.517578959465026
 20
15.77039623260498
 30
0.0
 11
1.531310677528381
 21
15.78565597534179
 31
0.0
  0
LINE
  5
D1
330
A
100
AcDbEntity
  8
TOP
  6
CONTINUOUS
 62
     3
100
AcDbLine
 10
20.75769996643066
 20
8.944414138793945
 30
0.0
 11
20.75769996643066
 21
8.969266891479492
 31
0.0
  0
LINE
  5
D2
330
A
100
AcDbEntity
  8
TOP
  6
CONTINUOUS
 62
     3
100
AcDbLine
 10
11.49611759185791
 20
13.3192663192749
 30
0.0
 11
9.146117210388183
 21
13.3192663192749
 31
0.0
  0
LINE
  5
D3
330
A
100
AcDbEntity
  8
TOP
  6
CONTINUOUS
 62
     3
100
AcDbLine
 10
21.63519859313964
 20
8.909266471862792
 30
0.0
 11
21.65816116333008
 21
8.909266471862792
 31
0.0
  0
LINE
  5
D4
330
A
100
AcDbEntity
  8
TOP
  6
CONTINUOUS
 62
     3
100
AcDbLine
 10
20.81769943237304
 20
13.39323043823242
 30
0.0
 11
20.81769943237304
 21
13.405198097229
 31
0.0
  0
LINE
  5
D5
330
A
100
AcDbEntity
  8
TOP
  6
CONTINUOUS
 62
     3
100
AcDbLine
 10
20.81769943237304
 20
9.909266471862792
 30
0.0
 11
20.75769996643066
 21
9.909266471862792
 31
0.0
  0
LINE
  5
D6
330
A
100
AcDbEntity
  8
TOP
  6
CONTINUOUS
 62
     3
100
AcDbLine
 10
0.9100592732429504
 20
5.702335357666015
 30
0.0
 11
0.9411175847053527
 21
5.702335357666015
 31
0.0
  0
LINE
  5
D7
330
A
100
AcDbEntity
  8
TOP
  6
CONTINUOUS
 62
     3
100
AcDbLine
 10
17.86511802673339
 20
15.11926651000976
 30
0.0
 11
18.71511840820312
 21
15.11926651000976
 31
0.0
  0
LINE
  5
D8
330
A
100
AcDbEntity
  8
TOP
  6
CONTINUOUS
 62
     3
100
AcDbLine
 10
20.81769943237304
 20
9.629266738891601
 30
0.0
 11
20.81769943237304
 21
9.63333511352539
 31
0.0
  0
LINE
  5
D9
330
A
100
AcDbEntity
  8
TOP
  6
CONTINUOUS
 62
     3
100
AcDbLine
 10
20.75769996643066
 20
9.645302772521972
 30
0.0
 11
20.75769996643066
 21
9.664475440979003
 31
0.0
  0
LINE
  5
DA
330
A
100
AcDbEntity
  8
TOP
  6
CONTINUOUS
 62
     3
100
AcDbLine
 10
20.81769943237304
 20
11.655198097229
 30
0.0
 11
20.81769943237304
 21
11.65926647186279
 31
0.0
  0
LINE
  5
DB
330
A
100
AcDbEntity
  8
TOP
  6
CONTINUOUS
 62
     3
100
AcDbLine
 10
20.81769943237304
 20
15.00239181518554
 30
0.0
 11
20.81769943237304
 21
15.03614139556884
 31
0.0
  0
LINE
  5
DC
330
A
100
AcDbEntity
  8
TOP
  6
CONTINUOUS
 62
     3
100
AcDbLine
 10
21.23223876953125
 20
8.909266471862792
 30
0.0
 11
21.25519943237304
 21
8.909266471862792
 31
0.0
  0
LINE
  5
DD
330
A
100
AcDbEntity
  8
TOP
  6
CONTINUOUS
 62
     3
100
AcDbLine
 10
1.451429843902587
 20
5.642335414886474
 30
0.0
 11
1.47342836856842
 21
5.642335414886474
 31
0.0
  0
LINE
  5
DE
330
A
100
AcDbEntity
  8
TOP
  6
CONTINUOUS
 62
     3
100
AcDbLine
 10
21.23223876953125
 20
15.8192663192749
 30
0.0
 11
21.25519943237304
 21
15.8192663192749
 31
0.0
  0
LINE
  5
DF
330
A
100
AcDbEntity
  8
TOP
  6
CONTINUOUS
 62
     3
100
AcDbLine
 10
1.221117615699768
 20
10.53426647186279
 30
0.0
 11
1.101117610931396
 21
10.53426647186279
 31
0.0
  0
LINE
  5
E0
330
A
100
AcDbEntity
  8
TOP
  6
CONTINUOUS
 62
     3
100
AcDbLine
 10
20.75769996643066
 20
13.3487958908081
 30
0.0
 11
20.75769996643066
 21
13.37405776977539
 31
0.0
  0
LINE
  5
E1
330
A
100
AcDbEntity
  8
TOP
  6
CONTINUOUS
 62
     3
100
AcDbLine
 10
19.16361808776855
 20
5.702335357666015
 30
0.0
 11
19.14297676086425
 21
5.702285289764404
 31
0.0
  0
LINE
  5
E2
330
A
100
AcDbEntity
  8
TOP
  6
CONTINUOUS
 62
     3
100
AcDbLine
 10
21.15816116333007
 20
8.969266891479492
 30
0.0
 11
21.13519859313965
 21
8.969266891479492
 31
0.0
  0
LINE
  5
E3
330
A
100
AcDbEntity
  8
TOP
  6
CONTINUOUS
 62
     3
100
AcDbLine
 10
20.81769943237304
 20
15.0987958908081
 30
0.0
 11
20.81769943237304
 21
15.12405776977539
 31
0.0
  0
LINE
  5
E4
330
A
100
AcDbEntity
  8
TOP
  6
CONTINUOUS
 62
     3
100
AcDbLine
 10
21.02519989013671
 20
15.8192663192749
 30
0.0
 11
21.02519989013671
 21
15.8792667388916
 31
0.0
  0
LINE
  5
E5
330
A
100
AcDbEntity
  8
TOP
  6
CONTINUOUS
 62
     3
100
AcDbLine
 10
0.8211175799369812
 20
14.8792667388916
 30
0.0
 11
0.8211175799369812
 21
13.40926647186279
 31
0.0
  0
LINE
  5
E6
330
A
100
AcDbEntity
  8
TOP
  6
CONTINUOUS
 62
     3
100
AcDbLine
 10
19.82111740112304
 20
14.8792667388916
 30
0.0
 11
19.82111740112304
 21
13.40926647186279
 31
0.0
  0
LINE
  5
E7
330
A
100
AcDbEntity
  8
TOP
  6
CONTINUOUS
 62
     3
100
AcDbLine
 10
20.75769996643066
 20
11.3792667388916
 30
0.0
 11
20.75769996643066
 21
11.38333511352539
 31
0.0
  0
LINE
  5
E8
330
A
100
AcDbEntity
  8
TOP
  6
CONTINUOUS
 62
     3
100
AcDbLine
 10
19.10111808776855
 20
15.8751859664917
 30
0.0
 11
19.10111808776855
 21
15.86321449279785
 31
0.0
  0
LINE
  5
E9
330
A
100
AcDbEntity
  8
TOP
  6
CONTINUOUS
 62
     3
100
AcDbLine
 10
20.90519905090332
 20
8.909266471862792
 30
0.0
 11
20.92815971374511
 21
8.909266471862792
 31
0.0
  0
LINE
  5
EA
330
A
100
AcDbEntity
  8
TOP
  6
CONTINUOUS
 62
     3
100
AcDbLine
 10
20.75769996643066
 20
15.87517738342285
 30
0.0
 11
20.75769996643066
 21
15.8792667388916
 31
0.0
  0
LINE
  5
EB
330
A
100
AcDbEntity
  8
TOP
  6
CONTINUOUS
 62
     3
100
AcDbLine
 10
1.353642582893371
 20
5.702335357666015
 30
0.0
 11
1.377271294593811
 21
5.702335357666015
 31
0.0
  0
LINE
  5
EC
330
A
100
AcDbEntity
  8
TOP
  6
CONTINUOUS
 62
     3
100
AcDbLine
 10
1.353642582893371
 20
8.909266471862792
 30
0.0
 11
0.9411175847053527
 21
8.909266471862792
 31
0.0
  0
LINE
  5
ED
330
A
100
AcDbEntity
  8
TOP
  6
CONTINUOUS
 62
     3
100
AcDbLine
 10
19.22610473632812
 20
5.642335414886474
 30
0.0
 11
19.22149658203125
 21
5.642335414886474
 31
0.0
  0
LINE
  5
EE
330
A
100
AcDbEntity
  8
TOP
  6
CONTINUOUS
 62
     3
100
AcDbLine
 10
19.80504035949707
 20
5.702335357666015
 30
0.0
 11
19.81702804565429
 21
5.702335357666015
 31
0.0
  0
LINE
  5
EF
330
A
100
AcDbEntity
  8
TOP
  6
CONTINUOUS
 62
     3
100
AcDbLine
 10
20.81769943237304
 20
13.28614139556884
 30
0.0
 11
20.81769943237304
 21
13.3189115524292
 31
0.0
  0
LINE
  5
F0
330
A
100
AcDbEntity
  8
TOP
  6
CONTINUOUS
 62
     3
100
AcDbLine
 10
20.81769943237304
 20
13.3189115524292
 30
0.0
 11
20.81769943237304
 21
13.3487958908081
 31
0.0
  0
LINE
  5
F1
330
A
100
AcDbEntity
  8
TOP
  6
CONTINUOUS
 62
     3
100
AcDbLine
 10
0.8371945023536682
 20
5.702335357666015
 30
0.0
 11
0.8562647700309753
 21
5.702335357666015
 31
0.0
  0
LINE
  5
F2
330
A
100
AcDbEntity
  8
TOP
  6
CONTINUOUS
 62
     3
100
AcDbLine
 10
11.49611759185791
 20
14.46926689147949
 30
0.0
 11
9.146117210388183
 21
14.46926689147949
 31
0.0
  0
LINE
  5
F3
330
A
100
AcDbEntity
  8
TOP
  6
CONTINUOUS
 62
     3
100
AcDbLine
 10
20.81769943237304
 20
15.12405776977539
 30
0.0
 11
20.81769943237304
 21
15.14323043823242
 31
0.0
  0
LINE
  5
F4
330
A
100
AcDbEntity
  8
TOP
  6
CONTINUOUS
 62
     3
100
AcDbLine
 10
20.81769943237304
 20
9.029266357421875
 30
0.0
 11
20.81769943237304
 21
9.629266738891601
 31
0.0
  0
LINE
  5
F5
330
A
100
AcDbEntity
  8
TOP
  6
CONTINUOUS
 62
     3
100
AcDbLine
 10
20.81769943237304
 20
11.5987958908081
 30
0.0
 11
20.81769943237304
 21
11.62405776977539
 31
0.0
  0
LINE
  5
F6
330
A
100
AcDbEntity
  8
TOP
  6
CONTINUOUS
 62
     3
100
AcDbLine
 10
21.19519996643066
 20
8.909266471862792
 30
0.0
 11
21.19976615905761
 21
8.909266471862792
 31
0.0
  0
LINE
  5
F7
330
A
100
AcDbEntity
  8
TOP
  6
CONTINUOUS
 62
     3
100
AcDbLine
 10
20.75769996643066
 20
14.96962165832519
 30
0.0
 11
20.75769996643066
 21
15.00239181518554
 31
0.0
  0
LINE
  5
F8
330
A
100
AcDbEntity
  8
TOP
  6
CONTINUOUS
 62
     3
100
AcDbLine
 10
21.63519859313964
 20
15.8192663192749
 30
0.0
 11
21.65816116333008
 21
15.8192663192749
 31
0.0
  0
LINE
  5
F9
330
A
100
AcDbEntity
  8
TOP
  6
CONTINUOUS
 62
     3
100
AcDbLine
 10
1.101117610931396
 20
9.004266738891601
 30
0.0
 11
1.221117615699768
 21
9.004266738891601
 31
0.0
  0
LINE
  5
FA
330
A
100
AcDbEntity
  8
TOP
  6
CONTINUOUS
 62
     3
100
AcDbLine
 10
20.75769996643066
 20
15.14323043823242
 30
0.0
 11
20.75769996643066
 21
15.155198097229
 31
0.0
  0
LINE
  5
FB
330
A
100
AcDbEntity
  8
TOP
  6
CONTINUOUS
 62
     3
100
AcDbLine
 10
19.24484252929687
 20
5.702335357666015
 30
0.0
 11
19.23121452331542
 21
5.702335357666015
 31
0.0
  0
LINE
  5
FC
330
A
100
AcDbEntity
  8
TOP
  6
CONTINUOUS
 62
     3
100
AcDbLine
 10
20.75769996643066
 20
13.25239181518554
 30
0.0
 11
20.75769996643066
 21
13.28614139556884
 31
0.0
  0
LINE
  5
FD
330
A
100
AcDbEntity
  8
TOP
  6
CONTINUOUS
 62
     3
100
AcDbLine
 10
21.19519996643066
 20
8.969266891479492
 30
0.0
 11
21.19063186645508
 21
8.969266891479492
 31
0.0
  0
LINE
  5
FE
330
A
100
AcDbEntity
  8
TOP
  6
CONTINUOUS
 62
     3
100
AcDbLine
 10
19.20736694335937
 20
5.702335357666015
 30
0.0
 11
19.18724632263183
 21
5.702335357666015
 31
0.0
  0
LINE
  5
FF
330
A
100
AcDbEntity
  8
TOP
  6
CONTINUOUS
 62
     3
100
AcDbLine
 10
20.75769996643066
 20
14.89530277252197
 30
0.0
 11
20.75769996643066
 21
14.914475440979
 31
0.0
  0
LINE
  5
100
330
A
100
AcDbEntity
  8
TOP
  6
CONTINUOUS
 62
     3
100
AcDbLine
 10
20.92815971374511
 20
15.8192663192749
 30
0.0
 11
20.9476261138916
 21
15.8192663192749
 31
0.0
  0
LINE
  5
101
330
A
100
AcDbEntity
  8
TOP
  6
CONTINUOUS
 62
     3
100
AcDbLine
 10
20.81769943237304
 20
9.818911552429199
 30
0.0
 11
20.81769943237304
 21
9.848795890808105
 31
0.0
  0
LINE
  5
102
330
A
100
AcDbEntity
  8
TOP
  6
CONTINUOUS
 62
     3
100
AcDbLine
 10
1.221117615699768
 20
12.78426647186279
 30
0.0
 11
1.101117610931396
 21
12.78426647186279
 31
0.0
  0
LINE
  5
103
330
A
100
AcDbEntity
  8
TOP
  6
CONTINUOUS
 62
     3
100
AcDbLine
 10
19.38111686706543
 20
13.1292667388916
 30
0.0
 11
19.82111740112304
 21
13.1292667388916
 31
0.0
  0
LINE
  5
104
330
A
100
AcDbEntity
  8
TOP
  6
CONTINUOUS
 62
     3
100
AcDbLine
 10
20.81769943237304
 20
11.3792667388916
 30
0.0
 11
20.75769996643066
 21
11.3792667388916
 31
0.0
  0
LINE
  5
105
330
A
100
AcDbEntity
  8
TOP
  6
CONTINUOUS
 62
     3
100
AcDbLine
 10
1.541117548942565
 20
15.86321449279785
 30
0.0
 11
1.541117548942565
 21
15.8751859664917
 31
0.0
  0
LINE
  5
106
330
A
100
AcDbEntity
  8
TOP
  6
CONTINUOUS
 62
     3
100
AcDbLine
 10
20.82782363891601
 20
8.995912551879882
 30
0.0
 11
20.82124137878417
 21
9.00895881652832
 31
0.0
  0
LINE
  5
107
330
A
100
AcDbEntity
  8
TOP
  6
CONTINUOUS
 62
     3
100
AcDbLine
 10
1.353642582893371
 20
5.642335414886474
 30
0.0
 11
1.353642582893371
 21
5.702335357666015
 31
0.0
  0
LINE
  5
108
330
A
100
AcDbEntity
  8
TOP
  6
CONTINUOUS
 62
     3
100
AcDbLine
 10
20.96976661682128
 20
8.969266891479492
 30
0.0
 11
20.9651985168457
 21
8.969266891479492
 31
0.0
  0
LINE
  5
109
330
A
100
AcDbEntity
  8
TOP
  6
CONTINUOUS
 62
     3
100
AcDbLine
 10
20.75769996643066
 20
15.8192663192749
 30
0.0
 11
20.75769996643066
 21
15.84411907196044
 31
0.0
  0
LINE
  5
10A
330
A
100
AcDbEntity
  8
TOP
  6
CONTINUOUS
 62
     3
100
AcDbLine
 10
20.75769996643066
 20
13.28614139556884
 30
0.0
 11
20.75769996643066
 21
13.3189115524292
 31
0.0
  0
LINE
  5
10B
330
A
100
AcDbEntity
  8
TOP
  6
CONTINUOUS
 62
     3
100
AcDbLine
 10
1.261117577552795
 20
9.629266738891601
 30
0.0
 11
0.8211175799369812
 21
9.629266738891601
 31
0.0
  0
LINE
  5
10C
330
A
100
AcDbEntity
  8
TOP
  6
CONTINUOUS
 62
     3
100
AcDbLine
 10
19.12662887573242
 20
15.76888751983642
 30
0.0
 11
19.14434623718261
 21
15.75981140136718
 31
0.0
  0
LINE
  5
10D
330
A
100
AcDbEntity
  8
TOP
  6
CONTINUOUS
 62
     3
100
AcDbLine
 10
1.541117548942565
 20
5.640457153320312
 30
0.0
 11
1.541117548942565
 21
5.665684700012207
 31
0.0
  0
LINE
  5
10E
330
A
100
AcDbEntity
  8
TOP
  6
CONTINUOUS
 62
     3
100
AcDbLine
 10
20.81771278381347
 20
9.027998924255371
 30
0.0
 11
20.81769943237304
 21
9.029266357421875
 31
0.0
  0
LINE
  5
10F
330
A
100
AcDbEntity
  8
TOP
  6
CONTINUOUS
 62
     3
100
AcDbLine
 10
1.541117310523986
 20
5.587079048156738
 30
0.0
 11
1.541117548942565
 21
5.582335472106933
 31
0.0
  0
LINE
  5
110
330
A
100
AcDbEntity
  8
TOP
  6
CONTINUOUS
 62
     3
100
AcDbLine
 10
19.73217582702636
 20
5.702335357666015
 30
0.0
 11
19.76111793518066
 21
5.702335357666015
 31
0.0
  0
LINE
  5
111
330
A
100
AcDbEntity
  8
TOP
  6
CONTINUOUS
 62
     3
100
AcDbLine
 10
1.497888445854187
 20
5.702297687530517
 30
0.0
 11
1.478617548942565
 21
5.702335357666015
 31
0.0
  0
LINE
  5
112
330
A
100
AcDbEntity
  8
TOP
  6
CONTINUOUS
 62
     3
100
AcDbLine
 10
20.82943725585937
 20
15.79491519927978
 30
0.0
 11
20.84017562866211
 21
15.80608463287353
 31
0.0
  0
LINE
  5
113
330
A
100
AcDbEntity
  8
TOP
  6
CONTINUOUS
 62
     3
100
AcDbLine
 10
21.23223876953125
 20
15.8792667388916
 30
0.0
 11
21.25519943237304
 21
15.8792667388916
 31
0.0
  0
LINE
  5
114
330
A
100
AcDbEntity
  8
TOP
  6
CONTINUOUS
 62
     3
100
AcDbLine
 10
21.02519989013671
 20
8.969266891479492
 30
0.0
 11
21.00223922729492
 21
8.969266891479492
 31
0.0
  0
LINE
  5
115
330
A
100
AcDbEntity
  8
TOP
  6
CONTINUOUS
 62
     3
100
AcDbLine
 10
19.80504035949707
 20
5.642335414886474
 30
0.0
 11
19.81702804565429
 21
5.642335414886474
 31
0.0
  0
LINE
  5
116
330
A
100
AcDbEntity
  8
TOP
  6
CONTINUOUS
 62
     3
100
AcDbLine
 10
19.81702804565429
 20
5.642335414886474
 30
0.0
 11
19.82111740112304
 21
5.642335414886474
 31
0.0
  0
LINE
  5
117
330
A
100
AcDbEntity
  8
TOP
  6
CONTINUOUS
 62
     3
100
AcDbLine
 10
0.8211175799369812
 20
5.642335414886474
 30
0.0
 11
0.8211175799369812
 21
5.702335357666015
 31
0.0
  0
LINE
  5
118
330
A
100
AcDbEntity
  8
TOP
  6
CONTINUOUS
 62
     3
100
AcDbLine
 10
0.9411175847053527
 20
5.642335414886474
 30
0.0
 11
0.9411175847053527
 21
5.702335357666015
 31
0.0
  0
LINE
  5
119
330
A
100
AcDbEntity
  8
TOP
  6
CONTINUOUS
 62
     3
100
AcDbLine
 10
19.70111846923828
 20
5.642335414886474
 30
0.0
 11
19.73217582702636
 21
5.642335414886474
 31
0.0
  0
LINE
  5
11A
330
A
100
AcDbEntity
  8
TOP
  6
CONTINUOUS
 62
     3
100
AcDbLine
 10
19.23121452331542
 20
5.642335414886474
 30
0.0
 11
19.22610473632812
 21
5.642335414886474
 31
0.0
  0
LINE
  5
11B
330
A
100
AcDbEntity
  8
TOP
  6
CONTINUOUS
 62
     3
100
AcDbLine
 10
20.81769943237304
 20
8.998208045959472
 30
0.0
 11
20.81769943237304
 21
9.029266357421875
 31
0.0
  0
LINE
  5
11C
330
A
100
AcDbEntity
  8
TOP
  6
CONTINUOUS
 62
     3
100
AcDbLine
 10
20.81769943237304
 20
11.50239181518554
 30
0.0
 11
20.81769943237304
 21
11.53614139556884
 31
0.0
  0
LINE
  5
11D
330
A
100
AcDbEntity
  8
TOP
  6
CONTINUOUS
 62
     3
100
AcDbLine
 10
21.25519943237304
 20
8.969266891479492
 30
0.0
 11
21.25519943237304
 21
8.909266471862792
 31
0.0
  0
LINE
  5
11E
330
A
100
AcDbEntity
  8
TOP
  6
CONTINUOUS
 62
     3
100
AcDbLine
 10
1.434867620468139
 20
5.702335357666015
 30
0.0
 11
1.454988837242126
 21
5.702335357666015
 31
0.0
  0
LINE
  5
11F
330
A
100
AcDbEntity
  8
TOP
  6
CONTINUOUS
 62
     3
100
AcDbLine
 10
1.529309034347534
 20
9.005826950073242
 30
0.0
 11
1.515606999397277
 21
9.019645690917968
 31
0.0
  0
LINE
  5
120
330
A
100
AcDbEntity
  8
TOP
  6
CONTINUOUS
 62
     3
100
AcDbLine
 10
1.515606999397277
 20
9.019645690917968
 30
0.0
 11
1.497888445854187
 21
9.028721809387207
 31
0.0
  0
LINE
  5
121
330
A
100
AcDbEntity
  8
TOP
  6
CONTINUOUS
 62
     3
100
AcDbLine
 10
19.54111671447753
 20
15.78426647186279
 30
0.0
 11
19.42111778259277
 21
15.78426647186279
 31
0.0
  0
LINE
  5
122
330
A
100
AcDbEntity
  8
TOP
  6
CONTINUOUS
 62
     3
100
AcDbLine
 10
20.75769996643066
 20
9.87405776977539
 30
0.0
 11
20.75769996643066
 21
9.893230438232421
 31
0.0
  0
LINE
  5
123
330
A
100
AcDbEntity
  8
TOP
  6
CONTINUOUS
 62
     3
100
AcDbLine
 10
20.75769996643066
 20
13.164475440979
 30
0.0
 11
20.75769996643066
 21
13.18973731994629
 31
0.0
  0
LINE
  5
124
330
A
100
AcDbEntity
  8
TOP
  6
CONTINUOUS
 62
     3
100
AcDbLine
 10
21.19063186645508
 20
8.909266471862792
 30
0.0
 11
21.17762565612792
 21
8.909266471862792
 31
0.0
  0
LINE
  5
125
330
A
100
AcDbEntity
  8
TOP
  6
CONTINUOUS
 62
     3
100
AcDbLine
 10
20.81769943237304
 20
14.914475440979
 30
0.0
 11
20.81769943237304
 21
14.93973731994628
 31
0.0
  0
LINE
  5
126
330
A
100
AcDbEntity
  8
TOP
  6
CONTINUOUS
 62
     3
100
AcDbLine
 10
20.9476261138916
 20
15.8792667388916
 30
0.0
 11
20.96063232421875
 21
15.8792667388916
 31
0.0
  0
LINE
  5
127
330
A
100
AcDbEntity
  8
TOP
  6
CONTINUOUS
 62
     3
100
AcDbLine
 10
21.63519859313964
 20
15.8192663192749
 30
0.0
 11
21.63519859313964
 21
15.8792667388916
 31
0.0
  0
LINE
  5
128
330
A
100
AcDbEntity
  8
TOP
  6
CONTINUOUS
 62
     3
100
AcDbLine
 10
0.8211175799369812
 20
15.75926685333252
 30
0.0
 11
0.8211175799369812
 21
15.15926647186279
 31
0.0
  0
LINE
  5
129
330
A
100
AcDbEntity
  8
TOP
  6
CONTINUOUS
 62
     3
100
AcDbLine
 10
1.101117610931396
 20
12.0042667388916
 30
0.0
 11
1.221117615699768
 21
12.0042667388916
 31
0.0
  0
LINE
  5
12A
330
A
100
AcDbEntity
  8
TOP
  6
CONTINUOUS
 62
     3
100
AcDbLine
 10
20.81769943237304
 20
9.893230438232421
 30
0.0
 11
20.81769943237304
 21
9.905198097229003
 31
0.0
  0
LINE
  5
12B
330
A
100
AcDbEntity
  8
TOP
  6
CONTINUOUS
 62
     3
100
AcDbLine
 10
20.81769943237304
 20
13.18973731994629
 30
0.0
 11
20.81769943237304
 21
13.21962165832519
 31
0.0
  0
LINE
  5
12C
330
A
100
AcDbEntity
  8
TOP
  6
CONTINUOUS
 62
     3
100
AcDbLine
 10
20.81769943237304
 20
15.8792667388916
 30
0.0
 11
20.75769996643066
 21
15.8792667388916
 31
0.0
  0
LINE
  5
12D
330
A
100
AcDbEntity
  8
TOP
  6
CONTINUOUS
 62
     3
100
AcDbLine
 10
20.96976661682128
 20
15.8192663192749
 30
0.0
 11
20.9651985168457
 21
15.8192663192749
 31
0.0
  0
LINE
  5
12E
330
A
100
AcDbEntity
  8
TOP
  6
CONTINUOUS
 62
     3
100
AcDbLine
 10
0.8211175799369812
 20
9.909266471862792
 30
0.0
 11
0.8211175799369812
 21
11.3792667388916
 31
0.0
  0
LINE
  5
12F
330
A
100
AcDbEntity
  8
TOP
  6
CONTINUOUS
 62
     3
100
AcDbLine
 10
19.10111808776855
 20
15.8192663192749
 30
0.0
 11
19.10392761230468
 21
15.80073356628417
 31
0.0
  0
LINE
  5
130
330
A
100
AcDbEntity
  8
TOP
  6
CONTINUOUS
 62
     3
100
AcDbLine
 10
1.927117586135864
 20
14.46926689147949
 30
0.0
 11
2.777117490768432
 21
14.46926689147949
 31
0.0
  0
LINE
  5
131
330
A
100
AcDbEntity
  8
TOP
  6
CONTINUOUS
 62
     3
100
AcDbLine
 10
19.28859329223632
 20
5.642335414886474
 30
0.0
 11
19.70111846923828
 21
5.642335414886474
 31
0.0
  0
LINE
  5
132
330
A
100
AcDbEntity
  8
TOP
  6
CONTINUOUS
 62
     3
100
AcDbLine
 10
20.81769943237304
 20
15.75926685333252
 30
0.0
 11
20.81829452514648
 21
15.7676944732666
 31
0.0
  0
LINE
  5
133
330
A
100
AcDbEntity
  8
TOP
  6
CONTINUOUS
 62
     3
100
AcDbLine
 10
18.32111740112304
 20
4.824835777282714
 30
0.0
 11
18.32111740112304
 21
5.204835414886474
 31
0.0
  0
LINE
  5
134
330
A
100
AcDbEntity
  8
TOP
  6
CONTINUOUS
 62
     3
100
AcDbLine
 10
20.81769943237304
 20
8.925343513488769
 30
0.0
 11
20.81769943237304
 21
8.944414138793945
 31
0.0
  0
LINE
  5
135
330
A
100
AcDbEntity
  8
TOP
  6
CONTINUOUS
 62
     3
100
AcDbLine
 10
20.81769943237304
 20
15.15926647186279
 30
0.0
 11
20.75769996643066
 21
15.15926647186279
 31
0.0
  0
LINE
  5
136
330
A
100
AcDbEntity
  8
TOP
  6
CONTINUOUS
 62
     3
100
AcDbLine
 10
21.65816116333008
 20
8.969266891479492
 30
0.0
 11
21.67762565612793
 21
8.969266891479492
 31
0.0
  0
LINE
  5
137
330
A
100
AcDbEntity
  8
TOP
  6
CONTINUOUS
 62
     3
100
AcDbLine
 10
20.81769943237304
 20
14.8792667388916
 30
0.0
 11
20.81769943237304
 21
13.40926647186279
 31
0.0
  0
LINE
  5
138
330
A
100
AcDbEntity
  8
TOP
  6
CONTINUOUS
 62
     3
100
AcDbLine
 10
19.42111778259277
 20
14.2542667388916
 30
0.0
 11
19.54111671447753
 21
14.2542667388916
 31
0.0
  0
LINE
  5
139
330
A
100
AcDbEntity
  8
TOP
  6
CONTINUOUS
 62
     3
100
AcDbLine
 10
0.8811175823211669
 20
5.642335414886474
 30
0.0
 11
0.9100592732429504
 21
5.642335414886474
 31
0.0
  0
LINE
  5
13A
330
A
100
AcDbEntity
  8
TOP
  6
CONTINUOUS
 62
     3
100
AcDbLine
 10
20.75769996643066
 20
9.786141395568847
 30
0.0
 11
20.75769996643066
 21
9.818911552429199
 31
0.0
  0
LINE
  5
13B
330
A
100
AcDbEntity
  8
TOP
  6
CONTINUOUS
 62
     3
100
AcDbLine
 10
20.75769996643066
 20
13.1292667388916
 30
0.0
 11
20.75769996643066
 21
13.13333511352539
 31
0.0
  0
LINE
  5
13C
330
A
100
AcDbEntity
  8
TOP
  6
CONTINUOUS
 62
     3
100
AcDbLine
 10
21.19519996643066
 20
8.969266891479492
 30
0.0
 11
21.19519996643066
 21
8.909266471862792
 31
0.0
  0
LINE
  5
13D
330
A
100
AcDbEntity
  8
TOP
  6
CONTINUOUS
 62
     3
100
AcDbLine
 10
1.536178588867187
 20
5.630597114562988
 30
0.0
 11
1.539711594581604
 21
5.619860172271728
 31
0.0
  0
LINE
  5
13E
330
A
100
AcDbEntity
  8
TOP
  6
CONTINUOUS
 62
     3
100
AcDbLine
 10
20.9651985168457
 20
15.8192663192749
 30
0.0
 11
20.9651985168457
 21
15.8792667388916
 31
0.0
  0
LINE
  5
13F
330
A
100
AcDbEntity
  8
TOP
  6
CONTINUOUS
 62
     3
100
AcDbLine
 10
1.221117615699768
 20
11.03426647186279
 30
0.0
 11
1.101117610931396
 21
11.03426647186279
 31
0.0
  0
LINE
  5
140
330
A
100
AcDbEntity
  8
TOP
  6
CONTINUOUS
 62
     3
100
AcDbLine
 10
19.28859329223632
 20
5.702335357666015
 30
0.0
 11
19.26496315002441
 21
5.702335357666015
 31
0.0
  0
LINE
  5
141
330
A
100
AcDbEntity
  8
TOP
  6
CONTINUOUS
 62
     3
100
AcDbLine
 10
1.101117610931396
 20
14.2542667388916
 30
0.0
 11
1.221117615699768
 21
14.2542667388916
 31
0.0
  0
LINE
  5
142
330
A
100
AcDbEntity
  8
TOP
  6
CONTINUOUS
 62
     3
100
AcDbLine
 10
20.81769943237304
 20
13.13333511352539
 30
0.0
 11
20.81769943237304
 21
13.14530277252197
 31
0.0
  0
LINE
  5
143
330
A
100
AcDbEntity
  8
TOP
  6
CONTINUOUS
 62
     3
100
AcDbLine
 10
1.541117548942565
 20
8.913347244262695
 30
0.0
 11
1.541117548942565
 21
8.925318717956542
 31
0.0
  0
LINE
  5
144
330
A
100
AcDbEntity
  8
TOP
  6
CONTINUOUS
 62
     3
100
AcDbLine
 10
21.00223922729492
 20
8.909266471862792
 30
0.0
 11
20.98277282714843
 21
8.909266471862792
 31
0.0
  0
LINE
  5
145
330
A
100
AcDbEntity
  8
TOP
  6
CONTINUOUS
 62
     3
100
AcDbLine
 10
20.81769943237304
 20
15.75926685333252
 30
0.0
 11
20.75769996643066
 21
15.75926685333252
 31
0.0
  0
LINE
  5
146
330
A
100
AcDbEntity
  8
TOP
  6
CONTINUOUS
 62
     3
100
AcDbLine
 10
21.02519989013671
 20
15.8192663192749
 30
0.0
 11
21.00223922729492
 21
15.8192663192749
 31
0.0
  0
LINE
  5
147
330
A
100
AcDbEntity
  8
TOP
  6
CONTINUOUS
 62
     3
100
AcDbLine
 10
20.75769996643066
 20
11.655198097229
 30
0.0
 11
20.75769996643066
 21
11.65926647186279
 31
0.0
  0
LINE
  5
148
330
A
100
AcDbEntity
  8
TOP
  6
CONTINUOUS
 62
     3
100
AcDbLine
 10
1.261117577552795
 20
11.65926647186279
 30
0.0
 11
0.8211175799369812
 21
11.65926647186279
 31
0.0
  0
LINE
  5
149
330
A
100
AcDbEntity
  8
TOP
  6
CONTINUOUS
 62
     3
100
AcDbLine
 10
20.75769996643066
 20
11.46962165832519
 30
0.0
 11
20.75769996643066
 21
11.50239181518554
 31
0.0
  0
LINE
  5
14A
330
A
100
AcDbEntity
  8
TOP
  6
CONTINUOUS
 62
     3
100
AcDbLine
 10
20.87769889831542
 20
8.969266891479492
 30
0.0
 11
20.85799789428711
 21
8.972593307495117
 31
0.0
  0
LINE
  5
14B
330
A
100
AcDbEntity
  8
TOP
  6
CONTINUOUS
 62
     3
100
AcDbLine
 10
20.92815971374511
 20
8.969266891479492
 30
0.0
 11
20.9476261138916
 21
8.969266891479492
 31
0.0
  0
LINE
  5
14C
330
A
100
AcDbEntity
  8
TOP
  6
CONTINUOUS
 62
     3
100
AcDbLine
 10
19.26496315002441
 20
5.702335357666015
 30
0.0
 11
19.24484252929687
 21
5.702335357666015
 31
0.0
  0
LINE
  5
14D
330
A
100
AcDbEntity
  8
TOP
  6
CONTINUOUS
 62
     3
100
AcDbLine
 10
21.17762565612792
 20
15.8192663192749
 30
0.0
 11
21.15816116333007
 21
15.8192663192749
 31
0.0
  0
LINE
  5
14E
330
A
100
AcDbEntity
  8
TOP
  6
CONTINUOUS
 62
     3
100
AcDbLine
 10
1.538978815078735
 20
15.80305576324462
 30
0.0
 11
1.541117787361145
 21
15.8192663192749
 31
0.0
  0
LINE
  5
14F
330
A
100
AcDbEntity
  8
TOP
  6
CONTINUOUS
 62
     3
100
AcDbLine
 10
20.75769996643066
 20
8.998208045959472
 30
0.0
 11
20.75769996643066
 21
9.029266357421875
 31
0.0
  0
LINE
  5
150
330
A
100
AcDbEntity
  8
TOP
  6
CONTINUOUS
 62
     3
100
AcDbLine
 10
11.49611759185791
 20
12.66926670074463
 30
0.0
 11
9.146117210388183
 21
12.66926670074463
 31
0.0
  0
LINE
  5
151
330
A
100
AcDbEntity
  8
TOP
  6
CONTINUOUS
 62
     3
100
AcDbLine
 10
21.67762565612793
 20
8.909266471862792
 30
0.0
 11
21.69063186645507
 21
8.909266471862792
 31
0.0
  0
LINE
  5
152
330
A
100
AcDbEntity
  8
TOP
  6
CONTINUOUS
 62
     3
100
AcDbLine
 10
1.538306593894958
 20
5.694173336029052
 30
0.0
 11
1.529309034347534
 21
5.699557781219482
 31
0.0
  0
LINE
  5
153
330
A
100
AcDbEntity
  8
TOP
  6
CONTINUOUS
 62
     3
100
AcDbLine
 10
19.54111671447753
 20
14.03426647186279
 30
0.0
 11
19.42111778259277
 21
14.03426647186279
 31
0.0
  0
LINE
  5
154
330
A
100
AcDbEntity
  8
TOP
  6
CONTINUOUS
 62
     3
100
AcDbLine
 10
0.8252064585685729
 20
5.642335414886474
 30
0.0
 11
0.8371945023536682
 21
5.642335414886474
 31
0.0
  0
LINE
  5
155
330
A
100
AcDbEntity
  8
TOP
  6
CONTINUOUS
 62
     3
100
AcDbLine
 10
1.538306593894958
 20
8.987799644470214
 30
0.0
 11
1.529309034347534
 21
9.005826950073242
 31
0.0
  0
LINE
  5
156
330
A
100
AcDbEntity
  8
TOP
  6
CONTINUOUS
 62
     3
100
AcDbLine
 10
20.75769996643066
 20
9.689737319946289
 30
0.0
 11
20.75769996643066
 21
9.719621658325195
 31
0.0
  0
LINE
  5
157
330
A
100
AcDbEntity
  8
TOP
  6
CONTINUOUS
 62
     3
100
AcDbLine
 10
20.81769943237304
 20
13.1292667388916
 30
0.0
 11
20.75769996643066
 21
13.1292667388916
 31
0.0
  0
LINE
  5
158
330
A
100
AcDbEntity
  8
TOP
  6
CONTINUOUS
 62
     3
100
AcDbLine
 10
21.19976615905761
 20
8.969266891479492
 30
0.0
 11
21.21277236938476
 21
8.969266891479492
 31
0.0
  0
LINE
  5
159
330
A
100
AcDbEntity
  8
TOP
  6
CONTINUOUS
 62
     3
100
AcDbLine
 10
1.49611759185791
 20
5.642335414886474
 30
0.0
 11
1.513924479484558
 21
5.641740798950195
 31
0.0
  0
LINE
  5
15A
330
A
100
AcDbEntity
  8
TOP
  6
CONTINUOUS
 62
     3
100
AcDbLine
 10
19.10325622558593
 20
8.985477447509765
 30
0.0
 11
19.10111808776855
 21
8.969266891479492
 31
0.0
  0
LINE
  5
15B
330
A
100
AcDbEntity
  8
TOP
  6
CONTINUOUS
 62
     3
100
AcDbLine
 10
1.101117610931396
 20
10.2542667388916
 30
0.0
 11
1.221117615699768
 21
10.2542667388916
 31
0.0
  0
LINE
  5
15C
330
A
100
AcDbEntity
  8
TOP
  6
CONTINUOUS
 62
     3
100
AcDbLine
 10
20.81769943237304
 20
9.719621658325195
 30
0.0
 11
20.81769943237304
 21
9.752391815185546
 31
0.0
  0
LINE
  5
15D
330
A
100
AcDbEntity
  8
TOP
  6
CONTINUOUS
 62
     3
100
AcDbLine
 10
20.75769996643066
 20
13.39323043823242
 30
0.0
 11
20.75769996643066
 21
13.405198097229
 31
0.0
  0
LINE
  5
15E
330
A
100
AcDbEntity
  8
TOP
  6
CONTINUOUS
 62
     3
100
AcDbLine
 10
21.02519989013671
 20
8.909266471862792
 30
0.0
 11
21.13519859313965
 21
8.909266471862792
 31
0.0
  0
LINE
  5
15F
330
A
100
AcDbEntity
  8
TOP
  6
CONTINUOUS
 62
     3
100
AcDbLine
 10
19.11092376708984
 20
5.698880195617675
 30
0.0
 11
19.10325622558593
 21
5.69325304031372
 31
0.0
  0
LINE
  5
160
330
A
100
AcDbEntity
  8
TOP
  6
CONTINUOUS
 62
     3
100
AcDbLine
 10
21.00223922729492
 20
15.8792667388916
 30
0.0
 11
20.98277282714843
 21
15.8792667388916
 31
0.0
  0
LINE
  5
161
330
A
100
AcDbEntity
  8
TOP
  6
CONTINUOUS
 62
     3
100
AcDbLine
 10
20.75769996643066
 20
11.5987958908081
 30
0.0
 11
20.75769996643066
 21
11.62405776977539
 31
0.0
  0
LINE
  5
162
330
A
100
AcDbEntity
  8
TOP
  6
CONTINUOUS
 62
     3
100
AcDbLine
 10
20.75769996643066
 20
11.39530277252197
 30
0.0
 11
20.75769996643066
 21
11.414475440979
 31
0.0
  0
LINE
  5
163
330
A
100
AcDbEntity
  8
TOP
  6
CONTINUOUS
 62
     3
100
AcDbLine
 10
19.10111808776855
 20
15.8441514968872
 30
0.0
 11
19.10111808776855
 21
15.8192663192749
 31
0.0
  0
LINE
  5
164
330
A
100
AcDbEntity
  8
TOP
  6
CONTINUOUS
 62
     3
100
AcDbLine
 10
1.420737862586975
 20
5.642335414886474
 30
0.0
 11
1.433050870895385
 21
5.642335414886474
 31
0.0
  0
LINE
  5
165
330
A
100
AcDbEntity
  8
TOP
  6
CONTINUOUS
 62
     3
100
AcDbLine
 10
20.9476261138916
 20
8.909266471862792
 30
0.0
 11
20.96063232421875
 21
8.909266471862792
 31
0.0
  0
LINE
  5
166
330
A
100
AcDbEntity
  8
TOP
  6
CONTINUOUS
 62
     3
100
AcDbLine
 10
20.81769943237304
 20
15.79032516479492
 30
0.0
 11
20.81769943237304
 21
15.8192663192749
 31
0.0
  0
LINE
  5
167
330
A
100
AcDbEntity
  8
TOP
  6
CONTINUOUS
 62
     3
100
AcDbLine
 10
21.15816116333007
 20
15.8792667388916
 30
0.0
 11
21.13519859313965
 21
15.8792667388916
 31
0.0
  0
LINE
  5
168
330
A
100
AcDbEntity
  8
TOP
  6
CONTINUOUS
 62
     3
100
AcDbLine
 10
1.927117586135864
 20
13.3192663192749
 30
0.0
 11
2.777117490768432
 21
13.3192663192749
 31
0.0
  0
LINE
  5
169
330
A
100
AcDbEntity
  8
TOP
  6
CONTINUOUS
 62
     3
100
AcDbLine
 10
1.499258875846862
 20
15.76027297973632
 30
0.0
 11
1.517578959465026
 21
15.77039623260498
 31
0.0
  0
LINE
  5
16A
330
A
100
AcDbEntity
  8
TOP
  6
CONTINUOUS
 62
     3
100
AcDbLine
 10
20.75769996643066
 20
8.925343513488769
 30
0.0
 11
20.75769996643066
 21
8.944414138793945
 31
0.0
  0
LINE
  5
16B
330
A
100
AcDbEntity
  8
TOP
  6
CONTINUOUS
 62
     3
100
AcDbLine
 10
21.63519859313964
 20
8.969266891479492
 30
0.0
 11
21.63519859313964
 21
8.909266471862792
 31
0.0
  0
LINE
  5
16C
330
A
100
AcDbEntity
  8
TOP
  6
CONTINUOUS
 62
     3
100
AcDbLine
 10
19.10111808776855
 20
5.685192108154296
 30
0.0
 11
19.10111808776855
 21
5.665684700012207
 31
0.0
  0
LINE
  5
16D
330
A
100
AcDbEntity
  8
TOP
  6
CONTINUOUS
 62
     3
100
AcDbLine
 10
20.81769943237304
 20
13.40926647186279
 30
0.0
 11
20.75769996643066
 21
13.40926647186279
 31
0.0
  0
LINE
  5
16E
330
A
100
AcDbEntity
  8
TOP
  6
CONTINUOUS
 62
     3
100
AcDbLine
 10
19.42111778259277
 20
12.5042667388916
 30
0.0
 11
19.54111671447753
 21
12.5042667388916
 31
0.0
  0
LINE
  5
16F
330
A
100
AcDbEntity
  8
TOP
  6
CONTINUOUS
 62
     3
100
AcDbLine
 10
0.8811175823211669
 20
5.702335357666015
 30
0.0
 11
0.9100592732429504
 21
5.702335357666015
 31
0.0
  0
LINE
  5
170
330
A
100
AcDbEntity
  8
TOP
  6
CONTINUOUS
 62
     3
100
AcDbLine
 10
19.10120582580566
 20
5.60203742980957
 30
0.0
 11
19.10246849060058
 21
5.619538307189941
 31
0.0
  0
LINE
  5
171
330
A
100
AcDbEntity
  8
TOP
  6
CONTINUOUS
 62
     3
100
AcDbLine
 10
20.75769996643066
 20
9.63333511352539
 30
0.0
 11
20.75769996643066
 21
9.645302772521972
 31
0.0
  0
LINE
  5
172
330
A
100
AcDbEntity
  8
TOP
  6
CONTINUOUS
 62
     3
100
AcDbLine
 10
20.81769943237304
 20
11.64323043823242
 30
0.0
 11
20.81769943237304
 21
11.655198097229
 31
0.0
  0
LINE
  5
173
330
A
100
AcDbEntity
  8
TOP
  6
CONTINUOUS
 62
     3
100
AcDbLine
 10
21.21277236938476
 20
8.909266471862792
 30
0.0
 11
21.23223876953125
 21
8.909266471862792
 31
0.0
  0
LINE
  5
174
330
A
100
AcDbEntity
  8
TOP
  6
CONTINUOUS
 62
     3
100
AcDbLine
 10
1.433050870895385
 20
5.642335414886474
 30
0.0
 11
1.451429843902587
 21
5.642335414886474
 31
0.0
  0
LINE
  5
175
330
A
100
AcDbEntity
  8
TOP
  6
CONTINUOUS
 62
     3
100
AcDbLine
 10
21.67762565612793
 20
15.8192663192749
 30
0.0
 11
21.69063186645507
 21
15.8192663192749
 31
0.0
  0
LINE
  5
176
330
A
100
AcDbEntity
  8
TOP
  6
CONTINUOUS
 62
     3
100
AcDbLine
 10
19.14297676086425
 20
9.02825927734375
 30
0.0
 11
19.12465667724609
 21
9.018136978149414
 31
0.0
  0
LINE
  5
177
330
A
100
AcDbEntity
  8
TOP
  6
CONTINUOUS
 62
     3
100
AcDbLine
 10
1.221117615699768
 20
9.284266471862792
 30
0.0
 11
1.101117610931396
 21
9.284266471862792
 31
0.0
  0
LINE
  5
178
330
A
100
AcDbEntity
  8
TOP
  6
CONTINUOUS
 62
     3
100
AcDbLine
 10
20.81769943237304
 20
9.645302772521972
 30
0.0
 11
20.81769943237304
 21
9.664475440979003
 31
0.0
  0
LINE
  5
179
330
A
100
AcDbEntity
  8
TOP
  6
CONTINUOUS
 62
     3
100
AcDbLine
 10
20.75769996643066
 20
13.3189115524292
 30
0.0
 11
20.75769996643066
 21
13.3487958908081
 31
0.0
  0
LINE
  5
17A
330
A
100
AcDbEntity
  8
TOP
  6
CONTINUOUS
 62
     3
100
AcDbLine
 10
1.478617548942565
 20
9.031766891479492
 30
0.0
 11
19.16361808776855
 21
9.031766891479492
 31
0.0
  0
LINE
  5
17B
330
A
100
AcDbEntity
  8
TOP
  6
CONTINUOUS
 62
     3
100
AcDbLine
 10
21.17762565612792
 20
8.969266891479492
 30
0.0
 11
21.15816116333007
 21
8.969266891479492
 31
0.0
  0
LINE
  5
17C
330
A
100
AcDbEntity
  8
TOP
  6
CONTINUOUS
 62
     3
100
AcDbLine
 10
20.81769943237304
 20
15.0689115524292
 30
0.0
 11
20.81769943237304
 21
15.0987958908081
 31
0.0
  0
LINE
  5
17D
330
A
100
AcDbEntity
  8
TOP
  6
CONTINUOUS
 62
     3
100
AcDbLine
 10
20.96063232421875
 20
15.8192663192749
 30
0.0
 11
20.9651985168457
 21
15.8192663192749
 31
0.0
  0
LINE
  5
17E
330
A
100
AcDbEntity
  8
TOP
  6
CONTINUOUS
 62
     3
100
AcDbLine
 10
1.261117577552795
 20
14.8792667388916
 30
0.0
 11
0.8211175799369812
 21
14.8792667388916
 31
0.0
  0
LINE
  5
17F
330
A
100
AcDbEntity
  8
TOP
  6
CONTINUOUS
 62
     3
100
AcDbLine
 10
19.38111686706543
 20
13.40926647186279
 30
0.0
 11
19.82111740112304
 21
13.40926647186279
 31
0.0
  0
LINE
  5
180
330
A
100
AcDbEntity
  8
TOP
  6
CONTINUOUS
 62
     3
100
AcDbLine
 10
19.10111808776855
 20
15.8792667388916
 30
0.0
 11
19.10111808776855
 21
15.8751859664917
 31
0.0
  0
LINE
  5
181
330
A
100
AcDbEntity
  8
TOP
  6
CONTINUOUS
 62
     3
100
AcDbLine
 10
20.81769943237304
 20
14.8792667388916
 30
0.0
 11
20.81769943237304
 21
14.88333511352539
 31
0.0
  0
LINE
  5
182
330
A
100
AcDbEntity
  8
TOP
  6
CONTINUOUS
 62
     3
100
AcDbLine
 10
20.90519905090332
 20
8.969266891479492
 30
0.0
 11
20.90519905090332
 21
8.909266471862792
 31
0.0
  0
LINE
  5
183
330
A
100
AcDbEntity
  8
TOP
  6
CONTINUOUS
 62
     3
100
AcDbLine
 10
19.20918464660644
 20
5.642335414886474
 30
0.0
 11
19.19080543518066
 21
5.642335414886474
 31
0.0
  0
LINE
  5
184
330
A
100
AcDbEntity
  8
TOP
  6
CONTINUOUS
 62
     3
100
AcDbLine
 10
1.411019802093505
 20
5.642335414886474
 30
0.0
 11
1.416130065917968
 21
5.642335414886474
 31
0.0
  0
LINE
  5
185
330
A
100
AcDbEntity
  8
TOP
  6
CONTINUOUS
 62
     3
100
AcDbLine
 10
20.81769943237304
 20
9.029266357421875
 30
0.0
 11
20.75769996643066
 21
9.029266357421875
 31
0.0
  0
LINE
  5
186
330
A
100
AcDbEntity
  8
TOP
  6
CONTINUOUS
 62
     3
100
AcDbLine
 10
1.927117586135864
 20
12.66926670074463
 30
0.0
 11
2.777117490768432
 21
12.66926670074463
 31
0.0
  0
LINE
  5
187
330
A
100
AcDbEntity
  8
TOP
  6
CONTINUOUS
 62
     3
100
AcDbLine
 10
19.78597068786621
 20
5.702335357666015
 30
0.0
 11
19.80504035949707
 21
5.702335357666015
 31
0.0
  0
LINE
  5
188
330
A
100
AcDbEntity
  8
TOP
  6
CONTINUOUS
 62
     3
100
AcDbLine
 10
17.86511802673339
 20
13.3192663192749
 30
0.0
 11
18.71511840820312
 21
13.3192663192749
 31
0.0
  0
LINE
  5
189
330
A
100
AcDbEntity
  8
TOP
  6
CONTINUOUS
 62
     3
100
AcDbLine
 10
21.19976615905761
 20
15.8192663192749
 30
0.0
 11
21.21277236938476
 21
15.8192663192749
 31
0.0
  0
LINE
  5
18A
330
A
100
AcDbEntity
  8
TOP
  6
CONTINUOUS
 62
     3
100
AcDbLine
 10
19.54111671447753
 20
12.28426647186279
 30
0.0
 11
19.42111778259277
 21
12.28426647186279
 31
0.0
  0
LINE
  5
18B
330
A
100
AcDbEntity
  8
TOP
  6
CONTINUOUS
 62
     3
100
AcDbLine
 10
0.8252064585685729
 20
5.702335357666015
 30
0.0
 11
0.8371945023536682
 21
5.702335357666015
 31
0.0
  0
LINE
  5
18C
330
A
100
AcDbEntity
  8
TOP
  6
CONTINUOUS
 62
     3
100
AcDbLine
 10
11.49611759185791
 20
15.11926651000976
 30
0.0
 11
9.146117210388183
 21
15.11926651000976
 31
0.0
  0
LINE
  5
18D
330
A
100
AcDbEntity
  8
TOP
  6
CONTINUOUS
 62
     3
100
AcDbLine
 10
20.75769996643066
 20
9.029266357421875
 30
0.0
 11
20.75769996643066
 21
9.629266738891601
 31
0.0
  0
LINE
  5
18E
330
A
100
AcDbEntity
  8
TOP
  6
CONTINUOUS
 62
     3
100
AcDbLine
 10
20.81769943237304
 20
11.56891155242919
 30
0.0
 11
20.81769943237304
 21
11.5987958908081
 31
0.0
  0
LINE
  5
18F
330
A
100
AcDbEntity
  8
TOP
  6
CONTINUOUS
 62
     3
100
AcDbLine
 10
21.63519859313964
 20
8.969266891479492
 30
0.0
 11
21.25519943237304
 21
8.969266891479492
 31
0.0
  0
LINE
  5
190
330
A
100
AcDbEntity
  8
TOP
  6
CONTINUOUS
 62
     3
100
AcDbLine
 10
20.75769996643066
 20
14.93973731994628
 30
0.0
 11
20.75769996643066
 21
14.96962165832519
 31
0.0
  0
LINE
  5
191
330
A
100
AcDbEntity
  8
TOP
  6
CONTINUOUS
 62
     3
100
AcDbLine
 10
21.63519859313964
 20
15.8192663192749
 30
0.0
 11
21.25519943237304
 21
15.8192663192749
 31
0.0
  0
LINE
  5
192
330
A
100
AcDbEntity
  8
TOP
  6
CONTINUOUS
 62
     3
100
AcDbLine
 10
19.42111778259277
 20
15.5042667388916
 30
0.0
 11
19.54111671447753
 21
15.5042667388916
 31
0.0
  0
LINE
  5
193
330
A
100
AcDbEntity
  8
TOP
  6
CONTINUOUS
 62
     3
100
AcDbLine
 10
20.75769996643066
 20
9.905198097229003
 30
0.0
 11
20.75769996643066
 21
9.909266471862792
 31
0.0
  0
LINE
  5
194
330
A
100
AcDbEntity
  8
TOP
  6
CONTINUOUS
 62
     3
100
AcDbLine
 10
20.75769996643066
 20
13.21962165832519
 30
0.0
 11
20.75769996643066
 21
13.25239181518554
 31
0.0
  0
LINE
  5
195
330
A
100
AcDbEntity
  8
TOP
  6
CONTINUOUS
 62
     3
100
AcDbLine
 10
21.15816116333007
 20
8.909266471862792
 30
0.0
 11
21.13519859313965
 21
8.909266471862792
 31
0.0
  0
LINE
  5
196
330
A
100
AcDbEntity
  8
TOP
  6
CONTINUOUS
 62
     3
100
AcDbLine
 10
20.81769943237304
 20
14.96962165832519
 30
0.0
 11
20.81769943237304
 21
15.00239181518554
 31
0.0
  0
LINE
  5
197
330
A
100
AcDbEntity
  8
TOP
  6
CONTINUOUS
 62
     3
100
AcDbLine
 10
20.90519905090332
 20
15.8192663192749
 30
0.0
 11
20.92815971374511
 21
15.8192663192749
 31
0.0
  0
LINE
  5
198
330
A
100
AcDbEntity
  8
TOP
  6
CONTINUOUS
 62
     3
100
AcDbLine
 10
19.38111686706543
 20
9.909266471862792
 30
0.0
 11
19.82111740112304
 21
9.909266471862792
 31
0.0
  0
LINE
  5
199
330
A
100
AcDbEntity
  8
TOP
  6
CONTINUOUS
 62
     3
100
AcDbLine
 10
19.82111740112304
 20
9.909266471862792
 30
0.0
 11
19.82111740112304
 21
11.3792667388916
 31
0.0
  0
LINE
  5
19A
330
A
100
AcDbEntity
  8
TOP
  6
CONTINUOUS
 62
     3
100
AcDbLine
 10
19.38111686706543
 20
11.3792667388916
 30
0.0
 11
19.82111740112304
 21
11.3792667388916
 31
0.0
  0
LINE
  5
19B
330
A
100
AcDbEntity
  8
TOP
  6
CONTINUOUS
 62
     3
100
AcDbLine
 10
19.38111686706543
 20
11.65926647186279
 30
0.0
 11
19.82111740112304
 21
11.65926647186279
 31
0.0
  0
LINE
  5
19C
330
A
100
AcDbEntity
  8
TOP
  6
CONTINUOUS
 62
     3
100
AcDbLine
 10
19.82111740112304
 20
11.65926647186279
 30
0.0
 11
19.82111740112304
 21
13.1292667388916
 31
0.0
  0
LINE
  5
19D
330
A
100
AcDbEntity
  8
TOP
  6
CONTINUOUS
 62
     3
100
AcDbLine
 10
1.541117548942565
 20
15.8441514968872
 30
0.0
 11
1.541117548942565
 21
15.86321449279785
 31
0.0
  0
LINE
  5
19E
330
A
100
AcDbEntity
  8
TOP
  6
CONTINUOUS
 62
     3
100
AcDbLine
 10
20.98277282714843
 20
8.969266891479492
 30
0.0
 11
20.96976661682128
 21
8.969266891479492
 31
0.0
  0
LINE
  5
19F
330
A
100
AcDbEntity
  8
TOP
  6
CONTINUOUS
 62
     3
100
AcDbLine
 10
1.601117610931396
 20
5.494835376739501
 30
0.0
 11
1.641117334365844
 21
5.494835376739501
 31
0.0
  0
LINE
  5
1A0
330
A
100
AcDbEntity
  8
TOP
  6
CONTINUOUS
 62
     3
100
AcDbLine
 10
19.14224624633789
 20
5.642322063446044
 30
0.0
 11
19.1461181640625
 21
5.642335414886474
 31
0.0
  0
LINE
  5
1A1
330
A
100
AcDbEntity
  8
TOP
  6
CONTINUOUS
 62
     3
100
AcDbLine
 10
21.02519989013671
 20
15.8792667388916
 30
0.0
 11
21.13519859313965
 21
15.8792667388916
 31
0.0
  0
LINE
  5
1A2
330
A
100
AcDbEntity
  8
TOP
  6
CONTINUOUS
 62
     3
100
AcDbLine
 10
19.11292648315429
 20
15.78270626068115
 30
0.0
 11
19.12662887573242
 21
15.76888751983642
 31
0.0
  0
LINE
  5
1A3
330
A
100
AcDbEntity
  8
TOP
  6
CONTINUOUS
 62
     3
100
AcDbLine
 10
21.19519996643066
 20
15.8192663192749
 30
0.0
 11
21.19063186645508
 21
15.8192663192749
 31
0.0
  0
LINE
  5
1A4
330
A
100
AcDbEntity
  8
TOP
  6
CONTINUOUS
 62
     3
100
AcDbLine
 10
19.70111846923828
 20
5.702335357666015
 30
0.0
 11
19.73217582702636
 21
5.702335357666015
 31
0.0
  0
LINE
  5
1A5
330
A
100
AcDbEntity
  8
TOP
  6
CONTINUOUS
 62
     3
100
AcDbLine
 10
20.82179832458496
 20
15.78106498718261
 30
0.0
 11
20.82943725585937
 21
15.79491519927978
 31
0.0
  0
LINE
  5
1A6
330
A
100
AcDbEntity
  8
TOP
  6
CONTINUOUS
 62
     3
100
AcDbLine
 10
18.38111686706543
 20
5.264835357666015
 30
0.0
 11
18.88111686706543
 21
5.264835357666015
 31
0.0
  0
LINE
  5
1A7
330
A
100
AcDbEntity
  8
TOP
  6
CONTINUOUS
 62
     3
100
AcDbLine
 10
19.42111778259277
 20
10.7542667388916
 30
0.0
 11
19.54111671447753
 21
10.7542667388916
 31
0.0
  0
LINE
  5
1A8
330
A
100
AcDbEntity
  8
TOP
  6
CONTINUOUS
 62
     3
100
AcDbLine
 10
19.73217582702636
 20
5.642335414886474
 30
0.0
 11
19.76111793518066
 21
5.642335414886474
 31
0.0
  0
LINE
  5
1A9
330
A
100
AcDbEntity
  8
TOP
  6
CONTINUOUS
 62
     3
100
AcDbLine
 10
20.90519905090332
 20
8.909266471862792
 30
0.0
 11
20.88019943237304
 21
8.909266471862792
 31
0.0
  0
LINE
  5
1AA
330
A
100
AcDbEntity
  8
TOP
  6
CONTINUOUS
 62
     3
100
AcDbLine
 10
20.81769943237304
 20
8.969266891479492
 30
0.0
 11
20.81769943237304
 21
8.998208045959472
 31
0.0
  0
LINE
  5
1AB
330
A
100
AcDbEntity
  8
TOP
  6
CONTINUOUS
 62
     3
100
AcDbLine
 10
20.81769943237304
 20
11.46962165832519
 30
0.0
 11
20.81769943237304
 21
11.50239181518554
 31
0.0
  0
LINE
  5
1AC
330
A
100
AcDbEntity
  8
TOP
  6
CONTINUOUS
 62
     3
100
AcDbLine
 10
19.28859329223632
 20
8.909266471862792
 30
0.0
 11
19.70111846923828
 21
8.909266471862792
 31
0.0
  0
LINE
  5
1AD
330
A
100
AcDbEntity
  8
TOP
  6
CONTINUOUS
 62
     3
100
AcDbLine
 10
21.69063186645507
 20
8.969266891479492
 30
0.0
 11
21.69519996643066
 21
8.969266891479492
 31
0.0
  0
LINE
  5
1AE
330
A
100
AcDbEntity
  8
TOP
  6
CONTINUOUS
 62
     3
100
AcDbLine
 10
20.75769996643066
 20
14.88333511352539
 30
0.0
 11
20.75769996643066
 21
14.89530277252197
 31
0.0
  0
LINE
  5
1AF
330
A
100
AcDbEntity
  8
TOP
  6
CONTINUOUS
 62
     3
100
AcDbLine
 10
21.65816116333008
 20
15.8792667388916
 30
0.0
 11
21.67762565612793
 21
15.8792667388916
 31
0.0
  0
LINE
  5
1B0
330
A
100
AcDbEntity
  8
TOP
  6
CONTINUOUS
 62
     3
100
AcDbLine
 10
19.54111671447753
 20
14.53426647186279
 30
0.0
 11
19.42111778259277
 21
14.53426647186279
 31
0.0
  0
LINE
  5
1B1
330
A
100
AcDbEntity
  8
TOP
  6
CONTINUOUS
 62
     3
100
AcDbLine
 10
20.75769996643066
 20
15.0689115524292
 30
0.0
 11
20.75769996643066
 21
15.0987958908081
 31
0.0
  0
LINE
  5
1B2
330
A
100
AcDbEntity
  8
TOP
  6
CONTINUOUS
 62
     3
100
AcDbLine
 10
20.75769996643066
 20
9.848795890808105
 30
0.0
 11
20.75769996643066
 21
9.87405776977539
 31
0.0
  0
LINE
  5
1B3
330
A
100
AcDbEntity
  8
TOP
  6
CONTINUOUS
 62
     3
100
AcDbLine
 10
21.19519996643066
 20
8.909266471862792
 30
0.0
 11
21.19063186645508
 21
8.909266471862792
 31
0.0
  0
LINE
  5
1B4
330
A
100
AcDbEntity
  8
TOP
  6
CONTINUOUS
 62
     3
100
AcDbLine
 10
20.81769943237304
 20
14.89530277252197
 30
0.0
 11
20.81769943237304
 21
14.914475440979
 31
0.0
  0
LINE
  5
1B5
330
A
100
AcDbEntity
  8
TOP
  6
CONTINUOUS
 62
     3
100
AcDbLine
 10
20.92815971374511
 20
15.8792667388916
 30
0.0
 11
20.9476261138916
 21
15.8792667388916
 31
0.0
  0
LINE
  5
1B6
330
A
100
AcDbEntity
  8
TOP
  6
CONTINUOUS
 62
     3
100
AcDbLine
 10
20.81769943237304
 20
9.664475440979003
 30
0.0
 11
20.81769943237304
 21
9.689737319946289
 31
0.0
  0
LINE
  5
1B7
330
A
100
AcDbEntity
  8
TOP
  6
CONTINUOUS
 62
     3
100
AcDbLine
 10
19.38111686706543
 20
9.629266738891601
 30
0.0
 11
19.82111740112304
 21
9.629266738891601
 31
0.0
  0
LINE
  5
1B8
330
A
100
AcDbEntity
  8
TOP
  6
CONTINUOUS
 62
     3
100
AcDbLine
 10
19.14297676086425
 20
5.702285289764404
 30
0.0
 11
19.12465667724609
 21
5.701574802398681
 31
0.0
  0
LINE
  5
1B9
330
A
100
AcDbEntity
  8
TOP
  6
CONTINUOUS
 62
     3
100
AcDbLine
 10
20.81769943237304
 20
9.87405776977539
 30
0.0
 11
20.81769943237304
 21
9.893230438232421
 31
0.0
  0
LINE
  5
1BA
330
A
100
AcDbEntity
  8
TOP
  6
CONTINUOUS
 62
     3
100
AcDbLine
 10
20.81769943237304
 20
13.164475440979
 30
0.0
 11
20.81769943237304
 21
13.18973731994629
 31
0.0
  0
LINE
  5
1BB
330
A
100
AcDbEntity
  8
TOP
  6
CONTINUOUS
 62
     3
100
AcDbLine
 10
1.541117548942565
 20
8.944381713867187
 30
0.0
 11
1.541117548942565
 21
8.969266891479492
 31
0.0
  0
LINE
  5
1BC
330
A
100
AcDbEntity
  8
TOP
  6
CONTINUOUS
 62
     3
100
AcDbLine
 10
1.221117615699768
 20
14.03426647186279
 30
0.0
 11
1.101117610931396
 21
14.03426647186279
 31
0.0
  0
LINE
  5
1BD
330
A
100
AcDbEntity
  8
TOP
  6
CONTINUOUS
 62
     3
100
AcDbLine
 10
20.96976661682128
 20
8.909266471862792
 30
0.0
 11
20.9651985168457
 21
8.909266471862792
 31
0.0
  0
LINE
  5
1BE
330
A
100
AcDbEntity
  8
TOP
  6
CONTINUOUS
 62
     3
100
AcDbLine
 10
19.10708236694335
 20
5.632210254669189
 30
0.0
 11
19.1153392791748
 21
5.638794422149658
 31
0.0
  0
LINE
  5
1BF
330
A
100
AcDbEntity
  8
TOP
  6
CONTINUOUS
 62
     3
100
AcDbLine
 10
19.12465667724609
 20
9.018136978149414
 30
0.0
 11
19.11092376708984
 21
9.002877235412597
 31
0.0
  0
LINE
  5
1C0
330
A
100
AcDbEntity
  8
TOP
  6
CONTINUOUS
 62
     3
100
AcDbLine
 10
20.81769943237304
 20
11.38333511352539
 30
0.0
 11
20.81769943237304
 21
11.39530277252197
 31
0.0
  0
LINE
  5
1C1
330
A
100
AcDbEntity
  8
TOP
  6
CONTINUOUS
 62
     3
100
AcDbLine
 10
1.261117577552795
 20
11.3792667388916
 30
0.0
 11
0.8211175799369812
 21
11.3792667388916
 31
0.0
  0
LINE
  5
1C2
330
A
100
AcDbEntity
  8
TOP
  6
CONTINUOUS
 62
     3
100
AcDbLine
 10
19.19080543518066
 20
5.642335414886474
 30
0.0
 11
19.1688060760498
 21
5.642335414886474
 31
0.0
  0
LINE
  5
1C3
330
A
100
AcDbEntity
  8
TOP
  6
CONTINUOUS
 62
     3
100
AcDbLine
 10
21.19063186645508
 20
15.8792667388916
 30
0.0
 11
21.17762565612792
 21
15.8792667388916
 31
0.0
  0
LINE
  5
1C4
330
A
100
AcDbEntity
  8
TOP
  6
CONTINUOUS
 62
     3
100
AcDbLine
 10
20.75769996643066
 20
11.53614139556884
 30
0.0
 11
20.75769996643066
 21
11.56891155242919
 31
0.0
  0
LINE
  5
1C5
330
A
100
AcDbEntity
  8
TOP
  6
CONTINUOUS
 62
     3
100
AcDbLine
 10
19.24484252929687
 20
5.642335414886474
 30
0.0
 11
19.23121452331542
 21
5.642335414886474
 31
0.0
  0
LINE
  5
1C6
330
A
100
AcDbEntity
  8
TOP
  6
CONTINUOUS
 62
     3
100
AcDbLine
 10
20.84049606323242
 20
8.982192993164062
 30
0.0
 11
20.82782363891601
 21
8.995912551879882
 31
0.0
  0
LINE
  5
1C7
330
A
100
AcDbEntity
  8
TOP
  6
CONTINUOUS
 62
     3
100
AcDbLine
 10
19.70111846923828
 20
5.642335414886474
 30
0.0
 11
19.70111846923828
 21
5.702335357666015
 31
0.0
  0
LINE
  5
1C8
330
A
100
AcDbEntity
  8
TOP
  6
CONTINUOUS
 62
     3
100
AcDbLine
 10
19.23121452331542
 20
5.702335357666015
 30
0.0
 11
19.22610473632812
 21
5.702335357666015
 31
0.0
  0
LINE
  5
1C9
330
A
100
AcDbEntity
  8
TOP
  6
CONTINUOUS
 62
     3
100
AcDbLine
 10
21.25519943237304
 20
15.8192663192749
 30
0.0
 11
21.25519943237304
 21
15.8792667388916
 31
0.0
  0
LINE
  5
1CA
330
A
100
AcDbEntity
  8
TOP
  6
CONTINUOUS
 62
     3
100
AcDbLine
 10
20.75769996643066
 20
8.909266471862792
 30
0.0
 11
20.75769996643066
 21
8.913355827331542
 31
0.0
  0
LINE
  5
1CB
330
A
100
AcDbEntity
  8
TOP
  6
CONTINUOUS
 62
     3
100
AcDbLine
 10
19.42111778259277
 20
10.2542667388916
 30
0.0
 11
19.54111671447753
 21
10.2542667388916
 31
0.0
  0
LINE
  5
1CC
330
A
100
AcDbEntity
  8
TOP
  6
CONTINUOUS
 62
     3
100
AcDbLine
 10
20.81769943237304
 20
13.21962165832519
 30
0.0
 11
20.81769943237304
 21
13.25239181518554
 31
0.0
  0
LINE
  5
1CD
330
A
100
AcDbEntity
  8
TOP
  6
CONTINUOUS
 62
     3
100
AcDbLine
 10
20.87295532226562
 20
15.81907844543457
 30
0.0
 11
20.87769889831542
 21
15.8192663192749
 31
0.0
  0
LINE
  5
1CE
330
A
100
AcDbEntity
  8
TOP
  6
CONTINUOUS
 62
     3
100
AcDbLine
 10
21.21277236938476
 20
15.8192663192749
 30
0.0
 11
21.23223876953125
 21
15.8192663192749
 31
0.0
  0
LINE
  5
1CF
330
A
100
AcDbEntity
  8
TOP
  6
CONTINUOUS
 62
     3
100
AcDbLine
 10
20.81769943237304
 20
8.913355827331542
 30
0.0
 11
20.81769943237304
 21
8.925343513488769
 31
0.0
  0
LINE
  5
1D0
330
A
100
AcDbEntity
  8
TOP
  6
CONTINUOUS
 62
     3
100
AcDbLine
 10
21.63519859313964
 20
8.969266891479492
 30
0.0
 11
21.65816116333008
 21
8.969266891479492
 31
0.0
  0
LINE
  5
1D1
330
A
100
AcDbEntity
  8
TOP
  6
CONTINUOUS
 62
     3
100
AcDbLine
 10
1.515606999397277
 20
5.701734542846679
 30
0.0
 11
1.497888445854187
 21
5.702297687530517
 31
0.0
  0
LINE
  5
1D2
330
A
100
AcDbEntity
  8
TOP
  6
CONTINUOUS
 62
     3
100
AcDbLine
 10
19.42111778259277
 20
13.7542667388916
 30
0.0
 11
19.54111671447753
 21
13.7542667388916
 31
0.0
  0
LINE
  5
1D3
330
A
100
AcDbEntity
  8
TOP
  6
CONTINUOUS
 62
     3
100
AcDbLine
 10
0.8562647700309753
 20
5.642335414886474
 30
0.0
 11
0.8811175823211669
 21
5.642335414886474
 31
0.0
  0
LINE
  5
1D4
330
A
100
AcDbEntity
  8
TOP
  6
CONTINUOUS
 62
     3
100
AcDbLine
 10
19.22149658203125
 20
5.642335414886474
 30
0.0
 11
19.20918464660644
 21
5.642335414886474
 31
0.0
  0
LINE
  5
1D5
330
A
100
AcDbEntity
  8
TOP
  6
CONTINUOUS
 62
     3
100
AcDbLine
 10
20.75769996643066
 20
9.752391815185546
 30
0.0
 11
20.75769996643066
 21
9.786141395568847
 31
0.0
  0
LINE
  5
1D6
330
A
100
AcDbEntity
  8
TOP
  6
CONTINUOUS
 62
     3
100
AcDbLine
 10
20.81769943237304
 20
11.65926647186279
 30
0.0
 11
20.81769943237304
 21
13.1292667388916
 31
0.0
  0
LINE
  5
1D7
330
A
100
AcDbEntity
  8
TOP
  6
CONTINUOUS
 62
     3
100
AcDbLine
 10
1.397392630577087
 20
5.702335357666015
 30
0.0
 11
1.411019802093505
 21
5.702335357666015
 31
0.0
  0
LINE
  5
1D8
330
A
100
AcDbEntity
  8
TOP
  6
CONTINUOUS
 62
     3
100
AcDbLine
 10
20.75769996643066
 20
14.8792667388916
 30
0.0
 11
20.75769996643066
 21
13.40926647186279
 31
0.0
  0
LINE
  5
1D9
330
A
100
AcDbEntity
  8
TOP
  6
CONTINUOUS
 62
     3
100
AcDbLine
 10
21.23223876953125
 20
8.969266891479492
 30
0.0
 11
21.25519943237304
 21
8.969266891479492
 31
0.0
  0
LINE
  5
1DA
330
A
100
AcDbEntity
  8
TOP
  6
CONTINUOUS
 62
     3
100
AcDbLine
 10
20.75769996643066
 20
15.155198097229
 30
0.0
 11
20.75769996643066
 21
15.15926647186279
 31
0.0
  0
LINE
  5
1DB
330
A
100
AcDbEntity
  8
TOP
  6
CONTINUOUS
 62
     3
100
AcDbLine
 10
20.81769943237304
 20
9.786141395568847
 30
0.0
 11
20.81769943237304
 21
9.818911552429199
 31
0.0
  0
LINE
  5
1DC
330
A
100
AcDbEntity
  8
TOP
  6
CONTINUOUS
 62
     3
100
AcDbLine
 10
20.81769943237304
 20
13.1292667388916
 30
0.0
 11
20.81769943237304
 21
13.13333511352539
 31
0.0
  0
LINE
  5
1DD
330
A
100
AcDbEntity
  8
TOP
  6
CONTINUOUS
 62
     3
100
AcDbLine
 10
1.541117548942565
 20
8.909266471862792
 30
0.0
 11
1.541117548942565
 21
8.913347244262695
 31
0.0
  0
LINE
  5
1DE
330
A
100
AcDbEntity
  8
TOP
  6
CONTINUOUS
 62
     3
100
AcDbLine
 10
21.02519989013671
 20
8.909266471862792
 30
0.0
 11
21.00223922729492
 21
8.909266471862792
 31
0.0
  0
LINE
  5
1DF
330
A
100
AcDbEntity
  8
TOP
  6
CONTINUOUS
 62
     3
100
AcDbLine
 10
19.10111808776855
 20
5.582335472106933
 30
0.0
 11
19.10120582580566
 21
5.60203742980957
 31
0.0
  0
LINE
  5
1E0
330
A
100
AcDbEntity
  8
TOP
  6
CONTINUOUS
 62
     3
100
AcDbLine
 10
20.96976661682128
 20
15.8792667388916
 30
0.0
 11
20.9651985168457
 21
15.8792667388916
 31
0.0
  0
LINE
  5
1E1
330
A
100
AcDbEntity
  8
TOP
  6
CONTINUOUS
 62
     3
100
AcDbLine
 10
20.75769996643066
 20
11.64323043823242
 30
0.0
 11
20.75769996643066
 21
11.655198097229
 31
0.0
  0
LINE
  5
1E2
330
A
100
AcDbEntity
  8
TOP
  6
CONTINUOUS
 62
     3
100
AcDbLine
 10
0.8211175799369812
 20
11.65926647186279
 30
0.0
 11
0.8211175799369812
 21
13.1292667388916
 31
0.0
  0
LINE
  5
1E3
330
A
100
AcDbEntity
  8
TOP
  6
CONTINUOUS
 62
     3
100
AcDbLine
 10
1.353642582893371
 20
5.642335414886474
 30
0.0
 11
0.9411175847053527
 21
5.642335414886474
 31
0.0
  0
LINE
  5
1E4
330
A
100
AcDbEntity
  8
TOP
  6
CONTINUOUS
 62
     3
100
AcDbLine
 10
19.82111740112304
 20
15.75926685333252
 30
0.0
 11
19.82111740112304
 21
15.15926647186279
 31
0.0
  0
LINE
  5
1E5
330
A
100
AcDbEntity
  8
TOP
  6
CONTINUOUS
 62
     3
100
AcDbLine
 10
21.02519989013671
 20
15.8192663192749
 30
0.0
 11
21.13519859313965
 21
15.8192663192749
 31
0.0
  0
LINE
  5
1E6
330
A
100
AcDbEntity
  8
TOP
  6
CONTINUOUS
 62
     3
100
AcDbLine
 10
20.75769996643066
 20
11.43973731994629
 30
0.0
 11
20.75769996643066
 21
11.46962165832519
 31
0.0
  0
LINE
  5
1E7
330
A
100
AcDbEntity
  8
TOP
  6
CONTINUOUS
 62
     3
100
AcDbLine
 10
20.87769889831542
 20
8.969266891479492
 30
0.0
 11
20.81769943237304
 21
8.969266891479492
 31
0.0
  0
LINE
  5
1E8
330
A
100
AcDbEntity
  8
TOP
  6
CONTINUOUS
 62
     3
100
AcDbLine
 10
20.90519905090332
 20
8.969266891479492
 30
0.0
 11
20.92815971374511
 21
8.969266891479492
 31
0.0
  0
LINE
  5
1E9
330
A
100
AcDbEntity
  8
TOP
  6
CONTINUOUS
 62
     3
100
AcDbLine
 10
20.81769943237304
 20
15.84411907196044
 30
0.0
 11
20.81769943237304
 21
15.86318969726562
 31
0.0
  0
LINE
  5
1EA
330
A
100
AcDbEntity
  8
TOP
  6
CONTINUOUS
 62
     3
100
AcDbLine
 10
1.478617548942565
 20
5.702335357666015
 30
0.0
 11
19.16361808776855
 21
5.702335357666015
 31
0.0
  0
LINE
  5
1EB
330
A
100
AcDbEntity
  8
TOP
  6
CONTINUOUS
 62
     3
100
AcDbLine
 10
19.42111778259277
 20
9.004266738891601
 30
0.0
 11
19.54111671447753
 21
9.004266738891601
 31
0.0
  0
LINE
  5
1EC
330
A
100
AcDbEntity
  8
TOP
  6
CONTINUOUS
 62
     3
100
AcDbLine
 10
1.927117586135864
 20
15.11926651000976
 30
0.0
 11
2.777117490768432
 21
15.11926651000976
 31
0.0
  0
LINE
  5
1ED
330
A
100
AcDbEntity
  8
TOP
  6
CONTINUOUS
 62
     3
100
AcDbLine
 10
1.497888445854187
 20
9.028721809387207
 30
0.0
 11
1.478617548942565
 21
9.031766891479492
 31
0.0
  0
LINE
  5
1EE
330
A
100
AcDbEntity
  8
TOP
  6
CONTINUOUS
 62
     3
100
AcDbLine
 10
20.75769996643066
 20
15.03614139556884
 30
0.0
 11
20.75769996643066
 21
15.0689115524292
 31
0.0
  0
LINE
  5
1EF
330
A
100
AcDbEntity
  8
TOP
  6
CONTINUOUS
 62
     3
100
AcDbLine
 10
19.78597068786621
 20
5.642335414886474
 30
0.0
 11
19.80504035949707
 21
5.642335414886474
 31
0.0
  0
LINE
  5
1F0
330
A
100
AcDbEntity
  8
TOP
  6
CONTINUOUS
 62
     3
100
AcDbLine
 10
20.75769996643066
 20
8.969266891479492
 30
0.0
 11
20.75769996643066
 21
8.998208045959472
 31
0.0
  0
LINE
  5
1F1
330
A
100
AcDbEntity
  8
TOP
  6
CONTINUOUS
 62
     3
100
AcDbLine
 10
20.81769943237304
 20
9.848795890808105
 30
0.0
 11
20.81769943237304
 21
9.87405776977539
 31
0.0
  0
LINE
  5
1F2
330
A
100
AcDbEntity
  8
TOP
  6
CONTINUOUS
 62
     3
100
AcDbLine
 10
21.65816116333008
 20
8.909266471862792
 30
0.0
 11
21.67762565612793
 21
8.909266471862792
 31
0.0
  0
LINE
  5
1F3
330
A
100
AcDbEntity
  8
TOP
  6
CONTINUOUS
 62
     3
100
AcDbLine
 10
20.81769943237304
 20
13.405198097229
 30
0.0
 11
20.81769943237304
 21
13.40926647186279
 31
0.0
  0
LINE
  5
1F4
330
A
100
AcDbEntity
  8
TOP
  6
CONTINUOUS
 62
     3
100
AcDbLine
 10
19.54111671447753
 20
12.78426647186279
 30
0.0
 11
19.42111778259277
 21
12.78426647186279
 31
0.0
  0
LINE
  5
1F5
330
A
100
AcDbEntity
  8
TOP
  6
CONTINUOUS
 62
     3
100
AcDbLine
 10
21.67762565612793
 20
15.8792667388916
 30
0.0
 11
21.69063186645507
 21
15.8792667388916
 31
0.0
  0
LINE
  5
1F6
330
A
100
AcDbEntity
  8
TOP
  6
CONTINUOUS
 62
     3
100
AcDbLine
 10
20.75769996643066
 20
15.86318969726562
 30
0.0
 11
20.75769996643066
 21
15.87517738342285
 31
0.0
  0
LINE
  5
1F7
330
A
100
AcDbEntity
  8
TOP
  6
CONTINUOUS
 62
     3
100
AcDbLine
 10
21.19519996643066
 20
15.8792667388916
 30
0.0
 11
21.19063186645508
 21
15.8792667388916
 31
0.0
  0
LINE
  5
1F8
330
A
100
AcDbEntity
  8
TOP
  6
CONTINUOUS
 62
     3
100
AcDbLine
 10
20.75769996643066
 20
13.37405776977539
 30
0.0
 11
20.75769996643066
 21
13.39323043823242
 31
0.0
  0
LINE
  5
1F9
330
A
100
AcDbEntity
  8
TOP
  6
CONTINUOUS
 62
     3
100
AcDbLine
 10
19.22610473632812
 20
5.642335414886474
 30
0.0
 11
19.22610473632812
 21
5.702335357666015
 31
0.0
  0
LINE
  5
1FA
330
A
100
AcDbEntity
  8
TOP
  6
CONTINUOUS
 62
     3
100
AcDbLine
 10
19.22099494934082
 20
5.702335357666015
 30
0.0
 11
19.20736694335937
 21
5.702335357666015
 31
0.0
  0
LINE
  5
1FB
330
A
100
AcDbEntity
  8
TOP
  6
CONTINUOUS
 62
     3
100
AcDbLine
 10
19.10111808776855
 20
8.909266471862792
 30
0.0
 11
1.541117548942565
 21
8.909266471862792
 31
0.0
  0
LINE
  5
1FC
330
A
100
AcDbEntity
  8
TOP
  6
CONTINUOUS
 62
     3
100
AcDbLine
 10
20.81769943237304
 20
14.8792667388916
 30
0.0
 11
20.75769996643066
 21
14.8792667388916
 31
0.0
  0
LINE
  5
1FD
330
A
100
AcDbEntity
  8
TOP
  6
CONTINUOUS
 62
     3
100
AcDbLine
 10
19.76111793518066
 20
5.642335414886474
 30
0.0
 11
19.78597068786621
 21
5.642335414886474
 31
0.0
  0
LINE
  5
1FE
330
A
100
AcDbEntity
  8
TOP
  6
CONTINUOUS
 62
     3
100
AcDbLine
 10
19.1688060760498
 20
5.642335414886474
 30
0.0
 11
19.1461181640625
 21
5.642335414886474
 31
0.0
  0
LINE
  5
1FF
330
A
100
AcDbEntity
  8
TOP
  6
CONTINUOUS
 62
     3
100
AcDbLine
 10
1.513924479484558
 20
5.641740798950195
 30
0.0
 11
1.528083324432373
 21
5.638236045837402
 31
0.0
  0
LINE
  5
200
330
A
100
AcDbEntity
  8
TOP
  6
CONTINUOUS
 62
     3
100
AcDbLine
 10
19.28859329223632
 20
5.642335414886474
 30
0.0
 11
19.26496315002441
 21
5.642335414886474
 31
0.0
  0
LINE
  5
201
330
A
100
AcDbEntity
  8
TOP
  6
CONTINUOUS
 62
     3
100
AcDbLine
 10
19.10111808776855
 20
5.640457153320312
 30
0.0
 11
19.10111808776855
 21
5.611190795898437
 31
0.0
  0
LINE
  5
202
330
A
100
AcDbEntity
  8
TOP
  6
CONTINUOUS
 62
     3
100
AcDbLine
 10
1.541117548942565
 20
5.579835414886474
 30
0.0
 11
1.541117548942565
 21
5.611190795898437
 31
0.0
  0
LINE
  5
203
330
A
100
AcDbEntity
  8
TOP
  6
CONTINUOUS
 62
     3
100
AcDbLine
 10
20.75769996643066
 20
15.79032516479492
 30
0.0
 11
20.75769996643066
 21
15.8192663192749
 31
0.0
  0
LINE
  5
204
330
A
100
AcDbEntity
  8
TOP
  6
CONTINUOUS
 62
     3
100
AcDbLine
 10
20.75769996643066
 20
15.00239181518554
 30
0.0
 11
20.75769996643066
 21
15.03614139556884
 31
0.0
  0
LINE
  5
205
330
A
100
AcDbEntity
  8
TOP
  6
CONTINUOUS
 62
     3
100
AcDbLine
 10
20.81769943237304
 20
13.37405776977539
 30
0.0
 11
20.81769943237304
 21
13.39323043823242
 31
0.0
  0
LINE
  5
206
330
A
100
AcDbEntity
  8
TOP
  6
CONTINUOUS
 62
     3
100
AcDbLine
 10
20.8184642791748
 20
9.019721984863281
 30
0.0
 11
20.81771278381347
 21
9.027998924255371
 31
0.0
  0
LINE
  5
207
330
A
100
AcDbEntity
  8
TOP
  6
CONTINUOUS
 62
     3
100
AcDbLine
 10
20.90519905090332
 20
8.969266891479492
 30
0.0
 11
20.87769889831542
 21
8.969266891479492
 31
0.0
  0
LINE
  5
208
330
A
100
AcDbEntity
  8
TOP
  6
CONTINUOUS
 62
     3
100
AcDbLine
 10
1.416130065917968
 20
5.702335357666015
 30
0.0
 11
1.421240329742431
 21
5.702335357666015
 31
0.0
  0
LINE
  5
209
330
A
100
AcDbEntity
  8
TOP
  6
CONTINUOUS
 62
     3
100
AcDbLine
 10
21.21277236938476
 20
15.8792667388916
 30
0.0
 11
21.23223876953125
 21
15.8792667388916
 31
0.0
  0
LINE
  5
20A
330
A
100
AcDbEntity
  8
TOP
  6
CONTINUOUS
 62
     3
100
AcDbLine
 10
1.421240329742431
 20
5.702335357666015
 30
0.0
 11
1.434867620468139
 21
5.702335357666015
 31
0.0
  0
LINE
  5
20B
330
A
100
AcDbEntity
  8
TOP
  6
CONTINUOUS
 62
     3
100
AcDbLine
 10
20.75769996643066
 20
15.84411907196044
 30
0.0
 11
20.75769996643066
 21
15.86318969726562
 31
0.0
  0
LINE
  5
20C
330
A
100
AcDbEntity
  8
TOP
  6
CONTINUOUS
 62
     3
100
AcDbLine
 10
1.35364282131195
 20
15.8792667388916
 30
0.0
 11
0.9411175847053527
 21
15.8792667388916
 31
0.0
  0
LINE
  5
20D
330
A
100
AcDbEntity
  8
TOP
  6
CONTINUOUS
 62
     3
100
AcDbLine
 10
20.81769943237304
 20
15.86318969726562
 30
0.0
 11
20.81769943237304
 21
15.87517738342285
 31
0.0
  0
LINE
  5
20E
330
A
100
AcDbEntity
  8
TOP
  6
CONTINUOUS
 62
     3
100
AcDbLine
 10
20.75769996643066
 20
13.14530277252197
 30
0.0
 11
20.75769996643066
 21
13.164475440979
 31
0.0
  0
LINE
  5
20F
330
A
100
AcDbEntity
  8
TOP
  6
CONTINUOUS
 62
     3
100
AcDbLine
 10
1.540945529937744
 20
5.605458736419677
 30
0.0
 11
1.541117310523986
 21
5.587079048156738
 31
0.0
  0
LINE
  5
210
330
A
100
AcDbEntity
  8
TOP
  6
CONTINUOUS
 62
     3
100
AcDbLine
 10
19.76111793518066
 20
5.702335357666015
 30
0.0
 11
19.78597068786621
 21
5.702335357666015
 31
0.0
  0
LINE
  5
211
330
A
100
AcDbEntity
  8
TOP
  6
CONTINUOUS
 62
     3
100
AcDbLine
 10
17.86511802673339
 20
12.66926670074463
 30
0.0
 11
18.71511840820312
 21
12.66926670074463
 31
0.0
  0
LINE
  5
212
330
A
100
AcDbEntity
  8
TOP
  6
CONTINUOUS
 62
     3
100
AcDbLine
 10
1.528083324432373
 20
5.638236045837402
 30
0.0
 11
1.536178588867187
 21
5.630597114562988
 31
0.0
  0
LINE
  5
213
330
A
100
AcDbEntity
  8
TOP
  6
CONTINUOUS
 62
     3
100
AcDbLine
 10
20.90519905090332
 20
15.8192663192749
 30
0.0
 11
20.90519905090332
 21
15.8792667388916
 31
0.0
  0
LINE
  5
214
330
A
100
AcDbEntity
  8
TOP
  6
CONTINUOUS
 62
     3
100
AcDbLine
 10
20.81829452514648
 20
15.7676944732666
 30
0.0
 11
20.82179832458496
 21
15.78106498718261
 31
0.0
  0
LINE
  5
215
330
A
100
AcDbEntity
  8
TOP
  6
CONTINUOUS
 62
     3
100
AcDbLine
 10
20.96063232421875
 20
8.969266891479492
 30
0.0
 11
20.9651985168457
 21
8.969266891479492
 31
0.0
  0
LINE
  5
216
330
A
100
AcDbEntity
  8
TOP
  6
CONTINUOUS
 62
     3
100
AcDbLine
 10
19.10111808776855
 20
5.611190795898437
 30
0.0
 11
19.10111808776855
 21
5.579835414886474
 31
0.0
  0
LINE
  5
217
330
A
100
AcDbEntity
  8
TOP
  6
CONTINUOUS
 62
     3
100
AcDbLine
 10
20.81769943237304
 20
15.75926685333252
 30
0.0
 11
20.81769943237304
 21
15.15926647186279
 31
0.0
  0
LINE
  5
218
330
A
100
AcDbEntity
  8
TOP
  6
CONTINUOUS
 62
     3
100
AcDbLine
 10
20.98277282714843
 20
15.8192663192749
 30
0.0
 11
20.96976661682128
 21
15.8192663192749
 31
0.0
  0
LINE
  5
219
330
A
100
AcDbEntity
  8
TOP
  6
CONTINUOUS
 62
     3
100
AcDbLine
 10
1.454988837242126
 20
5.702335357666015
 30
0.0
 11
1.478617548942565
 21
5.702335357666015
 31
0.0
  0
LINE
  5
21A
330
A
100
AcDbEntity
  8
TOP
  6
CONTINUOUS
 62
     3
100
AcDbLine
 10
20.85457611083984
 20
15.81463146209716
 30
0.0
 11
20.87295532226562
 21
15.81907844543457
 31
0.0
  0
LINE
  5
21B
330
A
100
AcDbEntity
  8
TOP
  6
CONTINUOUS
 62
     3
100
AcDbLine
 10
20.75769996643066
 20
15.12405776977539
 30
0.0
 11
20.75769996643066
 21
15.14323043823242
 31
0.0
  0
LINE
  5
21C
330
A
100
AcDbEntity
  8
TOP
  6
CONTINUOUS
 62
     3
100
AcDbLine
 10
19.10111808776855
 20
8.925318717956542
 30
0.0
 11
19.10111808776855
 21
8.913347244262695
 31
0.0
  0
LINE
  5
21D
330
A
100
AcDbEntity
  8
TOP
  6
CONTINUOUS
 62
     3
100
AcDbLine
 10
19.00111770629882
 20
5.494835376739501
 30
0.0
 11
19.04111671447753
 21
5.494835376739501
 31
0.0
  0
LINE
  5
21E
330
A
100
AcDbEntity
  8
TOP
  6
CONTINUOUS
 62
     3
100
AcDbLine
 10
1.531310677528381
 20
15.78565597534179
 30
0.0
 11
1.538978815078735
 21
15.80305576324462
 31
0.0
  0
LINE
  5
21F
330
A
100
AcDbEntity
  8
TOP
  6
CONTINUOUS
 62
     3
100
AcDbLine
 10
19.22610473632812
 20
5.702335357666015
 30
0.0
 11
19.22099494934082
 21
5.702335357666015
 31
0.0
  0
LINE
  5
220
330
A
100
AcDbEntity
  8
TOP
  6
CONTINUOUS
 62
     3
100
AcDbLine
 10
20.81769943237304
 20
15.14323043823242
 30
0.0
 11
20.81769943237304
 21
15.155198097229
 31
0.0
  0
ARC
  5
221
330
A
100
AcDbEntity
  8
TOP
  6
CONTINUOUS
 62
     3
100
AcDbCircle
 10
1.221117615699768
 20
10.39426612854003
 30
0.0
 40
0.1400000005960464
100
AcDbArc
 50
270.0
 51
450.0
  0
ARC
  5
222
330
A
100
AcDbEntity
  8
TOP
  6
CONTINUOUS
 62
     3
100
AcDbCircle
 10
1.927117586135864
 20
12.99426651000976
 30
0.0
 40
0.324999988079071
100
AcDbArc
 50
90.0
 51
270.0
  0
ARC
  5
223
330
A
100
AcDbEntity
  8
TOP
  6
CONTINUOUS
 62
     3
100
AcDbCircle
 10
19.54111671447753
 20
10.39426612854003
 30
0.0
 40
0.1400000005960464
100
AcDbArc
 50
270.0
 51
450.0
  0
CIRCLE
  5
224
330
A
100
AcDbEntity
  8
TOP
  6
CONTINUOUS
 62
     3
100
AcDbCircle
 10
8.789617538452148
 20
13.89426612854004
 30
0.0
 40
0.0974999964237213
  0
ARC
  5
225
330
A
100
AcDbEntity
  8
TOP
  6
CONTINUOUS
 62
     3
100
AcDbCircle
 10
1.101117610931396
 20
15.64426612854004
 30
0.0
 40
0.1400000005960464
100
AcDbArc
 50
90.0
 51
270.0
  0
ARC
  5
226
330
A
100
AcDbEntity
  8
TOP
  6
CONTINUOUS
 62
     3
100
AcDbCircle
 10
1.101117610931396
 20
9.144266128540039
 30
0.0
 40
0.1400000005960464
100
AcDbArc
 50
90.0
 51
270.0
  0
ARC
  5
227
330
A
100
AcDbEntity
  8
TOP
  6
CONTINUOUS
 62
     3
100
AcDbCircle
 10
1.261117577552795
 20
15.01926612854004
 30
0.0
 40
0.1400000005960464
100
AcDbArc
 50
270.0
 51
450.0
  0
ARC
  5
228
330
A
100
AcDbEntity
  8
TOP
  6
CONTINUOUS
 62
     3
100
AcDbCircle
 10
19.38111686706543
 20
13.26926612854004
 30
0.0
 40
0.1400000005960464
100
AcDbArc
 50
90.0
 51
270.0
  0
ARC
  5
229
330
A
100
AcDbEntity
  8
TOP
  6
CONTINUOUS
 62
     3
100
AcDbCircle
 10
1.261117577552795
 20
9.769266128540039
 30
0.0
 40
0.1400000005960464
100
AcDbArc
 50
270.0
 51
450.0
  0
ARC
  5
22A
330
A
100
AcDbEntity
  8
TOP
  6
CONTINUOUS
 62
     3
100
AcDbCircle
 10
1.353642582893371
 20
8.971766471862792
 30
0.0
 40
0.0625
100
AcDbArc
 50
270.0
 51
358.8540080121118
  0
ARC
  5
22B
330
A
100
AcDbEntity
  8
TOP
  6
CONTINUOUS
 62
     3
100
AcDbCircle
 10
1.221117615699768
 20
12.64426612854004
 30
0.0
 40
0.1400000005960464
100
AcDbArc
 50
270.0
 51
450.0
  0
ARC
  5
22C
330
A
100
AcDbEntity
  8
TOP
  6
CONTINUOUS
 62
     3
100
AcDbCircle
 10
19.54111671447753
 20
15.64426612854004
 30
0.0
 40
0.1400000005960464
100
AcDbArc
 50
270.0
 51
450.0
  0
CIRCLE
  5
22D
330
A
100
AcDbEntity
  8
TOP
  6
CONTINUOUS
 62
     3
100
AcDbCircle
 10
2.539617538452148
 20
13.89426612854004
 30
0.0
 40
0.0974999964237213
  0
ARC
  5
22E
330
A
100
AcDbEntity
  8
TOP
  6
CONTINUOUS
 62
     3
100
AcDbCircle
 10
20.88019943237304
 20
9.031766891479492
 30
0.0
 40
0.1225000023841858
100
AcDbArc
 50
239.3228129140178
 51
270.0
  0
CIRCLE
  5
22F
330
A
100
AcDbEntity
  8
TOP
  6
CONTINUOUS
 62
     3
100
AcDbCircle
 10
8.789617538452148
 20
9.944266319274902
 30
0.0
 40
0.0974999964237213
  0
ARC
  5
230
330
A
100
AcDbEntity
  8
TOP
  6
CONTINUOUS
 62
     3
100
AcDbCircle
 10
19.42111778259277
 20
14.39426612854004
 30
0.0
 40
0.1400000005960464
100
AcDbArc
 50
90.0
 51
270.0
  0
CIRCLE
  5
231
330
A
100
AcDbEntity
  8
TOP
  6
CONTINUOUS
 62
     3
100
AcDbCircle
 10
11.85261726379394
 20
9.944266319274902
 30
0.0
 40
0.0974999964237213
  0
ARC
  5
232
330
A
100
AcDbEntity
  8
TOP
  6
CONTINUOUS
 62
     3
100
AcDbCircle
 10
1.101117610931396
 20
14.39426612854004
 30
0.0
 40
0.1400000005960464
100
AcDbArc
 50
90.0
 51
270.0
  0
ARC
  5
233
330
A
100
AcDbEntity
  8
TOP
  6
CONTINUOUS
 62
     3
100
AcDbCircle
 10
1.261117577552795
 20
11.51926612854003
 30
0.0
 40
0.1400000005960464
100
AcDbArc
 50
270.0
 51
450.0
  0
ARC
  5
234
330
A
100
AcDbEntity
  8
TOP
  6
CONTINUOUS
 62
     3
100
AcDbCircle
 10
1.221117615699768
 20
15.64426612854004
 30
0.0
 40
0.1400000005960464
100
AcDbArc
 50
270.0
 51
450.0
  0
CIRCLE
  5
235
330
A
100
AcDbEntity
  8
TOP
  6
CONTINUOUS
 62
     3
100
AcDbCircle
 10
17.45261764526367
 20
10.84426689147949
 30
0.0
 40
0.0974999964237213
  0
CIRCLE
  5
236
330
A
100
AcDbEntity
  8
TOP
  6
CONTINUOUS
 62
     3
100
AcDbCircle
 10
11.85261726379394
 20
10.84426689147949
 30
0.0
 40
0.0974999964237213
  0
ARC
  5
237
330
A
100
AcDbEntity
  8
TOP
  6
CONTINUOUS
 62
     3
100
AcDbCircle
 10
2.777117490768432
 20
14.79426670074462
 30
0.0
 40
0.324999988079071
100
AcDbArc
 50
270.0
 51
450.0
  0
ARC
  5
238
330
A
100
AcDbEntity
  8
TOP
  6
CONTINUOUS
 62
     3
100
AcDbCircle
 10
1.35364282131195
 20
15.8167667388916
 30
0.0
 40
0.0625
100
AcDbArc
 50
1.145991987888102
 51
90.0
  0
ARC
  5
239
330
A
100
AcDbEntity
  8
TOP
  6
CONTINUOUS
 62
     3
100
AcDbCircle
 10
19.54111671447753
 20
13.89426612854004
 30
0.0
 40
0.1400000005960464
100
AcDbArc
 50
270.0
 51
450.0
  0
ARC
  5
23A
330
A
100
AcDbEntity
  8
TOP
  6
CONTINUOUS
 62
     3
100
AcDbCircle
 10
19.28859329223632
 20
8.971766471862792
 30
0.0
 40
0.0625
100
AcDbArc
 50
181.145991987888
 51
270.0
  0
ARC
  5
23B
330
A
100
AcDbEntity
  8
TOP
  6
CONTINUOUS
 62
     3
100
AcDbCircle
 10
2.777117490768432
 20
12.99426651000976
 30
0.0
 40
0.324999988079071
100
AcDbArc
 50
270.0
 51
450.0
  0
ARC
  5
23C
330
A
100
AcDbEntity
  8
TOP
  6
CONTINUOUS
 62
     3
100
AcDbCircle
 10
19.42111778259277
 20
12.14426612854003
 30
0.0
 40
0.1400000005960464
100
AcDbArc
 50
90.0
 51
270.0
  0
ARC
  5
23D
330
A
100
AcDbEntity
  8
TOP
  6
CONTINUOUS
 62
     3
100
AcDbCircle
 10
19.42111778259277
 20
12.64426612854004
 30
0.0
 40
0.1400000005960464
100
AcDbArc
 50
90.0
 51
270.0
  0
ARC
  5
23E
330
A
100
AcDbEntity
  8
TOP
  6
CONTINUOUS
 62
     3
100
AcDbCircle
 10
2.261117458343505
 20
5.204835414886474
 30
0.0
 40
0.0599999986588955
100
AcDbArc
 50
0.0
 51
90.0
  0
ARC
  5
23F
330
A
100
AcDbEntity
  8
TOP
  6
CONTINUOUS
 62
     3
100
AcDbCircle
 10
1.478617787361145
 20
15.8192663192749
 30
0.0
 40
0.0625
100
AcDbArc
 50
181.145991987888
 51
270.0
  0
ARC
  5
240
330
A
100
AcDbEntity
  8
TOP
  6
CONTINUOUS
 62
     3
100
AcDbCircle
 10
19.54111671447753
 20
9.144266128540039
 30
0.0
 40
0.1400000005960464
100
AcDbArc
 50
270.0
 51
450.0
  0
ARC
  5
241
330
A
100
AcDbEntity
  8
TOP
  6
CONTINUOUS
 62
     3
100
AcDbCircle
 10
18.26111793518066
 20
4.824835777282714
 30
0.0
 40
0.0599999986588955
100
AcDbArc
 50
270.0
 51
360.0
  0
ARC
  5
242
330
A
100
AcDbEntity
  8
TOP
  6
CONTINUOUS
 62
     3
100
AcDbCircle
 10
19.54111671447753
 20
12.14426612854003
 30
0.0
 40
0.1400000005960464
100
AcDbArc
 50
270.0
 51
450.0
  0
ARC
  5
243
330
A
100
AcDbEntity
  8
TOP
  6
CONTINUOUS
 62
     3
100
AcDbCircle
 10
1.601117610931396
 20
5.554835796356201
 30
0.0
 40
0.0599999986588955
100
AcDbArc
 50
180.0
 51
270.0
  0
ARC
  5
244
330
A
100
AcDbEntity
  8
TOP
  6
CONTINUOUS
 62
     3
100
AcDbCircle
 10
19.16361808776855
 20
8.969266891479492
 30
0.0
 40
0.0625
100
AcDbArc
 50
1.145991987888102
 51
90.0
  0
CIRCLE
  5
245
330
A
100
AcDbEntity
  8
TOP
  6
CONTINUOUS
 62
     3
100
AcDbCircle
 10
18.10261726379394
 20
13.89426612854004
 30
0.0
 40
0.0974999964237213
  0
CIRCLE
  5
246
330
A
100
AcDbEntity
  8
TOP
  6
CONTINUOUS
 62
     3
100
AcDbCircle
 10
3.18961763381958
 20
9.944266319274902
 30
0.0
 40
0.0974999964237213
  0
ARC
  5
247
330
A
100
AcDbEntity
  8
TOP
  6
CONTINUOUS
 62
     3
100
AcDbCircle
 10
19.70111846923828
 20
9.029266357421875
 30
0.0
 40
0.119999997317791
100
AcDbArc
 50
270.0
 51
360.0
  0
ARC
  5
248
330
A
100
AcDbEntity
  8
TOP
  6
CONTINUOUS
 62
     3
100
AcDbCircle
 10
9.146117210388183
 20
14.79426670074462
 30
0.0
 40
0.324999988079071
100
AcDbArc
 50
90.0
 51
270.0
  0
ARC
  5
249
330
A
100
AcDbEntity
  8
TOP
  6
CONTINUOUS
 62
     3
100
AcDbCircle
 10
18.71511840820312
 20
14.79426670074462
 30
0.0
 40
0.324999988079071
100
AcDbArc
 50
270.0
 51
450.0
  0
ARC
  5
24A
330
A
100
AcDbEntity
  8
TOP
  6
CONTINUOUS
 62
     3
100
AcDbCircle
 10
19.42111778259277
 20
10.89426612854003
 30
0.0
 40
0.1400000005960464
100
AcDbArc
 50
90.0
 51
270.0
  0
ARC
  5
24B
330
A
100
AcDbEntity
  8
TOP
  6
CONTINUOUS
 62
     3
100
AcDbCircle
 10
19.38111686706543
 20
9.769266128540039
 30
0.0
 40
0.1400000005960464
100
AcDbArc
 50
90.0
 51
270.0
  0
ARC
  5
24C
330
A
100
AcDbEntity
  8
TOP
  6
CONTINUOUS
 62
     3
100
AcDbCircle
 10
19.42111778259277
 20
10.39426612854003
 30
0.0
 40
0.1400000005960464
100
AcDbArc
 50
90.0
 51
270.0
  0
ARC
  5
24D
330
A
100
AcDbEntity
  8
TOP
  6
CONTINUOUS
 62
     3
100
AcDbCircle
 10
0.9411175847053527
 20
15.75926685333252
 30
0.0
 40
0.119999997317791
100
AcDbArc
 50
90.0
 51
180.0
  0
ARC
  5
24E
330
A
100
AcDbEntity
  8
TOP
  6
CONTINUOUS
 62
     3
100
AcDbCircle
 10
1.221117615699768
 20
9.144266128540039
 30
0.0
 40
0.1400000005960464
100
AcDbArc
 50
270.0
 51
450.0
  0
ARC
  5
24F
330
A
100
AcDbEntity
  8
TOP
  6
CONTINUOUS
 62
     3
100
AcDbCircle
 10
19.70111846923828
 20
15.75926685333252
 30
0.0
 40
0.119999997317791
100
AcDbArc
 50
0.0
 51
90.0
  0
ARC
  5
250
330
A
100
AcDbEntity
  8
TOP
  6
CONTINUOUS
 62
     3
100
AcDbCircle
 10
19.42111778259277
 20
9.144266128540039
 30
0.0
 40
0.1400000005960464
100
AcDbArc
 50
90.0
 51
270.0
  0
ARC
  5
251
330
A
100
AcDbEntity
  8
TOP
  6
CONTINUOUS
 62
     3
100
AcDbCircle
 10
19.42111778259277
 20
13.89426612854004
 30
0.0
 40
0.1400000005960464
100
AcDbArc
 50
90.0
 51
270.0
  0
CIRCLE
  5
252
330
A
100
AcDbEntity
  8
TOP
  6
CONTINUOUS
 62
     3
100
AcDbCircle
 10
8.789617538452148
 20
10.84426689147949
 30
0.0
 40
0.0974999964237213
  0
ARC
  5
253
330
A
100
AcDbEntity
  8
TOP
  6
CONTINUOUS
 62
     3
100
AcDbCircle
 10
20.88019943237304
 20
15.7567663192749
 30
0.0
 40
0.1225000023841858
100
AcDbArc
 50
90.0
 51
120.6771870859821
  0
ARC
  5
254
330
A
100
AcDbEntity
  8
TOP
  6
CONTINUOUS
 62
     3
100
AcDbCircle
 10
1.261117577552795
 20
13.26926612854004
 30
0.0
 40
0.1400000005960464
100
AcDbArc
 50
270.0
 51
450.0
  0
ARC
  5
255
330
A
100
AcDbEntity
  8
TOP
  6
CONTINUOUS
 62
     3
100
AcDbCircle
 10
19.38111686706543
 20
15.01926612854004
 30
0.0
 40
0.1400000005960464
100
AcDbArc
 50
90.0
 51
270.0
  0
ARC
  5
256
330
A
100
AcDbEntity
  8
TOP
  6
CONTINUOUS
 62
     3
100
AcDbCircle
 10
1.927117586135864
 20
14.79426670074462
 30
0.0
 40
0.324999988079071
100
AcDbArc
 50
90.0
 51
270.0
  0
ARC
  5
257
330
A
100
AcDbEntity
  8
TOP
  6
CONTINUOUS
 62
     3
100
AcDbCircle
 10
19.54111671447753
 20
10.89426612854003
 30
0.0
 40
0.1400000005960464
100
AcDbArc
 50
270.0
 51
450.0
  0
ARC
  5
258
330
A
100
AcDbEntity
  8
TOP
  6
CONTINUOUS
 62
     3
100
AcDbCircle
 10
18.71511840820312
 20
12.99426651000976
 30
0.0
 40
0.324999988079071
100
AcDbArc
 50
270.0
 51
450.0
  0
ARC
  5
259
330
A
100
AcDbEntity
  8
TOP
  6
CONTINUOUS
 62
     3
100
AcDbCircle
 10
17.86511802673339
 20
14.79426670074462
 30
0.0
 40
0.324999988079071
100
AcDbArc
 50
90.0
 51
270.0
  0
CIRCLE
  5
25A
330
A
100
AcDbEntity
  8
TOP
  6
CONTINUOUS
 62
     3
100
AcDbCircle
 10
11.20261764526367
 20
13.89426612854004
 30
0.0
 40
0.0974999964237213
  0
ARC
  5
25B
330
A
100
AcDbEntity
  8
TOP
  6
CONTINUOUS
 62
     3
100
AcDbCircle
 10
1.101117610931396
 20
13.89426612854004
 30
0.0
 40
0.1400000005960464
100
AcDbArc
 50
90.0
 51
270.0
  0
ARC
  5
25C
330
A
100
AcDbEntity
  8
TOP
  6
CONTINUOUS
 62
     3
100
AcDbCircle
 10
0.9411175847053527
 20
9.029266357421875
 30
0.0
 40
0.119999997317791
100
AcDbArc
 50
180.0
 51
270.0
  0
ARC
  5
25D
330
A
100
AcDbEntity
  8
TOP
  6
CONTINUOUS
 62
     3
100
AcDbCircle
 10
19.16361808776855
 20
15.8192663192749
 30
0.0
 40
0.0625
100
AcDbArc
 50
270.0
 51
358.8540080121118
  0
ARC
  5
25E
330
A
100
AcDbEntity
  8
TOP
  6
CONTINUOUS
 62
     3
100
AcDbCircle
 10
11.49611759185791
 20
14.79426670074462
 30
0.0
 40
0.324999988079071
100
AcDbArc
 50
270.0
 51
450.0
  0
CIRCLE
  5
25F
330
A
100
AcDbEntity
  8
TOP
  6
CONTINUOUS
 62
     3
100
AcDbCircle
 10
3.18961763381958
 20
10.84426689147949
 30
0.0
 40
0.0974999964237213
  0
ARC
  5
260
330
A
100
AcDbEntity
  8
TOP
  6
CONTINUOUS
 62
     3
100
AcDbCircle
 10
1.101117610931396
 20
12.64426612854004
 30
0.0
 40
0.1400000005960464
100
AcDbArc
 50
90.0
 51
270.0
  0
ARC
  5
261
330
A
100
AcDbEntity
  8
TOP
  6
CONTINUOUS
 62
     3
100
AcDbCircle
 10
19.38111686706543
 20
11.51926612854003
 30
0.0
 40
0.1400000005960464
100
AcDbArc
 50
90.0
 51
270.0
  0
ARC
  5
262
330
A
100
AcDbEntity
  8
TOP
  6
CONTINUOUS
 62
     3
100
AcDbCircle
 10
1.221117615699768
 20
10.89426612854003
 30
0.0
 40
0.1400000005960464
100
AcDbArc
 50
270.0
 51
450.0
  0
CIRCLE
  5
263
330
A
100
AcDbEntity
  8
TOP
  6
CONTINUOUS
 62
     3
100
AcDbCircle
 10
3.18961763381958
 20
13.89426612854004
 30
0.0
 40
0.0974999964237213
  0
CIRCLE
  5
264
330
A
100
AcDbEntity
  8
TOP
  6
CONTINUOUS
 62
     3
100
AcDbCircle
 10
17.45261764526367
 20
9.944266319274902
 30
0.0
 40
0.0974999964237213
  0
ARC
  5
265
330
A
100
AcDbEntity
  8
TOP
  6
CONTINUOUS
 62
     3
100
AcDbCircle
 10
1.221117615699768
 20
12.14426612854003
 30
0.0
 40
0.1400000005960464
100
AcDbArc
 50
270.0
 51
450.0
  0
ARC
  5
266
330
A
100
AcDbEntity
  8
TOP
  6
CONTINUOUS
 62
     3
100
AcDbCircle
 10
17.86511802673339
 20
12.99426651000976
 30
0.0
 40
0.324999988079071
100
AcDbArc
 50
90.0
 51
270.0
  0
ARC
  5
267
330
A
100
AcDbEntity
  8
TOP
  6
CONTINUOUS
 62
     3
100
AcDbCircle
 10
19.42111778259277
 20
15.64426612854004
 30
0.0
 40
0.1400000005960464
100
AcDbArc
 50
90.0
 51
270.0
  0
ARC
  5
268
330
A
100
AcDbEntity
  8
TOP
  6
CONTINUOUS
 62
     3
100
AcDbCircle
 10
1.221117615699768
 20
14.39426612854004
 30
0.0
 40
0.1400000005960464
100
AcDbArc
 50
270.0
 51
450.0
  0
ARC
  5
269
330
A
100
AcDbEntity
  8
TOP
  6
CONTINUOUS
 62
     3
100
AcDbCircle
 10
1.641117572784423
 20
5.43483543395996
 30
0.0
 40
0.0599999986588955
100
AcDbArc
 50
0.0
 51
90.0
  0
ARC
  5
26A
330
A
100
AcDbEntity
  8
TOP
  6
CONTINUOUS
 62
     3
100
AcDbCircle
 10
19.28859329223632
 20
15.8167667388916
 30
0.0
 40
0.0625
100
AcDbArc
 50
90.0
 51
178.8540080121119
  0
ARC
  5
26B
330
A
100
AcDbEntity
  8
TOP
  6
CONTINUOUS
 62
     3
100
AcDbCircle
 10
18.88111686706543
 20
5.324835777282714
 30
0.0
 40
0.0599999986588955
100
AcDbArc
 50
270.0
 51
360.0
  0
ARC
  5
26C
330
A
100
AcDbEntity
  8
TOP
  6
CONTINUOUS
 62
     3
100
AcDbCircle
 10
19.54111671447753
 20
12.64426612854004
 30
0.0
 40
0.1400000005960464
100
AcDbArc
 50
270.0
 51
450.0
  0
ARC
  5
26D
330
A
100
AcDbEntity
  8
TOP
  6
CONTINUOUS
 62
     3
100
AcDbCircle
 10
11.49611759185791
 20
12.99426651000976
 30
0.0
 40
0.324999988079071
100
AcDbArc
 50
270.0
 51
450.0
  0
ARC
  5
26E
330
A
100
AcDbEntity
  8
TOP
  6
CONTINUOUS
 62
     3
100
AcDbCircle
 10
1.101117610931396
 20
12.14426612854003
 30
0.0
 40
0.1400000005960464
100
AcDbArc
 50
90.0
 51
270.0
  0
CIRCLE
  5
26F
330
A
100
AcDbEntity
  8
TOP
  6
CONTINUOUS
 62
     3
100
AcDbCircle
 10
17.45261764526367
 20
13.89426612854004
 30
0.0
 40
0.0974999964237213
  0
ARC
  5
270
330
A
100
AcDbEntity
  8
TOP
  6
CONTINUOUS
 62
     3
100
AcDbCircle
 10
19.00111770629882
 20
5.43483543395996
 30
0.0
 40
0.0599999986588955
100
AcDbArc
 50
90.0
 51
180.0
  0
ARC
  5
271
330
A
100
AcDbEntity
  8
TOP
  6
CONTINUOUS
 62
     3
100
AcDbCircle
 10
1.221117615699768
 20
13.89426612854004
 30
0.0
 40
0.1400000005960464
100
AcDbArc
 50
270.0
 51
450.0
  0
ARC
  5
272
330
A
100
AcDbEntity
  8
TOP
  6
CONTINUOUS
 62
     3
100
AcDbCircle
 10
1.478617548942565
 20
8.969266891479492
 30
0.0
 40
0.0625
100
AcDbArc
 50
90.0
 51
178.8540080121119
  0
ARC
  5
273
330
A
100
AcDbEntity
  8
TOP
  6
CONTINUOUS
 62
     3
100
AcDbCircle
 10
19.54111671447753
 20
14.39426612854004
 30
0.0
 40
0.1400000005960464
100
AcDbArc
 50
270.0
 51
450.0
  0
ARC
  5
274
330
A
100
AcDbEntity
  8
TOP
  6
CONTINUOUS
 62
     3
100
AcDbCircle
 10
19.04111671447753
 20
5.554835796356201
 30
0.0
 40
0.0599999986588955
100
AcDbArc
 50
270.0
 51
360.0
  0
ARC
  5
275
330
A
100
AcDbEntity
  8
TOP
  6
CONTINUOUS
 62
     3
100
AcDbCircle
 10
1.101117610931396
 20
10.89426612854003
 30
0.0
 40
0.1400000005960464
100
AcDbArc
 50
90.0
 51
270.0
  0
ARC
  5
276
330
A
100
AcDbEntity
  8
TOP
  6
CONTINUOUS
 62
     3
100
AcDbCircle
 10
18.38111686706543
 20
5.204835414886474
 30
0.0
 40
0.0599999986588955
100
AcDbArc
 50
90.0
 51
180.0
  0
ARC
  5
277
330
A
100
AcDbEntity
  8
TOP
  6
CONTINUOUS
 62
     3
100
AcDbCircle
 10
9.146117210388183
 20
12.99426651000976
 30
0.0
 40
0.324999988079071
100
AcDbArc
 50
90.0
 51
270.0
  0
ARC
  5
278
330
A
100
AcDbEntity
  8
TOP
  6
CONTINUOUS
 62
     3
100
AcDbCircle
 10
1.761117577552795
 20
5.324835777282714
 30
0.0
 40
0.0599999986588955
100
AcDbArc
 50
180.0
 51
270.0
  0
ARC
  5
279
330
A
100
AcDbEntity
  8
TOP
  6
CONTINUOUS
 62
     3
100
AcDbCircle
 10
2.381117343902587
 20
4.824835777282714
 30
0.0
 40
0.0599999986588955
100
AcDbArc
 50
180.0
 51
270.0
  0
CIRCLE
  5
27A
330
A
100
AcDbEntity
  8
TOP
  6
CONTINUOUS
 62
     3
100
AcDbCircle
 10
9.439617156982421
 20
13.89426612854004
 30
0.0
 40
0.0974999964237213
  0
ARC
  5
27B
330
A
100
AcDbEntity
  8
TOP
  6
CONTINUOUS
 62
     3
100
AcDbCircle
 10
1.101117610931396
 20
10.39426612854003
 30
0.0
 40
0.1400000005960464
100
AcDbArc
 50
90.0
 51
270.0
  0
CIRCLE
  5
27C
330
A
100
AcDbEntity
  8
TOP
  6
CONTINUOUS
 62
     3
100
AcDbCircle
 10
11.85261726379394
 20
13.89426612854004
 30
0.0
 40
0.0974999964237213
  0
VIEWPORT
  5
29B
330
B
100
AcDbEntity
 67
     1
  8
0
  6
CONTINUOUS
100
AcDbViewport
 10
3.6468788249694
 20
2.25
 30
0.0
 40
8.2937576499388
 41
5.5
 68
     1
 69
     1
1001
ACAD
1000
MVIEW
1002
{
1070
    16
1010
0.0
1020
0.0
1030
0.0
1010
0.0
1020
0.0
1030
1.0
1040
0.0
1040
5.5
1040
3.6468788249694
1040
2.25
1040
50.0
1040
0.0
1040
0.0
1070
     0
1070
   100
1070
     1
1070
     1
1070
     0
1070
     0
1070
     0
1070
     0
1040
0.0
1040
0.0
1040
0.0
1040
1.0
1040
1.0
1040
0.0
1040
0.0
1070
     0
1002
{
1002
}
1002
}
  0
ENDSEC
  0
SECTION
  2
OBJECTS
  0
DICTIONARY
  5
19
330
0
100
AcDbDictionary
  3
ACAD_GROUP
350
1A
  3
ACAD_MLINESTYLE
350
1B
  3
ACAD_LAYOUT
350
1E
  3
ACAD_PLOTSETTINGS
350
21
  3
ACAD_PLOTSTYLENAME
350
1F
  3
ACDBHEADERROUNDTRIPXREC
350
2A9
  0
DICTIONARY
  5
2CA
330
A
100
AcDbDictionary
280
     1
  3
ACAD_LAYOUTSELFREF
360
2CB
  0
DICTIONARY
  5
2CC
330
B
100
AcDbDictionary
280
     1
  3
ACAD_LAYOUTSELFREF
360
2CD
  0
DICTIONARY
  5
1A
102
{ACAD_REACTORS
330
19
102
}
330
19
100
AcDbDictionary
  0
DICTIONARY
  5
1B
102
{ACAD_REACTORS
330
19
102
}
330
19
100
AcDbDictionary
  3
STANDARD
350
1C
  0
DICTIONARY
  5
1E
102
{ACAD_REACTORS
330
19
102
}
330
19
100
AcDbDictionary
  0
DICTIONARY
  5
21
102
{ACAD_REACTORS
330
19
102
}
330
19
100
AcDbDictionary
  0
ACDBDICTIONARYWDFLT
  5
1F
102
{ACAD_REACTORS
330
19
102
}
330
19
100
AcDbDictionary
281
     1
  3
Normal
350
1D
100
AcDbDictionaryWithDefault
340
1D
  0
DICTIONARY
  5
2A9
102
{ACAD_REACTORS
330
19
102
}
330
19
100
AcDbDictionary
  3
TSTACKALIGN
350
2AA
  3
TSTACKSIZE
350
2AB
  3
HYPERLINKBASE
350
2AC
  3
STYLESHEET
350
2AD
  3
LAYOUTDICT
350
2AE
  3
PLOTSETDICT
350
2AF
  3
PLOTSTYLNAMDICT
350
2B0
  3
LWETCUNION
350
2B1
  3
INSUNITS
350
2B2
  3
CEPSNTYPE
350
2B3
  3
FINGERPRINTGUID
350
2B4
  3
VERSIONGUID
350
2B5
  3
PSVPSCALE
350
2B6
  3
DIMSTYLEDATA
350
2B7
  3
PUCSORTHOREF
350
2B8
  3
PUCSORTHOVIEW
350
2B9
  3
PUCSBASE
350
2BA
  3
PUCSORGTOP
350
2BB
  3
PUCSORGBOTTOM
350
2BC
  3
PUCSORGLEFT
350
2BD
  3
PUCSORGRIGHT
350
2BE
  3
PUCSORGFRONT
350
2BF
  3
PUCSORGBACK
350
2C0
  3
UCSORTHOREF
350
2C1
  3
UCSORTHOVIEW
350
2C2
  3
UCSBASE
350
2C3
  3
UCSORGTOP
350
2C4
  3
UCSORGBOTTOM
350
2C5
  3
UCSORGLEFT
350
2C6
  3
UCSORGRIGHT
350
2C7
  3
UCSORGFRONT
350
2C8
  3
UCSORGBACK
350
2C9
  0
XRECORD
  5
2CB
102
{ACAD_REACTORS
330
2CA
102
}
330
2CA
100
AcDbXrecord
340
A
  0
XRECORD
  5
2CD
102
{ACAD_REACTORS
330
2CC
102
}
330
2CC
100
AcDbXrecord
340
B
  0
MLINESTYLE
  5
1C
102
{ACAD_REACTORS
330
1B
102
}
330
1B
100
AcDbMlineStyle
  2
STANDARD
 70
     0
  3

 62
     0
 51
90.00000000000019
 52
90.00000000000019
 71
     2
 49
0.5
 62
   256
  6
BYLAYER
 49
-0.5
 62
   256
  6
BYLAYER
  0
ACDBPLACEHOLDER
  5
1D
102
{ACAD_REACTORS
330
1F
102
}
330
1F
100
AcDbPlaceHolder
280
     0
  0
XRECORD
  5
2AA
102
{ACAD_REACTORS
330
2A9
102
}
330
2A9
100
AcDbXrecord
 90
        0
  0
XRECORD
  5
2AB
102
{ACAD_REACTORS
330
2A9
102
}
330
2A9
100
AcDbXrecord
 90
        0
  0
XRECORD
  5
2AC
102
{ACAD_REACTORS
330
2A9
102
}
330
2A9
100
AcDbXrecord
  1

  0
XRECORD
  5
2AD
102
{ACAD_REACTORS
330
2A9
102
}
330
2A9
100
AcDbXrecord
  1

  0
XRECORD
  5
2AE
102
{ACAD_REACTORS
330
2A9
102
}
330
2A9
100
AcDbXrecord
340
1E
  0
XRECORD
  5
2AF
102
{ACAD_REACTORS
330
2A9
102
}
330
2A9
100
AcDbXrecord
340
21
  0
XRECORD
  5
2B0
102
{ACAD_REACTORS
330
2A9
102
}
330
2A9
100
AcDbXrecord
340
1F
  0
XRECORD
  5
2B1
102
{ACAD_REACTORS
330
2A9
102
}
330
2A9
100
AcDbXrecord
 90
    10752
  0
XRECORD
  5
2B2
102
{ACAD_REACTORS
330
2A9
102
}
330
2A9
100
AcDbXrecord
 90
        0
  0
XRECORD
  5
2B3
102
{ACAD_REACTORS
330
2A9
102
}
330
2A9
100
AcDbXrecord
 90
        0
  0
XRECORD
  5
2B4
102
{ACAD_REACTORS
330
2A9
102
}
330
2A9
100
AcDbXrecord
  1

  0
XRECORD
  5
2B5
102
{ACAD_REACTORS
330
2A9
102
}
330
2A9
100
AcDbXrecord
  1
{5FB7BFF3-9754-11D7-9E33-00B0D0207C84}
  0
XRECORD
  5
2B6
102
{ACAD_REACTORS
330
2A9
102
}
330
2A9
100
AcDbXrecord
 40
0.0
  0
XRECORD
  5
2B7
102
{ACAD_REACTORS
330
2A9
102
}
330
2A9
100
AcDbXrecord
1000
DSTYLE
1002
{
1070
   278
 70
     0
1070
   371
 70
     0
1070
   372
 70
     0
1002
}
  0
XRECORD
  5
2B8
102
{ACAD_REACTORS
330
2A9
102
}
330
2A9
100
AcDbXrecord
340
0
  0
XRECORD
  5
2B9
102
{ACAD_REACTORS
330
2A9
102
}
330
2A9
100
AcDbXrecord
 70
     0
  0
XRECORD
  5
2BA
102
{ACAD_REACTORS
330
2A9
102
}
330
2A9
100
AcDbXrecord
340
0
  0
XRECORD
  5
2BB
102
{ACAD_REACTORS
330
2A9
102
}
330
2A9
100
AcDbXrecord
 10
0.0
 20
0.0
 30
0.0
  0
XRECORD
  5
2BC
102
{ACAD_REACTORS
330
2A9
102
}
330
2A9
100
AcDbXrecord
 10
0.0
 20
0.0
 30
0.0
  0
XRECORD
  5
2BD
102
{ACAD_REACTORS
330
2A9
102
}
330
2A9
100
AcDbXrecord
 10
0.0
 20
0.0
 30
0.0
  0
XRECORD
  5
2BE
102
{ACAD_REACTORS
330
2A9
102
}
330
2A9
100
AcDbXrecord
 10
0.0
 20
0.0
 30
0.0
  0
XRECORD
  5
2BF
102
{ACAD_REACTORS
330
2A9
102
}
330
2A9
100
AcDbXrecord
 10
0.0
 20
0.0
 30
0.0
  0
XRECORD
  5
2C0
102
{ACAD_REACTORS
330
2A9
102
}
330
2A9
100
AcDbXrecord
 10
0.0
 20
0.0
 30
0.0
  0
XRECORD
  5
2C1
102
{ACAD_REACTORS
330
2A9
102
}
330
2A9
100
AcDbXrecord
340
0
  0
XRECORD
  5
2C2
102
{ACAD_REACTORS
330
2A9
102
}
330
2A9
100
AcDbXrecord
 70
     0
  0
XRECORD
  5
2C3
102
{ACAD_REACTORS
330
2A9
102
}
330
2A9
100
AcDbXrecord
340
0
  0
XRECORD
  5
2C4
102
{ACAD_REACTORS
330
2A9
102
}
330
2A9
100
AcDbXrecord
 10
0.0
 20
0.0
 30
0.0
  0
XRECORD
  5
2C5
102
{ACAD_REACTORS
330
2A9
102
}
330
2A9
100
AcDbXrecord
 10
0.0
 20
0.0
 30
0.0
  0
XRECORD
  5
2C6
102
{ACAD_REACTORS
330
2A9
102
}
330
2A9
100
AcDbXrecord
 10
0.0
 20
0.0
 30
0.0
  0
XRECORD
  5
2C7
102
{ACAD_REACTORS
330
2A9
102
}
330
2A9
100
AcDbXrecord
 10
0.0
 20
0.0
 30
0.0
  0
XRECORD
  5
2C8
102
{ACAD_REACTORS
330
2A9
102
}
330
2A9
100
AcDbXrecord
 10
0.0
 20
0.0
 30
0.0
  0
XRECORD
  5
2C9
102
{ACAD_REACTORS
330
2A9
102
}
330
2A9
100
AcDbXrecord
 10
0.0
 20
0.0
 30
0.0
  0
ENDSEC
  0
EOF
