  0
SECTION
  2
HEADER
  9
$ACADVER
  1
AC1014
  9
$ACADMAINTVER
 70
     9
  9
$DWGCODEPAGE
  3
ANSI_1252
  9
$INSBASE
 10
0.0
 20
0.0
 30
0.0
  9
$EXTMIN
 10
0.2384465485460683
 20
-0.9346855869123421
 30
0.0
  9
$EXTMAX
 10
24.30352184574052
 20
0.8626195109046868
 30
0.0
  9
$LIMMIN
 10
0.0
 20
0.0
  9
$LIMMAX
 10
12.0
 20
9.0
  9
$ORTHOMODE
 70
     0
  9
$REGENMODE
 70
     1
  9
$FILLMODE
 70
     1
  9
$QTEXTMODE
 70
     0
  9
$MIRRTEXT
 70
     1
  9
$DRAGMODE
 70
     2
  9
$LTSCALE
 40
0.1255195394175824
  9
$OSMODE
 70
    37
  9
$ATTMODE
 70
     1
  9
$TEXTSIZE
 40
0.2
  9
$TRACEWID
 40
0.05
  9
$TEXTSTYLE
  7
STANDARD
  9
$CLAYER
  8
0
  9
$CELTYPE
  6
BYLAYER
  9
$CECOLOR
 62
   256
  9
$CELTSCALE
 40
1.0
  9
$DELOBJ
 70
     1
  9
$DISPSILH
 70
     0
  9
$DIMSCALE
 40
1.0
  9
$DIMASZ
 40
0.18
  9
$DIMEXO
 40
0.0625
  9
$DIMDLI
 40
0.38
  9
$DIMRND
 40
0.0
  9
$DIMDLE
 40
0.0
  9
$DIMEXE
 40
0.18
  9
$DIMTP
 40
0.0
  9
$DIMTM
 40
0.0
  9
$DIMTXT
 40
0.18
  9
$DIMCEN
 40
0.09
  9
$DIMTSZ
 40
0.0
  9
$DIMTOL
 70
     0
  9
$DIMLIM
 70
     0
  9
$DIMTIH
 70
     1
  9
$DIMTOH
 70
     1
  9
$DIMSE1
 70
     0
  9
$DIMSE2
 70
     0
  9
$DIMTAD
 70
     0
  9
$DIMZIN
 70
     0
  9
$DIMBLK
  1

  9
$DIMASO
 70
     1
  9
$DIMSHO
 70
     1
  9
$DIMPOST
  1

  9
$DIMAPOST
  1

  9
$DIMALT
 70
     0
  9
$DIMALTD
 70
     2
  9
$DIMALTF
 40
25.4
  9
$DIMLFAC
 40
1.0
  9
$DIMTOFL
 70
     0
  9
$DIMTVP
 40
0.0
  9
$DIMTIX
 70
     0
  9
$DIMSOXD
 70
     0
  9
$DIMSAH
 70
     0
  9
$DIMBLK1
  1

  9
$DIMBLK2
  1

  9
$DIMSTYLE
  2
STANDARD
  9
$DIMCLRD
 70
     0
  9
$DIMCLRE
 70
     0
  9
$DIMCLRT
 70
     0
  9
$DIMTFAC
 40
1.0
  9
$DIMGAP
 40
0.09
  9
$DIMJUST
 70
     0
  9
$DIMSD1
 70
     0
  9
$DIMSD2
 70
     0
  9
$DIMTOLJ
 70
     1
  9
$DIMTZIN
 70
     0
  9
$DIMALTZ
 70
     0
  9
$DIMALTTZ
 70
     0
  9
$DIMFIT
 70
     3
  9
$DIMUPT
 70
     0
  9
$DIMUNIT
 70
     2
  9
$DIMDEC
 70
     4
  9
$DIMTDEC
 70
     4
  9
$DIMALTU
 70
     2
  9
$DIMALTTD
 70
     2
  9
$DIMTXSTY
  7
STANDARD
  9
$DIMAUNIT
 70
     0
  9
$LUNITS
 70
     2
  9
$LUPREC
 70
     4
  9
$SKETCHINC
 40
0.1
  9
$FILLETRAD
 40
0.0
  9
$AUNITS
 70
     0
  9
$AUPREC
 70
     0
  9
$MENU
  1
acad
  9
$ELEVATION
 40
0.0
  9
$PELEVATION
 40
0.0
  9
$THICKNESS
 40
0.0
  9
$LIMCHECK
 70
     0
  9
$BLIPMODE
 70
     0
  9
$CHAMFERA
 40
0.0
  9
$CHAMFERB
 40
0.0
  9
$CHAMFERC
 40
0.0
  9
$CHAMFERD
 40
0.0
  9
$SKPOLY
 70
     0
  9
$TDCREATE
 40
2451106.479866990
  9
$TDUPDATE
 40
2452866.567435798
  9
$TDINDWG
 40
0.0139260069
  9
$TDUSRTIMER
 40
0.0139260069
  9
$USRTIMER
 70
     1
  9
$ANGBASE
 50
0.0
  9
$ANGDIR
 70
     0
  9
$PDMODE
 70
     0
  9
$PDSIZE
 40
0.0
  9
$PLINEWID
 40
0.0
  9
$COORDS
 70
     1
  9
$SPLFRAME
 70
     0
  9
$SPLINETYPE
 70
     6
  9
$SPLINESEGS
 70
     8
  9
$ATTDIA
 70
     0
  9
$ATTREQ
 70
     1
  9
$HANDLING
 70
-16383
  9
$HANDSEED
  5
47E
  9
$SURFTAB1
 70
     6
  9
$SURFTAB2
 70
     6
  9
$SURFTYPE
 70
     6
  9
$SURFU
 70
     6
  9
$SURFV
 70
     6
  9
$UCSNAME
  2

  9
$UCSORG
 10
0.0
 20
0.0
 30
0.0
  9
$UCSXDIR
 10
1.0
 20
0.0
 30
0.0
  9
$UCSYDIR
 10
0.0
 20
1.0
 30
0.0
  9
$PUCSNAME
  2

  9
$PUCSORG
 10
0.0
 20
0.0
 30
0.0
  9
$PUCSXDIR
 10
1.0
 20
0.0
 30
0.0
  9
$PUCSYDIR
 10
0.0
 20
1.0
 30
0.0
  9
$USERI1
 70
     0
  9
$USERI2
 70
     0
  9
$USERI3
 70
     0
  9
$USERI4
 70
     0
  9
$USERI5
 70
     0
  9
$USERR1
 40
0.0
  9
$USERR2
 40
0.0
  9
$USERR3
 40
0.0
  9
$USERR4
 40
0.0
  9
$USERR5
 40
0.0
  9
$WORLDVIEW
 70
     1
  9
$SHADEDGE
 70
     3
  9
$SHADEDIF
 70
    70
  9
$TILEMODE
 70
     1
  9
$MAXACTVP
 70
    16
  9
$PINSBASE
 10
0.0
 20
0.0
 30
0.0
  9
$PLIMCHECK
 70
     0
  9
$PEXTMIN
 10
1.000000000000000E+20
 20
1.000000000000000E+20
 30
1.000000000000000E+20
  9
$PEXTMAX
 10
-1.000000000000000E+20
 20
-1.000000000000000E+20
 30
-1.000000000000000E+20
  9
$PLIMMIN
 10
0.0
 20
0.0
  9
$PLIMMAX
 10
12.0
 20
9.0
  9
$UNITMODE
 70
     0
  9
$VISRETAIN
 70
     0
  9
$PLINEGEN
 70
     0
  9
$PSLTSCALE
 70
     1
  9
$TREEDEPTH
 70
  3020
  9
$PICKSTYLE
 70
     1
  9
$CMLSTYLE
  2
STANDARD
  9
$CMLJUST
 70
     0
  9
$CMLSCALE
 40
1.0
  9
$PROXYGRAPHICS
 70
     1
  9
$MEASUREMENT
 70
     0
  0
ENDSEC
  0
SECTION
  2
CLASSES
  0
CLASS
  1
ACDBDICTIONARYWDFLT
  2
AcDbDictionaryWithDefault
  3
AutoCAD 2000
 90
        0
280
     0
281
     0
  0
CLASS
  1
ACDBPLACEHOLDER
  2
AcDbPlaceHolder
  3
AutoCAD 2000
 90
        0
280
     0
281
     0
  0
CLASS
  1
LAYOUT
  2
AcDbLayout
  3
AutoCAD 2000
 90
        0
280
     0
281
     0
  0
CLASS
  1
LONG_TRANSACTION
  2
AcDbLongTransaction
  3
AutoCAD 2000
 90
        0
280
     0
281
     0
  0
CLASS
  1
LWPOLYLINE
  2
AcDbPolyline
  3
AutoCAD 2000
 90
        0
280
     0
281
     1
  0
CLASS
  1
HATCH
  2
AcDbHatch
  3
AutoCAD 2000
 90
        0
280
     0
281
     1
  0
CLASS
  1
XRECORD
  2
AcDbXrecord
  3
AutoCAD 2000
 90
        0
280
     0
281
     0
  0
CLASS
  1
LONG_TRANSACTION
  2
AcDbLongTransaction
  3
AutoCAD 2000
 90
        0
280
     0
281
     0
  0
CLASS
  1
LWPOLYLINE
  2
AcDbPolyline
  3
AutoCAD 2000
 90
        0
280
     0
281
     1
  0
CLASS
  1
HATCH
  2
AcDbHatch
  3
AutoCAD 2000
 90
        0
280
     0
281
     1
  0
CLASS
  1
XRECORD
  2
AcDbXrecord
  3
AutoCAD 2000
 90
        0
280
     0
281
     0
  0
ENDSEC
  0
SECTION
  2
TABLES
  0
TABLE
  2
VPORT
  5
8
330
0
100
AcDbSymbolTable
 70
     2
  0
VPORT
  5
45B
330
8
100
AcDbSymbolTableRecord
100
AcDbViewportTableRecord
  2
*ACTIVE
 70
     0
 10
0.0
 20
0.0
 11
1.0
 21
1.0
 12
12.57012131290293
 22
-0.041776873923495
 13
0.0
 23
0.0
 14
1.0
 24
1.0
 15
0.0
 25
0.0
 16
0.0
 26
0.0
 36
1.0
 17
0.0
 27
0.0
 37
0.0
 40
18.23175313141484
 41
1.457711442786069
 42
50.0
 43
0.0
 44
0.0
 50
0.0
 51
0.0
 71
     0
 72
   100
 73
     1
 74
     1
 75
     0
 76
     0
 77
     0
 78
     0
  0
ENDTAB
  0
TABLE
  2
LTYPE
  5
5
330
0
100
AcDbSymbolTable
 70
     1
  0
LTYPE
  5
14
330
5
100
AcDbSymbolTableRecord
100
AcDbLinetypeTableRecord
  2
BYBLOCK
 70
     0
  3

 72
    65
 73
     0
 40
0.0
  0
LTYPE
  5
15
330
5
100
AcDbSymbolTableRecord
100
AcDbLinetypeTableRecord
  2
BYLAYER
 70
     0
  3

 72
    65
 73
     0
 40
0.0
  0
LTYPE
  5
16
330
5
100
AcDbSymbolTableRecord
100
AcDbLinetypeTableRecord
  2
CONTINUOUS
 70
     0
  3
Solid line
 72
    65
 73
     0
 40
0.0
  0
ENDTAB
  0
TABLE
  2
LAYER
  5
2
330
0
100
AcDbSymbolTable
 70
     4
  0
LAYER
  5
F
330
2
100
AcDbSymbolTableRecord
100
AcDbLayerTableRecord
  2
0
 70
     0
 62
     7
  6
CONTINUOUS
  0
LAYER
  5
28
330
2
100
AcDbSymbolTableRecord
100
AcDbLayerTableRecord
  2
IGES_FRZ
 70
     1
 62
     7
  6
CONTINUOUS
  0
LAYER
  5
2A
330
2
100
AcDbSymbolTableRecord
100
AcDbLayerTableRecord
  2
1
 70
     0
 62
     7
  6
CONTINUOUS
  0
LAYER
  5
2B
330
2
100
AcDbSymbolTableRecord
100
AcDbLayerTableRecord
  2
1_TOP
 70
     0
 62
     7
  6
CONTINUOUS
  0
ENDTAB
  0
TABLE
  2
STYLE
  5
3
330
0
100
AcDbSymbolTable
 70
     1
  0
STYLE
  5
10
330
3
100
AcDbSymbolTableRecord
100
AcDbTextStyleTableRecord
  2
STANDARD
 70
     0
 40
0.0
 41
1.0
 50
0.0
 71
     0
 42
0.2
  3
txt
  4

  0
ENDTAB
  0
TABLE
  2
VIEW
  5
6
330
0
100
AcDbSymbolTable
 70
     7
  0
VIEW
  5
40A
330
6
100
AcDbSymbolTableRecord
100
AcDbViewTableRecord
  2
FRONT
 70
     0
 40
10.02626162285044
 10
0.0
 20
0.0
 41
10.35310039370078
 11
0.0
 21
-1.0
 31
0.0
 12
0.0
 22
0.0
 32
0.0
 42
50.0
 43
7.206119099277562
 44
-7.206119099277562
 50
0.0
 71
    22
  0
VIEW
  5
40C
330
6
100
AcDbSymbolTableRecord
100
AcDbViewTableRecord
  2
RIGHT
 70
     0
 40
10.02626162285044
 10
0.0
 20
0.0
 41
10.02626162285044
 11
1.0
 21
0.0
 31
0.0
 12
0.0
 22
0.0
 32
0.0
 42
50.0
 43
7.08963758346799
 44
-7.08963758346799
 50
0.0
 71
    22
  0
VIEW
  5
40E
330
6
100
AcDbSymbolTableRecord
100
AcDbViewTableRecord
  2
BACK
 70
     0
 40
10.02626162285044
 10
0.0
 20
0.0
 41
10.35310039370078
 11
0.0
 21
1.0
 31
0.0
 12
0.0
 22
0.0
 32
0.0
 42
50.0
 43
7.206119099277562
 44
-7.206119099277562
 50
0.0
 71
    22
  0
VIEW
  5
410
330
6
100
AcDbSymbolTableRecord
100
AcDbViewTableRecord
  2
BOTTOM
 70
     0
 40
10.02626162285044
 10
0.0
 20
0.0
 41
10.35310039370078
 11
0.0
 21
0.0
 31
-1.0
 12
0.0
 22
0.0
 32
0.0
 42
50.0
 43
7.206119099277562
 44
-7.206119099277562
 50
180.0
 71
    22
  0
VIEW
  5
412
330
6
100
AcDbSymbolTableRecord
100
AcDbViewTableRecord
  2
LEFT
 70
     0
 40
10.02626162285044
 10
0.0
 20
0.0
 41
10.02626162285044
 11
-1.0
 21
0.0
 31
0.0
 12
0.0
 22
0.0
 32
0.0
 42
50.0
 43
7.08963758346799
 44
-7.08963758346799
 50
0.0
 71
    22
  0
VIEW
  5
414
330
6
100
AcDbSymbolTableRecord
100
AcDbViewTableRecord
  2
TFR-ISO
 70
     0
 40
16.50624803854549
 10
0.0
 20
0.0
 41
14.41038507815895
 11
0.577350269189626
 21
-0.577350269189626
 31
0.577350269189626
 12
0.0
 22
0.0
 32
0.0
 42
50.0
 43
10.95576814297848
 44
-10.95576814297848
 50
0.0
 71
    22
  0
VIEW
  5
416
330
6
100
AcDbSymbolTableRecord
100
AcDbViewTableRecord
  2
TFR-TRI
 70
     0
 40
14.68341633614009
 10
0.0
 20
0.0
 41
14.31148894890226
 11
0.7188730927569429
 21
-0.5850486126764431
 31
0.375419228750255
 12
0.0
 22
0.0
 32
0.0
 42
50.0
 43
10.2520904116548
 44
-10.2520904116548
 50
0.0000000000000095
 71
    22
  0
ENDTAB
  0
TABLE
  2
UCS
  5
7
330
0
100
AcDbSymbolTable
 70
     0
  0
ENDTAB
  0
TABLE
  2
APPID
  5
9
330
0
100
AcDbSymbolTable
 70
     2
  0
APPID
  5
11
330
9
100
AcDbSymbolTableRecord
100
AcDbRegAppTableRecord
  2
ACAD
 70
     0
  0
APPID
  5
29
330
9
100
AcDbSymbolTableRecord
100
AcDbRegAppTableRecord
  2
ACADIGES
 70
     0
  0
ENDTAB
  0
TABLE
  2
DIMSTYLE
  5
A
330
0
100
AcDbSymbolTable
 70
     1
  0
DIMSTYLE
105
1D
330
A
100
AcDbSymbolTableRecord
100
AcDbDimStyleTableRecord
  2
STANDARD
 70
     0
  3

  4

  5

  6

  7

 40
1.0
 41
0.18
 42
0.0625
 43
0.38
 44
0.18
 45
0.0
 46
0.0
 47
0.0
 48
0.0
140
0.18
141
0.09
142
0.0
143
25.4
144
1.0
145
0.0
146
1.0
147
0.09
 71
     0
 72
     0
 73
     1
 74
     1
 75
     0
 76
     0
 77
     0
 78
     0
170
     0
171
     2
172
     0
173
     0
174
     0
175
     0
176
     0
177
     0
178
     0
270
     2
271
     4
272
     4
273
     2
274
     2
340
10
275
     0
280
     0
281
     0
282
     0
283
     1
284
     0
285
     0
286
     0
287
     3
288
     0
  0
ENDTAB
  0
TABLE
  2
BLOCK_RECORD
  5
1
330
0
100
AcDbSymbolTable
 70
     1
  0
BLOCK_RECORD
  5
1A
102
{ACAD_XDICTIONARY
360
446
102
}
330
1
100
AcDbSymbolTableRecord
100
AcDbBlockTableRecord
  2
*MODEL_SPACE
  0
BLOCK_RECORD
  5
17
102
{ACAD_XDICTIONARY
360
444
102
}
330
1
100
AcDbSymbolTableRecord
100
AcDbBlockTableRecord
  2
*PAPER_SPACE
  0
BLOCK_RECORD
  5
3F3
330
1
100
AcDbSymbolTableRecord
100
AcDbBlockTableRecord
  2
DVIEWBLOCK
  0
ENDTAB
  0
ENDSEC
  0
SECTION
  2
BLOCKS
  0
BLOCK
  5
1B
330
1A
100
AcDbEntity
  8
0
100
AcDbBlockBegin
  2
*MODEL_SPACE
 70
     0
 10
0.0
 20
0.0
 30
0.0
  3
*MODEL_SPACE
  1

  0
ENDBLK
  5
1C
330
1A
100
AcDbEntity
  8
0
100
AcDbBlockEnd
  0
BLOCK
  5
18
330
17
100
AcDbEntity
 67
     1
  8
0
100
AcDbBlockBegin
  2
*PAPER_SPACE
 70
     0
 10
0.0
 20
0.0
 30
0.0
  3
*PAPER_SPACE
  1

  0
ENDBLK
  5
19
330
17
100
AcDbEntity
 67
     1
  8
0
100
AcDbBlockEnd
  0
BLOCK
  5
3F4
330
3F3
100
AcDbEntity
  8
0
100
AcDbBlockBegin
  2
DVIEWBLOCK
 70
     0
 10
0.0
 20
0.0
 30
0.0
  3
DVIEWBLOCK
  1

  0
3DFACE
  5
3F5
330
3F3
100
AcDbEntity
  8
IGES_FRZ
 62
     4
100
AcDbFace
 10
0.1
 20
0.1
 30
0.0
 11
0.9
 21
0.1
 31
0.0
 12
0.9
 22
0.9
 32
0.0
 13
0.1
 23
0.9
 33
0.0
  0
3DFACE
  5
3F6
330
3F3
100
AcDbEntity
  8
IGES_FRZ
 62
     4
100
AcDbFace
 10
0.1
 20
0.1
 30
0.0
 11
0.1
 21
0.1
 31
0.595
 12
0.2
 22
0.1
 32
0.4
 13
0.2
 23
0.1
 33
0.0
 70
    10
  0
3DFACE
  5
3F7
330
3F3
100
AcDbEntity
  8
IGES_FRZ
 62
     4
100
AcDbFace
 10
0.2
 20
0.1
 30
0.4
 11
0.1
 21
0.1
 31
0.595
 12
0.9
 22
0.1
 32
0.595
 13
0.4
 23
0.1
 33
0.4
 70
     5
  0
3DFACE
  5
3F8
330
3F3
100
AcDbEntity
  8
IGES_FRZ
 62
     4
100
AcDbFace
 10
0.4
 20
0.1
 30
0.0
 11
0.4
 21
0.1
 31
0.4
 12
0.9
 22
0.1
 32
0.595
 13
0.9
 23
0.1
 33
0.0
 70
    14
  0
3DFACE
  5
3F9
330
3F3
100
AcDbEntity
  8
IGES_FRZ
 62
     7
100
AcDbFace
 10
0.2
 20
0.1
 30
0.005
 11
0.2
 21
0.1
 31
0.4
 12
0.34
 22
0.24
 32
0.4
 13
0.34
 23
0.24
 33
0.005
 70
     1
  0
3DFACE
  5
3FA
330
3F3
100
AcDbEntity
  8
IGES_FRZ
 62
     4
100
AcDbFace
 10
0.9
 20
0.1
 30
0.0
 11
0.9
 21
0.1
 31
0.595
 12
0.9
 22
0.5
 32
0.9949999999999999
 13
0.9
 23
0.3
 33
0.4
 70
    12
  0
3DFACE
  5
3FB
330
3F3
100
AcDbEntity
  8
IGES_FRZ
 62
     4
100
AcDbFace
 10
0.9
 20
0.3
 30
0.4
 11
0.9
 21
0.5
 31
0.9949999999999999
 12
0.9
 22
0.9
 32
0.595
 13
0.9
 23
0.7000000000000001
 33
0.4
 70
     5
  0
3DFACE
  5
3FC
330
3F3
100
AcDbEntity
  8
IGES_FRZ
 62
     4
100
AcDbFace
 10
0.9
 20
0.7000000000000001
 30
0.4
 11
0.9
 21
0.9
 31
0.595
 12
0.9
 22
0.9
 32
0.0
 13
0.9
 23
0.7000000000000001
 33
0.2
 70
     7
  0
3DFACE
  5
3FD
330
3F3
100
AcDbEntity
  8
IGES_FRZ
 62
     4
100
AcDbFace
 10
0.9
 20
0.7000000000000001
 30
0.2
 11
0.9
 21
0.9
 31
0.0
 12
0.9
 22
0.1
 32
0.0
 13
0.9
 23
0.3
 33
0.2
 70
     7
  0
3DFACE
  5
3FE
330
3F3
100
AcDbEntity
  8
IGES_FRZ
 62
     4
100
AcDbFace
 10
0.9
 20
0.3
 30
0.2
 11
0.9
 21
0.3
 31
0.2
 12
0.9
 22
0.1
 32
0.0
 13
0.9
 23
0.3
 33
0.4
 70
     7
  0
3DFACE
  5
3FF
330
3F3
100
AcDbEntity
  8
IGES_FRZ
 62
     4
100
AcDbFace
 10
0.9
 20
0.9
 30
0.0
 11
0.9
 21
0.9
 31
0.595
 12
0.1
 22
0.9
 32
0.595
 13
0.1
 23
0.9
 33
0.0
 70
    12
  0
3DFACE
  5
400
330
3F3
100
AcDbEntity
  8
IGES_FRZ
 62
     4
100
AcDbFace
 10
0.1
 20
0.9
 30
0.0
 11
0.1
 21
0.9
 31
0.595
 12
0.1
 22
0.5
 32
0.9949999999999999
 13
0.1
 23
0.5
 33
0.0
 70
    12
  0
3DFACE
  5
401
330
3F3
100
AcDbEntity
  8
IGES_FRZ
 62
     4
100
AcDbFace
 10
0.1
 20
0.5
 30
0.0
 11
0.1
 21
0.5
 31
0.9949999999999999
 12
0.1
 22
0.1
 32
0.595
 13
0.1
 23
0.1
 33
0.0
 70
    13
  0
3DFACE
  5
402
330
3F3
100
AcDbEntity
  8
IGES_FRZ
 62
     1
100
AcDbFace
 10
0.2
 20
0.6
 30
0.9
 11
0.2
 21
0.6
 31
1.0
 12
0.3
 22
0.6
 32
1.0
 13
0.3
 23
0.6
 33
0.9
 70
     4
  0
3DFACE
  5
403
330
3F3
100
AcDbEntity
  8
IGES_FRZ
 62
     1
100
AcDbFace
 10
0.3
 20
0.6
 30
0.9
 11
0.3
 21
0.6
 31
1.0
 12
0.3
 22
0.7000000000000001
 32
1.0
 13
0.3
 23
0.7000000000000001
 33
0.8
 70
     4
  0
3DFACE
  5
404
330
3F3
100
AcDbEntity
  8
IGES_FRZ
 62
     1
100
AcDbFace
 10
0.3
 20
0.7000000000000001
 30
0.8
 11
0.3
 21
0.7000000000000001
 31
1.0
 12
0.2
 22
0.7000000000000001
 32
1.0
 13
0.2
 23
0.7000000000000001
 33
0.8
 70
     4
  0
3DFACE
  5
405
330
3F3
100
AcDbEntity
  8
IGES_FRZ
 62
     1
100
AcDbFace
 10
0.2
 20
0.7000000000000001
 30
0.8
 11
0.2
 21
0.7000000000000001
 31
1.0
 12
0.2
 22
0.6
 32
1.0
 13
0.2
 23
0.6
 33
0.9
 70
     4
  0
3DFACE
  5
406
330
3F3
100
AcDbEntity
  8
IGES_FRZ
 62
     4
100
AcDbFace
 10
0.0
 20
0.0
 30
0.5
 11
1.0
 21
0.0
 31
0.5
 12
1.0
 22
0.5
 32
1.0
 13
0.0
 23
0.5
 33
1.0
  0
3DFACE
  5
407
330
3F3
100
AcDbEntity
  8
IGES_FRZ
 62
     4
100
AcDbFace
 10
0.0
 20
0.5
 30
1.0
 11
1.0
 21
0.5
 31
1.0
 12
1.0
 22
1.0
 32
0.5
 13
0.0
 23
1.0
 33
0.5
 70
     1
  0
ENDBLK
  5
408
330
3F3
100
AcDbEntity
  8
0
100
AcDbBlockEnd
  0
ENDSEC
  0
SECTION
  2
ENTITIES
  0
LINE
  5
2D
330
1A
100
AcDbEntity
  8
1_TOP
  6
CONTINUOUS
 62
     7
100
AcDbLine
 10
24.24501098664736
 20
0.0248925022154067
 30
0.0
 11
24.24501098664736
 21
0.0658501035806094
 31
0.0
  0
LINE
  5
32
330
1A
100
AcDbEntity
  8
1_TOP
  6
CONTINUOUS
 62
     7
100
AcDbLine
 10
24.30352184574052
 20
-0.0745759582429624
 30
0.0
 11
24.30352184574052
 21
0.0248925022154067
 31
0.0
  0
LINE
  5
45
330
1A
100
AcDbEntity
  8
1_TOP
  6
CONTINUOUS
 62
     7
100
AcDbLine
 10
0.5247087102823773
 20
-0.7737807244061634
 30
0.0
 11
0.6505070573326598
 21
-0.7737807244061634
 31
0.0
  0
LINE
  5
7E
330
1A
100
AcDbEntity
  8
1_TOP
  6
CONTINUOUS
 62
     7
100
AcDbLine
 10
0.312606846069684
 20
-0.8688608704325361
 30
0.0
 11
19.18967276099882
 21
-0.8688608704325361
 31
0.0
  0
LINE
  5
9E
330
1A
100
AcDbEntity
  8
1_TOP
  6
CONTINUOUS
 62
     7
100
AcDbLine
 10
19.2511091630466
 20
-0.1491773035867369
 30
0.0
 11
18.81227771984794
 21
-0.1491773035867369
 31
0.0
  0
LINE
  5
A6
330
1A
100
AcDbEntity
  8
1_TOP
  6
CONTINUOUS
 62
     7
100
AcDbLine
 10
0.2511704440218747
 20
-0.8059616969073967
 30
0.0
 11
0.2511704440218747
 21
-0.1491773035867369
 31
0.0
  0
LINE
  5
B6
330
1A
100
AcDbEntity
  8
1_TOP
  6
CONTINUOUS
 62
     7
100
AcDbLine
 10
24.30352184574052
 20
0.7226344969012779
 30
0.0
 11
24.30352184574052
 21
0.0658501035806094
 31
0.0
  0
LINE
  5
BA
330
1A
100
AcDbEntity
  8
1_TOP
  6
CONTINUOUS
 62
     7
100
AcDbLine
 10
24.24501098664736
 20
0.7226344969012779
 30
0.0
 11
24.24501098664736
 21
0.766517641221144
 31
0.0
  0
LINE
  5
BF
330
1A
100
AcDbEntity
  8
1_TOP
  6
CONTINUOUS
 62
     7
100
AcDbLine
 10
24.30352184574052
 20
-0.9156695577070582
 30
0.0
 11
24.30352184574052
 21
-0.8717864133871909
 31
0.0
  0
LINE
  5
113
330
1A
100
AcDbEntity
  8
1_TOP
  6
CONTINUOUS
 62
     7
100
AcDbLine
 10
19.2511091630466
 20
-0.8059616969073967
 30
0.0
 11
19.2511091630466
 21
-0.1491773035867369
 31
0.0
  0
LINE
  5
13D
330
1A
100
AcDbEntity
  8
1_TOP
  6
CONTINUOUS
 62
     7
100
AcDbLine
 10
24.24501098664736
 20
0.7226344969012779
 30
0.0
 11
24.24501098664736
 21
0.0658501035806094
 31
0.0
  0
LINE
  5
142
330
1A
100
AcDbEntity
  8
1_TOP
  6
CONTINUOUS
 62
     7
100
AcDbLine
 10
24.24501098664736
 20
-0.0745759582429624
 30
0.0
 11
24.24501098664736
 21
0.0248925022154067
 31
0.0
  0
LINE
  5
148
330
1A
100
AcDbEntity
  8
1_TOP
  6
CONTINUOUS
 62
     7
100
AcDbLine
 10
24.30352184574052
 20
-0.1740444187013198
 30
0.0
 11
24.30352184574052
 21
-0.0745759582429624
 31
0.0
  0
LINE
  5
1BF
330
1A
100
AcDbEntity
  8
1_TOP
  6
CONTINUOUS
 62
     7
100
AcDbLine
 10
24.24501098664736
 20
0.7855336704264193
 30
0.0
 11
24.30352184574052
 21
0.7855336704264193
 31
0.0
  0
LINE
  5
1C3
330
1A
100
AcDbEntity
  8
1_TOP
  6
CONTINUOUS
 62
     7
100
AcDbLine
 10
24.24501098664736
 20
-0.9156695577070582
 30
0.0
 11
24.24501098664736
 21
-0.8717864133871909
 31
0.0
  0
LINE
  5
1C6
330
1A
100
AcDbEntity
  8
1_TOP
  6
CONTINUOUS
 62
     7
100
AcDbLine
 10
24.30352184574052
 20
-0.9346855869123421
 30
0.0
 11
24.30352184574052
 21
-0.9156695577070582
 31
0.0
  0
LINE
  5
1FB
330
1A
100
AcDbEntity
  8
1_TOP
  6
CONTINUOUS
 62
     7
100
AcDbLine
 10
18.97757089678606
 20
-0.7737807244061634
 30
0.0
 11
18.85177254973579
 21
-0.7737807244061634
 31
0.0
  0
LINE
  5
219
330
1A
100
AcDbEntity
  8
1_TOP
  6
CONTINUOUS
 62
     7
100
AcDbLine
 10
18.97757089678606
 20
0.4739633457553667
 30
0.0
 11
18.85177254973579
 21
0.4739633457553667
 31
0.0
  0
LINE
  5
24A
330
1A
100
AcDbEntity
  8
1_TOP
  6
CONTINUOUS
 62
     7
100
AcDbLine
 10
18.97757089678606
 20
0.7548154694025101
 30
0.0
 11
18.85177254973579
 21
0.7548154694025101
 31
0.0
  0
LINE
  5
24F
330
1A
100
AcDbEntity
  8
1_TOP
  6
CONTINUOUS
 62
     7
100
AcDbLine
 10
19.2511091630466
 20
0.7884592133810714
 30
0.0
 11
19.2511091630466
 21
0.1316748200604144
 31
0.0
  0
LINE
  5
251
330
1A
100
AcDbEntity
  8
1_TOP
  6
CONTINUOUS
 62
     7
100
AcDbLine
 10
0.312606846069684
 20
0.8513583869062127
 30
0.0
 11
19.18967276099882
 21
0.8513583869062127
 31
0.0
  0
LINE
  5
297
330
1A
100
AcDbEntity
  8
1_TOP
  6
CONTINUOUS
 62
     7
100
AcDbLine
 10
24.24501098664736
 20
-0.9346855869123421
 30
0.0
 11
24.30352184574052
 21
-0.9346855869123421
 31
0.0
  0
LINE
  5
2A6
330
1A
100
AcDbEntity
  8
1_TOP
  6
CONTINUOUS
 62
     7
100
AcDbLine
 10
0.5247087102823773
 20
0.4739633457553667
 30
0.0
 11
0.6505070573326598
 21
0.4739633457553667
 31
0.0
  0
LINE
  5
2C9
330
1A
100
AcDbEntity
  8
1_TOP
  6
CONTINUOUS
 62
     7
100
AcDbLine
 10
24.24501098664736
 20
-0.8717864133871909
 30
0.0
 11
24.24501098664736
 21
-0.2150020200665322
 31
0.0
  0
LINE
  5
2CC
330
1A
100
AcDbEntity
  8
1_TOP
  6
CONTINUOUS
 62
     7
100
AcDbLine
 10
24.24501098664736
 20
-0.1740444187013198
 30
0.0
 11
24.24501098664736
 21
-0.0745759582429624
 31
0.0
  0
LINE
  5
2D0
330
1A
100
AcDbEntity
  8
1_TOP
  6
CONTINUOUS
 62
     7
100
AcDbLine
 10
24.30352184574052
 20
-0.2150020200665322
 30
0.0
 11
24.30352184574052
 21
-0.1740444187013198
 31
0.0
  0
LINE
  5
2D4
330
1A
100
AcDbEntity
  8
1_TOP
  6
CONTINUOUS
 62
     7
100
AcDbLine
 10
24.30352184574052
 20
0.766517641221144
 30
0.0
 11
24.30352184574052
 21
0.7855336704264193
 31
0.0
  0
LINE
  5
342
330
1A
100
AcDbEntity
  8
1_TOP
  6
CONTINUOUS
 62
     7
100
AcDbLine
 10
0.2511704440218747
 20
-0.1491773035867369
 30
0.0
 11
0.6900018872205316
 21
-0.1491773035867369
 31
0.0
  0
LINE
  5
348
330
1A
100
AcDbEntity
  8
1_TOP
  6
CONTINUOUS
 62
     7
100
AcDbLine
 10
19.2511091630466
 20
0.1316748200604144
 30
0.0
 11
18.81227771984794
 21
0.1316748200604144
 31
0.0
  0
LINE
  5
350
330
1A
100
AcDbEntity
  8
1_TOP
  6
CONTINUOUS
 62
     7
100
AcDbLine
 10
24.30352184574052
 20
-0.8717864133871909
 30
0.0
 11
24.30352184574052
 21
-0.2150020200665322
 31
0.0
  0
LINE
  5
354
330
1A
100
AcDbEntity
  8
1_TOP
  6
CONTINUOUS
 62
     7
100
AcDbLine
 10
24.24501098664736
 20
-0.9346855869123421
 30
0.0
 11
24.24501098664736
 21
-0.9156695577070582
 31
0.0
  0
LINE
  5
358
330
1A
100
AcDbEntity
  8
1_TOP
  6
CONTINUOUS
 62
     7
100
AcDbLine
 10
24.30352184574052
 20
0.0248925022154067
 30
0.0
 11
24.30352184574052
 21
0.0658501035806094
 31
0.0
  0
LINE
  5
399
330
1A
100
AcDbEntity
  8
1_TOP
  6
CONTINUOUS
 62
     7
100
AcDbLine
 10
18.97757089678606
 20
-0.4943913722363451
 30
0.0
 11
18.85177254973579
 21
-0.4943913722363451
 31
0.0
  0
LINE
  5
3B5
330
1A
100
AcDbEntity
  8
1_TOP
  6
CONTINUOUS
 62
     7
100
AcDbLine
 10
0.5247087102823773
 20
0.7548154694025101
 30
0.0
 11
0.6505070573326598
 21
0.7548154694025101
 31
0.0
  0
LINE
  5
3C9
330
1A
100
AcDbEntity
  8
1_TOP
  6
CONTINUOUS
 62
     7
100
AcDbLine
 10
0.2511704440218747
 20
0.1316748200604144
 30
0.0
 11
0.6900018872205316
 21
0.1316748200604144
 31
0.0
  0
LINE
  5
3CB
330
1A
100
AcDbEntity
  8
1_TOP
  6
CONTINUOUS
 62
     7
100
AcDbLine
 10
0.2511704440218747
 20
0.7884592133810714
 30
0.0
 11
0.2511704440218747
 21
0.1316748200604144
 31
0.0
  0
LINE
  5
3DB
330
1A
100
AcDbEntity
  8
1_TOP
  6
CONTINUOUS
 62
     7
100
AcDbLine
 10
24.24501098664736
 20
-0.2150020200665322
 30
0.0
 11
24.24501098664736
 21
-0.1740444187013198
 31
0.0
  0
LINE
  5
3DE
330
1A
100
AcDbEntity
  8
1_TOP
  6
CONTINUOUS
 62
     7
100
AcDbLine
 10
24.24501098664736
 20
0.766517641221144
 30
0.0
 11
24.24501098664736
 21
0.7855336704264193
 31
0.0
  0
LINE
  5
3E2
330
1A
100
AcDbEntity
  8
1_TOP
  6
CONTINUOUS
 62
     7
100
AcDbLine
 10
0.5247087102823773
 20
-0.4943913722363451
 30
0.0
 11
0.6505070573326598
 21
-0.4943913722363451
 31
0.0
  0
LINE
  5
3E3
330
1A
100
AcDbEntity
  8
1_TOP
  6
CONTINUOUS
 62
     7
100
AcDbLine
 10
24.30352184574052
 20
0.7226344969012779
 30
0.0
 11
24.30352184574052
 21
0.766517641221144
 31
0.0
  0
ARC
  5
3E5
330
1A
100
AcDbEntity
  8
1_TOP
  6
CONTINUOUS
 62
     7
100
AcDbCircle
 10
0.5247087102823773
 20
-0.6348174340599165
 30
0.0
 40
0.1389632903462438
100
AcDbArc
 50
90.0
 51
270.0
  0
ARC
  5
3E6
330
1A
100
AcDbEntity
  8
1_TOP
  6
CONTINUOUS
 62
     7
100
AcDbCircle
 10
0.6505070573326598
 20
0.6143894075789385
 30
0.0
 40
0.13896329034624
100
AcDbArc
 50
270.0
 51
90.0
  0
ARC
  5
3E7
330
1A
100
AcDbEntity
  8
1_TOP
  6
CONTINUOUS
 62
     7
100
AcDbCircle
 10
18.81227771984794
 20
-0.0087512417631573
 30
0.0
 40
0.1389632903462448
100
AcDbArc
 50
90.0
 51
270.0
  0
ARC
  5
3E8
330
1A
100
AcDbEntity
  8
1_TOP
  6
CONTINUOUS
 62
     7
100
AcDbCircle
 10
0.6900018872205316
 20
-0.0087512417631573
 30
0.0
 40
0.1389632903462448
100
AcDbArc
 50
270.0
 51
90.0
  0
ARC
  5
3E9
330
1A
100
AcDbEntity
  8
1_TOP
  6
CONTINUOUS
 62
     7
100
AcDbCircle
 10
0.5247087102823773
 20
0.6143894075789385
 30
0.0
 40
0.13896329034624
100
AcDbArc
 50
90.0
 51
270.0
  0
ARC
  5
3EA
330
1A
100
AcDbEntity
  8
1_TOP
  6
CONTINUOUS
 62
     7
100
AcDbCircle
 10
18.85177254973579
 20
-0.6348174340599165
 30
0.0
 40
0.1389632903462438
100
AcDbArc
 50
90.0
 51
270.0
  0
ARC
  5
3EB
330
1A
100
AcDbEntity
  8
1_TOP
  6
CONTINUOUS
 62
     7
100
AcDbCircle
 10
0.312606846069684
 20
0.7884592133810714
 30
0.0
 40
0.061436402047811
100
AcDbArc
 50
90.0
 51
180.0
  0
ARC
  5
3EC
330
1A
100
AcDbEntity
  8
1_TOP
  6
CONTINUOUS
 62
     7
100
AcDbCircle
 10
19.18967276099882
 20
0.7884592133810714
 30
0.0
 40
0.0614364020477991
100
AcDbArc
 50
0.0
 51
90.0
  0
ARC
  5
3ED
330
1A
100
AcDbEntity
  8
1_TOP
  6
CONTINUOUS
 62
     7
100
AcDbCircle
 10
19.18967276099882
 20
-0.8059616969073967
 30
0.0
 40
0.0614364020477981
100
AcDbArc
 50
270.0
 51
0.0
  0
ARC
  5
3EE
330
1A
100
AcDbEntity
  8
1_TOP
  6
CONTINUOUS
 62
     7
100
AcDbCircle
 10
0.312606846069684
 20
-0.8059616969073967
 30
0.0
 40
0.06143640204781
100
AcDbArc
 50
180.0
 51
270.0
  0
ARC
  5
3EF
330
1A
100
AcDbEntity
  8
1_TOP
  6
CONTINUOUS
 62
     7
100
AcDbCircle
 10
18.97757089678606
 20
-0.6348174340599165
 30
0.0
 40
0.1389632903462438
100
AcDbArc
 50
270.0
 51
90.0
  0
ARC
  5
3F0
330
1A
100
AcDbEntity
  8
1_TOP
  6
CONTINUOUS
 62
     7
100
AcDbCircle
 10
18.85177254973579
 20
0.6143894075789385
 30
0.0
 40
0.13896329034624
100
AcDbArc
 50
90.0
 51
270.0
  0
ARC
  5
3F1
330
1A
100
AcDbEntity
  8
1_TOP
  6
CONTINUOUS
 62
     7
100
AcDbCircle
 10
0.6505070573326598
 20
-0.6348174340599165
 30
0.0
 40
0.1389632903462438
100
AcDbArc
 50
270.0
 51
90.0
  0
ARC
  5
3F2
330
1A
100
AcDbEntity
  8
1_TOP
  6
CONTINUOUS
 62
     7
100
AcDbCircle
 10
18.97757089678606
 20
0.6143894075789385
 30
0.0
 40
0.13896329034624
100
AcDbArc
 50
270.0
 51
90.0
  0
ENDSEC
  0
SECTION
  2
OBJECTS
  0
DICTIONARY
  5
C
330
0
100
AcDbDictionary
  3
ACAD_GROUP
350
D
  3
ACAD_LAYOUT
350
41B
  3
ACAD_MLINESTYLE
350
E
  3
ACAD_PLOTSETTINGS
350
41C
  3
ACAD_PLOTSTYLENAME
350
419
  3
ACDBHEADERROUNDTRIPXREC
350
45C
  0
DICTIONARY
  5
446
330
1A
100
AcDbDictionary
280
     1
  3
ACAD_LAYOUTSELFREF
360
47D
  0
DICTIONARY
  5
444
330
17
100
AcDbDictionary
280
     1
  3
ACAD_LAYOUTSELFREF
360
47C
  0
DICTIONARY
  5
D
102
{ACAD_REACTORS
330
C
102
}
330
C
100
AcDbDictionary
  0
DICTIONARY
  5
41B
102
{ACAD_REACTORS
330
C
102
}
330
C
100
AcDbDictionary
  0
DICTIONARY
  5
E
102
{ACAD_REACTORS
330
C
102
}
330
C
100
AcDbDictionary
  3
STANDARD
350
13
  0
DICTIONARY
  5
41C
102
{ACAD_REACTORS
330
C
102
}
330
C
100
AcDbDictionary
  0
ACDBDICTIONARYWDFLT
  5
419
102
{ACAD_REACTORS
330
C
102
}
330
C
100
AcDbDictionary
281
     1
  3
Normal
350
41A
100
AcDbDictionaryWithDefault
340
41A
  0
DICTIONARY
  5
45C
102
{ACAD_REACTORS
330
C
102
}
330
C
100
AcDbDictionary
  3
CEPSNTYPE
350
466
  3
FINGERPRINTGUID
350
467
  3
HYPERLINKBASE
350
45F
  3
INSUNITS
350
465
  3
LAYOUTDICT
350
461
  3
LWETCUNION
350
464
  3
PLOTSETDICT
350
462
  3
PLOTSTYLNAMDICT
350
463
  3
PSVPSCALE
350
469
  3
PUCSBASE
350
46C
  3
PUCSORGBACK
350
472
  3
PUCSORGBOTTOM
350
46E
  3
PUCSORGFRONT
350
471
  3
PUCSORGLEFT
350
46F
  3
PUCSORGRIGHT
350
470
  3
PUCSORGTOP
350
46D
  3
PUCSORTHOREF
350
46A
  3
PUCSORTHOVIEW
350
46B
  3
STYLESHEET
350
460
  3
TSTACKALIGN
350
45D
  3
TSTACKSIZE
350
45E
  3
UCSBASE
350
475
  3
UCSORGBACK
350
47B
  3
UCSORGBOTTOM
350
477
  3
UCSORGFRONT
350
47A
  3
UCSORGLEFT
350
478
  3
UCSORGRIGHT
350
479
  3
UCSORGTOP
350
476
  3
UCSORTHOREF
350
473
  3
UCSORTHOVIEW
350
474
  3
VERSIONGUID
350
468
  0
XRECORD
  5
47D
102
{ACAD_REACTORS
330
446
102
}
330
446
100
AcDbXrecord
340
1A
  0
XRECORD
  5
47C
102
{ACAD_REACTORS
330
444
102
}
330
444
100
AcDbXrecord
340
17
  0
MLINESTYLE
  5
13
102
{ACAD_REACTORS
330
E
102
}
330
E
100
AcDbMlineStyle
  2
STANDARD
 70
     0
  3

 62
     0
 51
90.0
 52
90.0
 71
     2
 49
0.5
 62
   256
  6
BYLAYER
 49
-0.5
 62
   256
  6
BYLAYER
  0
ACDBPLACEHOLDER
  5
41A
102
{ACAD_REACTORS
330
419
102
}
330
419
100
AcDbPlaceHolder
280
     0
  0
XRECORD
  5
466
102
{ACAD_REACTORS
330
45C
102
}
330
45C
100
AcDbXrecord
 90
        0
  0
XRECORD
  5
467
102
{ACAD_REACTORS
330
45C
102
}
330
45C
100
AcDbXrecord
  1
{5688E5F7-3290-11D6-B7AF-00B0D0207C23}
  0
XRECORD
  5
45F
102
{ACAD_REACTORS
330
45C
102
}
330
45C
100
AcDbXrecord
  1

  0
XRECORD
  5
465
102
{ACAD_REACTORS
330
45C
102
}
330
45C
100
AcDbXrecord
 90
        0
  0
XRECORD
  5
461
102
{ACAD_REACTORS
330
45C
102
}
330
45C
100
AcDbXrecord
340
41B
  0
XRECORD
  5
464
102
{ACAD_REACTORS
330
45C
102
}
330
45C
100
AcDbXrecord
 90
    14877
  0
XRECORD
  5
462
102
{ACAD_REACTORS
330
45C
102
}
330
45C
100
AcDbXrecord
340
41C
  0
XRECORD
  5
463
102
{ACAD_REACTORS
330
45C
102
}
330
45C
100
AcDbXrecord
340
419
  0
XRECORD
  5
469
102
{ACAD_REACTORS
330
45C
102
}
330
45C
100
AcDbXrecord
 40
0.0
  0
XRECORD
  5
46C
102
{ACAD_REACTORS
330
45C
102
}
330
45C
100
AcDbXrecord
340
0
  0
XRECORD
  5
472
102
{ACAD_REACTORS
330
45C
102
}
330
45C
100
AcDbXrecord
 10
0.0
 20
0.0
 30
0.0
  0
XRECORD
  5
46E
102
{ACAD_REACTORS
330
45C
102
}
330
45C
100
AcDbXrecord
 10
0.0
 20
0.0
 30
0.0
  0
XRECORD
  5
471
102
{ACAD_REACTORS
330
45C
102
}
330
45C
100
AcDbXrecord
 10
0.0
 20
0.0
 30
0.0
  0
XRECORD
  5
46F
102
{ACAD_REACTORS
330
45C
102
}
330
45C
100
AcDbXrecord
 10
0.0
 20
0.0
 30
0.0
  0
XRECORD
  5
470
102
{ACAD_REACTORS
330
45C
102
}
330
45C
100
AcDbXrecord
 10
0.0
 20
0.0
 30
0.0
  0
XRECORD
  5
46D
102
{ACAD_REACTORS
330
45C
102
}
330
45C
100
AcDbXrecord
 10
0.0
 20
0.0
 30
0.0
  0
XRECORD
  5
46A
102
{ACAD_REACTORS
330
45C
102
}
330
45C
100
AcDbXrecord
340
0
  0
XRECORD
  5
46B
102
{ACAD_REACTORS
330
45C
102
}
330
45C
100
AcDbXrecord
 70
     0
  0
XRECORD
  5
460
102
{ACAD_REACTORS
330
45C
102
}
330
45C
100
AcDbXrecord
  1

  0
XRECORD
  5
45D
102
{ACAD_REACTORS
330
45C
102
}
330
45C
100
AcDbXrecord
 90
        1
  0
XRECORD
  5
45E
102
{ACAD_REACTORS
330
45C
102
}
330
45C
100
AcDbXrecord
 90
       70
  0
XRECORD
  5
475
102
{ACAD_REACTORS
330
45C
102
}
330
45C
100
AcDbXrecord
340
0
  0
XRECORD
  5
47B
102
{ACAD_REACTORS
330
45C
102
}
330
45C
100
AcDbXrecord
 10
0.0
 20
0.0
 30
0.0
  0
XRECORD
  5
477
102
{ACAD_REACTORS
330
45C
102
}
330
45C
100
AcDbXrecord
 10
0.0
 20
0.0
 30
0.0
  0
XRECORD
  5
47A
102
{ACAD_REACTORS
330
45C
102
}
330
45C
100
AcDbXrecord
 10
0.0
 20
0.0
 30
0.0
  0
XRECORD
  5
478
102
{ACAD_REACTORS
330
45C
102
}
330
45C
100
AcDbXrecord
 10
0.0
 20
0.0
 30
0.0
  0
XRECORD
  5
479
102
{ACAD_REACTORS
330
45C
102
}
330
45C
100
AcDbXrecord
 10
0.0
 20
0.0
 30
0.0
  0
XRECORD
  5
476
102
{ACAD_REACTORS
330
45C
102
}
330
45C
100
AcDbXrecord
 10
0.0
 20
0.0
 30
0.0
  0
XRECORD
  5
473
102
{ACAD_REACTORS
330
45C
102
}
330
45C
100
AcDbXrecord
340
0
  0
XRECORD
  5
474
102
{ACAD_REACTORS
330
45C
102
}
330
45C
100
AcDbXrecord
 70
     0
  0
XRECORD
  5
468
102
{ACAD_REACTORS
330
45C
102
}
330
45C
100
AcDbXrecord
  1
{5688E5F9-3290-11D6-B7AF-00B0D0207C23}
  0
ENDSEC
  0
EOF
