  0
SECTION
  2
HEADER
  9
$ACADVER
  1
AC1021
  9
$ACADMAINTVER
 70
     1
  9
$DWGCODEPAGE
  3
ANSI_1252
  9
$LASTSAVEDBY
  1
JSP
  9
$INSBASE
 10
0.0
 20
0.0
 30
0.0
  9
$EXTMIN
 10
-15.72180174817541
 20
7.371551543208248
 30
-0.0015258207003583
  9
$EXTMAX
 10
3.133483904336443
 20
17.37666323871429
 30
0.0000000349246037
  9
$LIMMIN
 10
0.0
 20
0.0
  9
$LIMMAX
 10
12.0
 20
9.0
  9
$ORTHOMODE
 70
     0
  9
$REGENMODE
 70
     1
  9
$FILLMODE
 70
     1
  9
$QTEXTMODE
 70
     0
  9
$MIRRTEXT
 70
     1
  9
$LTSCALE
 40
1.0
  9
$ATTMODE
 70
     1
  9
$TEXTSIZE
 40
0.2
  9
$TRACEWID
 40
0.05
  9
$TEXTSTYLE
  7
STANDARD
  9
$CLAYER
  8
0
  9
$CELTYPE
  6
ByLayer
  9
$CECOLOR
 62
   256
  9
$CELTSCALE
 40
1.0
  9
$DISPSILH
 70
     0
  9
$DIMSCALE
 40
1.0
  9
$DIMASZ
 40
0.18
  9
$DIMEXO
 40
0.0625
  9
$DIMDLI
 40
0.38
  9
$DIMRND
 40
0.0
  9
$DIMDLE
 40
0.0
  9
$DIMEXE
 40
0.18
  9
$DIMTP
 40
0.0
  9
$DIMTM
 40
0.0
  9
$DIMTXT
 40
0.18
  9
$DIMCEN
 40
0.09
  9
$DIMTSZ
 40
0.0
  9
$DIMTOL
 70
     0
  9
$DIMLIM
 70
     0
  9
$DIMTIH
 70
     1
  9
$DIMTOH
 70
     1
  9
$DIMSE1
 70
     0
  9
$DIMSE2
 70
     0
  9
$DIMTAD
 70
     0
  9
$DIMZIN
 70
     0
  9
$DIMBLK
  1

  9
$DIMASO
 70
     1
  9
$DIMSHO
 70
     1
  9
$DIMPOST
  1

  9
$DIMAPOST
  1

  9
$DIMALT
 70
     0
  9
$DIMALTD
 70
     2
  9
$DIMALTF
 40
25.4
  9
$DIMLFAC
 40
1.0
  9
$DIMTOFL
 70
     0
  9
$DIMTVP
 40
0.0
  9
$DIMTIX
 70
     0
  9
$DIMSOXD
 70
     0
  9
$DIMSAH
 70
     0
  9
$DIMBLK1
  1

  9
$DIMBLK2
  1

  9
$DIMSTYLE
  2
Standard
  9
$DIMCLRD
 70
     0
  9
$DIMCLRE
 70
     0
  9
$DIMCLRT
 70
     0
  9
$DIMTFAC
 40
1.0
  9
$DIMGAP
 40
0.09
  9
$DIMJUST
 70
     0
  9
$DIMSD1
 70
     0
  9
$DIMSD2
 70
     0
  9
$DIMTOLJ
 70
     1
  9
$DIMTZIN
 70
     0
  9
$DIMALTZ
 70
     0
  9
$DIMALTTZ
 70
     0
  9
$DIMUPT
 70
     0
  9
$DIMDEC
 70
     4
  9
$DIMTDEC
 70
     4
  9
$DIMALTU
 70
     2
  9
$DIMALTTD
 70
     2
  9
$DIMTXSTY
  7
STANDARD
  9
$DIMAUNIT
 70
     0
  9
$DIMADEC
 70
     0
  9
$DIMALTRND
 40
0.0
  9
$DIMAZIN
 70
     0
  9
$DIMDSEP
 70
    46
  9
$DIMATFIT
 70
     3
  9
$DIMFRAC
 70
     0
  9
$DIMLDRBLK
  1

  9
$DIMLUNIT
 70
     2
  9
$DIMLWD
 70
    -2
  9
$DIMLWE
 70
    -2
  9
$DIMTMOVE
 70
     2
  9
$DIMFXL
 40
1.0
  9
$DIMFXLON
 70
     0
  9
$DIMJOGANG
 40
0.7853981633974483
  9
$DIMTFILL
 70
     0
  9
$DIMTFILLCLR
 70
     0
  9
$DIMARCSYM
 70
     0
  9
$DIMLTYPE
  6

  9
$DIMLTEX1
  6

  9
$DIMLTEX2
  6

  9
$LUNITS
 70
     2
  9
$LUPREC
 70
     4
  9
$SKETCHINC
 40
0.1
  9
$FILLETRAD
 40
0.0
  9
$AUNITS
 70
     0
  9
$AUPREC
 70
     0
  9
$MENU
  1
acad
  9
$ELEVATION
 40
0.0
  9
$PELEVATION
 40
0.0
  9
$THICKNESS
 40
0.0
  9
$LIMCHECK
 70
     0
  9
$CHAMFERA
 40
0.0
  9
$CHAMFERB
 40
0.0
  9
$CHAMFERC
 40
0.0
  9
$CHAMFERD
 40
0.0
  9
$SKPOLY
 70
     0
  9
$TDCREATE
 40
2454678.374131945
  9
$TDUCREATE
 40
2454678.582465278
  9
$TDUPDATE
 40
2454678.375952859
  9
$TDUUPDATE
 40
2454678.584286192
  9
$TDINDWG
 40
0.0011922106
  9
$TDUSRTIMER
 40
0.0011922106
  9
$USRTIMER
 70
     1
  9
$ANGBASE
 50
0.0
  9
$ANGDIR
 70
     0
  9
$PDMODE
 70
     0
  9
$PDSIZE
 40
0.0
  9
$PLINEWID
 40
0.0
  9
$SPLFRAME
 70
     0
  9
$SPLINETYPE
 70
     6
  9
$SPLINESEGS
 70
     8
  9
$HANDSEED
  5
2E8B
  9
$SURFTAB1
 70
     6
  9
$SURFTAB2
 70
     6
  9
$SURFTYPE
 70
     6
  9
$SURFU
 70
     6
  9
$SURFV
 70
     6
  9
$UCSBASE
  2

  9
$UCSNAME
  2

  9
$UCSORG
 10
0.0
 20
0.0
 30
0.0
  9
$UCSXDIR
 10
1.0
 20
0.0
 30
0.0
  9
$UCSYDIR
 10
0.0
 20
1.0
 30
0.0
  9
$UCSORTHOREF
  2

  9
$UCSORTHOVIEW
 70
     0
  9
$UCSORGTOP
 10
0.0
 20
0.0
 30
0.0
  9
$UCSORGBOTTOM
 10
0.0
 20
0.0
 30
0.0
  9
$UCSORGLEFT
 10
0.0
 20
0.0
 30
0.0
  9
$UCSORGRIGHT
 10
0.0
 20
0.0
 30
0.0
  9
$UCSORGFRONT
 10
0.0
 20
0.0
 30
0.0
  9
$UCSORGBACK
 10
0.0
 20
0.0
 30
0.0
  9
$PUCSBASE
  2

  9
$PUCSNAME
  2

  9
$PUCSORG
 10
0.0
 20
0.0
 30
0.0
  9
$PUCSXDIR
 10
1.0
 20
0.0
 30
0.0
  9
$PUCSYDIR
 10
0.0
 20
1.0
 30
0.0
  9
$PUCSORTHOREF
  2

  9
$PUCSORTHOVIEW
 70
     0
  9
$PUCSORGTOP
 10
0.0
 20
0.0
 30
0.0
  9
$PUCSORGBOTTOM
 10
0.0
 20
0.0
 30
0.0
  9
$PUCSORGLEFT
 10
0.0
 20
0.0
 30
0.0
  9
$PUCSORGRIGHT
 10
0.0
 20
0.0
 30
0.0
  9
$PUCSORGFRONT
 10
0.0
 20
0.0
 30
0.0
  9
$PUCSORGBACK
 10
0.0
 20
0.0
 30
0.0
  9
$USERI1
 70
     0
  9
$USERI2
 70
     0
  9
$USERI3
 70
     0
  9
$USERI4
 70
     0
  9
$USERI5
 70
     0
  9
$USERR1
 40
0.0
  9
$USERR2
 40
0.0
  9
$USERR3
 40
0.0
  9
$USERR4
 40
0.0
  9
$USERR5
 40
0.0
  9
$WORLDVIEW
 70
     1
  9
$SHADEDGE
 70
     3
  9
$SHADEDIF
 70
    70
  9
$TILEMODE
 70
     1
  9
$MAXACTVP
 70
    16
  9
$PINSBASE
 10
0.0
 20
0.0
 30
0.0
  9
$PLIMCHECK
 70
     0
  9
$PEXTMIN
 10
1.000000000000000E+20
 20
1.000000000000000E+20
 30
1.000000000000000E+20
  9
$PEXTMAX
 10
-1.000000000000000E+20
 20
-1.000000000000000E+20
 30
-1.000000000000000E+20
  9
$PLIMMIN
 10
0.0
 20
0.0
  9
$PLIMMAX
 10
12.0
 20
9.0
  9
$UNITMODE
 70
     0
  9
$VISRETAIN
 70
     0
  9
$PLINEGEN
 70
     0
  9
$PSLTSCALE
 70
     1
  9
$TREEDEPTH
 70
  3020
  9
$CMLSTYLE
  2
Standard
  9
$CMLJUST
 70
     0
  9
$CMLSCALE
 40
1.0
  9
$PROXYGRAPHICS
 70
     1
  9
$MEASUREMENT
 70
     0
  9
$CELWEIGHT
370
    -1
  9
$ENDCAPS
280
     0
  9
$JOINSTYLE
280
     0
  9
$LWDISPLAY
290
     0
  9
$INSUNITS
 70
     0
  9
$HYPERLINKBASE
  1

  9
$STYLESHEET
  1

  9
$XEDIT
290
     1
  9
$CEPSNTYPE
380
     0
  9
$PSTYLEMODE
290
     1
  9
$FINGERPRINTGUID
  2
{28036EDC-B269-4E98-94F2-910B7DBC89B8}
  9
$VERSIONGUID
  2
{FFDE76EB-AEBF-489A-B2FB-E1A5DC928DC1}
  9
$EXTNAMES
290
     1
  9
$PSVPSCALE
 40
0.0
  9
$OLESTARTUP
290
     0
  9
$SORTENTS
280
   127
  9
$INDEXCTL
280
     0
  9
$HIDETEXT
280
     1
  9
$XCLIPFRAME
290
     0
  9
$HALOGAP
280
     0
  9
$OBSCOLOR
 70
   257
  9
$OBSLTYPE
280
     0
  9
$INTERSECTIONDISPLAY
280
     0
  9
$INTERSECTIONCOLOR
 70
   257
  9
$DIMASSOC
280
     2
  9
$PROJECTNAME
  1

  9
$CAMERADISPLAY
290
     0
  9
$LENSLENGTH
 40
50.0
  9
$CAMERAHEIGHT
 40
0.0
  9
$STEPSPERSEC
 40
2.0
  9
$STEPSIZE
 40
6.0
  9
$3DDWFPREC
 40
2.0
  9
$PSOLWIDTH
 40
0.25
  9
$PSOLHEIGHT
 40
4.0
  9
$LOFTANG1
 40
1.570796326794896
  9
$LOFTANG2
 40
1.570796326794896
  9
$LOFTMAG1
 40
0.0
  9
$LOFTMAG2
 40
0.0
  9
$LOFTPARAM
 70
     7
  9
$LOFTNORMALS
280
     1
  9
$LATITUDE
 40
37.795
  9
$LONGITUDE
 40
-122.394
  9
$NORTHDIRECTION
 40
0.0
  9
$TIMEZONE
 70
 -8000
  9
$LIGHTGLYPHDISPLAY
280
     1
  9
$TILEMODELIGHTSYNCH
280
     1
  9
$CMATERIAL
347
11
  9
$SOLIDHIST
280
     1
  9
$SHOWHIST
280
     1
  9
$DWFFRAME
280
     2
  9
$DGNFRAME
280
     0
  9
$REALWORLDSCALE
290
     1
  9
$INTERFERECOLOR
 62
     1
  9
$INTERFEREOBJVS
345
1E
  9
$INTERFEREVPVS
346
1B
  9
$CSHADOW
280
     0
  9
$SHADOWPLANELOCATION
 40
0.0
  0
ENDSEC
  0
SECTION
  2
CLASSES
  0
CLASS
  1
ACDBDICTIONARYWDFLT
  2
AcDbDictionaryWithDefault
  3
ObjectDBX Classes
 90
        0
 91
        1
280
     0
281
     0
  0
CLASS
  1
MATERIAL
  2
AcDbMaterial
  3
ObjectDBX Classes
 90
     1024
 91
        3
280
     0
281
     0
  0
CLASS
  1
VISUALSTYLE
  2
AcDbVisualStyle
  3
ObjectDBX Classes
 90
     4095
 91
       16
280
     0
281
     0
  0
CLASS
  1
TABLESTYLE
  2
AcDbTableStyle
  3
ObjectDBX Classes
 90
     4095
 91
        1
280
     0
281
     0
  0
CLASS
  1
DIMASSOC
  2
AcDbDimAssoc
  3
"AcDbDimAssoc|Product Desc:     AcDim ARX App For Dimension|Company:          Autodesk, Inc.|WEB Address:      www.autodesk.com"
 90
        0
 91
        1
280
     0
281
     0
  0
CLASS
  1
DICTIONARYVAR
  2
AcDbDictionaryVar
  3
ObjectDBX Classes
 90
        0
 91
        1
280
     0
281
     0
  0
ENDSEC
  0
SECTION
  2
TABLES
  0
TABLE
  2
VPORT
  5
8
330
0
100
AcDbSymbolTable
 70
     1
  0
VPORT
  5
155
330
8
100
AcDbSymbolTableRecord
100
AcDbViewportTableRecord
  2
*Active
 70
     0
 10
0.0
 20
0.0
 11
1.0
 21
1.0
 12
-6.294158921919482
 22
12.37410739096127
 13
0.0
 23
0.0
 14
1.0
 24
1.0
 15
0.0
 25
0.0
 16
0.0
 26
0.0
 36
1.0
 17
0.0
 27
0.0
 37
0.0
 40
10.12190288261312
 41
1.884990253411306
 42
50.0
 43
0.0
 44
0.0
 50
0.0
 51
0.0
 71
     0
 72
   100
 73
     1
 74
     1
 75
     0
 76
     0
 77
     0
 78
     0
281
     0
 65
     1
110
0.0
120
0.0
130
0.0
111
1.0
121
0.0
131
0.0
112
0.0
122
1.0
132
0.0
 79
     0
146
0.0
348
1A
 60
     3
 61
     5
292
     1
282
     1
141
0.0
142
0.0
 63
   250
421
  3355443
  0
ENDTAB
  0
TABLE
  2
LTYPE
  5
5
330
0
100
AcDbSymbolTable
 70
    25
  0
LTYPE
  5
28
330
5
100
AcDbSymbolTableRecord
100
AcDbLinetypeTableRecord
  2
ByBlock
 70
     0
  3

 72
    65
 73
     0
 40
0.0
  0
LTYPE
  5
29
330
5
100
AcDbSymbolTableRecord
100
AcDbLinetypeTableRecord
  2
ByLayer
 70
     0
  3

 72
    65
 73
     0
 40
0.0
  0
LTYPE
  5
2A
330
5
100
AcDbSymbolTableRecord
100
AcDbLinetypeTableRecord
  2
CONTINUOUS
 70
     0
  3
Solid line
 72
    65
 73
     0
 40
0.0
  0
LTYPE
  5
3A
330
5
100
AcDbSymbolTableRecord
100
AcDbLinetypeTableRecord
  2
BORDER
 70
     0
  3
__ __ . __ __ . __ __ . __ __ . __ __ . __ __ .
 72
    65
 73
     6
 40
1.75
 49
0.5
 74
     0
 49
-0.25
 74
     0
 49
0.5
 74
     0
 49
-0.25
 74
     0
 49
0.5
 74
     0
 49
-0.25
 74
     0
  0
LTYPE
  5
3B
330
5
100
AcDbSymbolTableRecord
100
AcDbLinetypeTableRecord
  2
BORDER2
 70
     0
  3
__.__.__.__.__.__.__.__.
 72
    65
 73
     6
 40
0.875
 49
0.25
 74
     0
 49
-0.125
 74
     0
 49
0.25
 74
     0
 49
-0.125
 74
     0
 49
0.25
 74
     0
 49
-0.125
 74
     0
  0
LTYPE
  5
3C
330
5
100
AcDbSymbolTableRecord
100
AcDbLinetypeTableRecord
  2
BORDERX2
 70
     0
  3
____  ____  .  
 72
    65
 73
     6
 40
3.5
 49
1.0
 74
     0
 49
-0.5
 74
     0
 49
1.0
 74
     0
 49
-0.5
 74
     0
 49
1.0
 74
     0
 49
-0.5
 74
     0
  0
LTYPE
  5
3D
330
5
100
AcDbSymbolTableRecord
100
AcDbLinetypeTableRecord
  2
CENTER
 70
     0
  3
____ _ ____ _ ____ _ 
 72
    65
 73
     4
 40
2.0
 49
1.25
 74
     0
 49
-0.25
 74
     0
 49
0.25
 74
     0
 49
-0.25
 74
     0
  0
LTYPE
  5
3E
330
5
100
AcDbSymbolTableRecord
100
AcDbLinetypeTableRecord
  2
CENTER2
 70
     0
  3
____ _ ____ _ ____ _ 
 72
    65
 73
     4
 40
1.125
 49
0.75
 74
     0
 49
-0.125
 74
     0
 49
0.125
 74
     0
 49
-0.125
 74
     0
  0
LTYPE
  5
3F
330
5
100
AcDbSymbolTableRecord
100
AcDbLinetypeTableRecord
  2
CENTERX2
 70
     0
  3
________  __  
 72
    65
 73
     4
 40
4.0
 49
2.5
 74
     0
 49
-0.5
 74
     0
 49
0.5
 74
     0
 49
-0.5
 74
     0
  0
LTYPE
  5
40
330
5
100
AcDbSymbolTableRecord
100
AcDbLinetypeTableRecord
  2
DASHDOT
 70
     0
  3
__ . __ . __ . __ . 
 72
    65
 73
     4
 40
1.0
 49
0.5
 74
     0
 49
-0.25
 74
     0
 49
0.0
 74
     0
 49
-0.25
 74
     0
  0
LTYPE
  5
41
330
5
100
AcDbSymbolTableRecord
100
AcDbLinetypeTableRecord
  2
DASHDOT2
 70
     0
  3
_._._._._._._._._.
 72
    65
 73
     4
 40
0.5
 49
0.25
 74
     0
 49
-0.125
 74
     0
 49
0.0
 74
     0
 49
-0.125
 74
     0
  0
LTYPE
  5
42
330
5
100
AcDbSymbolTableRecord
100
AcDbLinetypeTableRecord
  2
DASHDOTX2
 70
     0
  3
____  .  ____  .  
 72
    65
 73
     4
 40
2.0
 49
1.0
 74
     0
 49
-0.5
 74
     0
 49
0.0
 74
     0
 49
-0.5
 74
     0
  0
LTYPE
  5
43
330
5
100
AcDbSymbolTableRecord
100
AcDbLinetypeTableRecord
  2
DASHED
 70
     0
  3
__ __ __ __ __ __ __ 
 72
    65
 73
     2
 40
0.75
 49
0.5
 74
     0
 49
-0.25
 74
     0
  0
LTYPE
  5
44
330
5
100
AcDbSymbolTableRecord
100
AcDbLinetypeTableRecord
  2
DASHED2
 70
     0
  3
_ _ _ _ _ _ _ _ _ _ 
 72
    65
 73
     2
 40
0.375
 49
0.25
 74
     0
 49
-0.125
 74
     0
  0
LTYPE
  5
45
330
5
100
AcDbSymbolTableRecord
100
AcDbLinetypeTableRecord
  2
DASHEDX2
 70
     0
  3
____  ____  ____  
 72
    65
 73
     2
 40
1.5
 49
1.0
 74
     0
 49
-0.5
 74
     0
  0
LTYPE
  5
46
330
5
100
AcDbSymbolTableRecord
100
AcDbLinetypeTableRecord
  2
DIVIDE
 70
     0
  3
____ . . ____ . . 
 72
    65
 73
     6
 40
1.25
 49
0.5
 74
     0
 49
-0.25
 74
     0
 49
0.0
 74
     0
 49
-0.25
 74
     0
 49
0.0
 74
     0
 49
-0.25
 74
     0
  0
LTYPE
  5
47
330
5
100
AcDbSymbolTableRecord
100
AcDbLinetypeTableRecord
  2
DIVIDE2
 70
     0
  3
__..__..__..__..__..
 72
    65
 73
     6
 40
0.625
 49
0.25
 74
     0
 49
-0.125
 74
     0
 49
0.0
 74
     0
 49
-0.125
 74
     0
 49
0.0
 74
     0
 49
-0.125
 74
     0
  0
LTYPE
  5
48
330
5
100
AcDbSymbolTableRecord
100
AcDbLinetypeTableRecord
  2
DIVIDEX2
 70
     0
  3
________  .  .  
 72
    65
 73
     6
 40
2.5
 49
1.0
 74
     0
 49
-0.5
 74
     0
 49
0.0
 74
     0
 49
-0.5
 74
     0
 49
0.0
 74
     0
 49
-0.5
 74
     0
  0
LTYPE
  5
49
330
5
100
AcDbSymbolTableRecord
100
AcDbLinetypeTableRecord
  2
DOT
 70
     0
  3
. . . . . . . . . 
 72
    65
 73
     2
 40
0.25
 49
0.0
 74
     0
 49
-0.25
 74
     0
  0
LTYPE
  5
4A
330
5
100
AcDbSymbolTableRecord
100
AcDbLinetypeTableRecord
  2
DOT2
 70
     0
  3
..................
 72
    65
 73
     2
 40
0.125
 49
0.0
 74
     0
 49
-0.125
 74
     0
  0
LTYPE
  5
4B
330
5
100
AcDbSymbolTableRecord
100
AcDbLinetypeTableRecord
  2
DOTX2
 70
     0
  3
.  .  .  .  .  .  
 72
    65
 73
     2
 40
0.5
 49
0.0
 74
     0
 49
-0.5
 74
     0
  0
LTYPE
  5
4C
330
5
100
AcDbSymbolTableRecord
100
AcDbLinetypeTableRecord
  2
HIDDEN
 70
     0
  3
__ __ __ __ __ __ 
 72
    65
 73
     2
 40
0.375
 49
0.25
 74
     0
 49
-0.125
 74
     0
  0
LTYPE
  5
4D
330
5
100
AcDbSymbolTableRecord
100
AcDbLinetypeTableRecord
  2
HIDDEN2
 70
     0
  3
_ _ _ _ _ _ _ _ _ 
 72
    65
 73
     2
 40
0.1875
 49
0.125
 74
     0
 49
-0.0625
 74
     0
  0
LTYPE
  5
4E
330
5
100
AcDbSymbolTableRecord
100
AcDbLinetypeTableRecord
  2
HIDDENX2
 70
     0
  3
____ ____ ____ ____ 
 72
    65
 73
     2
 40
0.75
 49
0.5
 74
     0
 49
-0.25
 74
     0
  0
LTYPE
  5
4F
330
5
100
AcDbSymbolTableRecord
100
AcDbLinetypeTableRecord
  2
PHANTOM
 70
     0
  3
______  __  __  
 72
    65
 73
     6
 40
2.5
 49
1.25
 74
     0
 49
-0.25
 74
     0
 49
0.25
 74
     0
 49
-0.25
 74
     0
 49
0.25
 74
     0
 49
-0.25
 74
     0
  0
LTYPE
  5
50
330
5
100
AcDbSymbolTableRecord
100
AcDbLinetypeTableRecord
  2
PHANTOM2
 70
     0
  3
___ _ _ ___ _ _ 
 72
    65
 73
     6
 40
1.25
 49
0.625
 74
     0
 49
-0.125
 74
     0
 49
0.125
 74
     0
 49
-0.125
 74
     0
 49
0.125
 74
     0
 49
-0.125
 74
     0
  0
LTYPE
  5
51
330
5
100
AcDbSymbolTableRecord
100
AcDbLinetypeTableRecord
  2
PHANTOMX2
 70
     0
  3
___ _ _ ___ _ _ 
 72
    65
 73
     6
 40
5.0
 49
2.5
 74
     0
 49
-0.5
 74
     0
 49
0.5
 74
     0
 49
-0.5
 74
     0
 49
0.5
 74
     0
 49
-0.5
 74
     0
  0
ENDTAB
  0
TABLE
  2
LAYER
  5
2
330
0
100
AcDbSymbolTable
 70
   257
  0
LAYER
  5
25
330
2
100
AcDbSymbolTableRecord
100
AcDbLayerTableRecord
  2
0
 70
     0
 62
     7
  6
CONTINUOUS
370
    -3
390
F
347
13
  0
LAYER
  5
52
330
2
100
AcDbSymbolTableRecord
100
AcDbLayerTableRecord
  2
1
 70
     0
 62
     1
  6
CONTINUOUS
370
    -3
390
F
347
13
  0
LAYER
  5
53
330
2
100
AcDbSymbolTableRecord
100
AcDbLayerTableRecord
  2
2
 70
     0
 62
     2
  6
CONTINUOUS
370
    -3
390
F
347
13
  0
LAYER
  5
54
330
2
100
AcDbSymbolTableRecord
100
AcDbLayerTableRecord
  2
3
 70
     0
 62
     3
  6
CONTINUOUS
370
    -3
390
F
347
13
  0
LAYER
  5
55
330
2
100
AcDbSymbolTableRecord
100
AcDbLayerTableRecord
  2
4
 70
     0
 62
     4
  6
CONTINUOUS
370
    -3
390
F
347
13
  0
LAYER
  5
56
330
2
100
AcDbSymbolTableRecord
100
AcDbLayerTableRecord
  2
5
 70
     0
 62
     5
  6
CONTINUOUS
370
    -3
390
F
347
13
  0
LAYER
  5
57
330
2
100
AcDbSymbolTableRecord
100
AcDbLayerTableRecord
  2
6
 70
     0
 62
     6
  6
CONTINUOUS
370
    -3
390
F
347
13
  0
LAYER
  5
58
330
2
100
AcDbSymbolTableRecord
100
AcDbLayerTableRecord
  2
7
 70
     0
 62
     7
  6
CONTINUOUS
370
    -3
390
F
347
13
  0
LAYER
  5
59
330
2
100
AcDbSymbolTableRecord
100
AcDbLayerTableRecord
  2
8
 70
     0
 62
     8
  6
CONTINUOUS
370
    -3
390
F
347
13
  0
LAYER
  5
5A
330
2
100
AcDbSymbolTableRecord
100
AcDbLayerTableRecord
  2
9
 70
     0
 62
     9
  6
CONTINUOUS
370
    -3
390
F
347
13
  0
LAYER
  5
5B
330
2
100
AcDbSymbolTableRecord
100
AcDbLayerTableRecord
  2
10
 70
     0
 62
    10
  6
CONTINUOUS
370
    -3
390
F
347
13
  0
LAYER
  5
5C
330
2
100
AcDbSymbolTableRecord
100
AcDbLayerTableRecord
  2
11
 70
     0
 62
    11
  6
CONTINUOUS
370
    -3
390
F
347
13
  0
LAYER
  5
5D
330
2
100
AcDbSymbolTableRecord
100
AcDbLayerTableRecord
  2
12
 70
     0
 62
    12
  6
CONTINUOUS
370
    -3
390
F
347
13
  0
LAYER
  5
5E
330
2
100
AcDbSymbolTableRecord
100
AcDbLayerTableRecord
  2
13
 70
     0
 62
    13
  6
CONTINUOUS
370
    -3
390
F
347
13
  0
LAYER
  5
5F
330
2
100
AcDbSymbolTableRecord
100
AcDbLayerTableRecord
  2
14
 70
     0
 62
    14
  6
CONTINUOUS
370
    -3
390
F
347
13
  0
LAYER
  5
60
330
2
100
AcDbSymbolTableRecord
100
AcDbLayerTableRecord
  2
15
 70
     0
 62
    15
  6
CONTINUOUS
370
    -3
390
F
347
13
  0
LAYER
  5
61
330
2
100
AcDbSymbolTableRecord
100
AcDbLayerTableRecord
  2
16
 70
     0
 62
    16
  6
CONTINUOUS
370
    -3
390
F
347
13
  0
LAYER
  5
62
330
2
100
AcDbSymbolTableRecord
100
AcDbLayerTableRecord
  2
17
 70
     0
 62
    17
  6
CONTINUOUS
370
    -3
390
F
347
13
  0
LAYER
  5
63
330
2
100
AcDbSymbolTableRecord
100
AcDbLayerTableRecord
  2
18
 70
     0
 62
    18
  6
CONTINUOUS
370
    -3
390
F
347
13
  0
LAYER
  5
64
330
2
100
AcDbSymbolTableRecord
100
AcDbLayerTableRecord
  2
19
 70
     0
 62
    19
  6
CONTINUOUS
370
    -3
390
F
347
13
  0
LAYER
  5
65
330
2
100
AcDbSymbolTableRecord
100
AcDbLayerTableRecord
  2
20
 70
     0
 62
    20
  6
CONTINUOUS
370
    -3
390
F
347
13
  0
LAYER
  5
66
330
2
100
AcDbSymbolTableRecord
100
AcDbLayerTableRecord
  2
21
 70
     0
 62
    21
  6
CONTINUOUS
370
    -3
390
F
347
13
  0
LAYER
  5
67
330
2
100
AcDbSymbolTableRecord
100
AcDbLayerTableRecord
  2
22
 70
     0
 62
    22
  6
CONTINUOUS
370
    -3
390
F
347
13
  0
LAYER
  5
68
330
2
100
AcDbSymbolTableRecord
100
AcDbLayerTableRecord
  2
23
 70
     0
 62
    23
  6
CONTINUOUS
370
    -3
390
F
347
13
  0
LAYER
  5
69
330
2
100
AcDbSymbolTableRecord
100
AcDbLayerTableRecord
  2
24
 70
     0
 62
    24
  6
CONTINUOUS
370
    -3
390
F
347
13
  0
LAYER
  5
6A
330
2
100
AcDbSymbolTableRecord
100
AcDbLayerTableRecord
  2
25
 70
     0
 62
    25
  6
CONTINUOUS
370
    -3
390
F
347
13
  0
LAYER
  5
6B
330
2
100
AcDbSymbolTableRecord
100
AcDbLayerTableRecord
  2
26
 70
     0
 62
    26
  6
CONTINUOUS
370
    -3
390
F
347
13
  0
LAYER
  5
6C
330
2
100
AcDbSymbolTableRecord
100
AcDbLayerTableRecord
  2
27
 70
     0
 62
    27
  6
CONTINUOUS
370
    -3
390
F
347
13
  0
LAYER
  5
6D
330
2
100
AcDbSymbolTableRecord
100
AcDbLayerTableRecord
  2
28
 70
     0
 62
    28
  6
CONTINUOUS
370
    -3
390
F
347
13
  0
LAYER
  5
6E
330
2
100
AcDbSymbolTableRecord
100
AcDbLayerTableRecord
  2
29
 70
     0
 62
    29
  6
CONTINUOUS
370
    -3
390
F
347
13
  0
LAYER
  5
6F
330
2
100
AcDbSymbolTableRecord
100
AcDbLayerTableRecord
  2
30
 70
     0
 62
    30
  6
CONTINUOUS
370
    -3
390
F
347
13
  0
LAYER
  5
70
330
2
100
AcDbSymbolTableRecord
100
AcDbLayerTableRecord
  2
31
 70
     0
 62
    31
  6
CONTINUOUS
370
    -3
390
F
347
13
  0
LAYER
  5
71
330
2
100
AcDbSymbolTableRecord
100
AcDbLayerTableRecord
  2
32
 70
     0
 62
    32
  6
CONTINUOUS
370
    -3
390
F
347
13
  0
LAYER
  5
72
330
2
100
AcDbSymbolTableRecord
100
AcDbLayerTableRecord
  2
33
 70
     0
 62
    33
  6
CONTINUOUS
370
    -3
390
F
347
13
  0
LAYER
  5
73
330
2
100
AcDbSymbolTableRecord
100
AcDbLayerTableRecord
  2
34
 70
     0
 62
    34
  6
CONTINUOUS
370
    -3
390
F
347
13
  0
LAYER
  5
74
330
2
100
AcDbSymbolTableRecord
100
AcDbLayerTableRecord
  2
35
 70
     0
 62
    35
  6
CONTINUOUS
370
    -3
390
F
347
13
  0
LAYER
  5
75
330
2
100
AcDbSymbolTableRecord
100
AcDbLayerTableRecord
  2
36
 70
     0
 62
    36
  6
CONTINUOUS
370
    -3
390
F
347
13
  0
LAYER
  5
76
330
2
100
AcDbSymbolTableRecord
100
AcDbLayerTableRecord
  2
37
 70
     0
 62
    37
  6
CONTINUOUS
370
    -3
390
F
347
13
  0
LAYER
  5
77
330
2
100
AcDbSymbolTableRecord
100
AcDbLayerTableRecord
  2
38
 70
     0
 62
    38
  6
CONTINUOUS
370
    -3
390
F
347
13
  0
LAYER
  5
78
330
2
100
AcDbSymbolTableRecord
100
AcDbLayerTableRecord
  2
39
 70
     0
 62
    39
  6
CONTINUOUS
370
    -3
390
F
347
13
  0
LAYER
  5
79
330
2
100
AcDbSymbolTableRecord
100
AcDbLayerTableRecord
  2
40
 70
     0
 62
    40
  6
CONTINUOUS
370
    -3
390
F
347
13
  0
LAYER
  5
7A
330
2
100
AcDbSymbolTableRecord
100
AcDbLayerTableRecord
  2
41
 70
     0
 62
    41
  6
CONTINUOUS
370
    -3
390
F
347
13
  0
LAYER
  5
7B
330
2
100
AcDbSymbolTableRecord
100
AcDbLayerTableRecord
  2
42
 70
     0
 62
    42
  6
CONTINUOUS
370
    -3
390
F
347
13
  0
LAYER
  5
7C
330
2
100
AcDbSymbolTableRecord
100
AcDbLayerTableRecord
  2
43
 70
     0
 62
    43
  6
CONTINUOUS
370
    -3
390
F
347
13
  0
LAYER
  5
7D
330
2
100
AcDbSymbolTableRecord
100
AcDbLayerTableRecord
  2
44
 70
     0
 62
    44
  6
CONTINUOUS
370
    -3
390
F
347
13
  0
LAYER
  5
7E
330
2
100
AcDbSymbolTableRecord
100
AcDbLayerTableRecord
  2
45
 70
     0
 62
    45
  6
CONTINUOUS
370
    -3
390
F
347
13
  0
LAYER
  5
7F
330
2
100
AcDbSymbolTableRecord
100
AcDbLayerTableRecord
  2
46
 70
     0
 62
    46
  6
CONTINUOUS
370
    -3
390
F
347
13
  0
LAYER
  5
80
330
2
100
AcDbSymbolTableRecord
100
AcDbLayerTableRecord
  2
47
 70
     0
 62
    47
  6
CONTINUOUS
370
    -3
390
F
347
13
  0
LAYER
  5
81
330
2
100
AcDbSymbolTableRecord
100
AcDbLayerTableRecord
  2
48
 70
     0
 62
    48
  6
CONTINUOUS
370
    -3
390
F
347
13
  0
LAYER
  5
82
330
2
100
AcDbSymbolTableRecord
100
AcDbLayerTableRecord
  2
49
 70
     0
 62
    49
  6
CONTINUOUS
370
    -3
390
F
347
13
  0
LAYER
  5
83
330
2
100
AcDbSymbolTableRecord
100
AcDbLayerTableRecord
  2
50
 70
     0
 62
    50
  6
CONTINUOUS
370
    -3
390
F
347
13
  0
LAYER
  5
84
330
2
100
AcDbSymbolTableRecord
100
AcDbLayerTableRecord
  2
51
 70
     0
 62
    51
  6
CONTINUOUS
370
    -3
390
F
347
13
  0
LAYER
  5
85
330
2
100
AcDbSymbolTableRecord
100
AcDbLayerTableRecord
  2
52
 70
     0
 62
    52
  6
CONTINUOUS
370
    -3
390
F
347
13
  0
LAYER
  5
86
330
2
100
AcDbSymbolTableRecord
100
AcDbLayerTableRecord
  2
53
 70
     0
 62
    53
  6
CONTINUOUS
370
    -3
390
F
347
13
  0
LAYER
  5
87
330
2
100
AcDbSymbolTableRecord
100
AcDbLayerTableRecord
  2
54
 70
     0
 62
    54
  6
CONTINUOUS
370
    -3
390
F
347
13
  0
LAYER
  5
88
330
2
100
AcDbSymbolTableRecord
100
AcDbLayerTableRecord
  2
55
 70
     0
 62
    55
  6
CONTINUOUS
370
    -3
390
F
347
13
  0
LAYER
  5
89
330
2
100
AcDbSymbolTableRecord
100
AcDbLayerTableRecord
  2
56
 70
     0
 62
    56
  6
CONTINUOUS
370
    -3
390
F
347
13
  0
LAYER
  5
8A
330
2
100
AcDbSymbolTableRecord
100
AcDbLayerTableRecord
  2
57
 70
     0
 62
    57
  6
CONTINUOUS
370
    -3
390
F
347
13
  0
LAYER
  5
8B
330
2
100
AcDbSymbolTableRecord
100
AcDbLayerTableRecord
  2
58
 70
     0
 62
    58
  6
CONTINUOUS
370
    -3
390
F
347
13
  0
LAYER
  5
8C
330
2
100
AcDbSymbolTableRecord
100
AcDbLayerTableRecord
  2
59
 70
     0
 62
    59
  6
CONTINUOUS
370
    -3
390
F
347
13
  0
LAYER
  5
8D
330
2
100
AcDbSymbolTableRecord
100
AcDbLayerTableRecord
  2
60
 70
     0
 62
    60
  6
CONTINUOUS
370
    -3
390
F
347
13
  0
LAYER
  5
8E
330
2
100
AcDbSymbolTableRecord
100
AcDbLayerTableRecord
  2
61
 70
     0
 62
    61
  6
CONTINUOUS
370
    -3
390
F
347
13
  0
LAYER
  5
8F
330
2
100
AcDbSymbolTableRecord
100
AcDbLayerTableRecord
  2
62
 70
     0
 62
    62
  6
CONTINUOUS
370
    -3
390
F
347
13
  0
LAYER
  5
90
330
2
100
AcDbSymbolTableRecord
100
AcDbLayerTableRecord
  2
63
 70
     0
 62
    63
  6
CONTINUOUS
370
    -3
390
F
347
13
  0
LAYER
  5
91
330
2
100
AcDbSymbolTableRecord
100
AcDbLayerTableRecord
  2
64
 70
     0
 62
    64
  6
CONTINUOUS
370
    -3
390
F
347
13
  0
LAYER
  5
92
330
2
100
AcDbSymbolTableRecord
100
AcDbLayerTableRecord
  2
65
 70
     0
 62
    65
  6
CONTINUOUS
370
    -3
390
F
347
13
  0
LAYER
  5
93
330
2
100
AcDbSymbolTableRecord
100
AcDbLayerTableRecord
  2
66
 70
     0
 62
    66
  6
CONTINUOUS
370
    -3
390
F
347
13
  0
LAYER
  5
94
330
2
100
AcDbSymbolTableRecord
100
AcDbLayerTableRecord
  2
67
 70
     0
 62
    67
  6
CONTINUOUS
370
    -3
390
F
347
13
  0
LAYER
  5
95
330
2
100
AcDbSymbolTableRecord
100
AcDbLayerTableRecord
  2
68
 70
     0
 62
    68
  6
CONTINUOUS
370
    -3
390
F
347
13
  0
LAYER
  5
96
330
2
100
AcDbSymbolTableRecord
100
AcDbLayerTableRecord
  2
69
 70
     0
 62
    69
  6
CONTINUOUS
370
    -3
390
F
347
13
  0
LAYER
  5
97
330
2
100
AcDbSymbolTableRecord
100
AcDbLayerTableRecord
  2
70
 70
     0
 62
    70
  6
CONTINUOUS
370
    -3
390
F
347
13
  0
LAYER
  5
98
330
2
100
AcDbSymbolTableRecord
100
AcDbLayerTableRecord
  2
71
 70
     0
 62
    71
  6
CONTINUOUS
370
    -3
390
F
347
13
  0
LAYER
  5
99
330
2
100
AcDbSymbolTableRecord
100
AcDbLayerTableRecord
  2
72
 70
     0
 62
    72
  6
CONTINUOUS
370
    -3
390
F
347
13
  0
LAYER
  5
9A
330
2
100
AcDbSymbolTableRecord
100
AcDbLayerTableRecord
  2
73
 70
     0
 62
    73
  6
CONTINUOUS
370
    -3
390
F
347
13
  0
LAYER
  5
9B
330
2
100
AcDbSymbolTableRecord
100
AcDbLayerTableRecord
  2
74
 70
     0
 62
    74
  6
CONTINUOUS
370
    -3
390
F
347
13
  0
LAYER
  5
9C
330
2
100
AcDbSymbolTableRecord
100
AcDbLayerTableRecord
  2
75
 70
     0
 62
    75
  6
CONTINUOUS
370
    -3
390
F
347
13
  0
LAYER
  5
9D
330
2
100
AcDbSymbolTableRecord
100
AcDbLayerTableRecord
  2
76
 70
     0
 62
    76
  6
CONTINUOUS
370
    -3
390
F
347
13
  0
LAYER
  5
9E
330
2
100
AcDbSymbolTableRecord
100
AcDbLayerTableRecord
  2
77
 70
     0
 62
    77
  6
CONTINUOUS
370
    -3
390
F
347
13
  0
LAYER
  5
9F
330
2
100
AcDbSymbolTableRecord
100
AcDbLayerTableRecord
  2
78
 70
     0
 62
    78
  6
CONTINUOUS
370
    -3
390
F
347
13
  0
LAYER
  5
A0
330
2
100
AcDbSymbolTableRecord
100
AcDbLayerTableRecord
  2
79
 70
     0
 62
    79
  6
CONTINUOUS
370
    -3
390
F
347
13
  0
LAYER
  5
A1
330
2
100
AcDbSymbolTableRecord
100
AcDbLayerTableRecord
  2
80
 70
     0
 62
    80
  6
CONTINUOUS
370
    -3
390
F
347
13
  0
LAYER
  5
A2
330
2
100
AcDbSymbolTableRecord
100
AcDbLayerTableRecord
  2
81
 70
     0
 62
    81
  6
CONTINUOUS
370
    -3
390
F
347
13
  0
LAYER
  5
A3
330
2
100
AcDbSymbolTableRecord
100
AcDbLayerTableRecord
  2
82
 70
     0
 62
    82
  6
CONTINUOUS
370
    -3
390
F
347
13
  0
LAYER
  5
A4
330
2
100
AcDbSymbolTableRecord
100
AcDbLayerTableRecord
  2
83
 70
     0
 62
    83
  6
CONTINUOUS
370
    -3
390
F
347
13
  0
LAYER
  5
A5
330
2
100
AcDbSymbolTableRecord
100
AcDbLayerTableRecord
  2
84
 70
     0
 62
    84
  6
CONTINUOUS
370
    -3
390
F
347
13
  0
LAYER
  5
A6
330
2
100
AcDbSymbolTableRecord
100
AcDbLayerTableRecord
  2
85
 70
     0
 62
    85
  6
CONTINUOUS
370
    -3
390
F
347
13
  0
LAYER
  5
A7
330
2
100
AcDbSymbolTableRecord
100
AcDbLayerTableRecord
  2
86
 70
     0
 62
    86
  6
CONTINUOUS
370
    -3
390
F
347
13
  0
LAYER
  5
A8
330
2
100
AcDbSymbolTableRecord
100
AcDbLayerTableRecord
  2
87
 70
     0
 62
    87
  6
CONTINUOUS
370
    -3
390
F
347
13
  0
LAYER
  5
A9
330
2
100
AcDbSymbolTableRecord
100
AcDbLayerTableRecord
  2
88
 70
     0
 62
    88
  6
CONTINUOUS
370
    -3
390
F
347
13
  0
LAYER
  5
AA
330
2
100
AcDbSymbolTableRecord
100
AcDbLayerTableRecord
  2
89
 70
     0
 62
    89
  6
CONTINUOUS
370
    -3
390
F
347
13
  0
LAYER
  5
AB
330
2
100
AcDbSymbolTableRecord
100
AcDbLayerTableRecord
  2
90
 70
     0
 62
    90
  6
CONTINUOUS
370
    -3
390
F
347
13
  0
LAYER
  5
AC
330
2
100
AcDbSymbolTableRecord
100
AcDbLayerTableRecord
  2
91
 70
     0
 62
    91
  6
CONTINUOUS
370
    -3
390
F
347
13
  0
LAYER
  5
AD
330
2
100
AcDbSymbolTableRecord
100
AcDbLayerTableRecord
  2
92
 70
     0
 62
    92
  6
CONTINUOUS
370
    -3
390
F
347
13
  0
LAYER
  5
AE
330
2
100
AcDbSymbolTableRecord
100
AcDbLayerTableRecord
  2
93
 70
     0
 62
    93
  6
CONTINUOUS
370
    -3
390
F
347
13
  0
LAYER
  5
AF
330
2
100
AcDbSymbolTableRecord
100
AcDbLayerTableRecord
  2
94
 70
     0
 62
    94
  6
CONTINUOUS
370
    -3
390
F
347
13
  0
LAYER
  5
B0
330
2
100
AcDbSymbolTableRecord
100
AcDbLayerTableRecord
  2
95
 70
     0
 62
    95
  6
CONTINUOUS
370
    -3
390
F
347
13
  0
LAYER
  5
B1
330
2
100
AcDbSymbolTableRecord
100
AcDbLayerTableRecord
  2
96
 70
     0
 62
    96
  6
CONTINUOUS
370
    -3
390
F
347
13
  0
LAYER
  5
B2
330
2
100
AcDbSymbolTableRecord
100
AcDbLayerTableRecord
  2
97
 70
     0
 62
    97
  6
CONTINUOUS
370
    -3
390
F
347
13
  0
LAYER
  5
B3
330
2
100
AcDbSymbolTableRecord
100
AcDbLayerTableRecord
  2
98
 70
     0
 62
    98
  6
CONTINUOUS
370
    -3
390
F
347
13
  0
LAYER
  5
B4
330
2
100
AcDbSymbolTableRecord
100
AcDbLayerTableRecord
  2
99
 70
     0
 62
    99
  6
CONTINUOUS
370
    -3
390
F
347
13
  0
LAYER
  5
B5
330
2
100
AcDbSymbolTableRecord
100
AcDbLayerTableRecord
  2
100
 70
     0
 62
   100
  6
CONTINUOUS
370
    -3
390
F
347
13
  0
LAYER
  5
B6
330
2
100
AcDbSymbolTableRecord
100
AcDbLayerTableRecord
  2
101
 70
     0
 62
   101
  6
CONTINUOUS
370
    -3
390
F
347
13
  0
LAYER
  5
B7
330
2
100
AcDbSymbolTableRecord
100
AcDbLayerTableRecord
  2
102
 70
     0
 62
   102
  6
CONTINUOUS
370
    -3
390
F
347
13
  0
LAYER
  5
B8
330
2
100
AcDbSymbolTableRecord
100
AcDbLayerTableRecord
  2
103
 70
     0
 62
   103
  6
CONTINUOUS
370
    -3
390
F
347
13
  0
LAYER
  5
B9
330
2
100
AcDbSymbolTableRecord
100
AcDbLayerTableRecord
  2
104
 70
     0
 62
   104
  6
CONTINUOUS
370
    -3
390
F
347
13
  0
LAYER
  5
BA
330
2
100
AcDbSymbolTableRecord
100
AcDbLayerTableRecord
  2
105
 70
     0
 62
   105
  6
CONTINUOUS
370
    -3
390
F
347
13
  0
LAYER
  5
BB
330
2
100
AcDbSymbolTableRecord
100
AcDbLayerTableRecord
  2
106
 70
     0
 62
   106
  6
CONTINUOUS
370
    -3
390
F
347
13
  0
LAYER
  5
BC
330
2
100
AcDbSymbolTableRecord
100
AcDbLayerTableRecord
  2
107
 70
     0
 62
   107
  6
CONTINUOUS
370
    -3
390
F
347
13
  0
LAYER
  5
BD
330
2
100
AcDbSymbolTableRecord
100
AcDbLayerTableRecord
  2
108
 70
     0
 62
   108
  6
CONTINUOUS
370
    -3
390
F
347
13
  0
LAYER
  5
BE
330
2
100
AcDbSymbolTableRecord
100
AcDbLayerTableRecord
  2
109
 70
     0
 62
   109
  6
CONTINUOUS
370
    -3
390
F
347
13
  0
LAYER
  5
BF
330
2
100
AcDbSymbolTableRecord
100
AcDbLayerTableRecord
  2
110
 70
     0
 62
   110
  6
CONTINUOUS
370
    -3
390
F
347
13
  0
LAYER
  5
C0
330
2
100
AcDbSymbolTableRecord
100
AcDbLayerTableRecord
  2
111
 70
     0
 62
   111
  6
CONTINUOUS
370
    -3
390
F
347
13
  0
LAYER
  5
C1
330
2
100
AcDbSymbolTableRecord
100
AcDbLayerTableRecord
  2
112
 70
     0
 62
   112
  6
CONTINUOUS
370
    -3
390
F
347
13
  0
LAYER
  5
C2
330
2
100
AcDbSymbolTableRecord
100
AcDbLayerTableRecord
  2
113
 70
     0
 62
   113
  6
CONTINUOUS
370
    -3
390
F
347
13
  0
LAYER
  5
C3
330
2
100
AcDbSymbolTableRecord
100
AcDbLayerTableRecord
  2
114
 70
     0
 62
   114
  6
CONTINUOUS
370
    -3
390
F
347
13
  0
LAYER
  5
C4
330
2
100
AcDbSymbolTableRecord
100
AcDbLayerTableRecord
  2
115
 70
     0
 62
   115
  6
CONTINUOUS
370
    -3
390
F
347
13
  0
LAYER
  5
C5
330
2
100
AcDbSymbolTableRecord
100
AcDbLayerTableRecord
  2
116
 70
     0
 62
   116
  6
CONTINUOUS
370
    -3
390
F
347
13
  0
LAYER
  5
C6
330
2
100
AcDbSymbolTableRecord
100
AcDbLayerTableRecord
  2
117
 70
     0
 62
   117
  6
CONTINUOUS
370
    -3
390
F
347
13
  0
LAYER
  5
C7
330
2
100
AcDbSymbolTableRecord
100
AcDbLayerTableRecord
  2
118
 70
     0
 62
   118
  6
CONTINUOUS
370
    -3
390
F
347
13
  0
LAYER
  5
C8
330
2
100
AcDbSymbolTableRecord
100
AcDbLayerTableRecord
  2
119
 70
     0
 62
   119
  6
CONTINUOUS
370
    -3
390
F
347
13
  0
LAYER
  5
C9
330
2
100
AcDbSymbolTableRecord
100
AcDbLayerTableRecord
  2
120
 70
     0
 62
   120
  6
CONTINUOUS
370
    -3
390
F
347
13
  0
LAYER
  5
CA
330
2
100
AcDbSymbolTableRecord
100
AcDbLayerTableRecord
  2
121
 70
     0
 62
   121
  6
CONTINUOUS
370
    -3
390
F
347
13
  0
LAYER
  5
CB
330
2
100
AcDbSymbolTableRecord
100
AcDbLayerTableRecord
  2
122
 70
     0
 62
   122
  6
CONTINUOUS
370
    -3
390
F
347
13
  0
LAYER
  5
CC
330
2
100
AcDbSymbolTableRecord
100
AcDbLayerTableRecord
  2
123
 70
     0
 62
   123
  6
CONTINUOUS
370
    -3
390
F
347
13
  0
LAYER
  5
CD
330
2
100
AcDbSymbolTableRecord
100
AcDbLayerTableRecord
  2
124
 70
     0
 62
   124
  6
CONTINUOUS
370
    -3
390
F
347
13
  0
LAYER
  5
CE
330
2
100
AcDbSymbolTableRecord
100
AcDbLayerTableRecord
  2
125
 70
     0
 62
   125
  6
CONTINUOUS
370
    -3
390
F
347
13
  0
LAYER
  5
CF
330
2
100
AcDbSymbolTableRecord
100
AcDbLayerTableRecord
  2
126
 70
     0
 62
   126
  6
CONTINUOUS
370
    -3
390
F
347
13
  0
LAYER
  5
D0
330
2
100
AcDbSymbolTableRecord
100
AcDbLayerTableRecord
  2
127
 70
     0
 62
   127
  6
CONTINUOUS
370
    -3
390
F
347
13
  0
LAYER
  5
D1
330
2
100
AcDbSymbolTableRecord
100
AcDbLayerTableRecord
  2
128
 70
     0
 62
   128
  6
CONTINUOUS
370
    -3
390
F
347
13
  0
LAYER
  5
D2
330
2
100
AcDbSymbolTableRecord
100
AcDbLayerTableRecord
  2
129
 70
     0
 62
   129
  6
CONTINUOUS
370
    -3
390
F
347
13
  0
LAYER
  5
D3
330
2
100
AcDbSymbolTableRecord
100
AcDbLayerTableRecord
  2
130
 70
     0
 62
   130
  6
CONTINUOUS
370
    -3
390
F
347
13
  0
LAYER
  5
D4
330
2
100
AcDbSymbolTableRecord
100
AcDbLayerTableRecord
  2
131
 70
     0
 62
   131
  6
CONTINUOUS
370
    -3
390
F
347
13
  0
LAYER
  5
D5
330
2
100
AcDbSymbolTableRecord
100
AcDbLayerTableRecord
  2
132
 70
     0
 62
   132
  6
CONTINUOUS
370
    -3
390
F
347
13
  0
LAYER
  5
D6
330
2
100
AcDbSymbolTableRecord
100
AcDbLayerTableRecord
  2
133
 70
     0
 62
   133
  6
CONTINUOUS
370
    -3
390
F
347
13
  0
LAYER
  5
D7
330
2
100
AcDbSymbolTableRecord
100
AcDbLayerTableRecord
  2
134
 70
     0
 62
   134
  6
CONTINUOUS
370
    -3
390
F
347
13
  0
LAYER
  5
D8
330
2
100
AcDbSymbolTableRecord
100
AcDbLayerTableRecord
  2
135
 70
     0
 62
   135
  6
CONTINUOUS
370
    -3
390
F
347
13
  0
LAYER
  5
D9
330
2
100
AcDbSymbolTableRecord
100
AcDbLayerTableRecord
  2
136
 70
     0
 62
   136
  6
CONTINUOUS
370
    -3
390
F
347
13
  0
LAYER
  5
DA
330
2
100
AcDbSymbolTableRecord
100
AcDbLayerTableRecord
  2
137
 70
     0
 62
   137
  6
CONTINUOUS
370
    -3
390
F
347
13
  0
LAYER
  5
DB
330
2
100
AcDbSymbolTableRecord
100
AcDbLayerTableRecord
  2
138
 70
     0
 62
   138
  6
CONTINUOUS
370
    -3
390
F
347
13
  0
LAYER
  5
DC
330
2
100
AcDbSymbolTableRecord
100
AcDbLayerTableRecord
  2
139
 70
     0
 62
   139
  6
CONTINUOUS
370
    -3
390
F
347
13
  0
LAYER
  5
DD
330
2
100
AcDbSymbolTableRecord
100
AcDbLayerTableRecord
  2
140
 70
     0
 62
   140
  6
CONTINUOUS
370
    -3
390
F
347
13
  0
LAYER
  5
DE
330
2
100
AcDbSymbolTableRecord
100
AcDbLayerTableRecord
  2
141
 70
     0
 62
   141
  6
CONTINUOUS
370
    -3
390
F
347
13
  0
LAYER
  5
DF
330
2
100
AcDbSymbolTableRecord
100
AcDbLayerTableRecord
  2
142
 70
     0
 62
   142
  6
CONTINUOUS
370
    -3
390
F
347
13
  0
LAYER
  5
E0
330
2
100
AcDbSymbolTableRecord
100
AcDbLayerTableRecord
  2
143
 70
     0
 62
   143
  6
CONTINUOUS
370
    -3
390
F
347
13
  0
LAYER
  5
E1
330
2
100
AcDbSymbolTableRecord
100
AcDbLayerTableRecord
  2
144
 70
     0
 62
   144
  6
CONTINUOUS
370
    -3
390
F
347
13
  0
LAYER
  5
E2
330
2
100
AcDbSymbolTableRecord
100
AcDbLayerTableRecord
  2
145
 70
     0
 62
   145
  6
CONTINUOUS
370
    -3
390
F
347
13
  0
LAYER
  5
E3
330
2
100
AcDbSymbolTableRecord
100
AcDbLayerTableRecord
  2
146
 70
     0
 62
   146
  6
CONTINUOUS
370
    -3
390
F
347
13
  0
LAYER
  5
E4
330
2
100
AcDbSymbolTableRecord
100
AcDbLayerTableRecord
  2
147
 70
     0
 62
   147
  6
CONTINUOUS
370
    -3
390
F
347
13
  0
LAYER
  5
E5
330
2
100
AcDbSymbolTableRecord
100
AcDbLayerTableRecord
  2
148
 70
     0
 62
   148
  6
CONTINUOUS
370
    -3
390
F
347
13
  0
LAYER
  5
E6
330
2
100
AcDbSymbolTableRecord
100
AcDbLayerTableRecord
  2
149
 70
     0
 62
   149
  6
CONTINUOUS
370
    -3
390
F
347
13
  0
LAYER
  5
E7
330
2
100
AcDbSymbolTableRecord
100
AcDbLayerTableRecord
  2
150
 70
     0
 62
   150
  6
CONTINUOUS
370
    -3
390
F
347
13
  0
LAYER
  5
E8
330
2
100
AcDbSymbolTableRecord
100
AcDbLayerTableRecord
  2
151
 70
     0
 62
   151
  6
CONTINUOUS
370
    -3
390
F
347
13
  0
LAYER
  5
E9
330
2
100
AcDbSymbolTableRecord
100
AcDbLayerTableRecord
  2
152
 70
     0
 62
   152
  6
CONTINUOUS
370
    -3
390
F
347
13
  0
LAYER
  5
EA
330
2
100
AcDbSymbolTableRecord
100
AcDbLayerTableRecord
  2
153
 70
     0
 62
   153
  6
CONTINUOUS
370
    -3
390
F
347
13
  0
LAYER
  5
EB
330
2
100
AcDbSymbolTableRecord
100
AcDbLayerTableRecord
  2
154
 70
     0
 62
   154
  6
CONTINUOUS
370
    -3
390
F
347
13
  0
LAYER
  5
EC
330
2
100
AcDbSymbolTableRecord
100
AcDbLayerTableRecord
  2
155
 70
     0
 62
   155
  6
CONTINUOUS
370
    -3
390
F
347
13
  0
LAYER
  5
ED
330
2
100
AcDbSymbolTableRecord
100
AcDbLayerTableRecord
  2
156
 70
     0
 62
   156
  6
CONTINUOUS
370
    -3
390
F
347
13
  0
LAYER
  5
EE
330
2
100
AcDbSymbolTableRecord
100
AcDbLayerTableRecord
  2
157
 70
     0
 62
   157
  6
CONTINUOUS
370
    -3
390
F
347
13
  0
LAYER
  5
EF
330
2
100
AcDbSymbolTableRecord
100
AcDbLayerTableRecord
  2
158
 70
     0
 62
   158
  6
CONTINUOUS
370
    -3
390
F
347
13
  0
LAYER
  5
F0
330
2
100
AcDbSymbolTableRecord
100
AcDbLayerTableRecord
  2
159
 70
     0
 62
   159
  6
CONTINUOUS
370
    -3
390
F
347
13
  0
LAYER
  5
F1
330
2
100
AcDbSymbolTableRecord
100
AcDbLayerTableRecord
  2
160
 70
     0
 62
   160
  6
CONTINUOUS
370
    -3
390
F
347
13
  0
LAYER
  5
F2
330
2
100
AcDbSymbolTableRecord
100
AcDbLayerTableRecord
  2
161
 70
     0
 62
   161
  6
CONTINUOUS
370
    -3
390
F
347
13
  0
LAYER
  5
F3
330
2
100
AcDbSymbolTableRecord
100
AcDbLayerTableRecord
  2
162
 70
     0
 62
   162
  6
CONTINUOUS
370
    -3
390
F
347
13
  0
LAYER
  5
F4
330
2
100
AcDbSymbolTableRecord
100
AcDbLayerTableRecord
  2
163
 70
     0
 62
   163
  6
CONTINUOUS
370
    -3
390
F
347
13
  0
LAYER
  5
F5
330
2
100
AcDbSymbolTableRecord
100
AcDbLayerTableRecord
  2
164
 70
     0
 62
   164
  6
CONTINUOUS
370
    -3
390
F
347
13
  0
LAYER
  5
F6
330
2
100
AcDbSymbolTableRecord
100
AcDbLayerTableRecord
  2
165
 70
     0
 62
   165
  6
CONTINUOUS
370
    -3
390
F
347
13
  0
LAYER
  5
F7
330
2
100
AcDbSymbolTableRecord
100
AcDbLayerTableRecord
  2
166
 70
     0
 62
   166
  6
CONTINUOUS
370
    -3
390
F
347
13
  0
LAYER
  5
F8
330
2
100
AcDbSymbolTableRecord
100
AcDbLayerTableRecord
  2
167
 70
     0
 62
   167
  6
CONTINUOUS
370
    -3
390
F
347
13
  0
LAYER
  5
F9
330
2
100
AcDbSymbolTableRecord
100
AcDbLayerTableRecord
  2
168
 70
     0
 62
   168
  6
CONTINUOUS
370
    -3
390
F
347
13
  0
LAYER
  5
FA
330
2
100
AcDbSymbolTableRecord
100
AcDbLayerTableRecord
  2
169
 70
     0
 62
   169
  6
CONTINUOUS
370
    -3
390
F
347
13
  0
LAYER
  5
FB
330
2
100
AcDbSymbolTableRecord
100
AcDbLayerTableRecord
  2
170
 70
     0
 62
   170
  6
CONTINUOUS
370
    -3
390
F
347
13
  0
LAYER
  5
FC
330
2
100
AcDbSymbolTableRecord
100
AcDbLayerTableRecord
  2
171
 70
     0
 62
   171
  6
CONTINUOUS
370
    -3
390
F
347
13
  0
LAYER
  5
FD
330
2
100
AcDbSymbolTableRecord
100
AcDbLayerTableRecord
  2
172
 70
     0
 62
   172
  6
CONTINUOUS
370
    -3
390
F
347
13
  0
LAYER
  5
FE
330
2
100
AcDbSymbolTableRecord
100
AcDbLayerTableRecord
  2
173
 70
     0
 62
   173
  6
CONTINUOUS
370
    -3
390
F
347
13
  0
LAYER
  5
FF
330
2
100
AcDbSymbolTableRecord
100
AcDbLayerTableRecord
  2
174
 70
     0
 62
   174
  6
CONTINUOUS
370
    -3
390
F
347
13
  0
LAYER
  5
100
330
2
100
AcDbSymbolTableRecord
100
AcDbLayerTableRecord
  2
175
 70
     0
 62
   175
  6
CONTINUOUS
370
    -3
390
F
347
13
  0
LAYER
  5
101
330
2
100
AcDbSymbolTableRecord
100
AcDbLayerTableRecord
  2
176
 70
     0
 62
   176
  6
CONTINUOUS
370
    -3
390
F
347
13
  0
LAYER
  5
102
330
2
100
AcDbSymbolTableRecord
100
AcDbLayerTableRecord
  2
177
 70
     0
 62
   177
  6
CONTINUOUS
370
    -3
390
F
347
13
  0
LAYER
  5
103
330
2
100
AcDbSymbolTableRecord
100
AcDbLayerTableRecord
  2
178
 70
     0
 62
   178
  6
CONTINUOUS
370
    -3
390
F
347
13
  0
LAYER
  5
104
330
2
100
AcDbSymbolTableRecord
100
AcDbLayerTableRecord
  2
179
 70
     0
 62
   179
  6
CONTINUOUS
370
    -3
390
F
347
13
  0
LAYER
  5
105
330
2
100
AcDbSymbolTableRecord
100
AcDbLayerTableRecord
  2
180
 70
     0
 62
   180
  6
CONTINUOUS
370
    -3
390
F
347
13
  0
LAYER
  5
106
330
2
100
AcDbSymbolTableRecord
100
AcDbLayerTableRecord
  2
181
 70
     0
 62
   181
  6
CONTINUOUS
370
    -3
390
F
347
13
  0
LAYER
  5
107
330
2
100
AcDbSymbolTableRecord
100
AcDbLayerTableRecord
  2
182
 70
     0
 62
   182
  6
CONTINUOUS
370
    -3
390
F
347
13
  0
LAYER
  5
108
330
2
100
AcDbSymbolTableRecord
100
AcDbLayerTableRecord
  2
183
 70
     0
 62
   183
  6
CONTINUOUS
370
    -3
390
F
347
13
  0
LAYER
  5
109
330
2
100
AcDbSymbolTableRecord
100
AcDbLayerTableRecord
  2
184
 70
     0
 62
   184
  6
CONTINUOUS
370
    -3
390
F
347
13
  0
LAYER
  5
10A
330
2
100
AcDbSymbolTableRecord
100
AcDbLayerTableRecord
  2
185
 70
     0
 62
   185
  6
CONTINUOUS
370
    -3
390
F
347
13
  0
LAYER
  5
10B
330
2
100
AcDbSymbolTableRecord
100
AcDbLayerTableRecord
  2
186
 70
     0
 62
   186
  6
CONTINUOUS
370
    -3
390
F
347
13
  0
LAYER
  5
10C
330
2
100
AcDbSymbolTableRecord
100
AcDbLayerTableRecord
  2
187
 70
     0
 62
   187
  6
CONTINUOUS
370
    -3
390
F
347
13
  0
LAYER
  5
10D
330
2
100
AcDbSymbolTableRecord
100
AcDbLayerTableRecord
  2
188
 70
     0
 62
   188
  6
CONTINUOUS
370
    -3
390
F
347
13
  0
LAYER
  5
10E
330
2
100
AcDbSymbolTableRecord
100
AcDbLayerTableRecord
  2
189
 70
     0
 62
   189
  6
CONTINUOUS
370
    -3
390
F
347
13
  0
LAYER
  5
10F
330
2
100
AcDbSymbolTableRecord
100
AcDbLayerTableRecord
  2
190
 70
     0
 62
   190
  6
CONTINUOUS
370
    -3
390
F
347
13
  0
LAYER
  5
110
330
2
100
AcDbSymbolTableRecord
100
AcDbLayerTableRecord
  2
191
 70
     0
 62
   191
  6
CONTINUOUS
370
    -3
390
F
347
13
  0
LAYER
  5
111
330
2
100
AcDbSymbolTableRecord
100
AcDbLayerTableRecord
  2
192
 70
     0
 62
   192
  6
CONTINUOUS
370
    -3
390
F
347
13
  0
LAYER
  5
112
330
2
100
AcDbSymbolTableRecord
100
AcDbLayerTableRecord
  2
193
 70
     0
 62
   193
  6
CONTINUOUS
370
    -3
390
F
347
13
  0
LAYER
  5
113
330
2
100
AcDbSymbolTableRecord
100
AcDbLayerTableRecord
  2
194
 70
     0
 62
   194
  6
CONTINUOUS
370
    -3
390
F
347
13
  0
LAYER
  5
114
330
2
100
AcDbSymbolTableRecord
100
AcDbLayerTableRecord
  2
195
 70
     0
 62
   195
  6
CONTINUOUS
370
    -3
390
F
347
13
  0
LAYER
  5
115
330
2
100
AcDbSymbolTableRecord
100
AcDbLayerTableRecord
  2
196
 70
     0
 62
   196
  6
CONTINUOUS
370
    -3
390
F
347
13
  0
LAYER
  5
116
330
2
100
AcDbSymbolTableRecord
100
AcDbLayerTableRecord
  2
197
 70
     0
 62
   197
  6
CONTINUOUS
370
    -3
390
F
347
13
  0
LAYER
  5
117
330
2
100
AcDbSymbolTableRecord
100
AcDbLayerTableRecord
  2
198
 70
     0
 62
   198
  6
CONTINUOUS
370
    -3
390
F
347
13
  0
LAYER
  5
118
330
2
100
AcDbSymbolTableRecord
100
AcDbLayerTableRecord
  2
199
 70
     0
 62
   199
  6
CONTINUOUS
370
    -3
390
F
347
13
  0
LAYER
  5
119
330
2
100
AcDbSymbolTableRecord
100
AcDbLayerTableRecord
  2
200
 70
     0
 62
   200
  6
CONTINUOUS
370
    -3
390
F
347
13
  0
LAYER
  5
11A
330
2
100
AcDbSymbolTableRecord
100
AcDbLayerTableRecord
  2
201
 70
     0
 62
   201
  6
CONTINUOUS
370
    -3
390
F
347
13
  0
LAYER
  5
11B
330
2
100
AcDbSymbolTableRecord
100
AcDbLayerTableRecord
  2
202
 70
     0
 62
   202
  6
CONTINUOUS
370
    -3
390
F
347
13
  0
LAYER
  5
11C
330
2
100
AcDbSymbolTableRecord
100
AcDbLayerTableRecord
  2
203
 70
     0
 62
   203
  6
CONTINUOUS
370
    -3
390
F
347
13
  0
LAYER
  5
11D
330
2
100
AcDbSymbolTableRecord
100
AcDbLayerTableRecord
  2
204
 70
     0
 62
   204
  6
CONTINUOUS
370
    -3
390
F
347
13
  0
LAYER
  5
11E
330
2
100
AcDbSymbolTableRecord
100
AcDbLayerTableRecord
  2
205
 70
     0
 62
   205
  6
CONTINUOUS
370
    -3
390
F
347
13
  0
LAYER
  5
11F
330
2
100
AcDbSymbolTableRecord
100
AcDbLayerTableRecord
  2
206
 70
     0
 62
   206
  6
CONTINUOUS
370
    -3
390
F
347
13
  0
LAYER
  5
120
330
2
100
AcDbSymbolTableRecord
100
AcDbLayerTableRecord
  2
207
 70
     0
 62
   207
  6
CONTINUOUS
370
    -3
390
F
347
13
  0
LAYER
  5
121
330
2
100
AcDbSymbolTableRecord
100
AcDbLayerTableRecord
  2
208
 70
     0
 62
   208
  6
CONTINUOUS
370
    -3
390
F
347
13
  0
LAYER
  5
122
330
2
100
AcDbSymbolTableRecord
100
AcDbLayerTableRecord
  2
209
 70
     0
 62
   209
  6
CONTINUOUS
370
    -3
390
F
347
13
  0
LAYER
  5
123
330
2
100
AcDbSymbolTableRecord
100
AcDbLayerTableRecord
  2
210
 70
     0
 62
   210
  6
CONTINUOUS
370
    -3
390
F
347
13
  0
LAYER
  5
124
330
2
100
AcDbSymbolTableRecord
100
AcDbLayerTableRecord
  2
211
 70
     0
 62
   211
  6
CONTINUOUS
370
    -3
390
F
347
13
  0
LAYER
  5
125
330
2
100
AcDbSymbolTableRecord
100
AcDbLayerTableRecord
  2
212
 70
     0
 62
   212
  6
CONTINUOUS
370
    -3
390
F
347
13
  0
LAYER
  5
126
330
2
100
AcDbSymbolTableRecord
100
AcDbLayerTableRecord
  2
213
 70
     0
 62
   213
  6
CONTINUOUS
370
    -3
390
F
347
13
  0
LAYER
  5
127
330
2
100
AcDbSymbolTableRecord
100
AcDbLayerTableRecord
  2
214
 70
     0
 62
   214
  6
CONTINUOUS
370
    -3
390
F
347
13
  0
LAYER
  5
128
330
2
100
AcDbSymbolTableRecord
100
AcDbLayerTableRecord
  2
215
 70
     0
 62
   215
  6
CONTINUOUS
370
    -3
390
F
347
13
  0
LAYER
  5
129
330
2
100
AcDbSymbolTableRecord
100
AcDbLayerTableRecord
  2
216
 70
     0
 62
   216
  6
CONTINUOUS
370
    -3
390
F
347
13
  0
LAYER
  5
12A
330
2
100
AcDbSymbolTableRecord
100
AcDbLayerTableRecord
  2
217
 70
     0
 62
   217
  6
CONTINUOUS
370
    -3
390
F
347
13
  0
LAYER
  5
12B
330
2
100
AcDbSymbolTableRecord
100
AcDbLayerTableRecord
  2
218
 70
     0
 62
   218
  6
CONTINUOUS
370
    -3
390
F
347
13
  0
LAYER
  5
12C
330
2
100
AcDbSymbolTableRecord
100
AcDbLayerTableRecord
  2
219
 70
     0
 62
   219
  6
CONTINUOUS
370
    -3
390
F
347
13
  0
LAYER
  5
12D
330
2
100
AcDbSymbolTableRecord
100
AcDbLayerTableRecord
  2
220
 70
     0
 62
   220
  6
CONTINUOUS
370
    -3
390
F
347
13
  0
LAYER
  5
12E
330
2
100
AcDbSymbolTableRecord
100
AcDbLayerTableRecord
  2
221
 70
     0
 62
   221
  6
CONTINUOUS
370
    -3
390
F
347
13
  0
LAYER
  5
12F
330
2
100
AcDbSymbolTableRecord
100
AcDbLayerTableRecord
  2
222
 70
     0
 62
   222
  6
CONTINUOUS
370
    -3
390
F
347
13
  0
LAYER
  5
130
330
2
100
AcDbSymbolTableRecord
100
AcDbLayerTableRecord
  2
223
 70
     0
 62
   223
  6
CONTINUOUS
370
    -3
390
F
347
13
  0
LAYER
  5
131
330
2
100
AcDbSymbolTableRecord
100
AcDbLayerTableRecord
  2
224
 70
     0
 62
   224
  6
CONTINUOUS
370
    -3
390
F
347
13
  0
LAYER
  5
132
330
2
100
AcDbSymbolTableRecord
100
AcDbLayerTableRecord
  2
225
 70
     0
 62
   225
  6
CONTINUOUS
370
    -3
390
F
347
13
  0
LAYER
  5
133
330
2
100
AcDbSymbolTableRecord
100
AcDbLayerTableRecord
  2
226
 70
     0
 62
   226
  6
CONTINUOUS
370
    -3
390
F
347
13
  0
LAYER
  5
134
330
2
100
AcDbSymbolTableRecord
100
AcDbLayerTableRecord
  2
227
 70
     0
 62
   227
  6
CONTINUOUS
370
    -3
390
F
347
13
  0
LAYER
  5
135
330
2
100
AcDbSymbolTableRecord
100
AcDbLayerTableRecord
  2
228
 70
     0
 62
   228
  6
CONTINUOUS
370
    -3
390
F
347
13
  0
LAYER
  5
136
330
2
100
AcDbSymbolTableRecord
100
AcDbLayerTableRecord
  2
229
 70
     0
 62
   229
  6
CONTINUOUS
370
    -3
390
F
347
13
  0
LAYER
  5
137
330
2
100
AcDbSymbolTableRecord
100
AcDbLayerTableRecord
  2
230
 70
     0
 62
   230
  6
CONTINUOUS
370
    -3
390
F
347
13
  0
LAYER
  5
138
330
2
100
AcDbSymbolTableRecord
100
AcDbLayerTableRecord
  2
231
 70
     0
 62
   231
  6
CONTINUOUS
370
    -3
390
F
347
13
  0
LAYER
  5
139
330
2
100
AcDbSymbolTableRecord
100
AcDbLayerTableRecord
  2
232
 70
     0
 62
   232
  6
CONTINUOUS
370
    -3
390
F
347
13
  0
LAYER
  5
13A
330
2
100
AcDbSymbolTableRecord
100
AcDbLayerTableRecord
  2
233
 70
     0
 62
   233
  6
CONTINUOUS
370
    -3
390
F
347
13
  0
LAYER
  5
13B
330
2
100
AcDbSymbolTableRecord
100
AcDbLayerTableRecord
  2
234
 70
     0
 62
   234
  6
CONTINUOUS
370
    -3
390
F
347
13
  0
LAYER
  5
13C
330
2
100
AcDbSymbolTableRecord
100
AcDbLayerTableRecord
  2
235
 70
     0
 62
   235
  6
CONTINUOUS
370
    -3
390
F
347
13
  0
LAYER
  5
13D
330
2
100
AcDbSymbolTableRecord
100
AcDbLayerTableRecord
  2
236
 70
     0
 62
   236
  6
CONTINUOUS
370
    -3
390
F
347
13
  0
LAYER
  5
13E
330
2
100
AcDbSymbolTableRecord
100
AcDbLayerTableRecord
  2
237
 70
     0
 62
   237
  6
CONTINUOUS
370
    -3
390
F
347
13
  0
LAYER
  5
13F
330
2
100
AcDbSymbolTableRecord
100
AcDbLayerTableRecord
  2
238
 70
     0
 62
   238
  6
CONTINUOUS
370
    -3
390
F
347
13
  0
LAYER
  5
140
330
2
100
AcDbSymbolTableRecord
100
AcDbLayerTableRecord
  2
239
 70
     0
 62
   239
  6
CONTINUOUS
370
    -3
390
F
347
13
  0
LAYER
  5
141
330
2
100
AcDbSymbolTableRecord
100
AcDbLayerTableRecord
  2
240
 70
     0
 62
   240
  6
CONTINUOUS
370
    -3
390
F
347
13
  0
LAYER
  5
142
330
2
100
AcDbSymbolTableRecord
100
AcDbLayerTableRecord
  2
241
 70
     0
 62
   241
  6
CONTINUOUS
370
    -3
390
F
347
13
  0
LAYER
  5
143
330
2
100
AcDbSymbolTableRecord
100
AcDbLayerTableRecord
  2
242
 70
     0
 62
   242
  6
CONTINUOUS
370
    -3
390
F
347
13
  0
LAYER
  5
144
330
2
100
AcDbSymbolTableRecord
100
AcDbLayerTableRecord
  2
243
 70
     0
 62
   243
  6
CONTINUOUS
370
    -3
390
F
347
13
  0
LAYER
  5
145
330
2
100
AcDbSymbolTableRecord
100
AcDbLayerTableRecord
  2
244
 70
     0
 62
   244
  6
CONTINUOUS
370
    -3
390
F
347
13
  0
LAYER
  5
146
330
2
100
AcDbSymbolTableRecord
100
AcDbLayerTableRecord
  2
245
 70
     0
 62
   245
  6
CONTINUOUS
370
    -3
390
F
347
13
  0
LAYER
  5
147
330
2
100
AcDbSymbolTableRecord
100
AcDbLayerTableRecord
  2
246
 70
     0
 62
   246
  6
CONTINUOUS
370
    -3
390
F
347
13
  0
LAYER
  5
148
330
2
100
AcDbSymbolTableRecord
100
AcDbLayerTableRecord
  2
247
 70
     0
 62
   247
  6
CONTINUOUS
370
    -3
390
F
347
13
  0
LAYER
  5
149
330
2
100
AcDbSymbolTableRecord
100
AcDbLayerTableRecord
  2
248
 70
     0
 62
   248
  6
CONTINUOUS
370
    -3
390
F
347
13
  0
LAYER
  5
14A
330
2
100
AcDbSymbolTableRecord
100
AcDbLayerTableRecord
  2
249
 70
     0
 62
   249
  6
CONTINUOUS
370
    -3
390
F
347
13
  0
LAYER
  5
14B
330
2
100
AcDbSymbolTableRecord
100
AcDbLayerTableRecord
  2
250
 70
     0
 62
   250
  6
CONTINUOUS
370
    -3
390
F
347
13
  0
LAYER
  5
14C
330
2
100
AcDbSymbolTableRecord
100
AcDbLayerTableRecord
  2
251
 70
     0
 62
   251
  6
CONTINUOUS
370
    -3
390
F
347
13
  0
LAYER
  5
14D
330
2
100
AcDbSymbolTableRecord
100
AcDbLayerTableRecord
  2
252
 70
     0
 62
   252
  6
CONTINUOUS
370
    -3
390
F
347
13
  0
LAYER
  5
14E
330
2
100
AcDbSymbolTableRecord
100
AcDbLayerTableRecord
  2
253
 70
     0
 62
   253
  6
CONTINUOUS
370
    -3
390
F
347
13
  0
LAYER
  5
14F
330
2
100
AcDbSymbolTableRecord
100
AcDbLayerTableRecord
  2
254
 70
     0
 62
   254
  6
CONTINUOUS
370
    -3
390
F
347
13
  0
LAYER
  5
150
330
2
100
AcDbSymbolTableRecord
100
AcDbLayerTableRecord
  2
255
 70
     0
 62
   255
  6
CONTINUOUS
370
    -3
390
F
347
13
  0
LAYER
  5
2E65
330
2
100
AcDbSymbolTableRecord
100
AcDbLayerTableRecord
  2
Defpoints
 70
     0
 62
     7
  6
CONTINUOUS
290
     0
370
    -3
390
F
347
13
  0
ENDTAB
  0
TABLE
  2
STYLE
  5
3
330
0
100
AcDbSymbolTable
 70
     1
  0
STYLE
  5
26
330
3
100
AcDbSymbolTableRecord
100
AcDbTextStyleTableRecord
  2
STANDARD
 70
     0
 40
0.0
 41
1.0
 50
0.0
 71
     0
 42
0.2
  3
txt
  4

  0
ENDTAB
  0
TABLE
  2
VIEW
  5
6
330
0
100
AcDbSymbolTable
 70
     0
  0
ENDTAB
  0
TABLE
  2
UCS
  5
7
330
0
100
AcDbSymbolTable
 70
     0
  0
ENDTAB
  0
TABLE
  2
APPID
  5
9
330
0
100
AcDbSymbolTable
 70
     1
  0
APPID
  5
27
330
9
100
AcDbSymbolTableRecord
100
AcDbRegAppTableRecord
  2
ACAD
 70
     0
  0
ENDTAB
  0
TABLE
  2
DIMSTYLE
  5
A
330
0
100
AcDbSymbolTable
 70
     1
100
AcDbDimStyleTable
 71
     1
340
2E61
  0
DIMSTYLE
105
2E61
330
A
100
AcDbSymbolTableRecord
100
AcDbDimStyleTableRecord
  2
Standard
 70
     0
340
26
  0
ENDTAB
  0
TABLE
  2
BLOCK_RECORD
  5
1
330
0
100
AcDbSymbolTable
 70
     1
  0
BLOCK_RECORD
  5
36
330
1
100
AcDbSymbolTableRecord
100
AcDbBlockTableRecord
  2
*Model_Space
340
39
 70
     0
280
     1
281
     0
  0
BLOCK_RECORD
  5
32
330
1
100
AcDbSymbolTableRecord
100
AcDbBlockTableRecord
  2
*Paper_Space
340
35
 70
     0
280
     1
281
     0
  0
BLOCK_RECORD
  5
2E66
330
1
100
AcDbSymbolTableRecord
100
AcDbBlockTableRecord
  2
*D0
340
0
 70
     0
280
     1
281
     0
  0
ENDTAB
  0
ENDSEC
  0
SECTION
  2
BLOCKS
  0
BLOCK
  5
153
330
36
100
AcDbEntity
  8
0
100
AcDbBlockBegin
  2
*Model_Space
 70
     0
 10
0.0
 20
0.0
 30
0.0
  3
*Model_Space
  1

  0
ENDBLK
  5
154
330
36
100
AcDbEntity
  8
0
100
AcDbBlockEnd
  0
BLOCK
  5
151
330
32
100
AcDbEntity
 67
     1
  8
0
100
AcDbBlockBegin
  2
*Paper_Space
 70
     0
 10
0.0
 20
0.0
 30
0.0
  3
*Paper_Space
  1

  0
ENDBLK
  5
152
330
32
100
AcDbEntity
 67
     1
  8
0
100
AcDbBlockEnd
  0
BLOCK
  5
2E71
330
2E66
100
AcDbEntity
  8
0
100
AcDbBlockBegin
  2
*D0
 70
     1
 10
0.0
 20
0.0
 30
0.0
  3
*D0
  1

  0
LINE
  5
2E7F
330
2E66
100
AcDbEntity
  8
0
 62
     0
370
    -2
100
AcDbLine
 10
-15.72174957721288
 20
3.285925196850392
 30
0.0
 11
-15.72174957721288
 21
0.7186321554810582
 31
0.0
  0
LINE
  5
2E80
330
2E66
100
AcDbEntity
  8
0
 62
     0
370
    -2
100
AcDbLine
 10
3.132581131448535
 20
3.285925196850392
 30
0.0
 11
3.132581131448535
 21
0.7186321554810582
 31
0.0
  0
LINE
  5
2E81
330
2E66
100
AcDbEntity
  8
0
 62
     0
370
    -2
100
AcDbLine
 10
-15.54174957721288
 20
0.8986321554810583
 30
0.0
 11
-6.894584222882173
 21
0.8986321554810583
 31
0.0
  0
LINE
  5
2E82
330
2E66
100
AcDbEntity
  8
0
 62
     0
370
    -2
100
AcDbLine
 10
2.952581131448535
 20
0.8986321554810583
 30
0.0
 11
-5.694584222882173
 21
0.8986321554810583
 31
0.0
  0
SOLID
  5
2E83
330
2E66
100
AcDbEntity
  8
0
 62
     0
100
AcDbTrace
 10
-15.54174957721288
 20
0.9286321554810584
 30
0.0
 11
-15.54174957721288
 21
0.8686321554810582
 31
0.0
 12
-15.72174957721288
 22
0.8986321554810583
 32
0.0
 13
-15.72174957721288
 23
0.8986321554810583
 33
0.0
  0
SOLID
  5
2E84
330
2E66
100
AcDbEntity
  8
0
 62
     0
100
AcDbTrace
 10
2.952581131448535
 20
0.9286321554810584
 30
0.0
 11
2.952581131448535
 21
0.8686321554810582
 31
0.0
 12
3.132581131448535
 22
0.8986321554810583
 32
0.0
 13
3.132581131448535
 23
0.8986321554810583
 33
0.0
  0
MTEXT
  5
2E85
330
2E66
100
AcDbEntity
  8
0
 62
     0
100
AcDbMText
 10
-6.294584222882173
 20
0.8986321554810583
 30
0.0
 40
0.18
 41
0.0
 46
0.0
 71
     5
 72
     1
  1
\A1;18.8543
 73
     1
 44
1.0
  0
POINT
  5
2E86
330
2E66
100
AcDbEntity
  8
Defpoints
 62
     0
100
AcDbPoint
 10
-15.72174957721288
 20
3.348425196850392
 30
0.0
  0
POINT
  5
2E87
330
2E66
100
AcDbEntity
  8
Defpoints
 62
     0
100
AcDbPoint
 10
3.132581131448535
 20
3.348425196850392
 30
0.0
  0
POINT
  5
2E88
330
2E66
100
AcDbEntity
  8
Defpoints
 62
     0
100
AcDbPoint
 10
3.132581131448535
 20
0.8986321554810583
 30
0.0
  0
ENDBLK
  5
2E72
330
2E66
100
AcDbEntity
  8
0
100
AcDbBlockEnd
  0
ENDSEC
  0
SECTION
  2
ENTITIES
  0
LINE
  5
2900
330
36
100
AcDbEntity
  8
0
100
AcDbLine
 10
-6.095765325244377
 20
7.824803149606298
 30
0.0
 11
-6.493403120519968
 21
7.824803149606298
 31
0.0
  0
LINE
  5
2901
330
36
100
AcDbEntity
  8
0
100
AcDbLine
 10
-6.493403120519968
 20
7.742125984251968
 30
0.0
 11
-6.45403304177981
 21
7.742125984251968
 31
0.0
  0
LINE
  5
2902
330
36
100
AcDbEntity
  8
0
100
AcDbLine
 10
-6.135135403984534
 20
7.742125984251968
 30
0.0
 11
-6.095765325244377
 21
7.742125984251968
 31
0.0
  0
LINE
  5
2903
330
36
100
AcDbEntity
  8
0
100
AcDbLine
 10
-14.65875745122863
 20
7.872047244094487
 30
0.0
 11
-14.65875745122863
 21
7.844488188976376
 31
0.0
  0
LINE
  5
2904
330
36
100
AcDbEntity
  8
0
100
AcDbLine
 10
2.069589005464283
 20
7.844488188976376
 30
0.0
 11
2.069589005464283
 21
7.872047244094487
 31
0.0
  0
LWPOLYLINE
  5
2905
330
36
100
AcDbEntity
  8
0
100
AcDbPolyline
 90
        3
 70
     0
 43
0.0
 10
-0.6351354039845348
 20
7.844488188976376
 10
-0.6351354039845348
 20
7.840551181102361
 10
-0.6351354039845348
 20
7.836614173228346
  0
LWPOLYLINE
  5
290A
330
36
100
AcDbEntity
  8
0
100
AcDbPolyline
 90
        3
 70
     0
 43
0.0
 10
-0.6351354039845348
 20
7.836614173228346
 10
-0.6351354039845348
 20
7.820866141732283
 10
-0.6351354039845348
 20
7.81299212598425
  0
LWPOLYLINE
  5
290F
330
36
100
AcDbEntity
  8
0
100
AcDbPolyline
 90
        3
 70
     0
 43
0.0
 10
-14.59970233311839
 20
7.872047244094487
 10
-14.64300941973257
 20
7.872047244094487
 10
-14.65875745122863
 20
7.872047244094487
  0
LINE
  5
2914
330
36
100
AcDbEntity
  8
0
100
AcDbLine
 10
-6.831985797685323
 20
7.872047244094487
 30
0.0
 11
-14.59970233311839
 21
7.872047244094487
 31
0.0
  0
LWPOLYLINE
  5
2915
330
36
100
AcDbEntity
  8
0
100
AcDbPolyline
 90
        3
 70
     0
 43
0.0
 10
-6.757182648079023
 20
7.872047244094487
 10
-6.79655272681918
 20
7.872047244094487
 10
-6.831985797685323
 20
7.872047244094487
  0
LINE
  5
291A
330
36
100
AcDbEntity
  8
0
100
AcDbLine
 10
-5.835922805559338
 20
7.872047244094487
 30
0.0
 11
-6.757182648079023
 21
7.872047244094487
 31
0.0
  0
LWPOLYLINE
  5
291B
330
36
100
AcDbEntity
  8
0
100
AcDbPolyline
 90
        3
 70
     0
 43
0.0
 10
-5.835922805559338
 20
7.872047244094487
 10
-5.79655272681918
 20
7.872047244094487
 10
-5.757182648079023
 20
7.872047244094487
  0
LINE
  5
2920
330
36
100
AcDbEntity
  8
0
100
AcDbLine
 10
-5.757182648079023
 20
7.872047244094487
 30
0.0
 11
2.010533887354046
 21
7.872047244094487
 31
0.0
  0
LWPOLYLINE
  5
2921
330
36
100
AcDbEntity
  8
0
100
AcDbPolyline
 90
        3
 70
     0
 43
0.0
 10
2.010533887354046
 20
7.872047244094487
 10
2.05384097396822
 20
7.872047244094487
 10
2.069589005464283
 20
7.872047244094487
  0
LINE
  5
2926
330
36
100
AcDbEntity
  8
0
100
AcDbLine
 10
-6.757182648079023
 20
7.844488188976376
 30
0.0
 11
-5.835922805559338
 21
7.844488188976376
 31
0.0
  0
LWPOLYLINE
  5
2927
330
36
100
AcDbEntity
  8
0
100
AcDbPolyline
 90
        3
 70
     0
 43
0.0
 10
-6.831985797685323
 20
7.844488188976376
 10
-6.79655272681918
 20
7.844488188976376
 10
-6.757182648079023
 20
7.844488188976376
  0
LINE
  5
292C
330
36
100
AcDbEntity
  8
0
100
AcDbLine
 10
-6.831985797685323
 20
7.844488188976376
 30
0.0
 11
-14.59970233311839
 21
7.844488188976376
 31
0.0
  0
LWPOLYLINE
  5
292D
330
36
100
AcDbEntity
  8
0
100
AcDbPolyline
 90
        3
 70
     0
 43
0.0
 10
-14.65875745122863
 20
7.844488188976376
 10
-14.64300941973257
 20
7.844488188976376
 10
-14.59970233311839
 20
7.844488188976376
  0
LWPOLYLINE
  5
2932
330
36
100
AcDbEntity
  8
0
100
AcDbPolyline
 90
        3
 70
     0
 43
0.0
 10
2.069589005464283
 20
7.844488188976376
 10
2.05384097396822
 20
7.844488188976376
 10
2.010533887354046
 20
7.844488188976376
  0
LINE
  5
2937
330
36
100
AcDbEntity
  8
0
100
AcDbLine
 10
-5.757182648079023
 20
7.844488188976376
 30
0.0
 11
2.010533887354046
 21
7.844488188976376
 31
0.0
  0
LWPOLYLINE
  5
2938
330
36
100
AcDbEntity
  8
0
100
AcDbPolyline
 90
        3
 70
     0
 43
0.0
 10
-5.757182648079023
 20
7.844488188976376
 10
-5.79655272681918
 20
7.844488188976376
 10
-5.835922805559338
 20
7.844488188976376
  0
LINE
  5
293D
330
36
100
AcDbEntity
  8
0
100
AcDbLine
 10
-14.62332438036249
 20
7.809055118110235
 30
0.0
 11
-6.493403120519968
 21
7.809055118110235
 31
0.0
  0
LINE
  5
293E
330
36
100
AcDbEntity
  8
0
100
AcDbLine
 10
-6.095765325244377
 20
7.809055118110235
 30
0.0
 11
2.034155934598143
 21
7.809055118110235
 31
0.0
  0
LINE
  5
293F
330
36
100
AcDbEntity
  8
0
100
AcDbLine
 10
-14.62332438036249
 20
7.781496062992124
 30
0.0
 11
-14.62332438036249
 21
7.809055118110235
 31
0.0
  0
LINE
  5
2940
330
36
100
AcDbEntity
  8
0
100
AcDbLine
 10
-14.62332438036249
 20
7.781496062992124
 30
0.0
 11
-6.493403120519968
 21
7.781496062992124
 31
0.0
  0
LINE
  5
2941
330
36
100
AcDbEntity
  8
0
100
AcDbLine
 10
-6.095765325244377
 20
7.781496062992124
 30
0.0
 11
2.034155934598143
 21
7.781496062992124
 31
0.0
  0
LINE
  5
2942
330
36
100
AcDbEntity
  8
0
100
AcDbLine
 10
2.034155934598143
 20
7.781496062992124
 30
0.0
 11
2.034155934598143
 21
7.809055118110235
 31
0.0
  0
LWPOLYLINE
  5
2943
330
36
100
AcDbEntity
  8
0
100
AcDbPolyline
 90
        3
 70
     0
 43
0.0
 10
2.069589005464283
 20
7.844488188976376
 10
2.089274044834361
 20
7.844488188976376
 10
2.105022076330424
 20
7.844488188976376
  0
LINE
  5
2948
330
36
100
AcDbEntity
  8
0
100
AcDbLine
 10
2.105022076330424
 20
7.844488188976376
 30
0.0
 11
2.40423467475562
 21
7.844488188976376
 31
0.0
  0
LWPOLYLINE
  5
2949
330
36
100
AcDbEntity
  8
0
100
AcDbPolyline
 90
        3
 70
     0
 43
0.0
 10
2.40423467475562
 20
7.844488188976376
 10
2.451478769243809
 20
7.844488188976376
 10
2.514470895228061
 20
7.844488188976376
  0
LINE
  5
294E
330
36
100
AcDbEntity
  8
0
100
AcDbLine
 10
2.514470895228061
 20
7.844488188976376
 30
0.0
 11
2.51840790310208
 21
7.844488188976376
 31
0.0
  0
LINE
  5
294F
330
36
100
AcDbEntity
  8
0
100
AcDbLine
 10
-15.10363934099241
 20
7.844488188976376
 30
0.0
 11
-15.10757634886642
 21
7.844488188976376
 31
0.0
  0
LWPOLYLINE
  5
2950
330
36
100
AcDbEntity
  8
0
100
AcDbPolyline
 90
        3
 70
     0
 43
0.0
 10
-14.99734012839398
 20
7.844488188976376
 10
-15.04064721500816
 20
7.844488188976376
 10
-15.10363934099241
 20
7.844488188976376
  0
LINE
  5
2955
330
36
100
AcDbEntity
  8
0
100
AcDbLine
 10
-14.69419052209477
 20
7.844488188976376
 30
0.0
 11
-14.99734012839398
 21
7.844488188976376
 31
0.0
  0
LWPOLYLINE
  5
2956
330
36
100
AcDbEntity
  8
0
100
AcDbPolyline
 90
        3
 70
     0
 43
0.0
 10
-14.65875745122863
 20
7.844488188976376
 10
-14.67844249059871
 20
7.844488188976376
 10
-14.69419052209477
 20
7.844488188976376
  0
LINE
  5
295B
330
36
100
AcDbEntity
  8
0
100
AcDbLine
 10
1.935730737747746
 20
7.844488188976376
 30
0.0
 11
1.935730737747746
 21
7.81299212598425
 31
0.0
  0
LINE
  5
295C
330
36
100
AcDbEntity
  8
0
100
AcDbLine
 10
1.935730737747746
 20
7.81299212598425
 30
0.0
 11
2.049903966094205
 21
7.81299212598425
 31
0.0
  0
LINE
  5
295D
330
36
100
AcDbEntity
  8
0
100
AcDbLine
 10
2.049903966094205
 20
7.81299212598425
 30
0.0
 11
2.049903966094205
 21
7.844488188976376
 31
0.0
  0
LINE
  5
295E
330
36
100
AcDbEntity
  8
0
100
AcDbLine
 10
2.514470895228061
 20
7.81299212598425
 30
0.0
 11
2.51840790310208
 21
7.81299212598425
 31
0.0
  0
LWPOLYLINE
  5
295F
330
36
100
AcDbEntity
  8
0
100
AcDbPolyline
 90
        3
 70
     0
 43
0.0
 10
2.514470895228061
 20
7.81299212598425
 10
2.451478769243809
 20
7.81299212598425
 10
2.40423467475562
 20
7.81299212598425
  0
LINE
  5
2964
330
36
100
AcDbEntity
  8
0
100
AcDbLine
 10
2.105022076330424
 20
7.81299212598425
 30
0.0
 11
2.40423467475562
 21
7.81299212598425
 31
0.0
  0
LWPOLYLINE
  5
2965
330
36
100
AcDbEntity
  8
0
100
AcDbPolyline
 90
        3
 70
     0
 43
0.0
 10
2.105022076330424
 20
7.81299212598425
 10
2.081400029086331
 20
7.81299212598425
 10
2.049903966094205
 20
7.81299212598425
  0
LWPOLYLINE
  5
296A
330
36
100
AcDbEntity
  8
0
100
AcDbPolyline
 90
        3
 70
     0
 43
0.0
 10
1.935730737747746
 20
7.81299212598425
 10
1.923919714125702
 20
7.81299212598425
 10
1.912108690503654
 20
7.81299212598425
  0
LINE
  5
296F
330
36
100
AcDbEntity
  8
0
100
AcDbLine
 10
1.912108690503654
 20
7.81299212598425
 30
0.0
 11
-0.6272613882365051
 21
7.81299212598425
 31
0.0
  0
LWPOLYLINE
  5
2970
330
36
100
AcDbEntity
  8
0
100
AcDbPolyline
 90
        3
 70
     0
 43
0.0
 10
-0.6272613882365051
 20
7.81299212598425
 10
-0.6311983961105199
 20
7.81299212598425
 10
-0.6351354039845348
 20
7.81299212598425
  0
LINE
  5
2975
330
36
100
AcDbEntity
  8
0
100
AcDbLine
 10
-0.6351354039845348
 20
7.81299212598425
 30
0.0
 11
-6.095765325244377
 21
7.81299212598425
 31
0.0
  0
LINE
  5
2976
330
36
100
AcDbEntity
  8
0
100
AcDbLine
 10
-6.493403120519968
 20
7.81299212598425
 30
0.0
 11
-11.95403304177981
 21
7.81299212598425
 31
0.0
  0
LWPOLYLINE
  5
2977
330
36
100
AcDbEntity
  8
0
100
AcDbPolyline
 90
        3
 70
     0
 43
0.0
 10
-11.96584406540186
 20
7.81299212598425
 10
-11.95797004965382
 20
7.81299212598425
 10
-11.95403304177981
 20
7.81299212598425
  0
LINE
  5
297C
330
36
100
AcDbEntity
  8
0
100
AcDbLine
 10
-14.501277136268
 20
7.81299212598425
 30
0.0
 11
-11.96584406540186
 21
7.81299212598425
 31
0.0
  0
LWPOLYLINE
  5
297D
330
36
100
AcDbEntity
  8
0
100
AcDbPolyline
 90
        3
 70
     0
 43
0.0
 10
-14.52883619138611
 20
7.81299212598425
 10
-14.51308815989005
 20
7.81299212598425
 10
-14.501277136268
 20
7.81299212598425
  0
LINE
  5
2982
330
36
100
AcDbEntity
  8
0
100
AcDbLine
 10
-14.52883619138611
 20
7.81299212598425
 30
0.0
 11
-14.63907241185855
 21
7.81299212598425
 31
0.0
  0
LWPOLYLINE
  5
2983
330
36
100
AcDbEntity
  8
0
100
AcDbPolyline
 90
        3
 70
     0
 43
0.0
 10
-14.69419052209477
 20
7.81299212598425
 10
-14.67450548272469
 20
7.81299212598425
 10
-14.63907241185855
 20
7.81299212598425
  0
LINE
  5
2988
330
36
100
AcDbEntity
  8
0
100
AcDbLine
 10
-14.69419052209477
 20
7.81299212598425
 30
0.0
 11
-14.99734012839398
 21
7.81299212598425
 31
0.0
  0
LWPOLYLINE
  5
2989
330
36
100
AcDbEntity
  8
0
100
AcDbPolyline
 90
        3
 70
     0
 43
0.0
 10
-15.10363934099241
 20
7.81299212598425
 10
-15.04064721500816
 20
7.81299212598425
 10
-14.99734012839398
 20
7.81299212598425
  0
LINE
  5
298E
330
36
100
AcDbEntity
  8
0
100
AcDbLine
 10
-15.10363934099241
 20
7.81299212598425
 30
0.0
 11
-15.10757634886642
 21
7.81299212598425
 31
0.0
  0
LINE
  5
298F
330
36
100
AcDbEntity
  8
0
100
AcDbLine
 10
1.912108690503654
 20
7.81299212598425
 30
0.0
 11
1.912108690503654
 21
7.844488188976376
 31
0.0
  0
LINE
  5
2990
330
36
100
AcDbEntity
  8
0
100
AcDbLine
 10
-0.6272613882365051
 20
7.844488188976376
 30
0.0
 11
-0.6272613882365051
 21
7.81299212598425
 31
0.0
  0
LINE
  5
2991
330
36
100
AcDbEntity
  8
0
100
AcDbLine
 10
2.51840790310208
 20
7.81299212598425
 30
0.0
 11
2.51840790310208
 21
7.809055118110235
 31
0.0
  0
LINE
  5
2992
330
36
100
AcDbEntity
  8
0
100
AcDbLine
 10
2.105022076330424
 20
7.844488188976376
 30
0.0
 11
2.105022076330424
 21
7.81299212598425
 31
0.0
  0
LINE
  5
2993
330
36
100
AcDbEntity
  8
0
100
AcDbLine
 10
2.40423467475562
 20
7.81299212598425
 30
0.0
 11
2.40423467475562
 21
7.844488188976376
 31
0.0
  0
LINE
  5
2994
330
36
100
AcDbEntity
  8
0
100
AcDbLine
 10
2.514470895228061
 20
7.844488188976376
 30
0.0
 11
2.514470895228061
 21
7.81299212598425
 31
0.0
  0
LWPOLYLINE
  5
2995
330
36
100
AcDbEntity
  8
0
100
AcDbPolyline
 90
        3
 70
     0
 43
0.0
 10
2.51840790310208
 20
7.81299212598425
 10
2.549903966094205
 20
7.801181102362201
 10
2.565651997590268
 20
7.765748031496061
  0
LWPOLYLINE
  5
299A
330
36
100
AcDbEntity
  8
0
100
AcDbPolyline
 90
        3
 70
     0
 43
0.0
 10
2.593211052708376
 20
7.765748031496061
 10
2.573526013338298
 20
7.820866141732283
 10
2.51840790310208
 20
7.844488188976376
  0
LINE
  5
299F
330
36
100
AcDbEntity
  8
0
100
AcDbLine
 10
2.514470895228061
 20
7.781496062992124
 30
0.0
 11
2.51840790310208
 21
7.781496062992124
 31
0.0
  0
LWPOLYLINE
  5
29A0
330
36
100
AcDbEntity
  8
0
100
AcDbPolyline
 90
        3
 70
     0
 43
0.0
 10
2.514470895228061
 20
7.781496062992124
 10
2.451478769243809
 20
7.781496062992124
 10
2.40423467475562
 20
7.781496062992124
  0
LINE
  5
29A5
330
36
100
AcDbEntity
  8
0
100
AcDbLine
 10
2.089274044834361
 20
7.781496062992124
 30
0.0
 11
2.40423467475562
 21
7.781496062992124
 31
0.0
  0
LWPOLYLINE
  5
29A6
330
36
100
AcDbEntity
  8
0
100
AcDbPolyline
 90
        3
 70
     0
 43
0.0
 10
2.089274044834361
 20
7.781496062992124
 10
2.065651997590268
 20
7.781496062992124
 10
2.034155934598143
 20
7.781496062992124
  0
LWPOLYLINE
  5
29AB
330
36
100
AcDbEntity
  8
0
100
AcDbPolyline
 90
        3
 70
     0
 43
0.0
 10
-14.67844249059871
 20
7.781496062992124
 10
-14.65482044335461
 20
7.781496062992124
 10
-14.62332438036249
 20
7.781496062992124
  0
LINE
  5
29B0
330
36
100
AcDbEntity
  8
0
100
AcDbLine
 10
-14.67844249059871
 20
7.781496062992124
 30
0.0
 11
-14.99734012839398
 21
7.781496062992124
 31
0.0
  0
LWPOLYLINE
  5
29B1
330
36
100
AcDbEntity
  8
0
100
AcDbPolyline
 90
        3
 70
     0
 43
0.0
 10
-15.10363934099241
 20
7.781496062992124
 10
-15.04064721500816
 20
7.781496062992124
 10
-14.99734012839398
 20
7.781496062992124
  0
LINE
  5
29B6
330
36
100
AcDbEntity
  8
0
100
AcDbLine
 10
-15.10363934099241
 20
7.781496062992124
 30
0.0
 11
-15.10757634886642
 21
7.781496062992124
 31
0.0
  0
LINE
  5
29B7
330
36
100
AcDbEntity
  8
0
100
AcDbLine
 10
2.089274044834361
 20
7.809055118110235
 30
0.0
 11
2.40423467475562
 21
7.809055118110235
 31
0.0
  0
LWPOLYLINE
  5
29B8
330
36
100
AcDbEntity
  8
0
100
AcDbPolyline
 90
        3
 70
     0
 43
0.0
 10
2.40423467475562
 20
7.809055118110235
 10
2.451478769243809
 20
7.809055118110235
 10
2.514470895228061
 20
7.809055118110235
  0
LINE
  5
29BD
330
36
100
AcDbEntity
  8
0
100
AcDbLine
 10
2.514470895228061
 20
7.809055118110235
 30
0.0
 11
2.51840790310208
 21
7.809055118110235
 31
0.0
  0
LINE
  5
29BE
330
36
100
AcDbEntity
  8
0
100
AcDbLine
 10
-15.10363934099241
 20
7.809055118110235
 30
0.0
 11
-15.10757634886642
 21
7.809055118110235
 31
0.0
  0
LWPOLYLINE
  5
29BF
330
36
100
AcDbEntity
  8
0
100
AcDbPolyline
 90
        3
 70
     0
 43
0.0
 10
-14.99734012839398
 20
7.809055118110235
 10
-15.04064721500816
 20
7.809055118110235
 10
-15.10363934099241
 20
7.809055118110235
  0
LINE
  5
29C4
330
36
100
AcDbEntity
  8
0
100
AcDbLine
 10
-14.67844249059871
 20
7.809055118110235
 30
0.0
 11
-14.99734012839398
 21
7.809055118110235
 31
0.0
  0
LWPOLYLINE
  5
29C5
330
36
100
AcDbEntity
  8
0
100
AcDbPolyline
 90
        3
 70
     0
 43
0.0
 10
-14.62332438036249
 20
7.809055118110235
 10
-14.65482044335461
 20
7.809055118110235
 10
-14.67844249059871
 20
7.809055118110235
  0
LWPOLYLINE
  5
29CA
330
36
100
AcDbEntity
  8
0
100
AcDbPolyline
 90
        3
 70
     0
 43
0.0
 10
2.034155934598143
 20
7.809055118110235
 10
2.065651997590268
 20
7.809055118110235
 10
2.089274044834361
 20
7.809055118110235
  0
LINE
  5
29CF
330
36
100
AcDbEntity
  8
0
100
AcDbLine
 10
-15.10757634886642
 20
7.81299212598425
 30
0.0
 11
-15.10757634886642
 21
7.809055118110235
 31
0.0
  0
LINE
  5
29D0
330
36
100
AcDbEntity
  8
0
100
AcDbLine
 10
2.534155934598143
 20
7.372047244094487
 30
0.0
 11
2.534155934598143
 21
7.765748031496061
 31
0.0
  0
LINE
  5
29D1
330
36
100
AcDbEntity
  8
0
100
AcDbLine
 10
3.073526013338298
 20
7.372047244094487
 30
0.0
 11
2.608959084204439
 21
7.372047244094487
 31
0.0
  0
LWPOLYLINE
  5
29D2
330
36
100
AcDbEntity
  8
0
100
AcDbPolyline
 90
        3
 70
     0
 43
0.0
 10
2.608959084204439
 20
7.372047244094487
 10
2.557777981842235
 20
7.372047244094487
 10
2.534155934598143
 20
7.372047244094487
  0
LWPOLYLINE
  5
29D7
330
36
100
AcDbEntity
  8
0
100
AcDbPolyline
 90
        3
 70
     0
 43
0.0
 10
2.51840790310208
 20
7.781496062992124
 10
2.530218926724124
 20
7.777559055118109
 10
2.534155934598143
 20
7.765748031496061
  0
LWPOLYLINE
  5
29DC
330
36
100
AcDbEntity
  8
0
100
AcDbPolyline
 90
        3
 70
     0
 43
0.0
 10
2.565651997590268
 20
7.765748031496061
 10
2.549903966094205
 20
7.797244094488187
 10
2.51840790310208
 20
7.809055118110235
  0
LWPOLYLINE
  5
29E1
330
36
100
AcDbEntity
  8
0
100
AcDbPolyline
 90
        3
 70
     0
 43
0.0
 10
2.534155934598143
 20
7.765748031496061
 10
2.557777981842235
 20
7.765748031496061
 10
2.608959084204439
 20
7.765748031496061
  0
LINE
  5
29E6
330
36
100
AcDbEntity
  8
0
100
AcDbLine
 10
2.608959084204439
 20
7.765748031496061
 30
0.0
 11
2.660140186566646
 21
7.765748031496061
 31
0.0
  0
LINE
  5
29E7
330
36
100
AcDbEntity
  8
0
100
AcDbLine
 10
2.010533887354046
 20
7.844488188976376
 30
0.0
 11
2.010533887354046
 21
7.872047244094487
 31
0.0
  0
LINE
  5
29E8
330
36
100
AcDbEntity
  8
0
100
AcDbLine
 10
-5.757182648079023
 20
7.872047244094487
 30
0.0
 11
-5.757182648079023
 21
7.844488188976376
 31
0.0
  0
LINE
  5
29E9
330
36
100
AcDbEntity
  8
0
100
AcDbLine
 10
-6.757182648079023
 20
7.844488188976376
 30
0.0
 11
-6.757182648079023
 21
7.872047244094487
 31
0.0
  0
LINE
  5
29EA
330
36
100
AcDbEntity
  8
0
100
AcDbLine
 10
-5.835922805559338
 20
7.844488188976376
 30
0.0
 11
-5.835922805559338
 21
7.872047244094487
 31
0.0
  0
LWPOLYLINE
  5
29EB
330
36
100
AcDbEntity
  8
0
100
AcDbPolyline
 90
        7
 70
     0
 43
0.0
 10
2.923919714125702
 20
7.746062992125983
 10
2.994785855857983
 20
7.73031496062992
 10
3.045966958220187
 20
7.679133858267716
 10
3.065651997590268
 20
7.608267716535431
 10
3.045966958220187
 20
7.537401574803149
 10
2.994785855857983
 20
7.486220472440942
 10
2.923919714125702
 20
7.466535433070864
  0
LINE
  5
29F4
330
36
100
AcDbEntity
  8
0
100
AcDbLine
 10
2.923919714125702
 20
7.466535433070864
 30
0.0
 11
2.805809477905228
 21
7.466535433070864
 31
0.0
  0
LWPOLYLINE
  5
29F5
330
36
100
AcDbEntity
  8
0
100
AcDbPolyline
 90
        7
 70
     0
 43
0.0
 10
2.805809477905228
 20
7.466535433070864
 10
2.734943336172943
 20
7.486220472440942
 10
2.683762233810739
 20
7.537401574803149
 10
2.664077194440661
 20
7.608267716535431
 10
2.683762233810739
 20
7.679133858267716
 10
2.734943336172943
 20
7.73031496062992
 10
2.805809477905228
 20
7.746062992125983
  0
LINE
  5
29FE
330
36
100
AcDbEntity
  8
0
100
AcDbLine
 10
3.132581131448535
 20
7.781496062992124
 30
0.0
 11
3.132581131448535
 21
7.431102362204724
 31
0.0
  0
LINE
  5
29FF
330
36
100
AcDbEntity
  8
0
100
AcDbLine
 10
2.71919530467688
 20
7.844488188976376
 30
0.0
 11
3.073526013338298
 21
7.844488188976376
 31
0.0
  0
LWPOLYLINE
  5
2A00
330
36
100
AcDbEntity
  8
0
100
AcDbPolyline
 90
        3
 70
     0
 43
0.0
 10
2.71919530467688
 20
7.844488188976376
 10
2.675888218062709
 20
7.824803149606298
 10
2.660140186566646
 20
7.781496062992124
  0
LINE
  5
2A05
330
36
100
AcDbEntity
  8
0
100
AcDbLine
 10
2.660140186566646
 20
7.765748031496061
 30
0.0
 11
2.660140186566646
 21
7.781496062992124
 31
0.0
  0
LINE
  5
2A06
330
36
100
AcDbEntity
  8
0
100
AcDbLine
 10
2.805809477905228
 20
7.746062992125983
 30
0.0
 11
2.923919714125702
 21
7.746062992125983
 31
0.0
  0
LWPOLYLINE
  5
2A07
330
36
100
AcDbEntity
  8
0
100
AcDbPolyline
 90
        3
 70
     0
 43
0.0
 10
3.073526013338298
 20
7.372047244094487
 10
3.112896092078457
 20
7.391732283464564
 10
3.132581131448535
 20
7.431102362204724
  0
LWPOLYLINE
  5
2A0C
330
36
100
AcDbEntity
  8
0
100
AcDbPolyline
 90
        3
 70
     0
 43
0.0
 10
3.132581131448535
 20
7.781496062992124
 10
3.112896092078457
 20
7.824803149606298
 10
3.073526013338298
 20
7.844488188976376
  0
LINE
  5
2A11
330
36
100
AcDbEntity
  8
0
100
AcDbLine
 10
2.608959084204439
 20
7.765748031496061
 30
0.0
 11
2.608959084204439
 21
7.372047244094487
 31
0.0
  0
LINE
  5
2A12
330
36
100
AcDbEntity
  8
0
100
AcDbLine
 10
2.514470895228061
 20
7.809055118110235
 30
0.0
 11
2.514470895228061
 21
7.781496062992124
 31
0.0
  0
LINE
  5
2A13
330
36
100
AcDbEntity
  8
0
100
AcDbLine
 10
2.40423467475562
 20
7.781496062992124
 30
0.0
 11
2.40423467475562
 21
7.809055118110235
 31
0.0
  0
LINE
  5
2A14
330
36
100
AcDbEntity
  8
0
100
AcDbLine
 10
2.089274044834361
 20
7.809055118110235
 30
0.0
 11
2.089274044834361
 21
7.781496062992124
 31
0.0
  0
LINE
  5
2A15
330
36
100
AcDbEntity
  8
0
100
AcDbLine
 10
-0.6351354039845348
 20
7.836614173228346
 30
0.0
 11
-6.095765325244377
 21
7.836614173228346
 31
0.0
  0
LINE
  5
2A16
330
36
100
AcDbEntity
  8
0
100
AcDbLine
 10
-6.493403120519968
 20
7.836614173228346
 30
0.0
 11
-11.95403304177981
 21
7.836614173228346
 31
0.0
  0
LWPOLYLINE
  5
2A17
330
36
100
AcDbEntity
  8
0
100
AcDbPolyline
 90
        3
 70
     0
 43
0.0
 10
-11.95403304177981
 20
7.836614173228346
 10
-11.95403304177981
 20
7.820866141732283
 10
-11.95403304177981
 20
7.81299212598425
  0
LWPOLYLINE
  5
2A1C
330
36
100
AcDbEntity
  8
0
100
AcDbPolyline
 90
        3
 70
     0
 43
0.0
 10
-11.95403304177981
 20
7.844488188976376
 10
-11.95403304177981
 20
7.840551181102361
 10
-11.95403304177981
 20
7.836614173228346
  0
LINE
  5
2A21
330
36
100
AcDbEntity
  8
0
100
AcDbLine
 10
-14.63907241185855
 20
7.81299212598425
 30
0.0
 11
-14.63907241185855
 21
7.844488188976376
 31
0.0
  0
LINE
  5
2A22
330
36
100
AcDbEntity
  8
0
100
AcDbLine
 10
-14.52883619138611
 20
7.844488188976376
 30
0.0
 11
-14.52883619138611
 21
7.81299212598425
 31
0.0
  0
LINE
  5
2A23
330
36
100
AcDbEntity
  8
0
100
AcDbLine
 10
-11.96584406540186
 20
7.844488188976376
 30
0.0
 11
-11.96584406540186
 21
7.81299212598425
 31
0.0
  0
LINE
  5
2A24
330
36
100
AcDbEntity
  8
0
100
AcDbLine
 10
-14.501277136268
 20
7.81299212598425
 30
0.0
 11
-14.501277136268
 21
7.844488188976376
 31
0.0
  0
LINE
  5
2A25
330
36
100
AcDbEntity
  8
0
100
AcDbLine
 10
-14.99734012839398
 20
7.81299212598425
 30
0.0
 11
-14.99734012839398
 21
7.844488188976376
 31
0.0
  0
LINE
  5
2A26
330
36
100
AcDbEntity
  8
0
100
AcDbLine
 10
-14.69419052209477
 20
7.844488188976376
 30
0.0
 11
-14.69419052209477
 21
7.81299212598425
 31
0.0
  0
LWPOLYLINE
  5
2A27
330
36
100
AcDbEntity
  8
0
100
AcDbPolyline
 90
        3
 70
     0
 43
0.0
 10
-15.18631650634674
 20
7.765748031496061
 10
-15.16269445910264
 20
7.820866141732283
 10
-15.10757634886642
 20
7.844488188976376
  0
LWPOLYLINE
  5
2A2C
330
36
100
AcDbEntity
  8
0
100
AcDbPolyline
 90
        3
 70
     0
 43
0.0
 10
-15.10757634886642
 20
7.81299212598425
 10
-15.14300941973257
 20
7.801181102362201
 10
-15.15482044335461
 20
7.765748031496061
  0
LINE
  5
2A31
330
36
100
AcDbEntity
  8
0
100
AcDbLine
 10
-15.10363934099241
 20
7.844488188976376
 30
0.0
 11
-15.10363934099241
 21
7.81299212598425
 31
0.0
  0
LINE
  5
2A32
330
36
100
AcDbEntity
  8
0
100
AcDbLine
 10
-15.12332438036249
 20
7.372047244094487
 30
0.0
 11
-15.12332438036249
 21
7.765748031496061
 31
0.0
  0
LWPOLYLINE
  5
2A33
330
36
100
AcDbEntity
  8
0
100
AcDbPolyline
 90
        3
 70
     0
 43
0.0
 10
-15.2020645378428
 20
7.372047244094487
 10
-15.14694642760658
 20
7.372047244094487
 10
-15.12332438036249
 20
7.372047244094487
  0
LINE
  5
2A38
330
36
100
AcDbEntity
  8
0
100
AcDbLine
 10
-15.66269445910264
 20
7.372047244094487
 30
0.0
 11
-15.2020645378428
 21
7.372047244094487
 31
0.0
  0
LWPOLYLINE
  5
2A39
330
36
100
AcDbEntity
  8
0
100
AcDbPolyline
 90
        3
 70
     0
 43
0.0
 10
-15.10757634886642
 20
7.781496062992124
 10
-15.11938737248847
 20
7.777559055118109
 10
-15.12332438036249
 20
7.765748031496061
  0
LWPOLYLINE
  5
2A3E
330
36
100
AcDbEntity
  8
0
100
AcDbPolyline
 90
        3
 70
     0
 43
0.0
 10
-15.15482044335461
 20
7.765748031496061
 10
-15.13907241185855
 20
7.797244094488187
 10
-15.10757634886642
 20
7.809055118110235
  0
LINE
  5
2A43
330
36
100
AcDbEntity
  8
0
100
AcDbLine
 10
-15.2020645378428
 20
7.765748031496061
 30
0.0
 11
-15.24930863233099
 21
7.765748031496061
 31
0.0
  0
LWPOLYLINE
  5
2A44
330
36
100
AcDbEntity
  8
0
100
AcDbPolyline
 90
        3
 70
     0
 43
0.0
 10
-15.12332438036249
 20
7.765748031496061
 10
-15.14694642760658
 20
7.765748031496061
 10
-15.2020645378428
 20
7.765748031496061
  0
LINE
  5
2A49
330
36
100
AcDbEntity
  8
0
100
AcDbLine
 10
-6.831985797685323
 20
7.872047244094487
 30
0.0
 11
-6.831985797685323
 21
7.844488188976376
 31
0.0
  0
LINE
  5
2A4A
330
36
100
AcDbEntity
  8
0
100
AcDbLine
 10
-14.59970233311839
 20
7.844488188976376
 30
0.0
 11
-14.59970233311839
 21
7.872047244094487
 31
0.0
  0
LWPOLYLINE
  5
2A4B
330
36
100
AcDbEntity
  8
0
100
AcDbPolyline
 90
        7
 70
     0
 43
0.0
 10
-15.51702516776406
 20
7.746062992125983
 10
-15.58395430162233
 20
7.73031496062992
 10
-15.63513540398453
 20
7.679133858267716
 10
-15.65482044335461
 20
7.608267716535431
 10
-15.63513540398453
 20
7.537401574803149
 10
-15.58395430162233
 20
7.486220472440942
 10
-15.51702516776406
 20
7.466535433070864
  0
LINE
  5
2A54
330
36
100
AcDbEntity
  8
0
100
AcDbLine
 10
-15.51702516776406
 20
7.466535433070864
 30
0.0
 11
-15.39497792366957
 21
7.466535433070864
 31
0.0
  0
LWPOLYLINE
  5
2A55
330
36
100
AcDbEntity
  8
0
100
AcDbPolyline
 90
        7
 70
     0
 43
0.0
 10
-15.39497792366957
 20
7.466535433070864
 10
-15.32411178193729
 20
7.486220472440942
 10
-15.27293067957509
 20
7.537401574803149
 10
-15.25718264807902
 20
7.608267716535431
 10
-15.27293067957509
 20
7.679133858267716
 10
-15.32411178193729
 20
7.73031496062992
 10
-15.39497792366957
 20
7.746062992125983
  0
LINE
  5
2A5E
330
36
100
AcDbEntity
  8
0
100
AcDbLine
 10
-15.72174957721288
 20
7.781496062992124
 30
0.0
 11
-15.72174957721288
 21
7.431102362204724
 31
0.0
  0
LINE
  5
2A5F
330
36
100
AcDbEntity
  8
0
100
AcDbLine
 10
-15.31230075831524
 20
7.844488188976376
 30
0.0
 11
-15.66269445910264
 21
7.844488188976376
 31
0.0
  0
LWPOLYLINE
  5
2A60
330
36
100
AcDbEntity
  8
0
100
AcDbPolyline
 90
        3
 70
     0
 43
0.0
 10
-15.31230075831524
 20
7.844488188976376
 10
-15.26899367170107
 20
7.824803149606298
 10
-15.24930863233099
 20
7.781496062992124
  0
LINE
  5
2A65
330
36
100
AcDbEntity
  8
0
100
AcDbLine
 10
-15.24930863233099
 20
7.765748031496061
 30
0.0
 11
-15.24930863233099
 21
7.781496062992124
 31
0.0
  0
LINE
  5
2A66
330
36
100
AcDbEntity
  8
0
100
AcDbLine
 10
-15.39497792366957
 20
7.746062992125983
 30
0.0
 11
-15.51702516776406
 21
7.746062992125983
 31
0.0
  0
LINE
  5
2A67
330
36
100
AcDbEntity
  8
0
100
AcDbLine
 10
-15.2020645378428
 20
7.765748031496061
 30
0.0
 11
-15.2020645378428
 21
7.372047244094487
 31
0.0
  0
LWPOLYLINE
  5
2A68
330
36
100
AcDbEntity
  8
0
100
AcDbPolyline
 90
        3
 70
     0
 43
0.0
 10
-15.72174957721288
 20
7.781496062992124
 10
-15.70600154571682
 20
7.824803149606298
 10
-15.66269445910264
 20
7.844488188976376
  0
LWPOLYLINE
  5
2A6D
330
36
100
AcDbEntity
  8
0
100
AcDbPolyline
 90
        3
 70
     0
 43
0.0
 10
-15.66269445910264
 20
7.372047244094487
 10
-15.70600154571682
 20
7.391732283464564
 10
-15.72174957721288
 20
7.431102362204724
  0
LINE
  5
2A72
330
36
100
AcDbEntity
  8
0
100
AcDbLine
 10
-15.10363934099241
 20
7.809055118110235
 30
0.0
 11
-15.10363934099241
 21
7.781496062992124
 31
0.0
  0
LINE
  5
2A73
330
36
100
AcDbEntity
  8
0
100
AcDbLine
 10
-14.67844249059871
 20
7.809055118110235
 30
0.0
 11
-14.67844249059871
 21
7.781496062992124
 31
0.0
  0
LINE
  5
2A74
330
36
100
AcDbEntity
  8
0
100
AcDbLine
 10
-14.99734012839398
 20
7.781496062992124
 30
0.0
 11
-14.99734012839398
 21
7.809055118110235
 31
0.0
  0
LINE
  5
2A75
330
36
100
AcDbEntity
  8
0
100
AcDbLine
 10
-6.095765325244377
 20
7.824803149606298
 30
0.0
 11
-6.095765325244377
 21
7.828740157480313
 31
0.0
  0
LINE
  5
2A76
330
36
100
AcDbEntity
  8
0
100
AcDbLine
 10
-6.095765325244377
 20
7.828740157480313
 30
0.0
 11
-6.493403120519968
 21
7.828740157480313
 31
0.0
  0
LINE
  5
2A77
330
36
100
AcDbEntity
  8
0
100
AcDbLine
 10
-6.493403120519968
 20
7.824803149606298
 30
0.0
 11
-6.493403120519968
 21
7.828740157480313
 31
0.0
  0
LINE
  5
2A78
330
36
100
AcDbEntity
  8
0
100
AcDbLine
 10
-6.493403120519968
 20
7.742125984251968
 30
0.0
 11
-6.493403120519968
 21
7.769685039370076
 31
0.0
  0
LINE
  5
2A79
330
36
100
AcDbEntity
  8
0
100
AcDbLine
 10
-6.493403120519968
 20
7.742125984251968
 30
0.0
 11
-6.457970049653827
 21
7.742125984251968
 31
0.0
  0
LINE
  5
2A7A
330
36
100
AcDbEntity
  8
0
100
AcDbLine
 10
-6.135135403984534
 20
7.742125984251968
 30
0.0
 11
-6.095765325244377
 21
7.742125984251968
 31
0.0
  0
LINE
  5
2A7B
330
36
100
AcDbEntity
  8
0
100
AcDbLine
 10
-6.095765325244377
 20
7.769685039370076
 30
0.0
 11
-6.095765325244377
 21
7.742125984251968
 31
0.0
  0
LWPOLYLINE
  5
2A7C
330
36
100
AcDbEntity
  8
0
100
AcDbPolyline
 90
        3
 70
     0
 43
0.0
 10
-6.095765325244377
 20
7.844488188976376
 10
-6.095765325244377
 20
7.840551181102361
 10
-6.095765325244377
 20
7.828740157480313
  0
LINE
  5
2A81
330
36
100
AcDbEntity
  8
0
100
AcDbLine
 10
-6.095765325244377
 20
7.824803149606298
 30
0.0
 11
-6.095765325244377
 21
7.820866141732283
 31
0.0
  0
LINE
  5
2A82
330
36
100
AcDbEntity
  8
0
100
AcDbLine
 10
-6.095765325244377
 20
7.797244094488187
 30
0.0
 11
-6.095765325244377
 21
7.820866141732283
 31
0.0
  0
LINE
  5
2A83
330
36
100
AcDbEntity
  8
0
100
AcDbLine
 10
-6.095765325244377
 20
7.797244094488187
 30
0.0
 11
-6.095765325244377
 21
7.769685039370076
 31
0.0
  0
LWPOLYLINE
  5
2A84
330
36
100
AcDbEntity
  8
0
100
AcDbPolyline
 90
        3
 70
     0
 43
0.0
 10
-6.493403120519968
 20
7.828740157480313
 10
-6.493403120519968
 20
7.840551181102361
 10
-6.493403120519968
 20
7.844488188976376
  0
LINE
  5
2A89
330
36
100
AcDbEntity
  8
0
100
AcDbLine
 10
-6.493403120519968
 20
7.769685039370076
 30
0.0
 11
-6.493403120519968
 21
7.797244094488187
 31
0.0
  0
LINE
  5
2A8A
330
36
100
AcDbEntity
  8
0
100
AcDbLine
 10
-6.493403120519968
 20
7.797244094488187
 30
0.0
 11
-6.493403120519968
 21
7.820866141732283
 31
0.0
  0
LINE
  5
2A8B
330
36
100
AcDbEntity
  8
0
100
AcDbLine
 10
-6.493403120519968
 20
7.820866141732283
 30
0.0
 11
-6.493403120519968
 21
7.824803149606298
 31
0.0
  0
LINE
  5
2A8C
330
36
100
AcDbEntity
  8
0
100
AcDbLine
 10
-6.434348002409732
 20
7.765748031496061
 30
0.0
 11
-6.154820443354614
 21
7.765748031496061
 31
0.0
  0
LINE
  5
2A8D
330
36
100
AcDbEntity
  8
0
100
AcDbLine
 10
-6.434348002409732
 20
7.765748031496061
 30
0.0
 11
-6.434348002409732
 21
7.73818897637795
 31
0.0
  0
LINE
  5
2A8E
330
36
100
AcDbEntity
  8
0
100
AcDbLine
 10
-6.434348002409732
 20
7.73818897637795
 30
0.0
 11
-6.154820443354614
 21
7.73818897637795
 31
0.0
  0
LINE
  5
2A8F
330
36
100
AcDbEntity
  8
0
100
AcDbLine
 10
-6.154820443354614
 20
7.73818897637795
 30
0.0
 11
-6.154820443354614
 21
7.765748031496061
 31
0.0
  0
LWPOLYLINE
  5
2A90
330
36
100
AcDbEntity
  8
0
100
AcDbPolyline
 90
        3
 70
     0
 43
0.0
 10
-6.095765325244377
 20
7.769685039370076
 10
-6.11151335674044
 20
7.749999999999998
 10
-6.154820443354614
 20
7.73818897637795
  0
LWPOLYLINE
  5
2A95
330
36
100
AcDbEntity
  8
0
100
AcDbPolyline
 90
        3
 70
     0
 43
0.0
 10
-6.154820443354614
 20
7.765748031496061
 10
-6.11151335674044
 20
7.773622047244094
 10
-6.095765325244377
 20
7.797244094488187
  0
LWPOLYLINE
  5
2A9A
330
36
100
AcDbEntity
  8
0
100
AcDbPolyline
 90
        3
 70
     0
 43
0.0
 10
-6.434348002409732
 20
7.73818897637795
 10
-6.477655089023905
 20
7.749999999999998
 10
-6.493403120519968
 20
7.769685039370076
  0
LWPOLYLINE
  5
2A9F
330
36
100
AcDbEntity
  8
0
100
AcDbPolyline
 90
        3
 70
     0
 43
0.0
 10
-6.493403120519968
 20
7.797244094488187
 10
-6.477655089023905
 20
7.773622047244094
 10
-6.434348002409732
 20
7.765748031496061
  0
LINE
  5
2AA4
330
36
100
AcDbEntity
  8
0
100
AcDbLine
 10
-6.095765325244377
 20
7.820866141732283
 30
0.0
 11
-6.493403120519968
 21
7.820866141732283
 31
0.0
  0
LINE
  5
2AA5
330
36
100
AcDbEntity
  8
0
100
AcDbLine
 10
2.51840790310208
 20
17.3759842519685
 30
0.0
 11
-15.10757634886642
 21
17.3759842519685
 31
0.0
  0
LINE
  5
2AA6
330
36
100
AcDbEntity
  8
0
100
AcDbLine
 10
-0.6351354039845348
 20
15.78543307086614
 30
0.0
 11
-0.6351354039845348
 21
15.78543307086614
 31
0.0
  0
LWPOLYLINE
  5
2AA7
330
36
100
AcDbEntity
  8
0
100
AcDbPolyline
 90
        3
 70
     0
 43
0.0
 10
-0.6351354039845348
 20
15.78543307086614
 10
-0.6351354039845348
 20
15.77755905511811
 10
-0.6351354039845348
 20
15.76968503937007
  0
LWPOLYLINE
  5
2AAC
330
36
100
AcDbEntity
  8
0
100
AcDbPolyline
 90
        3
 70
     0
 43
0.0
 10
-0.6351354039845348
 20
15.76968503937007
 10
-0.6351354039845348
 20
15.75393700787401
 10
-0.6351354039845348
 20
15.73031496062992
  0
LINE
  5
2AB1
330
36
100
AcDbEntity
  8
0
100
AcDbLine
 10
-0.6351354039845348
 20
15.72244094488189
 30
0.0
 11
-0.6351354039845348
 21
15.73031496062992
 31
0.0
  0
LINE
  5
2AB2
330
36
100
AcDbEntity
  8
0
100
AcDbLine
 10
-0.6351354039845348
 20
15.73031496062992
 30
0.0
 11
-11.95403304177981
 21
15.73031496062992
 31
0.0
  0
LINE
  5
2AB3
330
36
100
AcDbEntity
  8
0
100
AcDbLine
 10
-11.95403304177981
 20
15.72244094488189
 30
0.0
 11
-11.95403304177981
 21
15.73031496062992
 31
0.0
  0
LINE
  5
2AB4
330
36
100
AcDbEntity
  8
0
100
AcDbLine
 10
-14.56033225437823
 20
15.72244094488189
 30
0.0
 11
-11.95403304177981
 21
15.72244094488189
 31
0.0
  0
LWPOLYLINE
  5
2AB5
330
36
100
AcDbEntity
  8
0
100
AcDbPolyline
 90
        5
 70
     0
 43
0.0
 10
-14.59970233311839
 20
15.52952755905512
 10
-14.6508834354806
 20
15.5767716535433
 10
-14.65875745122863
 20
15.64370078740157
 10
-14.62332438036249
 20
15.69881889763779
 10
-14.56033225437823
 20
15.72244094488189
  0
LINE
  5
2ABC
330
36
100
AcDbEntity
  8
0
100
AcDbLine
 10
-6.831985797685323
 20
11.90748031496062
 30
0.0
 11
-14.59970233311839
 21
15.52952755905512
 31
0.0
  0
LWPOLYLINE
  5
2ABD
330
36
100
AcDbEntity
  8
0
100
AcDbPolyline
 90
        3
 70
     0
 43
0.0
 10
-6.757182648079023
 20
11.89173228346456
 10
-6.79655272681918
 20
11.89566929133858
 10
-6.831985797685323
 20
11.90748031496062
  0
LINE
  5
2AC2
330
36
100
AcDbEntity
  8
0
100
AcDbLine
 10
-5.835922805559338
 20
11.89173228346456
 30
0.0
 11
-6.757182648079023
 21
11.89173228346456
 31
0.0
  0
LWPOLYLINE
  5
2AC3
330
36
100
AcDbEntity
  8
0
100
AcDbPolyline
 90
        3
 70
     0
 43
0.0
 10
-5.835922805559338
 20
11.89173228346456
 10
-5.79655272681918
 20
11.89566929133858
 10
-5.757182648079023
 20
11.90748031496062
  0
LINE
  5
2AC8
330
36
100
AcDbEntity
  8
0
100
AcDbLine
 10
-5.757182648079023
 20
11.90748031496062
 30
0.0
 11
2.010533887354046
 21
15.52952755905512
 31
0.0
  0
LWPOLYLINE
  5
2AC9
330
36
100
AcDbEntity
  8
0
100
AcDbPolyline
 90
        5
 70
     0
 43
0.0
 10
2.010533887354046
 20
15.52952755905512
 10
2.057777981842235
 20
15.5767716535433
 10
2.065651997590268
 20
15.64370078740157
 10
2.030218926724124
 20
15.69881889763779
 10
1.967226800739872
 20
15.72244094488189
  0
LINE
  5
2AD0
330
36
100
AcDbEntity
  8
0
100
AcDbLine
 10
1.967226800739872
 20
15.72244094488189
 30
0.0
 11
-0.6351354039845348
 21
15.72244094488189
 31
0.0
  0
LINE
  5
2AD1
330
36
100
AcDbEntity
  8
0
100
AcDbLine
 10
2.049903966094205
 20
16.99015748031495
 30
0.0
 11
1.935730737747746
 21
16.99015748031495
 31
0.0
  0
LWPOLYLINE
  5
2AD2
330
36
100
AcDbEntity
  8
0
100
AcDbPolyline
 90
        3
 70
     0
 43
0.0
 10
2.049903966094205
 20
16.99015748031495
 10
2.081400029086331
 20
16.97834645669291
 10
2.105022076330424
 20
16.95472440944881
  0
LINE
  5
2AD7
330
36
100
AcDbEntity
  8
0
100
AcDbLine
 10
2.105022076330424
 20
16.95472440944881
 30
0.0
 11
2.40423467475562
 21
16.30905511811024
 31
0.0
  0
LWPOLYLINE
  5
2AD8
330
36
100
AcDbEntity
  8
0
100
AcDbPolyline
 90
        3
 70
     0
 43
0.0
 10
2.40423467475562
 20
16.30905511811024
 10
2.451478769243809
 20
16.25787401574803
 10
2.514470895228061
 20
16.23818897637795
  0
LINE
  5
2ADD
330
36
100
AcDbEntity
  8
0
100
AcDbLine
 10
2.514470895228061
 20
16.23818897637795
 30
0.0
 11
2.51840790310208
 21
16.23818897637795
 31
0.0
  0
LINE
  5
2ADE
330
36
100
AcDbEntity
  8
0
100
AcDbLine
 10
2.51840790310208
 20
16.23818897637795
 30
0.0
 11
2.51840790310208
 21
17.29330708661417
 31
0.0
  0
LINE
  5
2ADF
330
36
100
AcDbEntity
  8
0
100
AcDbLine
 10
2.51840790310208
 20
17.29330708661417
 30
0.0
 11
2.51840790310208
 21
17.34448818897638
 31
0.0
  0
LINE
  5
2AE0
330
36
100
AcDbEntity
  8
0
100
AcDbLine
 10
2.51840790310208
 20
17.34448818897638
 30
0.0
 11
-15.10757634886642
 21
17.34448818897638
 31
0.0
  0
LINE
  5
2AE1
330
36
100
AcDbEntity
  8
0
100
AcDbLine
 10
-15.10757634886642
 20
17.29330708661417
 30
0.0
 11
-15.10757634886642
 21
17.34448818897638
 31
0.0
  0
LINE
  5
2AE2
330
36
100
AcDbEntity
  8
0
100
AcDbLine
 10
-15.10757634886642
 20
16.23818897637795
 30
0.0
 11
-15.10757634886642
 21
17.29330708661417
 31
0.0
  0
LINE
  5
2AE3
330
36
100
AcDbEntity
  8
0
100
AcDbLine
 10
-15.10363934099241
 20
16.23818897637795
 30
0.0
 11
-15.10757634886642
 21
16.23818897637795
 31
0.0
  0
LWPOLYLINE
  5
2AE4
330
36
100
AcDbEntity
  8
0
100
AcDbPolyline
 90
        3
 70
     0
 43
0.0
 10
-14.99734012839398
 20
16.30905511811024
 10
-15.04064721500816
 20
16.25787401574803
 10
-15.10363934099241
 20
16.23818897637795
  0
LINE
  5
2AE9
330
36
100
AcDbEntity
  8
0
100
AcDbLine
 10
-14.69419052209477
 20
16.95472440944881
 30
0.0
 11
-14.99734012839398
 21
16.30905511811024
 31
0.0
  0
LWPOLYLINE
  5
2AEA
330
36
100
AcDbEntity
  8
0
100
AcDbPolyline
 90
        3
 70
     0
 43
0.0
 10
-14.63907241185855
 20
16.99015748031495
 10
-14.67450548272469
 20
16.97834645669291
 10
-14.69419052209477
 20
16.95472440944881
  0
LINE
  5
2AEF
330
36
100
AcDbEntity
  8
0
100
AcDbLine
 10
-14.63907241185855
 20
16.99015748031495
 30
0.0
 11
-14.52883619138611
 21
16.99015748031495
 31
0.0
  0
LWPOLYLINE
  5
2AF0
330
36
100
AcDbEntity
  8
0
100
AcDbPolyline
 90
        3
 70
     0
 43
0.0
 10
-14.501277136268
 20
16.98228346456692
 10
-14.51308815989005
 20
16.99015748031495
 10
-14.52883619138611
 20
16.99015748031495
  0
LINE
  5
2AF5
330
36
100
AcDbEntity
  8
0
100
AcDbLine
 10
-11.96584406540186
 20
15.8011811023622
 30
0.0
 11
-14.501277136268
 21
16.98228346456692
 31
0.0
  0
LWPOLYLINE
  5
2AF6
330
36
100
AcDbEntity
  8
0
100
AcDbPolyline
 90
        3
 70
     0
 43
0.0
 10
-11.95403304177981
 20
15.78543307086614
 10
-11.95797004965382
 20
15.79330708661417
 10
-11.96584406540186
 20
15.8011811023622
  0
LINE
  5
2AFB
330
36
100
AcDbEntity
  8
0
100
AcDbLine
 10
-11.95403304177981
 20
15.78543307086614
 30
0.0
 11
-11.95403304177981
 21
15.78543307086614
 31
0.0
  0
LINE
  5
2AFC
330
36
100
AcDbEntity
  8
0
100
AcDbLine
 10
-11.95403304177981
 20
15.78543307086614
 30
0.0
 11
-0.6351354039845348
 21
15.78543307086614
 31
0.0
  0
LWPOLYLINE
  5
2AFD
330
36
100
AcDbEntity
  8
0
100
AcDbPolyline
 90
        3
 70
     0
 43
0.0
 10
-0.6351354039845348
 20
15.78543307086614
 10
-0.6311983961105199
 20
15.79330708661417
 10
-0.6272613882365051
 20
15.8011811023622
  0
LINE
  5
2B02
330
36
100
AcDbEntity
  8
0
100
AcDbLine
 10
-0.6272613882365051
 20
15.8011811023622
 30
0.0
 11
1.912108690503654
 21
16.98228346456692
 31
0.0
  0
LWPOLYLINE
  5
2B03
330
36
100
AcDbEntity
  8
0
100
AcDbPolyline
 90
        3
 70
     0
 43
0.0
 10
1.912108690503654
 20
16.98228346456692
 10
1.923919714125702
 20
16.99015748031495
 10
1.935730737747746
 20
16.99015748031495
  0
LINE
  5
2B08
330
36
100
AcDbEntity
  8
0
100
AcDbLine
 10
2.565651997590268
 20
16.02165354330709
 30
0.0
 11
2.565651997590268
 21
16.23818897637795
 31
0.0
  0
LINE
  5
2B09
330
36
100
AcDbEntity
  8
0
100
AcDbLine
 10
2.593211052708376
 20
17.29330708661417
 30
0.0
 11
2.593211052708376
 21
16.23818897637795
 31
0.0
  0
LINE
  5
2B0A
330
36
100
AcDbEntity
  8
0
100
AcDbLine
 10
2.593211052708376
 20
16.23818897637795
 30
0.0
 11
2.593211052708376
 21
16.02165354330709
 31
0.0
  0
LWPOLYLINE
  5
2B0B
330
36
100
AcDbEntity
  8
0
100
AcDbPolyline
 90
        3
 70
     0
 43
0.0
 10
2.51840790310208
 20
17.29330708661417
 10
2.573526013338298
 20
17.29330708661417
 10
2.593211052708376
 20
17.29330708661417
  0
LWPOLYLINE
  5
2B10
330
36
100
AcDbEntity
  8
0
100
AcDbPolyline
 90
        3
 70
     0
 43
0.0
 10
2.51840790310208
 20
17.3759842519685
 10
2.51840790310208
 20
17.36811023622047
 10
2.51840790310208
 20
17.34448818897638
  0
LWPOLYLINE
  5
2B15
330
36
100
AcDbEntity
  8
0
100
AcDbPolyline
 90
        3
 70
     0
 43
0.0
 10
2.593211052708376
 20
16.23818897637795
 10
2.573526013338298
 20
16.23818897637795
 10
2.51840790310208
 20
16.23818897637795
  0
LWPOLYLINE
  5
2B1A
330
36
100
AcDbEntity
  8
0
100
AcDbPolyline
 90
        3
 70
     0
 43
0.0
 10
-15.10757634886642
 20
17.3759842519685
 10
-15.10757634886642
 20
17.36811023622047
 10
-15.10757634886642
 20
17.34448818897638
  0
LINE
  5
2B1F
330
36
100
AcDbEntity
  8
0
100
AcDbLine
 10
2.565651997590268
 20
16.23818897637795
 30
0.0
 11
2.565651997590268
 21
16.02165354330709
 31
0.0
  0
LINE
  5
2B20
330
36
100
AcDbEntity
  8
0
100
AcDbLine
 10
2.534155934598143
 20
16.23818897637795
 30
0.0
 11
2.534155934598143
 21
16.02165354330709
 31
0.0
  0
LWPOLYLINE
  5
2B21
330
36
100
AcDbEntity
  8
0
100
AcDbPolyline
 90
        3
 70
     0
 43
0.0
 10
2.534155934598143
 20
16.02165354330709
 10
2.557777981842235
 20
15.96653543307086
 10
2.608959084204439
 20
15.94291338582677
  0
LINE
  5
2B26
330
36
100
AcDbEntity
  8
0
100
AcDbLine
 10
2.608959084204439
 20
15.94291338582677
 30
0.0
 11
2.660140186566646
 21
15.94291338582677
 31
0.0
  0
LINE
  5
2B27
330
36
100
AcDbEntity
  8
0
100
AcDbLine
 10
2.608959084204439
 20
15.97440944881889
 30
0.0
 11
2.660140186566646
 21
15.97440944881889
 31
0.0
  0
LWPOLYLINE
  5
2B28
330
36
100
AcDbEntity
  8
0
100
AcDbPolyline
 90
        3
 70
     0
 43
0.0
 10
2.608959084204439
 20
15.97440944881889
 10
2.577463021212313
 20
15.98622047244094
 10
2.565651997590268
 20
16.02165354330709
  0
LWPOLYLINE
  5
2B2D
330
36
100
AcDbEntity
  8
0
100
AcDbPolyline
 90
        3
 70
     0
 43
0.0
 10
2.71919530467688
 20
15.97440944881889
 10
2.675888218062709
 20
15.97440944881889
 10
2.660140186566646
 20
15.97440944881889
  0
LINE
  5
2B32
330
36
100
AcDbEntity
  8
0
100
AcDbLine
 10
2.71919530467688
 20
16.00590551181102
 30
0.0
 11
2.71919530467688
 21
15.97440944881889
 31
0.0
  0
LWPOLYLINE
  5
2B33
330
36
100
AcDbEntity
  8
0
100
AcDbPolyline
 90
        3
 70
     0
 43
0.0
 10
2.660140186566646
 20
16.00590551181102
 10
2.675888218062709
 20
16.00590551181102
 10
2.71919530467688
 20
16.00590551181102
  0
LINE
  5
2B38
330
36
100
AcDbEntity
  8
0
100
AcDbLine
 10
2.660140186566646
 20
15.97440944881889
 30
0.0
 11
2.660140186566646
 21
16.00590551181102
 31
0.0
  0
LINE
  5
2B39
330
36
100
AcDbEntity
  8
0
100
AcDbLine
 10
2.71919530467688
 20
15.97440944881889
 30
0.0
 11
3.073526013338298
 21
15.97440944881889
 31
0.0
  0
LINE
  5
2B3A
330
36
100
AcDbEntity
  8
0
100
AcDbLine
 10
3.073526013338298
 20
15.97440944881889
 30
0.0
 11
3.073526013338298
 21
16.00590551181102
 31
0.0
  0
LINE
  5
2B3B
330
36
100
AcDbEntity
  8
0
100
AcDbLine
 10
3.073526013338298
 20
16.00590551181102
 30
0.0
 11
2.71919530467688
 21
16.00590551181102
 31
0.0
  0
LINE
  5
2B3C
330
36
100
AcDbEntity
  8
0
100
AcDbLine
 10
3.132581131448535
 20
16.00590551181102
 30
0.0
 11
3.132581131448535
 21
15.97440944881889
 31
0.0
  0
LWPOLYLINE
  5
2B3D
330
36
100
AcDbEntity
  8
0
100
AcDbPolyline
 90
        3
 70
     0
 43
0.0
 10
2.608959084204439
 20
16.00590551181102
 10
2.601085068456409
 20
16.00984251968504
 10
2.593211052708376
 20
16.02165354330709
  0
LINE
  5
2B42
330
36
100
AcDbEntity
  8
0
100
AcDbLine
 10
2.608959084204439
 20
16.00590551181102
 30
0.0
 11
2.660140186566646
 21
16.00590551181102
 31
0.0
  0
LWPOLYLINE
  5
2B43
330
36
100
AcDbEntity
  8
0
100
AcDbPolyline
 90
        3
 70
     0
 43
0.0
 10
3.073526013338298
 20
16.00590551181102
 10
3.112896092078457
 20
16.00590551181102
 10
3.132581131448535
 20
16.00590551181102
  0
LWPOLYLINE
  5
2B48
330
36
100
AcDbEntity
  8
0
100
AcDbPolyline
 90
        3
 70
     0
 43
0.0
 10
3.132581131448535
 20
15.97440944881889
 10
3.112896092078457
 20
15.97440944881889
 10
3.073526013338298
 20
15.97440944881889
  0
LINE
  5
2B4D
330
36
100
AcDbEntity
  8
0
100
AcDbLine
 10
2.608959084204439
 20
15.97440944881889
 30
0.0
 11
2.660140186566646
 21
15.97440944881889
 31
0.0
  0
LWPOLYLINE
  5
2B4E
330
36
100
AcDbEntity
  8
0
100
AcDbPolyline
 90
        3
 70
     0
 43
0.0
 10
2.565651997590268
 20
16.02165354330709
 10
2.577463021212313
 20
15.99015748031496
 10
2.608959084204439
 20
15.97440944881889
  0
LINE
  5
2B53
330
36
100
AcDbEntity
  8
0
100
AcDbLine
 10
3.132581131448535
 20
15.97440944881889
 30
0.0
 11
3.132581131448535
 21
15.94291338582677
 31
0.0
  0
LINE
  5
2B54
330
36
100
AcDbEntity
  8
0
100
AcDbLine
 10
2.71919530467688
 20
15.94291338582677
 30
0.0
 11
3.073526013338298
 21
15.94291338582677
 31
0.0
  0
LINE
  5
2B55
330
36
100
AcDbEntity
  8
0
100
AcDbLine
 10
3.073526013338298
 20
15.94291338582677
 30
0.0
 11
3.073526013338298
 21
15.97440944881889
 31
0.0
  0
LINE
  5
2B56
330
36
100
AcDbEntity
  8
0
100
AcDbLine
 10
2.71919530467688
 20
15.97440944881889
 30
0.0
 11
3.073526013338298
 21
15.97440944881889
 31
0.0
  0
LINE
  5
2B57
330
36
100
AcDbEntity
  8
0
100
AcDbLine
 10
2.71919530467688
 20
15.94291338582677
 30
0.0
 11
2.71919530467688
 21
15.97440944881889
 31
0.0
  0
LWPOLYLINE
  5
2B58
330
36
100
AcDbEntity
  8
0
100
AcDbPolyline
 90
        3
 70
     0
 43
0.0
 10
2.71919530467688
 20
15.97440944881889
 10
2.675888218062709
 20
15.97440944881889
 10
2.660140186566646
 20
15.97440944881889
  0
LINE
  5
2B5D
330
36
100
AcDbEntity
  8
0
100
AcDbLine
 10
2.660140186566646
 20
15.94291338582677
 30
0.0
 11
2.660140186566646
 21
15.97440944881889
 31
0.0
  0
LWPOLYLINE
  5
2B5E
330
36
100
AcDbEntity
  8
0
100
AcDbPolyline
 90
        3
 70
     0
 43
0.0
 10
2.71919530467688
 20
15.94291338582677
 10
2.675888218062709
 20
15.94291338582677
 10
2.660140186566646
 20
15.94291338582677
  0
LWPOLYLINE
  5
2B63
330
36
100
AcDbEntity
  8
0
100
AcDbPolyline
 90
        3
 70
     0
 43
0.0
 10
3.132581131448535
 20
15.94291338582677
 10
3.112896092078457
 20
15.94291338582677
 10
3.073526013338298
 20
15.94291338582677
  0
LWPOLYLINE
  5
2B68
330
36
100
AcDbEntity
  8
0
100
AcDbPolyline
 90
        3
 70
     0
 43
0.0
 10
3.073526013338298
 20
15.97440944881889
 10
3.112896092078457
 20
15.97440944881889
 10
3.132581131448535
 20
15.97440944881889
  0
LINE
  5
2B6D
330
36
100
AcDbEntity
  8
0
100
AcDbLine
 10
-0.6351354039845348
 20
15.76968503937007
 30
0.0
 11
-11.95403304177981
 21
15.76968503937007
 31
0.0
  0
LWPOLYLINE
  5
2B6E
330
36
100
AcDbEntity
  8
0
100
AcDbPolyline
 90
        3
 70
     0
 43
0.0
 10
-11.95403304177981
 20
15.76968503937007
 10
-11.95403304177981
 20
15.75393700787401
 10
-11.95403304177981
 20
15.73031496062992
  0
LWPOLYLINE
  5
2B73
330
36
100
AcDbEntity
  8
0
100
AcDbPolyline
 90
        3
 70
     0
 43
0.0
 10
-11.95403304177981
 20
15.78543307086614
 10
-11.95403304177981
 20
15.77755905511811
 10
-11.95403304177981
 20
15.76968503937007
  0
LINE
  5
2B78
330
36
100
AcDbEntity
  8
0
100
AcDbLine
 10
-15.15482044335461
 20
16.02165354330709
 30
0.0
 11
-15.15482044335461
 21
16.23818897637795
 31
0.0
  0
LINE
  5
2B79
330
36
100
AcDbEntity
  8
0
100
AcDbLine
 10
-15.18631650634674
 20
16.23818897637795
 30
0.0
 11
-15.18631650634674
 21
16.02165354330709
 31
0.0
  0
LINE
  5
2B7A
330
36
100
AcDbEntity
  8
0
100
AcDbLine
 10
-15.18631650634674
 20
17.29330708661417
 30
0.0
 11
-15.18631650634674
 21
16.23818897637795
 31
0.0
  0
LWPOLYLINE
  5
2B7B
330
36
100
AcDbEntity
  8
0
100
AcDbPolyline
 90
        3
 70
     0
 43
0.0
 10
-15.10757634886642
 20
17.29330708661417
 10
-15.16269445910264
 20
17.29330708661417
 10
-15.18631650634674
 20
17.29330708661417
  0
LWPOLYLINE
  5
2B80
330
36
100
AcDbEntity
  8
0
100
AcDbPolyline
 90
        3
 70
     0
 43
0.0
 10
-15.18631650634674
 20
16.23818897637795
 10
-15.16269445910264
 20
16.23818897637795
 10
-15.10757634886642
 20
16.23818897637795
  0
LINE
  5
2B85
330
36
100
AcDbEntity
  8
0
100
AcDbLine
 10
-15.15482044335461
 20
16.23818897637795
 30
0.0
 11
-15.15482044335461
 21
16.02165354330709
 31
0.0
  0
LINE
  5
2B86
330
36
100
AcDbEntity
  8
0
100
AcDbLine
 10
-15.12332438036249
 20
16.23818897637795
 30
0.0
 11
-15.12332438036249
 21
16.02165354330709
 31
0.0
  0
LWPOLYLINE
  5
2B87
330
36
100
AcDbEntity
  8
0
100
AcDbPolyline
 90
        3
 70
     0
 43
0.0
 10
-15.2020645378428
 20
15.97440944881889
 10
-15.16663146697666
 20
15.98622047244094
 10
-15.15482044335461
 20
16.02165354330709
  0
LINE
  5
2B8C
330
36
100
AcDbEntity
  8
0
100
AcDbLine
 10
-15.2020645378428
 20
15.97440944881889
 30
0.0
 11
-15.24930863233099
 21
15.97440944881889
 31
0.0
  0
LINE
  5
2B8D
330
36
100
AcDbEntity
  8
0
100
AcDbLine
 10
-15.2020645378428
 20
15.94291338582677
 30
0.0
 11
-15.24930863233099
 21
15.94291338582677
 31
0.0
  0
LWPOLYLINE
  5
2B8E
330
36
100
AcDbEntity
  8
0
100
AcDbPolyline
 90
        3
 70
     0
 43
0.0
 10
-15.12332438036249
 20
16.02165354330709
 10
-15.14694642760658
 20
15.96653543307086
 10
-15.2020645378428
 20
15.94291338582677
  0
LWPOLYLINE
  5
2B93
330
36
100
AcDbEntity
  8
0
100
AcDbPolyline
 90
        3
 70
     0
 43
0.0
 10
-15.31230075831524
 20
15.97440944881889
 10
-15.26899367170107
 20
15.97440944881889
 10
-15.24930863233099
 20
15.97440944881889
  0
LINE
  5
2B98
330
36
100
AcDbEntity
  8
0
100
AcDbLine
 10
-15.24930863233099
 20
15.97440944881889
 30
0.0
 11
-15.24930863233099
 21
16.00590551181102
 31
0.0
  0
LWPOLYLINE
  5
2B99
330
36
100
AcDbEntity
  8
0
100
AcDbPolyline
 90
        3
 70
     0
 43
0.0
 10
-15.24930863233099
 20
16.00590551181102
 10
-15.26899367170107
 20
16.00590551181102
 10
-15.31230075831524
 20
16.00590551181102
  0
LINE
  5
2B9E
330
36
100
AcDbEntity
  8
0
100
AcDbLine
 10
-15.31230075831524
 20
16.00590551181102
 30
0.0
 11
-15.31230075831524
 21
15.97440944881889
 31
0.0
  0
LINE
  5
2B9F
330
36
100
AcDbEntity
  8
0
100
AcDbLine
 10
-15.31230075831524
 20
15.97440944881889
 30
0.0
 11
-15.66269445910264
 21
15.97440944881889
 31
0.0
  0
LINE
  5
2BA0
330
36
100
AcDbEntity
  8
0
100
AcDbLine
 10
-15.66269445910264
 20
16.00590551181102
 30
0.0
 11
-15.31230075831524
 21
16.00590551181102
 31
0.0
  0
LINE
  5
2BA1
330
36
100
AcDbEntity
  8
0
100
AcDbLine
 10
-15.66269445910264
 20
15.97440944881889
 30
0.0
 11
-15.66269445910264
 21
16.00590551181102
 31
0.0
  0
LINE
  5
2BA2
330
36
100
AcDbEntity
  8
0
100
AcDbLine
 10
-15.72174957721288
 20
16.00590551181102
 30
0.0
 11
-15.72174957721288
 21
15.97440944881889
 31
0.0
  0
LWPOLYLINE
  5
2BA3
330
36
100
AcDbEntity
  8
0
100
AcDbPolyline
 90
        3
 70
     0
 43
0.0
 10
-15.2020645378428
 20
16.00590551181102
 10
-15.19025351422075
 20
16.00984251968504
 10
-15.18631650634674
 20
16.02165354330709
  0
LWPOLYLINE
  5
2BA8
330
36
100
AcDbEntity
  8
0
100
AcDbPolyline
 90
        3
 70
     0
 43
0.0
 10
-15.66269445910264
 20
16.00590551181102
 10
-15.70600154571682
 20
16.00590551181102
 10
-15.72174957721288
 20
16.00590551181102
  0
LINE
  5
2BAD
330
36
100
AcDbEntity
  8
0
100
AcDbLine
 10
-15.2020645378428
 20
16.00590551181102
 30
0.0
 11
-15.24930863233099
 21
16.00590551181102
 31
0.0
  0
LINE
  5
2BAE
330
36
100
AcDbEntity
  8
0
100
AcDbLine
 10
-15.2020645378428
 20
15.97440944881889
 30
0.0
 11
-15.24930863233099
 21
15.97440944881889
 31
0.0
  0
LWPOLYLINE
  5
2BAF
330
36
100
AcDbEntity
  8
0
100
AcDbPolyline
 90
        3
 70
     0
 43
0.0
 10
-15.72174957721288
 20
15.97440944881889
 10
-15.70600154571682
 20
15.97440944881889
 10
-15.66269445910264
 20
15.97440944881889
  0
LWPOLYLINE
  5
2BB4
330
36
100
AcDbEntity
  8
0
100
AcDbPolyline
 90
        3
 70
     0
 43
0.0
 10
-15.15482044335461
 20
16.02165354330709
 10
-15.17056847485068
 20
15.99015748031496
 10
-15.2020645378428
 20
15.97440944881889
  0
LINE
  5
2BB9
330
36
100
AcDbEntity
  8
0
100
AcDbLine
 10
-15.72174957721288
 20
15.97440944881889
 30
0.0
 11
-15.72174957721288
 21
15.94291338582677
 31
0.0
  0
LINE
  5
2BBA
330
36
100
AcDbEntity
  8
0
100
AcDbLine
 10
-15.31230075831524
 20
15.94291338582677
 30
0.0
 11
-15.66269445910264
 21
15.94291338582677
 31
0.0
  0
LINE
  5
2BBB
330
36
100
AcDbEntity
  8
0
100
AcDbLine
 10
-15.31230075831524
 20
15.94291338582677
 30
0.0
 11
-15.31230075831524
 21
15.97440944881889
 31
0.0
  0
LINE
  5
2BBC
330
36
100
AcDbEntity
  8
0
100
AcDbLine
 10
-15.31230075831524
 20
15.97440944881889
 30
0.0
 11
-15.66269445910264
 21
15.97440944881889
 31
0.0
  0
LINE
  5
2BBD
330
36
100
AcDbEntity
  8
0
100
AcDbLine
 10
-15.66269445910264
 20
15.94291338582677
 30
0.0
 11
-15.66269445910264
 21
15.97440944881889
 31
0.0
  0
LWPOLYLINE
  5
2BBE
330
36
100
AcDbEntity
  8
0
100
AcDbPolyline
 90
        3
 70
     0
 43
0.0
 10
-15.31230075831524
 20
15.97440944881889
 10
-15.26899367170107
 20
15.97440944881889
 10
-15.24930863233099
 20
15.97440944881889
  0
LWPOLYLINE
  5
2BC3
330
36
100
AcDbEntity
  8
0
100
AcDbPolyline
 90
        3
 70
     0
 43
0.0
 10
-15.31230075831524
 20
15.94291338582677
 10
-15.26899367170107
 20
15.94291338582677
 10
-15.24930863233099
 20
15.94291338582677
  0
LINE
  5
2BC8
330
36
100
AcDbEntity
  8
0
100
AcDbLine
 10
-15.24930863233099
 20
15.94291338582677
 30
0.0
 11
-15.24930863233099
 21
15.97440944881889
 31
0.0
  0
LWPOLYLINE
  5
2BC9
330
36
100
AcDbEntity
  8
0
100
AcDbPolyline
 90
        3
 70
     0
 43
0.0
 10
-15.72174957721288
 20
15.94291338582677
 10
-15.70600154571682
 20
15.94291338582677
 10
-15.66269445910264
 20
15.94291338582677
  0
LWPOLYLINE
  5
2BCE
330
36
100
AcDbEntity
  8
0
100
AcDbPolyline
 90
        3
 70
     0
 43
0.0
 10
-15.66269445910264
 20
15.97440944881889
 10
-15.70600154571682
 20
15.97440944881889
 10
-15.72174957721288
 20
15.97440944881889
  0
ENDSEC
  0
SECTION
  2
OBJECTS
  0
DICTIONARY
  5
C
330
0
100
AcDbDictionary
281
     1
  3
ACAD_COLOR
350
2F
  3
ACAD_GROUP
350
D
  3
ACAD_LAYOUT
350
2E
  3
ACAD_MATERIAL
350
10
  3
ACAD_MLINESTYLE
350
2B
  3
ACAD_PLOTSETTINGS
350
2D
  3
ACAD_PLOTSTYLENAME
350
E
  3
ACAD_TABLESTYLE
350
30
  3
ACAD_VISUALSTYLE
350
14
  3
AcDbVariableDictionary
350
2E89
  0
DICTIONARY
  5
2F
102
{ACAD_REACTORS
330
C
102
}
330
C
100
AcDbDictionary
281
     1
  0
DICTIONARY
  5
D
102
{ACAD_REACTORS
330
C
102
}
330
C
100
AcDbDictionary
281
     1
  0
DICTIONARY
  5
2E
102
{ACAD_REACTORS
330
C
102
}
330
C
100
AcDbDictionary
281
     1
  3
Layout1
350
35
  3
Model
350
39
  0
DICTIONARY
  5
10
102
{ACAD_REACTORS
330
C
102
}
330
C
100
AcDbDictionary
281
     1
  3
ByBlock
350
12
  3
ByLayer
350
11
  3
Global
350
13
  0
DICTIONARY
  5
2B
102
{ACAD_REACTORS
330
C
102
}
330
C
100
AcDbDictionary
281
     1
  3
Standard
350
2C
  0
DICTIONARY
  5
2D
102
{ACAD_REACTORS
330
C
102
}
330
C
100
AcDbDictionary
281
     1
  0
ACDBDICTIONARYWDFLT
  5
E
102
{ACAD_REACTORS
330
C
102
}
330
C
100
AcDbDictionary
281
     1
  3
Normal
350
F
100
AcDbDictionaryWithDefault
340
F
  0
DICTIONARY
  5
30
102
{ACAD_REACTORS
330
C
102
}
330
C
100
AcDbDictionary
281
     1
  3
Standard
350
31
  0
DICTIONARY
  5
14
102
{ACAD_REACTORS
330
C
102
}
330
C
100
AcDbDictionary
281
     1
  3
2dWireframe
350
1A
  3
3D Hidden
350
1C
  3
3dWireframe
350
1B
  3
Basic
350
19
  3
Brighten
350
20
  3
ColorChange
350
24
  3
Conceptual
350
1D
  3
Dim
350
1F
  3
Facepattern
350
23
  3
Flat
350
15
  3
FlatWithEdges
350
16
  3
Gouraud
350
17
  3
GouraudWithEdges
350
18
  3
Linepattern
350
22
  3
Realistic
350
1E
  3
Thicken
350
21
  0
DICTIONARY
  5
2E89
102
{ACAD_REACTORS
330
C
102
}
330
C
100
AcDbDictionary
281
     1
  3
CTABLESTYLE
350
2E8A
  0
LAYOUT
  5
35
102
{ACAD_REACTORS
330
2E
102
}
330
2E
100
AcDbPlotSettings
  1

  2
\\nseng\OPLASER4
  4

  6

 40
0.0
 41
0.0
 42
0.0
 43
0.0
 44
0.0
 45
0.0
 46
0.0
 47
0.0
 48
0.0
 49
0.0
140
0.0
141
0.0
142
1.0
143
1.0
 70
   688
 72
     0
 73
     0
 74
     5
  7

 75
    16
147
1.0
 76
     0
 77
     2
 78
   300
148
0.0
149
0.0
100
AcDbLayout
  1
Layout1
 70
     1
 71
     1
 10
0.0
 20
0.0
 11
12.0
 21
9.0
 12
0.0
 22
0.0
 32
0.0
 14
1.000000000000000E+20
 24
1.000000000000000E+20
 34
1.000000000000000E+20
 15
-1.000000000000000E+20
 25
-1.000000000000000E+20
 35
-1.000000000000000E+20
146
0.0
 13
0.0
 23
0.0
 33
0.0
 16
1.0
 26
0.0
 36
0.0
 17
0.0
 27
1.0
 37
0.0
 76
     0
330
32
  0
LAYOUT
  5
39
102
{ACAD_REACTORS
330
2E
102
}
330
2E
100
AcDbPlotSettings
  1

  2
\\nseng\OPLASER4
  4

  6

 40
0.0
 41
0.0
 42
0.0
 43
0.0
 44
0.0
 45
0.0
 46
0.0
 47
0.0
 48
0.0
 49
0.0
140
0.0
141
0.0
142
1.0
143
1.0
 70
  1712
 72
     0
 73
     0
 74
     0
  7

 75
     0
147
1.0
 76
     0
 77
     2
 78
   300
148
0.0
149
0.0
100
AcDbLayout
  1
Model
 70
     1
 71
     0
 10
0.0
 20
0.0
 11
12.0
 21
9.0
 12
0.0
 22
0.0
 32
0.0
 14
0.0
 24
0.0
 34
0.0
 15
0.0
 25
0.0
 35
0.0
146
0.0
 13
0.0
 23
0.0
 33
0.0
 16
1.0
 26
0.0
 36
0.0
 17
0.0
 27
1.0
 37
0.0
 76
     0
330
36
331
155
  0
MATERIAL
  5
12
102
{ACAD_REACTORS
330
10
102
}
330
10
100
AcDbMaterial
  1
ByBlock
  0
MATERIAL
  5
11
102
{ACAD_REACTORS
330
10
102
}
330
10
100
AcDbMaterial
  1
ByLayer
  0
MATERIAL
  5
13
102
{ACAD_REACTORS
330
10
102
}
330
10
100
AcDbMaterial
  1
Global
  0
MLINESTYLE
  5
2C
102
{ACAD_REACTORS
330
2B
102
}
330
2B
100
AcDbMlineStyle
  2
STANDARD
 70
     0
  3

 62
   256
 51
90.0
 52
90.0
 71
     2
 49
0.5
 62
   256
  6
BYLAYER
 49
-0.5
 62
   256
  6
BYLAYER
  0
ACDBPLACEHOLDER
  5
F
102
{ACAD_REACTORS
330
E
102
}
330
E
  0
TABLESTYLE
  5
31
102
{ACAD_REACTORS
330
30
102
}
330
30
100
AcDbTableStyle
  3
Standard
 70
     0
 71
     0
 40
0.06
 41
0.06
280
     0
281
     0
  7
STANDARD
140
0.18
170
     2
 62
     0
 63
     7
283
     0
 90
      512
 91
        0
  1

274
    -2
284
     1
 64
     0
275
    -2
285
     1
 65
     0
276
    -2
286
     1
 66
     0
277
    -2
287
     1
 67
     0
278
    -2
288
     1
 68
     0
279
    -2
289
     1
 69
     0
  7
STANDARD
140
0.25
170
     5
 62
     0
 63
     7
283
     0
 90
      512
 91
        0
  1

274
    -2
284
     1
 64
     0
275
    -2
285
     1
 65
     0
276
    -2
286
     1
 66
     0
277
    -2
287
     1
 67
     0
278
    -2
288
     1
 68
     0
279
    -2
289
     1
 69
     0
  7
STANDARD
140
0.18
170
     5
 62
     0
 63
     7
283
     0
 90
      512
 91
        0
  1

274
    -2
284
     1
 64
     0
275
    -2
285
     1
 65
     0
276
    -2
286
     1
 66
     0
277
    -2
287
     1
 67
     0
278
    -2
288
     1
 68
     0
279
    -2
289
     1
 69
     0
  0
VISUALSTYLE
  5
1A
102
{ACAD_REACTORS
330
14
102
}
330
14
100
AcDbVisualStyle
  2
2dWireframe
 70
     4
 71
     0
 72
     2
 73
     0
 90
        0
 40
-0.6
 41
-30.0
 62
     5
 63
     7
421
 16777215
 74
     1
 91
        4
 64
     7
 65
   257
 75
     1
175
     1
 42
1.0
 92
        0
 66
   257
 43
1.0
 76
     1
 77
     6
 78
     2
 67
     7
 79
     5
170
     0
171
     0
290
     0
174
     0
 93
        1
 44
0.0
173
     0
291
     0
 45
0.0
  0
VISUALSTYLE
  5
1C
102
{ACAD_REACTORS
330
14
102
}
330
14
100
AcDbVisualStyle
  2
3D Hidden
 70
     6
 71
     1
 72
     2
 73
     2
 90
        0
 40
-0.6
 41
-30.0
 62
     5
 63
     7
421
 16777215
 74
     2
 91
        2
 64
     7
 65
   257
 75
     2
175
     1
 42
40.0
 92
        0
 66
   257
 43
1.0
 76
     1
 77
     6
 78
     2
 67
     7
 79
     3
170
     0
171
     0
290
     0
174
     0
 93
        1
 44
0.0
173
     0
291
     0
 45
0.0
  0
VISUALSTYLE
  5
1B
102
{ACAD_REACTORS
330
14
102
}
330
14
100
AcDbVisualStyle
  2
3dWireframe
 70
     5
 71
     0
 72
     2
 73
     0
 90
        0
 40
-0.6
 41
-30.0
 62
     5
 63
     7
421
 16777215
 74
     1
 91
        4
 64
     7
 65
   257
 75
     1
175
     1
 42
1.0
 92
        0
 66
   257
 43
1.0
 76
     1
 77
     6
 78
     2
 67
     7
 79
     5
170
     0
171
     0
290
     0
174
     0
 93
        1
 44
0.0
173
     0
291
     0
 45
0.0
  0
VISUALSTYLE
  5
19
102
{ACAD_REACTORS
330
14
102
}
330
14
100
AcDbVisualStyle
  2
Basic
 70
     7
 71
     1
 72
     0
 73
     1
 90
        0
 40
-0.6
 41
-30.0
 62
     5
 63
     7
421
 16777215
 74
     0
 91
        4
 64
     7
 65
   257
 75
     1
175
     1
 42
1.0
 92
        8
 66
     7
 43
1.0
 76
     1
 77
     6
 78
     2
 67
     7
 79
     5
170
     0
171
     0
290
     0
174
     0
 93
        1
 44
0.0
173
     0
291
     1
 45
0.0
  0
VISUALSTYLE
  5
20
102
{ACAD_REACTORS
330
14
102
}
330
14
100
AcDbVisualStyle
  2
Brighten
 70
    12
 71
     2
 72
     2
 73
     0
 90
        0
 40
-0.6
 41
-30.0
 62
     5
 63
     7
421
 16777215
 74
     1
 91
        4
 64
     7
 65
   257
 75
     1
175
     1
 42
1.0
 92
        8
 66
     7
 43
1.0
 76
     1
 77
     6
 78
     2
 67
     7
 79
     5
170
     0
171
     0
290
     0
174
     0
 93
        1
 44
50.0
173
     0
291
     1
 45
0.0
  0
VISUALSTYLE
  5
24
102
{ACAD_REACTORS
330
14
102
}
330
14
100
AcDbVisualStyle
  2
ColorChange
 70
    16
 71
     2
 72
     2
 73
     3
 90
        0
 40
-0.6
 41
-30.0
 62
     5
 63
     8
421
  8421504
 74
     1
 91
        4
 64
     7
 65
   257
 75
     1
175
     1
 42
1.0
 92
        8
 66
     8
424
  8421504
 43
1.0
 76
     1
 77
     6
 78
     2
 67
     7
 79
     5
170
     0
171
     0
290
     0
174
     0
 93
        1
 44
0.0
173
     0
291
     1
 45
0.0
  0
VISUALSTYLE
  5
1D
102
{ACAD_REACTORS
330
14
102
}
330
14
100
AcDbVisualStyle
  2
Conceptual
 70
     9
 71
     3
 72
     2
 73
     0
 90
        0
 40
-0.6
 41
-30.0
 62
     5
 63
     7
421
 16777215
 74
     2
 91
        2
 64
     7
 65
   257
 75
     1
175
     1
 42
40.0
 92
        8
 66
     7
 43
1.0
 76
     1
 77
     6
 78
     2
 67
     7
 79
     3
170
     0
171
     0
290
     0
174
     0
 93
        1
 44
0.0
173
     0
291
     0
 45
0.0
  0
VISUALSTYLE
  5
1F
102
{ACAD_REACTORS
330
14
102
}
330
14
100
AcDbVisualStyle
  2
Dim
 70
    11
 71
     2
 72
     2
 73
     0
 90
        0
 40
-0.6
 41
-30.0
 62
     5
 63
     7
421
 16777215
 74
     1
 91
        4
 64
     7
 65
   257
 75
     1
175
     1
 42
1.0
 92
        8
 66
     7
 43
1.0
 76
     1
 77
     6
 78
     2
 67
     7
 79
     5
170
     0
171
     0
290
     0
174
     0
 93
        1
 44
-50.0
173
     0
291
     1
 45
0.0
  0
VISUALSTYLE
  5
23
102
{ACAD_REACTORS
330
14
102
}
330
14
100
AcDbVisualStyle
  2
Facepattern
 70
    15
 71
     2
 72
     2
 73
     0
 90
        0
 40
-0.6
 41
-30.0
 62
     5
 63
     7
421
 16777215
 74
     1
 91
        4
 64
     7
 65
   257
 75
     1
175
     1
 42
1.0
 92
        8
 66
     7
 43
1.0
 76
     1
 77
     6
 78
     2
 67
     7
 79
     5
170
     0
171
     0
290
     0
174
     0
 93
        1
 44
0.0
173
     0
291
     1
 45
0.0
  0
VISUALSTYLE
  5
15
102
{ACAD_REACTORS
330
14
102
}
330
14
100
AcDbVisualStyle
  2
Flat
 70
     0
 71
     2
 72
     1
 73
     1
 90
        2
 40
-0.6
 41
30.0
 62
     5
 63
     7
421
 16777215
 74
     0
 91
        4
 64
     7
 65
   257
 75
     1
175
     1
 42
1.0
 92
        8
 66
     7
 43
1.0
 76
     1
 77
     6
 78
     2
 67
     7
 79
     5
170
     0
171
     0
290
     0
174
     0
 93
       13
 44
0.0
173
     0
291
     1
 45
0.0
  0
VISUALSTYLE
  5
16
102
{ACAD_REACTORS
330
14
102
}
330
14
100
AcDbVisualStyle
  2
FlatWithEdges
 70
     1
 71
     2
 72
     1
 73
     1
 90
        2
 40
-0.6
 41
30.0
 62
     5
 63
     7
421
 16777215
 74
     1
 91
        4
 64
     7
 65
   257
 75
     1
175
     1
 42
1.0
 92
        0
 66
   257
 43
1.0
 76
     1
 77
     6
 78
     2
 67
     7
 79
     5
170
     0
171
     0
290
     0
174
     0
 93
       13
 44
0.0
173
     0
291
     1
 45
0.0
  0
VISUALSTYLE
  5
17
102
{ACAD_REACTORS
330
14
102
}
330
14
100
AcDbVisualStyle
  2
Gouraud
 70
     2
 71
     2
 72
     2
 73
     1
 90
        2
 40
-0.6
 41
30.0
 62
     5
 63
     7
421
 16777215
 74
     0
 91
        4
 64
     7
 65
   257
 75
     1
175
     1
 42
1.0
 92
        0
 66
     7
 43
1.0
 76
     1
 77
     6
 78
     2
 67
     7
 79
     5
170
     0
171
     0
290
     0
174
     0
 93
       13
 44
0.0
173
     0
291
     1
 45
0.0
  0
VISUALSTYLE
  5
18
102
{ACAD_REACTORS
330
14
102
}
330
14
100
AcDbVisualStyle
  2
GouraudWithEdges
 70
     3
 71
     2
 72
     2
 73
     1
 90
        2
 40
-0.6
 41
30.0
 62
     5
 63
     7
421
 16777215
 74
     1
 91
        4
 64
     7
 65
   257
 75
     1
175
     1
 42
1.0
 92
        0
 66
   257
 43
1.0
 76
     1
 77
     6
 78
     2
 67
     7
 79
     5
170
     0
171
     0
290
     0
174
     0
 93
       13
 44
0.0
173
     0
291
     1
 45
0.0
  0
VISUALSTYLE
  5
22
102
{ACAD_REACTORS
330
14
102
}
330
14
100
AcDbVisualStyle
  2
Linepattern
 70
    14
 71
     2
 72
     2
 73
     0
 90
        0
 40
-0.6
 41
-30.0
 62
     5
 63
     7
421
 16777215
 74
     1
 91
        4
 64
     7
 65
   257
 75
     7
175
     7
 42
1.0
 92
        8
 66
     7
 43
1.0
 76
     1
 77
     6
 78
     2
 67
     7
 79
     5
170
     0
171
     0
290
     0
174
     0
 93
        1
 44
0.0
173
     0
291
     1
 45
0.0
  0
VISUALSTYLE
  5
1E
102
{ACAD_REACTORS
330
14
102
}
330
14
100
AcDbVisualStyle
  2
Realistic
 70
     8
 71
     2
 72
     2
 73
     0
 90
        0
 40
-0.6
 41
-30.0
 62
     5
 63
     7
421
 16777215
 74
     1
 91
        0
 64
     7
 65
   257
 75
     1
175
     1
 42
1.0
 92
        8
 66
     8
424
  7895160
 43
1.0
 76
     1
 77
     6
 78
     2
 67
     7
 79
     5
170
     0
171
     0
290
     0
174
     0
 93
       13
 44
0.0
173
     0
291
     0
 45
0.0
  0
VISUALSTYLE
  5
21
102
{ACAD_REACTORS
330
14
102
}
330
14
100
AcDbVisualStyle
  2
Thicken
 70
    13
 71
     2
 72
     2
 73
     0
 90
        0
 40
-0.6
 41
-30.0
 62
     5
 63
     7
421
 16777215
 74
     1
 91
        4
 64
     7
 65
   257
 75
     1
175
     1
 42
1.0
 92
       12
 66
     7
 43
1.0
 76
     1
 77
     6
 78
     2
 67
     7
 79
     5
170
     0
171
     0
290
     0
174
     0
 93
        1
 44
0.0
173
     0
291
     1
 45
0.0
  0
DICTIONARYVAR
  5
2E8A
102
{ACAD_REACTORS
330
2E89
102
}
330
2E89
100
DictionaryVariables
280
     0
  1
STANDARD
  0
ENDSEC
  0
EOF
