  0
SECTION
  2
HEADER
  9
$ACADVER
  1
AC1014
  9
$ACADMAINTVER
 70
     9
  9
$DWGCODEPAGE
  3
ANSI_1252
  9
$INSBASE
 10
0.0
 20
0.0
 30
0.0
  9
$EXTMIN
 10
36.65455198233164
 20
33.15944881889763
 30
0.0
  9
$EXTMAX
 10
46.58070866141733
 20
40.53543307086614
 30
0.0
  9
$LIMMIN
 10
0.0
 20
0.0
  9
$LIMMAX
 10
12.0
 20
9.0
  9
$ORTHOMODE
 70
     0
  9
$REGENMODE
 70
     1
  9
$FILLMODE
 70
     1
  9
$QTEXTMODE
 70
     0
  9
$MIRRTEXT
 70
     1
  9
$DRAGMODE
 70
     2
  9
$LTSCALE
 40
1.0
  9
$OSMODE
 70
    37
  9
$ATTMODE
 70
     1
  9
$TEXTSIZE
 40
0.2
  9
$TRACEWID
 40
0.05
  9
$TEXTSTYLE
  7
STANDARD
  9
$CLAYER
  8
0
  9
$CELTYPE
  6
BYLAYER
  9
$CECOLOR
 62
   256
  9
$CELTSCALE
 40
1.0
  9
$DELOBJ
 70
     1
  9
$DISPSILH
 70
     0
  9
$DIMSCALE
 40
1.0
  9
$DIMASZ
 40
0.18
  9
$DIMEXO
 40
0.0625
  9
$DIMDLI
 40
0.38
  9
$DIMRND
 40
0.0
  9
$DIMDLE
 40
0.0
  9
$DIMEXE
 40
0.18
  9
$DIMTP
 40
0.0
  9
$DIMTM
 40
0.0
  9
$DIMTXT
 40
0.18
  9
$DIMCEN
 40
0.09
  9
$DIMTSZ
 40
0.0
  9
$DIMTOL
 70
     0
  9
$DIMLIM
 70
     0
  9
$DIMTIH
 70
     1
  9
$DIMTOH
 70
     1
  9
$DIMSE1
 70
     0
  9
$DIMSE2
 70
     0
  9
$DIMTAD
 70
     0
  9
$DIMZIN
 70
     0
  9
$DIMBLK
  1

  9
$DIMASO
 70
     1
  9
$DIMSHO
 70
     1
  9
$DIMPOST
  1

  9
$DIMAPOST
  1

  9
$DIMALT
 70
     0
  9
$DIMALTD
 70
     2
  9
$DIMALTF
 40
25.4
  9
$DIMLFAC
 40
1.0
  9
$DIMTOFL
 70
     0
  9
$DIMTVP
 40
0.0
  9
$DIMTIX
 70
     0
  9
$DIMSOXD
 70
     0
  9
$DIMSAH
 70
     0
  9
$DIMBLK1
  1

  9
$DIMBLK2
  1

  9
$DIMSTYLE
  2
STANDARD
  9
$DIMCLRD
 70
     0
  9
$DIMCLRE
 70
     0
  9
$DIMCLRT
 70
     0
  9
$DIMTFAC
 40
1.0
  9
$DIMGAP
 40
0.09
  9
$DIMJUST
 70
     0
  9
$DIMSD1
 70
     0
  9
$DIMSD2
 70
     0
  9
$DIMTOLJ
 70
     1
  9
$DIMTZIN
 70
     0
  9
$DIMALTZ
 70
     0
  9
$DIMALTTZ
 70
     0
  9
$DIMFIT
 70
     5
  9
$DIMUPT
 70
     0
  9
$DIMUNIT
 70
     2
  9
$DIMDEC
 70
     4
  9
$DIMTDEC
 70
     4
  9
$DIMALTU
 70
     2
  9
$DIMALTTD
 70
     2
  9
$DIMTXSTY
  7
STANDARD
  9
$DIMAUNIT
 70
     0
  9
$LUNITS
 70
     2
  9
$LUPREC
 70
     4
  9
$SKETCHINC
 40
0.1
  9
$FILLETRAD
 40
0.0
  9
$AUNITS
 70
     0
  9
$AUPREC
 70
     0
  9
$MENU
  1
acad
  9
$ELEVATION
 40
0.0
  9
$PELEVATION
 40
0.0
  9
$THICKNESS
 40
0.0
  9
$LIMCHECK
 70
     0
  9
$BLIPMODE
 70
     0
  9
$CHAMFERA
 40
0.0
  9
$CHAMFERB
 40
0.0
  9
$CHAMFERC
 40
0.0
  9
$CHAMFERD
 40
0.0
  9
$SKPOLY
 70
     0
  9
$TDCREATE
 40
2453640.632233796
  9
$TDUPDATE
 40
2453641.402307534
  9
$TDINDWG
 40
0.0015131250
  9
$TDUSRTIMER
 40
0.0015131250
  9
$USRTIMER
 70
     1
  9
$ANGBASE
 50
0.0
  9
$ANGDIR
 70
     0
  9
$PDMODE
 70
     0
  9
$PDSIZE
 40
0.0
  9
$PLINEWID
 40
0.0
  9
$COORDS
 70
     1
  9
$SPLFRAME
 70
     0
  9
$SPLINETYPE
 70
     6
  9
$SPLINESEGS
 70
     8
  9
$ATTDIA
 70
     0
  9
$ATTREQ
 70
     1
  9
$HANDLING
 70
-16383
  9
$HANDSEED
  5
4DB
  9
$SURFTAB1
 70
     6
  9
$SURFTAB2
 70
     6
  9
$SURFTYPE
 70
     6
  9
$SURFU
 70
     6
  9
$SURFV
 70
     6
  9
$UCSNAME
  2

  9
$UCSORG
 10
0.0
 20
0.0
 30
0.0
  9
$UCSXDIR
 10
1.0
 20
0.0
 30
0.0
  9
$UCSYDIR
 10
0.0
 20
1.0
 30
0.0
  9
$PUCSNAME
  2

  9
$PUCSORG
 10
0.0
 20
0.0
 30
0.0
  9
$PUCSXDIR
 10
1.0
 20
0.0
 30
0.0
  9
$PUCSYDIR
 10
0.0
 20
1.0
 30
0.0
  9
$USERI1
 70
     0
  9
$USERI2
 70
     0
  9
$USERI3
 70
     0
  9
$USERI4
 70
     0
  9
$USERI5
 70
     0
  9
$USERR1
 40
0.0
  9
$USERR2
 40
0.0
  9
$USERR3
 40
0.0
  9
$USERR4
 40
0.0
  9
$USERR5
 40
0.0
  9
$WORLDVIEW
 70
     1
  9
$SHADEDGE
 70
     3
  9
$SHADEDIF
 70
    70
  9
$TILEMODE
 70
     1
  9
$MAXACTVP
 70
    16
  9
$PINSBASE
 10
0.0
 20
0.0
 30
0.0
  9
$PLIMCHECK
 70
     0
  9
$PEXTMIN
 10
1.000000000000000E+20
 20
1.000000000000000E+20
 30
1.000000000000000E+20
  9
$PEXTMAX
 10
-1.000000000000000E+20
 20
-1.000000000000000E+20
 30
-1.000000000000000E+20
  9
$PLIMMIN
 10
0.0
 20
0.0
  9
$PLIMMAX
 10
12.0
 20
9.0
  9
$UNITMODE
 70
     0
  9
$VISRETAIN
 70
     0
  9
$PLINEGEN
 70
     0
  9
$PSLTSCALE
 70
     1
  9
$TREEDEPTH
 70
  3020
  9
$PICKSTYLE
 70
     1
  9
$CMLSTYLE
  2
STANDARD
  9
$CMLJUST
 70
     0
  9
$CMLSCALE
 40
1.0
  9
$PROXYGRAPHICS
 70
     1
  9
$MEASUREMENT
 70
     0
  0
ENDSEC
  0
SECTION
  2
CLASSES
  0
CLASS
  1
ACDBDICTIONARYWDFLT
  2
AcDbDictionaryWithDefault
  3
AutoCAD 2000
 90
        0
280
     0
281
     0
  0
CLASS
  1
ACDBPLACEHOLDER
  2
AcDbPlaceHolder
  3
AutoCAD 2000
 90
        0
280
     0
281
     0
  0
CLASS
  1
LAYOUT
  2
AcDbLayout
  3
AutoCAD 2000
 90
        0
280
     0
281
     0
  0
CLASS
  1
LONG_TRANSACTION
  2
AcDbLongTransaction
  3
AutoCAD 2000
 90
        0
280
     0
281
     0
  0
CLASS
  1
LWPOLYLINE
  2
AcDbPolyline
  3
AutoCAD 2000
 90
        0
280
     0
281
     1
  0
CLASS
  1
HATCH
  2
AcDbHatch
  3
AutoCAD 2000
 90
        0
280
     0
281
     1
  0
CLASS
  1
XRECORD
  2
AcDbXrecord
  3
AutoCAD 2000
 90
        0
280
     0
281
     0
  0
ENDSEC
  0
SECTION
  2
TABLES
  0
TABLE
  2
VPORT
  5
8
330
0
100
AcDbSymbolTable
 70
     3
  0
VPORT
  5
4B5
330
8
100
AcDbSymbolTableRecord
100
AcDbViewportTableRecord
  2
*ACTIVE
 70
     0
 10
0.0
 20
0.0
 11
1.0
 21
1.0
 12
41.61763032187448
 22
36.84744094488189
 13
0.0
 23
0.0
 14
1.0
 24
1.0
 15
0.0
 25
0.0
 16
0.0
 26
0.0
 36
1.0
 17
0.0
 27
0.0
 37
0.0
 40
7.430960532107405
 41
1.457711442786069
 42
50.0
 43
0.0
 44
0.0
 50
0.0
 51
0.0
 71
     0
 72
   100
 73
     1
 74
     1
 75
     0
 76
     0
 77
     0
 78
     0
  0
ENDTAB
  0
TABLE
  2
LTYPE
  5
5
330
0
100
AcDbSymbolTable
 70
    25
  0
LTYPE
  5
13
330
5
100
AcDbSymbolTableRecord
100
AcDbLinetypeTableRecord
  2
BYBLOCK
 70
     0
  3

 72
    65
 73
     0
 40
0.0
  0
LTYPE
  5
14
330
5
100
AcDbSymbolTableRecord
100
AcDbLinetypeTableRecord
  2
BYLAYER
 70
     0
  3

 72
    65
 73
     0
 40
0.0
  0
LTYPE
  5
15
330
5
100
AcDbSymbolTableRecord
100
AcDbLinetypeTableRecord
  2
CONTINUOUS
 70
     0
  3
Solid line
 72
    65
 73
     0
 40
0.0
  0
LTYPE
  5
22
330
5
100
AcDbSymbolTableRecord
100
AcDbLinetypeTableRecord
  2
BORDER
 70
     0
  3
__ __ . __ __ . __ __ . __ __ . __ __ . __ __ .
 72
    65
 73
     6
 40
1.75
 49
0.5
 74
     0
 49
-0.25
 74
     0
 49
0.5
 74
     0
 49
-0.25
 74
     0
 49
0.5
 74
     0
 49
-0.25
 74
     0
  0
LTYPE
  5
23
330
5
100
AcDbSymbolTableRecord
100
AcDbLinetypeTableRecord
  2
BORDER2
 70
     0
  3
__.__.__.__.__.__.__.__.__.__.__.__.__.__.__.__
 72
    65
 73
     6
 40
0.875
 49
0.25
 74
     0
 49
-0.125
 74
     0
 49
0.25
 74
     0
 49
-0.125
 74
     0
 49
0.25
 74
     0
 49
-0.125
 74
     0
  0
LTYPE
  5
24
330
5
100
AcDbSymbolTableRecord
100
AcDbLinetypeTableRecord
  2
BORDERX2
 70
     0
  3
____  ____  .  ____  ____  .  
 72
    65
 73
     6
 40
3.5
 49
1.0
 74
     0
 49
-0.5
 74
     0
 49
1.0
 74
     0
 49
-0.5
 74
     0
 49
1.0
 74
     0
 49
-0.5
 74
     0
  0
LTYPE
  5
25
330
5
100
AcDbSymbolTableRecord
100
AcDbLinetypeTableRecord
  2
CENTER
 70
     0
  3
____ _ ____ _ ____ _ ____ _ ____ _ ____ _ ____
 72
    65
 73
     4
 40
2.0
 49
1.25
 74
     0
 49
-0.25
 74
     0
 49
0.25
 74
     0
 49
-0.25
 74
     0
  0
LTYPE
  5
26
330
5
100
AcDbSymbolTableRecord
100
AcDbLinetypeTableRecord
  2
CENTER2
 70
     0
  3
____ _ ____ _ ____ _ ____ _ ____ _ ____ _ ____
 72
    65
 73
     4
 40
1.125
 49
0.75
 74
     0
 49
-0.125
 74
     0
 49
0.125
 74
     0
 49
-0.125
 74
     0
  0
LTYPE
  5
27
330
5
100
AcDbSymbolTableRecord
100
AcDbLinetypeTableRecord
  2
CENTERX2
 70
     0
  3
________  __  ________  __  ________  __  
 72
    65
 73
     4
 40
4.0
 49
2.5
 74
     0
 49
-0.5
 74
     0
 49
0.5
 74
     0
 49
-0.5
 74
     0
  0
LTYPE
  5
28
330
5
100
AcDbSymbolTableRecord
100
AcDbLinetypeTableRecord
  2
DASHDOT
 70
     0
  3
__ . __ . __ . __ . __ . __ . __ . 
 72
    65
 73
     4
 40
1.0
 49
0.5
 74
     0
 49
-0.25
 74
     0
 49
0.0
 74
     0
 49
-0.25
 74
     0
  0
LTYPE
  5
29
330
5
100
AcDbSymbolTableRecord
100
AcDbLinetypeTableRecord
  2
DASHDOT2
 70
     0
  3
_._._._._._._._._._._._._._._._.
 72
    65
 73
     4
 40
0.5
 49
0.25
 74
     0
 49
-0.125
 74
     0
 49
0.0
 74
     0
 49
-0.125
 74
     0
  0
LTYPE
  5
2A
330
5
100
AcDbSymbolTableRecord
100
AcDbLinetypeTableRecord
  2
DASHDOTX2
 70
     0
  3
____  .  ____  .  ____  .  ____  .  
 72
    65
 73
     4
 40
2.0
 49
1.0
 74
     0
 49
-0.5
 74
     0
 49
0.0
 74
     0
 49
-0.5
 74
     0
  0
LTYPE
  5
2B
330
5
100
AcDbSymbolTableRecord
100
AcDbLinetypeTableRecord
  2
DASHED
 70
     0
  3
__ __ __ __ __ __ __ __ __ __ __ __ 
 72
    65
 73
     2
 40
0.75
 49
0.5
 74
     0
 49
-0.25
 74
     0
  0
LTYPE
  5
2C
330
5
100
AcDbSymbolTableRecord
100
AcDbLinetypeTableRecord
  2
DASHED2
 70
     0
  3
_ _ _ _ _ _ _ _ _ _ _ _ _ _ _ _ _ _ 
 72
    65
 73
     2
 40
0.375
 49
0.25
 74
     0
 49
-0.125
 74
     0
  0
LTYPE
  5
2D
330
5
100
AcDbSymbolTableRecord
100
AcDbLinetypeTableRecord
  2
DASHEDX2
 70
     0
  3
____  ____  ____  ____  ____  ____  
 72
    65
 73
     2
 40
1.5
 49
1.0
 74
     0
 49
-0.5
 74
     0
  0
LTYPE
  5
2E
330
5
100
AcDbSymbolTableRecord
100
AcDbLinetypeTableRecord
  2
DIVIDE
 70
     0
  3
____ . . ____ . . ____ . . ____ . . 
 72
    65
 73
     6
 40
1.25
 49
0.5
 74
     0
 49
-0.25
 74
     0
 49
0.0
 74
     0
 49
-0.25
 74
     0
 49
0.0
 74
     0
 49
-0.25
 74
     0
  0
LTYPE
  5
2F
330
5
100
AcDbSymbolTableRecord
100
AcDbLinetypeTableRecord
  2
DIVIDE2
 70
     0
  3
__..__..__..__..__..__..__..__..__..
 72
    65
 73
     6
 40
0.625
 49
0.25
 74
     0
 49
-0.125
 74
     0
 49
0.0
 74
     0
 49
-0.125
 74
     0
 49
0.0
 74
     0
 49
-0.125
 74
     0
  0
LTYPE
  5
30
330
5
100
AcDbSymbolTableRecord
100
AcDbLinetypeTableRecord
  2
DIVIDEX2
 70
     0
  3
________  .  .  ________  .  .  ________  .  . 
 72
    65
 73
     6
 40
2.5
 49
1.0
 74
     0
 49
-0.5
 74
     0
 49
0.0
 74
     0
 49
-0.5
 74
     0
 49
0.0
 74
     0
 49
-0.5
 74
     0
  0
LTYPE
  5
31
330
5
100
AcDbSymbolTableRecord
100
AcDbLinetypeTableRecord
  2
DOT
 70
     0
  3
. . . . . . . . . . . . . . . . . . 
 72
    65
 73
     2
 40
0.25
 49
0.0
 74
     0
 49
-0.25
 74
     0
  0
LTYPE
  5
32
330
5
100
AcDbSymbolTableRecord
100
AcDbLinetypeTableRecord
  2
DOT2
 70
     0
  3
....................................
 72
    65
 73
     2
 40
0.125
 49
0.0
 74
     0
 49
-0.125
 74
     0
  0
LTYPE
  5
33
330
5
100
AcDbSymbolTableRecord
100
AcDbLinetypeTableRecord
  2
DOTX2
 70
     0
  3
.  .  .  .  .  .  .  .  .  .  .  .  .  
 72
    65
 73
     2
 40
0.5
 49
0.0
 74
     0
 49
-0.5
 74
     0
  0
LTYPE
  5
34
330
5
100
AcDbSymbolTableRecord
100
AcDbLinetypeTableRecord
  2
HIDDEN
 70
     0
  3
__ __ __ __ __ __ __ __ __ __ __ __ 
 72
    65
 73
     2
 40
0.375
 49
0.25
 74
     0
 49
-0.125
 74
     0
  0
LTYPE
  5
35
330
5
100
AcDbSymbolTableRecord
100
AcDbLinetypeTableRecord
  2
HIDDEN2
 70
     0
  3
_ _ _ _ _ _ _ _ _ _ _ _ _ _ _ _ _ _ 
 72
    65
 73
     2
 40
0.1875
 49
0.125
 74
     0
 49
-0.0625
 74
     0
  0
LTYPE
  5
36
330
5
100
AcDbSymbolTableRecord
100
AcDbLinetypeTableRecord
  2
HIDDENX2
 70
     0
  3
____ ____ ____ ____ ____ ____ ____ 
 72
    65
 73
     2
 40
0.75
 49
0.5
 74
     0
 49
-0.25
 74
     0
  0
LTYPE
  5
37
330
5
100
AcDbSymbolTableRecord
100
AcDbLinetypeTableRecord
  2
PHANTOM
 70
     0
  3
______  __  __  ______  __  __  
 72
    65
 73
     6
 40
2.5
 49
1.25
 74
     0
 49
-0.25
 74
     0
 49
0.25
 74
     0
 49
-0.25
 74
     0
 49
0.25
 74
     0
 49
-0.25
 74
     0
  0
LTYPE
  5
38
330
5
100
AcDbSymbolTableRecord
100
AcDbLinetypeTableRecord
  2
PHANTOM2
 70
     0
  3
___ _ _ ___ _ _ ___ _ _ ___ _ _ 
 72
    65
 73
     6
 40
1.25
 49
0.625
 74
     0
 49
-0.125
 74
     0
 49
0.125
 74
     0
 49
-0.125
 74
     0
 49
0.125
 74
     0
 49
-0.125
 74
     0
  0
LTYPE
  5
39
330
5
100
AcDbSymbolTableRecord
100
AcDbLinetypeTableRecord
  2
PHANTOMX2
 70
     0
  3
___ _ _ ___ _ _ ___ _ _ ___ _ _ 
 72
    65
 73
     6
 40
5.0
 49
2.5
 74
     0
 49
-0.5
 74
     0
 49
0.5
 74
     0
 49
-0.5
 74
     0
 49
0.5
 74
     0
 49
-0.5
 74
     0
  0
ENDTAB
  0
TABLE
  2
LAYER
  5
2
330
0
100
AcDbSymbolTable
 70
   256
  0
LAYER
  5
10
330
2
100
AcDbSymbolTableRecord
100
AcDbLayerTableRecord
  2
0
 70
     0
 62
     7
  6
CONTINUOUS
  0
LAYER
  5
3A
330
2
100
AcDbSymbolTableRecord
100
AcDbLayerTableRecord
  2
1
 70
     0
 62
     1
  6
CONTINUOUS
  0
LAYER
  5
3B
330
2
100
AcDbSymbolTableRecord
100
AcDbLayerTableRecord
  2
2
 70
     0
 62
     2
  6
CONTINUOUS
  0
LAYER
  5
3C
330
2
100
AcDbSymbolTableRecord
100
AcDbLayerTableRecord
  2
3
 70
     0
 62
     3
  6
CONTINUOUS
  0
LAYER
  5
3D
330
2
100
AcDbSymbolTableRecord
100
AcDbLayerTableRecord
  2
4
 70
     0
 62
     4
  6
CONTINUOUS
  0
LAYER
  5
3E
330
2
100
AcDbSymbolTableRecord
100
AcDbLayerTableRecord
  2
5
 70
     0
 62
     5
  6
CONTINUOUS
  0
LAYER
  5
3F
330
2
100
AcDbSymbolTableRecord
100
AcDbLayerTableRecord
  2
6
 70
     0
 62
     6
  6
CONTINUOUS
  0
LAYER
  5
40
330
2
100
AcDbSymbolTableRecord
100
AcDbLayerTableRecord
  2
7
 70
     0
 62
     7
  6
CONTINUOUS
  0
LAYER
  5
41
330
2
100
AcDbSymbolTableRecord
100
AcDbLayerTableRecord
  2
8
 70
     0
 62
     8
  6
CONTINUOUS
  0
LAYER
  5
42
330
2
100
AcDbSymbolTableRecord
100
AcDbLayerTableRecord
  2
9
 70
     0
 62
     9
  6
CONTINUOUS
  0
LAYER
  5
43
330
2
100
AcDbSymbolTableRecord
100
AcDbLayerTableRecord
  2
10
 70
     0
 62
    10
  6
CONTINUOUS
  0
LAYER
  5
44
330
2
100
AcDbSymbolTableRecord
100
AcDbLayerTableRecord
  2
11
 70
     0
 62
    11
  6
CONTINUOUS
  0
LAYER
  5
45
330
2
100
AcDbSymbolTableRecord
100
AcDbLayerTableRecord
  2
12
 70
     0
 62
    12
  6
CONTINUOUS
  0
LAYER
  5
46
330
2
100
AcDbSymbolTableRecord
100
AcDbLayerTableRecord
  2
13
 70
     0
 62
    13
  6
CONTINUOUS
  0
LAYER
  5
47
330
2
100
AcDbSymbolTableRecord
100
AcDbLayerTableRecord
  2
14
 70
     0
 62
    14
  6
CONTINUOUS
  0
LAYER
  5
48
330
2
100
AcDbSymbolTableRecord
100
AcDbLayerTableRecord
  2
15
 70
     0
 62
    15
  6
CONTINUOUS
  0
LAYER
  5
49
330
2
100
AcDbSymbolTableRecord
100
AcDbLayerTableRecord
  2
16
 70
     0
 62
    16
  6
CONTINUOUS
  0
LAYER
  5
4A
330
2
100
AcDbSymbolTableRecord
100
AcDbLayerTableRecord
  2
17
 70
     0
 62
    17
  6
CONTINUOUS
  0
LAYER
  5
4B
330
2
100
AcDbSymbolTableRecord
100
AcDbLayerTableRecord
  2
18
 70
     0
 62
    18
  6
CONTINUOUS
  0
LAYER
  5
4C
330
2
100
AcDbSymbolTableRecord
100
AcDbLayerTableRecord
  2
19
 70
     0
 62
    19
  6
CONTINUOUS
  0
LAYER
  5
4D
330
2
100
AcDbSymbolTableRecord
100
AcDbLayerTableRecord
  2
20
 70
     0
 62
    20
  6
CONTINUOUS
  0
LAYER
  5
4E
330
2
100
AcDbSymbolTableRecord
100
AcDbLayerTableRecord
  2
21
 70
     0
 62
    21
  6
CONTINUOUS
  0
LAYER
  5
4F
330
2
100
AcDbSymbolTableRecord
100
AcDbLayerTableRecord
  2
22
 70
     0
 62
    22
  6
CONTINUOUS
  0
LAYER
  5
50
330
2
100
AcDbSymbolTableRecord
100
AcDbLayerTableRecord
  2
23
 70
     0
 62
    23
  6
CONTINUOUS
  0
LAYER
  5
51
330
2
100
AcDbSymbolTableRecord
100
AcDbLayerTableRecord
  2
24
 70
     0
 62
    24
  6
CONTINUOUS
  0
LAYER
  5
52
330
2
100
AcDbSymbolTableRecord
100
AcDbLayerTableRecord
  2
25
 70
     0
 62
    25
  6
CONTINUOUS
  0
LAYER
  5
53
330
2
100
AcDbSymbolTableRecord
100
AcDbLayerTableRecord
  2
26
 70
     0
 62
    26
  6
CONTINUOUS
  0
LAYER
  5
54
330
2
100
AcDbSymbolTableRecord
100
AcDbLayerTableRecord
  2
27
 70
     0
 62
    27
  6
CONTINUOUS
  0
LAYER
  5
55
330
2
100
AcDbSymbolTableRecord
100
AcDbLayerTableRecord
  2
28
 70
     0
 62
    28
  6
CONTINUOUS
  0
LAYER
  5
56
330
2
100
AcDbSymbolTableRecord
100
AcDbLayerTableRecord
  2
29
 70
     0
 62
    29
  6
CONTINUOUS
  0
LAYER
  5
57
330
2
100
AcDbSymbolTableRecord
100
AcDbLayerTableRecord
  2
30
 70
     0
 62
    30
  6
CONTINUOUS
  0
LAYER
  5
58
330
2
100
AcDbSymbolTableRecord
100
AcDbLayerTableRecord
  2
31
 70
     0
 62
    31
  6
CONTINUOUS
  0
LAYER
  5
59
330
2
100
AcDbSymbolTableRecord
100
AcDbLayerTableRecord
  2
32
 70
     0
 62
    32
  6
CONTINUOUS
  0
LAYER
  5
5A
330
2
100
AcDbSymbolTableRecord
100
AcDbLayerTableRecord
  2
33
 70
     0
 62
    33
  6
CONTINUOUS
  0
LAYER
  5
5B
330
2
100
AcDbSymbolTableRecord
100
AcDbLayerTableRecord
  2
34
 70
     0
 62
    34
  6
CONTINUOUS
  0
LAYER
  5
5C
330
2
100
AcDbSymbolTableRecord
100
AcDbLayerTableRecord
  2
35
 70
     0
 62
    35
  6
CONTINUOUS
  0
LAYER
  5
5D
330
2
100
AcDbSymbolTableRecord
100
AcDbLayerTableRecord
  2
36
 70
     0
 62
    36
  6
CONTINUOUS
  0
LAYER
  5
5E
330
2
100
AcDbSymbolTableRecord
100
AcDbLayerTableRecord
  2
37
 70
     0
 62
    37
  6
CONTINUOUS
  0
LAYER
  5
5F
330
2
100
AcDbSymbolTableRecord
100
AcDbLayerTableRecord
  2
38
 70
     0
 62
    38
  6
CONTINUOUS
  0
LAYER
  5
60
330
2
100
AcDbSymbolTableRecord
100
AcDbLayerTableRecord
  2
39
 70
     0
 62
    39
  6
CONTINUOUS
  0
LAYER
  5
61
330
2
100
AcDbSymbolTableRecord
100
AcDbLayerTableRecord
  2
40
 70
     0
 62
    40
  6
CONTINUOUS
  0
LAYER
  5
62
330
2
100
AcDbSymbolTableRecord
100
AcDbLayerTableRecord
  2
41
 70
     0
 62
    41
  6
CONTINUOUS
  0
LAYER
  5
63
330
2
100
AcDbSymbolTableRecord
100
AcDbLayerTableRecord
  2
42
 70
     0
 62
    42
  6
CONTINUOUS
  0
LAYER
  5
64
330
2
100
AcDbSymbolTableRecord
100
AcDbLayerTableRecord
  2
43
 70
     0
 62
    43
  6
CONTINUOUS
  0
LAYER
  5
65
330
2
100
AcDbSymbolTableRecord
100
AcDbLayerTableRecord
  2
44
 70
     0
 62
    44
  6
CONTINUOUS
  0
LAYER
  5
66
330
2
100
AcDbSymbolTableRecord
100
AcDbLayerTableRecord
  2
45
 70
     0
 62
    45
  6
CONTINUOUS
  0
LAYER
  5
67
330
2
100
AcDbSymbolTableRecord
100
AcDbLayerTableRecord
  2
46
 70
     0
 62
    46
  6
CONTINUOUS
  0
LAYER
  5
68
330
2
100
AcDbSymbolTableRecord
100
AcDbLayerTableRecord
  2
47
 70
     0
 62
    47
  6
CONTINUOUS
  0
LAYER
  5
69
330
2
100
AcDbSymbolTableRecord
100
AcDbLayerTableRecord
  2
48
 70
     0
 62
    48
  6
CONTINUOUS
  0
LAYER
  5
6A
330
2
100
AcDbSymbolTableRecord
100
AcDbLayerTableRecord
  2
49
 70
     0
 62
    49
  6
CONTINUOUS
  0
LAYER
  5
6B
330
2
100
AcDbSymbolTableRecord
100
AcDbLayerTableRecord
  2
50
 70
     0
 62
    50
  6
CONTINUOUS
  0
LAYER
  5
6C
330
2
100
AcDbSymbolTableRecord
100
AcDbLayerTableRecord
  2
51
 70
     0
 62
    51
  6
CONTINUOUS
  0
LAYER
  5
6D
330
2
100
AcDbSymbolTableRecord
100
AcDbLayerTableRecord
  2
52
 70
     0
 62
    52
  6
CONTINUOUS
  0
LAYER
  5
6E
330
2
100
AcDbSymbolTableRecord
100
AcDbLayerTableRecord
  2
53
 70
     0
 62
    53
  6
CONTINUOUS
  0
LAYER
  5
6F
330
2
100
AcDbSymbolTableRecord
100
AcDbLayerTableRecord
  2
54
 70
     0
 62
    54
  6
CONTINUOUS
  0
LAYER
  5
70
330
2
100
AcDbSymbolTableRecord
100
AcDbLayerTableRecord
  2
55
 70
     0
 62
    55
  6
CONTINUOUS
  0
LAYER
  5
71
330
2
100
AcDbSymbolTableRecord
100
AcDbLayerTableRecord
  2
56
 70
     0
 62
    56
  6
CONTINUOUS
  0
LAYER
  5
72
330
2
100
AcDbSymbolTableRecord
100
AcDbLayerTableRecord
  2
57
 70
     0
 62
    57
  6
CONTINUOUS
  0
LAYER
  5
73
330
2
100
AcDbSymbolTableRecord
100
AcDbLayerTableRecord
  2
58
 70
     0
 62
    58
  6
CONTINUOUS
  0
LAYER
  5
74
330
2
100
AcDbSymbolTableRecord
100
AcDbLayerTableRecord
  2
59
 70
     0
 62
    59
  6
CONTINUOUS
  0
LAYER
  5
75
330
2
100
AcDbSymbolTableRecord
100
AcDbLayerTableRecord
  2
60
 70
     0
 62
    60
  6
CONTINUOUS
  0
LAYER
  5
76
330
2
100
AcDbSymbolTableRecord
100
AcDbLayerTableRecord
  2
61
 70
     0
 62
    61
  6
CONTINUOUS
  0
LAYER
  5
77
330
2
100
AcDbSymbolTableRecord
100
AcDbLayerTableRecord
  2
62
 70
     0
 62
    62
  6
CONTINUOUS
  0
LAYER
  5
78
330
2
100
AcDbSymbolTableRecord
100
AcDbLayerTableRecord
  2
63
 70
     0
 62
    63
  6
CONTINUOUS
  0
LAYER
  5
79
330
2
100
AcDbSymbolTableRecord
100
AcDbLayerTableRecord
  2
64
 70
     0
 62
    64
  6
CONTINUOUS
  0
LAYER
  5
7A
330
2
100
AcDbSymbolTableRecord
100
AcDbLayerTableRecord
  2
65
 70
     0
 62
    65
  6
CONTINUOUS
  0
LAYER
  5
7B
330
2
100
AcDbSymbolTableRecord
100
AcDbLayerTableRecord
  2
66
 70
     0
 62
    66
  6
CONTINUOUS
  0
LAYER
  5
7C
330
2
100
AcDbSymbolTableRecord
100
AcDbLayerTableRecord
  2
67
 70
     0
 62
    67
  6
CONTINUOUS
  0
LAYER
  5
7D
330
2
100
AcDbSymbolTableRecord
100
AcDbLayerTableRecord
  2
68
 70
     0
 62
    68
  6
CONTINUOUS
  0
LAYER
  5
7E
330
2
100
AcDbSymbolTableRecord
100
AcDbLayerTableRecord
  2
69
 70
     0
 62
    69
  6
CONTINUOUS
  0
LAYER
  5
7F
330
2
100
AcDbSymbolTableRecord
100
AcDbLayerTableRecord
  2
70
 70
     0
 62
    70
  6
CONTINUOUS
  0
LAYER
  5
80
330
2
100
AcDbSymbolTableRecord
100
AcDbLayerTableRecord
  2
71
 70
     0
 62
    71
  6
CONTINUOUS
  0
LAYER
  5
81
330
2
100
AcDbSymbolTableRecord
100
AcDbLayerTableRecord
  2
72
 70
     0
 62
    72
  6
CONTINUOUS
  0
LAYER
  5
82
330
2
100
AcDbSymbolTableRecord
100
AcDbLayerTableRecord
  2
73
 70
     0
 62
    73
  6
CONTINUOUS
  0
LAYER
  5
83
330
2
100
AcDbSymbolTableRecord
100
AcDbLayerTableRecord
  2
74
 70
     0
 62
    74
  6
CONTINUOUS
  0
LAYER
  5
84
330
2
100
AcDbSymbolTableRecord
100
AcDbLayerTableRecord
  2
75
 70
     0
 62
    75
  6
CONTINUOUS
  0
LAYER
  5
85
330
2
100
AcDbSymbolTableRecord
100
AcDbLayerTableRecord
  2
76
 70
     0
 62
    76
  6
CONTINUOUS
  0
LAYER
  5
86
330
2
100
AcDbSymbolTableRecord
100
AcDbLayerTableRecord
  2
77
 70
     0
 62
    77
  6
CONTINUOUS
  0
LAYER
  5
87
330
2
100
AcDbSymbolTableRecord
100
AcDbLayerTableRecord
  2
78
 70
     0
 62
    78
  6
CONTINUOUS
  0
LAYER
  5
88
330
2
100
AcDbSymbolTableRecord
100
AcDbLayerTableRecord
  2
79
 70
     0
 62
    79
  6
CONTINUOUS
  0
LAYER
  5
89
330
2
100
AcDbSymbolTableRecord
100
AcDbLayerTableRecord
  2
80
 70
     0
 62
    80
  6
CONTINUOUS
  0
LAYER
  5
8A
330
2
100
AcDbSymbolTableRecord
100
AcDbLayerTableRecord
  2
81
 70
     0
 62
    81
  6
CONTINUOUS
  0
LAYER
  5
8B
330
2
100
AcDbSymbolTableRecord
100
AcDbLayerTableRecord
  2
82
 70
     0
 62
    82
  6
CONTINUOUS
  0
LAYER
  5
8C
330
2
100
AcDbSymbolTableRecord
100
AcDbLayerTableRecord
  2
83
 70
     0
 62
    83
  6
CONTINUOUS
  0
LAYER
  5
8D
330
2
100
AcDbSymbolTableRecord
100
AcDbLayerTableRecord
  2
84
 70
     0
 62
    84
  6
CONTINUOUS
  0
LAYER
  5
8E
330
2
100
AcDbSymbolTableRecord
100
AcDbLayerTableRecord
  2
85
 70
     0
 62
    85
  6
CONTINUOUS
  0
LAYER
  5
8F
330
2
100
AcDbSymbolTableRecord
100
AcDbLayerTableRecord
  2
86
 70
     0
 62
    86
  6
CONTINUOUS
  0
LAYER
  5
90
330
2
100
AcDbSymbolTableRecord
100
AcDbLayerTableRecord
  2
87
 70
     0
 62
    87
  6
CONTINUOUS
  0
LAYER
  5
91
330
2
100
AcDbSymbolTableRecord
100
AcDbLayerTableRecord
  2
88
 70
     0
 62
    88
  6
CONTINUOUS
  0
LAYER
  5
92
330
2
100
AcDbSymbolTableRecord
100
AcDbLayerTableRecord
  2
89
 70
     0
 62
    89
  6
CONTINUOUS
  0
LAYER
  5
93
330
2
100
AcDbSymbolTableRecord
100
AcDbLayerTableRecord
  2
90
 70
     0
 62
    90
  6
CONTINUOUS
  0
LAYER
  5
94
330
2
100
AcDbSymbolTableRecord
100
AcDbLayerTableRecord
  2
91
 70
     0
 62
    91
  6
CONTINUOUS
  0
LAYER
  5
95
330
2
100
AcDbSymbolTableRecord
100
AcDbLayerTableRecord
  2
92
 70
     0
 62
    92
  6
CONTINUOUS
  0
LAYER
  5
96
330
2
100
AcDbSymbolTableRecord
100
AcDbLayerTableRecord
  2
93
 70
     0
 62
    93
  6
CONTINUOUS
  0
LAYER
  5
97
330
2
100
AcDbSymbolTableRecord
100
AcDbLayerTableRecord
  2
94
 70
     0
 62
    94
  6
CONTINUOUS
  0
LAYER
  5
98
330
2
100
AcDbSymbolTableRecord
100
AcDbLayerTableRecord
  2
95
 70
     0
 62
    95
  6
CONTINUOUS
  0
LAYER
  5
99
330
2
100
AcDbSymbolTableRecord
100
AcDbLayerTableRecord
  2
96
 70
     0
 62
    96
  6
CONTINUOUS
  0
LAYER
  5
9A
330
2
100
AcDbSymbolTableRecord
100
AcDbLayerTableRecord
  2
97
 70
     0
 62
    97
  6
CONTINUOUS
  0
LAYER
  5
9B
330
2
100
AcDbSymbolTableRecord
100
AcDbLayerTableRecord
  2
98
 70
     0
 62
    98
  6
CONTINUOUS
  0
LAYER
  5
9C
330
2
100
AcDbSymbolTableRecord
100
AcDbLayerTableRecord
  2
99
 70
     0
 62
    99
  6
CONTINUOUS
  0
LAYER
  5
9D
330
2
100
AcDbSymbolTableRecord
100
AcDbLayerTableRecord
  2
100
 70
     0
 62
   100
  6
CONTINUOUS
  0
LAYER
  5
9E
330
2
100
AcDbSymbolTableRecord
100
AcDbLayerTableRecord
  2
101
 70
     0
 62
   101
  6
CONTINUOUS
  0
LAYER
  5
9F
330
2
100
AcDbSymbolTableRecord
100
AcDbLayerTableRecord
  2
102
 70
     0
 62
   102
  6
CONTINUOUS
  0
LAYER
  5
A0
330
2
100
AcDbSymbolTableRecord
100
AcDbLayerTableRecord
  2
103
 70
     0
 62
   103
  6
CONTINUOUS
  0
LAYER
  5
A1
330
2
100
AcDbSymbolTableRecord
100
AcDbLayerTableRecord
  2
104
 70
     0
 62
   104
  6
CONTINUOUS
  0
LAYER
  5
A2
330
2
100
AcDbSymbolTableRecord
100
AcDbLayerTableRecord
  2
105
 70
     0
 62
   105
  6
CONTINUOUS
  0
LAYER
  5
A3
330
2
100
AcDbSymbolTableRecord
100
AcDbLayerTableRecord
  2
106
 70
     0
 62
   106
  6
CONTINUOUS
  0
LAYER
  5
A4
330
2
100
AcDbSymbolTableRecord
100
AcDbLayerTableRecord
  2
107
 70
     0
 62
   107
  6
CONTINUOUS
  0
LAYER
  5
A5
330
2
100
AcDbSymbolTableRecord
100
AcDbLayerTableRecord
  2
108
 70
     0
 62
   108
  6
CONTINUOUS
  0
LAYER
  5
A6
330
2
100
AcDbSymbolTableRecord
100
AcDbLayerTableRecord
  2
109
 70
     0
 62
   109
  6
CONTINUOUS
  0
LAYER
  5
A7
330
2
100
AcDbSymbolTableRecord
100
AcDbLayerTableRecord
  2
110
 70
     0
 62
   110
  6
CONTINUOUS
  0
LAYER
  5
A8
330
2
100
AcDbSymbolTableRecord
100
AcDbLayerTableRecord
  2
111
 70
     0
 62
   111
  6
CONTINUOUS
  0
LAYER
  5
A9
330
2
100
AcDbSymbolTableRecord
100
AcDbLayerTableRecord
  2
112
 70
     0
 62
   112
  6
CONTINUOUS
  0
LAYER
  5
AA
330
2
100
AcDbSymbolTableRecord
100
AcDbLayerTableRecord
  2
113
 70
     0
 62
   113
  6
CONTINUOUS
  0
LAYER
  5
AB
330
2
100
AcDbSymbolTableRecord
100
AcDbLayerTableRecord
  2
114
 70
     0
 62
   114
  6
CONTINUOUS
  0
LAYER
  5
AC
330
2
100
AcDbSymbolTableRecord
100
AcDbLayerTableRecord
  2
115
 70
     0
 62
   115
  6
CONTINUOUS
  0
LAYER
  5
AD
330
2
100
AcDbSymbolTableRecord
100
AcDbLayerTableRecord
  2
116
 70
     0
 62
   116
  6
CONTINUOUS
  0
LAYER
  5
AE
330
2
100
AcDbSymbolTableRecord
100
AcDbLayerTableRecord
  2
117
 70
     0
 62
   117
  6
CONTINUOUS
  0
LAYER
  5
AF
330
2
100
AcDbSymbolTableRecord
100
AcDbLayerTableRecord
  2
118
 70
     0
 62
   118
  6
CONTINUOUS
  0
LAYER
  5
B0
330
2
100
AcDbSymbolTableRecord
100
AcDbLayerTableRecord
  2
119
 70
     0
 62
   119
  6
CONTINUOUS
  0
LAYER
  5
B1
330
2
100
AcDbSymbolTableRecord
100
AcDbLayerTableRecord
  2
120
 70
     0
 62
   120
  6
CONTINUOUS
  0
LAYER
  5
B2
330
2
100
AcDbSymbolTableRecord
100
AcDbLayerTableRecord
  2
121
 70
     0
 62
   121
  6
CONTINUOUS
  0
LAYER
  5
B3
330
2
100
AcDbSymbolTableRecord
100
AcDbLayerTableRecord
  2
122
 70
     0
 62
   122
  6
CONTINUOUS
  0
LAYER
  5
B4
330
2
100
AcDbSymbolTableRecord
100
AcDbLayerTableRecord
  2
123
 70
     0
 62
   123
  6
CONTINUOUS
  0
LAYER
  5
B5
330
2
100
AcDbSymbolTableRecord
100
AcDbLayerTableRecord
  2
124
 70
     0
 62
   124
  6
CONTINUOUS
  0
LAYER
  5
B6
330
2
100
AcDbSymbolTableRecord
100
AcDbLayerTableRecord
  2
125
 70
     0
 62
   125
  6
CONTINUOUS
  0
LAYER
  5
B7
330
2
100
AcDbSymbolTableRecord
100
AcDbLayerTableRecord
  2
126
 70
     0
 62
   126
  6
CONTINUOUS
  0
LAYER
  5
B8
330
2
100
AcDbSymbolTableRecord
100
AcDbLayerTableRecord
  2
127
 70
     0
 62
   127
  6
CONTINUOUS
  0
LAYER
  5
B9
330
2
100
AcDbSymbolTableRecord
100
AcDbLayerTableRecord
  2
128
 70
     0
 62
   128
  6
CONTINUOUS
  0
LAYER
  5
BA
330
2
100
AcDbSymbolTableRecord
100
AcDbLayerTableRecord
  2
129
 70
     0
 62
   129
  6
CONTINUOUS
  0
LAYER
  5
BB
330
2
100
AcDbSymbolTableRecord
100
AcDbLayerTableRecord
  2
130
 70
     0
 62
   130
  6
CONTINUOUS
  0
LAYER
  5
BC
330
2
100
AcDbSymbolTableRecord
100
AcDbLayerTableRecord
  2
131
 70
     0
 62
   131
  6
CONTINUOUS
  0
LAYER
  5
BD
330
2
100
AcDbSymbolTableRecord
100
AcDbLayerTableRecord
  2
132
 70
     0
 62
   132
  6
CONTINUOUS
  0
LAYER
  5
BE
330
2
100
AcDbSymbolTableRecord
100
AcDbLayerTableRecord
  2
133
 70
     0
 62
   133
  6
CONTINUOUS
  0
LAYER
  5
BF
330
2
100
AcDbSymbolTableRecord
100
AcDbLayerTableRecord
  2
134
 70
     0
 62
   134
  6
CONTINUOUS
  0
LAYER
  5
C0
330
2
100
AcDbSymbolTableRecord
100
AcDbLayerTableRecord
  2
135
 70
     0
 62
   135
  6
CONTINUOUS
  0
LAYER
  5
C1
330
2
100
AcDbSymbolTableRecord
100
AcDbLayerTableRecord
  2
136
 70
     0
 62
   136
  6
CONTINUOUS
  0
LAYER
  5
C2
330
2
100
AcDbSymbolTableRecord
100
AcDbLayerTableRecord
  2
137
 70
     0
 62
   137
  6
CONTINUOUS
  0
LAYER
  5
C3
330
2
100
AcDbSymbolTableRecord
100
AcDbLayerTableRecord
  2
138
 70
     0
 62
   138
  6
CONTINUOUS
  0
LAYER
  5
C4
330
2
100
AcDbSymbolTableRecord
100
AcDbLayerTableRecord
  2
139
 70
     0
 62
   139
  6
CONTINUOUS
  0
LAYER
  5
C5
330
2
100
AcDbSymbolTableRecord
100
AcDbLayerTableRecord
  2
140
 70
     0
 62
   140
  6
CONTINUOUS
  0
LAYER
  5
C6
330
2
100
AcDbSymbolTableRecord
100
AcDbLayerTableRecord
  2
141
 70
     0
 62
   141
  6
CONTINUOUS
  0
LAYER
  5
C7
330
2
100
AcDbSymbolTableRecord
100
AcDbLayerTableRecord
  2
142
 70
     0
 62
   142
  6
CONTINUOUS
  0
LAYER
  5
C8
330
2
100
AcDbSymbolTableRecord
100
AcDbLayerTableRecord
  2
143
 70
     0
 62
   143
  6
CONTINUOUS
  0
LAYER
  5
C9
330
2
100
AcDbSymbolTableRecord
100
AcDbLayerTableRecord
  2
144
 70
     0
 62
   144
  6
CONTINUOUS
  0
LAYER
  5
CA
330
2
100
AcDbSymbolTableRecord
100
AcDbLayerTableRecord
  2
145
 70
     0
 62
   145
  6
CONTINUOUS
  0
LAYER
  5
CB
330
2
100
AcDbSymbolTableRecord
100
AcDbLayerTableRecord
  2
146
 70
     0
 62
   146
  6
CONTINUOUS
  0
LAYER
  5
CC
330
2
100
AcDbSymbolTableRecord
100
AcDbLayerTableRecord
  2
147
 70
     0
 62
   147
  6
CONTINUOUS
  0
LAYER
  5
CD
330
2
100
AcDbSymbolTableRecord
100
AcDbLayerTableRecord
  2
148
 70
     0
 62
   148
  6
CONTINUOUS
  0
LAYER
  5
CE
330
2
100
AcDbSymbolTableRecord
100
AcDbLayerTableRecord
  2
149
 70
     0
 62
   149
  6
CONTINUOUS
  0
LAYER
  5
CF
330
2
100
AcDbSymbolTableRecord
100
AcDbLayerTableRecord
  2
150
 70
     0
 62
   150
  6
CONTINUOUS
  0
LAYER
  5
D0
330
2
100
AcDbSymbolTableRecord
100
AcDbLayerTableRecord
  2
151
 70
     0
 62
   151
  6
CONTINUOUS
  0
LAYER
  5
D1
330
2
100
AcDbSymbolTableRecord
100
AcDbLayerTableRecord
  2
152
 70
     0
 62
   152
  6
CONTINUOUS
  0
LAYER
  5
D2
330
2
100
AcDbSymbolTableRecord
100
AcDbLayerTableRecord
  2
153
 70
     0
 62
   153
  6
CONTINUOUS
  0
LAYER
  5
D3
330
2
100
AcDbSymbolTableRecord
100
AcDbLayerTableRecord
  2
154
 70
     0
 62
   154
  6
CONTINUOUS
  0
LAYER
  5
D4
330
2
100
AcDbSymbolTableRecord
100
AcDbLayerTableRecord
  2
155
 70
     0
 62
   155
  6
CONTINUOUS
  0
LAYER
  5
D5
330
2
100
AcDbSymbolTableRecord
100
AcDbLayerTableRecord
  2
156
 70
     0
 62
   156
  6
CONTINUOUS
  0
LAYER
  5
D6
330
2
100
AcDbSymbolTableRecord
100
AcDbLayerTableRecord
  2
157
 70
     0
 62
   157
  6
CONTINUOUS
  0
LAYER
  5
D7
330
2
100
AcDbSymbolTableRecord
100
AcDbLayerTableRecord
  2
158
 70
     0
 62
   158
  6
CONTINUOUS
  0
LAYER
  5
D8
330
2
100
AcDbSymbolTableRecord
100
AcDbLayerTableRecord
  2
159
 70
     0
 62
   159
  6
CONTINUOUS
  0
LAYER
  5
D9
330
2
100
AcDbSymbolTableRecord
100
AcDbLayerTableRecord
  2
160
 70
     0
 62
   160
  6
CONTINUOUS
  0
LAYER
  5
DA
330
2
100
AcDbSymbolTableRecord
100
AcDbLayerTableRecord
  2
161
 70
     0
 62
   161
  6
CONTINUOUS
  0
LAYER
  5
DB
330
2
100
AcDbSymbolTableRecord
100
AcDbLayerTableRecord
  2
162
 70
     0
 62
   162
  6
CONTINUOUS
  0
LAYER
  5
DC
330
2
100
AcDbSymbolTableRecord
100
AcDbLayerTableRecord
  2
163
 70
     0
 62
   163
  6
CONTINUOUS
  0
LAYER
  5
DD
330
2
100
AcDbSymbolTableRecord
100
AcDbLayerTableRecord
  2
164
 70
     0
 62
   164
  6
CONTINUOUS
  0
LAYER
  5
DE
330
2
100
AcDbSymbolTableRecord
100
AcDbLayerTableRecord
  2
165
 70
     0
 62
   165
  6
CONTINUOUS
  0
LAYER
  5
DF
330
2
100
AcDbSymbolTableRecord
100
AcDbLayerTableRecord
  2
166
 70
     0
 62
   166
  6
CONTINUOUS
  0
LAYER
  5
E0
330
2
100
AcDbSymbolTableRecord
100
AcDbLayerTableRecord
  2
167
 70
     0
 62
   167
  6
CONTINUOUS
  0
LAYER
  5
E1
330
2
100
AcDbSymbolTableRecord
100
AcDbLayerTableRecord
  2
168
 70
     0
 62
   168
  6
CONTINUOUS
  0
LAYER
  5
E2
330
2
100
AcDbSymbolTableRecord
100
AcDbLayerTableRecord
  2
169
 70
     0
 62
   169
  6
CONTINUOUS
  0
LAYER
  5
E3
330
2
100
AcDbSymbolTableRecord
100
AcDbLayerTableRecord
  2
170
 70
     0
 62
   170
  6
CONTINUOUS
  0
LAYER
  5
E4
330
2
100
AcDbSymbolTableRecord
100
AcDbLayerTableRecord
  2
171
 70
     0
 62
   171
  6
CONTINUOUS
  0
LAYER
  5
E5
330
2
100
AcDbSymbolTableRecord
100
AcDbLayerTableRecord
  2
172
 70
     0
 62
   172
  6
CONTINUOUS
  0
LAYER
  5
E6
330
2
100
AcDbSymbolTableRecord
100
AcDbLayerTableRecord
  2
173
 70
     0
 62
   173
  6
CONTINUOUS
  0
LAYER
  5
E7
330
2
100
AcDbSymbolTableRecord
100
AcDbLayerTableRecord
  2
174
 70
     0
 62
   174
  6
CONTINUOUS
  0
LAYER
  5
E8
330
2
100
AcDbSymbolTableRecord
100
AcDbLayerTableRecord
  2
175
 70
     0
 62
   175
  6
CONTINUOUS
  0
LAYER
  5
E9
330
2
100
AcDbSymbolTableRecord
100
AcDbLayerTableRecord
  2
176
 70
     0
 62
   176
  6
CONTINUOUS
  0
LAYER
  5
EA
330
2
100
AcDbSymbolTableRecord
100
AcDbLayerTableRecord
  2
177
 70
     0
 62
   177
  6
CONTINUOUS
  0
LAYER
  5
EB
330
2
100
AcDbSymbolTableRecord
100
AcDbLayerTableRecord
  2
178
 70
     0
 62
   178
  6
CONTINUOUS
  0
LAYER
  5
EC
330
2
100
AcDbSymbolTableRecord
100
AcDbLayerTableRecord
  2
179
 70
     0
 62
   179
  6
CONTINUOUS
  0
LAYER
  5
ED
330
2
100
AcDbSymbolTableRecord
100
AcDbLayerTableRecord
  2
180
 70
     0
 62
   180
  6
CONTINUOUS
  0
LAYER
  5
EE
330
2
100
AcDbSymbolTableRecord
100
AcDbLayerTableRecord
  2
181
 70
     0
 62
   181
  6
CONTINUOUS
  0
LAYER
  5
EF
330
2
100
AcDbSymbolTableRecord
100
AcDbLayerTableRecord
  2
182
 70
     0
 62
   182
  6
CONTINUOUS
  0
LAYER
  5
F0
330
2
100
AcDbSymbolTableRecord
100
AcDbLayerTableRecord
  2
183
 70
     0
 62
   183
  6
CONTINUOUS
  0
LAYER
  5
F1
330
2
100
AcDbSymbolTableRecord
100
AcDbLayerTableRecord
  2
184
 70
     0
 62
   184
  6
CONTINUOUS
  0
LAYER
  5
F2
330
2
100
AcDbSymbolTableRecord
100
AcDbLayerTableRecord
  2
185
 70
     0
 62
   185
  6
CONTINUOUS
  0
LAYER
  5
F3
330
2
100
AcDbSymbolTableRecord
100
AcDbLayerTableRecord
  2
186
 70
     0
 62
   186
  6
CONTINUOUS
  0
LAYER
  5
F4
330
2
100
AcDbSymbolTableRecord
100
AcDbLayerTableRecord
  2
187
 70
     0
 62
   187
  6
CONTINUOUS
  0
LAYER
  5
F5
330
2
100
AcDbSymbolTableRecord
100
AcDbLayerTableRecord
  2
188
 70
     0
 62
   188
  6
CONTINUOUS
  0
LAYER
  5
F6
330
2
100
AcDbSymbolTableRecord
100
AcDbLayerTableRecord
  2
189
 70
     0
 62
   189
  6
CONTINUOUS
  0
LAYER
  5
F7
330
2
100
AcDbSymbolTableRecord
100
AcDbLayerTableRecord
  2
190
 70
     0
 62
   190
  6
CONTINUOUS
  0
LAYER
  5
F8
330
2
100
AcDbSymbolTableRecord
100
AcDbLayerTableRecord
  2
191
 70
     0
 62
   191
  6
CONTINUOUS
  0
LAYER
  5
F9
330
2
100
AcDbSymbolTableRecord
100
AcDbLayerTableRecord
  2
192
 70
     0
 62
   192
  6
CONTINUOUS
  0
LAYER
  5
FA
330
2
100
AcDbSymbolTableRecord
100
AcDbLayerTableRecord
  2
193
 70
     0
 62
   193
  6
CONTINUOUS
  0
LAYER
  5
FB
330
2
100
AcDbSymbolTableRecord
100
AcDbLayerTableRecord
  2
194
 70
     0
 62
   194
  6
CONTINUOUS
  0
LAYER
  5
FC
330
2
100
AcDbSymbolTableRecord
100
AcDbLayerTableRecord
  2
195
 70
     0
 62
   195
  6
CONTINUOUS
  0
LAYER
  5
FD
330
2
100
AcDbSymbolTableRecord
100
AcDbLayerTableRecord
  2
196
 70
     0
 62
   196
  6
CONTINUOUS
  0
LAYER
  5
FE
330
2
100
AcDbSymbolTableRecord
100
AcDbLayerTableRecord
  2
197
 70
     0
 62
   197
  6
CONTINUOUS
  0
LAYER
  5
FF
330
2
100
AcDbSymbolTableRecord
100
AcDbLayerTableRecord
  2
198
 70
     0
 62
   198
  6
CONTINUOUS
  0
LAYER
  5
100
330
2
100
AcDbSymbolTableRecord
100
AcDbLayerTableRecord
  2
199
 70
     0
 62
   199
  6
CONTINUOUS
  0
LAYER
  5
101
330
2
100
AcDbSymbolTableRecord
100
AcDbLayerTableRecord
  2
200
 70
     0
 62
   200
  6
CONTINUOUS
  0
LAYER
  5
102
330
2
100
AcDbSymbolTableRecord
100
AcDbLayerTableRecord
  2
201
 70
     0
 62
   201
  6
CONTINUOUS
  0
LAYER
  5
103
330
2
100
AcDbSymbolTableRecord
100
AcDbLayerTableRecord
  2
202
 70
     0
 62
   202
  6
CONTINUOUS
  0
LAYER
  5
104
330
2
100
AcDbSymbolTableRecord
100
AcDbLayerTableRecord
  2
203
 70
     0
 62
   203
  6
CONTINUOUS
  0
LAYER
  5
105
330
2
100
AcDbSymbolTableRecord
100
AcDbLayerTableRecord
  2
204
 70
     0
 62
   204
  6
CONTINUOUS
  0
LAYER
  5
106
330
2
100
AcDbSymbolTableRecord
100
AcDbLayerTableRecord
  2
205
 70
     0
 62
   205
  6
CONTINUOUS
  0
LAYER
  5
107
330
2
100
AcDbSymbolTableRecord
100
AcDbLayerTableRecord
  2
206
 70
     0
 62
   206
  6
CONTINUOUS
  0
LAYER
  5
108
330
2
100
AcDbSymbolTableRecord
100
AcDbLayerTableRecord
  2
207
 70
     0
 62
   207
  6
CONTINUOUS
  0
LAYER
  5
109
330
2
100
AcDbSymbolTableRecord
100
AcDbLayerTableRecord
  2
208
 70
     0
 62
   208
  6
CONTINUOUS
  0
LAYER
  5
10A
330
2
100
AcDbSymbolTableRecord
100
AcDbLayerTableRecord
  2
209
 70
     0
 62
   209
  6
CONTINUOUS
  0
LAYER
  5
10B
330
2
100
AcDbSymbolTableRecord
100
AcDbLayerTableRecord
  2
210
 70
     0
 62
   210
  6
CONTINUOUS
  0
LAYER
  5
10C
330
2
100
AcDbSymbolTableRecord
100
AcDbLayerTableRecord
  2
211
 70
     0
 62
   211
  6
CONTINUOUS
  0
LAYER
  5
10D
330
2
100
AcDbSymbolTableRecord
100
AcDbLayerTableRecord
  2
212
 70
     0
 62
   212
  6
CONTINUOUS
  0
LAYER
  5
10E
330
2
100
AcDbSymbolTableRecord
100
AcDbLayerTableRecord
  2
213
 70
     0
 62
   213
  6
CONTINUOUS
  0
LAYER
  5
10F
330
2
100
AcDbSymbolTableRecord
100
AcDbLayerTableRecord
  2
214
 70
     0
 62
   214
  6
CONTINUOUS
  0
LAYER
  5
110
330
2
100
AcDbSymbolTableRecord
100
AcDbLayerTableRecord
  2
215
 70
     0
 62
   215
  6
CONTINUOUS
  0
LAYER
  5
111
330
2
100
AcDbSymbolTableRecord
100
AcDbLayerTableRecord
  2
216
 70
     0
 62
   216
  6
CONTINUOUS
  0
LAYER
  5
112
330
2
100
AcDbSymbolTableRecord
100
AcDbLayerTableRecord
  2
217
 70
     0
 62
   217
  6
CONTINUOUS
  0
LAYER
  5
113
330
2
100
AcDbSymbolTableRecord
100
AcDbLayerTableRecord
  2
218
 70
     0
 62
   218
  6
CONTINUOUS
  0
LAYER
  5
114
330
2
100
AcDbSymbolTableRecord
100
AcDbLayerTableRecord
  2
219
 70
     0
 62
   219
  6
CONTINUOUS
  0
LAYER
  5
115
330
2
100
AcDbSymbolTableRecord
100
AcDbLayerTableRecord
  2
220
 70
     0
 62
   220
  6
CONTINUOUS
  0
LAYER
  5
116
330
2
100
AcDbSymbolTableRecord
100
AcDbLayerTableRecord
  2
221
 70
     0
 62
   221
  6
CONTINUOUS
  0
LAYER
  5
117
330
2
100
AcDbSymbolTableRecord
100
AcDbLayerTableRecord
  2
222
 70
     0
 62
   222
  6
CONTINUOUS
  0
LAYER
  5
118
330
2
100
AcDbSymbolTableRecord
100
AcDbLayerTableRecord
  2
223
 70
     0
 62
   223
  6
CONTINUOUS
  0
LAYER
  5
119
330
2
100
AcDbSymbolTableRecord
100
AcDbLayerTableRecord
  2
224
 70
     0
 62
   224
  6
CONTINUOUS
  0
LAYER
  5
11A
330
2
100
AcDbSymbolTableRecord
100
AcDbLayerTableRecord
  2
225
 70
     0
 62
   225
  6
CONTINUOUS
  0
LAYER
  5
11B
330
2
100
AcDbSymbolTableRecord
100
AcDbLayerTableRecord
  2
226
 70
     0
 62
   226
  6
CONTINUOUS
  0
LAYER
  5
11C
330
2
100
AcDbSymbolTableRecord
100
AcDbLayerTableRecord
  2
227
 70
     0
 62
   227
  6
CONTINUOUS
  0
LAYER
  5
11D
330
2
100
AcDbSymbolTableRecord
100
AcDbLayerTableRecord
  2
228
 70
     0
 62
   228
  6
CONTINUOUS
  0
LAYER
  5
11E
330
2
100
AcDbSymbolTableRecord
100
AcDbLayerTableRecord
  2
229
 70
     0
 62
   229
  6
CONTINUOUS
  0
LAYER
  5
11F
330
2
100
AcDbSymbolTableRecord
100
AcDbLayerTableRecord
  2
230
 70
     0
 62
   230
  6
CONTINUOUS
  0
LAYER
  5
120
330
2
100
AcDbSymbolTableRecord
100
AcDbLayerTableRecord
  2
231
 70
     0
 62
   231
  6
CONTINUOUS
  0
LAYER
  5
121
330
2
100
AcDbSymbolTableRecord
100
AcDbLayerTableRecord
  2
232
 70
     0
 62
   232
  6
CONTINUOUS
  0
LAYER
  5
122
330
2
100
AcDbSymbolTableRecord
100
AcDbLayerTableRecord
  2
233
 70
     0
 62
   233
  6
CONTINUOUS
  0
LAYER
  5
123
330
2
100
AcDbSymbolTableRecord
100
AcDbLayerTableRecord
  2
234
 70
     0
 62
   234
  6
CONTINUOUS
  0
LAYER
  5
124
330
2
100
AcDbSymbolTableRecord
100
AcDbLayerTableRecord
  2
235
 70
     0
 62
   235
  6
CONTINUOUS
  0
LAYER
  5
125
330
2
100
AcDbSymbolTableRecord
100
AcDbLayerTableRecord
  2
236
 70
     0
 62
   236
  6
CONTINUOUS
  0
LAYER
  5
126
330
2
100
AcDbSymbolTableRecord
100
AcDbLayerTableRecord
  2
237
 70
     0
 62
   237
  6
CONTINUOUS
  0
LAYER
  5
127
330
2
100
AcDbSymbolTableRecord
100
AcDbLayerTableRecord
  2
238
 70
     0
 62
   238
  6
CONTINUOUS
  0
LAYER
  5
128
330
2
100
AcDbSymbolTableRecord
100
AcDbLayerTableRecord
  2
239
 70
     0
 62
   239
  6
CONTINUOUS
  0
LAYER
  5
129
330
2
100
AcDbSymbolTableRecord
100
AcDbLayerTableRecord
  2
240
 70
     0
 62
   240
  6
CONTINUOUS
  0
LAYER
  5
12A
330
2
100
AcDbSymbolTableRecord
100
AcDbLayerTableRecord
  2
241
 70
     0
 62
   241
  6
CONTINUOUS
  0
LAYER
  5
12B
330
2
100
AcDbSymbolTableRecord
100
AcDbLayerTableRecord
  2
242
 70
     0
 62
   242
  6
CONTINUOUS
  0
LAYER
  5
12C
330
2
100
AcDbSymbolTableRecord
100
AcDbLayerTableRecord
  2
243
 70
     0
 62
   243
  6
CONTINUOUS
  0
LAYER
  5
12D
330
2
100
AcDbSymbolTableRecord
100
AcDbLayerTableRecord
  2
244
 70
     0
 62
   244
  6
CONTINUOUS
  0
LAYER
  5
12E
330
2
100
AcDbSymbolTableRecord
100
AcDbLayerTableRecord
  2
245
 70
     0
 62
   245
  6
CONTINUOUS
  0
LAYER
  5
12F
330
2
100
AcDbSymbolTableRecord
100
AcDbLayerTableRecord
  2
246
 70
     0
 62
   246
  6
CONTINUOUS
  0
LAYER
  5
130
330
2
100
AcDbSymbolTableRecord
100
AcDbLayerTableRecord
  2
247
 70
     0
 62
   247
  6
CONTINUOUS
  0
LAYER
  5
131
330
2
100
AcDbSymbolTableRecord
100
AcDbLayerTableRecord
  2
248
 70
     0
 62
   248
  6
CONTINUOUS
  0
LAYER
  5
132
330
2
100
AcDbSymbolTableRecord
100
AcDbLayerTableRecord
  2
249
 70
     0
 62
   249
  6
CONTINUOUS
  0
LAYER
  5
133
330
2
100
AcDbSymbolTableRecord
100
AcDbLayerTableRecord
  2
250
 70
     0
 62
   250
  6
CONTINUOUS
  0
LAYER
  5
134
330
2
100
AcDbSymbolTableRecord
100
AcDbLayerTableRecord
  2
251
 70
     0
 62
   251
  6
CONTINUOUS
  0
LAYER
  5
135
330
2
100
AcDbSymbolTableRecord
100
AcDbLayerTableRecord
  2
252
 70
     0
 62
   252
  6
CONTINUOUS
  0
LAYER
  5
136
330
2
100
AcDbSymbolTableRecord
100
AcDbLayerTableRecord
  2
253
 70
     0
 62
   253
  6
CONTINUOUS
  0
LAYER
  5
137
330
2
100
AcDbSymbolTableRecord
100
AcDbLayerTableRecord
  2
254
 70
     0
 62
   254
  6
CONTINUOUS
  0
LAYER
  5
138
330
2
100
AcDbSymbolTableRecord
100
AcDbLayerTableRecord
  2
255
 70
     0
 62
   255
  6
CONTINUOUS
  0
ENDTAB
  0
TABLE
  2
STYLE
  5
3
330
0
100
AcDbSymbolTable
 70
     1
  0
STYLE
  5
11
330
3
100
AcDbSymbolTableRecord
100
AcDbTextStyleTableRecord
  2
STANDARD
 70
     0
 40
0.0
 41
1.0
 50
0.0
 71
     0
 42
0.2
  3
monotxt
  4

  0
ENDTAB
  0
TABLE
  2
VIEW
  5
6
330
0
100
AcDbSymbolTable
 70
     0
  0
ENDTAB
  0
TABLE
  2
UCS
  5
7
330
0
100
AcDbSymbolTable
 70
     0
  0
ENDTAB
  0
TABLE
  2
APPID
  5
9
330
0
100
AcDbSymbolTable
 70
     1
  0
APPID
  5
12
330
9
100
AcDbSymbolTableRecord
100
AcDbRegAppTableRecord
  2
ACAD
 70
     0
  0
ENDTAB
  0
TABLE
  2
DIMSTYLE
  5
A
330
0
100
AcDbSymbolTable
 70
     1
  0
DIMSTYLE
105
35A
330
A
100
AcDbSymbolTableRecord
100
AcDbDimStyleTableRecord
  2
STANDARD
 70
     0
  3

  4

  5

  6

  7

 40
1.0
 41
0.18
 42
0.0625
 43
0.38
 44
0.18
 45
0.0
 46
0.0
 47
0.0
 48
0.0
140
0.18
141
0.09
142
0.0
143
25.4
144
1.0
145
0.0
146
1.0
147
0.09
 71
     0
 72
     0
 73
     1
 74
     1
 75
     0
 76
     0
 77
     0
 78
     0
170
     0
171
     2
172
     0
173
     0
174
     0
175
     0
176
     0
177
     0
178
     0
270
     2
271
     4
272
     4
273
     2
274
     2
340
11
275
     0
280
     0
281
     0
282
     0
283
     1
284
     0
285
     0
286
     0
287
     3
288
     0
  0
ENDTAB
  0
TABLE
  2
BLOCK_RECORD
  5
1
330
0
100
AcDbSymbolTable
 70
     0
  0
BLOCK_RECORD
  5
1E
102
{ACAD_XDICTIONARY
360
4D9
102
}
330
1
100
AcDbSymbolTableRecord
100
AcDbBlockTableRecord
  2
*MODEL_SPACE
  0
BLOCK_RECORD
  5
1A
102
{ACAD_XDICTIONARY
360
4D7
102
}
330
1
100
AcDbSymbolTableRecord
100
AcDbBlockTableRecord
  2
*PAPER_SPACE
  0
ENDTAB
  0
ENDSEC
  0
SECTION
  2
BLOCKS
  0
BLOCK
  5
13B
330
1E
100
AcDbEntity
  8
0
100
AcDbBlockBegin
  2
*MODEL_SPACE
 70
     0
 10
0.0
 20
0.0
 30
0.0
  3
*MODEL_SPACE
  1

  0
ENDBLK
  5
13C
330
1E
100
AcDbEntity
  8
0
100
AcDbBlockEnd
  0
BLOCK
  5
139
330
1A
100
AcDbEntity
 67
     1
  8
0
100
AcDbBlockBegin
  2
*PAPER_SPACE
 70
     0
 10
0.0
 20
0.0
 30
0.0
  3
*PAPER_SPACE
  1

  0
ENDBLK
  5
13A
330
1A
100
AcDbEntity
 67
     1
  8
0
100
AcDbBlockEnd
  0
ENDSEC
  0
SECTION
  2
ENTITIES
  0
LINE
  5
13E
330
1E
100
AcDbEntity
  8
3
100
AcDbLine
 10
40.11811023622047
 20
38.78051181102362
 30
0.0
 11
38.17814960629921
 21
38.78051181102362
 31
0.0
  0
LINE
  5
14A
330
1E
100
AcDbEntity
  8
3
100
AcDbLine
 10
40.36811023622047
 20
40.28051181102362
 30
0.0
 11
40.36811023622047
 21
39.03051181102362
 31
0.0
  0
LINE
  5
14B
330
1E
100
AcDbEntity
  8
3
100
AcDbLine
 10
38.17814960629921
 20
40.53051181102362
 30
0.0
 11
40.11811023622047
 21
40.53051181102362
 31
0.0
  0
LINE
  5
14C
330
1E
100
AcDbEntity
  8
3
100
AcDbLine
 10
38.17814960629921
 20
38.78051181102362
 30
0.0
 11
38.17814960629921
 21
40.53051181102362
 31
0.0
  0
LINE
  5
14D
330
1E
100
AcDbEntity
  8
3
100
AcDbLine
 10
40.36811023622047
 20
40.28051181102362
 30
0.0
 11
40.36318897637795
 21
40.32972440944881
 31
0.0
  0
LINE
  5
158
330
1E
100
AcDbEntity
  8
3
100
AcDbLine
 10
39.60728346456693
 20
39.1751968503937
 30
0.0
 11
40.04232283464567
 21
39.1751968503937
 31
0.0
  0
LINE
  5
159
330
1E
100
AcDbEntity
  8
3
100
AcDbLine
 10
39.57677165354331
 20
39.20472440944881
 30
0.0
 11
39.57677165354331
 21
40.10531496062992
 31
0.0
  0
LINE
  5
160
330
1E
100
AcDbEntity
  8
3
100
AcDbLine
 10
39.60728346456693
 20
40.13484251968503
 30
0.0
 11
40.04232283464567
 21
40.13484251968503
 31
0.0
  0
LINE
  5
167
330
1E
100
AcDbEntity
  8
3
100
AcDbLine
 10
40.07185039370079
 20
39.20472440944881
 30
0.0
 11
40.07185039370079
 21
40.10531496062992
 31
0.0
  0
LINE
  5
16E
330
1E
100
AcDbEntity
  8
3
100
AcDbLine
 10
39.51377952755906
 20
38.93503937007874
 30
0.0
 11
39.51377952755906
 21
39.05511811023622
 31
0.0
  0
LINE
  5
175
330
1E
100
AcDbEntity
  8
3
100
AcDbLine
 10
39.99507874015748
 20
39.05511811023622
 30
0.0
 11
39.99507874015748
 21
38.93503937007874
 31
0.0
  0
LINE
  5
19A
330
1E
100
AcDbEntity
  8
3
100
AcDbLine
 10
38.02657480314961
 20
40.53051181102362
 30
0.0
 11
36.90944881889763
 21
40.53051181102362
 31
0.0
  0
LINE
  5
19B
330
1E
100
AcDbEntity
  8
3
100
AcDbLine
 10
36.92913385826772
 20
40.42027559055118
 30
0.0
 11
37.06889763779528
 21
40.42027559055118
 31
0.0
  0
LINE
  5
1AB
330
1E
100
AcDbEntity
  8
3
100
AcDbLine
 10
36.89566929133858
 20
40.14468503937007
 30
0.0
 11
36.92913385826772
 21
40.14074803149606
 31
0.0
  0
LINE
  5
1AC
330
1E
100
AcDbEntity
  8
3
100
AcDbLine
 10
37.06889763779528
 20
40.13976377952755
 30
0.0
 11
36.92913385826772
 21
40.13976377952755
 31
0.0
  0
LINE
  5
1C0
330
1E
100
AcDbEntity
  8
3
100
AcDbLine
 10
36.92913385826772
 20
39.79527559055118
 30
0.0
 11
37.06889763779528
 21
39.79527559055118
 31
0.0
  0
LINE
  5
1D4
330
1E
100
AcDbEntity
  8
3
100
AcDbLine
 10
37.06889763779528
 20
39.51476377952755
 30
0.0
 11
36.92913385826772
 21
39.51476377952755
 31
0.0
  0
LINE
  5
1E8
330
1E
100
AcDbEntity
  8
3
100
AcDbLine
 10
36.92913385826772
 20
39.17027559055118
 30
0.0
 11
37.06889763779528
 21
39.17027559055118
 31
0.0
  0
LINE
  5
1FC
330
1E
100
AcDbEntity
  8
3
100
AcDbLine
 10
37.06889763779528
 20
38.88976377952755
 30
0.0
 11
36.92913385826772
 21
38.88976377952755
 31
0.0
  0
LINE
  5
20D
330
1E
100
AcDbEntity
  8
3
100
AcDbLine
 10
36.65944881889763
 20
40.28051181102362
 30
0.0
 11
36.65944881889763
 21
39.03051181102362
 31
0.0
  0
LINE
  5
229
330
1E
100
AcDbEntity
  8
3
100
AcDbLine
 10
39.97342519685039
 20
38.93503937007874
 30
0.0
 11
39.89271653543307
 21
38.93503937007874
 31
0.0
  0
LINE
  5
22A
330
1E
100
AcDbEntity
  8
3
100
AcDbLine
 10
39.97342519685039
 20
38.93503937007874
 30
0.0
 11
39.97342519685039
 21
39.05511811023622
 31
0.0
  0
LINE
  5
22B
330
1E
100
AcDbEntity
  8
3
100
AcDbLine
 10
39.80708661417322
 20
38.93503937007874
 30
0.0
 11
39.70177165354331
 21
38.93503937007874
 31
0.0
  0
LINE
  5
22C
330
1E
100
AcDbEntity
  8
3
100
AcDbLine
 10
39.53543307086615
 20
38.93503937007874
 30
0.0
 11
39.61614173228346
 21
38.93503937007874
 31
0.0
  0
LINE
  5
243
330
1E
100
AcDbEntity
  8
3
100
AcDbLine
 10
39.53543307086615
 20
39.05511811023622
 30
0.0
 11
39.61614173228346
 21
39.05511811023622
 31
0.0
  0
LINE
  5
244
330
1E
100
AcDbEntity
  8
3
100
AcDbLine
 10
39.70177165354331
 20
39.05511811023622
 30
0.0
 11
39.80708661417322
 21
39.05511811023622
 31
0.0
  0
LINE
  5
251
330
1E
100
AcDbEntity
  8
3
100
AcDbLine
 10
39.97342519685039
 20
39.05511811023622
 30
0.0
 11
39.98326771653543
 21
39.05511811023622
 31
0.0
  0
LINE
  5
252
330
1E
100
AcDbEntity
  8
3
100
AcDbLine
 10
39.98326771653543
 20
39.05511811023622
 30
0.0
 11
39.99507874015748
 21
39.05511811023622
 31
0.0
  0
LINE
  5
253
330
1E
100
AcDbEntity
  8
3
100
AcDbLine
 10
39.61614173228346
 20
38.93503937007874
 30
0.0
 11
39.61614173228346
 21
39.05511811023622
 31
0.0
  0
LINE
  5
25A
330
1E
100
AcDbEntity
  8
3
100
AcDbLine
 10
39.70177165354331
 20
39.05511811023622
 30
0.0
 11
39.70177165354331
 21
38.93503937007874
 31
0.0
  0
LINE
  5
25B
330
1E
100
AcDbEntity
  8
3
100
AcDbLine
 10
39.80708661417322
 20
38.93503937007874
 30
0.0
 11
39.80708661417322
 21
39.05511811023622
 31
0.0
  0
LINE
  5
25C
330
1E
100
AcDbEntity
  8
3
100
AcDbLine
 10
40.11811023622047
 20
33.25393700787401
 30
0.0
 11
38.17814960629921
 21
33.25393700787401
 31
0.0
  0
LINE
  5
268
330
1E
100
AcDbEntity
  8
3
100
AcDbLine
 10
38.17814960629921
 20
33.16437007874015
 30
0.0
 11
40.11811023622047
 21
33.16437007874015
 31
0.0
  0
LINE
  5
274
330
1E
100
AcDbEntity
  8
3
100
AcDbLine
 10
40.36811023622047
 20
33.25393700787401
 30
0.0
 11
40.36811023622047
 21
33.16437007874015
 31
0.0
  0
LINE
  5
275
330
1E
100
AcDbEntity
  8
3
100
AcDbLine
 10
40.11811023622047
 20
33.16437007874015
 30
0.0
 11
40.11811023622047
 21
33.25393700787401
 31
0.0
  0
LINE
  5
276
330
1E
100
AcDbEntity
  8
3
100
AcDbLine
 10
38.17814960629921
 20
33.16437007874015
 30
0.0
 11
38.17814960629921
 21
33.25393700787401
 31
0.0
  0
LINE
  5
277
330
1E
100
AcDbEntity
  8
3
100
AcDbLine
 10
38.14665354330708
 20
33.28444881889764
 30
0.0
 11
38.05708661417323
 21
33.28444881889764
 31
0.0
  0
LINE
  5
28C
330
1E
100
AcDbEntity
  8
3
100
AcDbLine
 10
38.05708661417323
 20
33.28444881889764
 30
0.0
 11
38.05708661417323
 21
34.68503937007874
 31
0.0
  0
LINE
  5
28D
330
1E
100
AcDbEntity
  8
3
100
AcDbLine
 10
38.02657480314961
 20
34.80511811023622
 30
0.0
 11
38.02657480314961
 21
34.71555118110236
 31
0.0
  0
LINE
  5
297
330
1E
100
AcDbEntity
  8
3
100
AcDbLine
 10
38.05708661417323
 20
34.68503937007874
 30
0.0
 11
38.05314960629921
 21
34.69980314960629
 31
0.0
  0
LINE
  5
2BC
330
1E
100
AcDbEntity
  8
3
100
AcDbLine
 10
36.65944881889763
 20
34.71555118110236
 30
0.0
 11
36.65944881889763
 21
34.80511811023622
 31
0.0
  0
LINE
  5
2BD
330
1E
100
AcDbEntity
  8
3
100
AcDbLine
 10
39.97342519685039
 20
33.26279527559055
 30
0.0
 11
39.89271653543307
 21
33.34350393700787
 31
0.0
  0
LINE
  5
2BE
330
1E
100
AcDbEntity
  8
3
100
AcDbLine
 10
39.80708661417322
 20
33.37893700787401
 30
0.0
 11
39.70177165354331
 21
33.37893700787401
 31
0.0
  0
LINE
  5
2C5
330
1E
100
AcDbEntity
  8
3
100
AcDbLine
 10
39.53543307086615
 20
33.26279527559055
 30
0.0
 11
39.61614173228346
 21
33.34350393700787
 31
0.0
  0
LINE
  5
2C6
330
1E
100
AcDbEntity
  8
3
100
AcDbLine
 10
39.65354330708661
 20
33.25393700787401
 30
0.0
 11
39.68011811023622
 21
33.27952755905512
 31
0.0
  0
LINE
  5
2CC
330
1E
100
AcDbEntity
  8
3
100
AcDbLine
 10
39.80708661417322
 20
33.28937007874015
 30
0.0
 11
39.70177165354331
 21
33.28937007874015
 31
0.0
  0
LINE
  5
2D2
330
1E
100
AcDbEntity
  8
3
100
AcDbLine
 10
39.85531496062992
 20
33.25393700787401
 30
0.0
 11
39.82972440944882
 21
33.27952755905512
 31
0.0
  0
LINE
  5
2F1
330
1E
100
AcDbEntity
  8
3
100
AcDbLine
 10
46.3257874015748
 20
33.25393700787401
 30
0.0
 11
45.0757874015748
 21
33.25393700787401
 31
0.0
  0
LINE
  5
2FD
330
1E
100
AcDbEntity
  8
3
100
AcDbLine
 10
45.0757874015748
 20
33.16437007874015
 30
0.0
 11
46.3257874015748
 21
33.16437007874015
 31
0.0
  0
LINE
  5
317
330
1E
100
AcDbEntity
  8
3
100
AcDbLine
 10
45.0757874015748
 20
33.25393700787401
 30
0.0
 11
45.0757874015748
 21
33.16437007874015
 31
0.0
  0
LINE
  5
318
330
1E
100
AcDbEntity
  8
3
100
AcDbLine
 10
46.3257874015748
 20
33.16437007874015
 30
0.0
 11
46.3257874015748
 21
33.25393700787401
 31
0.0
  0
LINE
  5
319
330
1E
100
AcDbEntity
  8
3
100
AcDbLine
 10
44.82578740157481
 20
33.16437007874015
 30
0.0
 11
44.82578740157481
 21
33.25393700787401
 31
0.0
  0
LINE
  5
31A
330
1E
100
AcDbEntity
  8
3
100
AcDbLine
 10
46.57578740157481
 20
33.25393700787401
 30
0.0
 11
46.57578740157481
 21
33.16437007874015
 31
0.0
  0
LINE
  5
327
330
1E
100
AcDbEntity
  8
3
100
AcDbLine
 10
46.57578740157481
 20
33.28444881889764
 30
0.0
 11
45.1003937007874
 21
33.28444881889764
 31
0.0
  0
LINE
  5
328
330
1E
100
AcDbEntity
  8
3
100
AcDbLine
 10
44.98031496062992
 20
33.28444881889764
 30
0.0
 11
44.82578740157481
 21
33.28444881889764
 31
0.0
  0
LINE
  5
329
330
1E
100
AcDbEntity
  8
3
100
AcDbLine
 10
46.57578740157481
 20
33.28444881889764
 30
0.0
 11
46.57578740157481
 21
34.68503937007874
 31
0.0
  0
LINE
  5
32A
330
1E
100
AcDbEntity
  8
3
100
AcDbLine
 10
44.82578740157481
 20
33.28444881889764
 30
0.0
 11
44.82578740157481
 21
34.68503937007874
 31
0.0
  0
LINE
  5
344
330
1E
100
AcDbEntity
  8
3
100
AcDbLine
 10
44.98031496062992
 20
33.26279527559055
 30
0.0
 11
44.98031496062992
 21
33.34350393700787
 31
0.0
  0
LINE
  5
345
330
1E
100
AcDbEntity
  8
3
100
AcDbLine
 10
44.98031496062992
 20
33.26279527559055
 30
0.0
 11
45.1003937007874
 21
33.26279527559055
 31
0.0
  0
LINE
  5
357
330
1E
100
AcDbEntity
  8
3
100
AcDbLine
 10
45.1003937007874
 20
33.26279527559055
 30
0.0
 11
45.1003937007874
 21
33.25590551181102
 31
0.0
  0
LINE
  5
358
330
1E
100
AcDbEntity
  8
3
100
AcDbLine
 10
45.1003937007874
 20
33.25590551181102
 30
0.0
 11
45.1003937007874
 21
33.25393700787401
 31
0.0
  0
LINE
  5
359
330
1E
100
AcDbEntity
  8
3
100
AcDbLine
 10
44.98031496062992
 20
33.37893700787401
 30
0.0
 11
45.1003937007874
 21
33.37893700787401
 31
0.0
  0
LINE
  5
35D
330
1E
100
AcDbEntity
  8
3
100
AcDbLine
 10
45.1003937007874
 20
33.37893700787401
 30
0.0
 11
45.1003937007874
 21
33.37401574803149
 31
0.0
  0
LINE
  5
35E
330
1E
100
AcDbEntity
  8
3
100
AcDbLine
 10
45.1003937007874
 20
33.37401574803149
 30
0.0
 11
45.1003937007874
 21
33.36220472440945
 31
0.0
  0
LINE
  5
35F
330
1E
100
AcDbEntity
  8
3
100
AcDbLine
 10
45.1003937007874
 20
33.36220472440945
 30
0.0
 11
45.1003937007874
 21
33.34350393700787
 31
0.0
  0
LINE
  5
360
330
1E
100
AcDbEntity
  8
3
100
AcDbLine
 10
44.98031496062992
 20
33.34350393700787
 30
0.0
 11
44.98031496062992
 21
33.36220472440945
 31
0.0
  0
LINE
  5
361
330
1E
100
AcDbEntity
  8
3
100
AcDbLine
 10
44.98031496062992
 20
33.36220472440945
 30
0.0
 11
44.98031496062992
 21
33.37401574803149
 31
0.0
  0
LINE
  5
362
330
1E
100
AcDbEntity
  8
3
100
AcDbLine
 10
44.98031496062992
 20
33.37401574803149
 30
0.0
 11
44.98031496062992
 21
33.37893700787401
 31
0.0
  0
LINE
  5
363
330
1E
100
AcDbEntity
  8
3
100
AcDbLine
 10
44.98031496062992
 20
33.25393700787401
 30
0.0
 11
44.98031496062992
 21
33.25590551181102
 31
0.0
  0
LINE
  5
364
330
1E
100
AcDbEntity
  8
3
100
AcDbLine
 10
44.98031496062992
 20
33.25590551181102
 30
0.0
 11
44.98031496062992
 21
33.26279527559055
 31
0.0
  0
LINE
  5
365
330
1E
100
AcDbEntity
  8
3
100
AcDbLine
 10
45.1003937007874
 20
33.26279527559055
 30
0.0
 11
45.1003937007874
 21
33.34350393700787
 31
0.0
  0
LINE
  5
366
330
1E
100
AcDbEntity
  8
3
100
AcDbLine
 10
45.1003937007874
 20
33.34350393700787
 30
0.0
 11
44.98031496062992
 21
33.34350393700787
 31
0.0
  0
LINE
  5
367
330
1E
100
AcDbEntity
  8
3
100
AcDbLine
 10
46.57578740157481
 20
34.68503937007874
 30
0.0
 11
46.57578740157481
 21
34.71555118110236
 31
0.0
  0
LINE
  5
368
330
1E
100
AcDbEntity
  8
3
100
AcDbLine
 10
46.57578740157481
 20
34.71555118110236
 30
0.0
 11
46.57578740157481
 21
34.74507874015748
 31
0.0
  0
LINE
  5
369
330
1E
100
AcDbEntity
  8
3
100
AcDbLine
 10
46.57578740157481
 20
34.74507874015748
 30
0.0
 11
46.57578740157481
 21
34.76968503937007
 31
0.0
  0
LINE
  5
36A
330
1E
100
AcDbEntity
  8
3
100
AcDbLine
 10
46.57578740157481
 20
34.76968503937007
 30
0.0
 11
46.57578740157481
 21
34.78937007874015
 31
0.0
  0
LINE
  5
36B
330
1E
100
AcDbEntity
  8
3
100
AcDbLine
 10
46.57578740157481
 20
34.78937007874015
 30
0.0
 11
46.57578740157481
 21
34.80118110236221
 31
0.0
  0
LINE
  5
36C
330
1E
100
AcDbEntity
  8
3
100
AcDbLine
 10
46.57578740157481
 20
34.80118110236221
 30
0.0
 11
46.57578740157481
 21
34.80511811023622
 31
0.0
  0
LINE
  5
36D
330
1E
100
AcDbEntity
  8
3
100
AcDbLine
 10
46.57578740157481
 20
34.80511811023622
 30
0.0
 11
44.82578740157481
 21
34.80511811023622
 31
0.0
  0
LINE
  5
36E
330
1E
100
AcDbEntity
  8
3
100
AcDbLine
 10
46.57578740157481
 20
34.68503937007874
 30
0.0
 11
44.82578740157481
 21
34.68503937007874
 31
0.0
  0
LINE
  5
36F
330
1E
100
AcDbEntity
  8
3
100
AcDbLine
 10
44.82578740157481
 20
34.68503937007874
 30
0.0
 11
44.82578740157481
 21
34.71555118110236
 31
0.0
  0
LINE
  5
370
330
1E
100
AcDbEntity
  8
3
100
AcDbLine
 10
44.82578740157481
 20
34.71555118110236
 30
0.0
 11
44.82578740157481
 21
34.74507874015748
 31
0.0
  0
LINE
  5
371
330
1E
100
AcDbEntity
  8
3
100
AcDbLine
 10
44.82578740157481
 20
34.74507874015748
 30
0.0
 11
44.82578740157481
 21
34.76968503937007
 31
0.0
  0
LINE
  5
372
330
1E
100
AcDbEntity
  8
3
100
AcDbLine
 10
44.82578740157481
 20
34.76968503937007
 30
0.0
 11
44.82578740157481
 21
34.78937007874015
 31
0.0
  0
LINE
  5
373
330
1E
100
AcDbEntity
  8
3
100
AcDbLine
 10
44.82578740157481
 20
34.78937007874015
 30
0.0
 11
44.82578740157481
 21
34.80118110236221
 31
0.0
  0
LINE
  5
374
330
1E
100
AcDbEntity
  8
3
100
AcDbLine
 10
44.82578740157481
 20
34.80118110236221
 30
0.0
 11
44.82578740157481
 21
34.80511811023622
 31
0.0
  0
LINE
  5
375
330
1E
100
AcDbEntity
  8
3
100
AcDbLine
 10
44.82578740157481
 20
33.25393700787401
 30
0.0
 11
44.82578740157481
 21
33.25787401574803
 31
0.0
  0
LINE
  5
376
330
1E
100
AcDbEntity
  8
3
100
AcDbLine
 10
44.82578740157481
 20
33.25787401574803
 30
0.0
 11
44.82578740157481
 21
33.26870078740157
 31
0.0
  0
LINE
  5
377
330
1E
100
AcDbEntity
  8
3
100
AcDbLine
 10
44.82578740157481
 20
33.26870078740157
 30
0.0
 11
44.82578740157481
 21
33.28444881889764
 31
0.0
  0
LINE
  5
378
330
1E
100
AcDbEntity
  8
3
100
AcDbLine
 10
46.57578740157481
 20
33.25393700787401
 30
0.0
 11
46.57578740157481
 21
33.25787401574803
 31
0.0
  0
LINE
  5
379
330
1E
100
AcDbEntity
  8
3
100
AcDbLine
 10
46.57578740157481
 20
33.25787401574803
 30
0.0
 11
46.57578740157481
 21
33.26870078740157
 31
0.0
  0
LINE
  5
37A
330
1E
100
AcDbEntity
  8
3
100
AcDbLine
 10
46.57578740157481
 20
33.26870078740157
 30
0.0
 11
46.57578740157481
 21
33.28444881889764
 31
0.0
  0
LINE
  5
37B
330
1E
100
AcDbEntity
  8
3
100
AcDbLine
 10
46.53346456692914
 20
33.16437007874015
 30
0.0
 11
46.50295275590551
 21
33.16437007874015
 31
0.0
  0
LINE
  5
37C
330
1E
100
AcDbEntity
  8
3
100
AcDbLine
 10
46.50295275590551
 20
33.16437007874015
 30
0.0
 11
46.46456692913385
 21
33.16437007874015
 31
0.0
  0
LINE
  5
37D
330
1E
100
AcDbEntity
  8
3
100
AcDbLine
 10
46.46456692913385
 20
33.16437007874015
 30
0.0
 11
46.42125984251968
 21
33.16437007874015
 31
0.0
  0
LINE
  5
37E
330
1E
100
AcDbEntity
  8
3
100
AcDbLine
 10
46.42125984251968
 20
33.16437007874015
 30
0.0
 11
46.37401574803149
 21
33.16437007874015
 31
0.0
  0
LINE
  5
37F
330
1E
100
AcDbEntity
  8
3
100
AcDbLine
 10
46.37401574803149
 20
33.16437007874015
 30
0.0
 11
46.3257874015748
 21
33.16437007874015
 31
0.0
  0
LINE
  5
380
330
1E
100
AcDbEntity
  8
3
100
AcDbLine
 10
46.57578740157481
 20
33.16437007874015
 30
0.0
 11
46.57086614173228
 21
33.16437007874015
 31
0.0
  0
LINE
  5
381
330
1E
100
AcDbEntity
  8
3
100
AcDbLine
 10
46.57086614173228
 20
33.16437007874015
 30
0.0
 11
46.55708661417323
 21
33.16437007874015
 31
0.0
  0
LINE
  5
382
330
1E
100
AcDbEntity
  8
3
100
AcDbLine
 10
46.55708661417323
 20
33.16437007874015
 30
0.0
 11
46.53346456692914
 21
33.16437007874015
 31
0.0
  0
LINE
  5
383
330
1E
100
AcDbEntity
  8
3
100
AcDbLine
 10
45.0757874015748
 20
33.16437007874015
 30
0.0
 11
45.02657480314961
 21
33.16437007874015
 31
0.0
  0
LINE
  5
384
330
1E
100
AcDbEntity
  8
3
100
AcDbLine
 10
45.02657480314961
 20
33.16437007874015
 30
0.0
 11
44.98031496062992
 21
33.16437007874015
 31
0.0
  0
LINE
  5
385
330
1E
100
AcDbEntity
  8
3
100
AcDbLine
 10
44.98031496062992
 20
33.16437007874015
 30
0.0
 11
44.93700787401574
 21
33.16437007874015
 31
0.0
  0
LINE
  5
386
330
1E
100
AcDbEntity
  8
3
100
AcDbLine
 10
44.93700787401574
 20
33.16437007874015
 30
0.0
 11
44.89862204724409
 21
33.16437007874015
 31
0.0
  0
LINE
  5
387
330
1E
100
AcDbEntity
  8
3
100
AcDbLine
 10
44.89862204724409
 20
33.16437007874015
 30
0.0
 11
44.86811023622047
 21
33.16437007874015
 31
0.0
  0
LINE
  5
388
330
1E
100
AcDbEntity
  8
3
100
AcDbLine
 10
44.86811023622047
 20
33.16437007874015
 30
0.0
 11
44.84448818897638
 21
33.16437007874015
 31
0.0
  0
LINE
  5
389
330
1E
100
AcDbEntity
  8
3
100
AcDbLine
 10
44.84448818897638
 20
33.16437007874015
 30
0.0
 11
44.83070866141733
 21
33.16437007874015
 31
0.0
  0
LINE
  5
38A
330
1E
100
AcDbEntity
  8
3
100
AcDbLine
 10
44.83070866141733
 20
33.16437007874015
 30
0.0
 11
44.82578740157481
 21
33.16437007874015
 31
0.0
  0
LINE
  5
38B
330
1E
100
AcDbEntity
  8
3
100
AcDbLine
 10
46.3257874015748
 20
33.25393700787401
 30
0.0
 11
46.37401574803149
 21
33.25393700787401
 31
0.0
  0
LINE
  5
38C
330
1E
100
AcDbEntity
  8
3
100
AcDbLine
 10
46.37401574803149
 20
33.25393700787401
 30
0.0
 11
46.42125984251968
 21
33.25393700787401
 31
0.0
  0
LINE
  5
38D
330
1E
100
AcDbEntity
  8
3
100
AcDbLine
 10
46.42125984251968
 20
33.25393700787401
 30
0.0
 11
46.46456692913385
 21
33.25393700787401
 31
0.0
  0
LINE
  5
38E
330
1E
100
AcDbEntity
  8
3
100
AcDbLine
 10
46.46456692913385
 20
33.25393700787401
 30
0.0
 11
46.50295275590551
 21
33.25393700787401
 31
0.0
  0
LINE
  5
38F
330
1E
100
AcDbEntity
  8
3
100
AcDbLine
 10
46.50295275590551
 20
33.25393700787401
 30
0.0
 11
46.53346456692914
 21
33.25393700787401
 31
0.0
  0
LINE
  5
390
330
1E
100
AcDbEntity
  8
3
100
AcDbLine
 10
46.53346456692914
 20
33.25393700787401
 30
0.0
 11
46.55708661417323
 21
33.25393700787401
 31
0.0
  0
LINE
  5
391
330
1E
100
AcDbEntity
  8
3
100
AcDbLine
 10
46.55708661417323
 20
33.25393700787401
 30
0.0
 11
46.57086614173228
 21
33.25393700787401
 31
0.0
  0
LINE
  5
392
330
1E
100
AcDbEntity
  8
3
100
AcDbLine
 10
46.57086614173228
 20
33.25393700787401
 30
0.0
 11
46.57578740157481
 21
33.25393700787401
 31
0.0
  0
LINE
  5
393
330
1E
100
AcDbEntity
  8
3
100
AcDbLine
 10
44.93700787401574
 20
33.25393700787401
 30
0.0
 11
44.98031496062992
 21
33.25393700787401
 31
0.0
  0
LINE
  5
394
330
1E
100
AcDbEntity
  8
3
100
AcDbLine
 10
44.98031496062992
 20
33.25393700787401
 30
0.0
 11
45.02657480314961
 21
33.25393700787401
 31
0.0
  0
LINE
  5
395
330
1E
100
AcDbEntity
  8
3
100
AcDbLine
 10
45.02657480314961
 20
33.25393700787401
 30
0.0
 11
45.0757874015748
 21
33.25393700787401
 31
0.0
  0
LINE
  5
396
330
1E
100
AcDbEntity
  8
3
100
AcDbLine
 10
44.82578740157481
 20
33.25393700787401
 30
0.0
 11
44.83070866141733
 21
33.25393700787401
 31
0.0
  0
LINE
  5
397
330
1E
100
AcDbEntity
  8
3
100
AcDbLine
 10
44.83070866141733
 20
33.25393700787401
 30
0.0
 11
44.84448818897638
 21
33.25393700787401
 31
0.0
  0
LINE
  5
398
330
1E
100
AcDbEntity
  8
3
100
AcDbLine
 10
44.84448818897638
 20
33.25393700787401
 30
0.0
 11
44.86811023622047
 21
33.25393700787401
 31
0.0
  0
LINE
  5
399
330
1E
100
AcDbEntity
  8
3
100
AcDbLine
 10
44.86811023622047
 20
33.25393700787401
 30
0.0
 11
44.89862204724409
 21
33.25393700787401
 31
0.0
  0
LINE
  5
39A
330
1E
100
AcDbEntity
  8
3
100
AcDbLine
 10
44.89862204724409
 20
33.25393700787401
 30
0.0
 11
44.93700787401574
 21
33.25393700787401
 31
0.0
  0
LINE
  5
39B
330
1E
100
AcDbEntity
  8
3
100
AcDbLine
 10
39.89173228346457
 20
33.34251968503937
 30
0.0
 11
39.86712598425197
 21
33.36220472440945
 31
0.0
  0
LINE
  5
39C
330
1E
100
AcDbEntity
  8
3
100
AcDbLine
 10
39.86712598425197
 20
33.36220472440945
 30
0.0
 11
39.83858267716535
 21
33.37401574803149
 31
0.0
  0
LINE
  5
39D
330
1E
100
AcDbEntity
  8
3
100
AcDbLine
 10
39.83858267716535
 20
33.37401574803149
 30
0.0
 11
39.80708661417322
 21
33.37795275590551
 31
0.0
  0
LINE
  5
39E
330
1E
100
AcDbEntity
  8
3
100
AcDbLine
 10
39.97342519685039
 20
33.26279527559055
 30
0.0
 11
39.98326771653543
 21
33.25590551181102
 31
0.0
  0
LINE
  5
39F
330
1E
100
AcDbEntity
  8
3
100
AcDbLine
 10
39.98326771653543
 20
33.25590551181102
 30
0.0
 11
39.99507874015748
 21
33.25393700787401
 31
0.0
  0
LINE
  5
3A0
330
1E
100
AcDbEntity
  8
3
100
AcDbLine
 10
39.82874015748032
 20
33.27952755905512
 30
0.0
 11
39.81889763779527
 21
33.28641732283464
 31
0.0
  0
LINE
  5
3A1
330
1E
100
AcDbEntity
  8
3
100
AcDbLine
 10
39.81889763779527
 20
33.28641732283464
 30
0.0
 11
39.80708661417322
 21
33.28838582677165
 31
0.0
  0
LINE
  5
3A2
330
1E
100
AcDbEntity
  8
3
100
AcDbLine
 10
39.70177165354331
 20
33.28838582677165
 30
0.0
 11
39.68996062992125
 21
33.28641732283464
 31
0.0
  0
LINE
  5
3A3
330
1E
100
AcDbEntity
  8
3
100
AcDbLine
 10
39.68996062992125
 20
33.28641732283464
 30
0.0
 11
39.68011811023622
 21
33.27952755905512
 31
0.0
  0
LINE
  5
3A4
330
1E
100
AcDbEntity
  8
3
100
AcDbLine
 10
39.51377952755906
 20
33.25393700787401
 30
0.0
 11
39.5255905511811
 21
33.25590551181102
 31
0.0
  0
LINE
  5
3A5
330
1E
100
AcDbEntity
  8
3
100
AcDbLine
 10
39.5255905511811
 20
33.25590551181102
 30
0.0
 11
39.53543307086615
 21
33.26279527559055
 31
0.0
  0
LINE
  5
3A6
330
1E
100
AcDbEntity
  8
3
100
AcDbLine
 10
39.70177165354331
 20
33.37795275590551
 30
0.0
 11
39.67027559055118
 21
33.37401574803149
 31
0.0
  0
LINE
  5
3A7
330
1E
100
AcDbEntity
  8
3
100
AcDbLine
 10
39.67027559055118
 20
33.37401574803149
 30
0.0
 11
39.64173228346457
 21
33.36220472440945
 31
0.0
  0
LINE
  5
3A8
330
1E
100
AcDbEntity
  8
3
100
AcDbLine
 10
39.64173228346457
 20
33.36220472440945
 30
0.0
 11
39.61712598425197
 21
33.34251968503937
 31
0.0
  0
LINE
  5
3A9
330
1E
100
AcDbEntity
  8
3
100
AcDbLine
 10
36.65944881889763
 20
34.80511811023622
 30
0.0
 11
36.66437007874016
 21
34.80511811023622
 31
0.0
  0
LINE
  5
3AA
330
1E
100
AcDbEntity
  8
3
100
AcDbLine
 10
36.66437007874016
 20
34.80511811023622
 30
0.0
 11
36.67814960629921
 21
34.80511811023622
 31
0.0
  0
LINE
  5
3AB
330
1E
100
AcDbEntity
  8
3
100
AcDbLine
 10
36.67814960629921
 20
34.80511811023622
 30
0.0
 11
36.70177165354331
 21
34.80511811023622
 31
0.0
  0
LINE
  5
3AC
330
1E
100
AcDbEntity
  8
3
100
AcDbLine
 10
36.70177165354331
 20
34.80511811023622
 30
0.0
 11
36.73228346456693
 21
34.80511811023622
 31
0.0
  0
LINE
  5
3AD
330
1E
100
AcDbEntity
  8
3
100
AcDbLine
 10
36.73228346456693
 20
34.80511811023622
 30
0.0
 11
36.77066929133858
 21
34.80511811023622
 31
0.0
  0
LINE
  5
3AE
330
1E
100
AcDbEntity
  8
3
100
AcDbLine
 10
36.77066929133858
 20
34.80511811023622
 30
0.0
 11
36.81397637795275
 21
34.80511811023622
 31
0.0
  0
LINE
  5
3AF
330
1E
100
AcDbEntity
  8
3
100
AcDbLine
 10
36.81397637795275
 20
34.80511811023622
 30
0.0
 11
36.86023622047244
 21
34.80511811023622
 31
0.0
  0
LINE
  5
3B0
330
1E
100
AcDbEntity
  8
3
100
AcDbLine
 10
36.86023622047244
 20
34.80511811023622
 30
0.0
 11
36.90944881889763
 21
34.80511811023622
 31
0.0
  0
LINE
  5
3B1
330
1E
100
AcDbEntity
  8
3
100
AcDbLine
 10
36.70177165354331
 20
34.71555118110236
 30
0.0
 11
36.67814960629921
 21
34.71555118110236
 31
0.0
  0
LINE
  5
3B2
330
1E
100
AcDbEntity
  8
3
100
AcDbLine
 10
36.67814960629921
 20
34.71555118110236
 30
0.0
 11
36.66437007874016
 21
34.71555118110236
 31
0.0
  0
LINE
  5
3B3
330
1E
100
AcDbEntity
  8
3
100
AcDbLine
 10
36.66437007874016
 20
34.71555118110236
 30
0.0
 11
36.65944881889763
 21
34.71555118110236
 31
0.0
  0
LINE
  5
3B4
330
1E
100
AcDbEntity
  8
3
100
AcDbLine
 10
38.02657480314961
 20
34.71555118110236
 30
0.0
 11
36.90944881889763
 21
34.71555118110236
 31
0.0
  0
LINE
  5
3B5
330
1E
100
AcDbEntity
  8
3
100
AcDbLine
 10
36.90944881889763
 20
34.71555118110236
 30
0.0
 11
36.86023622047244
 21
34.71555118110236
 31
0.0
  0
LINE
  5
3B6
330
1E
100
AcDbEntity
  8
3
100
AcDbLine
 10
36.86023622047244
 20
34.71555118110236
 30
0.0
 11
36.81397637795275
 21
34.71555118110236
 31
0.0
  0
LINE
  5
3B7
330
1E
100
AcDbEntity
  8
3
100
AcDbLine
 10
36.81397637795275
 20
34.71555118110236
 30
0.0
 11
36.77066929133858
 21
34.71555118110236
 31
0.0
  0
LINE
  5
3B8
330
1E
100
AcDbEntity
  8
3
100
AcDbLine
 10
36.77066929133858
 20
34.71555118110236
 30
0.0
 11
36.73228346456693
 21
34.71555118110236
 31
0.0
  0
LINE
  5
3B9
330
1E
100
AcDbEntity
  8
3
100
AcDbLine
 10
36.73228346456693
 20
34.71555118110236
 30
0.0
 11
36.70177165354331
 21
34.71555118110236
 31
0.0
  0
LINE
  5
3BA
330
1E
100
AcDbEntity
  8
3
100
AcDbLine
 10
38.02657480314961
 20
34.80511811023622
 30
0.0
 11
36.90944881889763
 21
34.80511811023622
 31
0.0
  0
LINE
  5
3BB
330
1E
100
AcDbEntity
  8
3
100
AcDbLine
 10
36.90944881889763
 20
34.80511811023622
 30
0.0
 11
36.90944881889763
 21
34.71555118110236
 31
0.0
  0
LINE
  5
3BC
330
1E
100
AcDbEntity
  8
3
100
AcDbLine
 10
38.05314960629921
 20
34.69980314960629
 30
0.0
 11
38.04232283464567
 21
34.71161417322834
 31
0.0
  0
LINE
  5
3BD
330
1E
100
AcDbEntity
  8
3
100
AcDbLine
 10
38.04232283464567
 20
34.71161417322834
 30
0.0
 11
38.02657480314961
 21
34.71555118110236
 31
0.0
  0
LINE
  5
3BE
330
1E
100
AcDbEntity
  8
3
100
AcDbLine
 10
38.14665354330708
 20
34.68503937007874
 30
0.0
 11
38.14271653543307
 21
34.71653543307086
 31
0.0
  0
LINE
  5
3BF
330
1E
100
AcDbEntity
  8
3
100
AcDbLine
 10
38.14271653543307
 20
34.71653543307086
 30
0.0
 11
38.13090551181102
 21
34.74507874015748
 31
0.0
  0
LINE
  5
3C0
330
1E
100
AcDbEntity
  8
3
100
AcDbLine
 10
38.13090551181102
 20
34.74507874015748
 30
0.0
 11
38.11122047244094
 21
34.76968503937007
 31
0.0
  0
LINE
  5
3C1
330
1E
100
AcDbEntity
  8
3
100
AcDbLine
 10
38.11122047244094
 20
34.76968503937007
 30
0.0
 11
38.08661417322834
 21
34.78937007874015
 31
0.0
  0
LINE
  5
3C2
330
1E
100
AcDbEntity
  8
3
100
AcDbLine
 10
38.08661417322834
 20
34.78937007874015
 30
0.0
 11
38.05807086614173
 21
34.80118110236221
 31
0.0
  0
LINE
  5
3C3
330
1E
100
AcDbEntity
  8
3
100
AcDbLine
 10
38.05807086614173
 20
34.80118110236221
 30
0.0
 11
38.02657480314961
 21
34.80511811023622
 31
0.0
  0
LINE
  5
3C4
330
1E
100
AcDbEntity
  8
3
100
AcDbLine
 10
38.14665354330708
 20
33.28444881889764
 30
0.0
 11
38.14665354330708
 21
34.68503937007874
 31
0.0
  0
LINE
  5
3C5
330
1E
100
AcDbEntity
  8
3
100
AcDbLine
 10
38.14665354330708
 20
34.68503937007874
 30
0.0
 11
38.05708661417323
 21
34.68503937007874
 31
0.0
  0
LINE
  5
3C6
330
1E
100
AcDbEntity
  8
3
100
AcDbLine
 10
38.05807086614173
 20
33.28444881889764
 30
0.0
 11
38.06200787401575
 21
33.25295275590551
 31
0.0
  0
LINE
  5
3C7
330
1E
100
AcDbEntity
  8
3
100
AcDbLine
 10
38.06200787401575
 20
33.25295275590551
 30
0.0
 11
38.0738188976378
 21
33.22440944881889
 31
0.0
  0
LINE
  5
3C8
330
1E
100
AcDbEntity
  8
3
100
AcDbLine
 10
38.0738188976378
 20
33.22440944881889
 30
0.0
 11
38.09350393700787
 21
33.19980314960629
 31
0.0
  0
LINE
  5
3C9
330
1E
100
AcDbEntity
  8
3
100
AcDbLine
 10
38.09350393700787
 20
33.19980314960629
 30
0.0
 11
38.11811023622047
 21
33.18011811023622
 31
0.0
  0
LINE
  5
3CA
330
1E
100
AcDbEntity
  8
3
100
AcDbLine
 10
38.11811023622047
 20
33.18011811023622
 30
0.0
 11
38.14665354330708
 21
33.16830708661417
 31
0.0
  0
LINE
  5
3CB
330
1E
100
AcDbEntity
  8
3
100
AcDbLine
 10
38.14665354330708
 20
33.16830708661417
 30
0.0
 11
38.17814960629921
 21
33.16437007874015
 31
0.0
  0
LINE
  5
3CC
330
1E
100
AcDbEntity
  8
3
100
AcDbLine
 10
38.14763779527559
 20
33.28444881889764
 30
0.0
 11
38.1515748031496
 21
33.26968503937007
 31
0.0
  0
LINE
  5
3CD
330
1E
100
AcDbEntity
  8
3
100
AcDbLine
 10
38.1515748031496
 20
33.26968503937007
 30
0.0
 11
38.16240157480315
 21
33.25787401574803
 31
0.0
  0
LINE
  5
3CE
330
1E
100
AcDbEntity
  8
3
100
AcDbLine
 10
38.16240157480315
 20
33.25787401574803
 30
0.0
 11
38.17814960629921
 21
33.25393700787401
 31
0.0
  0
LINE
  5
3CF
330
1E
100
AcDbEntity
  8
3
100
AcDbLine
 10
40.36811023622047
 20
33.16437007874015
 30
0.0
 11
40.36318897637795
 21
33.16437007874015
 31
0.0
  0
LINE
  5
3D0
330
1E
100
AcDbEntity
  8
3
100
AcDbLine
 10
40.36318897637795
 20
33.16437007874015
 30
0.0
 11
40.3494094488189
 21
33.16437007874015
 31
0.0
  0
LINE
  5
3D1
330
1E
100
AcDbEntity
  8
3
100
AcDbLine
 10
40.3494094488189
 20
33.16437007874015
 30
0.0
 11
40.32578740157481
 21
33.16437007874015
 31
0.0
  0
LINE
  5
3D2
330
1E
100
AcDbEntity
  8
3
100
AcDbLine
 10
40.32578740157481
 20
33.16437007874015
 30
0.0
 11
40.29527559055118
 21
33.16437007874015
 31
0.0
  0
LINE
  5
3D3
330
1E
100
AcDbEntity
  8
3
100
AcDbLine
 10
40.29527559055118
 20
33.16437007874015
 30
0.0
 11
40.25688976377952
 21
33.16437007874015
 31
0.0
  0
LINE
  5
3D4
330
1E
100
AcDbEntity
  8
3
100
AcDbLine
 10
40.25688976377952
 20
33.16437007874015
 30
0.0
 11
40.21358267716535
 21
33.16437007874015
 31
0.0
  0
LINE
  5
3D5
330
1E
100
AcDbEntity
  8
3
100
AcDbLine
 10
40.21358267716535
 20
33.16437007874015
 30
0.0
 11
40.16633858267717
 21
33.16437007874015
 31
0.0
  0
LINE
  5
3D6
330
1E
100
AcDbEntity
  8
3
100
AcDbLine
 10
40.16633858267717
 20
33.16437007874015
 30
0.0
 11
40.11811023622047
 21
33.16437007874015
 31
0.0
  0
LINE
  5
3D7
330
1E
100
AcDbEntity
  8
3
100
AcDbLine
 10
40.11811023622047
 20
33.25393700787401
 30
0.0
 11
40.16633858267717
 21
33.25393700787401
 31
0.0
  0
LINE
  5
3D8
330
1E
100
AcDbEntity
  8
3
100
AcDbLine
 10
40.16633858267717
 20
33.25393700787401
 30
0.0
 11
40.21358267716535
 21
33.25393700787401
 31
0.0
  0
LINE
  5
3D9
330
1E
100
AcDbEntity
  8
3
100
AcDbLine
 10
40.21358267716535
 20
33.25393700787401
 30
0.0
 11
40.25688976377952
 21
33.25393700787401
 31
0.0
  0
LINE
  5
3DA
330
1E
100
AcDbEntity
  8
3
100
AcDbLine
 10
40.25688976377952
 20
33.25393700787401
 30
0.0
 11
40.29527559055118
 21
33.25393700787401
 31
0.0
  0
LINE
  5
3DB
330
1E
100
AcDbEntity
  8
3
100
AcDbLine
 10
40.29527559055118
 20
33.25393700787401
 30
0.0
 11
40.32578740157481
 21
33.25393700787401
 31
0.0
  0
LINE
  5
3DC
330
1E
100
AcDbEntity
  8
3
100
AcDbLine
 10
40.32578740157481
 20
33.25393700787401
 30
0.0
 11
40.3494094488189
 21
33.25393700787401
 31
0.0
  0
LINE
  5
3DD
330
1E
100
AcDbEntity
  8
3
100
AcDbLine
 10
40.3494094488189
 20
33.25393700787401
 30
0.0
 11
40.36318897637795
 21
33.25393700787401
 31
0.0
  0
LINE
  5
3DE
330
1E
100
AcDbEntity
  8
3
100
AcDbLine
 10
40.36318897637795
 20
33.25393700787401
 30
0.0
 11
40.36811023622047
 21
33.25393700787401
 31
0.0
  0
LINE
  5
3DF
330
1E
100
AcDbEntity
  8
3
100
AcDbLine
 10
39.51377952755906
 20
39.05511811023622
 30
0.0
 11
39.5255905511811
 21
39.05511811023622
 31
0.0
  0
LINE
  5
3E0
330
1E
100
AcDbEntity
  8
3
100
AcDbLine
 10
39.5255905511811
 20
39.05511811023622
 30
0.0
 11
39.53543307086615
 21
39.05511811023622
 31
0.0
  0
LINE
  5
3E1
330
1E
100
AcDbEntity
  8
3
100
AcDbLine
 10
39.53543307086615
 20
39.05511811023622
 30
0.0
 11
39.53543307086615
 21
38.93503937007874
 31
0.0
  0
LINE
  5
3E2
330
1E
100
AcDbEntity
  8
3
100
AcDbLine
 10
39.80708661417322
 20
39.05511811023622
 30
0.0
 11
39.83858267716535
 21
39.05511811023622
 31
0.0
  0
LINE
  5
3E3
330
1E
100
AcDbEntity
  8
3
100
AcDbLine
 10
39.83858267716535
 20
39.05511811023622
 30
0.0
 11
39.86811023622047
 21
39.05511811023622
 31
0.0
  0
LINE
  5
3E4
330
1E
100
AcDbEntity
  8
3
100
AcDbLine
 10
39.86811023622047
 20
39.05511811023622
 30
0.0
 11
39.89271653543307
 21
39.05511811023622
 31
0.0
  0
LINE
  5
3E5
330
1E
100
AcDbEntity
  8
3
100
AcDbLine
 10
39.61614173228346
 20
39.05511811023622
 30
0.0
 11
39.64173228346457
 21
39.05511811023622
 31
0.0
  0
LINE
  5
3E6
330
1E
100
AcDbEntity
  8
3
100
AcDbLine
 10
39.64173228346457
 20
39.05511811023622
 30
0.0
 11
39.67027559055118
 21
39.05511811023622
 31
0.0
  0
LINE
  5
3E7
330
1E
100
AcDbEntity
  8
3
100
AcDbLine
 10
39.67027559055118
 20
39.05511811023622
 30
0.0
 11
39.70177165354331
 21
39.05511811023622
 31
0.0
  0
LINE
  5
3E8
330
1E
100
AcDbEntity
  8
3
100
AcDbLine
 10
39.89271653543307
 20
38.93503937007874
 30
0.0
 11
39.86811023622047
 21
38.93503937007874
 31
0.0
  0
LINE
  5
3E9
330
1E
100
AcDbEntity
  8
3
100
AcDbLine
 10
39.86811023622047
 20
38.93503937007874
 30
0.0
 11
39.83858267716535
 21
38.93503937007874
 31
0.0
  0
LINE
  5
3EA
330
1E
100
AcDbEntity
  8
3
100
AcDbLine
 10
39.83858267716535
 20
38.93503937007874
 30
0.0
 11
39.80708661417322
 21
38.93503937007874
 31
0.0
  0
LINE
  5
3EB
330
1E
100
AcDbEntity
  8
3
100
AcDbLine
 10
39.99507874015748
 20
38.93503937007874
 30
0.0
 11
39.98326771653543
 21
38.93503937007874
 31
0.0
  0
LINE
  5
3EC
330
1E
100
AcDbEntity
  8
3
100
AcDbLine
 10
39.98326771653543
 20
38.93503937007874
 30
0.0
 11
39.97342519685039
 21
38.93503937007874
 31
0.0
  0
LINE
  5
3ED
330
1E
100
AcDbEntity
  8
3
100
AcDbLine
 10
39.53543307086615
 20
38.93503937007874
 30
0.0
 11
39.5255905511811
 21
38.93503937007874
 31
0.0
  0
LINE
  5
3EE
330
1E
100
AcDbEntity
  8
3
100
AcDbLine
 10
39.5255905511811
 20
38.93503937007874
 30
0.0
 11
39.51377952755906
 21
38.93503937007874
 31
0.0
  0
LINE
  5
3EF
330
1E
100
AcDbEntity
  8
3
100
AcDbLine
 10
39.70177165354331
 20
38.93503937007874
 30
0.0
 11
39.67027559055118
 21
38.93503937007874
 31
0.0
  0
LINE
  5
3F0
330
1E
100
AcDbEntity
  8
3
100
AcDbLine
 10
39.67027559055118
 20
38.93503937007874
 30
0.0
 11
39.64173228346457
 21
38.93503937007874
 31
0.0
  0
LINE
  5
3F1
330
1E
100
AcDbEntity
  8
3
100
AcDbLine
 10
39.64173228346457
 20
38.93503937007874
 30
0.0
 11
39.61614173228346
 21
38.93503937007874
 31
0.0
  0
LINE
  5
3F2
330
1E
100
AcDbEntity
  8
3
100
AcDbLine
 10
39.97342519685039
 20
39.05511811023622
 30
0.0
 11
39.89271653543307
 21
39.05511811023622
 31
0.0
  0
LINE
  5
3F3
330
1E
100
AcDbEntity
  8
3
100
AcDbLine
 10
39.89271653543307
 20
39.05511811023622
 30
0.0
 11
39.89271653543307
 21
38.93503937007874
 31
0.0
  0
LINE
  5
3F4
330
1E
100
AcDbEntity
  8
3
100
AcDbLine
 10
36.90944881889763
 20
40.53051181102362
 30
0.0
 11
36.86023622047244
 21
40.52559055118109
 31
0.0
  0
LINE
  5
3F5
330
1E
100
AcDbEntity
  8
3
100
AcDbLine
 10
36.86023622047244
 20
40.52559055118109
 30
0.0
 11
36.81397637795275
 21
40.51181102362204
 31
0.0
  0
LINE
  5
3F6
330
1E
100
AcDbEntity
  8
3
100
AcDbLine
 10
36.81397637795275
 20
40.51181102362204
 30
0.0
 11
36.77066929133858
 21
40.48818897637795
 31
0.0
  0
LINE
  5
3F7
330
1E
100
AcDbEntity
  8
3
100
AcDbLine
 10
36.77066929133858
 20
40.48818897637795
 30
0.0
 11
36.73228346456693
 21
40.45767716535432
 31
0.0
  0
LINE
  5
3F8
330
1E
100
AcDbEntity
  8
3
100
AcDbLine
 10
36.73228346456693
 20
40.45767716535432
 30
0.0
 11
36.70177165354331
 21
40.41929133858268
 31
0.0
  0
LINE
  5
3F9
330
1E
100
AcDbEntity
  8
3
100
AcDbLine
 10
36.70177165354331
 20
40.41929133858268
 30
0.0
 11
36.67814960629921
 21
40.3759842519685
 31
0.0
  0
LINE
  5
3FA
330
1E
100
AcDbEntity
  8
3
100
AcDbLine
 10
36.67814960629921
 20
40.3759842519685
 30
0.0
 11
36.66437007874016
 21
40.32972440944881
 31
0.0
  0
LINE
  5
3FB
330
1E
100
AcDbEntity
  8
3
100
AcDbLine
 10
36.66437007874016
 20
40.32972440944881
 30
0.0
 11
36.65944881889763
 21
40.28051181102362
 31
0.0
  0
LINE
  5
3FC
330
1E
100
AcDbEntity
  8
3
100
AcDbLine
 10
36.65944881889763
 20
39.03051181102362
 30
0.0
 11
36.66437007874016
 21
38.98129921259842
 31
0.0
  0
LINE
  5
3FD
330
1E
100
AcDbEntity
  8
3
100
AcDbLine
 10
36.66437007874016
 20
38.98129921259842
 30
0.0
 11
36.67814960629921
 21
38.93503937007874
 31
0.0
  0
LINE
  5
3FE
330
1E
100
AcDbEntity
  8
3
100
AcDbLine
 10
36.67814960629921
 20
38.93503937007874
 30
0.0
 11
36.70177165354331
 21
38.89173228346456
 31
0.0
  0
LINE
  5
3FF
330
1E
100
AcDbEntity
  8
3
100
AcDbLine
 10
36.70177165354331
 20
38.89173228346456
 30
0.0
 11
36.73228346456693
 21
38.85334645669291
 31
0.0
  0
LINE
  5
400
330
1E
100
AcDbEntity
  8
3
100
AcDbLine
 10
36.73228346456693
 20
38.85334645669291
 30
0.0
 11
36.77066929133858
 21
38.82283464566929
 31
0.0
  0
LINE
  5
401
330
1E
100
AcDbEntity
  8
3
100
AcDbLine
 10
36.77066929133858
 20
38.82283464566929
 30
0.0
 11
36.81397637795275
 21
38.7992125984252
 31
0.0
  0
LINE
  5
402
330
1E
100
AcDbEntity
  8
3
100
AcDbLine
 10
36.81397637795275
 20
38.7992125984252
 30
0.0
 11
36.86023622047244
 21
38.78543307086614
 31
0.0
  0
LINE
  5
403
330
1E
100
AcDbEntity
  8
3
100
AcDbLine
 10
36.86023622047244
 20
38.78543307086614
 30
0.0
 11
36.90944881889763
 21
38.78051181102362
 31
0.0
  0
LINE
  5
404
330
1E
100
AcDbEntity
  8
3
100
AcDbLine
 10
37.06889763779528
 20
38.89074803149606
 30
0.0
 11
37.10236220472441
 21
38.89468503937007
 31
0.0
  0
LINE
  5
405
330
1E
100
AcDbEntity
  8
3
100
AcDbLine
 10
37.10236220472441
 20
38.89468503937007
 30
0.0
 11
37.13385826771654
 21
38.90649606299212
 31
0.0
  0
LINE
  5
406
330
1E
100
AcDbEntity
  8
3
100
AcDbLine
 10
37.13385826771654
 20
38.90649606299212
 30
0.0
 11
37.16141732283465
 21
38.9261811023622
 31
0.0
  0
LINE
  5
407
330
1E
100
AcDbEntity
  8
3
100
AcDbLine
 10
37.16141732283465
 20
38.9261811023622
 30
0.0
 11
37.18405511811023
 21
38.9507874015748
 31
0.0
  0
LINE
  5
408
330
1E
100
AcDbEntity
  8
3
100
AcDbLine
 10
37.18405511811023
 20
38.9507874015748
 30
0.0
 11
37.1998031496063
 21
38.98129921259842
 31
0.0
  0
LINE
  5
409
330
1E
100
AcDbEntity
  8
3
100
AcDbLine
 10
37.1998031496063
 20
38.98129921259842
 30
0.0
 11
37.20767716535433
 21
39.01377952755905
 31
0.0
  0
LINE
  5
40A
330
1E
100
AcDbEntity
  8
3
100
AcDbLine
 10
37.20767716535433
 20
39.01377952755905
 30
0.0
 11
37.20767716535433
 21
39.04724409448819
 31
0.0
  0
LINE
  5
40B
330
1E
100
AcDbEntity
  8
3
100
AcDbLine
 10
37.20767716535433
 20
39.04724409448819
 30
0.0
 11
37.1998031496063
 21
39.07972440944881
 31
0.0
  0
LINE
  5
40C
330
1E
100
AcDbEntity
  8
3
100
AcDbLine
 10
37.1998031496063
 20
39.07972440944881
 30
0.0
 11
37.18405511811023
 21
39.11023622047244
 31
0.0
  0
LINE
  5
40D
330
1E
100
AcDbEntity
  8
3
100
AcDbLine
 10
37.18405511811023
 20
39.11023622047244
 30
0.0
 11
37.16141732283465
 21
39.13484251968503
 31
0.0
  0
LINE
  5
40E
330
1E
100
AcDbEntity
  8
3
100
AcDbLine
 10
37.16141732283465
 20
39.13484251968503
 30
0.0
 11
37.13385826771654
 21
39.15452755905512
 31
0.0
  0
LINE
  5
40F
330
1E
100
AcDbEntity
  8
3
100
AcDbLine
 10
37.13385826771654
 20
39.15452755905512
 30
0.0
 11
37.10236220472441
 21
39.16633858267716
 31
0.0
  0
LINE
  5
410
330
1E
100
AcDbEntity
  8
3
100
AcDbLine
 10
37.10236220472441
 20
39.16633858267716
 30
0.0
 11
37.06889763779528
 21
39.17027559055118
 31
0.0
  0
LINE
  5
411
330
1E
100
AcDbEntity
  8
3
100
AcDbLine
 10
36.81397637795275
 20
39.11023622047244
 30
0.0
 11
36.79822834645669
 21
39.07972440944881
 31
0.0
  0
LINE
  5
412
330
1E
100
AcDbEntity
  8
3
100
AcDbLine
 10
36.79822834645669
 20
39.07972440944881
 30
0.0
 11
36.79035433070867
 21
39.04724409448819
 31
0.0
  0
LINE
  5
413
330
1E
100
AcDbEntity
  8
3
100
AcDbLine
 10
36.79035433070867
 20
39.04724409448819
 30
0.0
 11
36.79035433070867
 21
39.01377952755905
 31
0.0
  0
LINE
  5
414
330
1E
100
AcDbEntity
  8
3
100
AcDbLine
 10
36.79035433070867
 20
39.01377952755905
 30
0.0
 11
36.79822834645669
 21
38.98129921259842
 31
0.0
  0
LINE
  5
415
330
1E
100
AcDbEntity
  8
3
100
AcDbLine
 10
36.79822834645669
 20
38.98129921259842
 30
0.0
 11
36.81397637795275
 21
38.9507874015748
 31
0.0
  0
LINE
  5
416
330
1E
100
AcDbEntity
  8
3
100
AcDbLine
 10
36.81397637795275
 20
38.9507874015748
 30
0.0
 11
36.83661417322834
 21
38.9261811023622
 31
0.0
  0
LINE
  5
417
330
1E
100
AcDbEntity
  8
3
100
AcDbLine
 10
36.83661417322834
 20
38.9261811023622
 30
0.0
 11
36.86417322834646
 21
38.90649606299212
 31
0.0
  0
LINE
  5
418
330
1E
100
AcDbEntity
  8
3
100
AcDbLine
 10
36.86417322834646
 20
38.90649606299212
 30
0.0
 11
36.89566929133858
 21
38.89468503937007
 31
0.0
  0
LINE
  5
419
330
1E
100
AcDbEntity
  8
3
100
AcDbLine
 10
36.89566929133858
 20
38.89468503937007
 30
0.0
 11
36.92913385826772
 21
38.89074803149606
 31
0.0
  0
LINE
  5
41A
330
1E
100
AcDbEntity
  8
3
100
AcDbLine
 10
36.92913385826772
 20
39.17027559055118
 30
0.0
 11
36.89566929133858
 21
39.16633858267716
 31
0.0
  0
LINE
  5
41B
330
1E
100
AcDbEntity
  8
3
100
AcDbLine
 10
36.89566929133858
 20
39.16633858267716
 30
0.0
 11
36.86417322834646
 21
39.15452755905512
 31
0.0
  0
LINE
  5
41C
330
1E
100
AcDbEntity
  8
3
100
AcDbLine
 10
36.86417322834646
 20
39.15452755905512
 30
0.0
 11
36.83661417322834
 21
39.13484251968503
 31
0.0
  0
LINE
  5
41D
330
1E
100
AcDbEntity
  8
3
100
AcDbLine
 10
36.83661417322834
 20
39.13484251968503
 30
0.0
 11
36.81397637795275
 21
39.11023622047244
 31
0.0
  0
LINE
  5
41E
330
1E
100
AcDbEntity
  8
3
100
AcDbLine
 10
37.13385826771654
 20
39.77952755905512
 30
0.0
 11
37.10236220472441
 21
39.79133858267716
 31
0.0
  0
LINE
  5
41F
330
1E
100
AcDbEntity
  8
3
100
AcDbLine
 10
37.10236220472441
 20
39.79133858267716
 30
0.0
 11
37.06889763779528
 21
39.79527559055118
 31
0.0
  0
LINE
  5
420
330
1E
100
AcDbEntity
  8
3
100
AcDbLine
 10
37.06889763779528
 20
39.51574803149606
 30
0.0
 11
37.10236220472441
 21
39.51968503937007
 31
0.0
  0
LINE
  5
421
330
1E
100
AcDbEntity
  8
3
100
AcDbLine
 10
37.10236220472441
 20
39.51968503937007
 30
0.0
 11
37.13385826771654
 21
39.53149606299212
 31
0.0
  0
LINE
  5
422
330
1E
100
AcDbEntity
  8
3
100
AcDbLine
 10
37.13385826771654
 20
39.53149606299212
 30
0.0
 11
37.16141732283465
 21
39.5511811023622
 31
0.0
  0
LINE
  5
423
330
1E
100
AcDbEntity
  8
3
100
AcDbLine
 10
37.16141732283465
 20
39.5511811023622
 30
0.0
 11
37.18405511811023
 21
39.5757874015748
 31
0.0
  0
LINE
  5
424
330
1E
100
AcDbEntity
  8
3
100
AcDbLine
 10
37.18405511811023
 20
39.5757874015748
 30
0.0
 11
37.1998031496063
 21
39.60629921259842
 31
0.0
  0
LINE
  5
425
330
1E
100
AcDbEntity
  8
3
100
AcDbLine
 10
37.1998031496063
 20
39.60629921259842
 30
0.0
 11
37.20767716535433
 21
39.63877952755905
 31
0.0
  0
LINE
  5
426
330
1E
100
AcDbEntity
  8
3
100
AcDbLine
 10
37.20767716535433
 20
39.63877952755905
 30
0.0
 11
37.20767716535433
 21
39.67224409448819
 31
0.0
  0
LINE
  5
427
330
1E
100
AcDbEntity
  8
3
100
AcDbLine
 10
37.20767716535433
 20
39.67224409448819
 30
0.0
 11
37.1998031496063
 21
39.70472440944881
 31
0.0
  0
LINE
  5
428
330
1E
100
AcDbEntity
  8
3
100
AcDbLine
 10
37.1998031496063
 20
39.70472440944881
 30
0.0
 11
37.18405511811023
 21
39.73523622047244
 31
0.0
  0
LINE
  5
429
330
1E
100
AcDbEntity
  8
3
100
AcDbLine
 10
37.18405511811023
 20
39.73523622047244
 30
0.0
 11
37.16141732283465
 21
39.75984251968503
 31
0.0
  0
LINE
  5
42A
330
1E
100
AcDbEntity
  8
3
100
AcDbLine
 10
37.16141732283465
 20
39.75984251968503
 30
0.0
 11
37.13385826771654
 21
39.77952755905512
 31
0.0
  0
LINE
  5
42B
330
1E
100
AcDbEntity
  8
3
100
AcDbLine
 10
36.86417322834646
 20
39.77952755905512
 30
0.0
 11
36.83661417322834
 21
39.75984251968503
 31
0.0
  0
LINE
  5
42C
330
1E
100
AcDbEntity
  8
3
100
AcDbLine
 10
36.83661417322834
 20
39.75984251968503
 30
0.0
 11
36.81397637795275
 21
39.73523622047244
 31
0.0
  0
LINE
  5
42D
330
1E
100
AcDbEntity
  8
3
100
AcDbLine
 10
36.81397637795275
 20
39.73523622047244
 30
0.0
 11
36.79822834645669
 21
39.70472440944881
 31
0.0
  0
LINE
  5
42E
330
1E
100
AcDbEntity
  8
3
100
AcDbLine
 10
36.79822834645669
 20
39.70472440944881
 30
0.0
 11
36.79035433070867
 21
39.67224409448819
 31
0.0
  0
LINE
  5
42F
330
1E
100
AcDbEntity
  8
3
100
AcDbLine
 10
36.79035433070867
 20
39.67224409448819
 30
0.0
 11
36.79035433070867
 21
39.63877952755905
 31
0.0
  0
LINE
  5
430
330
1E
100
AcDbEntity
  8
3
100
AcDbLine
 10
36.79035433070867
 20
39.63877952755905
 30
0.0
 11
36.79822834645669
 21
39.60629921259842
 31
0.0
  0
LINE
  5
431
330
1E
100
AcDbEntity
  8
3
100
AcDbLine
 10
36.79822834645669
 20
39.60629921259842
 30
0.0
 11
36.81397637795275
 21
39.5757874015748
 31
0.0
  0
LINE
  5
432
330
1E
100
AcDbEntity
  8
3
100
AcDbLine
 10
36.81397637795275
 20
39.5757874015748
 30
0.0
 11
36.83661417322834
 21
39.5511811023622
 31
0.0
  0
LINE
  5
433
330
1E
100
AcDbEntity
  8
3
100
AcDbLine
 10
36.83661417322834
 20
39.5511811023622
 30
0.0
 11
36.86417322834646
 21
39.53149606299212
 31
0.0
  0
LINE
  5
434
330
1E
100
AcDbEntity
  8
3
100
AcDbLine
 10
36.86417322834646
 20
39.53149606299212
 30
0.0
 11
36.89566929133858
 21
39.51968503937007
 31
0.0
  0
LINE
  5
435
330
1E
100
AcDbEntity
  8
3
100
AcDbLine
 10
36.89566929133858
 20
39.51968503937007
 30
0.0
 11
36.92913385826772
 21
39.51574803149606
 31
0.0
  0
LINE
  5
436
330
1E
100
AcDbEntity
  8
3
100
AcDbLine
 10
36.92913385826772
 20
39.79527559055118
 30
0.0
 11
36.89566929133858
 21
39.79133858267716
 31
0.0
  0
LINE
  5
437
330
1E
100
AcDbEntity
  8
3
100
AcDbLine
 10
36.89566929133858
 20
39.79133858267716
 30
0.0
 11
36.86417322834646
 21
39.77952755905512
 31
0.0
  0
LINE
  5
438
330
1E
100
AcDbEntity
  8
3
100
AcDbLine
 10
37.1998031496063
 20
40.32972440944881
 30
0.0
 11
37.18405511811023
 21
40.36023622047244
 31
0.0
  0
LINE
  5
439
330
1E
100
AcDbEntity
  8
3
100
AcDbLine
 10
37.18405511811023
 20
40.36023622047244
 30
0.0
 11
37.16141732283465
 21
40.38484251968504
 31
0.0
  0
LINE
  5
43A
330
1E
100
AcDbEntity
  8
3
100
AcDbLine
 10
37.16141732283465
 20
40.38484251968504
 30
0.0
 11
37.13385826771654
 21
40.40452755905511
 31
0.0
  0
LINE
  5
43B
330
1E
100
AcDbEntity
  8
3
100
AcDbLine
 10
37.13385826771654
 20
40.40452755905511
 30
0.0
 11
37.10236220472441
 21
40.41633858267716
 31
0.0
  0
LINE
  5
43C
330
1E
100
AcDbEntity
  8
3
100
AcDbLine
 10
37.10236220472441
 20
40.41633858267716
 30
0.0
 11
37.06889763779528
 21
40.42027559055118
 31
0.0
  0
LINE
  5
43D
330
1E
100
AcDbEntity
  8
3
100
AcDbLine
 10
37.06889763779528
 20
40.14074803149606
 30
0.0
 11
37.10236220472441
 21
40.14468503937007
 31
0.0
  0
LINE
  5
43E
330
1E
100
AcDbEntity
  8
3
100
AcDbLine
 10
37.10236220472441
 20
40.14468503937007
 30
0.0
 11
37.13385826771654
 21
40.15649606299212
 31
0.0
  0
LINE
  5
43F
330
1E
100
AcDbEntity
  8
3
100
AcDbLine
 10
37.13385826771654
 20
40.15649606299212
 30
0.0
 11
37.16141732283465
 21
40.1761811023622
 31
0.0
  0
LINE
  5
440
330
1E
100
AcDbEntity
  8
3
100
AcDbLine
 10
37.16141732283465
 20
40.1761811023622
 30
0.0
 11
37.18405511811023
 21
40.2007874015748
 31
0.0
  0
LINE
  5
441
330
1E
100
AcDbEntity
  8
3
100
AcDbLine
 10
37.18405511811023
 20
40.2007874015748
 30
0.0
 11
37.1998031496063
 21
40.23129921259843
 31
0.0
  0
LINE
  5
442
330
1E
100
AcDbEntity
  8
3
100
AcDbLine
 10
37.1998031496063
 20
40.23129921259843
 30
0.0
 11
37.20767716535433
 21
40.26377952755905
 31
0.0
  0
LINE
  5
443
330
1E
100
AcDbEntity
  8
3
100
AcDbLine
 10
37.20767716535433
 20
40.26377952755905
 30
0.0
 11
37.20767716535433
 21
40.29724409448819
 31
0.0
  0
LINE
  5
444
330
1E
100
AcDbEntity
  8
3
100
AcDbLine
 10
37.20767716535433
 20
40.29724409448819
 30
0.0
 11
37.1998031496063
 21
40.32972440944881
 31
0.0
  0
LINE
  5
445
330
1E
100
AcDbEntity
  8
3
100
AcDbLine
 10
36.92913385826772
 20
40.42027559055118
 30
0.0
 11
36.89566929133858
 21
40.41633858267716
 31
0.0
  0
LINE
  5
446
330
1E
100
AcDbEntity
  8
3
100
AcDbLine
 10
36.89566929133858
 20
40.41633858267716
 30
0.0
 11
36.86417322834646
 21
40.40452755905511
 31
0.0
  0
LINE
  5
447
330
1E
100
AcDbEntity
  8
3
100
AcDbLine
 10
36.86417322834646
 20
40.40452755905511
 30
0.0
 11
36.83661417322834
 21
40.38484251968504
 31
0.0
  0
LINE
  5
448
330
1E
100
AcDbEntity
  8
3
100
AcDbLine
 10
36.83661417322834
 20
40.38484251968504
 30
0.0
 11
36.81397637795275
 21
40.36023622047244
 31
0.0
  0
LINE
  5
449
330
1E
100
AcDbEntity
  8
3
100
AcDbLine
 10
36.81397637795275
 20
40.36023622047244
 30
0.0
 11
36.79822834645669
 21
40.32972440944881
 31
0.0
  0
LINE
  5
44A
330
1E
100
AcDbEntity
  8
3
100
AcDbLine
 10
36.79822834645669
 20
40.32972440944881
 30
0.0
 11
36.79035433070867
 21
40.29724409448819
 31
0.0
  0
LINE
  5
44B
330
1E
100
AcDbEntity
  8
3
100
AcDbLine
 10
36.79035433070867
 20
40.29724409448819
 30
0.0
 11
36.79035433070867
 21
40.26377952755905
 31
0.0
  0
LINE
  5
44C
330
1E
100
AcDbEntity
  8
3
100
AcDbLine
 10
36.79035433070867
 20
40.26377952755905
 30
0.0
 11
36.79822834645669
 21
40.23129921259843
 31
0.0
  0
LINE
  5
44D
330
1E
100
AcDbEntity
  8
3
100
AcDbLine
 10
36.79822834645669
 20
40.23129921259843
 30
0.0
 11
36.81397637795275
 21
40.2007874015748
 31
0.0
  0
LINE
  5
44E
330
1E
100
AcDbEntity
  8
3
100
AcDbLine
 10
36.81397637795275
 20
40.2007874015748
 30
0.0
 11
36.83661417322834
 21
40.1761811023622
 31
0.0
  0
LINE
  5
44F
330
1E
100
AcDbEntity
  8
3
100
AcDbLine
 10
36.83661417322834
 20
40.1761811023622
 30
0.0
 11
36.86417322834646
 21
40.15649606299212
 31
0.0
  0
LINE
  5
450
330
1E
100
AcDbEntity
  8
3
100
AcDbLine
 10
36.86417322834646
 20
40.15649606299212
 30
0.0
 11
36.89566929133858
 21
40.14468503937007
 31
0.0
  0
LINE
  5
451
330
1E
100
AcDbEntity
  8
3
100
AcDbLine
 10
38.13090551181102
 20
40.53051181102362
 30
0.0
 11
38.11122047244094
 21
40.53051181102362
 31
0.0
  0
LINE
  5
452
330
1E
100
AcDbEntity
  8
3
100
AcDbLine
 10
38.11122047244094
 20
40.53051181102362
 30
0.0
 11
38.08661417322834
 21
40.53051181102362
 31
0.0
  0
LINE
  5
453
330
1E
100
AcDbEntity
  8
3
100
AcDbLine
 10
38.08661417322834
 20
40.53051181102362
 30
0.0
 11
38.05807086614173
 21
40.53051181102362
 31
0.0
  0
LINE
  5
454
330
1E
100
AcDbEntity
  8
3
100
AcDbLine
 10
38.05807086614173
 20
40.53051181102362
 30
0.0
 11
38.02657480314961
 21
40.53051181102362
 31
0.0
  0
LINE
  5
455
330
1E
100
AcDbEntity
  8
3
100
AcDbLine
 10
38.02657480314961
 20
40.53051181102362
 30
0.0
 11
38.02657480314961
 21
38.78051181102362
 31
0.0
  0
LINE
  5
456
330
1E
100
AcDbEntity
  8
3
100
AcDbLine
 10
38.02657480314961
 20
38.78051181102362
 30
0.0
 11
36.90944881889763
 21
38.78051181102362
 31
0.0
  0
LINE
  5
457
330
1E
100
AcDbEntity
  8
3
100
AcDbLine
 10
38.14665354330708
 20
40.53051181102362
 30
0.0
 11
38.14271653543307
 21
40.53051181102362
 31
0.0
  0
LINE
  5
458
330
1E
100
AcDbEntity
  8
3
100
AcDbLine
 10
38.14271653543307
 20
40.53051181102362
 30
0.0
 11
38.13090551181102
 21
40.53051181102362
 31
0.0
  0
LINE
  5
459
330
1E
100
AcDbEntity
  8
3
100
AcDbLine
 10
38.14665354330708
 20
40.53051181102362
 30
0.0
 11
38.14665354330708
 21
38.78051181102362
 31
0.0
  0
LINE
  5
45A
330
1E
100
AcDbEntity
  8
3
100
AcDbLine
 10
38.14665354330708
 20
38.78051181102362
 30
0.0
 11
38.14271653543307
 21
38.78051181102362
 31
0.0
  0
LINE
  5
45B
330
1E
100
AcDbEntity
  8
3
100
AcDbLine
 10
38.14271653543307
 20
38.78051181102362
 30
0.0
 11
38.13090551181102
 21
38.78051181102362
 31
0.0
  0
LINE
  5
45C
330
1E
100
AcDbEntity
  8
3
100
AcDbLine
 10
38.13090551181102
 20
38.78051181102362
 30
0.0
 11
38.11122047244094
 21
38.78051181102362
 31
0.0
  0
LINE
  5
45D
330
1E
100
AcDbEntity
  8
3
100
AcDbLine
 10
38.11122047244094
 20
38.78051181102362
 30
0.0
 11
38.08661417322834
 21
38.78051181102362
 31
0.0
  0
LINE
  5
45E
330
1E
100
AcDbEntity
  8
3
100
AcDbLine
 10
38.08661417322834
 20
38.78051181102362
 30
0.0
 11
38.05807086614173
 21
38.78051181102362
 31
0.0
  0
LINE
  5
45F
330
1E
100
AcDbEntity
  8
3
100
AcDbLine
 10
38.05807086614173
 20
38.78051181102362
 30
0.0
 11
38.02657480314961
 21
38.78051181102362
 31
0.0
  0
LINE
  5
460
330
1E
100
AcDbEntity
  8
3
100
AcDbLine
 10
38.17814960629921
 20
38.78051181102362
 30
0.0
 11
38.16240157480315
 21
38.78051181102362
 31
0.0
  0
LINE
  5
461
330
1E
100
AcDbEntity
  8
3
100
AcDbLine
 10
38.16240157480315
 20
38.78051181102362
 30
0.0
 11
38.1515748031496
 21
38.78051181102362
 31
0.0
  0
LINE
  5
462
330
1E
100
AcDbEntity
  8
3
100
AcDbLine
 10
38.1515748031496
 20
38.78051181102362
 30
0.0
 11
38.14665354330708
 21
38.78051181102362
 31
0.0
  0
LINE
  5
463
330
1E
100
AcDbEntity
  8
3
100
AcDbLine
 10
38.17814960629921
 20
40.53051181102362
 30
0.0
 11
38.16240157480315
 21
40.53051181102362
 31
0.0
  0
LINE
  5
464
330
1E
100
AcDbEntity
  8
3
100
AcDbLine
 10
38.16240157480315
 20
40.53051181102362
 30
0.0
 11
38.1515748031496
 21
40.53051181102362
 31
0.0
  0
LINE
  5
465
330
1E
100
AcDbEntity
  8
3
100
AcDbLine
 10
38.1515748031496
 20
40.53051181102362
 30
0.0
 11
38.14665354330708
 21
40.53051181102362
 31
0.0
  0
LINE
  5
466
330
1E
100
AcDbEntity
  8
3
100
AcDbLine
 10
40.04232283464567
 20
39.1751968503937
 30
0.0
 11
40.05708661417322
 21
39.17913385826771
 31
0.0
  0
LINE
  5
467
330
1E
100
AcDbEntity
  8
3
100
AcDbLine
 10
40.05708661417322
 20
39.17913385826771
 30
0.0
 11
40.06791338582677
 21
39.18996062992126
 31
0.0
  0
LINE
  5
468
330
1E
100
AcDbEntity
  8
3
100
AcDbLine
 10
40.06791338582677
 20
39.18996062992126
 30
0.0
 11
40.07185039370079
 21
39.20472440944881
 31
0.0
  0
LINE
  5
469
330
1E
100
AcDbEntity
  8
3
100
AcDbLine
 10
40.07185039370079
 20
40.10531496062992
 30
0.0
 11
40.06791338582677
 21
40.12007874015748
 31
0.0
  0
LINE
  5
46A
330
1E
100
AcDbEntity
  8
3
100
AcDbLine
 10
40.06791338582677
 20
40.12007874015748
 30
0.0
 11
40.05708661417322
 21
40.13090551181102
 31
0.0
  0
LINE
  5
46B
330
1E
100
AcDbEntity
  8
3
100
AcDbLine
 10
40.05708661417322
 20
40.13090551181102
 30
0.0
 11
40.04232283464567
 21
40.13484251968503
 31
0.0
  0
LINE
  5
46C
330
1E
100
AcDbEntity
  8
3
100
AcDbLine
 10
39.60728346456693
 20
40.13484251968503
 30
0.0
 11
39.59251968503937
 21
40.13090551181102
 31
0.0
  0
LINE
  5
46D
330
1E
100
AcDbEntity
  8
3
100
AcDbLine
 10
39.59251968503937
 20
40.13090551181102
 30
0.0
 11
39.58169291338583
 21
40.12007874015748
 31
0.0
  0
LINE
  5
46E
330
1E
100
AcDbEntity
  8
3
100
AcDbLine
 10
39.58169291338583
 20
40.12007874015748
 30
0.0
 11
39.57775590551181
 21
40.10531496062992
 31
0.0
  0
LINE
  5
46F
330
1E
100
AcDbEntity
  8
3
100
AcDbLine
 10
39.57775590551181
 20
39.20472440944881
 30
0.0
 11
39.58169291338583
 21
39.18996062992126
 31
0.0
  0
LINE
  5
470
330
1E
100
AcDbEntity
  8
3
100
AcDbLine
 10
39.58169291338583
 20
39.18996062992126
 30
0.0
 11
39.59251968503937
 21
39.17913385826771
 31
0.0
  0
LINE
  5
471
330
1E
100
AcDbEntity
  8
3
100
AcDbLine
 10
39.59251968503937
 20
39.17913385826771
 30
0.0
 11
39.60728346456693
 21
39.1751968503937
 31
0.0
  0
LINE
  5
472
330
1E
100
AcDbEntity
  8
3
100
AcDbLine
 10
40.36318897637795
 20
40.32972440944881
 30
0.0
 11
40.3494094488189
 21
40.3759842519685
 31
0.0
  0
LINE
  5
473
330
1E
100
AcDbEntity
  8
3
100
AcDbLine
 10
40.3494094488189
 20
40.3759842519685
 30
0.0
 11
40.32578740157481
 21
40.41929133858268
 31
0.0
  0
LINE
  5
474
330
1E
100
AcDbEntity
  8
3
100
AcDbLine
 10
40.32578740157481
 20
40.41929133858268
 30
0.0
 11
40.29527559055118
 21
40.45767716535432
 31
0.0
  0
LINE
  5
475
330
1E
100
AcDbEntity
  8
3
100
AcDbLine
 10
40.29527559055118
 20
40.45767716535432
 30
0.0
 11
40.25688976377952
 21
40.48818897637795
 31
0.0
  0
LINE
  5
476
330
1E
100
AcDbEntity
  8
3
100
AcDbLine
 10
40.25688976377952
 20
40.48818897637795
 30
0.0
 11
40.21358267716535
 21
40.51181102362204
 31
0.0
  0
LINE
  5
477
330
1E
100
AcDbEntity
  8
3
100
AcDbLine
 10
40.21358267716535
 20
40.51181102362204
 30
0.0
 11
40.16732283464567
 21
40.52559055118109
 31
0.0
  0
LINE
  5
478
330
1E
100
AcDbEntity
  8
3
100
AcDbLine
 10
40.16732283464567
 20
40.52559055118109
 30
0.0
 11
40.11811023622047
 21
40.53051181102362
 31
0.0
  0
LINE
  5
479
330
1E
100
AcDbEntity
  8
3
100
AcDbLine
 10
40.11811023622047
 20
38.78051181102362
 30
0.0
 11
40.16732283464567
 21
38.78543307086614
 31
0.0
  0
LINE
  5
47A
330
1E
100
AcDbEntity
  8
3
100
AcDbLine
 10
40.16732283464567
 20
38.78543307086614
 30
0.0
 11
40.21358267716535
 21
38.7992125984252
 31
0.0
  0
LINE
  5
47B
330
1E
100
AcDbEntity
  8
3
100
AcDbLine
 10
40.21358267716535
 20
38.7992125984252
 30
0.0
 11
40.25688976377952
 21
38.82283464566929
 31
0.0
  0
LINE
  5
47C
330
1E
100
AcDbEntity
  8
3
100
AcDbLine
 10
40.25688976377952
 20
38.82283464566929
 30
0.0
 11
40.29527559055118
 21
38.85334645669291
 31
0.0
  0
LINE
  5
47D
330
1E
100
AcDbEntity
  8
3
100
AcDbLine
 10
40.29527559055118
 20
38.85334645669291
 30
0.0
 11
40.32578740157481
 21
38.89173228346456
 31
0.0
  0
LINE
  5
47E
330
1E
100
AcDbEntity
  8
3
100
AcDbLine
 10
40.32578740157481
 20
38.89173228346456
 30
0.0
 11
40.3494094488189
 21
38.93503937007874
 31
0.0
  0
LINE
  5
47F
330
1E
100
AcDbEntity
  8
3
100
AcDbLine
 10
40.3494094488189
 20
38.93503937007874
 30
0.0
 11
40.36318897637795
 21
38.98129921259842
 31
0.0
  0
LINE
  5
480
330
1E
100
AcDbEntity
  8
3
100
AcDbLine
 10
40.36318897637795
 20
38.98129921259842
 30
0.0
 11
40.36811023622047
 21
39.03051181102362
 31
0.0
  0
ENDSEC
  0
SECTION
  2
OBJECTS
  0
DICTIONARY
  5
C
330
0
100
AcDbDictionary
  3
ACAD_GROUP
350
D
  3
ACAD_LAYOUT
350
19
  3
ACAD_MLINESTYLE
350
16
  3
ACAD_PLOTSETTINGS
350
18
  3
ACAD_PLOTSTYLENAME
350
E
  3
ACDBHEADERROUNDTRIPXREC
350
4B6
  0
DICTIONARY
  5
4D9
330
1E
100
AcDbDictionary
280
     1
  3
ACAD_LAYOUTSELFREF
360
4DA
  0
DICTIONARY
  5
4D7
330
1A
100
AcDbDictionary
280
     1
  3
ACAD_LAYOUTSELFREF
360
4D8
  0
DICTIONARY
  5
D
102
{ACAD_REACTORS
330
C
102
}
330
C
100
AcDbDictionary
  0
DICTIONARY
  5
19
102
{ACAD_REACTORS
330
C
102
}
330
C
100
AcDbDictionary
  0
DICTIONARY
  5
16
102
{ACAD_REACTORS
330
C
102
}
330
C
100
AcDbDictionary
  3
STANDARD
350
17
  0
DICTIONARY
  5
18
102
{ACAD_REACTORS
330
C
102
}
330
C
100
AcDbDictionary
  0
ACDBDICTIONARYWDFLT
  5
E
102
{ACAD_REACTORS
330
C
102
}
330
C
100
AcDbDictionary
281
     1
  3
Normal
350
F
100
AcDbDictionaryWithDefault
340
F
  0
DICTIONARY
  5
4B6
102
{ACAD_REACTORS
330
C
102
}
330
C
100
AcDbDictionary
  3
CEPSNTYPE
350
4C0
  3
DIMSTYLEDATA
350
4C4
  3
FINGERPRINTGUID
350
4C1
  3
HYPERLINKBASE
350
4B9
  3
INSUNITS
350
4BF
  3
LAYOUTDICT
350
4BB
  3
LWETCUNION
350
4BE
  3
PLOTSETDICT
350
4BC
  3
PLOTSTYLNAMDICT
350
4BD
  3
PSVPSCALE
350
4C3
  3
PUCSBASE
350
4C7
  3
PUCSORGBACK
350
4CD
  3
PUCSORGBOTTOM
350
4C9
  3
PUCSORGFRONT
350
4CC
  3
PUCSORGLEFT
350
4CA
  3
PUCSORGRIGHT
350
4CB
  3
PUCSORGTOP
350
4C8
  3
PUCSORTHOREF
350
4C5
  3
PUCSORTHOVIEW
350
4C6
  3
STYLESHEET
350
4BA
  3
TSTACKALIGN
350
4B7
  3
TSTACKSIZE
350
4B8
  3
UCSBASE
350
4D0
  3
UCSORGBACK
350
4D6
  3
UCSORGBOTTOM
350
4D2
  3
UCSORGFRONT
350
4D5
  3
UCSORGLEFT
350
4D3
  3
UCSORGRIGHT
350
4D4
  3
UCSORGTOP
350
4D1
  3
UCSORTHOREF
350
4CE
  3
UCSORTHOVIEW
350
4CF
  3
VERSIONGUID
350
4C2
  0
XRECORD
  5
4DA
102
{ACAD_REACTORS
330
4D9
102
}
330
4D9
100
AcDbXrecord
340
1E
  0
XRECORD
  5
4D8
102
{ACAD_REACTORS
330
4D7
102
}
330
4D7
100
AcDbXrecord
340
1A
  0
MLINESTYLE
  5
17
102
{ACAD_REACTORS
330
16
102
}
330
16
100
AcDbMlineStyle
  2
STANDARD
 70
     0
  3

 62
   256
 51
90.0
 52
90.0
 71
     2
 49
0.5
 62
   256
  6
BYLAYER
 49
-0.5
 62
   256
  6
BYLAYER
  0
ACDBPLACEHOLDER
  5
F
102
{ACAD_REACTORS
330
E
102
}
330
E
100
AcDbPlaceHolder
280
     0
  0
XRECORD
  5
4C0
102
{ACAD_REACTORS
330
4B6
102
}
330
4B6
100
AcDbXrecord
 90
        0
  0
XRECORD
  5
4C4
102
{ACAD_REACTORS
330
4B6
102
}
330
4B6
100
AcDbXrecord
1000
DSTYLE
1002
{
1070
   279
 70
     2
1002
}
  0
XRECORD
  5
4C1
102
{ACAD_REACTORS
330
4B6
102
}
330
4B6
100
AcDbXrecord
  1
{3BD6569E-C54F-4F3A-A934-5F6559EA02C5}
  0
XRECORD
  5
4B9
102
{ACAD_REACTORS
330
4B6
102
}
330
4B6
100
AcDbXrecord
  1

  0
XRECORD
  5
4BF
102
{ACAD_REACTORS
330
4B6
102
}
330
4B6
100
AcDbXrecord
 90
        0
  0
XRECORD
  5
4BB
102
{ACAD_REACTORS
330
4B6
102
}
330
4B6
100
AcDbXrecord
340
19
  0
XRECORD
  5
4BE
102
{ACAD_REACTORS
330
4B6
102
}
330
4B6
100
AcDbXrecord
 90
    14877
  0
XRECORD
  5
4BC
102
{ACAD_REACTORS
330
4B6
102
}
330
4B6
100
AcDbXrecord
340
18
  0
XRECORD
  5
4BD
102
{ACAD_REACTORS
330
4B6
102
}
330
4B6
100
AcDbXrecord
340
E
  0
XRECORD
  5
4C3
102
{ACAD_REACTORS
330
4B6
102
}
330
4B6
100
AcDbXrecord
 40
0.0
  0
XRECORD
  5
4C7
102
{ACAD_REACTORS
330
4B6
102
}
330
4B6
100
AcDbXrecord
340
0
  0
XRECORD
  5
4CD
102
{ACAD_REACTORS
330
4B6
102
}
330
4B6
100
AcDbXrecord
 10
0.0
 20
0.0
 30
0.0
  0
XRECORD
  5
4C9
102
{ACAD_REACTORS
330
4B6
102
}
330
4B6
100
AcDbXrecord
 10
0.0
 20
0.0
 30
0.0
  0
XRECORD
  5
4CC
102
{ACAD_REACTORS
330
4B6
102
}
330
4B6
100
AcDbXrecord
 10
0.0
 20
0.0
 30
0.0
  0
XRECORD
  5
4CA
102
{ACAD_REACTORS
330
4B6
102
}
330
4B6
100
AcDbXrecord
 10
0.0
 20
0.0
 30
0.0
  0
XRECORD
  5
4CB
102
{ACAD_REACTORS
330
4B6
102
}
330
4B6
100
AcDbXrecord
 10
0.0
 20
0.0
 30
0.0
  0
XRECORD
  5
4C8
102
{ACAD_REACTORS
330
4B6
102
}
330
4B6
100
AcDbXrecord
 10
0.0
 20
0.0
 30
0.0
  0
XRECORD
  5
4C5
102
{ACAD_REACTORS
330
4B6
102
}
330
4B6
100
AcDbXrecord
340
0
  0
XRECORD
  5
4C6
102
{ACAD_REACTORS
330
4B6
102
}
330
4B6
100
AcDbXrecord
 70
     0
  0
XRECORD
  5
4BA
102
{ACAD_REACTORS
330
4B6
102
}
330
4B6
100
AcDbXrecord
  1

  0
XRECORD
  5
4B7
102
{ACAD_REACTORS
330
4B6
102
}
330
4B6
100
AcDbXrecord
 90
        1
  0
XRECORD
  5
4B8
102
{ACAD_REACTORS
330
4B6
102
}
330
4B6
100
AcDbXrecord
 90
       70
  0
XRECORD
  5
4D0
102
{ACAD_REACTORS
330
4B6
102
}
330
4B6
100
AcDbXrecord
340
0
  0
XRECORD
  5
4D6
102
{ACAD_REACTORS
330
4B6
102
}
330
4B6
100
AcDbXrecord
 10
0.0
 20
0.0
 30
0.0
  0
XRECORD
  5
4D2
102
{ACAD_REACTORS
330
4B6
102
}
330
4B6
100
AcDbXrecord
 10
0.0
 20
0.0
 30
0.0
  0
XRECORD
  5
4D5
102
{ACAD_REACTORS
330
4B6
102
}
330
4B6
100
AcDbXrecord
 10
0.0
 20
0.0
 30
0.0
  0
XRECORD
  5
4D3
102
{ACAD_REACTORS
330
4B6
102
}
330
4B6
100
AcDbXrecord
 10
0.0
 20
0.0
 30
0.0
  0
XRECORD
  5
4D4
102
{ACAD_REACTORS
330
4B6
102
}
330
4B6
100
AcDbXrecord
 10
0.0
 20
0.0
 30
0.0
  0
XRECORD
  5
4D1
102
{ACAD_REACTORS
330
4B6
102
}
330
4B6
100
AcDbXrecord
 10
0.0
 20
0.0
 30
0.0
  0
XRECORD
  5
4CE
102
{ACAD_REACTORS
330
4B6
102
}
330
4B6
100
AcDbXrecord
340
0
  0
XRECORD
  5
4CF
102
{ACAD_REACTORS
330
4B6
102
}
330
4B6
100
AcDbXrecord
 70
     0
  0
XRECORD
  5
4C2
102
{ACAD_REACTORS
330
4B6
102
}
330
4B6
100
AcDbXrecord
  1
{4583D4BC-3FF6-4C55-A236-52D588E6B523}
  0
ENDSEC
  0
EOF
