  0
SECTION
  2
HEADER
  9
$ACADVER
  1
AC1012
  9
$DWGCODEPAGE
  3
ANSI_1252
  9
$INSBASE
 10
0.0
 20
0.0
 30
0.0
  9
$EXTMIN
 10
0.2816162392050216
 20
2.961914086902879
 30
-0.0000000349181948
  9
$EXTMAX
 10
5.363708516307767
 20
7.468368549445141
 30
0.0000000814935746
  9
$LIMMIN
 10
0.0
 20
0.0
  9
$LIMMAX
 10
12.0
 20
9.0
  9
$ORTHOMODE
 70
     0
  9
$REGENMODE
 70
     1
  9
$FILLMODE
 70
     1
  9
$QTEXTMODE
 70
     0
  9
$MIRRTEXT
 70
     1
  9
$DRAGMODE
 70
     2
  9
$LTSCALE
 40
1.0
  9
$OSMODE
 70
   547
  9
$ATTMODE
 70
     1
  9
$TEXTSIZE
 40
0.2
  9
$TRACEWID
 40
0.05
  9
$TEXTSTYLE
  7
STANDARD
  9
$CLAYER
  8
0
  9
$CELTYPE
  6
BYLAYER
  9
$CECOLOR
 62
   256
  9
$CELTSCALE
 40
1.0
  9
$DELOBJ
 70
     1
  9
$DISPSILH
 70
     0
  9
$DIMSCALE
 40
1.0
  9
$DIMASZ
 40
0.18
  9
$DIMEXO
 40
0.0625
  9
$DIMDLI
 40
0.38
  9
$DIMRND
 40
0.0
  9
$DIMDLE
 40
0.0
  9
$DIMEXE
 40
0.18
  9
$DIMTP
 40
0.0
  9
$DIMTM
 40
0.0
  9
$DIMTXT
 40
0.18
  9
$DIMCEN
 40
0.09
  9
$DIMTSZ
 40
0.0
  9
$DIMTOL
 70
     0
  9
$DIMLIM
 70
     0
  9
$DIMTIH
 70
     1
  9
$DIMTOH
 70
     1
  9
$DIMSE1
 70
     0
  9
$DIMSE2
 70
     0
  9
$DIMTAD
 70
     0
  9
$DIMZIN
 70
     0
  9
$DIMBLK
  1

  9
$DIMASO
 70
     1
  9
$DIMSHO
 70
     1
  9
$DIMPOST
  1

  9
$DIMAPOST
  1

  9
$DIMALT
 70
     0
  9
$DIMALTD
 70
     2
  9
$DIMALTF
 40
25.4
  9
$DIMLFAC
 40
1.0
  9
$DIMTOFL
 70
     0
  9
$DIMTVP
 40
0.0
  9
$DIMTIX
 70
     0
  9
$DIMSOXD
 70
     0
  9
$DIMSAH
 70
     0
  9
$DIMBLK1
  1

  9
$DIMBLK2
  1

  9
$DIMSTYLE
  2
STANDARD
  9
$DIMCLRD
 70
     0
  9
$DIMCLRE
 70
     0
  9
$DIMCLRT
 70
     0
  9
$DIMTFAC
 40
1.0
  9
$DIMGAP
 40
0.09
  9
$DIMJUST
 70
     0
  9
$DIMSD1
 70
     0
  9
$DIMSD2
 70
     0
  9
$DIMTOLJ
 70
     1
  9
$DIMTZIN
 70
     0
  9
$DIMALTZ
 70
     0
  9
$DIMALTTZ
 70
     0
  9
$DIMFIT
 70
     5
  9
$DIMUPT
 70
     0
  9
$DIMUNIT
 70
     2
  9
$DIMDEC
 70
     4
  9
$DIMTDEC
 70
     4
  9
$DIMALTU
 70
     2
  9
$DIMALTTD
 70
     2
  9
$DIMTXSTY
  7
STANDARD
  9
$DIMAUNIT
 70
     0
  9
$LUNITS
 70
     2
  9
$LUPREC
 70
     4
  9
$SKETCHINC
 40
0.1
  9
$FILLETRAD
 40
0.0
  9
$AUNITS
 70
     0
  9
$AUPREC
 70
     0
  9
$MENU
  1
acad
  9
$ELEVATION
 40
0.0
  9
$PELEVATION
 40
0.0
  9
$THICKNESS
 40
0.0
  9
$LIMCHECK
 70
     0
  9
$BLIPMODE
 70
     0
  9
$CHAMFERA
 40
0.0
  9
$CHAMFERB
 40
0.0
  9
$CHAMFERC
 40
0.0
  9
$CHAMFERD
 40
0.0
  9
$SKPOLY
 70
     0
  9
$TDCREATE
 40
2453529.612245370
  9
$TDUPDATE
 40
2453944.471271875
  9
$TDINDWG
 40
0.0016052431
  9
$TDUSRTIMER
 40
0.0016052431
  9
$USRTIMER
 70
     1
  9
$ANGBASE
 50
0.0
  9
$ANGDIR
 70
     0
  9
$PDMODE
 70
     0
  9
$PDSIZE
 40
0.0
  9
$PLINEWID
 40
0.0
  9
$COORDS
 70
     1
  9
$SPLFRAME
 70
     0
  9
$SPLINETYPE
 70
     6
  9
$SPLINESEGS
 70
     8
  9
$ATTDIA
 70
     0
  9
$ATTREQ
 70
     1
  9
$HANDLING
 70
  4097
  9
$HANDSEED
  5
4D63
  9
$SURFTAB1
 70
     6
  9
$SURFTAB2
 70
     6
  9
$SURFTYPE
 70
     6
  9
$SURFU
 70
     6
  9
$SURFV
 70
     6
  9
$UCSNAME
  2

  9
$UCSORG
 10
0.0
 20
0.0
 30
0.0
  9
$UCSXDIR
 10
1.0
 20
0.0
 30
0.0
  9
$UCSYDIR
 10
0.0
 20
1.0
 30
0.0
  9
$PUCSNAME
  2

  9
$PUCSORG
 10
0.0
 20
0.0
 30
0.0
  9
$PUCSXDIR
 10
1.0
 20
0.0
 30
0.0
  9
$PUCSYDIR
 10
0.0
 20
1.0
 30
0.0
  9
$USERI1
 70
     0
  9
$USERI2
 70
     0
  9
$USERI3
 70
     0
  9
$USERI4
 70
     0
  9
$USERI5
 70
     0
  9
$USERR1
 40
0.0
  9
$USERR2
 40
0.0
  9
$USERR3
 40
0.0
  9
$USERR4
 40
0.0
  9
$USERR5
 40
0.0
  9
$WORLDVIEW
 70
     1
  9
$SHADEDGE
 70
     3
  9
$SHADEDIF
 70
    70
  9
$TILEMODE
 70
     1
  9
$MAXACTVP
 70
    16
  9
$PINSBASE
 10
0.0
 20
0.0
 30
0.0
  9
$PLIMCHECK
 70
     0
  9
$PEXTMIN
 10
1.000000000000000E+20
 20
1.000000000000000E+20
 30
1.000000000000000E+20
  9
$PEXTMAX
 10
-1.000000000000000E+20
 20
-1.000000000000000E+20
 30
-1.000000000000000E+20
  9
$PLIMMIN
 10
0.0
 20
0.0
  9
$PLIMMAX
 10
12.0
 20
9.0
  9
$UNITMODE
 70
     0
  9
$VISRETAIN
 70
     0
  9
$PLINEGEN
 70
     0
  9
$PSLTSCALE
 70
     1
  9
$TREEDEPTH
 70
  3020
  9
$PICKSTYLE
 70
     1
  9
$CMLSTYLE
  2
STANDARD
  9
$CMLJUST
 70
     0
  9
$CMLSCALE
 40
1.0
  9
$SAVEIMAGES
 70
     1
  0
ENDSEC
  0
SECTION
  2
CLASSES
  0
CLASS
  1
ACDBDICTIONARYWDFLT
  2
AcDbDictionaryWithDefault
  3
AutoCAD 2000
 90
    32768
280
     0
281
     0
  0
CLASS
  1
ACDBPLACEHOLDER
  2
AcDbPlaceHolder
  3
AutoCAD 2000
 90
    32768
280
     0
281
     0
  0
CLASS
  1
LAYOUT
  2
AcDbLayout
  3
AutoCAD 2000
 90
    32768
280
     0
281
     0
  0
CLASS
  1
LONG_TRANSACTION
  2
AcDbLongTransaction
  3
AutoCAD 2000
 90
    32768
280
     0
281
     0
  0
CLASS
  1
LWPOLYLINE
  2
AcDbPolyline
  3
AutoCAD 2000
 90
    32768
280
     0
281
     1
  0
CLASS
  1
HATCH
  2
AcDbHatch
  3
AutoCAD 2000
 90
    32768
280
     0
281
     1
  0
CLASS
  1
XRECORD
  2
AcDbXrecord
  3
AutoCAD 2000
 90
    32768
280
     0
281
     0
  0
CLASS
  1
LONG_TRANSACTION
  2
AcDbLongTransaction
  3
AutoCAD 2000
 90
    32768
280
     0
281
     0
  0
CLASS
  1
LWPOLYLINE
  2
AcDbPolyline
  3
AutoCAD 2000
 90
    32768
280
     0
281
     1
  0
CLASS
  1
HATCH
  2
AcDbHatch
  3
AutoCAD 2000
 90
    32768
280
     0
281
     1
  0
CLASS
  1
XRECORD
  2
AcDbXrecord
  3
AutoCAD 2000
 90
    32768
280
     0
281
     0
  0
ENDSEC
  0
SECTION
  2
TABLES
  0
TABLE
  2
VPORT
  5
8
330
0
100
AcDbSymbolTable
 70
     3
  0
VPORT
  5
4D60
330
8
100
AcDbSymbolTableRecord
100
AcDbViewportTableRecord
  2
*ACTIVE
 70
     0
 10
0.0
 20
0.0
 11
1.0
 21
1.0
 12
2.822662377756394
 22
5.21514131817401
 13
0.0
 23
0.0
 14
1.0
 24
1.0
 15
0.0
 25
0.0
 16
0.0
 26
0.0
 36
1.0
 17
0.0
 27
0.0
 37
0.0
 40
4.553315340835595
 41
1.647569444444444
 42
50.0
 43
0.0
 44
0.0
 50
0.0
 51
0.0
 71
     0
 72
   100
 73
     1
 74
     1
 75
     0
 76
     0
 77
     0
 78
     0
  0
ENDTAB
  0
TABLE
  2
LTYPE
  5
5
330
0
100
AcDbSymbolTable
 70
    25
  0
LTYPE
  5
13
330
5
100
AcDbSymbolTableRecord
100
AcDbLinetypeTableRecord
  2
BYBLOCK
 70
     0
  3

 72
    65
 73
     0
 40
0.0
  0
LTYPE
  5
14
330
5
100
AcDbSymbolTableRecord
100
AcDbLinetypeTableRecord
  2
BYLAYER
 70
     0
  3

 72
    65
 73
     0
 40
0.0
  0
LTYPE
  5
15
330
5
100
AcDbSymbolTableRecord
100
AcDbLinetypeTableRecord
  2
CONTINUOUS
 70
     0
  3
Solid line
 72
    65
 73
     0
 40
0.0
  0
LTYPE
  5
22
330
5
100
AcDbSymbolTableRecord
100
AcDbLinetypeTableRecord
  2
BORDER
 70
     0
  3
__ __ . __ __ . __ __ . __ __ . __ __ . __ __ .
 72
    65
 73
     6
 40
1.75
 49
0.5
 74
     0
 49
-0.25
 74
     0
 49
0.5
 74
     0
 49
-0.25
 74
     0
 49
0.5
 74
     0
 49
-0.25
 74
     0
  0
LTYPE
  5
23
330
5
100
AcDbSymbolTableRecord
100
AcDbLinetypeTableRecord
  2
BORDER2
 70
     0
  3
__.__.__.__.__.__.__.__.__.__.__.__.__.__.__.__
 72
    65
 73
     6
 40
0.875
 49
0.25
 74
     0
 49
-0.125
 74
     0
 49
0.25
 74
     0
 49
-0.125
 74
     0
 49
0.25
 74
     0
 49
-0.125
 74
     0
  0
LTYPE
  5
24
330
5
100
AcDbSymbolTableRecord
100
AcDbLinetypeTableRecord
  2
BORDERX2
 70
     0
  3
____  ____  .  ____  ____  .  
 72
    65
 73
     6
 40
3.5
 49
1.0
 74
     0
 49
-0.5
 74
     0
 49
1.0
 74
     0
 49
-0.5
 74
     0
 49
1.0
 74
     0
 49
-0.5
 74
     0
  0
LTYPE
  5
25
330
5
100
AcDbSymbolTableRecord
100
AcDbLinetypeTableRecord
  2
CENTER
 70
     0
  3
____ _ ____ _ ____ _ ____ _ ____ _ ____ _ ____
 72
    65
 73
     4
 40
2.0
 49
1.25
 74
     0
 49
-0.25
 74
     0
 49
0.25
 74
     0
 49
-0.25
 74
     0
  0
LTYPE
  5
26
330
5
100
AcDbSymbolTableRecord
100
AcDbLinetypeTableRecord
  2
CENTER2
 70
     0
  3
____ _ ____ _ ____ _ ____ _ ____ _ ____ _ ____
 72
    65
 73
     4
 40
1.125
 49
0.75
 74
     0
 49
-0.125
 74
     0
 49
0.125
 74
     0
 49
-0.125
 74
     0
  0
LTYPE
  5
27
330
5
100
AcDbSymbolTableRecord
100
AcDbLinetypeTableRecord
  2
CENTERX2
 70
     0
  3
________  __  ________  __  ________  __  
 72
    65
 73
     4
 40
4.0
 49
2.5
 74
     0
 49
-0.5
 74
     0
 49
0.5
 74
     0
 49
-0.5
 74
     0
  0
LTYPE
  5
28
330
5
100
AcDbSymbolTableRecord
100
AcDbLinetypeTableRecord
  2
DASHDOT
 70
     0
  3
__ . __ . __ . __ . __ . __ . __ . 
 72
    65
 73
     4
 40
1.0
 49
0.5
 74
     0
 49
-0.25
 74
     0
 49
0.0
 74
     0
 49
-0.25
 74
     0
  0
LTYPE
  5
29
330
5
100
AcDbSymbolTableRecord
100
AcDbLinetypeTableRecord
  2
DASHDOT2
 70
     0
  3
_._._._._._._._._._._._._._._._.
 72
    65
 73
     4
 40
0.5
 49
0.25
 74
     0
 49
-0.125
 74
     0
 49
0.0
 74
     0
 49
-0.125
 74
     0
  0
LTYPE
  5
2A
330
5
100
AcDbSymbolTableRecord
100
AcDbLinetypeTableRecord
  2
DASHDOTX2
 70
     0
  3
____  .  ____  .  ____  .  ____  .  
 72
    65
 73
     4
 40
2.0
 49
1.0
 74
     0
 49
-0.5
 74
     0
 49
0.0
 74
     0
 49
-0.5
 74
     0
  0
LTYPE
  5
2B
330
5
100
AcDbSymbolTableRecord
100
AcDbLinetypeTableRecord
  2
DASHED
 70
     0
  3
__ __ __ __ __ __ __ __ __ __ __ __ 
 72
    65
 73
     2
 40
0.75
 49
0.5
 74
     0
 49
-0.25
 74
     0
  0
LTYPE
  5
2C
330
5
100
AcDbSymbolTableRecord
100
AcDbLinetypeTableRecord
  2
DASHED2
 70
     0
  3
_ _ _ _ _ _ _ _ _ _ _ _ _ _ _ _ _ _ 
 72
    65
 73
     2
 40
0.375
 49
0.25
 74
     0
 49
-0.125
 74
     0
  0
LTYPE
  5
2D
330
5
100
AcDbSymbolTableRecord
100
AcDbLinetypeTableRecord
  2
DASHEDX2
 70
     0
  3
____  ____  ____  ____  ____  ____  
 72
    65
 73
     2
 40
1.5
 49
1.0
 74
     0
 49
-0.5
 74
     0
  0
LTYPE
  5
2E
330
5
100
AcDbSymbolTableRecord
100
AcDbLinetypeTableRecord
  2
DIVIDE
 70
     0
  3
____ . . ____ . . ____ . . ____ . . 
 72
    65
 73
     6
 40
1.25
 49
0.5
 74
     0
 49
-0.25
 74
     0
 49
0.0
 74
     0
 49
-0.25
 74
     0
 49
0.0
 74
     0
 49
-0.25
 74
     0
  0
LTYPE
  5
2F
330
5
100
AcDbSymbolTableRecord
100
AcDbLinetypeTableRecord
  2
DIVIDE2
 70
     0
  3
__..__..__..__..__..__..__..__..__..
 72
    65
 73
     6
 40
0.625
 49
0.25
 74
     0
 49
-0.125
 74
     0
 49
0.0
 74
     0
 49
-0.125
 74
     0
 49
0.0
 74
     0
 49
-0.125
 74
     0
  0
LTYPE
  5
30
330
5
100
AcDbSymbolTableRecord
100
AcDbLinetypeTableRecord
  2
DIVIDEX2
 70
     0
  3
________  .  .  ________  .  .  ________  .  . 
 72
    65
 73
     6
 40
2.5
 49
1.0
 74
     0
 49
-0.5
 74
     0
 49
0.0
 74
     0
 49
-0.5
 74
     0
 49
0.0
 74
     0
 49
-0.5
 74
     0
  0
LTYPE
  5
31
330
5
100
AcDbSymbolTableRecord
100
AcDbLinetypeTableRecord
  2
DOT
 70
     0
  3
. . . . . . . . . . . . . . . . . . 
 72
    65
 73
     2
 40
0.25
 49
0.0
 74
     0
 49
-0.25
 74
     0
  0
LTYPE
  5
32
330
5
100
AcDbSymbolTableRecord
100
AcDbLinetypeTableRecord
  2
DOT2
 70
     0
  3
....................................
 72
    65
 73
     2
 40
0.125
 49
0.0
 74
     0
 49
-0.125
 74
     0
  0
LTYPE
  5
33
330
5
100
AcDbSymbolTableRecord
100
AcDbLinetypeTableRecord
  2
DOTX2
 70
     0
  3
.  .  .  .  .  .  .  .  .  .  .  .  .  
 72
    65
 73
     2
 40
0.5
 49
0.0
 74
     0
 49
-0.5
 74
     0
  0
LTYPE
  5
34
330
5
100
AcDbSymbolTableRecord
100
AcDbLinetypeTableRecord
  2
HIDDEN
 70
     0
  3
__ __ __ __ __ __ __ __ __ __ __ __ 
 72
    65
 73
     2
 40
0.375
 49
0.25
 74
     0
 49
-0.125
 74
     0
  0
LTYPE
  5
35
330
5
100
AcDbSymbolTableRecord
100
AcDbLinetypeTableRecord
  2
HIDDEN2
 70
     0
  3
_ _ _ _ _ _ _ _ _ _ _ _ _ _ _ _ _ _ 
 72
    65
 73
     2
 40
0.1875
 49
0.125
 74
     0
 49
-0.0625
 74
     0
  0
LTYPE
  5
36
330
5
100
AcDbSymbolTableRecord
100
AcDbLinetypeTableRecord
  2
HIDDENX2
 70
     0
  3
____ ____ ____ ____ ____ ____ ____ 
 72
    65
 73
     2
 40
0.75
 49
0.5
 74
     0
 49
-0.25
 74
     0
  0
LTYPE
  5
37
330
5
100
AcDbSymbolTableRecord
100
AcDbLinetypeTableRecord
  2
PHANTOM
 70
     0
  3
______  __  __  ______  __  __  
 72
    65
 73
     6
 40
2.5
 49
1.25
 74
     0
 49
-0.25
 74
     0
 49
0.25
 74
     0
 49
-0.25
 74
     0
 49
0.25
 74
     0
 49
-0.25
 74
     0
  0
LTYPE
  5
38
330
5
100
AcDbSymbolTableRecord
100
AcDbLinetypeTableRecord
  2
PHANTOM2
 70
     0
  3
___ _ _ ___ _ _ ___ _ _ ___ _ _ 
 72
    65
 73
     6
 40
1.25
 49
0.625
 74
     0
 49
-0.125
 74
     0
 49
0.125
 74
     0
 49
-0.125
 74
     0
 49
0.125
 74
     0
 49
-0.125
 74
     0
  0
LTYPE
  5
39
330
5
100
AcDbSymbolTableRecord
100
AcDbLinetypeTableRecord
  2
PHANTOMX2
 70
     0
  3
___ _ _ ___ _ _ ___ _ _ ___ _ _ 
 72
    65
 73
     6
 40
5.0
 49
2.5
 74
     0
 49
-0.5
 74
     0
 49
0.5
 74
     0
 49
-0.5
 74
     0
 49
0.5
 74
     0
 49
-0.5
 74
     0
  0
ENDTAB
  0
TABLE
  2
LAYER
  5
2
330
0
100
AcDbSymbolTable
 70
   257
  0
LAYER
  5
10
330
2
100
AcDbSymbolTableRecord
100
AcDbLayerTableRecord
  2
0
 70
     0
 62
     7
  6
CONTINUOUS
  0
LAYER
  5
3A
330
2
100
AcDbSymbolTableRecord
100
AcDbLayerTableRecord
  2
1
 70
     0
 62
     1
  6
CONTINUOUS
  0
LAYER
  5
3B
330
2
100
AcDbSymbolTableRecord
100
AcDbLayerTableRecord
  2
2
 70
     0
 62
     2
  6
CONTINUOUS
  0
LAYER
  5
3C
330
2
100
AcDbSymbolTableRecord
100
AcDbLayerTableRecord
  2
3
 70
     0
 62
     3
  6
CONTINUOUS
  0
LAYER
  5
3D
330
2
100
AcDbSymbolTableRecord
100
AcDbLayerTableRecord
  2
4
 70
     0
 62
     4
  6
CONTINUOUS
  0
LAYER
  5
3E
330
2
100
AcDbSymbolTableRecord
100
AcDbLayerTableRecord
  2
5
 70
     0
 62
     5
  6
CONTINUOUS
  0
LAYER
  5
3F
330
2
100
AcDbSymbolTableRecord
100
AcDbLayerTableRecord
  2
6
 70
     0
 62
     6
  6
CONTINUOUS
  0
LAYER
  5
40
330
2
100
AcDbSymbolTableRecord
100
AcDbLayerTableRecord
  2
7
 70
     0
 62
     7
  6
CONTINUOUS
  0
LAYER
  5
41
330
2
100
AcDbSymbolTableRecord
100
AcDbLayerTableRecord
  2
8
 70
     0
 62
     8
  6
CONTINUOUS
  0
LAYER
  5
42
330
2
100
AcDbSymbolTableRecord
100
AcDbLayerTableRecord
  2
9
 70
     0
 62
     9
  6
CONTINUOUS
  0
LAYER
  5
43
330
2
100
AcDbSymbolTableRecord
100
AcDbLayerTableRecord
  2
10
 70
     0
 62
    10
  6
CONTINUOUS
  0
LAYER
  5
44
330
2
100
AcDbSymbolTableRecord
100
AcDbLayerTableRecord
  2
11
 70
     0
 62
    11
  6
CONTINUOUS
  0
LAYER
  5
45
330
2
100
AcDbSymbolTableRecord
100
AcDbLayerTableRecord
  2
12
 70
     0
 62
    12
  6
CONTINUOUS
  0
LAYER
  5
46
330
2
100
AcDbSymbolTableRecord
100
AcDbLayerTableRecord
  2
13
 70
     0
 62
    13
  6
CONTINUOUS
  0
LAYER
  5
47
330
2
100
AcDbSymbolTableRecord
100
AcDbLayerTableRecord
  2
14
 70
     0
 62
    14
  6
CONTINUOUS
  0
LAYER
  5
48
330
2
100
AcDbSymbolTableRecord
100
AcDbLayerTableRecord
  2
15
 70
     0
 62
    15
  6
CONTINUOUS
  0
LAYER
  5
49
330
2
100
AcDbSymbolTableRecord
100
AcDbLayerTableRecord
  2
16
 70
     0
 62
    16
  6
CONTINUOUS
  0
LAYER
  5
4A
330
2
100
AcDbSymbolTableRecord
100
AcDbLayerTableRecord
  2
17
 70
     0
 62
    17
  6
CONTINUOUS
  0
LAYER
  5
4B
330
2
100
AcDbSymbolTableRecord
100
AcDbLayerTableRecord
  2
18
 70
     0
 62
    18
  6
CONTINUOUS
  0
LAYER
  5
4C
330
2
100
AcDbSymbolTableRecord
100
AcDbLayerTableRecord
  2
19
 70
     0
 62
    19
  6
CONTINUOUS
  0
LAYER
  5
4D
330
2
100
AcDbSymbolTableRecord
100
AcDbLayerTableRecord
  2
20
 70
     0
 62
    20
  6
CONTINUOUS
  0
LAYER
  5
4E
330
2
100
AcDbSymbolTableRecord
100
AcDbLayerTableRecord
  2
21
 70
     0
 62
    21
  6
CONTINUOUS
  0
LAYER
  5
4F
330
2
100
AcDbSymbolTableRecord
100
AcDbLayerTableRecord
  2
22
 70
     0
 62
    22
  6
CONTINUOUS
  0
LAYER
  5
50
330
2
100
AcDbSymbolTableRecord
100
AcDbLayerTableRecord
  2
23
 70
     0
 62
    23
  6
CONTINUOUS
  0
LAYER
  5
51
330
2
100
AcDbSymbolTableRecord
100
AcDbLayerTableRecord
  2
24
 70
     0
 62
    24
  6
CONTINUOUS
  0
LAYER
  5
52
330
2
100
AcDbSymbolTableRecord
100
AcDbLayerTableRecord
  2
25
 70
     0
 62
    25
  6
CONTINUOUS
  0
LAYER
  5
53
330
2
100
AcDbSymbolTableRecord
100
AcDbLayerTableRecord
  2
26
 70
     0
 62
    26
  6
CONTINUOUS
  0
LAYER
  5
54
330
2
100
AcDbSymbolTableRecord
100
AcDbLayerTableRecord
  2
27
 70
     0
 62
    27
  6
CONTINUOUS
  0
LAYER
  5
55
330
2
100
AcDbSymbolTableRecord
100
AcDbLayerTableRecord
  2
28
 70
     0
 62
    28
  6
CONTINUOUS
  0
LAYER
  5
56
330
2
100
AcDbSymbolTableRecord
100
AcDbLayerTableRecord
  2
29
 70
     0
 62
    29
  6
CONTINUOUS
  0
LAYER
  5
57
330
2
100
AcDbSymbolTableRecord
100
AcDbLayerTableRecord
  2
30
 70
     0
 62
    30
  6
CONTINUOUS
  0
LAYER
  5
58
330
2
100
AcDbSymbolTableRecord
100
AcDbLayerTableRecord
  2
31
 70
     0
 62
    31
  6
CONTINUOUS
  0
LAYER
  5
59
330
2
100
AcDbSymbolTableRecord
100
AcDbLayerTableRecord
  2
32
 70
     0
 62
    32
  6
CONTINUOUS
  0
LAYER
  5
5A
330
2
100
AcDbSymbolTableRecord
100
AcDbLayerTableRecord
  2
33
 70
     0
 62
    33
  6
CONTINUOUS
  0
LAYER
  5
5B
330
2
100
AcDbSymbolTableRecord
100
AcDbLayerTableRecord
  2
34
 70
     0
 62
    34
  6
CONTINUOUS
  0
LAYER
  5
5C
330
2
100
AcDbSymbolTableRecord
100
AcDbLayerTableRecord
  2
35
 70
     0
 62
    35
  6
CONTINUOUS
  0
LAYER
  5
5D
330
2
100
AcDbSymbolTableRecord
100
AcDbLayerTableRecord
  2
36
 70
     0
 62
    36
  6
CONTINUOUS
  0
LAYER
  5
5E
330
2
100
AcDbSymbolTableRecord
100
AcDbLayerTableRecord
  2
37
 70
     0
 62
    37
  6
CONTINUOUS
  0
LAYER
  5
5F
330
2
100
AcDbSymbolTableRecord
100
AcDbLayerTableRecord
  2
38
 70
     0
 62
    38
  6
CONTINUOUS
  0
LAYER
  5
60
330
2
100
AcDbSymbolTableRecord
100
AcDbLayerTableRecord
  2
39
 70
     0
 62
    39
  6
CONTINUOUS
  0
LAYER
  5
61
330
2
100
AcDbSymbolTableRecord
100
AcDbLayerTableRecord
  2
40
 70
     0
 62
    40
  6
CONTINUOUS
  0
LAYER
  5
62
330
2
100
AcDbSymbolTableRecord
100
AcDbLayerTableRecord
  2
41
 70
     0
 62
    41
  6
CONTINUOUS
  0
LAYER
  5
63
330
2
100
AcDbSymbolTableRecord
100
AcDbLayerTableRecord
  2
42
 70
     0
 62
    42
  6
CONTINUOUS
  0
LAYER
  5
64
330
2
100
AcDbSymbolTableRecord
100
AcDbLayerTableRecord
  2
43
 70
     0
 62
    43
  6
CONTINUOUS
  0
LAYER
  5
65
330
2
100
AcDbSymbolTableRecord
100
AcDbLayerTableRecord
  2
44
 70
     0
 62
    44
  6
CONTINUOUS
  0
LAYER
  5
66
330
2
100
AcDbSymbolTableRecord
100
AcDbLayerTableRecord
  2
45
 70
     0
 62
    45
  6
CONTINUOUS
  0
LAYER
  5
67
330
2
100
AcDbSymbolTableRecord
100
AcDbLayerTableRecord
  2
46
 70
     0
 62
    46
  6
CONTINUOUS
  0
LAYER
  5
68
330
2
100
AcDbSymbolTableRecord
100
AcDbLayerTableRecord
  2
47
 70
     0
 62
    47
  6
CONTINUOUS
  0
LAYER
  5
69
330
2
100
AcDbSymbolTableRecord
100
AcDbLayerTableRecord
  2
48
 70
     0
 62
    48
  6
CONTINUOUS
  0
LAYER
  5
6A
330
2
100
AcDbSymbolTableRecord
100
AcDbLayerTableRecord
  2
49
 70
     0
 62
    49
  6
CONTINUOUS
  0
LAYER
  5
6B
330
2
100
AcDbSymbolTableRecord
100
AcDbLayerTableRecord
  2
50
 70
     0
 62
    50
  6
CONTINUOUS
  0
LAYER
  5
6C
330
2
100
AcDbSymbolTableRecord
100
AcDbLayerTableRecord
  2
51
 70
     0
 62
    51
  6
CONTINUOUS
  0
LAYER
  5
6D
330
2
100
AcDbSymbolTableRecord
100
AcDbLayerTableRecord
  2
52
 70
     0
 62
    52
  6
CONTINUOUS
  0
LAYER
  5
6E
330
2
100
AcDbSymbolTableRecord
100
AcDbLayerTableRecord
  2
53
 70
     0
 62
    53
  6
CONTINUOUS
  0
LAYER
  5
6F
330
2
100
AcDbSymbolTableRecord
100
AcDbLayerTableRecord
  2
54
 70
     0
 62
    54
  6
CONTINUOUS
  0
LAYER
  5
70
330
2
100
AcDbSymbolTableRecord
100
AcDbLayerTableRecord
  2
55
 70
     0
 62
    55
  6
CONTINUOUS
  0
LAYER
  5
71
330
2
100
AcDbSymbolTableRecord
100
AcDbLayerTableRecord
  2
56
 70
     0
 62
    56
  6
CONTINUOUS
  0
LAYER
  5
72
330
2
100
AcDbSymbolTableRecord
100
AcDbLayerTableRecord
  2
57
 70
     0
 62
    57
  6
CONTINUOUS
  0
LAYER
  5
73
330
2
100
AcDbSymbolTableRecord
100
AcDbLayerTableRecord
  2
58
 70
     0
 62
    58
  6
CONTINUOUS
  0
LAYER
  5
74
330
2
100
AcDbSymbolTableRecord
100
AcDbLayerTableRecord
  2
59
 70
     0
 62
    59
  6
CONTINUOUS
  0
LAYER
  5
75
330
2
100
AcDbSymbolTableRecord
100
AcDbLayerTableRecord
  2
60
 70
     0
 62
    60
  6
CONTINUOUS
  0
LAYER
  5
76
330
2
100
AcDbSymbolTableRecord
100
AcDbLayerTableRecord
  2
61
 70
     0
 62
    61
  6
CONTINUOUS
  0
LAYER
  5
77
330
2
100
AcDbSymbolTableRecord
100
AcDbLayerTableRecord
  2
62
 70
     0
 62
    62
  6
CONTINUOUS
  0
LAYER
  5
78
330
2
100
AcDbSymbolTableRecord
100
AcDbLayerTableRecord
  2
63
 70
     0
 62
    63
  6
CONTINUOUS
  0
LAYER
  5
79
330
2
100
AcDbSymbolTableRecord
100
AcDbLayerTableRecord
  2
64
 70
     0
 62
    64
  6
CONTINUOUS
  0
LAYER
  5
7A
330
2
100
AcDbSymbolTableRecord
100
AcDbLayerTableRecord
  2
65
 70
     0
 62
    65
  6
CONTINUOUS
  0
LAYER
  5
7B
330
2
100
AcDbSymbolTableRecord
100
AcDbLayerTableRecord
  2
66
 70
     0
 62
    66
  6
CONTINUOUS
  0
LAYER
  5
7C
330
2
100
AcDbSymbolTableRecord
100
AcDbLayerTableRecord
  2
67
 70
     0
 62
    67
  6
CONTINUOUS
  0
LAYER
  5
7D
330
2
100
AcDbSymbolTableRecord
100
AcDbLayerTableRecord
  2
68
 70
     0
 62
    68
  6
CONTINUOUS
  0
LAYER
  5
7E
330
2
100
AcDbSymbolTableRecord
100
AcDbLayerTableRecord
  2
69
 70
     0
 62
    69
  6
CONTINUOUS
  0
LAYER
  5
7F
330
2
100
AcDbSymbolTableRecord
100
AcDbLayerTableRecord
  2
70
 70
     0
 62
    70
  6
CONTINUOUS
  0
LAYER
  5
80
330
2
100
AcDbSymbolTableRecord
100
AcDbLayerTableRecord
  2
71
 70
     0
 62
    71
  6
CONTINUOUS
  0
LAYER
  5
81
330
2
100
AcDbSymbolTableRecord
100
AcDbLayerTableRecord
  2
72
 70
     0
 62
    72
  6
CONTINUOUS
  0
LAYER
  5
82
330
2
100
AcDbSymbolTableRecord
100
AcDbLayerTableRecord
  2
73
 70
     0
 62
    73
  6
CONTINUOUS
  0
LAYER
  5
83
330
2
100
AcDbSymbolTableRecord
100
AcDbLayerTableRecord
  2
74
 70
     0
 62
    74
  6
CONTINUOUS
  0
LAYER
  5
84
330
2
100
AcDbSymbolTableRecord
100
AcDbLayerTableRecord
  2
75
 70
     0
 62
    75
  6
CONTINUOUS
  0
LAYER
  5
85
330
2
100
AcDbSymbolTableRecord
100
AcDbLayerTableRecord
  2
76
 70
     0
 62
    76
  6
CONTINUOUS
  0
LAYER
  5
86
330
2
100
AcDbSymbolTableRecord
100
AcDbLayerTableRecord
  2
77
 70
     0
 62
    77
  6
CONTINUOUS
  0
LAYER
  5
87
330
2
100
AcDbSymbolTableRecord
100
AcDbLayerTableRecord
  2
78
 70
     0
 62
    78
  6
CONTINUOUS
  0
LAYER
  5
88
330
2
100
AcDbSymbolTableRecord
100
AcDbLayerTableRecord
  2
79
 70
     0
 62
    79
  6
CONTINUOUS
  0
LAYER
  5
89
330
2
100
AcDbSymbolTableRecord
100
AcDbLayerTableRecord
  2
80
 70
     0
 62
    80
  6
CONTINUOUS
  0
LAYER
  5
8A
330
2
100
AcDbSymbolTableRecord
100
AcDbLayerTableRecord
  2
81
 70
     0
 62
    81
  6
CONTINUOUS
  0
LAYER
  5
8B
330
2
100
AcDbSymbolTableRecord
100
AcDbLayerTableRecord
  2
82
 70
     0
 62
    82
  6
CONTINUOUS
  0
LAYER
  5
8C
330
2
100
AcDbSymbolTableRecord
100
AcDbLayerTableRecord
  2
83
 70
     0
 62
    83
  6
CONTINUOUS
  0
LAYER
  5
8D
330
2
100
AcDbSymbolTableRecord
100
AcDbLayerTableRecord
  2
84
 70
     0
 62
    84
  6
CONTINUOUS
  0
LAYER
  5
8E
330
2
100
AcDbSymbolTableRecord
100
AcDbLayerTableRecord
  2
85
 70
     0
 62
    85
  6
CONTINUOUS
  0
LAYER
  5
8F
330
2
100
AcDbSymbolTableRecord
100
AcDbLayerTableRecord
  2
86
 70
     0
 62
    86
  6
CONTINUOUS
  0
LAYER
  5
90
330
2
100
AcDbSymbolTableRecord
100
AcDbLayerTableRecord
  2
87
 70
     0
 62
    87
  6
CONTINUOUS
  0
LAYER
  5
91
330
2
100
AcDbSymbolTableRecord
100
AcDbLayerTableRecord
  2
88
 70
     0
 62
    88
  6
CONTINUOUS
  0
LAYER
  5
92
330
2
100
AcDbSymbolTableRecord
100
AcDbLayerTableRecord
  2
89
 70
     0
 62
    89
  6
CONTINUOUS
  0
LAYER
  5
93
330
2
100
AcDbSymbolTableRecord
100
AcDbLayerTableRecord
  2
90
 70
     0
 62
    90
  6
CONTINUOUS
  0
LAYER
  5
94
330
2
100
AcDbSymbolTableRecord
100
AcDbLayerTableRecord
  2
91
 70
     0
 62
    91
  6
CONTINUOUS
  0
LAYER
  5
95
330
2
100
AcDbSymbolTableRecord
100
AcDbLayerTableRecord
  2
92
 70
     0
 62
    92
  6
CONTINUOUS
  0
LAYER
  5
96
330
2
100
AcDbSymbolTableRecord
100
AcDbLayerTableRecord
  2
93
 70
     0
 62
    93
  6
CONTINUOUS
  0
LAYER
  5
97
330
2
100
AcDbSymbolTableRecord
100
AcDbLayerTableRecord
  2
94
 70
     0
 62
    94
  6
CONTINUOUS
  0
LAYER
  5
98
330
2
100
AcDbSymbolTableRecord
100
AcDbLayerTableRecord
  2
95
 70
     0
 62
    95
  6
CONTINUOUS
  0
LAYER
  5
99
330
2
100
AcDbSymbolTableRecord
100
AcDbLayerTableRecord
  2
96
 70
     0
 62
    96
  6
CONTINUOUS
  0
LAYER
  5
9A
330
2
100
AcDbSymbolTableRecord
100
AcDbLayerTableRecord
  2
97
 70
     0
 62
    97
  6
CONTINUOUS
  0
LAYER
  5
9B
330
2
100
AcDbSymbolTableRecord
100
AcDbLayerTableRecord
  2
98
 70
     0
 62
    98
  6
CONTINUOUS
  0
LAYER
  5
9C
330
2
100
AcDbSymbolTableRecord
100
AcDbLayerTableRecord
  2
99
 70
     0
 62
    99
  6
CONTINUOUS
  0
LAYER
  5
9D
330
2
100
AcDbSymbolTableRecord
100
AcDbLayerTableRecord
  2
100
 70
     0
 62
   100
  6
CONTINUOUS
  0
LAYER
  5
9E
330
2
100
AcDbSymbolTableRecord
100
AcDbLayerTableRecord
  2
101
 70
     0
 62
   101
  6
CONTINUOUS
  0
LAYER
  5
9F
330
2
100
AcDbSymbolTableRecord
100
AcDbLayerTableRecord
  2
102
 70
     0
 62
   102
  6
CONTINUOUS
  0
LAYER
  5
A0
330
2
100
AcDbSymbolTableRecord
100
AcDbLayerTableRecord
  2
103
 70
     0
 62
   103
  6
CONTINUOUS
  0
LAYER
  5
A1
330
2
100
AcDbSymbolTableRecord
100
AcDbLayerTableRecord
  2
104
 70
     0
 62
   104
  6
CONTINUOUS
  0
LAYER
  5
A2
330
2
100
AcDbSymbolTableRecord
100
AcDbLayerTableRecord
  2
105
 70
     0
 62
   105
  6
CONTINUOUS
  0
LAYER
  5
A3
330
2
100
AcDbSymbolTableRecord
100
AcDbLayerTableRecord
  2
106
 70
     0
 62
   106
  6
CONTINUOUS
  0
LAYER
  5
A4
330
2
100
AcDbSymbolTableRecord
100
AcDbLayerTableRecord
  2
107
 70
     0
 62
   107
  6
CONTINUOUS
  0
LAYER
  5
A5
330
2
100
AcDbSymbolTableRecord
100
AcDbLayerTableRecord
  2
108
 70
     0
 62
   108
  6
CONTINUOUS
  0
LAYER
  5
A6
330
2
100
AcDbSymbolTableRecord
100
AcDbLayerTableRecord
  2
109
 70
     0
 62
   109
  6
CONTINUOUS
  0
LAYER
  5
A7
330
2
100
AcDbSymbolTableRecord
100
AcDbLayerTableRecord
  2
110
 70
     0
 62
   110
  6
CONTINUOUS
  0
LAYER
  5
A8
330
2
100
AcDbSymbolTableRecord
100
AcDbLayerTableRecord
  2
111
 70
     0
 62
   111
  6
CONTINUOUS
  0
LAYER
  5
A9
330
2
100
AcDbSymbolTableRecord
100
AcDbLayerTableRecord
  2
112
 70
     0
 62
   112
  6
CONTINUOUS
  0
LAYER
  5
AA
330
2
100
AcDbSymbolTableRecord
100
AcDbLayerTableRecord
  2
113
 70
     0
 62
   113
  6
CONTINUOUS
  0
LAYER
  5
AB
330
2
100
AcDbSymbolTableRecord
100
AcDbLayerTableRecord
  2
114
 70
     0
 62
   114
  6
CONTINUOUS
  0
LAYER
  5
AC
330
2
100
AcDbSymbolTableRecord
100
AcDbLayerTableRecord
  2
115
 70
     0
 62
   115
  6
CONTINUOUS
  0
LAYER
  5
AD
330
2
100
AcDbSymbolTableRecord
100
AcDbLayerTableRecord
  2
116
 70
     0
 62
   116
  6
CONTINUOUS
  0
LAYER
  5
AE
330
2
100
AcDbSymbolTableRecord
100
AcDbLayerTableRecord
  2
117
 70
     0
 62
   117
  6
CONTINUOUS
  0
LAYER
  5
AF
330
2
100
AcDbSymbolTableRecord
100
AcDbLayerTableRecord
  2
118
 70
     0
 62
   118
  6
CONTINUOUS
  0
LAYER
  5
B0
330
2
100
AcDbSymbolTableRecord
100
AcDbLayerTableRecord
  2
119
 70
     0
 62
   119
  6
CONTINUOUS
  0
LAYER
  5
B1
330
2
100
AcDbSymbolTableRecord
100
AcDbLayerTableRecord
  2
120
 70
     0
 62
   120
  6
CONTINUOUS
  0
LAYER
  5
B2
330
2
100
AcDbSymbolTableRecord
100
AcDbLayerTableRecord
  2
121
 70
     0
 62
   121
  6
CONTINUOUS
  0
LAYER
  5
B3
330
2
100
AcDbSymbolTableRecord
100
AcDbLayerTableRecord
  2
122
 70
     0
 62
   122
  6
CONTINUOUS
  0
LAYER
  5
B4
330
2
100
AcDbSymbolTableRecord
100
AcDbLayerTableRecord
  2
123
 70
     0
 62
   123
  6
CONTINUOUS
  0
LAYER
  5
B5
330
2
100
AcDbSymbolTableRecord
100
AcDbLayerTableRecord
  2
124
 70
     0
 62
   124
  6
CONTINUOUS
  0
LAYER
  5
B6
330
2
100
AcDbSymbolTableRecord
100
AcDbLayerTableRecord
  2
125
 70
     0
 62
   125
  6
CONTINUOUS
  0
LAYER
  5
B7
330
2
100
AcDbSymbolTableRecord
100
AcDbLayerTableRecord
  2
126
 70
     0
 62
   126
  6
CONTINUOUS
  0
LAYER
  5
B8
330
2
100
AcDbSymbolTableRecord
100
AcDbLayerTableRecord
  2
127
 70
     0
 62
   127
  6
CONTINUOUS
  0
LAYER
  5
B9
330
2
100
AcDbSymbolTableRecord
100
AcDbLayerTableRecord
  2
128
 70
     0
 62
   128
  6
CONTINUOUS
  0
LAYER
  5
BA
330
2
100
AcDbSymbolTableRecord
100
AcDbLayerTableRecord
  2
129
 70
     0
 62
   129
  6
CONTINUOUS
  0
LAYER
  5
BB
330
2
100
AcDbSymbolTableRecord
100
AcDbLayerTableRecord
  2
130
 70
     0
 62
   130
  6
CONTINUOUS
  0
LAYER
  5
BC
330
2
100
AcDbSymbolTableRecord
100
AcDbLayerTableRecord
  2
131
 70
     0
 62
   131
  6
CONTINUOUS
  0
LAYER
  5
BD
330
2
100
AcDbSymbolTableRecord
100
AcDbLayerTableRecord
  2
132
 70
     0
 62
   132
  6
CONTINUOUS
  0
LAYER
  5
BE
330
2
100
AcDbSymbolTableRecord
100
AcDbLayerTableRecord
  2
133
 70
     0
 62
   133
  6
CONTINUOUS
  0
LAYER
  5
BF
330
2
100
AcDbSymbolTableRecord
100
AcDbLayerTableRecord
  2
134
 70
     0
 62
   134
  6
CONTINUOUS
  0
LAYER
  5
C0
330
2
100
AcDbSymbolTableRecord
100
AcDbLayerTableRecord
  2
135
 70
     0
 62
   135
  6
CONTINUOUS
  0
LAYER
  5
C1
330
2
100
AcDbSymbolTableRecord
100
AcDbLayerTableRecord
  2
136
 70
     0
 62
   136
  6
CONTINUOUS
  0
LAYER
  5
C2
330
2
100
AcDbSymbolTableRecord
100
AcDbLayerTableRecord
  2
137
 70
     0
 62
   137
  6
CONTINUOUS
  0
LAYER
  5
C3
330
2
100
AcDbSymbolTableRecord
100
AcDbLayerTableRecord
  2
138
 70
     0
 62
   138
  6
CONTINUOUS
  0
LAYER
  5
C4
330
2
100
AcDbSymbolTableRecord
100
AcDbLayerTableRecord
  2
139
 70
     0
 62
   139
  6
CONTINUOUS
  0
LAYER
  5
C5
330
2
100
AcDbSymbolTableRecord
100
AcDbLayerTableRecord
  2
140
 70
     0
 62
   140
  6
CONTINUOUS
  0
LAYER
  5
C6
330
2
100
AcDbSymbolTableRecord
100
AcDbLayerTableRecord
  2
141
 70
     0
 62
   141
  6
CONTINUOUS
  0
LAYER
  5
C7
330
2
100
AcDbSymbolTableRecord
100
AcDbLayerTableRecord
  2
142
 70
     0
 62
   142
  6
CONTINUOUS
  0
LAYER
  5
C8
330
2
100
AcDbSymbolTableRecord
100
AcDbLayerTableRecord
  2
143
 70
     0
 62
   143
  6
CONTINUOUS
  0
LAYER
  5
C9
330
2
100
AcDbSymbolTableRecord
100
AcDbLayerTableRecord
  2
144
 70
     0
 62
   144
  6
CONTINUOUS
  0
LAYER
  5
CA
330
2
100
AcDbSymbolTableRecord
100
AcDbLayerTableRecord
  2
145
 70
     0
 62
   145
  6
CONTINUOUS
  0
LAYER
  5
CB
330
2
100
AcDbSymbolTableRecord
100
AcDbLayerTableRecord
  2
146
 70
     0
 62
   146
  6
CONTINUOUS
  0
LAYER
  5
CC
330
2
100
AcDbSymbolTableRecord
100
AcDbLayerTableRecord
  2
147
 70
     0
 62
   147
  6
CONTINUOUS
  0
LAYER
  5
CD
330
2
100
AcDbSymbolTableRecord
100
AcDbLayerTableRecord
  2
148
 70
     0
 62
   148
  6
CONTINUOUS
  0
LAYER
  5
CE
330
2
100
AcDbSymbolTableRecord
100
AcDbLayerTableRecord
  2
149
 70
     0
 62
   149
  6
CONTINUOUS
  0
LAYER
  5
CF
330
2
100
AcDbSymbolTableRecord
100
AcDbLayerTableRecord
  2
150
 70
     0
 62
   150
  6
CONTINUOUS
  0
LAYER
  5
D0
330
2
100
AcDbSymbolTableRecord
100
AcDbLayerTableRecord
  2
151
 70
     0
 62
   151
  6
CONTINUOUS
  0
LAYER
  5
D1
330
2
100
AcDbSymbolTableRecord
100
AcDbLayerTableRecord
  2
152
 70
     0
 62
   152
  6
CONTINUOUS
  0
LAYER
  5
D2
330
2
100
AcDbSymbolTableRecord
100
AcDbLayerTableRecord
  2
153
 70
     0
 62
   153
  6
CONTINUOUS
  0
LAYER
  5
D3
330
2
100
AcDbSymbolTableRecord
100
AcDbLayerTableRecord
  2
154
 70
     0
 62
   154
  6
CONTINUOUS
  0
LAYER
  5
D4
330
2
100
AcDbSymbolTableRecord
100
AcDbLayerTableRecord
  2
155
 70
     0
 62
   155
  6
CONTINUOUS
  0
LAYER
  5
D5
330
2
100
AcDbSymbolTableRecord
100
AcDbLayerTableRecord
  2
156
 70
     0
 62
   156
  6
CONTINUOUS
  0
LAYER
  5
D6
330
2
100
AcDbSymbolTableRecord
100
AcDbLayerTableRecord
  2
157
 70
     0
 62
   157
  6
CONTINUOUS
  0
LAYER
  5
D7
330
2
100
AcDbSymbolTableRecord
100
AcDbLayerTableRecord
  2
158
 70
     0
 62
   158
  6
CONTINUOUS
  0
LAYER
  5
D8
330
2
100
AcDbSymbolTableRecord
100
AcDbLayerTableRecord
  2
159
 70
     0
 62
   159
  6
CONTINUOUS
  0
LAYER
  5
D9
330
2
100
AcDbSymbolTableRecord
100
AcDbLayerTableRecord
  2
160
 70
     0
 62
   160
  6
CONTINUOUS
  0
LAYER
  5
DA
330
2
100
AcDbSymbolTableRecord
100
AcDbLayerTableRecord
  2
161
 70
     0
 62
   161
  6
CONTINUOUS
  0
LAYER
  5
DB
330
2
100
AcDbSymbolTableRecord
100
AcDbLayerTableRecord
  2
162
 70
     0
 62
   162
  6
CONTINUOUS
  0
LAYER
  5
DC
330
2
100
AcDbSymbolTableRecord
100
AcDbLayerTableRecord
  2
163
 70
     0
 62
   163
  6
CONTINUOUS
  0
LAYER
  5
DD
330
2
100
AcDbSymbolTableRecord
100
AcDbLayerTableRecord
  2
164
 70
     0
 62
   164
  6
CONTINUOUS
  0
LAYER
  5
DE
330
2
100
AcDbSymbolTableRecord
100
AcDbLayerTableRecord
  2
165
 70
     0
 62
   165
  6
CONTINUOUS
  0
LAYER
  5
DF
330
2
100
AcDbSymbolTableRecord
100
AcDbLayerTableRecord
  2
166
 70
     0
 62
   166
  6
CONTINUOUS
  0
LAYER
  5
E0
330
2
100
AcDbSymbolTableRecord
100
AcDbLayerTableRecord
  2
167
 70
     0
 62
   167
  6
CONTINUOUS
  0
LAYER
  5
E1
330
2
100
AcDbSymbolTableRecord
100
AcDbLayerTableRecord
  2
168
 70
     0
 62
   168
  6
CONTINUOUS
  0
LAYER
  5
E2
330
2
100
AcDbSymbolTableRecord
100
AcDbLayerTableRecord
  2
169
 70
     0
 62
   169
  6
CONTINUOUS
  0
LAYER
  5
E3
330
2
100
AcDbSymbolTableRecord
100
AcDbLayerTableRecord
  2
170
 70
     0
 62
   170
  6
CONTINUOUS
  0
LAYER
  5
E4
330
2
100
AcDbSymbolTableRecord
100
AcDbLayerTableRecord
  2
171
 70
     0
 62
   171
  6
CONTINUOUS
  0
LAYER
  5
E5
330
2
100
AcDbSymbolTableRecord
100
AcDbLayerTableRecord
  2
172
 70
     0
 62
   172
  6
CONTINUOUS
  0
LAYER
  5
E6
330
2
100
AcDbSymbolTableRecord
100
AcDbLayerTableRecord
  2
173
 70
     0
 62
   173
  6
CONTINUOUS
  0
LAYER
  5
E7
330
2
100
AcDbSymbolTableRecord
100
AcDbLayerTableRecord
  2
174
 70
     0
 62
   174
  6
CONTINUOUS
  0
LAYER
  5
E8
330
2
100
AcDbSymbolTableRecord
100
AcDbLayerTableRecord
  2
175
 70
     0
 62
   175
  6
CONTINUOUS
  0
LAYER
  5
E9
330
2
100
AcDbSymbolTableRecord
100
AcDbLayerTableRecord
  2
176
 70
     0
 62
   176
  6
CONTINUOUS
  0
LAYER
  5
EA
330
2
100
AcDbSymbolTableRecord
100
AcDbLayerTableRecord
  2
177
 70
     0
 62
   177
  6
CONTINUOUS
  0
LAYER
  5
EB
330
2
100
AcDbSymbolTableRecord
100
AcDbLayerTableRecord
  2
178
 70
     0
 62
   178
  6
CONTINUOUS
  0
LAYER
  5
EC
330
2
100
AcDbSymbolTableRecord
100
AcDbLayerTableRecord
  2
179
 70
     0
 62
   179
  6
CONTINUOUS
  0
LAYER
  5
ED
330
2
100
AcDbSymbolTableRecord
100
AcDbLayerTableRecord
  2
180
 70
     0
 62
   180
  6
CONTINUOUS
  0
LAYER
  5
EE
330
2
100
AcDbSymbolTableRecord
100
AcDbLayerTableRecord
  2
181
 70
     0
 62
   181
  6
CONTINUOUS
  0
LAYER
  5
EF
330
2
100
AcDbSymbolTableRecord
100
AcDbLayerTableRecord
  2
182
 70
     0
 62
   182
  6
CONTINUOUS
  0
LAYER
  5
F0
330
2
100
AcDbSymbolTableRecord
100
AcDbLayerTableRecord
  2
183
 70
     0
 62
   183
  6
CONTINUOUS
  0
LAYER
  5
F1
330
2
100
AcDbSymbolTableRecord
100
AcDbLayerTableRecord
  2
184
 70
     0
 62
   184
  6
CONTINUOUS
  0
LAYER
  5
F2
330
2
100
AcDbSymbolTableRecord
100
AcDbLayerTableRecord
  2
185
 70
     0
 62
   185
  6
CONTINUOUS
  0
LAYER
  5
F3
330
2
100
AcDbSymbolTableRecord
100
AcDbLayerTableRecord
  2
186
 70
     0
 62
   186
  6
CONTINUOUS
  0
LAYER
  5
F4
330
2
100
AcDbSymbolTableRecord
100
AcDbLayerTableRecord
  2
187
 70
     0
 62
   187
  6
CONTINUOUS
  0
LAYER
  5
F5
330
2
100
AcDbSymbolTableRecord
100
AcDbLayerTableRecord
  2
188
 70
     0
 62
   188
  6
CONTINUOUS
  0
LAYER
  5
F6
330
2
100
AcDbSymbolTableRecord
100
AcDbLayerTableRecord
  2
189
 70
     0
 62
   189
  6
CONTINUOUS
  0
LAYER
  5
F7
330
2
100
AcDbSymbolTableRecord
100
AcDbLayerTableRecord
  2
190
 70
     0
 62
   190
  6
CONTINUOUS
  0
LAYER
  5
F8
330
2
100
AcDbSymbolTableRecord
100
AcDbLayerTableRecord
  2
191
 70
     0
 62
   191
  6
CONTINUOUS
  0
LAYER
  5
F9
330
2
100
AcDbSymbolTableRecord
100
AcDbLayerTableRecord
  2
192
 70
     0
 62
   192
  6
CONTINUOUS
  0
LAYER
  5
FA
330
2
100
AcDbSymbolTableRecord
100
AcDbLayerTableRecord
  2
193
 70
     0
 62
   193
  6
CONTINUOUS
  0
LAYER
  5
FB
330
2
100
AcDbSymbolTableRecord
100
AcDbLayerTableRecord
  2
194
 70
     0
 62
   194
  6
CONTINUOUS
  0
LAYER
  5
FC
330
2
100
AcDbSymbolTableRecord
100
AcDbLayerTableRecord
  2
195
 70
     0
 62
   195
  6
CONTINUOUS
  0
LAYER
  5
FD
330
2
100
AcDbSymbolTableRecord
100
AcDbLayerTableRecord
  2
196
 70
     0
 62
   196
  6
CONTINUOUS
  0
LAYER
  5
FE
330
2
100
AcDbSymbolTableRecord
100
AcDbLayerTableRecord
  2
197
 70
     0
 62
   197
  6
CONTINUOUS
  0
LAYER
  5
FF
330
2
100
AcDbSymbolTableRecord
100
AcDbLayerTableRecord
  2
198
 70
     0
 62
   198
  6
CONTINUOUS
  0
LAYER
  5
100
330
2
100
AcDbSymbolTableRecord
100
AcDbLayerTableRecord
  2
199
 70
     0
 62
   199
  6
CONTINUOUS
  0
LAYER
  5
101
330
2
100
AcDbSymbolTableRecord
100
AcDbLayerTableRecord
  2
200
 70
     0
 62
   200
  6
CONTINUOUS
  0
LAYER
  5
102
330
2
100
AcDbSymbolTableRecord
100
AcDbLayerTableRecord
  2
201
 70
     0
 62
   201
  6
CONTINUOUS
  0
LAYER
  5
103
330
2
100
AcDbSymbolTableRecord
100
AcDbLayerTableRecord
  2
202
 70
     0
 62
   202
  6
CONTINUOUS
  0
LAYER
  5
104
330
2
100
AcDbSymbolTableRecord
100
AcDbLayerTableRecord
  2
203
 70
     0
 62
   203
  6
CONTINUOUS
  0
LAYER
  5
105
330
2
100
AcDbSymbolTableRecord
100
AcDbLayerTableRecord
  2
204
 70
     0
 62
   204
  6
CONTINUOUS
  0
LAYER
  5
106
330
2
100
AcDbSymbolTableRecord
100
AcDbLayerTableRecord
  2
205
 70
     0
 62
   205
  6
CONTINUOUS
  0
LAYER
  5
107
330
2
100
AcDbSymbolTableRecord
100
AcDbLayerTableRecord
  2
206
 70
     0
 62
   206
  6
CONTINUOUS
  0
LAYER
  5
108
330
2
100
AcDbSymbolTableRecord
100
AcDbLayerTableRecord
  2
207
 70
     0
 62
   207
  6
CONTINUOUS
  0
LAYER
  5
109
330
2
100
AcDbSymbolTableRecord
100
AcDbLayerTableRecord
  2
208
 70
     0
 62
   208
  6
CONTINUOUS
  0
LAYER
  5
10A
330
2
100
AcDbSymbolTableRecord
100
AcDbLayerTableRecord
  2
209
 70
     0
 62
   209
  6
CONTINUOUS
  0
LAYER
  5
10B
330
2
100
AcDbSymbolTableRecord
100
AcDbLayerTableRecord
  2
210
 70
     0
 62
   210
  6
CONTINUOUS
  0
LAYER
  5
10C
330
2
100
AcDbSymbolTableRecord
100
AcDbLayerTableRecord
  2
211
 70
     0
 62
   211
  6
CONTINUOUS
  0
LAYER
  5
10D
330
2
100
AcDbSymbolTableRecord
100
AcDbLayerTableRecord
  2
212
 70
     0
 62
   212
  6
CONTINUOUS
  0
LAYER
  5
10E
330
2
100
AcDbSymbolTableRecord
100
AcDbLayerTableRecord
  2
213
 70
     0
 62
   213
  6
CONTINUOUS
  0
LAYER
  5
10F
330
2
100
AcDbSymbolTableRecord
100
AcDbLayerTableRecord
  2
214
 70
     0
 62
   214
  6
CONTINUOUS
  0
LAYER
  5
110
330
2
100
AcDbSymbolTableRecord
100
AcDbLayerTableRecord
  2
215
 70
     0
 62
   215
  6
CONTINUOUS
  0
LAYER
  5
111
330
2
100
AcDbSymbolTableRecord
100
AcDbLayerTableRecord
  2
216
 70
     0
 62
   216
  6
CONTINUOUS
  0
LAYER
  5
112
330
2
100
AcDbSymbolTableRecord
100
AcDbLayerTableRecord
  2
217
 70
     0
 62
   217
  6
CONTINUOUS
  0
LAYER
  5
113
330
2
100
AcDbSymbolTableRecord
100
AcDbLayerTableRecord
  2
218
 70
     0
 62
   218
  6
CONTINUOUS
  0
LAYER
  5
114
330
2
100
AcDbSymbolTableRecord
100
AcDbLayerTableRecord
  2
219
 70
     0
 62
   219
  6
CONTINUOUS
  0
LAYER
  5
115
330
2
100
AcDbSymbolTableRecord
100
AcDbLayerTableRecord
  2
220
 70
     0
 62
   220
  6
CONTINUOUS
  0
LAYER
  5
116
330
2
100
AcDbSymbolTableRecord
100
AcDbLayerTableRecord
  2
221
 70
     0
 62
   221
  6
CONTINUOUS
  0
LAYER
  5
117
330
2
100
AcDbSymbolTableRecord
100
AcDbLayerTableRecord
  2
222
 70
     0
 62
   222
  6
CONTINUOUS
  0
LAYER
  5
118
330
2
100
AcDbSymbolTableRecord
100
AcDbLayerTableRecord
  2
223
 70
     0
 62
   223
  6
CONTINUOUS
  0
LAYER
  5
119
330
2
100
AcDbSymbolTableRecord
100
AcDbLayerTableRecord
  2
224
 70
     0
 62
   224
  6
CONTINUOUS
  0
LAYER
  5
11A
330
2
100
AcDbSymbolTableRecord
100
AcDbLayerTableRecord
  2
225
 70
     0
 62
   225
  6
CONTINUOUS
  0
LAYER
  5
11B
330
2
100
AcDbSymbolTableRecord
100
AcDbLayerTableRecord
  2
226
 70
     0
 62
   226
  6
CONTINUOUS
  0
LAYER
  5
11C
330
2
100
AcDbSymbolTableRecord
100
AcDbLayerTableRecord
  2
227
 70
     0
 62
   227
  6
CONTINUOUS
  0
LAYER
  5
11D
330
2
100
AcDbSymbolTableRecord
100
AcDbLayerTableRecord
  2
228
 70
     0
 62
   228
  6
CONTINUOUS
  0
LAYER
  5
11E
330
2
100
AcDbSymbolTableRecord
100
AcDbLayerTableRecord
  2
229
 70
     0
 62
   229
  6
CONTINUOUS
  0
LAYER
  5
11F
330
2
100
AcDbSymbolTableRecord
100
AcDbLayerTableRecord
  2
230
 70
     0
 62
   230
  6
CONTINUOUS
  0
LAYER
  5
120
330
2
100
AcDbSymbolTableRecord
100
AcDbLayerTableRecord
  2
231
 70
     0
 62
   231
  6
CONTINUOUS
  0
LAYER
  5
121
330
2
100
AcDbSymbolTableRecord
100
AcDbLayerTableRecord
  2
232
 70
     0
 62
   232
  6
CONTINUOUS
  0
LAYER
  5
122
330
2
100
AcDbSymbolTableRecord
100
AcDbLayerTableRecord
  2
233
 70
     0
 62
   233
  6
CONTINUOUS
  0
LAYER
  5
123
330
2
100
AcDbSymbolTableRecord
100
AcDbLayerTableRecord
  2
234
 70
     0
 62
   234
  6
CONTINUOUS
  0
LAYER
  5
124
330
2
100
AcDbSymbolTableRecord
100
AcDbLayerTableRecord
  2
235
 70
     0
 62
   235
  6
CONTINUOUS
  0
LAYER
  5
125
330
2
100
AcDbSymbolTableRecord
100
AcDbLayerTableRecord
  2
236
 70
     0
 62
   236
  6
CONTINUOUS
  0
LAYER
  5
126
330
2
100
AcDbSymbolTableRecord
100
AcDbLayerTableRecord
  2
237
 70
     0
 62
   237
  6
CONTINUOUS
  0
LAYER
  5
127
330
2
100
AcDbSymbolTableRecord
100
AcDbLayerTableRecord
  2
238
 70
     0
 62
   238
  6
CONTINUOUS
  0
LAYER
  5
128
330
2
100
AcDbSymbolTableRecord
100
AcDbLayerTableRecord
  2
239
 70
     0
 62
   239
  6
CONTINUOUS
  0
LAYER
  5
129
330
2
100
AcDbSymbolTableRecord
100
AcDbLayerTableRecord
  2
240
 70
     0
 62
   240
  6
CONTINUOUS
  0
LAYER
  5
12A
330
2
100
AcDbSymbolTableRecord
100
AcDbLayerTableRecord
  2
241
 70
     0
 62
   241
  6
CONTINUOUS
  0
LAYER
  5
12B
330
2
100
AcDbSymbolTableRecord
100
AcDbLayerTableRecord
  2
242
 70
     0
 62
   242
  6
CONTINUOUS
  0
LAYER
  5
12C
330
2
100
AcDbSymbolTableRecord
100
AcDbLayerTableRecord
  2
243
 70
     0
 62
   243
  6
CONTINUOUS
  0
LAYER
  5
12D
330
2
100
AcDbSymbolTableRecord
100
AcDbLayerTableRecord
  2
244
 70
     0
 62
   244
  6
CONTINUOUS
  0
LAYER
  5
12E
330
2
100
AcDbSymbolTableRecord
100
AcDbLayerTableRecord
  2
245
 70
     0
 62
   245
  6
CONTINUOUS
  0
LAYER
  5
12F
330
2
100
AcDbSymbolTableRecord
100
AcDbLayerTableRecord
  2
246
 70
     0
 62
   246
  6
CONTINUOUS
  0
LAYER
  5
130
330
2
100
AcDbSymbolTableRecord
100
AcDbLayerTableRecord
  2
247
 70
     0
 62
   247
  6
CONTINUOUS
  0
LAYER
  5
131
330
2
100
AcDbSymbolTableRecord
100
AcDbLayerTableRecord
  2
248
 70
     0
 62
   248
  6
CONTINUOUS
  0
LAYER
  5
132
330
2
100
AcDbSymbolTableRecord
100
AcDbLayerTableRecord
  2
249
 70
     0
 62
   249
  6
CONTINUOUS
  0
LAYER
  5
133
330
2
100
AcDbSymbolTableRecord
100
AcDbLayerTableRecord
  2
250
 70
     0
 62
   250
  6
CONTINUOUS
  0
LAYER
  5
134
330
2
100
AcDbSymbolTableRecord
100
AcDbLayerTableRecord
  2
251
 70
     0
 62
   251
  6
CONTINUOUS
  0
LAYER
  5
135
330
2
100
AcDbSymbolTableRecord
100
AcDbLayerTableRecord
  2
252
 70
     0
 62
   252
  6
CONTINUOUS
  0
LAYER
  5
136
330
2
100
AcDbSymbolTableRecord
100
AcDbLayerTableRecord
  2
253
 70
     0
 62
   253
  6
CONTINUOUS
  0
LAYER
  5
137
330
2
100
AcDbSymbolTableRecord
100
AcDbLayerTableRecord
  2
254
 70
     0
 62
   254
  6
CONTINUOUS
  0
LAYER
  5
138
330
2
100
AcDbSymbolTableRecord
100
AcDbLayerTableRecord
  2
255
 70
     0
 62
   255
  6
CONTINUOUS
  0
LAYER
  5
4D17
330
2
100
AcDbSymbolTableRecord
100
AcDbLayerTableRecord
  2
DEFPOINTS
 70
     0
 62
     7
  6
CONTINUOUS
  0
ENDTAB
  0
TABLE
  2
STYLE
  5
3
330
0
100
AcDbSymbolTable
 70
     1
  0
STYLE
  5
11
330
3
100
AcDbSymbolTableRecord
100
AcDbTextStyleTableRecord
  2
STANDARD
 70
     0
 40
0.0
 41
1.0
 50
0.0
 71
     0
 42
0.2
  3
monotxt
  4

  0
ENDTAB
  0
TABLE
  2
VIEW
  5
6
330
0
100
AcDbSymbolTable
 70
     0
  0
ENDTAB
  0
TABLE
  2
UCS
  5
7
330
0
100
AcDbSymbolTable
 70
     0
  0
ENDTAB
  0
TABLE
  2
APPID
  5
9
330
0
100
AcDbSymbolTable
 70
     1
  0
APPID
  5
12
330
9
100
AcDbSymbolTableRecord
100
AcDbRegAppTableRecord
  2
ACAD
 70
     0
  0
ENDTAB
  0
TABLE
  2
DIMSTYLE
  5
A
330
0
100
AcDbSymbolTable
 70
     1
  0
DIMSTYLE
105
3662
330
A
100
AcDbSymbolTableRecord
100
AcDbDimStyleTableRecord
  2
STANDARD
 70
     0
  3

  4

  5

  6

  7

 40
1.0
 41
0.18
 42
0.0625
 43
0.38
 44
0.18
 45
0.0
 46
0.0
 47
0.0
 48
0.0
140
0.18
141
0.09
142
0.0
143
25.4
144
1.0
145
0.0
146
1.0
147
0.09
 71
     0
 72
     0
 73
     1
 74
     1
 75
     0
 76
     0
 77
     0
 78
     0
170
     0
171
     2
172
     0
173
     0
174
     0
175
     0
176
     0
177
     0
178
     0
270
     2
271
     4
272
     4
273
     2
274
     2
340
11
275
     0
280
     0
281
     0
282
     0
283
     1
284
     0
285
     0
286
     0
287
     3
288
     0
  0
ENDTAB
  0
TABLE
  2
BLOCK_RECORD
  5
1
330
0
100
AcDbSymbolTable
 70
     1
  0
BLOCK_RECORD
  5
1E
102
{ACAD_XDICTIONARY
360
4D27
102
}
330
1
100
AcDbSymbolTableRecord
100
AcDbBlockTableRecord
  2
*MODEL_SPACE
  0
BLOCK_RECORD
  5
1A
102
{ACAD_XDICTIONARY
360
4D29
102
}
330
1
100
AcDbSymbolTableRecord
100
AcDbBlockTableRecord
  2
*PAPER_SPACE
  0
ENDTAB
  0
ENDSEC
  0
SECTION
  2
BLOCKS
  0
BLOCK
  5
13B
330
1E
100
AcDbEntity
  8
0
100
AcDbBlockBegin
  2
*MODEL_SPACE
 70
     0
 10
0.0
 20
0.0
 30
0.0
  3
*MODEL_SPACE
  1

  0
ENDBLK
  5
13C
330
1E
100
AcDbEntity
  8
0
100
AcDbBlockEnd
  0
BLOCK
  5
139
330
1A
100
AcDbEntity
 67
     1
  8
0
100
AcDbBlockBegin
  2
*PAPER_SPACE
 70
     0
 10
0.0
 20
0.0
 30
0.0
  3
*PAPER_SPACE
  1

  0
ENDBLK
  5
13A
330
1A
100
AcDbEntity
 67
     1
  8
0
100
AcDbBlockEnd
  0
ENDSEC
  0
SECTION
  2
ENTITIES
  0
LINE
  5
27F1
330
1E
100
AcDbEntity
  8
7
100
AcDbLine
 10
1.237252890177749
 20
3.831157944923564
 30
0.0
 11
1.512860238602945
 21
3.831157944923564
 31
0.0
  0
LINE
  5
27FC
330
1E
100
AcDbEntity
  8
7
100
AcDbLine
 10
1.560107212618694
 20
3.850844184096791
 30
0.0
 11
1.55748238072893
 21
3.850844184096791
 31
0.0
  0
LINE
  5
2802
330
1E
100
AcDbEntity
  8
7
100
AcDbLine
 10
1.585043115571449
 20
3.835095192758209
 30
0.0
 11
1.733346117343103
 21
3.835095192758209
 31
0.0
  0
LINE
  5
2808
330
1E
100
AcDbEntity
  8
7
100
AcDbLine
 10
1.759594436240741
 20
3.850844184096791
 30
0.0
 11
1.760906852185623
 21
3.850844184096791
 31
0.0
  0
LINE
  5
2813
330
1E
100
AcDbEntity
  8
7
100
AcDbLine
 10
1.805528994311607
 20
3.831157944923564
 30
0.0
 11
2.082448758681686
 21
3.831157944923564
 31
0.0
  0
LINE
  5
2819
330
1E
100
AcDbEntity
  8
7
100
AcDbLine
 10
2.112634325413969
 20
3.894153910277895
 30
0.0
 11
2.112634325413969
 21
3.860031095710965
 31
0.0
  0
LINE
  5
2822
330
1E
100
AcDbEntity
  8
7
100
AcDbLine
 10
2.417114824626568
 20
3.894153910277895
 30
0.0
 11
2.171693042933654
 21
3.894153910277895
 31
0.0
  0
LINE
  5
282A
330
1E
100
AcDbEntity
  8
7
100
AcDbLine
 10
2.423676904350977
 20
3.911215317561359
 30
0.0
 11
2.418427240571449
 21
3.894153910277895
 31
0.0
  0
LINE
  5
282B
330
1E
100
AcDbEntity
  8
7
100
AcDbLine
 10
2.477485958091135
 20
3.860031095710965
 30
0.0
 11
2.477485958091135
 21
3.894153910277895
 31
0.0
  0
LINE
  5
2831
330
1E
100
AcDbEntity
  8
7
100
AcDbLine
 10
2.507671524823418
 20
3.831157944923564
 30
0.0
 11
2.659911774429717
 21
3.831157944923564
 31
0.0
  0
LINE
  5
2837
330
1E
100
AcDbEntity
  8
7
100
AcDbLine
 10
2.690097341162001
 20
3.348188877207028
 30
0.0
 11
2.690097341162001
 21
3.80097237819128
 31
0.0
  0
LINE
  5
283D
330
1E
100
AcDbEntity
  8
7
100
AcDbLine
 10
0.659789874429718
 20
3.318003310474745
 30
0.0
 11
2.659911774429717
 21
3.318003310474745
 31
0.0
  0
LINE
  5
2843
330
1E
100
AcDbEntity
  8
7
100
AcDbLine
 10
0.6296043076974343
 20
3.348188877207028
 30
0.0
 11
0.6296043076974343
 21
3.80097237819128
 31
0.0
  0
LINE
  5
2849
330
1E
100
AcDbEntity
  8
7
100
AcDbLine
 10
0.659789874429718
 20
3.831157944923564
 30
0.0
 11
0.812030124036017
 21
3.831157944923564
 31
0.0
  0
LINE
  5
284F
330
1E
100
AcDbEntity
  8
7
100
AcDbLine
 10
0.8422156907683007
 20
3.894153910277895
 30
0.0
 11
0.8422156907683007
 21
3.860031095710965
 31
0.0
  0
LINE
  5
2858
330
1E
100
AcDbEntity
  8
7
100
AcDbLine
 10
0.9025868242328671
 20
3.894153910277895
 30
0.0
 11
1.146696189980898
 21
3.894153910277895
 31
0.0
  0
LINE
  5
2861
330
1E
100
AcDbEntity
  8
7
100
AcDbLine
 10
1.207067323445465
 20
3.860031095710965
 30
0.0
 11
1.207067323445465
 21
3.894153910277895
 31
0.0
  0
LINE
  5
286C
330
1E
100
AcDbEntity
  8
7
100
AcDbLine
 10
0.4694895624218436
 20
3.150014069529863
 30
0.0
 11
0.4694895624218436
 21
7.28018704807317
 31
0.0
  0
LINE
  5
286D
330
1E
100
AcDbEntity
  8
7
100
AcDbLine
 10
2.848899670492709
 20
3.150014069529863
 30
0.0
 11
0.4694895624218436
 21
3.150014069529863
 31
0.0
  0
LINE
  5
286E
330
1E
100
AcDbEntity
  8
7
100
AcDbLine
 10
1.917084349626568
 20
4.3430001634275
 30
0.0
 11
1.96039407580767
 21
4.3430001634275
 31
0.0
  0
LINE
  5
2874
330
1E
100
AcDbEntity
  8
7
100
AcDbLine
 10
1.90527260612263
 20
4.290503525632225
 30
0.0
 11
1.90527260612263
 21
4.331188419923564
 31
0.0
  0
LINE
  5
287A
330
1E
100
AcDbEntity
  8
7
100
AcDbLine
 10
1.426240786240741
 20
4.277379366183406
 30
0.0
 11
1.892148446673812
 21
4.277379366183406
 31
0.0
  0
LINE
  5
2880
330
1E
100
AcDbEntity
  8
7
100
AcDbLine
 10
1.414429042736804
 20
4.331188419923564
 30
0.0
 11
1.414429042736804
 21
4.290503525632225
 31
0.0
  0
LINE
  5
2886
330
1E
100
AcDbEntity
  8
7
100
AcDbLine
 10
1.359307573051764
 20
4.3430001634275
 30
0.0
 11
1.402617299232867
 21
4.3430001634275
 31
0.0
  0
LINE
  5
288C
330
1E
100
AcDbEntity
  8
7
100
AcDbLine
 10
1.347495829547828
 20
4.991333640199154
 30
0.0
 11
1.347495829547828
 21
4.354811906931438
 31
0.0
  0
LINE
  5
2892
330
1E
100
AcDbEntity
  8
7
100
AcDbLine
 10
1.96039407580767
 20
5.003145383703092
 30
0.0
 11
1.359307573051764
 21
5.003145383703092
 31
0.0
  0
LINE
  5
2898
330
1E
100
AcDbEntity
  8
7
100
AcDbLine
 10
1.972205819311607
 20
4.354811906931438
 30
0.0
 11
1.972205819311607
 21
4.991333640199154
 31
0.0
  0
LINE
  5
289E
330
1E
100
AcDbEntity
  8
7
100
AcDbLine
 10
1.414429042736804
 20
5.480864787640099
 30
0.0
 11
1.414429042736804
 21
5.440179893348761
 31
0.0
  0
LINE
  5
28A4
330
1E
100
AcDbEntity
  8
7
100
AcDbLine
 10
1.359307573051764
 20
5.492676531144036
 30
0.0
 11
1.402617299232867
 21
5.492676531144036
 31
0.0
  0
LINE
  5
28AA
330
1E
100
AcDbEntity
  8
7
100
AcDbLine
 10
1.347495829547828
 20
6.141010007915689
 30
0.0
 11
1.347495829547828
 21
5.504488274647973
 31
0.0
  0
LINE
  5
28B0
330
1E
100
AcDbEntity
  8
7
100
AcDbLine
 10
1.96039407580767
 20
6.152821751419626
 30
0.0
 11
1.359307573051764
 21
6.152821751419626
 31
0.0
  0
LINE
  5
28B6
330
1E
100
AcDbEntity
  8
7
100
AcDbLine
 10
1.972205819311607
 20
5.504488274647973
 30
0.0
 11
1.972205819311607
 21
6.141010007915689
 31
0.0
  0
LINE
  5
28BC
330
1E
100
AcDbEntity
  8
7
100
AcDbLine
 10
1.917084349626568
 20
5.492676531144036
 30
0.0
 11
1.96039407580767
 21
5.492676531144036
 31
0.0
  0
LINE
  5
28C2
330
1E
100
AcDbEntity
  8
7
100
AcDbLine
 10
1.90527260612263
 20
5.440179893348761
 30
0.0
 11
1.90527260612263
 21
5.480864787640099
 31
0.0
  0
LINE
  5
28C8
330
1E
100
AcDbEntity
  8
7
100
AcDbLine
 10
1.426240786240741
 20
5.428368149844823
 30
0.0
 11
1.892148446673812
 21
5.428368149844823
 31
0.0
  0
LINE
  5
28D8
330
1E
100
AcDbEntity
  8
7
100
AcDbLine
 10
1.317310262815544
 20
6.600355588624351
 30
0.0
 11
1.512860238602945
 21
6.600355588624351
 31
0.0
  0
LINE
  5
28DE
330
1E
100
AcDbEntity
  8
7
100
AcDbLine
 10
1.28712469608326
 20
6.53735962327002
 30
0.0
 11
1.28712469608326
 21
6.570170021892068
 31
0.0
  0
LINE
  5
28E7
330
1E
100
AcDbEntity
  8
7
100
AcDbLine
 10
0.9826441968706625
 20
6.53735962327002
 30
0.0
 11
1.226753562618694
 21
6.53735962327002
 31
0.0
  0
LINE
  5
28F0
330
1E
100
AcDbEntity
  8
7
100
AcDbLine
 10
0.922273063406096
 20
6.570170021892068
 30
0.0
 11
0.922273063406096
 21
6.53735962327002
 31
0.0
  0
LINE
  5
28F6
330
1E
100
AcDbEntity
  8
7
100
AcDbLine
 10
0.659789874429718
 20
6.600355588624351
 30
0.0
 11
0.8920874966738123
 21
6.600355588624351
 31
0.0
  0
LINE
  5
28FC
330
1E
100
AcDbEntity
  8
7
100
AcDbLine
 10
0.6296043076974343
 20
7.082012240396005
 30
0.0
 11
0.6296043076974343
 21
6.629228739411753
 31
0.0
  0
LINE
  5
2902
330
1E
100
AcDbEntity
  8
7
100
AcDbLine
 10
0.659789874429718
 20
7.112197807128289
 30
0.0
 11
2.659911774429717
 21
7.112197807128289
 31
0.0
  0
LINE
  5
2908
330
1E
100
AcDbEntity
  8
7
100
AcDbLine
 10
2.690097341162001
 20
7.082012240396005
 30
0.0
 11
2.690097341162001
 21
6.629228739411753
 31
0.0
  0
LINE
  5
290E
330
1E
100
AcDbEntity
  8
7
100
AcDbLine
 10
2.427614152185623
 20
6.600355588624351
 30
0.0
 11
2.659911774429717
 21
6.600355588624351
 31
0.0
  0
LINE
  5
2914
330
1E
100
AcDbEntity
  8
7
100
AcDbLine
 10
2.397428585453339
 20
6.53735962327002
 30
0.0
 11
2.397428585453339
 21
6.570170021892068
 31
0.0
  0
LINE
  5
291D
330
1E
100
AcDbEntity
  8
7
100
AcDbLine
 10
2.337057451988772
 20
6.53735962327002
 30
0.0
 11
2.091635670295859
 21
6.53735962327002
 31
0.0
  0
LINE
  5
2926
330
1E
100
AcDbEntity
  8
7
100
AcDbLine
 10
2.032576952776174
 20
6.570170021892068
 30
0.0
 11
2.032576952776174
 21
6.53735962327002
 31
0.0
  0
LINE
  5
292C
330
1E
100
AcDbEntity
  8
7
100
AcDbLine
 10
1.805528994311607
 20
6.600355588624351
 30
0.0
 11
2.00239138604389
 21
6.600355588624351
 31
0.0
  0
LINE
  5
2937
330
1E
100
AcDbEntity
  8
7
100
AcDbLine
 10
1.759594436240741
 20
6.57935693350624
 30
0.0
 11
1.760906852185623
 21
6.57935693350624
 31
0.0
  0
LINE
  5
293D
330
1E
100
AcDbEntity
  8
7
100
AcDbLine
 10
1.585043115571449
 20
6.595105924844823
 30
0.0
 11
1.733346117343103
 21
6.595105924844823
 31
0.0
  0
LINE
  5
2943
330
1E
100
AcDbEntity
  8
7
100
AcDbLine
 10
1.560107212618694
 20
6.57935693350624
 30
0.0
 11
1.55748238072893
 21
6.57935693350624
 31
0.0
  0
LINE
  5
2944
330
1E
100
AcDbEntity
  8
7
100
AcDbLine
 10
3.035262734665938
 20
7.400929315002304
 30
0.0
 11
3.035262734665938
 21
3.029271802600729
 31
0.0
  0
LINE
  5
294A
330
1E
100
AcDbEntity
  8
7
100
AcDbLine
 10
3.035262734665938
 20
3.029271802600729
 30
0.0
 11
2.913208051791922
 21
3.150014069529863
 31
0.0
  0
LINE
  5
2964
330
1E
100
AcDbEntity
  8
7
100
AcDbLine
 10
2.848899670492709
 20
3.08570568823065
 30
0.0
 11
2.970954353366725
 21
2.964963421301517
 31
0.0
  0
LINE
  5
2965
330
1E
100
AcDbEntity
  8
7
100
AcDbLine
 10
3.035262734665938
 20
7.435052129569234
 30
0.0
 11
3.035262734665938
 21
7.400929315002304
 31
0.0
  0
LINE
  5
296B
330
1E
100
AcDbEntity
  8
7
100
AcDbLine
 10
0.3487472954927098
 20
2.964963421301517
 30
0.0
 11
2.970954353366725
 21
2.964963421301517
 31
0.0
  0
LINE
  5
296C
330
1E
100
AcDbEntity
  8
7
100
AcDbLine
 10
0.3146244809257812
 20
2.964963421301517
 30
0.0
 11
0.3487472954927098
 21
2.964963421301517
 31
0.0
  0
LINE
  5
2973
330
1E
100
AcDbEntity
  8
7
100
AcDbLine
 10
0.3487472954927098
 20
2.964963421301517
 30
0.0
 11
0.4694895624218436
 21
3.08570568823065
 31
0.0
  0
LINE
  5
2974
330
1E
100
AcDbEntity
  8
7
100
AcDbLine
 10
0.4051811811226314
 20
7.28018704807317
 30
0.0
 11
0.4051811811226314
 21
3.150014069529863
 31
0.0
  0
LINE
  5
297A
330
1E
100
AcDbEntity
  8
7
100
AcDbLine
 10
0.4051811811226314
 20
3.150014069529863
 30
0.0
 11
0.2844389141934975
 21
3.029271802600729
 31
0.0
  0
LINE
  5
2991
330
1E
100
AcDbEntity
  8
7
100
AcDbLine
 10
0.2844389141934975
 20
7.400929315002304
 30
0.0
 11
0.2844389141934975
 21
7.435052129569234
 31
0.0
  0
LINE
  5
29A3
330
1E
100
AcDbEntity
  8
7
100
AcDbLine
 10
1.146696189980898
 20
3.839032440592855
 30
0.0
 11
0.9025868242328671
 21
3.839032440592855
 31
0.0
  0
LINE
  5
29B0
330
1E
100
AcDbEntity
  8
7
100
AcDbLine
 10
2.171693042933654
 20
3.839032440592855
 30
0.0
 11
2.417114824626568
 21
3.839032440592855
 31
0.0
  0
LINE
  5
29C0
330
1E
100
AcDbEntity
  8
7
100
AcDbLine
 10
1.729408869508457
 20
3.781286139018051
 30
0.0
 11
1.590292779350977
 21
3.781286139018051
 31
0.0
  0
LINE
  5
29D2
330
1E
100
AcDbEntity
  8
7
100
AcDbLine
 10
1.729408869508457
 20
3.764224731734588
 30
0.0
 11
1.729408869508457
 21
3.684167359096791
 31
0.0
  0
LINE
  5
29D3
330
1E
100
AcDbEntity
  8
7
100
AcDbLine
 10
1.699223302776174
 20
3.653981792364509
 30
0.0
 11
1.619165930138378
 21
3.653981792364509
 31
0.0
  0
LINE
  5
29E8
330
1E
100
AcDbEntity
  8
7
100
AcDbLine
 10
0.3146244809257812
 20
7.465237696301516
 30
0.0
 11
0.3487472954927098
 21
7.465237696301516
 31
0.0
  0
LINE
  5
29F0
330
1E
100
AcDbEntity
  8
7
100
AcDbLine
 10
0.2857513301383792
 20
7.442926625238524
 30
0.0
 11
0.2844389141934975
 21
7.435052129569234
 31
0.0
  0
LINE
  5
29F7
330
1E
100
AcDbEntity
  8
7
100
AcDbLine
 10
0.3487472954927098
 20
7.465237696301516
 30
0.0
 11
2.970954353366725
 21
7.465237696301516
 31
0.0
  0
LINE
  5
29FD
330
1E
100
AcDbEntity
  8
7
100
AcDbLine
 10
2.970954353366725
 20
7.465237696301516
 30
0.0
 11
3.005077167933654
 21
7.465237696301516
 31
0.0
  0
LINE
  5
29FE
330
1E
100
AcDbEntity
  8
7
100
AcDbLine
 10
1.226753562618694
 20
6.591168677010179
 30
0.0
 11
0.9826441968706625
 21
6.591168677010179
 31
0.0
  0
LINE
  5
2A0B
330
1E
100
AcDbEntity
  8
7
100
AcDbLine
 10
1.699223302776174
 20
6.776219325238525
 30
0.0
 11
1.619165930138378
 21
6.776219325238525
 31
0.0
  0
LINE
  5
2A0C
330
1E
100
AcDbEntity
  8
7
100
AcDbLine
 10
1.729408869508457
 20
6.667288801813327
 30
0.0
 11
1.729408869508457
 21
6.747346174451124
 31
0.0
  0
LINE
  5
2A0D
330
1E
100
AcDbEntity
  8
7
100
AcDbLine
 10
1.590292779350977
 20
6.667288801813327
 30
0.0
 11
1.590292779350977
 21
6.747346174451124
 31
0.0
  0
LINE
  5
2A13
330
1E
100
AcDbEntity
  8
7
100
AcDbLine
 10
1.729408869508457
 20
6.667288801813327
 30
0.0
 11
1.590292779350977
 21
6.667288801813327
 31
0.0
  0
LINE
  5
2A23
330
1E
100
AcDbEntity
  8
7
100
AcDbLine
 10
1.729408869508457
 20
6.648914978584981
 30
0.0
 11
1.590292779350977
 21
6.648914978584981
 31
0.0
  0
LINE
  5
2A24
330
1E
100
AcDbEntity
  8
7
100
AcDbLine
 10
1.729408869508457
 20
6.609542500238524
 30
0.0
 11
1.729408869508457
 21
6.638415651025926
 31
0.0
  0
LINE
  5
2A25
330
1E
100
AcDbEntity
  8
7
100
AcDbLine
 10
1.729408869508457
 20
6.638415651025926
 30
0.0
 11
1.729408869508457
 21
6.648914978584981
 31
0.0
  0
LINE
  5
2A35
330
1E
100
AcDbEntity
  8
7
100
AcDbLine
 10
2.091635670295859
 20
6.591168677010179
 30
0.0
 11
2.337057451988772
 21
6.591168677010179
 31
0.0
  0
LINE
  5
2A52
330
1E
100
AcDbEntity
  8
7
100
AcDbLine
 10
2.596915809075387
 20
7.051826673663721
 30
0.0
 11
2.596915809075387
 21
6.659414306144037
 31
0.0
  0
LINE
  5
2A53
330
1E
100
AcDbEntity
  8
7
100
AcDbLine
 10
2.596915809075387
 20
7.051826673663721
 30
0.0
 11
2.596915809075387
 21
6.659414306144037
 31
0.0
  0
LINE
  5
2A54
330
1E
100
AcDbEntity
  8
7
100
AcDbLine
 10
2.587728897461213
 20
7.062326001222777
 30
0.0
 11
2.587728897461213
 21
7.061013585277894
 31
0.0
  0
LINE
  5
2A5F
330
1E
100
AcDbEntity
  8
7
100
AcDbLine
 10
2.587728897461213
 20
6.650227394529864
 30
0.0
 11
2.547044003169874
 21
6.650227394529864
 31
0.0
  0
LINE
  5
2A65
330
1E
100
AcDbEntity
  8
7
100
AcDbLine
 10
2.547044003169874
 20
7.061013585277894
 30
0.0
 11
2.587728897461213
 21
7.061013585277894
 31
0.0
  0
LINE
  5
2A6B
330
1E
100
AcDbEntity
  8
7
100
AcDbLine
 10
3.035262734665938
 20
2.9951489880338
 30
0.0
 11
3.037887566555701
 21
2.992524156144036
 31
0.0
  0
LINE
  5
2A6C
330
1E
100
AcDbEntity
  8
7
100
AcDbLine
 10
3.037887566555701
 20
7.438989377403878
 30
0.0
 11
3.037887566555701
 21
2.992524156144036
 31
0.0
  0
LINE
  5
2A6D
330
1E
100
AcDbEntity
  8
7
100
AcDbLine
 10
3.037887566555701
 20
7.438989377403878
 30
0.0
 11
3.035262734665938
 21
7.435052129569234
 31
0.0
  0
LINE
  5
2A6E
330
1E
100
AcDbEntity
  8
7
100
AcDbLine
 10
2.680910429547827
 20
7.07151291283695
 30
0.0
 11
2.680910429547827
 21
6.639728066970808
 31
0.0
  0
LINE
  5
2A7A
330
1E
100
AcDbEntity
  8
7
100
AcDbLine
 10
0.7726576456895602
 20
7.061013585277894
 30
0.0
 11
2.547044003169874
 21
7.061013585277894
 31
0.0
  0
LINE
  5
2A7B
330
1E
100
AcDbEntity
  8
7
100
AcDbLine
 10
0.7726576456895602
 20
7.061013585277894
 30
0.0
 11
0.7726576456895602
 21
6.651539810474744
 31
0.0
  0
LINE
  5
2A92
330
1E
100
AcDbEntity
  8
7
100
AcDbLine
 10
1.720221957894284
 20
7.007204531537736
 30
0.0
 11
1.59947969096515
 21
7.007204531537736
 31
0.0
  0
LINE
  5
2AD6
330
1E
100
AcDbEntity
  8
7
100
AcDbLine
 10
1.737283365177749
 20
3.818033785474744
 30
0.0
 11
1.729408869508457
 21
3.818033785474744
 31
0.0
  0
LINE
  5
2ADC
330
1E
100
AcDbEntity
  8
7
100
AcDbLine
 10
1.737283365177749
 20
3.807534457915689
 30
0.0
 11
1.737283365177749
 21
3.818033785474744
 31
0.0
  0
LINE
  5
2AE7
330
1E
100
AcDbEntity
  8
7
100
AcDbLine
 10
1.739908197067513
 20
6.609542500238524
 30
0.0
 11
2.650724862815544
 21
6.609542500238524
 31
0.0
  0
LINE
  5
2AE8
330
1E
100
AcDbEntity
  8
7
100
AcDbLine
 10
1.739908197067513
 20
6.609542500238524
 30
0.0
 11
1.739908197067513
 21
6.587231429175533
 31
0.0
  0
LINE
  5
2AE9
330
1E
100
AcDbEntity
  8
7
100
AcDbLine
 10
1.579793451791922
 20
6.587231429175533
 30
0.0
 11
1.579793451791922
 21
6.609542500238524
 31
0.0
  0
LINE
  5
2AEA
330
1E
100
AcDbEntity
  8
7
100
AcDbLine
 10
0.6689767860438911
 20
6.609542500238524
 30
0.0
 11
1.579793451791922
 21
6.609542500238524
 31
0.0
  0
LINE
  5
2B14
330
1E
100
AcDbEntity
  8
7
100
AcDbLine
 10
1.228065978563575
 20
6.543921702994429
 30
0.0
 11
1.226753562618694
 21
6.543921702994429
 31
0.0
  0
LINE
  5
2B36
330
1E
100
AcDbEntity
  8
7
100
AcDbLine
 10
0.6689767860438911
 20
3.3285026380338
 30
0.0
 11
2.650724862815544
 21
3.3285026380338
 31
0.0
  0
LINE
  5
2B43
330
1E
100
AcDbEntity
  8
7
100
AcDbLine
 10
1.914459517736804
 20
4.3430001634275
 30
0.0
 11
1.90527260612263
 21
4.3430001634275
 31
0.0
  0
LINE
  5
2B44
330
1E
100
AcDbEntity
  8
7
100
AcDbLine
 10
1.90527260612263
 20
4.332500835868446
 30
0.0
 11
1.90527260612263
 21
4.3430001634275
 31
0.0
  0
LINE
  5
2B45
330
1E
100
AcDbEntity
  8
7
100
AcDbLine
 10
1.414429042736804
 20
4.3430001634275
 30
0.0
 11
1.414429042736804
 21
4.332500835868446
 31
0.0
  0
LINE
  5
2B46
330
1E
100
AcDbEntity
  8
7
100
AcDbLine
 10
1.414429042736804
 20
4.3430001634275
 30
0.0
 11
1.40524213112263
 21
4.3430001634275
 31
0.0
  0
LINE
  5
2B47
330
1E
100
AcDbEntity
  8
7
100
AcDbLine
 10
1.914459517736804
 20
5.492676531144036
 30
0.0
 11
1.90527260612263
 21
5.492676531144036
 31
0.0
  0
LINE
  5
2B48
330
1E
100
AcDbEntity
  8
7
100
AcDbLine
 10
1.90527260612263
 20
5.483489619529863
 30
0.0
 11
1.90527260612263
 21
5.492676531144036
 31
0.0
  0
LINE
  5
2B49
330
1E
100
AcDbEntity
  8
7
100
AcDbLine
 10
1.414429042736804
 20
5.492676531144036
 30
0.0
 11
1.414429042736804
 21
5.483489619529863
 31
0.0
  0
LINE
  5
2B4A
330
1E
100
AcDbEntity
  8
7
100
AcDbLine
 10
1.414429042736804
 20
5.492676531144036
 30
0.0
 11
1.40524213112263
 21
5.492676531144036
 31
0.0
  0
LINE
  5
2B5A
330
1E
100
AcDbEntity
  8
7
100
AcDbLine
 10
0.9012744082879855
 20
3.887591830553486
 30
0.0
 11
0.9025868242328671
 21
3.887591830553486
 31
0.0
  0
LINE
  5
2B6A
330
1E
100
AcDbEntity
  8
7
100
AcDbLine
 10
0.3119996490360171
 20
7.467862528191281
 30
0.0
 11
3.007701999823418
 21
7.467862528191281
 31
0.0
  0
LINE
  5
2B6B
330
1E
100
AcDbEntity
  8
7
100
AcDbLine
 10
0.3119996490360171
 20
7.467862528191281
 30
0.0
 11
0.3146244809257812
 21
7.465237696301516
 31
0.0
  0
LINE
  5
2B6C
330
1E
100
AcDbEntity
  8
7
100
AcDbLine
 10
3.005077167933654
 20
7.465237696301516
 30
0.0
 11
3.007701999823418
 21
7.467862528191281
 31
0.0
  0
LINE
  5
2B73
330
1E
100
AcDbEntity
  8
7
100
AcDbLine
 10
0.3119996490360171
 20
2.962338589411753
 30
0.0
 11
3.007701999823418
 21
2.962338589411753
 31
0.0
  0
LINE
  5
2B7A
330
1E
100
AcDbEntity
  8
7
100
AcDbLine
 10
0.2818140823037334
 20
7.438989377403878
 30
0.0
 11
0.2818140823037334
 21
2.992524156144036
 31
0.0
  0
LINE
  5
2B86
330
1E
100
AcDbEntity
  8
7
100
AcDbLine
 10
3.033950318721056
 20
7.453425952797579
 30
0.0
 11
3.037887566555701
 21
7.438989377403878
 31
0.0
  0
LINE
  5
2B8C
330
1E
100
AcDbEntity
  8
7
100
AcDbLine
 10
0.6689767860438911
 20
7.101698479569233
 30
0.0
 11
0.6702892019887728
 21
7.101698479569233
 31
0.0
  0
LINE
  5
2B99
330
1E
100
AcDbEntity
  8
7
100
AcDbLine
 10
0.6401036352564891
 20
6.641040482915689
 30
0.0
 11
0.6401036352564891
 21
7.07151291283695
 31
0.0
  0
LINE
  5
2BA0
330
1E
100
AcDbEntity
  8
7
100
AcDbLine
 10
1.57848103584704
 20
6.610854916183406
 30
0.0
 11
0.6702892019887728
 21
6.610854916183406
 31
0.0
  0
LINE
  5
2BA1
330
1E
100
AcDbEntity
  8
7
100
AcDbLine
 10
1.57848103584704
 20
6.650227394529864
 30
0.0
 11
1.57848103584704
 21
6.610854916183406
 31
0.0
  0
LINE
  5
2BA2
330
1E
100
AcDbEntity
  8
7
100
AcDbLine
 10
0.7319727513982217
 20
6.650227394529864
 30
0.0
 11
1.57848103584704
 21
6.650227394529864
 31
0.0
  0
LINE
  5
2BA8
330
1E
100
AcDbEntity
  8
7
100
AcDbLine
 10
0.7227858397840486
 20
7.051826673663721
 30
0.0
 11
0.7227858397840486
 21
6.659414306144037
 31
0.0
  0
LINE
  5
2BA9
330
1E
100
AcDbEntity
  8
7
100
AcDbLine
 10
0.7319727513982217
 20
7.061013585277894
 30
0.0
 11
0.7254106716738118
 21
7.058388753388131
 31
0.0
  0
LINE
  5
2BAA
330
1E
100
AcDbEntity
  8
7
100
AcDbLine
 10
0.7254106716738118
 20
7.058388753388131
 30
0.0
 11
0.7227858397840486
 21
7.051826673663721
 31
0.0
  0
LINE
  5
2BAB
330
1E
100
AcDbEntity
  8
7
100
AcDbLine
 10
0.7319727513982217
 20
7.062326001222777
 30
0.0
 11
2.587728897461213
 21
7.062326001222777
 31
0.0
  0
LINE
  5
2BAC
330
1E
100
AcDbEntity
  8
7
100
AcDbLine
 10
1.741220613012394
 20
6.650227394529864
 30
0.0
 11
1.741220613012394
 21
6.610854916183406
 31
0.0
  0
LINE
  5
2BAD
330
1E
100
AcDbEntity
  8
7
100
AcDbLine
 10
2.649412446870662
 20
6.610854916183406
 30
0.0
 11
1.741220613012394
 21
6.610854916183406
 31
0.0
  0
LINE
  5
2BB4
330
1E
100
AcDbEntity
  8
7
100
AcDbLine
 10
2.650724862815544
 20
6.609542500238524
 30
0.0
 11
2.649412446870662
 21
6.610854916183406
 31
0.0
  0
LINE
  5
2BB5
330
1E
100
AcDbEntity
  8
7
100
AcDbLine
 10
1.739908197067513
 20
6.609542500238524
 30
0.0
 11
1.741220613012394
 21
6.610854916183406
 31
0.0
  0
LINE
  5
2BBB
330
1E
100
AcDbEntity
  8
7
100
AcDbLine
 10
2.085073590571449
 20
6.560983110277895
 30
0.0
 11
2.092948086240741
 21
6.553108614608603
 31
0.0
  0
LINE
  5
2BBC
330
1E
100
AcDbEntity
  8
7
100
AcDbLine
 10
2.276686318524205
 20
6.592481092955059
 30
0.0
 11
2.275373902579323
 21
6.591168677010179
 31
0.0
  0
LINE
  5
2BBD
330
1E
100
AcDbEntity
  8
7
100
AcDbLine
 10
2.152006803760426
 20
6.592481092955059
 30
0.0
 11
2.153319219705307
 21
6.591168677010179
 31
0.0
  0
LINE
  5
2BBE
330
1E
100
AcDbEntity
  8
7
100
AcDbLine
 10
2.337057451988772
 20
6.553108614608603
 30
0.0
 11
2.344931947658064
 21
6.560983110277895
 31
0.0
  0
LINE
  5
2BC4
330
1E
100
AcDbEntity
  8
7
100
AcDbLine
 10
2.338369867933654
 20
6.551796198663721
 30
0.0
 11
2.346244363602945
 21
6.559670694333012
 31
0.0
  0
LINE
  5
2BCB
330
1E
100
AcDbEntity
  8
7
100
AcDbLine
 10
2.344931947658064
 20
6.560983110277895
 30
0.0
 11
2.344931947658064
 21
6.584606597285768
 31
0.0
  0
LINE
  5
2BD2
330
1E
100
AcDbEntity
  8
7
100
AcDbLine
 10
2.085073590571449
 20
6.584606597285768
 30
0.0
 11
2.085073590571449
 21
6.560983110277895
 31
0.0
  0
LINE
  5
2BD3
330
1E
100
AcDbEntity
  8
7
100
AcDbLine
 10
2.083761174626568
 20
6.559670694333012
 30
0.0
 11
2.091635670295859
 21
6.551796198663721
 31
0.0
  0
LINE
  5
2BD4
330
1E
100
AcDbEntity
  8
7
100
AcDbLine
 10
2.091635670295859
 20
6.597730756734588
 30
0.0
 11
2.092948086240741
 21
6.592481092955059
 31
0.0
  0
LINE
  5
2BD5
330
1E
100
AcDbEntity
  8
7
100
AcDbLine
 10
2.091635670295859
 20
6.597730756734588
 30
0.0
 11
2.083761174626568
 21
6.589856261065295
 31
0.0
  0
LINE
  5
2BD6
330
1E
100
AcDbEntity
  8
7
100
AcDbLine
 10
2.144132308091135
 20
6.592481092955059
 30
0.0
 11
2.152006803760426
 21
6.592481092955059
 31
0.0
  0
LINE
  5
2BD7
330
1E
100
AcDbEntity
  8
7
100
AcDbLine
 10
2.276686318524205
 20
6.592481092955059
 30
0.0
 11
2.284560814193497
 21
6.592481092955059
 31
0.0
  0
LINE
  5
2BDD
330
1E
100
AcDbEntity
  8
7
100
AcDbLine
 10
2.346244363602945
 20
6.589856261065295
 30
0.0
 11
2.338369867933654
 21
6.597730756734588
 31
0.0
  0
LINE
  5
2BE8
330
1E
100
AcDbEntity
  8
7
100
AcDbLine
 10
2.346244363602945
 20
6.589856261065295
 30
0.0
 11
2.348869195492709
 21
6.589856261065295
 31
0.0
  0
LINE
  5
2BE9
330
1E
100
AcDbEntity
  8
7
100
AcDbLine
 10
2.348869195492709
 20
6.589856261065295
 30
0.0
 11
2.354118859272237
 21
6.589856261065295
 31
0.0
  0
LINE
  5
2C08
330
1E
100
AcDbEntity
  8
7
100
AcDbLine
 10
1.57848103584704
 20
6.650227394529864
 30
0.0
 11
1.579793451791922
 21
6.651539810474744
 31
0.0
  0
LINE
  5
2C09
330
1E
100
AcDbEntity
  8
7
100
AcDbLine
 10
0.6702892019887728
 20
6.610854916183406
 30
0.0
 11
0.6689767860438911
 21
6.609542500238524
 31
0.0
  0
LINE
  5
2C0A
330
1E
100
AcDbEntity
  8
7
100
AcDbLine
 10
1.57848103584704
 20
6.610854916183406
 30
0.0
 11
1.579793451791922
 21
6.609542500238524
 31
0.0
  0
LINE
  5
2C19
330
1E
100
AcDbEntity
  8
7
100
AcDbLine
 10
1.583730699626568
 20
6.706661280159784
 30
0.0
 11
1.583730699626568
 21
6.78015657307317
 31
0.0
  0
LINE
  5
2C24
330
1E
100
AcDbEntity
  8
7
100
AcDbLine
 10
1.720221957894284
 20
6.93370923862435
 30
0.0
 11
1.59947969096515
 21
6.93370923862435
 31
0.0
  0
LINE
  5
2C2F
330
1E
100
AcDbEntity
  8
7
100
AcDbLine
 10
1.735970949232867
 20
6.78015657307317
 30
0.0
 11
1.735970949232867
 21
6.706661280159784
 31
0.0
  0
LINE
  5
2C3E
330
1E
100
AcDbEntity
  8
7
100
AcDbLine
 10
1.720221957894284
 20
7.005892115592855
 30
0.0
 11
1.59947969096515
 21
7.005892115592855
 31
0.0
  0
LINE
  5
2C3F
330
1E
100
AcDbEntity
  8
7
100
AcDbLine
 10
1.735970949232867
 20
6.706661280159784
 30
0.0
 11
1.739908197067513
 21
6.705348864214902
 31
0.0
  0
LINE
  5
2C40
330
1E
100
AcDbEntity
  8
7
100
AcDbLine
 10
1.720221957894284
 20
7.007204531537736
 30
0.0
 11
1.720221957894284
 21
7.005892115592855
 31
0.0
  0
LINE
  5
2C41
330
1E
100
AcDbEntity
  8
7
100
AcDbLine
 10
1.59947969096515
 20
7.005892115592855
 30
0.0
 11
1.59947969096515
 21
7.007204531537736
 31
0.0
  0
LINE
  5
2C42
330
1E
100
AcDbEntity
  8
7
100
AcDbLine
 10
1.579793451791922
 20
6.705348864214902
 30
0.0
 11
1.583730699626568
 21
6.706661280159784
 31
0.0
  0
LINE
  5
2C48
330
1E
100
AcDbEntity
  8
7
100
AcDbLine
 10
1.582418283681686
 20
6.633165987246399
 30
0.0
 11
1.585043115571449
 21
6.63447840319128
 31
0.0
  0
LINE
  5
2C49
330
1E
100
AcDbEntity
  8
7
100
AcDbLine
 10
1.734658533287985
 20
6.63447840319128
 30
0.0
 11
1.735970949232867
 21
6.633165987246399
 31
0.0
  0
LINE
  5
2C5E
330
1E
100
AcDbEntity
  8
7
100
AcDbLine
 10
1.553545132894284
 20
6.795905564411753
 30
0.0
 11
1.766156515965151
 21
6.795905564411753
 31
0.0
  0
LINE
  5
2C5F
330
1E
100
AcDbEntity
  8
7
100
AcDbLine
 10
1.553545132894284
 20
6.915335415396005
 30
0.0
 11
1.766156515965151
 21
6.915335415396005
 31
0.0
  0
LINE
  5
2C60
330
1E
100
AcDbEntity
  8
7
100
AcDbLine
 10
1.755657188406095
 20
6.788031068742461
 30
0.0
 11
1.564044460453339
 21
6.788031068742461
 31
0.0
  0
LINE
  5
2C61
330
1E
100
AcDbEntity
  8
7
100
AcDbLine
 10
1.766156515965151
 20
6.795905564411753
 30
0.0
 11
1.755657188406095
 21
6.788031068742461
 31
0.0
  0
LINE
  5
2C62
330
1E
100
AcDbEntity
  8
7
100
AcDbLine
 10
1.564044460453339
 20
6.788031068742461
 30
0.0
 11
1.553545132894284
 21
6.795905564411753
 31
0.0
  0
LINE
  5
2C63
330
1E
100
AcDbEntity
  8
7
100
AcDbLine
 10
1.755657188406095
 20
6.923209911065296
 30
0.0
 11
1.564044460453339
 21
6.923209911065296
 31
0.0
  0
LINE
  5
2C69
330
1E
100
AcDbEntity
  8
7
100
AcDbLine
 10
1.720221957894284
 20
6.93239682267947
 30
0.0
 11
1.59947969096515
 21
6.93239682267947
 31
0.0
  0
LINE
  5
2C6F
330
1E
100
AcDbEntity
  8
7
100
AcDbLine
 10
1.755657188406095
 20
6.923209911065296
 30
0.0
 11
1.766156515965151
 21
6.915335415396005
 31
0.0
  0
LINE
  5
2C70
330
1E
100
AcDbEntity
  8
7
100
AcDbLine
 10
1.553545132894284
 20
6.915335415396005
 30
0.0
 11
1.564044460453339
 21
6.923209911065296
 31
0.0
  0
LINE
  5
2C76
330
1E
100
AcDbEntity
  8
7
100
AcDbLine
 10
1.720221957894284
 20
6.778844157128289
 30
0.0
 11
1.59947969096515
 21
6.778844157128289
 31
0.0
  0
LINE
  5
2C7C
330
1E
100
AcDbEntity
  8
7
100
AcDbLine
 10
1.766156515965151
 20
6.797217980356634
 30
0.0
 11
1.787155171083261
 21
6.823466299254272
 31
0.0
  0
LINE
  5
2C8A
330
1E
100
AcDbEntity
  8
7
100
AcDbLine
 10
1.720221957894284
 20
6.78015657307317
 30
0.0
 11
1.728096453563575
 21
6.78015657307317
 31
0.0
  0
LINE
  5
2C8B
330
1E
100
AcDbEntity
  8
7
100
AcDbLine
 10
1.728096453563575
 20
6.78015657307317
 30
0.0
 11
1.734658533287985
 21
6.781468989018051
 31
0.0
  0
LINE
  5
2C8C
330
1E
100
AcDbEntity
  8
7
100
AcDbLine
 10
1.734658533287985
 20
6.781468989018051
 30
0.0
 11
1.735970949232867
 21
6.78015657307317
 31
0.0
  0
LINE
  5
2C8D
330
1E
100
AcDbEntity
  8
7
100
AcDbLine
 10
1.720221957894284
 20
6.93370923862435
 30
0.0
 11
1.720221957894284
 21
6.93239682267947
 31
0.0
  0
LINE
  5
2C8E
330
1E
100
AcDbEntity
  8
7
100
AcDbLine
 10
1.59947969096515
 20
6.93370923862435
 30
0.0
 11
1.59947969096515
 21
6.93239682267947
 31
0.0
  0
LINE
  5
2C8F
330
1E
100
AcDbEntity
  8
7
100
AcDbLine
 10
1.583730699626568
 20
6.78015657307317
 30
0.0
 11
1.585043115571449
 21
6.781468989018051
 31
0.0
  0
LINE
  5
2C95
330
1E
100
AcDbEntity
  8
7
100
AcDbLine
 10
1.59947969096515
 20
6.778844157128289
 30
0.0
 11
1.720221957894284
 21
6.778844157128289
 31
0.0
  0
LINE
  5
2C96
330
1E
100
AcDbEntity
  8
7
100
AcDbLine
 10
1.579793451791922
 20
6.610854916183406
 30
0.0
 11
1.582418283681686
 21
6.61347974807317
 31
0.0
  0
LINE
  5
2C97
330
1E
100
AcDbEntity
  8
7
100
AcDbLine
 10
1.579793451791922
 20
6.610854916183406
 30
0.0
 11
1.590292779350977
 21
6.610854916183406
 31
0.0
  0
LINE
  5
2C9D
330
1E
100
AcDbEntity
  8
7
100
AcDbLine
 10
1.734658533287985
 20
6.781468989018051
 30
0.0
 11
1.734658533287985
 21
6.63447840319128
 31
0.0
  0
LINE
  5
2CA8
330
1E
100
AcDbEntity
  8
7
100
AcDbLine
 10
1.585043115571449
 20
6.781468989018051
 30
0.0
 11
1.585043115571449
 21
6.63447840319128
 31
0.0
  0
LINE
  5
2CA9
330
1E
100
AcDbEntity
  8
7
100
AcDbLine
 10
0.9747697012013709
 20
6.560983110277895
 30
0.0
 11
0.9826441968706625
 21
6.553108614608603
 31
0.0
  0
LINE
  5
2CAA
330
1E
100
AcDbEntity
  8
7
100
AcDbLine
 10
1.166382429154126
 20
6.592481092955059
 30
0.0
 11
1.166382429154126
 21
6.591168677010179
 31
0.0
  0
LINE
  5
2CAB
330
1E
100
AcDbEntity
  8
7
100
AcDbLine
 10
1.043015330335229
 20
6.592481092955059
 30
0.0
 11
1.043015330335229
 21
6.591168677010179
 31
0.0
  0
LINE
  5
2CAC
330
1E
100
AcDbEntity
  8
7
100
AcDbLine
 10
1.226753562618694
 20
6.553108614608603
 30
0.0
 11
1.234628058287985
 21
6.560983110277895
 31
0.0
  0
LINE
  5
2CAD
330
1E
100
AcDbEntity
  8
7
100
AcDbLine
 10
1.228065978563575
 20
6.551796198663721
 30
0.0
 11
1.226753562618694
 21
6.551796198663721
 31
0.0
  0
LINE
  5
2CAE
330
1E
100
AcDbEntity
  8
7
100
AcDbLine
 10
1.228065978563575
 20
6.551796198663721
 30
0.0
 11
1.235940474232867
 21
6.559670694333012
 31
0.0
  0
LINE
  5
2CB5
330
1E
100
AcDbEntity
  8
7
100
AcDbLine
 10
1.234628058287985
 20
6.560983110277895
 30
0.0
 11
1.234628058287985
 21
6.584606597285768
 31
0.0
  0
LINE
  5
2CBC
330
1E
100
AcDbEntity
  8
7
100
AcDbLine
 10
0.9747697012013709
 20
6.584606597285768
 30
0.0
 11
0.9747697012013709
 21
6.560983110277895
 31
0.0
  0
LINE
  5
2CBD
330
1E
100
AcDbEntity
  8
7
100
AcDbLine
 10
0.9734572852564893
 20
6.559670694333012
 30
0.0
 11
0.9813317809257808
 21
6.551796198663721
 31
0.0
  0
LINE
  5
2CC3
330
1E
100
AcDbEntity
  8
7
100
AcDbLine
 10
1.226753562618694
 20
6.551796198663721
 30
0.0
 11
1.228065978563575
 21
6.551796198663721
 31
0.0
  0
LINE
  5
2CC4
330
1E
100
AcDbEntity
  8
7
100
AcDbLine
 10
0.9813317809257808
 20
6.597730756734588
 30
0.0
 11
0.9826441968706625
 21
6.592481092955059
 31
0.0
  0
LINE
  5
2CC5
330
1E
100
AcDbEntity
  8
7
100
AcDbLine
 10
0.9813317809257808
 20
6.597730756734588
 30
0.0
 11
0.9734572852564893
 21
6.589856261065295
 31
0.0
  0
LINE
  5
2CC6
330
1E
100
AcDbEntity
  8
7
100
AcDbLine
 10
1.033828418721055
 20
6.592481092955059
 30
0.0
 11
1.043015330335229
 21
6.592481092955059
 31
0.0
  0
LINE
  5
2CC7
330
1E
100
AcDbEntity
  8
7
100
AcDbLine
 10
1.166382429154126
 20
6.592481092955059
 30
0.0
 11
1.1755693407683
 21
6.592481092955059
 31
0.0
  0
LINE
  5
2CCD
330
1E
100
AcDbEntity
  8
7
100
AcDbLine
 10
1.235940474232867
 20
6.589856261065295
 30
0.0
 11
1.228065978563575
 21
6.597730756734588
 31
0.0
  0
LINE
  5
2CF6
330
1E
100
AcDbEntity
  8
7
100
AcDbLine
 10
0.7319727513982217
 20
7.061013585277894
 30
0.0
 11
0.7254106716738118
 21
7.058388753388131
 31
0.0
  0
LINE
  5
2CF7
330
1E
100
AcDbEntity
  8
7
100
AcDbLine
 10
0.7254106716738118
 20
7.058388753388131
 30
0.0
 11
0.7227858397840486
 21
7.051826673663721
 31
0.0
  0
LINE
  5
2CF8
330
1E
100
AcDbEntity
  8
7
100
AcDbLine
 10
0.7227858397840486
 20
6.659414306144037
 30
0.0
 11
0.7227858397840486
 21
7.051826673663721
 31
0.0
  0
LINE
  5
2CF9
330
1E
100
AcDbEntity
  8
7
100
AcDbLine
 10
0.2818140823037334
 20
2.992524156144036
 30
0.0
 11
0.2844389141934975
 21
2.9951489880338
 31
0.0
  0
LINE
  5
2CFA
330
1E
100
AcDbEntity
  8
7
100
AcDbLine
 10
0.2844389141934975
 20
7.435052129569234
 30
0.0
 11
0.2818140823037334
 21
7.438989377403878
 31
0.0
  0
LINE
  5
2CFB
330
1E
100
AcDbEntity
  8
7
100
AcDbLine
 10
0.6401036352564891
 20
7.07151291283695
 30
0.0
 11
0.6387912193116075
 21
7.07151291283695
 31
0.0
  0
LINE
  5
2CFC
330
1E
100
AcDbEntity
  8
7
100
AcDbLine
 10
0.6387912193116075
 20
6.639728066970808
 30
0.0
 11
0.6401036352564891
 21
6.641040482915689
 31
0.0
  0
LINE
  5
2D02
330
1E
100
AcDbEntity
  8
7
100
AcDbLine
 10
1.553545132894284
 20
3.514865702207028
 30
0.0
 11
1.766156515965151
 21
3.514865702207028
 31
0.0
  0
LINE
  5
2D03
330
1E
100
AcDbEntity
  8
7
100
AcDbLine
 10
1.553545132894284
 20
3.634295553191281
 30
0.0
 11
1.766156515965151
 21
3.634295553191281
 31
0.0
  0
LINE
  5
2D04
330
1E
100
AcDbEntity
  8
7
100
AcDbLine
 10
1.57191895612263
 20
6.114761689018052
 30
0.0
 11
1.747782692736804
 21
6.114761689018052
 31
0.0
  0
LINE
  5
2D05
330
1E
100
AcDbEntity
  8
7
100
AcDbLine
 10
1.762219268130504
 20
5.454616468742461
 30
0.0
 11
1.55748238072893
 21
5.454616468742461
 31
0.0
  0
LINE
  5
2D06
330
1E
100
AcDbEntity
  8
7
100
AcDbLine
 10
1.762219268130504
 20
5.466428212246399
 30
0.0
 11
1.762219268130504
 21
5.454616468742461
 31
0.0
  0
LINE
  5
2D11
330
1E
100
AcDbEntity
  8
7
100
AcDbLine
 10
1.556169964784048
 20
5.501863442758208
 30
0.0
 11
1.762219268130504
 21
5.501863442758208
 31
0.0
  0
LINE
  5
2D1C
330
1E
100
AcDbEntity
  8
7
100
AcDbLine
 10
1.556169964784048
 20
5.501863442758208
 30
0.0
 11
1.556169964784048
 21
5.507113106537737
 31
0.0
  0
LINE
  5
2D22
330
1E
100
AcDbEntity
  8
7
100
AcDbLine
 10
1.762219268130504
 20
5.535986257325139
 30
0.0
 11
1.762219268130504
 21
5.507113106537737
 31
0.0
  0
LINE
  5
2D23
330
1E
100
AcDbEntity
  8
7
100
AcDbLine
 10
1.57191895612263
 20
4.963772905356634
 30
0.0
 11
1.747782692736804
 21
4.963772905356634
 31
0.0
  0
LINE
  5
2D24
330
1E
100
AcDbEntity
  8
7
100
AcDbLine
 10
1.762219268130504
 20
4.304940101025926
 30
0.0
 11
1.55748238072893
 21
4.304940101025926
 31
0.0
  0
LINE
  5
2D25
330
1E
100
AcDbEntity
  8
7
100
AcDbLine
 10
1.762219268130504
 20
4.315439428584982
 30
0.0
 11
1.762219268130504
 21
4.304940101025926
 31
0.0
  0
LINE
  5
2D30
330
1E
100
AcDbEntity
  8
7
100
AcDbLine
 10
1.556169964784048
 20
4.352187075041674
 30
0.0
 11
1.762219268130504
 21
4.352187075041674
 31
0.0
  0
LINE
  5
2D3B
330
1E
100
AcDbEntity
  8
7
100
AcDbLine
 10
1.556169964784048
 20
4.352187075041674
 30
0.0
 11
1.556169964784048
 21
4.357436738821202
 31
0.0
  0
LINE
  5
2D41
330
1E
100
AcDbEntity
  8
7
100
AcDbLine
 10
1.762219268130504
 20
4.386309889608603
 30
0.0
 11
1.762219268130504
 21
4.357436738821202
 31
0.0
  0
LINE
  5
2D4E
330
1E
100
AcDbEntity
  8
7
100
AcDbLine
 10
0.7319727513982217
 20
3.781286139018051
 30
0.0
 11
0.7319727513982217
 21
3.77997372307317
 31
0.0
  0
LINE
  5
2D6D
330
1E
100
AcDbEntity
  8
7
100
AcDbLine
 10
2.596915809075387
 20
3.770786811458997
 30
0.0
 11
2.596915809075387
 21
3.378374443939312
 31
0.0
  0
LINE
  5
2D6E
330
1E
100
AcDbEntity
  8
7
100
AcDbLine
 10
2.596915809075387
 20
3.770786811458997
 30
0.0
 11
2.596915809075387
 21
3.378374443939312
 31
0.0
  0
LINE
  5
2D6F
330
1E
100
AcDbEntity
  8
7
100
AcDbLine
 10
2.587728897461213
 20
3.781286139018051
 30
0.0
 11
2.587728897461213
 21
3.77997372307317
 31
0.0
  0
LINE
  5
2D7A
330
1E
100
AcDbEntity
  8
7
100
AcDbLine
 10
1.720221957894284
 20
3.424309002010178
 30
0.0
 11
1.720221957894284
 21
3.422996586065296
 31
0.0
  0
LINE
  5
2D7B
330
1E
100
AcDbEntity
  8
7
100
AcDbLine
 10
1.59947969096515
 20
3.424309002010178
 30
0.0
 11
1.720221957894284
 21
3.424309002010178
 31
0.0
  0
LINE
  5
2D7C
330
1E
100
AcDbEntity
  8
7
100
AcDbLine
 10
1.59947969096515
 20
3.422996586065296
 30
0.0
 11
1.59947969096515
 21
3.424309002010178
 31
0.0
  0
LINE
  5
2D7D
330
1E
100
AcDbEntity
  8
7
100
AcDbLine
 10
1.59947969096515
 20
3.422996586065296
 30
0.0
 11
1.720221957894284
 21
3.422996586065296
 31
0.0
  0
LINE
  5
2D7E
330
1E
100
AcDbEntity
  8
7
100
AcDbLine
 10
1.720221957894284
 20
3.497804294923564
 30
0.0
 11
1.720221957894284
 21
3.496491878978682
 31
0.0
  0
LINE
  5
2D84
330
1E
100
AcDbEntity
  8
7
100
AcDbLine
 10
1.720221957894284
 20
3.496491878978682
 30
0.0
 11
1.59947969096515
 21
3.496491878978682
 31
0.0
  0
LINE
  5
2D8F
330
1E
100
AcDbEntity
  8
7
100
AcDbLine
 10
1.755657188406095
 20
3.506991206537737
 30
0.0
 11
1.564044460453339
 21
3.506991206537737
 31
0.0
  0
LINE
  5
2D90
330
1E
100
AcDbEntity
  8
7
100
AcDbLine
 10
1.766156515965151
 20
3.514865702207028
 30
0.0
 11
1.755657188406095
 21
3.506991206537737
 31
0.0
  0
LINE
  5
2D91
330
1E
100
AcDbEntity
  8
7
100
AcDbLine
 10
1.564044460453339
 20
3.506991206537737
 30
0.0
 11
1.553545132894284
 21
3.514865702207028
 31
0.0
  0
LINE
  5
2D99
330
1E
100
AcDbEntity
  8
7
100
AcDbLine
 10
1.755657188406095
 20
3.642170048860572
 30
0.0
 11
1.766156515965151
 21
3.634295553191281
 31
0.0
  0
LINE
  5
2D9A
330
1E
100
AcDbEntity
  8
7
100
AcDbLine
 10
1.755657188406095
 20
3.642170048860572
 30
0.0
 11
1.564044460453339
 21
3.642170048860572
 31
0.0
  0
LINE
  5
2D9B
330
1E
100
AcDbEntity
  8
7
100
AcDbLine
 10
1.553545132894284
 20
3.634295553191281
 30
0.0
 11
1.564044460453339
 21
3.642170048860572
 31
0.0
  0
LINE
  5
2DA1
330
1E
100
AcDbEntity
  8
7
100
AcDbLine
 10
1.720221957894284
 20
3.651356960474744
 30
0.0
 11
1.59947969096515
 21
3.651356960474744
 31
0.0
  0
LINE
  5
2DA7
330
1E
100
AcDbEntity
  8
7
100
AcDbLine
 10
1.720221957894284
 20
3.651356960474744
 30
0.0
 11
1.59947969096515
 21
3.651356960474744
 31
0.0
  0
LINE
  5
2DA8
330
1E
100
AcDbEntity
  8
7
100
AcDbLine
 10
1.57191895612263
 20
5.003145383703092
 30
0.0
 11
1.57191895612263
 21
4.963772905356634
 31
0.0
  0
LINE
  5
2DA9
330
1E
100
AcDbEntity
  8
7
100
AcDbLine
 10
1.747782692736804
 20
5.003145383703092
 30
0.0
 11
1.747782692736804
 21
4.963772905356634
 31
0.0
  0
LINE
  5
2DAA
330
1E
100
AcDbEntity
  8
7
100
AcDbLine
 10
1.57191895612263
 20
6.152821751419626
 30
0.0
 11
1.57191895612263
 21
6.114761689018052
 31
0.0
  0
LINE
  5
2DAB
330
1E
100
AcDbEntity
  8
7
100
AcDbLine
 10
1.747782692736804
 20
6.152821751419626
 30
0.0
 11
1.747782692736804
 21
6.114761689018052
 31
0.0
  0
LINE
  5
2DAC
330
1E
100
AcDbEntity
  8
7
100
AcDbLine
 10
1.15457068565019
 20
3.869218007325138
 30
0.0
 11
1.146696189980898
 21
3.877092502994429
 31
0.0
  0
LINE
  5
2DAD
330
1E
100
AcDbEntity
  8
7
100
AcDbLine
 10
0.9629579576974336
 20
3.837720024647973
 30
0.0
 11
0.9629579576974336
 21
3.839032440592855
 31
0.0
  0
LINE
  5
2DAE
330
1E
100
AcDbEntity
  8
7
100
AcDbLine
 10
1.086325056516332
 20
3.837720024647973
 30
0.0
 11
1.086325056516332
 21
3.839032440592855
 31
0.0
  0
LINE
  5
2DAF
330
1E
100
AcDbEntity
  8
7
100
AcDbLine
 10
0.9025868242328671
 20
3.877092502994429
 30
0.0
 11
0.8947123285635756
 21
3.869218007325138
 31
0.0
  0
LINE
  5
2DB0
330
1E
100
AcDbEntity
  8
7
100
AcDbLine
 10
0.7726576456895602
 20
3.369187532325138
 30
0.0
 11
0.7319727513982217
 21
3.369187532325138
 31
0.0
  0
LINE
  5
2DB1
330
1E
100
AcDbEntity
  8
7
100
AcDbLine
 10
0.7319727513982217
 20
3.77997372307317
 30
0.0
 11
0.7726576456895602
 21
3.77997372307317
 31
0.0
  0
LINE
  5
2DB2
330
1E
100
AcDbEntity
  8
7
100
AcDbLine
 10
0.7726576456895602
 20
3.369187532325138
 30
0.0
 11
2.547044003169874
 21
3.369187532325138
 31
0.0
  0
LINE
  5
2DB3
330
1E
100
AcDbEntity
  8
7
100
AcDbLine
 10
0.7319727513982217
 20
3.369187532325138
 30
0.0
 11
2.587728897461213
 21
3.369187532325138
 31
0.0
  0
LINE
  5
2DB4
330
1E
100
AcDbEntity
  8
7
100
AcDbLine
 10
2.587728897461213
 20
3.369187532325138
 30
0.0
 11
2.547044003169874
 21
3.369187532325138
 31
0.0
  0
LINE
  5
2DB5
330
1E
100
AcDbEntity
  8
7
100
AcDbLine
 10
2.547044003169874
 20
3.77997372307317
 30
0.0
 11
2.587728897461213
 21
3.77997372307317
 31
0.0
  0
LINE
  5
2DB6
330
1E
100
AcDbEntity
  8
7
100
AcDbLine
 10
2.424989320295859
 20
3.869218007325138
 30
0.0
 11
2.417114824626568
 21
3.877092502994429
 31
0.0
  0
LINE
  5
2DB7
330
1E
100
AcDbEntity
  8
7
100
AcDbLine
 10
2.232064176398222
 20
3.837720024647973
 30
0.0
 11
2.233376592343103
 21
3.839032440592855
 31
0.0
  0
LINE
  5
2DB8
330
1E
100
AcDbEntity
  8
7
100
AcDbLine
 10
2.356743691162
 20
3.837720024647973
 30
0.0
 11
2.355431275217119
 21
3.839032440592855
 31
0.0
  0
LINE
  5
2DB9
330
1E
100
AcDbEntity
  8
7
100
AcDbLine
 10
2.173005458878536
 20
3.877092502994429
 30
0.0
 11
2.165130963209245
 21
3.869218007325138
 31
0.0
  0
LINE
  5
2DBA
330
1E
100
AcDbEntity
  8
7
100
AcDbLine
 10
2.171693042933654
 20
3.879717334884194
 30
0.0
 11
2.171693042933654
 21
3.878404918939312
 31
0.0
  0
LINE
  5
2DBB
330
1E
100
AcDbEntity
  8
7
100
AcDbLine
 10
2.171693042933654
 20
3.879717334884194
 30
0.0
 11
2.163818547264363
 21
3.87053042327002
 31
0.0
  0
LINE
  5
2DC2
330
1E
100
AcDbEntity
  8
7
100
AcDbLine
 10
2.165130963209245
 20
3.869218007325138
 30
0.0
 11
2.165130963209245
 21
3.845594520317264
 31
0.0
  0
LINE
  5
2DC9
330
1E
100
AcDbEntity
  8
7
100
AcDbLine
 10
2.424989320295859
 20
3.845594520317264
 30
0.0
 11
2.424989320295859
 21
3.869218007325138
 31
0.0
  0
LINE
  5
2DCA
330
1E
100
AcDbEntity
  8
7
100
AcDbLine
 10
2.426301736240741
 20
3.87053042327002
 30
0.0
 11
2.418427240571449
 21
3.879717334884194
 31
0.0
  0
LINE
  5
2DD5
330
1E
100
AcDbEntity
  8
7
100
AcDbLine
 10
0.9012744082879855
 20
3.879717334884194
 30
0.0
 11
0.893399912618694
 21
3.87053042327002
 31
0.0
  0
LINE
  5
2DD6
330
1E
100
AcDbEntity
  8
7
100
AcDbLine
 10
0.8947123285635756
 20
3.869218007325138
 30
0.0
 11
0.893399912618694
 21
3.87053042327002
 31
0.0
  0
LINE
  5
2DDC
330
1E
100
AcDbEntity
  8
7
100
AcDbLine
 10
0.8947123285635756
 20
3.869218007325138
 30
0.0
 11
0.8947123285635756
 21
3.845594520317264
 31
0.0
  0
LINE
  5
2DE3
330
1E
100
AcDbEntity
  8
7
100
AcDbLine
 10
1.15457068565019
 20
3.845594520317264
 30
0.0
 11
1.15457068565019
 21
3.869218007325138
 31
0.0
  0
LINE
  5
2DE4
330
1E
100
AcDbEntity
  8
7
100
AcDbLine
 10
1.155883101595072
 20
3.87053042327002
 30
0.0
 11
1.14800860592578
 21
3.879717334884194
 31
0.0
  0
LINE
  5
2DE5
330
1E
100
AcDbEntity
  8
7
100
AcDbLine
 10
1.146696189980898
 20
3.878404918939312
 30
0.0
 11
1.14800860592578
 21
3.879717334884194
 31
0.0
  0
LINE
  5
2DE6
330
1E
100
AcDbEntity
  8
7
100
AcDbLine
 10
1.14800860592578
 20
3.879717334884194
 30
0.0
 11
1.146696189980898
 21
3.879717334884194
 31
0.0
  0
LINE
  5
2DE7
330
1E
100
AcDbEntity
  8
7
100
AcDbLine
 10
1.402617299232867
 20
5.492676531144036
 30
0.0
 11
1.414429042736804
 21
5.492676531144036
 31
0.0
  0
LINE
  5
2DE8
330
1E
100
AcDbEntity
  8
7
100
AcDbLine
 10
1.414429042736804
 20
5.480864787640099
 30
0.0
 11
1.414429042736804
 21
5.492676531144036
 31
0.0
  0
LINE
  5
2DF5
330
1E
100
AcDbEntity
  8
7
100
AcDbLine
 10
1.785842755138379
 20
5.428368149844823
 30
0.0
 11
1.763531684075386
 21
5.440179893348761
 31
0.0
  0
LINE
  5
2DF6
330
1E
100
AcDbEntity
  8
7
100
AcDbLine
 10
1.90527260612263
 20
5.492676531144036
 30
0.0
 11
1.90527260612263
 21
5.480864787640099
 31
0.0
  0
LINE
  5
2DF7
330
1E
100
AcDbEntity
  8
7
100
AcDbLine
 10
1.90527260612263
 20
5.492676531144036
 30
0.0
 11
1.917084349626568
 21
5.492676531144036
 31
0.0
  0
LINE
  5
2DF8
330
1E
100
AcDbEntity
  8
7
100
AcDbLine
 10
1.402617299232867
 20
4.3430001634275
 30
0.0
 11
1.414429042736804
 21
4.3430001634275
 31
0.0
  0
LINE
  5
2DF9
330
1E
100
AcDbEntity
  8
7
100
AcDbLine
 10
1.414429042736804
 20
4.331188419923564
 30
0.0
 11
1.414429042736804
 21
4.3430001634275
 31
0.0
  0
LINE
  5
2E06
330
1E
100
AcDbEntity
  8
7
100
AcDbLine
 10
1.785842755138379
 20
4.277379366183406
 30
0.0
 11
1.763531684075386
 21
4.289191109687344
 31
0.0
  0
LINE
  5
2E07
330
1E
100
AcDbEntity
  8
7
100
AcDbLine
 10
1.90527260612263
 20
4.3430001634275
 30
0.0
 11
1.90527260612263
 21
4.331188419923564
 31
0.0
  0
LINE
  5
2E08
330
1E
100
AcDbEntity
  8
7
100
AcDbLine
 10
1.90527260612263
 20
4.3430001634275
 30
0.0
 11
1.917084349626568
 21
4.3430001634275
 31
0.0
  0
LINE
  5
2E09
330
1E
100
AcDbEntity
  8
7
100
AcDbLine
 10
1.585043115571449
 20
3.795722714411753
 30
0.0
 11
1.582418283681686
 21
3.797035130356634
 31
0.0
  0
LINE
  5
2E14
330
1E
100
AcDbEntity
  8
7
100
AcDbLine
 10
1.585043115571449
 20
3.650044544529863
 30
0.0
 11
1.583730699626568
 21
3.650044544529863
 31
0.0
  0
LINE
  5
2E15
330
1E
100
AcDbEntity
  8
7
100
AcDbLine
 10
1.583730699626568
 20
3.651356960474744
 30
0.0
 11
1.553545132894284
 21
3.638232801025925
 31
0.0
  0
LINE
  5
2E30
330
1E
100
AcDbEntity
  8
7
100
AcDbLine
 10
1.583730699626568
 20
3.723539837443249
 30
0.0
 11
1.579793451791922
 21
3.72485225338813
 31
0.0
  0
LINE
  5
2E31
330
1E
100
AcDbEntity
  8
7
100
AcDbLine
 10
1.579793451791922
 20
3.72485225338813
 30
0.0
 11
1.540420973445465
 21
3.714352925829075
 31
0.0
  0
LINE
  5
2E3F
330
1E
100
AcDbEntity
  8
7
100
AcDbLine
 10
0.7726576456895602
 20
3.77997372307317
 30
0.0
 11
1.579793451791922
 21
3.77997372307317
 31
0.0
  0
LINE
  5
2E40
330
1E
100
AcDbEntity
  8
7
100
AcDbLine
 10
1.579793451791922
 20
3.77997372307317
 30
0.0
 11
1.57848103584704
 21
3.781286139018051
 31
0.0
  0
LINE
  5
2E41
330
1E
100
AcDbEntity
  8
7
100
AcDbLine
 10
0.7319727513982217
 20
3.781286139018051
 30
0.0
 11
1.57848103584704
 21
3.781286139018051
 31
0.0
  0
LINE
  5
2E42
330
1E
100
AcDbEntity
  8
7
100
AcDbLine
 10
0.6702892019887728
 20
3.819346201419626
 30
0.0
 11
1.57848103584704
 21
3.819346201419626
 31
0.0
  0
LINE
  5
2E49
330
1E
100
AcDbEntity
  8
7
100
AcDbLine
 10
0.6401036352564891
 20
3.360000620710965
 30
0.0
 11
0.6401036352564891
 21
3.790473050632225
 31
0.0
  0
LINE
  5
2E50
330
1E
100
AcDbEntity
  8
7
100
AcDbLine
 10
2.649412446870662
 20
3.329815053978682
 30
0.0
 11
0.6702892019887728
 21
3.329815053978682
 31
0.0
  0
LINE
  5
2E57
330
1E
100
AcDbEntity
  8
7
100
AcDbLine
 10
2.679598013602945
 20
3.790473050632225
 30
0.0
 11
2.679598013602945
 21
3.360000620710965
 31
0.0
  0
LINE
  5
2E5E
330
1E
100
AcDbEntity
  8
7
100
AcDbLine
 10
1.741220613012394
 20
3.819346201419626
 30
0.0
 11
2.649412446870662
 21
3.819346201419626
 31
0.0
  0
LINE
  5
2E5F
330
1E
100
AcDbEntity
  8
7
100
AcDbLine
 10
1.741220613012394
 20
3.781286139018051
 30
0.0
 11
1.741220613012394
 21
3.819346201419626
 31
0.0
  0
LINE
  5
2E60
330
1E
100
AcDbEntity
  8
7
100
AcDbLine
 10
1.741220613012394
 20
3.781286139018051
 30
0.0
 11
2.587728897461213
 21
3.781286139018051
 31
0.0
  0
LINE
  5
2E61
330
1E
100
AcDbEntity
  8
7
100
AcDbLine
 10
1.57848103584704
 20
3.781286139018051
 30
0.0
 11
1.57848103584704
 21
3.819346201419626
 31
0.0
  0
LINE
  5
2E67
330
1E
100
AcDbEntity
  8
7
100
AcDbLine
 10
1.579793451791922
 20
3.72485225338813
 30
0.0
 11
1.579793451791922
 21
3.77997372307317
 31
0.0
  0
LINE
  5
2E68
330
1E
100
AcDbEntity
  8
7
100
AcDbLine
 10
0.7726576456895602
 20
3.778661307128289
 30
0.0
 11
0.7726576456895602
 21
3.37049994827002
 31
0.0
  0
LINE
  5
2E69
330
1E
100
AcDbEntity
  8
7
100
AcDbLine
 10
0.7726576456895602
 20
3.37049994827002
 30
0.0
 11
0.7726576456895602
 21
3.37049994827002
 31
0.0
  0
LINE
  5
2E6A
330
1E
100
AcDbEntity
  8
7
100
AcDbLine
 10
0.7726576456895602
 20
3.37049994827002
 30
0.0
 11
0.7726576456895602
 21
3.37049994827002
 31
0.0
  0
LINE
  5
2E6B
330
1E
100
AcDbEntity
  8
7
100
AcDbLine
 10
2.547044003169874
 20
3.37049994827002
 30
0.0
 11
2.547044003169874
 21
3.778661307128289
 31
0.0
  0
LINE
  5
2E6C
330
1E
100
AcDbEntity
  8
7
100
AcDbLine
 10
1.739908197067513
 20
3.77997372307317
 30
0.0
 11
1.739908197067513
 21
3.72485225338813
 31
0.0
  0
LINE
  5
2E7B
330
1E
100
AcDbEntity
  8
7
100
AcDbLine
 10
1.739908197067513
 20
3.72485225338813
 30
0.0
 11
1.735970949232867
 21
3.723539837443249
 31
0.0
  0
LINE
  5
2E89
330
1E
100
AcDbEntity
  8
7
100
AcDbLine
 10
1.776655843524205
 20
3.714352925829075
 30
0.0
 11
1.735970949232867
 21
3.723539837443249
 31
0.0
  0
LINE
  5
2E8A
330
1E
100
AcDbEntity
  8
7
100
AcDbLine
 10
1.583730699626568
 20
3.650044544529863
 30
0.0
 11
1.583730699626568
 21
3.723539837443249
 31
0.0
  0
LINE
  5
2E8B
330
1E
100
AcDbEntity
  8
7
100
AcDbLine
 10
1.735970949232867
 20
3.723539837443249
 30
0.0
 11
1.735970949232867
 21
3.650044544529863
 31
0.0
  0
LINE
  5
2E99
330
1E
100
AcDbEntity
  8
7
100
AcDbLine
 10
1.735970949232867
 20
3.650044544529863
 30
0.0
 11
1.734658533287985
 21
3.650044544529863
 31
0.0
  0
LINE
  5
2E9F
330
1E
100
AcDbEntity
  8
7
100
AcDbLine
 10
1.585043115571449
 20
3.650044544529863
 30
0.0
 11
1.585043115571449
 21
3.795722714411753
 31
0.0
  0
LINE
  5
2EA0
330
1E
100
AcDbEntity
  8
7
100
AcDbLine
 10
1.734658533287985
 20
3.650044544529863
 30
0.0
 11
1.734658533287985
 21
3.795722714411753
 31
0.0
  0
LINE
  5
2EA6
330
1E
100
AcDbEntity
  8
7
100
AcDbLine
 10
1.735970949232867
 20
3.797035130356634
 30
0.0
 11
1.734658533287985
 21
3.795722714411753
 31
0.0
  0
LINE
  5
2EA7
330
1E
100
AcDbEntity
  8
7
100
AcDbLine
 10
1.14800860592578
 20
3.832470360868446
 30
0.0
 11
1.146696189980898
 21
3.837720024647973
 31
0.0
  0
LINE
  5
2EA8
330
1E
100
AcDbEntity
  8
7
100
AcDbLine
 10
1.14800860592578
 20
3.832470360868446
 30
0.0
 11
1.155883101595072
 21
3.841657272482619
 31
0.0
  0
LINE
  5
2EA9
330
1E
100
AcDbEntity
  8
7
100
AcDbLine
 10
1.095511968130504
 20
3.837720024647973
 30
0.0
 11
1.086325056516332
 21
3.837720024647973
 31
0.0
  0
LINE
  5
2EAA
330
1E
100
AcDbEntity
  8
7
100
AcDbLine
 10
0.9629579576974336
 20
3.837720024647973
 30
0.0
 11
0.9550834620281429
 21
3.837720024647973
 31
0.0
  0
LINE
  5
2EB0
330
1E
100
AcDbEntity
  8
7
100
AcDbLine
 10
0.893399912618694
 20
3.841657272482619
 30
0.0
 11
0.9012744082879855
 21
3.832470360868446
 31
0.0
  0
LINE
  5
2EC3
330
1E
100
AcDbEntity
  8
7
100
AcDbLine
 10
1.738595781122631
 20
3.819346201419626
 30
0.0
 11
1.737283365177749
 21
3.818033785474744
 31
0.0
  0
LINE
  5
2EC4
330
1E
100
AcDbEntity
  8
7
100
AcDbLine
 10
1.738595781122631
 20
3.819346201419626
 30
0.0
 11
1.729408869508457
 21
3.819346201419626
 31
0.0
  0
LINE
  5
2ECA
330
1E
100
AcDbEntity
  8
7
100
AcDbLine
 10
2.418427240571449
 20
3.832470360868446
 30
0.0
 11
2.417114824626568
 21
3.837720024647973
 31
0.0
  0
LINE
  5
2ECB
330
1E
100
AcDbEntity
  8
7
100
AcDbLine
 10
2.418427240571449
 20
3.832470360868446
 30
0.0
 11
2.426301736240741
 21
3.841657272482619
 31
0.0
  0
LINE
  5
2ECC
330
1E
100
AcDbEntity
  8
7
100
AcDbLine
 10
2.364618186831292
 20
3.837720024647973
 30
0.0
 11
2.356743691162
 21
3.837720024647973
 31
0.0
  0
LINE
  5
2ECD
330
1E
100
AcDbEntity
  8
7
100
AcDbLine
 10
2.232064176398222
 20
3.837720024647973
 30
0.0
 11
2.22418968072893
 21
3.837720024647973
 31
0.0
  0
LINE
  5
2ED3
330
1E
100
AcDbEntity
  8
7
100
AcDbLine
 10
2.163818547264363
 20
3.841657272482619
 30
0.0
 11
2.171693042933654
 21
3.832470360868446
 31
0.0
  0
LINE
  5
2F24
330
1E
100
AcDbEntity
  8
7
100
AcDbLine
 10
1.579793451791922
 20
3.820658617364509
 30
0.0
 11
1.57848103584704
 21
3.819346201419626
 31
0.0
  0
LINE
  5
2F2A
330
1E
100
AcDbEntity
  8
7
100
AcDbLine
 10
0.6689767860438911
 20
3.820658617364509
 30
0.0
 11
0.6702892019887728
 21
3.819346201419626
 31
0.0
  0
LINE
  5
2F2B
330
1E
100
AcDbEntity
  8
7
100
AcDbLine
 10
0.6401036352564891
 20
3.790473050632225
 30
0.0
 11
0.6387912193116075
 21
3.790473050632225
 31
0.0
  0
LINE
  5
2F2C
330
1E
100
AcDbEntity
  8
7
100
AcDbLine
 10
0.6387912193116075
 20
3.358688204766083
 30
0.0
 11
0.6401036352564891
 21
3.360000620710965
 31
0.0
  0
LINE
  5
2F2D
330
1E
100
AcDbEntity
  8
7
100
AcDbLine
 10
0.6702892019887728
 20
3.329815053978682
 30
0.0
 11
0.6689767860438911
 21
3.3285026380338
 31
0.0
  0
LINE
  5
2F2E
330
1E
100
AcDbEntity
  8
7
100
AcDbLine
 10
2.650724862815544
 20
3.3285026380338
 30
0.0
 11
2.649412446870662
 21
3.329815053978682
 31
0.0
  0
LINE
  5
2F2F
330
1E
100
AcDbEntity
  8
7
100
AcDbLine
 10
2.680910429547827
 20
3.790473050632225
 30
0.0
 11
2.679598013602945
 21
3.790473050632225
 31
0.0
  0
LINE
  5
2F30
330
1E
100
AcDbEntity
  8
7
100
AcDbLine
 10
2.679598013602945
 20
3.360000620710965
 30
0.0
 11
2.680910429547827
 21
3.358688204766083
 31
0.0
  0
LINE
  5
2F31
330
1E
100
AcDbEntity
  8
7
100
AcDbLine
 10
2.649412446870662
 20
3.819346201419626
 30
0.0
 11
2.650724862815544
 21
3.820658617364509
 31
0.0
  0
LINE
  5
2F32
330
1E
100
AcDbEntity
  8
7
100
AcDbLine
 10
1.741220613012394
 20
3.819346201419626
 30
0.0
 11
1.739908197067513
 21
3.820658617364509
 31
0.0
  0
LINE
  5
2F38
330
1E
100
AcDbEntity
  8
7
100
AcDbLine
 10
3.007701999823418
 20
2.962338589411753
 30
0.0
 11
3.005077167933654
 21
2.964963421301517
 31
0.0
  0
LINE
  5
2F39
330
1E
100
AcDbEntity
  8
7
100
AcDbLine
 10
0.3146244809257812
 20
2.964963421301517
 30
0.0
 11
0.3119996490360171
 21
2.962338589411753
 31
0.0
  0
LINE
  5
2F3A
330
1E
100
AcDbEntity
  8
7
100
AcDbLine
 10
4.607537036634441
 20
3.150014069529863
 30
0.0
 11
4.607537036634441
 21
7.28018704807317
 31
0.0
  0
LINE
  5
2F3B
330
1E
100
AcDbEntity
  8
7
100
AcDbLine
 10
4.73221655139822
 20
7.400929315002304
 30
0.0
 11
4.73221655139822
 21
3.029271802600729
 31
0.0
  0
LINE
  5
2F41
330
1E
100
AcDbEntity
  8
7
100
AcDbLine
 10
4.73221655139822
 20
3.029271802600729
 30
0.0
 11
4.629848107697434
 21
3.150014069529863
 31
0.0
  0
LINE
  5
2F5E
330
1E
100
AcDbEntity
  8
7
100
AcDbLine
 10
4.629848107697434
 20
3.08570568823065
 30
0.0
 11
4.73221655139822
 21
2.964963421301517
 31
0.0
  0
LINE
  5
2F6B
330
1E
100
AcDbEntity
  8
7
100
AcDbLine
 10
4.767651781910031
 20
2.964963421301517
 30
0.0
 11
4.736153799232866
 21
2.964963421301517
 31
0.0
  0
LINE
  5
2F81
330
1E
100
AcDbEntity
  8
7
100
AcDbLine
 10
5.061632953563575
 20
3.865280759490492
 30
0.0
 11
5.061632953563575
 21
3.839032440592855
 31
0.0
  0
LINE
  5
2F82
330
1E
100
AcDbEntity
  8
7
100
AcDbLine
 10
4.629848107697434
 20
7.344495429372383
 30
0.0
 11
4.73221655139822
 21
7.465237696301516
 31
0.0
  0
LINE
  5
2F8D
330
1E
100
AcDbEntity
  8
7
100
AcDbLine
 10
5.011761147658063
 20
6.57935693350624
 30
0.0
 11
5.011761147658063
 21
6.591168677010179
 31
0.0
  0
LINE
  5
2FA3
330
1E
100
AcDbEntity
  8
7
100
AcDbLine
 10
4.767651781910031
 20
2.9951489880338
 30
0.0
 11
4.767651781910031
 21
7.435052129569234
 31
0.0
  0
LINE
  5
2FA4
330
1E
100
AcDbEntity
  8
7
100
AcDbLine
 10
4.767651781910031
 20
2.9951489880338
 30
0.0
 11
4.936953438799796
 21
2.992524156144036
 31
0.0
  0
LINE
  5
2FA5
330
1E
100
AcDbEntity
  8
7
100
AcDbLine
 10
4.936953438799796
 20
7.438989377403878
 30
0.0
 11
4.936953438799796
 21
2.992524156144036
 31
0.0
  0
LINE
  5
2FA6
330
1E
100
AcDbEntity
  8
7
100
AcDbLine
 10
4.936953438799796
 20
7.438989377403878
 30
0.0
 11
4.767651781910031
 21
7.435052129569234
 31
0.0
  0
LINE
  5
2FC0
330
1E
100
AcDbEntity
  8
7
100
AcDbLine
 10
5.061632953563575
 20
6.604292836458997
 30
0.0
 11
5.061632953563575
 21
6.591168677010179
 31
0.0
  0
LINE
  5
2FC1
330
1E
100
AcDbEntity
  8
7
100
AcDbLine
 10
5.052446041949401
 20
6.61347974807317
 30
0.0
 11
5.061632953563575
 21
6.604292836458997
 31
0.0
  0
LINE
  5
2FC7
330
1E
100
AcDbEntity
  8
7
100
AcDbLine
 10
5.053758457894284
 20
6.604292836458997
 30
0.0
 11
5.051133626004519
 21
6.605605252403878
 31
0.0
  0
LINE
  5
2FCD
330
1E
100
AcDbEntity
  8
7
100
AcDbLine
 10
5.053758457894284
 20
6.591168677010179
 30
0.0
 11
5.053758457894284
 21
6.604292836458997
 31
0.0
  0
LINE
  5
2FE1
330
1E
100
AcDbEntity
  8
7
100
AcDbLine
 10
4.936953438799796
 20
6.630541155356635
 30
0.0
 11
5.052446041949401
 21
6.61347974807317
 31
0.0
  0
LINE
  5
2FE2
330
1E
100
AcDbEntity
  8
7
100
AcDbLine
 10
5.051133626004519
 20
6.605605252403878
 30
0.0
 11
4.936953438799796
 21
6.622666659687343
 31
0.0
  0
LINE
  5
2FF2
330
1E
100
AcDbEntity
  8
7
100
AcDbLine
 10
5.051133626004519
 20
6.517673384096791
 30
0.0
 11
5.051133626004519
 21
6.566232774057422
 31
0.0
  0
LINE
  5
300C
330
1E
100
AcDbEntity
  8
7
100
AcDbLine
 10
5.051133626004519
 20
6.48880023330939
 30
0.0
 11
5.051133626004519
 21
6.497987144923564
 31
0.0
  0
LINE
  5
300D
330
1E
100
AcDbEntity
  8
7
100
AcDbLine
 10
5.051133626004519
 20
6.478300905750336
 30
0.0
 11
4.936953438799796
 21
6.475676073860571
 31
0.0
  0
LINE
  5
300E
330
1E
100
AcDbEntity
  8
7
100
AcDbLine
 10
4.936953438799796
 20
6.486175401419626
 30
0.0
 11
5.051133626004519
 21
6.48880023330939
 31
0.0
  0
LINE
  5
300F
330
1E
100
AcDbEntity
  8
7
100
AcDbLine
 10
4.936953438799796
 20
6.58591901323065
 30
0.0
 11
5.052446041949401
 21
6.575419685671596
 31
0.0
  0
LINE
  5
3010
330
1E
100
AcDbEntity
  8
7
100
AcDbLine
 10
5.051133626004519
 20
6.566232774057422
 30
0.0
 11
4.936953438799796
 21
6.575419685671596
 31
0.0
  0
LINE
  5
3011
330
1E
100
AcDbEntity
  8
7
100
AcDbLine
 10
4.936953438799796
 20
6.51636096815191
 30
0.0
 11
5.051133626004519
 21
6.517673384096791
 31
0.0
  0
LINE
  5
3012
330
1E
100
AcDbEntity
  8
7
100
AcDbLine
 10
5.051133626004519
 20
6.508486472482619
 30
0.0
 11
4.936953438799796
 21
6.505861640592855
 31
0.0
  0
LINE
  5
3013
330
1E
100
AcDbEntity
  8
7
100
AcDbLine
 10
5.051133626004519
 20
6.497987144923564
 30
0.0
 11
4.936953438799796
 21
6.496674728978681
 31
0.0
  0
LINE
  5
3019
330
1E
100
AcDbEntity
  8
7
100
AcDbLine
 10
5.053758457894284
 20
3.825908281144037
 30
0.0
 11
5.053758457894284
 21
3.839032440592855
 31
0.0
  0
LINE
  5
3024
330
1E
100
AcDbEntity
  8
7
100
AcDbLine
 10
5.051133626004519
 20
3.824595865199154
 30
0.0
 11
5.053758457894284
 21
3.825908281144037
 31
0.0
  0
LINE
  5
302C
330
1E
100
AcDbEntity
  8
7
100
AcDbLine
 10
5.131190998642315
 20
5.466428212246399
 30
0.0
 11
5.131190998642315
 21
5.454616468742461
 31
0.0
  0
LINE
  5
3033
330
1E
100
AcDbEntity
  8
7
100
AcDbLine
 10
5.118066839193495
 20
5.535986257325139
 30
0.0
 11
5.118066839193495
 21
5.507113106537737
 31
0.0
  0
LINE
  5
3034
330
1E
100
AcDbEntity
  8
7
100
AcDbLine
 10
5.118066839193495
 20
5.535986257325139
 30
0.0
 11
5.127253750807669
 21
5.535986257325139
 31
0.0
  0
LINE
  5
303A
330
1E
100
AcDbEntity
  8
7
100
AcDbLine
 10
5.154814485650189
 20
5.529424177600729
 30
0.0
 11
5.127253750807669
 21
5.535986257325139
 31
0.0
  0
LINE
  5
303B
330
1E
100
AcDbEntity
  8
7
100
AcDbLine
 10
5.225684946673811
 20
5.455928884687343
 30
0.0
 11
5.200749043721055
 21
5.493988947088918
 31
0.0
  0
LINE
  5
3041
330
1E
100
AcDbEntity
  8
7
100
AcDbLine
 10
5.27424433663444
 20
5.430992981734587
 30
0.0
 11
5.349052045492709
 21
5.429680565789706
 31
0.0
  0
LINE
  5
3047
330
1E
100
AcDbEntity
  8
7
100
AcDbLine
 10
5.363488620886409
 20
5.415243990396005
 30
0.0
 11
5.363488620886409
 21
5.394245335277894
 31
0.0
  0
LINE
  5
3048
330
1E
100
AcDbEntity
  8
7
100
AcDbLine
 10
5.131190998642315
 20
4.315439428584982
 30
0.0
 11
5.131190998642315
 21
4.304940101025926
 31
0.0
  0
LINE
  5
304F
330
1E
100
AcDbEntity
  8
7
100
AcDbLine
 10
5.118066839193495
 20
4.386309889608603
 30
0.0
 11
5.118066839193495
 21
4.357436738821202
 31
0.0
  0
LINE
  5
3050
330
1E
100
AcDbEntity
  8
7
100
AcDbLine
 10
5.118066839193495
 20
4.386309889608603
 30
0.0
 11
5.127253750807669
 21
4.384997473663721
 31
0.0
  0
LINE
  5
3057
330
1E
100
AcDbEntity
  8
7
100
AcDbLine
 10
5.225684946673811
 20
4.306252516970808
 30
0.0
 11
5.200749043721055
 21
4.3430001634275
 31
0.0
  0
LINE
  5
305D
330
1E
100
AcDbEntity
  8
7
100
AcDbLine
 10
5.27424433663444
 20
4.281316614018051
 30
0.0
 11
5.349052045492709
 21
4.28000419807317
 31
0.0
  0
LINE
  5
305E
330
1E
100
AcDbEntity
  8
7
100
AcDbLine
 10
5.363488620886409
 20
4.264255206734588
 30
0.0
 11
5.358238957106881
 21
4.274754534293642
 31
0.0
  0
LINE
  5
305F
330
1E
100
AcDbEntity
  8
7
100
AcDbLine
 10
5.358238957106881
 20
4.274754534293642
 30
0.0
 11
5.349052045492709
 21
4.28000419807317
 31
0.0
  0
LINE
  5
3060
330
1E
100
AcDbEntity
  8
7
100
AcDbLine
 10
5.363488620886409
 20
4.264255206734588
 30
0.0
 11
5.363488620886409
 21
4.243256551616477
 31
0.0
  0
LINE
  5
3070
330
1E
100
AcDbEntity
  8
7
100
AcDbLine
 10
4.950077598248614
 20
6.406118028781831
 30
0.0
 11
4.950077598248614
 21
6.365433134490492
 31
0.0
  0
LINE
  5
307B
330
1E
100
AcDbEntity
  8
7
100
AcDbLine
 10
4.950077598248614
 20
4.105452877403878
 30
0.0
 11
4.950077598248614
 21
4.064767983112541
 31
0.0
  0
LINE
  5
3086
330
1E
100
AcDbEntity
  8
7
100
AcDbLine
 10
4.950077598248614
 20
5.256441661065296
 30
0.0
 11
4.950077598248614
 21
5.214444350829075
 31
0.0
  0
LINE
  5
309B
330
1E
100
AcDbEntity
  8
7
100
AcDbLine
 10
5.051133626004519
 20
3.865280759490492
 30
0.0
 11
5.051133626004519
 21
3.912527733506241
 31
0.0
  0
LINE
  5
30AB
330
1E
100
AcDbEntity
  8
7
100
AcDbLine
 10
4.936953438799796
 20
3.808846873860571
 30
0.0
 11
5.051133626004519
 21
3.824595865199154
 31
0.0
  0
LINE
  5
30AC
330
1E
100
AcDbEntity
  8
7
100
AcDbLine
 10
5.052446041949401
 20
3.816721369529863
 30
0.0
 11
4.936953438799796
 21
3.799659962246399
 31
0.0
  0
LINE
  5
30BC
330
1E
100
AcDbEntity
  8
7
100
AcDbLine
 10
5.051133626004519
 20
3.932213972679469
 30
0.0
 11
5.051133626004519
 21
3.942713300238524
 31
0.0
  0
LINE
  5
30CC
330
1E
100
AcDbEntity
  8
7
100
AcDbLine
 10
4.936953438799796
 20
5.434930229569234
 30
0.0
 11
5.116754423248615
 21
5.440179893348761
 31
0.0
  0
LINE
  5
30CD
330
1E
100
AcDbEntity
  8
7
100
AcDbLine
 10
5.349052045492709
 20
5.378496343939312
 30
0.0
 11
4.936953438799796
 21
5.34962319315191
 31
0.0
  0
LINE
  5
30D3
330
1E
100
AcDbEntity
  8
7
100
AcDbLine
 10
4.936953438799796
 20
4.285253861852698
 30
0.0
 11
5.116754423248615
 21
4.289191109687344
 31
0.0
  0
LINE
  5
30D4
330
1E
100
AcDbEntity
  8
7
100
AcDbLine
 10
5.349052045492709
 20
4.228819976222776
 30
0.0
 11
4.936953438799796
 21
4.199946825435374
 31
0.0
  0
LINE
  5
30D5
330
1E
100
AcDbEntity
  8
7
100
AcDbLine
 10
4.950077598248614
 20
6.365433134490492
 30
0.0
 11
4.936953438799796
 21
6.357558638821202
 31
0.0
  0
LINE
  5
30D6
330
1E
100
AcDbEntity
  8
7
100
AcDbLine
 10
4.950077598248614
 20
4.064767983112541
 30
0.0
 11
4.936953438799796
 21
4.056893487443248
 31
0.0
  0
LINE
  5
30D7
330
1E
100
AcDbEntity
  8
7
100
AcDbLine
 10
4.950077598248614
 20
5.214444350829075
 30
0.0
 11
4.936953438799796
 21
5.207882271104666
 31
0.0
  0
LINE
  5
30D8
330
1E
100
AcDbEntity
  8
7
100
AcDbLine
 10
5.051133626004519
 20
3.912527733506241
 30
0.0
 11
4.936953438799796
 21
3.913840149451123
 31
0.0
  0
LINE
  5
30D9
330
1E
100
AcDbEntity
  8
7
100
AcDbLine
 10
4.936953438799796
 20
3.924339477010178
 30
0.0
 11
5.051133626004519
 21
3.921714645120414
 31
0.0
  0
LINE
  5
30DA
330
1E
100
AcDbEntity
  8
7
100
AcDbLine
 10
4.936953438799796
 20
3.854781431931438
 30
0.0
 11
5.051133626004519
 21
3.865280759490492
 31
0.0
  0
LINE
  5
30DB
330
1E
100
AcDbEntity
  8
7
100
AcDbLine
 10
5.052446041949401
 20
3.854781431931438
 30
0.0
 11
4.936953438799796
 21
3.844282104372382
 31
0.0
  0
LINE
  5
30DC
330
1E
100
AcDbEntity
  8
7
100
AcDbLine
 10
4.936953438799796
 20
3.954525043742461
 30
0.0
 11
5.051133626004519
 21
3.951900211852698
 31
0.0
  0
LINE
  5
30DD
330
1E
100
AcDbEntity
  8
7
100
AcDbLine
 10
5.051133626004519
 20
3.942713300238524
 30
0.0
 11
4.936953438799796
 21
3.944025716183406
 31
0.0
  0
LINE
  5
30DE
330
1E
100
AcDbEntity
  8
7
100
AcDbLine
 10
4.936953438799796
 20
3.934838804569233
 30
0.0
 11
5.051133626004519
 21
3.932213972679469
 31
0.0
  0
LINE
  5
30DF
330
1E
100
AcDbEntity
  8
7
100
AcDbLine
 10
4.936953438799796
 20
2.962338589411753
 30
0.0
 11
4.767651781910031
 21
2.964963421301517
 31
0.0
  0
LINE
  5
3806
330
1E
100
AcDbEntity
  8
7
100
AcDbLine
 10
5.116754423248615
 20
4.289191109687344
 30
0.0
 11
5.127253750807669
 21
4.294440773466871
 31
0.0
  0
LINE
  5
3807
330
1E
100
AcDbEntity
  8
7
100
AcDbLine
 10
5.127253750807669
 20
4.294440773466871
 30
0.0
 11
5.131190998642315
 21
4.304940101025926
 31
0.0
  0
LINE
  5
3808
330
1E
100
AcDbEntity
  8
7
100
AcDbLine
 10
5.116754423248615
 20
5.440179893348761
 30
0.0
 11
5.127253750807669
 21
5.444117141183406
 31
0.0
  0
LINE
  5
3809
330
1E
100
AcDbEntity
  8
7
100
AcDbLine
 10
5.127253750807669
 20
5.444117141183406
 30
0.0
 11
5.131190998642315
 21
5.454616468742461
 31
0.0
  0
LINE
  5
380A
330
1E
100
AcDbEntity
  8
7
100
AcDbLine
 10
5.051133626004519
 20
3.921714645120414
 30
0.0
 11
5.051133626004519
 21
3.92565189295506
 31
0.0
  0
LINE
  5
380B
330
1E
100
AcDbEntity
  8
7
100
AcDbLine
 10
5.051133626004519
 20
3.92565189295506
 30
0.0
 11
5.051133626004519
 21
3.932213972679469
 31
0.0
  0
LINE
  5
380C
330
1E
100
AcDbEntity
  8
7
100
AcDbLine
 10
5.051133626004519
 20
3.932213972679469
 30
0.0
 11
5.05769570572893
 21
3.932213972679469
 31
0.0
  0
LINE
  5
380D
330
1E
100
AcDbEntity
  8
7
100
AcDbLine
 10
5.05769570572893
 20
3.932213972679469
 30
0.0
 11
5.061632953563575
 21
3.932213972679469
 31
0.0
  0
LINE
  5
380E
330
1E
100
AcDbEntity
  8
7
100
AcDbLine
 10
5.051133626004519
 20
3.942713300238524
 30
0.0
 11
5.05769570572893
 21
3.942713300238524
 31
0.0
  0
LINE
  5
380F
330
1E
100
AcDbEntity
  8
7
100
AcDbLine
 10
5.05769570572893
 20
3.942713300238524
 30
0.0
 11
5.061632953563575
 21
3.942713300238524
 31
0.0
  0
LINE
  5
3810
330
1E
100
AcDbEntity
  8
7
100
AcDbLine
 10
5.051133626004519
 20
3.942713300238524
 30
0.0
 11
5.051133626004519
 21
3.949275379962934
 31
0.0
  0
LINE
  5
3811
330
1E
100
AcDbEntity
  8
7
100
AcDbLine
 10
5.051133626004519
 20
3.949275379962934
 30
0.0
 11
5.051133626004519
 21
3.951900211852698
 31
0.0
  0
LINE
  5
3812
330
1E
100
AcDbEntity
  8
7
100
AcDbLine
 10
5.060320537618693
 20
3.942713300238524
 30
0.0
 11
5.05769570572893
 21
3.949275379962934
 31
0.0
  0
LINE
  5
3813
330
1E
100
AcDbEntity
  8
7
100
AcDbLine
 10
5.05769570572893
 20
3.949275379962934
 30
0.0
 11
5.051133626004519
 21
3.951900211852698
 31
0.0
  0
LINE
  5
3814
330
1E
100
AcDbEntity
  8
7
100
AcDbLine
 10
5.052446041949401
 20
3.856093847876319
 30
0.0
 11
5.05769570572893
 21
3.858718679766083
 31
0.0
  0
LINE
  5
3815
330
1E
100
AcDbEntity
  8
7
100
AcDbLine
 10
5.05769570572893
 20
3.858718679766083
 30
0.0
 11
5.060320537618693
 21
3.865280759490492
 31
0.0
  0
LINE
  5
3816
330
1E
100
AcDbEntity
  8
7
100
AcDbLine
 10
5.052446041949401
 20
3.854781431931438
 30
0.0
 11
5.052446041949401
 21
3.857406263821202
 31
0.0
  0
LINE
  5
3817
330
1E
100
AcDbEntity
  8
7
100
AcDbLine
 10
5.052446041949401
 20
3.857406263821202
 30
0.0
 11
5.051133626004519
 21
3.865280759490492
 31
0.0
  0
LINE
  5
3818
330
1E
100
AcDbEntity
  8
7
100
AcDbLine
 10
5.051133626004519
 20
3.865280759490492
 30
0.0
 11
5.05769570572893
 21
3.865280759490492
 31
0.0
  0
LINE
  5
3819
330
1E
100
AcDbEntity
  8
7
100
AcDbLine
 10
5.05769570572893
 20
3.865280759490492
 30
0.0
 11
5.061632953563575
 21
3.865280759490492
 31
0.0
  0
LINE
  5
381A
330
1E
100
AcDbEntity
  8
7
100
AcDbLine
 10
5.060320537618693
 20
3.912527733506241
 30
0.0
 11
5.05769570572893
 21
3.919089813230651
 31
0.0
  0
LINE
  5
381B
330
1E
100
AcDbEntity
  8
7
100
AcDbLine
 10
5.05769570572893
 20
3.919089813230651
 30
0.0
 11
5.051133626004519
 21
3.921714645120414
 31
0.0
  0
LINE
  5
381C
330
1E
100
AcDbEntity
  8
7
100
AcDbLine
 10
5.051133626004519
 20
3.912527733506241
 30
0.0
 11
5.05769570572893
 21
3.912527733506241
 31
0.0
  0
LINE
  5
381D
330
1E
100
AcDbEntity
  8
7
100
AcDbLine
 10
5.05769570572893
 20
3.912527733506241
 30
0.0
 11
5.061632953563575
 21
3.912527733506241
 31
0.0
  0
LINE
  5
381E
330
1E
100
AcDbEntity
  8
7
100
AcDbLine
 10
5.051133626004519
 20
3.912527733506241
 30
0.0
 11
5.051133626004519
 21
3.919089813230651
 31
0.0
  0
LINE
  5
381F
330
1E
100
AcDbEntity
  8
7
100
AcDbLine
 10
5.051133626004519
 20
3.919089813230651
 30
0.0
 11
5.051133626004519
 21
3.921714645120414
 31
0.0
  0
LINE
  5
3820
330
1E
100
AcDbEntity
  8
7
100
AcDbLine
 10
4.936953438799796
 20
5.256441661065296
 30
0.0
 11
4.947452766358851
 21
5.256441661065296
 31
0.0
  0
LINE
  5
3821
330
1E
100
AcDbEntity
  8
7
100
AcDbLine
 10
4.947452766358851
 20
5.256441661065296
 30
0.0
 11
4.950077598248614
 21
5.256441661065296
 31
0.0
  0
LINE
  5
3822
330
1E
100
AcDbEntity
  8
7
100
AcDbLine
 10
4.950077598248614
 20
5.214444350829075
 30
0.0
 11
4.947452766358851
 21
5.214444350829075
 31
0.0
  0
LINE
  5
3823
330
1E
100
AcDbEntity
  8
7
100
AcDbLine
 10
4.947452766358851
 20
5.214444350829075
 30
0.0
 11
4.936953438799796
 21
5.214444350829075
 31
0.0
  0
LINE
  5
3824
330
1E
100
AcDbEntity
  8
7
100
AcDbLine
 10
4.936953438799796
 20
4.106765293348761
 30
0.0
 11
4.947452766358851
 21
4.105452877403878
 31
0.0
  0
LINE
  5
3825
330
1E
100
AcDbEntity
  8
7
100
AcDbLine
 10
4.947452766358851
 20
4.105452877403878
 30
0.0
 11
4.950077598248614
 21
4.105452877403878
 31
0.0
  0
LINE
  5
3826
330
1E
100
AcDbEntity
  8
7
100
AcDbLine
 10
4.950077598248614
 20
4.064767983112541
 30
0.0
 11
4.947452766358851
 21
4.064767983112541
 31
0.0
  0
LINE
  5
3827
330
1E
100
AcDbEntity
  8
7
100
AcDbLine
 10
4.947452766358851
 20
4.064767983112541
 30
0.0
 11
4.936953438799796
 21
4.064767983112541
 31
0.0
  0
LINE
  5
3828
330
1E
100
AcDbEntity
  8
7
100
AcDbLine
 10
4.936953438799796
 20
6.406118028781831
 30
0.0
 11
4.947452766358851
 21
6.406118028781831
 31
0.0
  0
LINE
  5
3829
330
1E
100
AcDbEntity
  8
7
100
AcDbLine
 10
4.947452766358851
 20
6.406118028781831
 30
0.0
 11
4.950077598248614
 21
6.406118028781831
 31
0.0
  0
LINE
  5
382A
330
1E
100
AcDbEntity
  8
7
100
AcDbLine
 10
4.950077598248614
 20
6.365433134490492
 30
0.0
 11
4.947452766358851
 21
6.365433134490492
 31
0.0
  0
LINE
  5
382B
330
1E
100
AcDbEntity
  8
7
100
AcDbLine
 10
4.947452766358851
 20
6.365433134490492
 30
0.0
 11
4.936953438799796
 21
6.364120718545611
 31
0.0
  0
LINE
  5
382C
330
1E
100
AcDbEntity
  8
7
100
AcDbLine
 10
5.349052045492709
 20
5.378496343939312
 30
0.0
 11
5.359551373051764
 21
5.38374600771884
 31
0.0
  0
LINE
  5
382D
330
1E
100
AcDbEntity
  8
7
100
AcDbLine
 10
5.359551373051764
 20
5.38374600771884
 30
0.0
 11
5.363488620886409
 21
5.394245335277894
 31
0.0
  0
LINE
  5
382E
330
1E
100
AcDbEntity
  8
7
100
AcDbLine
 10
5.349052045492709
 20
4.228819976222776
 30
0.0
 11
5.359551373051764
 21
4.234069640002304
 31
0.0
  0
LINE
  5
382F
330
1E
100
AcDbEntity
  8
7
100
AcDbLine
 10
5.359551373051764
 20
4.234069640002304
 30
0.0
 11
5.363488620886409
 21
4.243256551616477
 31
0.0
  0
LINE
  5
3830
330
1E
100
AcDbEntity
  8
7
100
AcDbLine
 10
5.27424433663444
 20
4.281316614018051
 30
0.0
 11
5.246683601791922
 21
4.287878693742461
 31
0.0
  0
LINE
  5
3831
330
1E
100
AcDbEntity
  8
7
100
AcDbLine
 10
5.246683601791922
 20
4.287878693742461
 30
0.0
 11
5.225684946673811
 21
4.306252516970808
 31
0.0
  0
LINE
  5
3832
330
1E
100
AcDbEntity
  8
7
100
AcDbLine
 10
5.200749043721055
 20
4.3430001634275
 30
0.0
 11
5.181062804547826
 21
4.363998818545611
 31
0.0
  0
LINE
  5
3833
330
1E
100
AcDbEntity
  8
7
100
AcDbLine
 10
5.181062804547826
 20
4.363998818545611
 30
0.0
 11
5.154814485650189
 21
4.378435393939312
 31
0.0
  0
LINE
  5
3834
330
1E
100
AcDbEntity
  8
7
100
AcDbLine
 10
5.154814485650189
 20
4.378435393939312
 30
0.0
 11
5.127253750807669
 21
4.384997473663721
 31
0.0
  0
LINE
  5
3835
330
1E
100
AcDbEntity
  8
7
100
AcDbLine
 10
5.131190998642315
 20
4.315439428584982
 30
0.0
 11
5.129878582697434
 21
4.335125667758209
 31
0.0
  0
LINE
  5
3836
330
1E
100
AcDbEntity
  8
7
100
AcDbLine
 10
5.129878582697434
 20
4.335125667758209
 30
0.0
 11
5.12069167108326
 21
4.352187075041674
 31
0.0
  0
LINE
  5
3837
330
1E
100
AcDbEntity
  8
7
100
AcDbLine
 10
5.12069167108326
 20
4.352187075041674
 30
0.0
 11
5.118066839193495
 21
4.357436738821202
 31
0.0
  0
LINE
  5
3838
330
1E
100
AcDbEntity
  8
7
100
AcDbLine
 10
5.363488620886409
 20
5.415243990396005
 30
0.0
 11
5.358238957106881
 21
5.42574331795506
 31
0.0
  0
LINE
  5
3839
330
1E
100
AcDbEntity
  8
7
100
AcDbLine
 10
5.358238957106881
 20
5.42574331795506
 30
0.0
 11
5.349052045492709
 21
5.429680565789706
 31
0.0
  0
LINE
  5
383A
330
1E
100
AcDbEntity
  8
7
100
AcDbLine
 10
5.27424433663444
 20
5.430992981734587
 30
0.0
 11
5.246683601791922
 21
5.437555061458997
 31
0.0
  0
LINE
  5
383B
330
1E
100
AcDbEntity
  8
7
100
AcDbLine
 10
5.246683601791922
 20
5.437555061458997
 30
0.0
 11
5.225684946673811
 21
5.455928884687343
 31
0.0
  0
LINE
  5
383C
330
1E
100
AcDbEntity
  8
7
100
AcDbLine
 10
5.200749043721055
 20
5.493988947088918
 30
0.0
 11
5.181062804547826
 21
5.514987602207028
 31
0.0
  0
LINE
  5
383D
330
1E
100
AcDbEntity
  8
7
100
AcDbLine
 10
5.181062804547826
 20
5.514987602207028
 30
0.0
 11
5.154814485650189
 21
5.529424177600729
 31
0.0
  0
LINE
  5
383E
330
1E
100
AcDbEntity
  8
7
100
AcDbLine
 10
5.131190998642315
 20
5.466428212246399
 30
0.0
 11
5.129878582697434
 21
5.484802035474745
 31
0.0
  0
LINE
  5
383F
330
1E
100
AcDbEntity
  8
7
100
AcDbLine
 10
5.129878582697434
 20
5.484802035474745
 30
0.0
 11
5.12069167108326
 21
5.501863442758208
 31
0.0
  0
LINE
  5
3840
330
1E
100
AcDbEntity
  8
7
100
AcDbLine
 10
5.12069167108326
 20
5.501863442758208
 30
0.0
 11
5.118066839193495
 21
5.507113106537737
 31
0.0
  0
LINE
  5
3841
330
1E
100
AcDbEntity
  8
7
100
AcDbLine
 10
5.061632953563575
 20
3.942713300238524
 30
0.0
 11
5.061632953563575
 21
3.932213972679469
 31
0.0
  0
LINE
  5
3842
330
1E
100
AcDbEntity
  8
7
100
AcDbLine
 10
5.061632953563575
 20
3.932213972679469
 30
0.0
 11
5.061632953563575
 21
3.917777397285768
 31
0.0
  0
LINE
  5
3843
330
1E
100
AcDbEntity
  8
7
100
AcDbLine
 10
5.061632953563575
 20
3.917777397285768
 30
0.0
 11
5.061632953563575
 21
3.912527733506241
 31
0.0
  0
LINE
  5
3844
330
1E
100
AcDbEntity
  8
7
100
AcDbLine
 10
5.061632953563575
 20
3.912527733506241
 30
0.0
 11
5.061632953563575
 21
3.865280759490492
 31
0.0
  0
LINE
  5
3845
330
1E
100
AcDbEntity
  8
7
100
AcDbLine
 10
5.051133626004519
 20
3.824595865199154
 30
0.0
 11
5.052446041949401
 21
3.819346201419626
 31
0.0
  0
LINE
  5
3846
330
1E
100
AcDbEntity
  8
7
100
AcDbLine
 10
5.052446041949401
 20
3.819346201419626
 30
0.0
 11
5.052446041949401
 21
3.816721369529863
 31
0.0
  0
LINE
  5
3847
330
1E
100
AcDbEntity
  8
7
100
AcDbLine
 10
5.053758457894284
 20
3.825908281144037
 30
0.0
 11
5.059008121673811
 21
3.825908281144037
 31
0.0
  0
LINE
  5
3848
330
1E
100
AcDbEntity
  8
7
100
AcDbLine
 10
5.059008121673811
 20
3.825908281144037
 30
0.0
 11
5.061632953563575
 21
3.825908281144037
 31
0.0
  0
LINE
  5
3849
330
1E
100
AcDbEntity
  8
7
100
AcDbLine
 10
5.061632953563575
 20
3.839032440592855
 30
0.0
 11
5.061632953563575
 21
3.825908281144037
 31
0.0
  0
LINE
  5
384A
330
1E
100
AcDbEntity
  8
7
100
AcDbLine
 10
5.061632953563575
 20
3.825908281144037
 30
0.0
 11
5.052446041949401
 21
3.816721369529863
 31
0.0
  0
LINE
  5
384B
330
1E
100
AcDbEntity
  8
7
100
AcDbLine
 10
5.061632953563575
 20
6.497987144923564
 30
0.0
 11
5.05769570572893
 21
6.497987144923564
 31
0.0
  0
LINE
  5
384C
330
1E
100
AcDbEntity
  8
7
100
AcDbLine
 10
5.05769570572893
 20
6.497987144923564
 30
0.0
 11
5.051133626004519
 21
6.497987144923564
 31
0.0
  0
LINE
  5
384D
330
1E
100
AcDbEntity
  8
7
100
AcDbLine
 10
5.051133626004519
 20
6.497987144923564
 30
0.0
 11
5.051133626004519
 21
6.505861640592855
 31
0.0
  0
LINE
  5
384E
330
1E
100
AcDbEntity
  8
7
100
AcDbLine
 10
5.051133626004519
 20
6.505861640592855
 30
0.0
 11
5.051133626004519
 21
6.508486472482619
 31
0.0
  0
LINE
  5
384F
330
1E
100
AcDbEntity
  8
7
100
AcDbLine
 10
5.051133626004519
 20
6.508486472482619
 30
0.0
 11
5.05769570572893
 21
6.511111304372382
 31
0.0
  0
LINE
  5
3850
330
1E
100
AcDbEntity
  8
7
100
AcDbLine
 10
5.05769570572893
 20
6.511111304372382
 30
0.0
 11
5.060320537618693
 21
6.517673384096791
 31
0.0
  0
LINE
  5
3851
330
1E
100
AcDbEntity
  8
7
100
AcDbLine
 10
5.051133626004519
 20
6.508486472482619
 30
0.0
 11
5.051133626004519
 21
6.511111304372382
 31
0.0
  0
LINE
  5
3852
330
1E
100
AcDbEntity
  8
7
100
AcDbLine
 10
5.051133626004519
 20
6.511111304372382
 30
0.0
 11
5.051133626004519
 21
6.517673384096791
 31
0.0
  0
LINE
  5
3853
330
1E
100
AcDbEntity
  8
7
100
AcDbLine
 10
5.061632953563575
 20
6.517673384096791
 30
0.0
 11
5.05769570572893
 21
6.517673384096791
 31
0.0
  0
LINE
  5
3854
330
1E
100
AcDbEntity
  8
7
100
AcDbLine
 10
5.05769570572893
 20
6.517673384096791
 30
0.0
 11
5.051133626004519
 21
6.517673384096791
 31
0.0
  0
LINE
  5
3855
330
1E
100
AcDbEntity
  8
7
100
AcDbLine
 10
5.061632953563575
 20
6.566232774057422
 30
0.0
 11
5.05769570572893
 21
6.566232774057422
 31
0.0
  0
LINE
  5
3856
330
1E
100
AcDbEntity
  8
7
100
AcDbLine
 10
5.05769570572893
 20
6.566232774057422
 30
0.0
 11
5.051133626004519
 21
6.566232774057422
 31
0.0
  0
LINE
  5
3857
330
1E
100
AcDbEntity
  8
7
100
AcDbLine
 10
5.051133626004519
 20
6.566232774057422
 30
0.0
 11
5.052446041949401
 21
6.572794853781831
 31
0.0
  0
LINE
  5
3858
330
1E
100
AcDbEntity
  8
7
100
AcDbLine
 10
5.052446041949401
 20
6.572794853781831
 30
0.0
 11
5.052446041949401
 21
6.575419685671596
 31
0.0
  0
LINE
  5
3859
330
1E
100
AcDbEntity
  8
7
100
AcDbLine
 10
5.060320537618693
 20
6.566232774057422
 30
0.0
 11
5.05769570572893
 21
6.572794853781831
 31
0.0
  0
LINE
  5
385A
330
1E
100
AcDbEntity
  8
7
100
AcDbLine
 10
5.05769570572893
 20
6.572794853781831
 30
0.0
 11
5.052446041949401
 21
6.575419685671596
 31
0.0
  0
LINE
  5
385B
330
1E
100
AcDbEntity
  8
7
100
AcDbLine
 10
5.051133626004519
 20
6.479613321695217
 30
0.0
 11
5.05769570572893
 21
6.482238153584981
 31
0.0
  0
LINE
  5
385C
330
1E
100
AcDbEntity
  8
7
100
AcDbLine
 10
5.05769570572893
 20
6.482238153584981
 30
0.0
 11
5.060320537618693
 21
6.48880023330939
 31
0.0
  0
LINE
  5
385D
330
1E
100
AcDbEntity
  8
7
100
AcDbLine
 10
5.051133626004519
 20
6.478300905750336
 30
0.0
 11
5.051133626004519
 21
6.480925737640099
 31
0.0
  0
LINE
  5
385E
330
1E
100
AcDbEntity
  8
7
100
AcDbLine
 10
5.051133626004519
 20
6.480925737640099
 30
0.0
 11
5.051133626004519
 21
6.48880023330939
 31
0.0
  0
LINE
  5
385F
330
1E
100
AcDbEntity
  8
7
100
AcDbLine
 10
5.061632953563575
 20
6.566232774057422
 30
0.0
 11
5.061632953563575
 21
6.517673384096791
 31
0.0
  0
LINE
  5
3860
330
1E
100
AcDbEntity
  8
7
100
AcDbLine
 10
5.061632953563575
 20
6.517673384096791
 30
0.0
 11
5.061632953563575
 21
6.512423720317264
 31
0.0
  0
LINE
  5
3861
330
1E
100
AcDbEntity
  8
7
100
AcDbLine
 10
5.061632953563575
 20
6.512423720317264
 30
0.0
 11
5.061632953563575
 21
6.497987144923564
 31
0.0
  0
LINE
  5
3862
330
1E
100
AcDbEntity
  8
7
100
AcDbLine
 10
5.061632953563575
 20
6.497987144923564
 30
0.0
 11
5.061632953563575
 21
6.48880023330939
 31
0.0
  0
LINE
  5
3863
330
1E
100
AcDbEntity
  8
7
100
AcDbLine
 10
5.061632953563575
 20
6.48880023330939
 30
0.0
 11
5.05769570572893
 21
6.48880023330939
 31
0.0
  0
LINE
  5
3864
330
1E
100
AcDbEntity
  8
7
100
AcDbLine
 10
5.05769570572893
 20
6.48880023330939
 30
0.0
 11
5.051133626004519
 21
6.48880023330939
 31
0.0
  0
LINE
  5
3865
330
1E
100
AcDbEntity
  8
7
100
AcDbLine
 10
5.061632953563575
 20
6.604292836458997
 30
0.0
 11
5.059008121673811
 21
6.604292836458997
 31
0.0
  0
LINE
  5
3866
330
1E
100
AcDbEntity
  8
7
100
AcDbLine
 10
5.059008121673811
 20
6.604292836458997
 30
0.0
 11
5.053758457894284
 21
6.604292836458997
 31
0.0
  0
LINE
  5
3867
330
1E
100
AcDbEntity
  8
7
100
AcDbLine
 10
5.052446041949401
 20
6.61347974807317
 30
0.0
 11
5.052446041949401
 21
6.612167332128288
 31
0.0
  0
LINE
  5
3868
330
1E
100
AcDbEntity
  8
7
100
AcDbLine
 10
5.052446041949401
 20
6.612167332128288
 30
0.0
 11
5.051133626004519
 21
6.605605252403878
 31
0.0
  0
LINE
  5
3869
330
1E
100
AcDbEntity
  8
7
100
AcDbLine
 10
4.936953438799796
 20
7.467862528191281
 30
0.0
 11
4.936953438799796
 21
7.463925280356635
 31
0.0
  0
LINE
  5
386A
330
1E
100
AcDbEntity
  8
7
100
AcDbLine
 10
4.936953438799796
 20
7.463925280356635
 30
0.0
 11
4.936953438799796
 21
7.453425952797579
 31
0.0
  0
LINE
  5
386B
330
1E
100
AcDbEntity
  8
7
100
AcDbLine
 10
4.936953438799796
 20
7.453425952797579
 30
0.0
 11
4.936953438799796
 21
7.438989377403878
 31
0.0
  0
LINE
  5
386C
330
1E
100
AcDbEntity
  8
7
100
AcDbLine
 10
4.936953438799796
 20
2.992524156144036
 30
0.0
 11
4.936953438799796
 21
2.976775164805453
 31
0.0
  0
LINE
  5
386D
330
1E
100
AcDbEntity
  8
7
100
AcDbLine
 10
4.936953438799796
 20
2.976775164805453
 30
0.0
 11
4.936953438799796
 21
2.966275837246398
 31
0.0
  0
LINE
  5
386E
330
1E
100
AcDbEntity
  8
7
100
AcDbLine
 10
4.936953438799796
 20
2.966275837246398
 30
0.0
 11
4.936953438799796
 21
2.962338589411753
 31
0.0
  0
LINE
  5
386F
330
1E
100
AcDbEntity
  8
7
100
AcDbLine
 10
4.767651781910031
 20
7.435052129569234
 30
0.0
 11
4.767651781910031
 21
7.450801120907816
 31
0.0
  0
LINE
  5
3870
330
1E
100
AcDbEntity
  8
7
100
AcDbLine
 10
4.767651781910031
 20
7.450801120907816
 30
0.0
 11
4.767651781910031
 21
7.461300448466872
 31
0.0
  0
LINE
  5
3871
330
1E
100
AcDbEntity
  8
7
100
AcDbLine
 10
4.767651781910031
 20
7.461300448466872
 30
0.0
 11
4.767651781910031
 21
7.465237696301516
 31
0.0
  0
LINE
  5
3872
330
1E
100
AcDbEntity
  8
7
100
AcDbLine
 10
4.767651781910031
 20
7.465237696301516
 30
0.0
 11
4.936953438799796
 21
7.467862528191281
 31
0.0
  0
LINE
  5
3873
330
1E
100
AcDbEntity
  8
7
100
AcDbLine
 10
4.767651781910031
 20
2.964963421301517
 30
0.0
 11
4.767651781910031
 21
2.968900669136162
 31
0.0
  0
LINE
  5
3874
330
1E
100
AcDbEntity
  8
7
100
AcDbLine
 10
4.767651781910031
 20
2.968900669136162
 30
0.0
 11
4.767651781910031
 21
2.980712412640099
 31
0.0
  0
LINE
  5
3875
330
1E
100
AcDbEntity
  8
7
100
AcDbLine
 10
4.767651781910031
 20
2.980712412640099
 30
0.0
 11
4.767651781910031
 21
2.9951489880338
 31
0.0
  0
LINE
  5
3876
330
1E
100
AcDbEntity
  8
7
100
AcDbLine
 10
4.736153799232866
 20
7.435052129569234
 30
0.0
 11
4.738778631122629
 21
7.445551457128289
 31
0.0
  0
LINE
  5
3877
330
1E
100
AcDbEntity
  8
7
100
AcDbLine
 10
4.738778631122629
 20
7.445551457128289
 30
0.0
 11
4.738778631122629
 21
7.453425952797579
 31
0.0
  0
LINE
  5
3878
330
1E
100
AcDbEntity
  8
7
100
AcDbLine
 10
4.738778631122629
 20
7.453425952797579
 30
0.0
 11
4.738778631122629
 21
7.459988032521988
 31
0.0
  0
LINE
  5
3879
330
1E
100
AcDbEntity
  8
7
100
AcDbLine
 10
4.738778631122629
 20
7.459988032521988
 30
0.0
 11
4.737466215177748
 21
7.463925280356635
 31
0.0
  0
LINE
  5
387A
330
1E
100
AcDbEntity
  8
7
100
AcDbLine
 10
4.737466215177748
 20
7.463925280356635
 30
0.0
 11
4.736153799232866
 21
7.465237696301516
 31
0.0
  0
LINE
  5
387B
330
1E
100
AcDbEntity
  8
7
100
AcDbLine
 10
4.629848107697434
 20
7.28018704807317
 30
0.0
 11
4.62066119608326
 21
7.315622278584982
 31
0.0
  0
LINE
  5
387C
330
1E
100
AcDbEntity
  8
7
100
AcDbLine
 10
4.62066119608326
 20
7.315622278584982
 30
0.0
 11
4.629848107697434
 21
7.344495429372383
 31
0.0
  0
LINE
  5
387D
330
1E
100
AcDbEntity
  8
7
100
AcDbLine
 10
4.936953438799796
 20
6.591168677010179
 30
0.0
 11
5.011761147658063
 21
6.591168677010179
 31
0.0
  0
LINE
  5
387E
330
1E
100
AcDbEntity
  8
7
100
AcDbLine
 10
5.011761147658063
 20
6.591168677010179
 30
0.0
 11
5.036697050610819
 21
6.591168677010179
 31
0.0
  0
LINE
  5
387F
330
1E
100
AcDbEntity
  8
7
100
AcDbLine
 10
5.036697050610819
 20
6.591168677010179
 30
0.0
 11
5.055070873839165
 21
6.591168677010179
 31
0.0
  0
LINE
  5
3880
330
1E
100
AcDbEntity
  8
7
100
AcDbLine
 10
5.055070873839165
 20
6.591168677010179
 30
0.0
 11
5.061632953563575
 21
6.591168677010179
 31
0.0
  0
LINE
  5
3881
330
1E
100
AcDbEntity
  8
7
100
AcDbLine
 10
5.061632953563575
 20
6.591168677010179
 30
0.0
 11
5.061632953563575
 21
6.566232774057422
 31
0.0
  0
LINE
  5
3882
330
1E
100
AcDbEntity
  8
7
100
AcDbLine
 10
4.73221655139822
 20
7.465237696301516
 30
0.0
 11
4.736153799232866
 21
7.465237696301516
 31
0.0
  0
LINE
  5
3883
330
1E
100
AcDbEntity
  8
7
100
AcDbLine
 10
4.736153799232866
 20
7.465237696301516
 30
0.0
 11
4.767651781910031
 21
7.465237696301516
 31
0.0
  0
LINE
  5
3884
330
1E
100
AcDbEntity
  8
7
100
AcDbLine
 10
4.631160523642315
 20
7.344495429372383
 30
0.0
 11
4.61409911635885
 21
7.314309862640099
 31
0.0
  0
LINE
  5
3885
330
1E
100
AcDbEntity
  8
7
100
AcDbLine
 10
4.61409911635885
 20
7.314309862640099
 30
0.0
 11
4.607537036634441
 21
7.28018704807317
 31
0.0
  0
LINE
  5
3886
330
1E
100
AcDbEntity
  8
7
100
AcDbLine
 10
5.061632953563575
 20
3.839032440592855
 30
0.0
 11
5.055070873839165
 21
3.839032440592855
 31
0.0
  0
LINE
  5
3887
330
1E
100
AcDbEntity
  8
7
100
AcDbLine
 10
5.055070873839165
 20
3.839032440592855
 30
0.0
 11
5.036697050610819
 21
3.839032440592855
 31
0.0
  0
LINE
  5
3888
330
1E
100
AcDbEntity
  8
7
100
AcDbLine
 10
5.036697050610819
 20
3.839032440592855
 30
0.0
 11
5.011761147658063
 21
3.839032440592855
 31
0.0
  0
LINE
  5
3889
330
1E
100
AcDbEntity
  8
7
100
AcDbLine
 10
4.936953438799796
 20
3.839032440592855
 30
0.0
 11
5.011761147658063
 21
3.839032440592855
 31
0.0
  0
LINE
  5
388A
330
1E
100
AcDbEntity
  8
7
100
AcDbLine
 10
5.011761147658063
 20
3.839032440592855
 30
0.0
 11
5.011761147658063
 21
3.850844184096791
 31
0.0
  0
LINE
  5
388B
330
1E
100
AcDbEntity
  8
7
100
AcDbLine
 10
4.767651781910031
 20
7.465237696301516
 30
0.0
 11
4.767651781910031
 21
7.456050784687343
 31
0.0
  0
LINE
  5
388C
330
1E
100
AcDbEntity
  8
7
100
AcDbLine
 10
4.767651781910031
 20
7.456050784687343
 30
0.0
 11
4.767651781910031
 21
7.435052129569234
 31
0.0
  0
LINE
  5
388D
330
1E
100
AcDbEntity
  8
7
100
AcDbLine
 10
4.767651781910031
 20
2.9951489880338
 30
0.0
 11
4.767651781910031
 21
2.974150332915689
 31
0.0
  0
LINE
  5
388E
330
1E
100
AcDbEntity
  8
7
100
AcDbLine
 10
4.767651781910031
 20
2.974150332915689
 30
0.0
 11
4.767651781910031
 21
2.964963421301517
 31
0.0
  0
LINE
  5
388F
330
1E
100
AcDbEntity
  8
7
100
AcDbLine
 10
4.607537036634441
 20
7.28018704807317
 30
0.0
 11
4.612786700413968
 21
7.28018704807317
 31
0.0
  0
LINE
  5
3890
330
1E
100
AcDbEntity
  8
7
100
AcDbLine
 10
4.612786700413968
 20
7.28018704807317
 30
0.0
 11
4.629848107697434
 21
7.28018704807317
 31
0.0
  0
LINE
  5
3891
330
1E
100
AcDbEntity
  8
7
100
AcDbLine
 10
4.736153799232866
 20
2.9951489880338
 30
0.0
 11
4.767651781910031
 21
2.9951489880338
 31
0.0
  0
LINE
  5
3892
330
1E
100
AcDbEntity
  8
7
100
AcDbLine
 10
4.767651781910031
 20
2.9951489880338
 30
0.0
 11
4.767651781910031
 21
7.435052129569234
 31
0.0
  0
LINE
  5
3893
330
1E
100
AcDbEntity
  8
7
100
AcDbLine
 10
4.767651781910031
 20
7.435052129569234
 30
0.0
 11
4.736153799232866
 21
7.435052129569234
 31
0.0
  0
LINE
  5
3894
330
1E
100
AcDbEntity
  8
7
100
AcDbLine
 10
4.736153799232866
 20
7.435052129569234
 30
0.0
 11
4.73221655139822
 21
7.400929315002304
 31
0.0
  0
LINE
  5
3895
330
1E
100
AcDbEntity
  8
7
100
AcDbLine
 10
4.738778631122629
 20
2.971525501025926
 30
0.0
 11
4.738778631122629
 21
2.978087580750335
 31
0.0
  0
LINE
  5
3896
330
1E
100
AcDbEntity
  8
7
100
AcDbLine
 10
4.738778631122629
 20
2.978087580750335
 30
0.0
 11
4.737466215177748
 21
2.987274492364509
 31
0.0
  0
LINE
  5
3897
330
1E
100
AcDbEntity
  8
7
100
AcDbLine
 10
4.737466215177748
 20
2.987274492364509
 30
0.0
 11
4.736153799232866
 21
2.9951489880338
 31
0.0
  0
LINE
  5
3898
330
1E
100
AcDbEntity
  8
7
100
AcDbLine
 10
4.736153799232866
 20
2.9951489880338
 30
0.0
 11
4.73221655139822
 21
3.029271802600729
 31
0.0
  0
LINE
  5
3899
330
1E
100
AcDbEntity
  8
7
100
AcDbLine
 10
4.73221655139822
 20
2.964963421301517
 30
0.0
 11
4.736153799232866
 21
2.964963421301517
 31
0.0
  0
LINE
  5
389A
330
1E
100
AcDbEntity
  8
7
100
AcDbLine
 10
4.736153799232866
 20
2.964963421301517
 30
0.0
 11
4.738778631122629
 21
2.966275837246398
 31
0.0
  0
LINE
  5
389B
330
1E
100
AcDbEntity
  8
7
100
AcDbLine
 10
4.738778631122629
 20
2.966275837246398
 30
0.0
 11
4.738778631122629
 21
2.971525501025926
 31
0.0
  0
LINE
  5
389C
330
1E
100
AcDbEntity
  8
7
100
AcDbLine
 10
4.629848107697434
 20
3.150014069529863
 30
0.0
 11
4.62066119608326
 21
3.114578839018052
 31
0.0
  0
LINE
  5
389D
330
1E
100
AcDbEntity
  8
7
100
AcDbLine
 10
4.62066119608326
 20
3.114578839018052
 30
0.0
 11
4.629848107697434
 21
3.08570568823065
 31
0.0
  0
LINE
  5
389E
330
1E
100
AcDbEntity
  8
7
100
AcDbLine
 10
4.607537036634441
 20
3.150014069529863
 30
0.0
 11
4.61409911635885
 21
3.115891254962934
 31
0.0
  0
LINE
  5
389F
330
1E
100
AcDbEntity
  8
7
100
AcDbLine
 10
4.61409911635885
 20
3.115891254962934
 30
0.0
 11
4.631160523642315
 21
3.08570568823065
 31
0.0
  0
LINE
  5
38A0
330
1E
100
AcDbEntity
  8
7
100
AcDbLine
 10
4.607537036634441
 20
3.150014069529863
 30
0.0
 11
4.612786700413968
 21
3.150014069529863
 31
0.0
  0
LINE
  5
38A1
330
1E
100
AcDbEntity
  8
7
100
AcDbLine
 10
4.612786700413968
 20
3.150014069529863
 30
0.0
 11
4.629848107697434
 21
3.150014069529863
 31
0.0
  0
LINE
  5
38A2
330
1E
100
AcDbEntity
  8
7
100
AcDbLine
 10
4.73221655139822
 20
7.400929315002304
 30
0.0
 11
4.629848107697434
 21
7.28018704807317
 31
0.0
  0
LINE
  5
38A3
330
1E
100
AcDbEntity
  8
7
100
AcDbLine
 10
4.629848107697434
 20
7.28018704807317
 30
0.0
 11
4.629848107697434
 21
3.150014069529863
 31
0.0
  0
LINE
  5
38A4
330
1E
100
AcDbEntity
  8
7
100
AcDbLine
 10
1.739908197067513
 20
3.842969688427501
 30
0.0
 11
1.739908197067513
 21
3.827220697088918
 31
0.0
  0
LINE
  5
38A5
330
1E
100
AcDbEntity
  8
7
100
AcDbLine
 10
1.739908197067513
 20
3.827220697088918
 30
0.0
 11
1.738595781122631
 21
3.819346201419626
 31
0.0
  0
LINE
  5
38A6
330
1E
100
AcDbEntity
  8
7
100
AcDbLine
 10
1.579793451791922
 20
3.819346201419626
 30
0.0
 11
1.579793451791922
 21
3.827220697088918
 31
0.0
  0
LINE
  5
38A7
330
1E
100
AcDbEntity
  8
7
100
AcDbLine
 10
1.579793451791922
 20
3.827220697088918
 30
0.0
 11
1.579793451791922
 21
3.842969688427501
 31
0.0
  0
LINE
  5
38A8
330
1E
100
AcDbEntity
  8
7
100
AcDbLine
 10
1.14800860592578
 20
3.879717334884194
 30
0.0
 11
1.14800860592578
 21
3.881029750829075
 31
0.0
  0
LINE
  5
38A9
330
1E
100
AcDbEntity
  8
7
100
AcDbLine
 10
1.14800860592578
 20
3.881029750829075
 30
0.0
 11
1.14800860592578
 21
3.887591830553486
 31
0.0
  0
LINE
  5
38AA
330
1E
100
AcDbEntity
  8
7
100
AcDbLine
 10
1.155883101595072
 20
3.87053042327002
 30
0.0
 11
1.158507933484835
 21
3.87053042327002
 31
0.0
  0
LINE
  5
38AB
330
1E
100
AcDbEntity
  8
7
100
AcDbLine
 10
1.158507933484835
 20
3.87053042327002
 30
0.0
 11
1.163757597264362
 21
3.87053042327002
 31
0.0
  0
LINE
  5
38AC
330
1E
100
AcDbEntity
  8
7
100
AcDbLine
 10
1.155883101595072
 20
3.841657272482619
 30
0.0
 11
1.158507933484835
 21
3.841657272482619
 31
0.0
  0
LINE
  5
38AD
330
1E
100
AcDbEntity
  8
7
100
AcDbLine
 10
1.158507933484835
 20
3.841657272482619
 30
0.0
 11
1.163757597264362
 21
3.841657272482619
 31
0.0
  0
LINE
  5
38AE
330
1E
100
AcDbEntity
  8
7
100
AcDbLine
 10
1.14800860592578
 20
3.832470360868446
 30
0.0
 11
1.14800860592578
 21
3.831157944923564
 31
0.0
  0
LINE
  5
38AF
330
1E
100
AcDbEntity
  8
7
100
AcDbLine
 10
1.14800860592578
 20
3.831157944923564
 30
0.0
 11
1.14800860592578
 21
3.824595865199154
 31
0.0
  0
LINE
  5
38B0
330
1E
100
AcDbEntity
  8
7
100
AcDbLine
 10
0.9012744082879855
 20
3.832470360868446
 30
0.0
 11
0.9012744082879855
 21
3.831157944923564
 31
0.0
  0
LINE
  5
38B1
330
1E
100
AcDbEntity
  8
7
100
AcDbLine
 10
0.9012744082879855
 20
3.831157944923564
 30
0.0
 11
0.9012744082879855
 21
3.824595865199154
 31
0.0
  0
LINE
  5
38B2
330
1E
100
AcDbEntity
  8
7
100
AcDbLine
 10
0.893399912618694
 20
3.841657272482619
 30
0.0
 11
0.8907750807289307
 21
3.841657272482619
 31
0.0
  0
LINE
  5
38B3
330
1E
100
AcDbEntity
  8
7
100
AcDbLine
 10
0.8907750807289307
 20
3.841657272482619
 30
0.0
 11
0.8855254169494033
 21
3.841657272482619
 31
0.0
  0
LINE
  5
38B4
330
1E
100
AcDbEntity
  8
7
100
AcDbLine
 10
0.8855254169494033
 20
3.87053042327002
 30
0.0
 11
0.8907750807289307
 21
3.87053042327002
 31
0.0
  0
LINE
  5
38B5
330
1E
100
AcDbEntity
  8
7
100
AcDbLine
 10
0.8907750807289307
 20
3.87053042327002
 30
0.0
 11
0.893399912618694
 21
3.87053042327002
 31
0.0
  0
LINE
  5
38B6
330
1E
100
AcDbEntity
  8
7
100
AcDbLine
 10
0.9012744082879855
 20
3.887591830553486
 30
0.0
 11
0.9012744082879855
 21
3.881029750829075
 31
0.0
  0
LINE
  5
38B7
330
1E
100
AcDbEntity
  8
7
100
AcDbLine
 10
0.9012744082879855
 20
3.881029750829075
 30
0.0
 11
0.9012744082879855
 21
3.879717334884194
 31
0.0
  0
LINE
  5
38B8
330
1E
100
AcDbEntity
  8
7
100
AcDbLine
 10
2.418427240571449
 20
3.879717334884194
 30
0.0
 11
2.418427240571449
 21
3.881029750829075
 31
0.0
  0
LINE
  5
38B9
330
1E
100
AcDbEntity
  8
7
100
AcDbLine
 10
2.418427240571449
 20
3.881029750829075
 30
0.0
 11
2.418427240571449
 21
3.887591830553486
 31
0.0
  0
LINE
  5
38BA
330
1E
100
AcDbEntity
  8
7
100
AcDbLine
 10
2.426301736240741
 20
3.87053042327002
 30
0.0
 11
2.428926568130505
 21
3.87053042327002
 31
0.0
  0
LINE
  5
38BB
330
1E
100
AcDbEntity
  8
7
100
AcDbLine
 10
2.428926568130505
 20
3.87053042327002
 30
0.0
 11
2.434176231910032
 21
3.87053042327002
 31
0.0
  0
LINE
  5
38BC
330
1E
100
AcDbEntity
  8
7
100
AcDbLine
 10
2.434176231910032
 20
3.841657272482619
 30
0.0
 11
2.428926568130505
 21
3.841657272482619
 31
0.0
  0
LINE
  5
38BD
330
1E
100
AcDbEntity
  8
7
100
AcDbLine
 10
2.428926568130505
 20
3.841657272482619
 30
0.0
 11
2.426301736240741
 21
3.841657272482619
 31
0.0
  0
LINE
  5
38BE
330
1E
100
AcDbEntity
  8
7
100
AcDbLine
 10
2.418427240571449
 20
3.824595865199154
 30
0.0
 11
2.418427240571449
 21
3.831157944923564
 31
0.0
  0
LINE
  5
38BF
330
1E
100
AcDbEntity
  8
7
100
AcDbLine
 10
2.418427240571449
 20
3.831157944923564
 30
0.0
 11
2.418427240571449
 21
3.832470360868446
 31
0.0
  0
LINE
  5
38C0
330
1E
100
AcDbEntity
  8
7
100
AcDbLine
 10
2.171693042933654
 20
3.824595865199154
 30
0.0
 11
2.171693042933654
 21
3.831157944923564
 31
0.0
  0
LINE
  5
38C1
330
1E
100
AcDbEntity
  8
7
100
AcDbLine
 10
2.171693042933654
 20
3.831157944923564
 30
0.0
 11
2.171693042933654
 21
3.832470360868446
 31
0.0
  0
LINE
  5
38C2
330
1E
100
AcDbEntity
  8
7
100
AcDbLine
 10
2.15463163565019
 20
3.841657272482619
 30
0.0
 11
2.161193715374599
 21
3.841657272482619
 31
0.0
  0
LINE
  5
38C3
330
1E
100
AcDbEntity
  8
7
100
AcDbLine
 10
2.161193715374599
 20
3.841657272482619
 30
0.0
 11
2.163818547264363
 21
3.841657272482619
 31
0.0
  0
LINE
  5
38C4
330
1E
100
AcDbEntity
  8
7
100
AcDbLine
 10
2.171693042933654
 20
3.887591830553486
 30
0.0
 11
2.171693042933654
 21
3.881029750829075
 31
0.0
  0
LINE
  5
38C5
330
1E
100
AcDbEntity
  8
7
100
AcDbLine
 10
2.171693042933654
 20
3.881029750829075
 30
0.0
 11
2.171693042933654
 21
3.879717334884194
 31
0.0
  0
LINE
  5
38C6
330
1E
100
AcDbEntity
  8
7
100
AcDbLine
 10
2.15463163565019
 20
3.87053042327002
 30
0.0
 11
2.161193715374599
 21
3.87053042327002
 31
0.0
  0
LINE
  5
38C7
330
1E
100
AcDbEntity
  8
7
100
AcDbLine
 10
2.161193715374599
 20
3.87053042327002
 30
0.0
 11
2.163818547264363
 21
3.87053042327002
 31
0.0
  0
LINE
  5
38C8
330
1E
100
AcDbEntity
  8
7
100
AcDbLine
 10
2.173005458878536
 20
3.837720024647973
 30
0.0
 11
2.171693042933654
 21
3.832470360868446
 31
0.0
  0
LINE
  5
38C9
330
1E
100
AcDbEntity
  8
7
100
AcDbLine
 10
2.171693042933654
 20
3.832470360868446
 30
0.0
 11
2.418427240571449
 21
3.832470360868446
 31
0.0
  0
LINE
  5
38CA
330
1E
100
AcDbEntity
  8
7
100
AcDbLine
 10
1.590292779350977
 20
3.819346201419626
 30
0.0
 11
1.579793451791922
 21
3.819346201419626
 31
0.0
  0
LINE
  5
38CB
330
1E
100
AcDbEntity
  8
7
100
AcDbLine
 10
1.579793451791922
 20
3.819346201419626
 30
0.0
 11
1.582418283681686
 21
3.818033785474744
 31
0.0
  0
LINE
  5
38CC
330
1E
100
AcDbEntity
  8
7
100
AcDbLine
 10
1.582418283681686
 20
3.807534457915689
 30
0.0
 11
1.582418283681686
 21
3.803597210081044
 31
0.0
  0
LINE
  5
38CD
330
1E
100
AcDbEntity
  8
7
100
AcDbLine
 10
1.582418283681686
 20
3.803597210081044
 30
0.0
 11
1.582418283681686
 21
3.80097237819128
 31
0.0
  0
LINE
  5
38CE
330
1E
100
AcDbEntity
  8
7
100
AcDbLine
 10
1.582418283681686
 20
3.80097237819128
 30
0.0
 11
1.582418283681686
 21
3.798347546301516
 31
0.0
  0
LINE
  5
38CF
330
1E
100
AcDbEntity
  8
7
100
AcDbLine
 10
1.582418283681686
 20
3.798347546301516
 30
0.0
 11
1.582418283681686
 21
3.797035130356634
 31
0.0
  0
LINE
  5
38D0
330
1E
100
AcDbEntity
  8
7
100
AcDbLine
 10
1.737283365177749
 20
3.799659962246399
 30
0.0
 11
1.737283365177749
 21
3.802284794136162
 31
0.0
  0
LINE
  5
38D1
330
1E
100
AcDbEntity
  8
7
100
AcDbLine
 10
1.737283365177749
 20
3.802284794136162
 30
0.0
 11
1.737283365177749
 21
3.804909626025926
 31
0.0
  0
LINE
  5
38D2
330
1E
100
AcDbEntity
  8
7
100
AcDbLine
 10
1.737283365177749
 20
3.804909626025926
 30
0.0
 11
1.737283365177749
 21
3.807534457915689
 31
0.0
  0
LINE
  5
38D3
330
1E
100
AcDbEntity
  8
7
100
AcDbLine
 10
1.735970949232867
 20
3.797035130356634
 30
0.0
 11
1.737283365177749
 21
3.797035130356634
 31
0.0
  0
LINE
  5
38D4
330
1E
100
AcDbEntity
  8
7
100
AcDbLine
 10
1.737283365177749
 20
3.797035130356634
 30
0.0
 11
1.737283365177749
 21
3.799659962246399
 31
0.0
  0
LINE
  5
38D5
330
1E
100
AcDbEntity
  8
7
100
AcDbLine
 10
0.9025868242328671
 20
3.837720024647973
 30
0.0
 11
0.9012744082879855
 21
3.832470360868446
 31
0.0
  0
LINE
  5
38D6
330
1E
100
AcDbEntity
  8
7
100
AcDbLine
 10
0.9012744082879855
 20
3.832470360868446
 30
0.0
 11
1.14800860592578
 21
3.832470360868446
 31
0.0
  0
LINE
  5
38D7
330
1E
100
AcDbEntity
  8
7
100
AcDbLine
 10
1.734658533287985
 20
3.797035130356634
 30
0.0
 11
1.733346117343103
 21
3.797035130356634
 31
0.0
  0
LINE
  5
38D8
330
1E
100
AcDbEntity
  8
7
100
AcDbLine
 10
1.733346117343103
 20
3.797035130356634
 30
0.0
 11
1.730721285453339
 21
3.797035130356634
 31
0.0
  0
LINE
  5
38D9
330
1E
100
AcDbEntity
  8
7
100
AcDbLine
 10
1.734658533287985
 20
3.650044544529863
 30
0.0
 11
1.728096453563575
 21
3.651356960474744
 31
0.0
  0
LINE
  5
38DA
330
1E
100
AcDbEntity
  8
7
100
AcDbLine
 10
1.728096453563575
 20
3.651356960474744
 30
0.0
 11
1.720221957894284
 21
3.651356960474744
 31
0.0
  0
LINE
  5
38DB
330
1E
100
AcDbEntity
  8
7
100
AcDbLine
 10
1.787155171083261
 20
3.61329689807317
 30
0.0
 11
1.766156515965151
 21
3.638232801025925
 31
0.0
  0
LINE
  5
38DC
330
1E
100
AcDbEntity
  8
7
100
AcDbLine
 10
1.766156515965151
 20
3.638232801025925
 30
0.0
 11
1.735970949232867
 21
3.651356960474744
 31
0.0
  0
LINE
  5
38DD
330
1E
100
AcDbEntity
  8
7
100
AcDbLine
 10
1.720221957894284
 20
3.497804294923564
 30
0.0
 11
1.75171994057145
 21
3.504366374647973
 31
0.0
  0
LINE
  5
38DE
330
1E
100
AcDbEntity
  8
7
100
AcDbLine
 10
1.75171994057145
 20
3.504366374647973
 30
0.0
 11
1.777968259469087
 21
3.524052613821201
 31
0.0
  0
LINE
  5
38DF
330
1E
100
AcDbEntity
  8
7
100
AcDbLine
 10
1.777968259469087
 20
3.524052613821201
 30
0.0
 11
1.79371725080767
 21
3.551613348663721
 31
0.0
  0
LINE
  5
38E0
330
1E
100
AcDbEntity
  8
7
100
AcDbLine
 10
1.79371725080767
 20
3.551613348663721
 30
0.0
 11
1.797654498642316
 21
3.583111331340886
 31
0.0
  0
LINE
  5
38E1
330
1E
100
AcDbEntity
  8
7
100
AcDbLine
 10
1.797654498642316
 20
3.583111331340886
 30
0.0
 11
1.787155171083261
 21
3.61329689807317
 31
0.0
  0
LINE
  5
38E2
330
1E
100
AcDbEntity
  8
7
100
AcDbLine
 10
1.720221957894284
 20
3.42562141795506
 30
0.0
 11
1.760906852185623
 21
3.430871081734587
 31
0.0
  0
LINE
  5
38E3
330
1E
100
AcDbEntity
  8
7
100
AcDbLine
 10
1.760906852185623
 20
3.430871081734587
 30
0.0
 11
1.798966914587198
 21
3.447932489018052
 31
0.0
  0
LINE
  5
38E4
330
1E
100
AcDbEntity
  8
7
100
AcDbLine
 10
1.798966914587198
 20
3.447932489018052
 30
0.0
 11
1.830464897264363
 21
3.474180807915689
 31
0.0
  0
LINE
  5
38E5
330
1E
100
AcDbEntity
  8
7
100
AcDbLine
 10
1.830464897264363
 20
3.474180807915689
 30
0.0
 11
1.854088384272237
 21
3.508303622482618
 31
0.0
  0
LINE
  5
38E6
330
1E
100
AcDbEntity
  8
7
100
AcDbLine
 10
1.854088384272237
 20
3.508303622482618
 30
0.0
 11
1.867212543721056
 21
3.546363684884194
 31
0.0
  0
LINE
  5
38E7
330
1E
100
AcDbEntity
  8
7
100
AcDbLine
 10
1.867212543721056
 20
3.546363684884194
 30
0.0
 11
1.869837375610819
 21
3.588360995120414
 31
0.0
  0
LINE
  5
38E8
330
1E
100
AcDbEntity
  8
7
100
AcDbLine
 10
1.869837375610819
 20
3.588360995120414
 30
0.0
 11
1.860650463996647
 21
3.627733473466871
 31
0.0
  0
LINE
  5
38E9
330
1E
100
AcDbEntity
  8
7
100
AcDbLine
 10
1.860650463996647
 20
3.627733473466871
 30
0.0
 11
1.840964224823418
 21
3.664481119923563
 31
0.0
  0
LINE
  5
38EA
330
1E
100
AcDbEntity
  8
7
100
AcDbLine
 10
1.840964224823418
 20
3.664481119923563
 30
0.0
 11
1.812091074036016
 21
3.693354270710965
 31
0.0
  0
LINE
  5
38EB
330
1E
100
AcDbEntity
  8
7
100
AcDbLine
 10
1.812091074036016
 20
3.693354270710965
 30
0.0
 11
1.776655843524205
 21
3.714352925829075
 31
0.0
  0
LINE
  5
38EC
330
1E
100
AcDbEntity
  8
7
100
AcDbLine
 10
1.720221957894284
 20
3.424309002010178
 30
0.0
 11
1.760906852185623
 21
3.429558665789705
 31
0.0
  0
LINE
  5
38ED
330
1E
100
AcDbEntity
  8
7
100
AcDbLine
 10
1.760906852185623
 20
3.429558665789705
 30
0.0
 11
1.798966914587198
 21
3.44662007307317
 31
0.0
  0
LINE
  5
38EE
330
1E
100
AcDbEntity
  8
7
100
AcDbLine
 10
1.798966914587198
 20
3.44662007307317
 30
0.0
 11
1.830464897264363
 21
3.472868391970808
 31
0.0
  0
LINE
  5
38EF
330
1E
100
AcDbEntity
  8
7
100
AcDbLine
 10
1.830464897264363
 20
3.472868391970808
 30
0.0
 11
1.854088384272237
 21
3.505678790592855
 31
0.0
  0
LINE
  5
38F0
330
1E
100
AcDbEntity
  8
7
100
AcDbLine
 10
1.854088384272237
 20
3.505678790592855
 30
0.0
 11
1.868524959665938
 21
3.545051268939312
 31
0.0
  0
LINE
  5
38F1
330
1E
100
AcDbEntity
  8
7
100
AcDbLine
 10
1.868524959665938
 20
3.545051268939312
 30
0.0
 11
1.871149791555701
 21
3.58573616323065
 31
0.0
  0
LINE
  5
38F2
330
1E
100
AcDbEntity
  8
7
100
AcDbLine
 10
1.871149791555701
 20
3.58573616323065
 30
0.0
 11
1.861962879941528
 21
3.626421057521989
 31
0.0
  0
LINE
  5
38F3
330
1E
100
AcDbEntity
  8
7
100
AcDbLine
 10
1.861962879941528
 20
3.626421057521989
 30
0.0
 11
1.843589056713181
 21
3.663168703978682
 31
0.0
  0
LINE
  5
38F4
330
1E
100
AcDbEntity
  8
7
100
AcDbLine
 10
1.843589056713181
 20
3.663168703978682
 30
0.0
 11
1.81471590592578
 21
3.693354270710965
 31
0.0
  0
LINE
  5
38F5
330
1E
100
AcDbEntity
  8
7
100
AcDbLine
 10
1.81471590592578
 20
3.693354270710965
 30
0.0
 11
1.779280675413969
 21
3.714352925829075
 31
0.0
  0
LINE
  5
38F6
330
1E
100
AcDbEntity
  8
7
100
AcDbLine
 10
1.779280675413969
 20
3.714352925829075
 30
0.0
 11
1.739908197067513
 21
3.72485225338813
 31
0.0
  0
LINE
  5
38F7
330
1E
100
AcDbEntity
  8
7
100
AcDbLine
 10
1.741220613012394
 20
3.781286139018051
 30
0.0
 11
1.739908197067513
 21
3.77997372307317
 31
0.0
  0
LINE
  5
38F8
330
1E
100
AcDbEntity
  8
7
100
AcDbLine
 10
1.739908197067513
 20
3.77997372307317
 30
0.0
 11
2.547044003169874
 21
3.77997372307317
 31
0.0
  0
LINE
  5
38F9
330
1E
100
AcDbEntity
  8
7
100
AcDbLine
 10
2.679598013602945
 20
3.790473050632225
 30
0.0
 11
2.6756607657683
 21
3.804909626025926
 31
0.0
  0
LINE
  5
38FA
330
1E
100
AcDbEntity
  8
7
100
AcDbLine
 10
2.6756607657683
 20
3.804909626025926
 30
0.0
 11
2.665161438209245
 21
3.815408953584981
 31
0.0
  0
LINE
  5
38FB
330
1E
100
AcDbEntity
  8
7
100
AcDbLine
 10
2.665161438209245
 20
3.815408953584981
 30
0.0
 11
2.649412446870662
 21
3.819346201419626
 31
0.0
  0
LINE
  5
38FC
330
1E
100
AcDbEntity
  8
7
100
AcDbLine
 10
2.649412446870662
 20
3.329815053978682
 30
0.0
 11
2.665161438209245
 21
3.333752301813327
 31
0.0
  0
LINE
  5
38FD
330
1E
100
AcDbEntity
  8
7
100
AcDbLine
 10
2.665161438209245
 20
3.333752301813327
 30
0.0
 11
2.6756607657683
 21
3.344251629372382
 31
0.0
  0
LINE
  5
38FE
330
1E
100
AcDbEntity
  8
7
100
AcDbLine
 10
2.6756607657683
 20
3.344251629372382
 30
0.0
 11
2.679598013602945
 21
3.360000620710965
 31
0.0
  0
LINE
  5
38FF
330
1E
100
AcDbEntity
  8
7
100
AcDbLine
 10
0.6401036352564891
 20
3.360000620710965
 30
0.0
 11
0.6440408830911349
 21
3.344251629372382
 31
0.0
  0
LINE
  5
3900
330
1E
100
AcDbEntity
  8
7
100
AcDbLine
 10
0.6440408830911349
 20
3.344251629372382
 30
0.0
 11
0.6545402106501906
 21
3.333752301813327
 31
0.0
  0
LINE
  5
3901
330
1E
100
AcDbEntity
  8
7
100
AcDbLine
 10
0.6545402106501906
 20
3.333752301813327
 30
0.0
 11
0.6702892019887728
 21
3.329815053978682
 31
0.0
  0
LINE
  5
3902
330
1E
100
AcDbEntity
  8
7
100
AcDbLine
 10
0.6702892019887728
 20
3.819346201419626
 30
0.0
 11
0.6545402106501906
 21
3.815408953584981
 31
0.0
  0
LINE
  5
3903
330
1E
100
AcDbEntity
  8
7
100
AcDbLine
 10
0.6545402106501906
 20
3.815408953584981
 30
0.0
 11
0.6440408830911349
 21
3.804909626025926
 31
0.0
  0
LINE
  5
3904
330
1E
100
AcDbEntity
  8
7
100
AcDbLine
 10
0.6440408830911349
 20
3.804909626025926
 30
0.0
 11
0.6401036352564891
 21
3.790473050632225
 31
0.0
  0
LINE
  5
3905
330
1E
100
AcDbEntity
  8
7
100
AcDbLine
 10
1.540420973445465
 20
3.714352925829075
 30
0.0
 11
1.504985742933654
 21
3.693354270710965
 31
0.0
  0
LINE
  5
3906
330
1E
100
AcDbEntity
  8
7
100
AcDbLine
 10
1.504985742933654
 20
3.693354270710965
 30
0.0
 11
1.476112592146253
 21
3.663168703978682
 31
0.0
  0
LINE
  5
3907
330
1E
100
AcDbEntity
  8
7
100
AcDbLine
 10
1.476112592146253
 20
3.663168703978682
 30
0.0
 11
1.457738768917906
 21
3.626421057521989
 31
0.0
  0
LINE
  5
3908
330
1E
100
AcDbEntity
  8
7
100
AcDbLine
 10
1.457738768917906
 20
3.626421057521989
 30
0.0
 11
1.448551857303733
 21
3.58573616323065
 31
0.0
  0
LINE
  5
3909
330
1E
100
AcDbEntity
  8
7
100
AcDbLine
 10
1.448551857303733
 20
3.58573616323065
 30
0.0
 11
1.451176689193497
 21
3.545051268939312
 31
0.0
  0
LINE
  5
390A
330
1E
100
AcDbEntity
  8
7
100
AcDbLine
 10
1.451176689193497
 20
3.545051268939312
 30
0.0
 11
1.465613264587197
 21
3.505678790592855
 31
0.0
  0
LINE
  5
390B
330
1E
100
AcDbEntity
  8
7
100
AcDbLine
 10
1.465613264587197
 20
3.505678790592855
 30
0.0
 11
1.489236751595071
 21
3.472868391970808
 31
0.0
  0
LINE
  5
390C
330
1E
100
AcDbEntity
  8
7
100
AcDbLine
 10
1.489236751595071
 20
3.472868391970808
 30
0.0
 11
1.520734734272237
 21
3.44662007307317
 31
0.0
  0
LINE
  5
390D
330
1E
100
AcDbEntity
  8
7
100
AcDbLine
 10
1.520734734272237
 20
3.44662007307317
 30
0.0
 11
1.558794796673812
 21
3.429558665789705
 31
0.0
  0
LINE
  5
390E
330
1E
100
AcDbEntity
  8
7
100
AcDbLine
 10
1.558794796673812
 20
3.429558665789705
 30
0.0
 11
1.59947969096515
 21
3.424309002010178
 31
0.0
  0
LINE
  5
390F
330
1E
100
AcDbEntity
  8
7
100
AcDbLine
 10
1.449864273248615
 20
3.588360995120414
 30
0.0
 11
1.452489105138378
 21
3.546363684884194
 31
0.0
  0
LINE
  5
3910
330
1E
100
AcDbEntity
  8
7
100
AcDbLine
 10
1.452489105138378
 20
3.546363684884194
 30
0.0
 11
1.465613264587197
 21
3.508303622482618
 31
0.0
  0
LINE
  5
3911
330
1E
100
AcDbEntity
  8
7
100
AcDbLine
 10
1.465613264587197
 20
3.508303622482618
 30
0.0
 11
1.489236751595071
 21
3.474180807915689
 31
0.0
  0
LINE
  5
3912
330
1E
100
AcDbEntity
  8
7
100
AcDbLine
 10
1.489236751595071
 20
3.474180807915689
 30
0.0
 11
1.520734734272237
 21
3.447932489018052
 31
0.0
  0
LINE
  5
3913
330
1E
100
AcDbEntity
  8
7
100
AcDbLine
 10
1.520734734272237
 20
3.447932489018052
 30
0.0
 11
1.558794796673812
 21
3.430871081734587
 31
0.0
  0
LINE
  5
3914
330
1E
100
AcDbEntity
  8
7
100
AcDbLine
 10
1.558794796673812
 20
3.430871081734587
 30
0.0
 11
1.59947969096515
 21
3.42562141795506
 31
0.0
  0
LINE
  5
3915
330
1E
100
AcDbEntity
  8
7
100
AcDbLine
 10
1.583730699626568
 20
3.723539837443249
 30
0.0
 11
1.543045805335229
 21
3.714352925829075
 31
0.0
  0
LINE
  5
3916
330
1E
100
AcDbEntity
  8
7
100
AcDbLine
 10
1.543045805335229
 20
3.714352925829075
 30
0.0
 11
1.507610574823418
 21
3.693354270710965
 31
0.0
  0
LINE
  5
3917
330
1E
100
AcDbEntity
  8
7
100
AcDbLine
 10
1.507610574823418
 20
3.693354270710965
 30
0.0
 11
1.478737424036016
 21
3.664481119923563
 31
0.0
  0
LINE
  5
3918
330
1E
100
AcDbEntity
  8
7
100
AcDbLine
 10
1.478737424036016
 20
3.664481119923563
 30
0.0
 11
1.459051184862788
 21
3.627733473466871
 31
0.0
  0
LINE
  5
3919
330
1E
100
AcDbEntity
  8
7
100
AcDbLine
 10
1.459051184862788
 20
3.627733473466871
 30
0.0
 11
1.449864273248615
 21
3.588360995120414
 31
0.0
  0
LINE
  5
391A
330
1E
100
AcDbEntity
  8
7
100
AcDbLine
 10
1.553545132894284
 20
3.638232801025925
 30
0.0
 11
1.532546477776174
 21
3.61329689807317
 31
0.0
  0
LINE
  5
391B
330
1E
100
AcDbEntity
  8
7
100
AcDbLine
 10
1.532546477776174
 20
3.61329689807317
 30
0.0
 11
1.522047150217119
 21
3.583111331340886
 31
0.0
  0
LINE
  5
391C
330
1E
100
AcDbEntity
  8
7
100
AcDbLine
 10
1.522047150217119
 20
3.583111331340886
 30
0.0
 11
1.525984398051764
 21
3.551613348663721
 31
0.0
  0
LINE
  5
391D
330
1E
100
AcDbEntity
  8
7
100
AcDbLine
 10
1.525984398051764
 20
3.551613348663721
 30
0.0
 11
1.541733389390347
 21
3.524052613821201
 31
0.0
  0
LINE
  5
391E
330
1E
100
AcDbEntity
  8
7
100
AcDbLine
 10
1.541733389390347
 20
3.524052613821201
 30
0.0
 11
1.567981708287985
 21
3.504366374647973
 31
0.0
  0
LINE
  5
391F
330
1E
100
AcDbEntity
  8
7
100
AcDbLine
 10
1.567981708287985
 20
3.504366374647973
 30
0.0
 11
1.59947969096515
 21
3.497804294923564
 31
0.0
  0
LINE
  5
3920
330
1E
100
AcDbEntity
  8
7
100
AcDbLine
 10
1.59947969096515
 20
3.651356960474744
 30
0.0
 11
1.591605195295859
 21
3.651356960474744
 31
0.0
  0
LINE
  5
3921
330
1E
100
AcDbEntity
  8
7
100
AcDbLine
 10
1.591605195295859
 20
3.651356960474744
 30
0.0
 11
1.585043115571449
 21
3.650044544529863
 31
0.0
  0
LINE
  5
3922
330
1E
100
AcDbEntity
  8
7
100
AcDbLine
 10
1.588980363406095
 20
3.797035130356634
 30
0.0
 11
1.586355531516332
 21
3.797035130356634
 31
0.0
  0
LINE
  5
3923
330
1E
100
AcDbEntity
  8
7
100
AcDbLine
 10
1.586355531516332
 20
3.797035130356634
 30
0.0
 11
1.585043115571449
 21
3.797035130356634
 31
0.0
  0
LINE
  5
3924
330
1E
100
AcDbEntity
  8
7
100
AcDbLine
 10
1.556169964784048
 20
4.289191109687344
 30
0.0
 11
1.763531684075386
 21
4.289191109687344
 31
0.0
  0
LINE
  5
3925
330
1E
100
AcDbEntity
  8
7
100
AcDbLine
 10
1.763531684075386
 20
4.289191109687344
 30
0.0
 11
1.762219268130504
 21
4.294440773466871
 31
0.0
  0
LINE
  5
3926
330
1E
100
AcDbEntity
  8
7
100
AcDbLine
 10
1.762219268130504
 20
4.294440773466871
 30
0.0
 11
1.762219268130504
 21
4.304940101025926
 31
0.0
  0
LINE
  5
3927
330
1E
100
AcDbEntity
  8
7
100
AcDbLine
 10
1.532546477776174
 20
4.277379366183406
 30
0.0
 11
1.556169964784048
 21
4.289191109687344
 31
0.0
  0
LINE
  5
3928
330
1E
100
AcDbEntity
  8
7
100
AcDbLine
 10
1.556169964784048
 20
4.289191109687344
 30
0.0
 11
1.55748238072893
 21
4.294440773466871
 31
0.0
  0
LINE
  5
3929
330
1E
100
AcDbEntity
  8
7
100
AcDbLine
 10
1.55748238072893
 20
4.294440773466871
 30
0.0
 11
1.55748238072893
 21
4.304940101025926
 31
0.0
  0
LINE
  5
392A
330
1E
100
AcDbEntity
  8
7
100
AcDbLine
 10
1.556169964784048
 20
5.440179893348761
 30
0.0
 11
1.763531684075386
 21
5.440179893348761
 31
0.0
  0
LINE
  5
392B
330
1E
100
AcDbEntity
  8
7
100
AcDbLine
 10
1.763531684075386
 20
5.440179893348761
 30
0.0
 11
1.762219268130504
 21
5.444117141183406
 31
0.0
  0
LINE
  5
392C
330
1E
100
AcDbEntity
  8
7
100
AcDbLine
 10
1.762219268130504
 20
5.444117141183406
 30
0.0
 11
1.762219268130504
 21
5.454616468742461
 31
0.0
  0
LINE
  5
392D
330
1E
100
AcDbEntity
  8
7
100
AcDbLine
 10
1.532546477776174
 20
5.428368149844823
 30
0.0
 11
1.556169964784048
 21
5.440179893348761
 31
0.0
  0
LINE
  5
392E
330
1E
100
AcDbEntity
  8
7
100
AcDbLine
 10
1.556169964784048
 20
5.440179893348761
 30
0.0
 11
1.55748238072893
 21
5.444117141183406
 31
0.0
  0
LINE
  5
392F
330
1E
100
AcDbEntity
  8
7
100
AcDbLine
 10
1.55748238072893
 20
5.444117141183406
 30
0.0
 11
1.55748238072893
 21
5.454616468742461
 31
0.0
  0
LINE
  5
3930
330
1E
100
AcDbEntity
  8
7
100
AcDbLine
 10
1.15457068565019
 20
3.845594520317264
 30
0.0
 11
1.155883101595072
 21
3.841657272482619
 31
0.0
  0
LINE
  5
3931
330
1E
100
AcDbEntity
  8
7
100
AcDbLine
 10
1.155883101595072
 20
3.841657272482619
 30
0.0
 11
1.155883101595072
 21
3.87053042327002
 31
0.0
  0
LINE
  5
3932
330
1E
100
AcDbEntity
  8
7
100
AcDbLine
 10
1.155883101595072
 20
3.87053042327002
 30
0.0
 11
1.15457068565019
 21
3.869218007325138
 31
0.0
  0
LINE
  5
3933
330
1E
100
AcDbEntity
  8
7
100
AcDbLine
 10
0.893399912618694
 20
3.87053042327002
 30
0.0
 11
0.893399912618694
 21
3.841657272482619
 31
0.0
  0
LINE
  5
3934
330
1E
100
AcDbEntity
  8
7
100
AcDbLine
 10
0.893399912618694
 20
3.841657272482619
 30
0.0
 11
0.8947123285635756
 21
3.845594520317264
 31
0.0
  0
LINE
  5
3935
330
1E
100
AcDbEntity
  8
7
100
AcDbLine
 10
0.9025868242328671
 20
3.879717334884194
 30
0.0
 11
0.9012744082879855
 21
3.879717334884194
 31
0.0
  0
LINE
  5
3936
330
1E
100
AcDbEntity
  8
7
100
AcDbLine
 10
0.9012744082879855
 20
3.879717334884194
 30
0.0
 11
0.9025868242328671
 21
3.878404918939312
 31
0.0
  0
LINE
  5
3937
330
1E
100
AcDbEntity
  8
7
100
AcDbLine
 10
2.417114824626568
 20
3.878404918939312
 30
0.0
 11
2.418427240571449
 21
3.879717334884194
 31
0.0
  0
LINE
  5
3938
330
1E
100
AcDbEntity
  8
7
100
AcDbLine
 10
2.418427240571449
 20
3.879717334884194
 30
0.0
 11
2.417114824626568
 21
3.879717334884194
 31
0.0
  0
LINE
  5
3939
330
1E
100
AcDbEntity
  8
7
100
AcDbLine
 10
2.424989320295859
 20
3.845594520317264
 30
0.0
 11
2.426301736240741
 21
3.841657272482619
 31
0.0
  0
LINE
  5
393A
330
1E
100
AcDbEntity
  8
7
100
AcDbLine
 10
2.426301736240741
 20
3.841657272482619
 30
0.0
 11
2.426301736240741
 21
3.87053042327002
 31
0.0
  0
LINE
  5
393B
330
1E
100
AcDbEntity
  8
7
100
AcDbLine
 10
2.426301736240741
 20
3.87053042327002
 30
0.0
 11
2.424989320295859
 21
3.869218007325138
 31
0.0
  0
LINE
  5
393C
330
1E
100
AcDbEntity
  8
7
100
AcDbLine
 10
2.165130963209245
 20
3.869218007325138
 30
0.0
 11
2.163818547264363
 21
3.87053042327002
 31
0.0
  0
LINE
  5
393D
330
1E
100
AcDbEntity
  8
7
100
AcDbLine
 10
2.163818547264363
 20
3.87053042327002
 30
0.0
 11
2.163818547264363
 21
3.841657272482619
 31
0.0
  0
LINE
  5
393E
330
1E
100
AcDbEntity
  8
7
100
AcDbLine
 10
2.163818547264363
 20
3.841657272482619
 30
0.0
 11
2.165130963209245
 21
3.845594520317264
 31
0.0
  0
LINE
  5
393F
330
1E
100
AcDbEntity
  8
7
100
AcDbLine
 10
1.59947969096515
 20
3.651356960474744
 30
0.0
 11
1.581105867736804
 21
3.648732128584981
 31
0.0
  0
LINE
  5
3940
330
1E
100
AcDbEntity
  8
7
100
AcDbLine
 10
1.581105867736804
 20
3.648732128584981
 30
0.0
 11
1.564044460453339
 21
3.642170048860572
 31
0.0
  0
LINE
  5
3941
330
1E
100
AcDbEntity
  8
7
100
AcDbLine
 10
1.755657188406095
 20
3.642170048860572
 30
0.0
 11
1.738595781122631
 21
3.648732128584981
 31
0.0
  0
LINE
  5
3942
330
1E
100
AcDbEntity
  8
7
100
AcDbLine
 10
1.738595781122631
 20
3.648732128584981
 30
0.0
 11
1.720221957894284
 21
3.651356960474744
 31
0.0
  0
LINE
  5
3943
330
1E
100
AcDbEntity
  8
7
100
AcDbLine
 10
1.766156515965151
 20
3.51617811815191
 30
0.0
 11
1.787155171083261
 21
3.542426437049548
 31
0.0
  0
LINE
  5
3944
330
1E
100
AcDbEntity
  8
7
100
AcDbLine
 10
1.787155171083261
 20
3.542426437049548
 30
0.0
 11
1.795029666752552
 21
3.575236835671595
 31
0.0
  0
LINE
  5
3945
330
1E
100
AcDbEntity
  8
7
100
AcDbLine
 10
1.795029666752552
 20
3.575236835671595
 30
0.0
 11
1.787155171083261
 21
3.608047234293643
 31
0.0
  0
LINE
  5
3946
330
1E
100
AcDbEntity
  8
7
100
AcDbLine
 10
1.787155171083261
 20
3.608047234293643
 30
0.0
 11
1.766156515965151
 21
3.634295553191281
 31
0.0
  0
LINE
  5
3947
330
1E
100
AcDbEntity
  8
7
100
AcDbLine
 10
1.720221957894284
 20
3.499116710868445
 30
0.0
 11
1.738595781122631
 21
3.501741542758209
 31
0.0
  0
LINE
  5
3948
330
1E
100
AcDbEntity
  8
7
100
AcDbLine
 10
1.738595781122631
 20
3.501741542758209
 30
0.0
 11
1.755657188406095
 21
3.508303622482618
 31
0.0
  0
LINE
  5
3949
330
1E
100
AcDbEntity
  8
7
100
AcDbLine
 10
1.564044460453339
 20
3.508303622482618
 30
0.0
 11
1.581105867736804
 21
3.501741542758209
 31
0.0
  0
LINE
  5
394A
330
1E
100
AcDbEntity
  8
7
100
AcDbLine
 10
1.581105867736804
 20
3.501741542758209
 30
0.0
 11
1.59947969096515
 21
3.499116710868445
 31
0.0
  0
LINE
  5
394B
330
1E
100
AcDbEntity
  8
7
100
AcDbLine
 10
1.720221957894284
 20
3.497804294923564
 30
0.0
 11
1.59947969096515
 21
3.497804294923564
 31
0.0
  0
LINE
  5
394C
330
1E
100
AcDbEntity
  8
7
100
AcDbLine
 10
1.59947969096515
 20
3.497804294923564
 30
0.0
 11
1.59947969096515
 21
3.496491878978682
 31
0.0
  0
LINE
  5
394D
330
1E
100
AcDbEntity
  8
7
100
AcDbLine
 10
2.596915809075387
 20
3.770786811458997
 30
0.0
 11
2.594290977185623
 21
3.777348891183406
 31
0.0
  0
LINE
  5
394E
330
1E
100
AcDbEntity
  8
7
100
AcDbLine
 10
2.594290977185623
 20
3.777348891183406
 30
0.0
 11
2.587728897461213
 21
3.77997372307317
 31
0.0
  0
LINE
  5
394F
330
1E
100
AcDbEntity
  8
7
100
AcDbLine
 10
2.596915809075387
 20
3.770786811458997
 30
0.0
 11
2.594290977185623
 21
3.777348891183406
 31
0.0
  0
LINE
  5
3950
330
1E
100
AcDbEntity
  8
7
100
AcDbLine
 10
2.594290977185623
 20
3.777348891183406
 30
0.0
 11
2.587728897461213
 21
3.77997372307317
 31
0.0
  0
LINE
  5
3951
330
1E
100
AcDbEntity
  8
7
100
AcDbLine
 10
2.587728897461213
 20
3.369187532325138
 30
0.0
 11
2.594290977185623
 21
3.371812364214902
 31
0.0
  0
LINE
  5
3952
330
1E
100
AcDbEntity
  8
7
100
AcDbLine
 10
2.594290977185623
 20
3.371812364214902
 30
0.0
 11
2.596915809075387
 21
3.378374443939312
 31
0.0
  0
LINE
  5
3953
330
1E
100
AcDbEntity
  8
7
100
AcDbLine
 10
2.587728897461213
 20
3.369187532325138
 30
0.0
 11
2.594290977185623
 21
3.371812364214902
 31
0.0
  0
LINE
  5
3954
330
1E
100
AcDbEntity
  8
7
100
AcDbLine
 10
2.594290977185623
 20
3.371812364214902
 30
0.0
 11
2.596915809075387
 21
3.378374443939312
 31
0.0
  0
LINE
  5
3955
330
1E
100
AcDbEntity
  8
7
100
AcDbLine
 10
0.7227858397840486
 20
3.378374443939312
 30
0.0
 11
0.7254106716738118
 21
3.371812364214902
 31
0.0
  0
LINE
  5
3956
330
1E
100
AcDbEntity
  8
7
100
AcDbLine
 10
0.7254106716738118
 20
3.371812364214902
 30
0.0
 11
0.7319727513982217
 21
3.369187532325138
 31
0.0
  0
LINE
  5
3957
330
1E
100
AcDbEntity
  8
7
100
AcDbLine
 10
0.7227858397840486
 20
3.378374443939312
 30
0.0
 11
0.7254106716738118
 21
3.371812364214902
 31
0.0
  0
LINE
  5
3958
330
1E
100
AcDbEntity
  8
7
100
AcDbLine
 10
0.7254106716738118
 20
3.371812364214902
 30
0.0
 11
0.7319727513982217
 21
3.369187532325138
 31
0.0
  0
LINE
  5
3959
330
1E
100
AcDbEntity
  8
7
100
AcDbLine
 10
0.7227858397840486
 20
3.378374443939312
 30
0.0
 11
0.7227858397840486
 21
3.770786811458997
 31
0.0
  0
LINE
  5
395A
330
1E
100
AcDbEntity
  8
7
100
AcDbLine
 10
0.7227858397840486
 20
3.770786811458997
 30
0.0
 11
0.7227858397840486
 21
3.378374443939312
 31
0.0
  0
LINE
  5
395B
330
1E
100
AcDbEntity
  8
7
100
AcDbLine
 10
0.7319727513982217
 20
3.77997372307317
 30
0.0
 11
0.7254106716738118
 21
3.777348891183406
 31
0.0
  0
LINE
  5
395C
330
1E
100
AcDbEntity
  8
7
100
AcDbLine
 10
0.7254106716738118
 20
3.777348891183406
 30
0.0
 11
0.7227858397840486
 21
3.770786811458997
 31
0.0
  0
LINE
  5
395D
330
1E
100
AcDbEntity
  8
7
100
AcDbLine
 10
0.7319727513982217
 20
3.77997372307317
 30
0.0
 11
0.7254106716738118
 21
3.777348891183406
 31
0.0
  0
LINE
  5
395E
330
1E
100
AcDbEntity
  8
7
100
AcDbLine
 10
0.7254106716738118
 20
3.777348891183406
 30
0.0
 11
0.7227858397840486
 21
3.770786811458997
 31
0.0
  0
LINE
  5
395F
330
1E
100
AcDbEntity
  8
7
100
AcDbLine
 10
1.553545132894284
 20
3.634295553191281
 30
0.0
 11
1.532546477776174
 21
3.608047234293643
 31
0.0
  0
LINE
  5
3960
330
1E
100
AcDbEntity
  8
7
100
AcDbLine
 10
1.532546477776174
 20
3.608047234293643
 30
0.0
 11
1.524671982106883
 21
3.575236835671595
 31
0.0
  0
LINE
  5
3961
330
1E
100
AcDbEntity
  8
7
100
AcDbLine
 10
1.524671982106883
 20
3.575236835671595
 30
0.0
 11
1.532546477776174
 21
3.542426437049548
 31
0.0
  0
LINE
  5
3962
330
1E
100
AcDbEntity
  8
7
100
AcDbLine
 10
1.532546477776174
 20
3.542426437049548
 30
0.0
 11
1.553545132894284
 21
3.51617811815191
 31
0.0
  0
LINE
  5
3963
330
1E
100
AcDbEntity
  8
7
100
AcDbLine
 10
1.762219268130504
 20
4.386309889608603
 30
0.0
 11
1.556169964784048
 21
4.386309889608603
 31
0.0
  0
LINE
  5
3964
330
1E
100
AcDbEntity
  8
7
100
AcDbLine
 10
1.556169964784048
 20
4.386309889608603
 30
0.0
 11
1.556169964784048
 21
4.357436738821202
 31
0.0
  0
LINE
  5
3965
330
1E
100
AcDbEntity
  8
7
100
AcDbLine
 10
1.762219268130504
 20
4.352187075041674
 30
0.0
 11
1.762219268130504
 21
4.357436738821202
 31
0.0
  0
LINE
  5
3966
330
1E
100
AcDbEntity
  8
7
100
AcDbLine
 10
1.762219268130504
 20
4.357436738821202
 30
0.0
 11
1.556169964784048
 21
4.357436738821202
 31
0.0
  0
LINE
  5
3967
330
1E
100
AcDbEntity
  8
7
100
AcDbLine
 10
1.55748238072893
 20
4.315439428584982
 30
0.0
 11
1.55748238072893
 21
4.335125667758209
 31
0.0
  0
LINE
  5
3968
330
1E
100
AcDbEntity
  8
7
100
AcDbLine
 10
1.55748238072893
 20
4.335125667758209
 30
0.0
 11
1.556169964784048
 21
4.352187075041674
 31
0.0
  0
LINE
  5
3969
330
1E
100
AcDbEntity
  8
7
100
AcDbLine
 10
1.762219268130504
 20
4.315439428584982
 30
0.0
 11
1.762219268130504
 21
4.335125667758209
 31
0.0
  0
LINE
  5
396A
330
1E
100
AcDbEntity
  8
7
100
AcDbLine
 10
1.762219268130504
 20
4.335125667758209
 30
0.0
 11
1.762219268130504
 21
4.352187075041674
 31
0.0
  0
LINE
  5
396B
330
1E
100
AcDbEntity
  8
7
100
AcDbLine
 10
1.762219268130504
 20
4.315439428584982
 30
0.0
 11
1.55748238072893
 21
4.315439428584982
 31
0.0
  0
LINE
  5
396C
330
1E
100
AcDbEntity
  8
7
100
AcDbLine
 10
1.55748238072893
 20
4.315439428584982
 30
0.0
 11
1.55748238072893
 21
4.304940101025926
 31
0.0
  0
LINE
  5
396D
330
1E
100
AcDbEntity
  8
7
100
AcDbLine
 10
1.762219268130504
 20
5.535986257325139
 30
0.0
 11
1.556169964784048
 21
5.535986257325139
 31
0.0
  0
LINE
  5
396E
330
1E
100
AcDbEntity
  8
7
100
AcDbLine
 10
1.556169964784048
 20
5.535986257325139
 30
0.0
 11
1.556169964784048
 21
5.507113106537737
 31
0.0
  0
LINE
  5
396F
330
1E
100
AcDbEntity
  8
7
100
AcDbLine
 10
1.762219268130504
 20
5.501863442758208
 30
0.0
 11
1.762219268130504
 21
5.507113106537737
 31
0.0
  0
LINE
  5
3970
330
1E
100
AcDbEntity
  8
7
100
AcDbLine
 10
1.762219268130504
 20
5.507113106537737
 30
0.0
 11
1.556169964784048
 21
5.507113106537737
 31
0.0
  0
LINE
  5
3971
330
1E
100
AcDbEntity
  8
7
100
AcDbLine
 10
1.55748238072893
 20
5.466428212246399
 30
0.0
 11
1.55748238072893
 21
5.484802035474745
 31
0.0
  0
LINE
  5
3972
330
1E
100
AcDbEntity
  8
7
100
AcDbLine
 10
1.55748238072893
 20
5.484802035474745
 30
0.0
 11
1.556169964784048
 21
5.501863442758208
 31
0.0
  0
LINE
  5
3973
330
1E
100
AcDbEntity
  8
7
100
AcDbLine
 10
1.762219268130504
 20
5.466428212246399
 30
0.0
 11
1.762219268130504
 21
5.484802035474745
 31
0.0
  0
LINE
  5
3974
330
1E
100
AcDbEntity
  8
7
100
AcDbLine
 10
1.762219268130504
 20
5.484802035474745
 30
0.0
 11
1.762219268130504
 21
5.501863442758208
 31
0.0
  0
LINE
  5
3975
330
1E
100
AcDbEntity
  8
7
100
AcDbLine
 10
1.762219268130504
 20
5.466428212246399
 30
0.0
 11
1.55748238072893
 21
5.466428212246399
 31
0.0
  0
LINE
  5
3976
330
1E
100
AcDbEntity
  8
7
100
AcDbLine
 10
1.55748238072893
 20
5.466428212246399
 30
0.0
 11
1.55748238072893
 21
5.454616468742461
 31
0.0
  0
LINE
  5
3977
330
1E
100
AcDbEntity
  8
7
100
AcDbLine
 10
0.7227858397840486
 20
6.659414306144037
 30
0.0
 11
0.7254106716738118
 21
6.652852226419626
 31
0.0
  0
LINE
  5
3978
330
1E
100
AcDbEntity
  8
7
100
AcDbLine
 10
0.7254106716738118
 20
6.652852226419626
 30
0.0
 11
0.7319727513982217
 21
6.650227394529864
 31
0.0
  0
LINE
  5
3979
330
1E
100
AcDbEntity
  8
7
100
AcDbLine
 10
0.9813317809257808
 20
6.551796198663721
 30
0.0
 11
0.9813317809257808
 21
6.549171366773957
 31
0.0
  0
LINE
  5
397A
330
1E
100
AcDbEntity
  8
7
100
AcDbLine
 10
0.9813317809257808
 20
6.549171366773957
 30
0.0
 11
0.9813317809257808
 21
6.543921702994429
 31
0.0
  0
LINE
  5
397B
330
1E
100
AcDbEntity
  8
7
100
AcDbLine
 10
0.9734572852564893
 20
6.559670694333012
 30
0.0
 11
0.9708324533667251
 21
6.559670694333012
 31
0.0
  0
LINE
  5
397C
330
1E
100
AcDbEntity
  8
7
100
AcDbLine
 10
0.9708324533667251
 20
6.559670694333012
 30
0.0
 11
0.9655827895871977
 21
6.559670694333012
 31
0.0
  0
LINE
  5
397D
330
1E
100
AcDbEntity
  8
7
100
AcDbLine
 10
0.9655827895871977
 20
6.589856261065295
 30
0.0
 11
0.9708324533667251
 21
6.589856261065295
 31
0.0
  0
LINE
  5
397E
330
1E
100
AcDbEntity
  8
7
100
AcDbLine
 10
0.9708324533667251
 20
6.589856261065295
 30
0.0
 11
0.9734572852564893
 21
6.589856261065295
 31
0.0
  0
LINE
  5
397F
330
1E
100
AcDbEntity
  8
7
100
AcDbLine
 10
0.9813317809257808
 20
6.605605252403878
 30
0.0
 11
0.9813317809257808
 21
6.600355588624351
 31
0.0
  0
LINE
  5
3980
330
1E
100
AcDbEntity
  8
7
100
AcDbLine
 10
0.9813317809257808
 20
6.600355588624351
 30
0.0
 11
0.9813317809257808
 21
6.597730756734588
 31
0.0
  0
LINE
  5
3981
330
1E
100
AcDbEntity
  8
7
100
AcDbLine
 10
1.228065978563575
 20
6.605605252403878
 30
0.0
 11
1.228065978563575
 21
6.600355588624351
 31
0.0
  0
LINE
  5
3982
330
1E
100
AcDbEntity
  8
7
100
AcDbLine
 10
1.228065978563575
 20
6.600355588624351
 30
0.0
 11
1.228065978563575
 21
6.597730756734588
 31
0.0
  0
LINE
  5
3983
330
1E
100
AcDbEntity
  8
7
100
AcDbLine
 10
1.243814969902158
 20
6.589856261065295
 30
0.0
 11
1.23856530612263
 21
6.589856261065295
 31
0.0
  0
LINE
  5
3984
330
1E
100
AcDbEntity
  8
7
100
AcDbLine
 10
1.23856530612263
 20
6.589856261065295
 30
0.0
 11
1.235940474232867
 21
6.589856261065295
 31
0.0
  0
LINE
  5
3985
330
1E
100
AcDbEntity
  8
7
100
AcDbLine
 10
1.228065978563575
 20
6.543921702994429
 30
0.0
 11
1.228065978563575
 21
6.549171366773957
 31
0.0
  0
LINE
  5
3986
330
1E
100
AcDbEntity
  8
7
100
AcDbLine
 10
1.228065978563575
 20
6.549171366773957
 30
0.0
 11
1.228065978563575
 21
6.551796198663721
 31
0.0
  0
LINE
  5
3987
330
1E
100
AcDbEntity
  8
7
100
AcDbLine
 10
1.243814969902158
 20
6.559670694333012
 30
0.0
 11
1.23856530612263
 21
6.559670694333012
 31
0.0
  0
LINE
  5
3988
330
1E
100
AcDbEntity
  8
7
100
AcDbLine
 10
1.23856530612263
 20
6.559670694333012
 30
0.0
 11
1.235940474232867
 21
6.559670694333012
 31
0.0
  0
LINE
  5
3989
330
1E
100
AcDbEntity
  8
7
100
AcDbLine
 10
1.226753562618694
 20
6.592481092955059
 30
0.0
 11
1.228065978563575
 21
6.597730756734588
 31
0.0
  0
LINE
  5
398A
330
1E
100
AcDbEntity
  8
7
100
AcDbLine
 10
1.228065978563575
 20
6.597730756734588
 30
0.0
 11
0.9813317809257808
 21
6.597730756734588
 31
0.0
  0
LINE
  5
398B
330
1E
100
AcDbEntity
  8
7
100
AcDbLine
 10
0.9826441968706625
 20
6.551796198663721
 30
0.0
 11
0.9813317809257808
 21
6.551796198663721
 31
0.0
  0
LINE
  5
398C
330
1E
100
AcDbEntity
  8
7
100
AcDbLine
 10
0.9813317809257808
 20
6.551796198663721
 30
0.0
 11
0.9826441968706625
 21
6.551796198663721
 31
0.0
  0
LINE
  5
398D
330
1E
100
AcDbEntity
  8
7
100
AcDbLine
 10
0.9747697012013709
 20
6.584606597285768
 30
0.0
 11
0.9734572852564893
 21
6.589856261065295
 31
0.0
  0
LINE
  5
398E
330
1E
100
AcDbEntity
  8
7
100
AcDbLine
 10
0.9734572852564893
 20
6.589856261065295
 30
0.0
 11
0.9734572852564893
 21
6.559670694333012
 31
0.0
  0
LINE
  5
398F
330
1E
100
AcDbEntity
  8
7
100
AcDbLine
 10
0.9734572852564893
 20
6.559670694333012
 30
0.0
 11
0.9747697012013709
 21
6.560983110277895
 31
0.0
  0
LINE
  5
3990
330
1E
100
AcDbEntity
  8
7
100
AcDbLine
 10
1.234628058287985
 20
6.560983110277895
 30
0.0
 11
1.235940474232867
 21
6.559670694333012
 31
0.0
  0
LINE
  5
3991
330
1E
100
AcDbEntity
  8
7
100
AcDbLine
 10
1.235940474232867
 20
6.559670694333012
 30
0.0
 11
1.235940474232867
 21
6.589856261065295
 31
0.0
  0
LINE
  5
3992
330
1E
100
AcDbEntity
  8
7
100
AcDbLine
 10
1.235940474232867
 20
6.589856261065295
 30
0.0
 11
1.234628058287985
 21
6.584606597285768
 31
0.0
  0
LINE
  5
3993
330
1E
100
AcDbEntity
  8
7
100
AcDbLine
 10
1.579793451791922
 20
6.587231429175533
 30
0.0
 11
1.579793451791922
 21
6.604292836458997
 31
0.0
  0
LINE
  5
3994
330
1E
100
AcDbEntity
  8
7
100
AcDbLine
 10
1.579793451791922
 20
6.604292836458997
 30
0.0
 11
1.579793451791922
 21
6.610854916183406
 31
0.0
  0
LINE
  5
3995
330
1E
100
AcDbEntity
  8
7
100
AcDbLine
 10
1.738595781122631
 20
6.610854916183406
 30
0.0
 11
1.739908197067513
 21
6.604292836458997
 31
0.0
  0
LINE
  5
3996
330
1E
100
AcDbEntity
  8
7
100
AcDbLine
 10
1.739908197067513
 20
6.604292836458997
 30
0.0
 11
1.739908197067513
 21
6.587231429175533
 31
0.0
  0
LINE
  5
3997
330
1E
100
AcDbEntity
  8
7
100
AcDbLine
 10
1.729408869508457
 20
6.610854916183406
 30
0.0
 11
1.738595781122631
 21
6.610854916183406
 31
0.0
  0
LINE
  5
3998
330
1E
100
AcDbEntity
  8
7
100
AcDbLine
 10
1.738595781122631
 20
6.610854916183406
 30
0.0
 11
1.737283365177749
 21
6.61347974807317
 31
0.0
  0
LINE
  5
3999
330
1E
100
AcDbEntity
  8
7
100
AcDbLine
 10
1.585043115571449
 20
6.781468989018051
 30
0.0
 11
1.591605195295859
 21
6.78015657307317
 31
0.0
  0
LINE
  5
399A
330
1E
100
AcDbEntity
  8
7
100
AcDbLine
 10
1.591605195295859
 20
6.78015657307317
 30
0.0
 11
1.59947969096515
 21
6.78015657307317
 31
0.0
  0
LINE
  5
399C
330
1E
100
AcDbEntity
  8
7
100
AcDbLine
 10
1.532546477776174
 20
6.889087096498367
 30
0.0
 11
1.524671982106883
 21
6.856276697876319
 31
0.0
  0
LINE
  5
399D
330
1E
100
AcDbEntity
  8
7
100
AcDbLine
 10
1.524671982106883
 20
6.856276697876319
 30
0.0
 11
1.532546477776174
 21
6.823466299254272
 31
0.0
  0
LINE
  5
399E
330
1E
100
AcDbEntity
  8
7
100
AcDbLine
 10
1.532546477776174
 20
6.823466299254272
 30
0.0
 11
1.553545132894284
 21
6.797217980356634
 31
0.0
  0
LINE
  5
399F
330
1E
100
AcDbEntity
  8
7
100
AcDbLine
 10
1.787155171083261
 20
6.823466299254272
 30
0.0
 11
1.795029666752552
 21
6.856276697876319
 31
0.0
  0
LINE
  5
39A0
330
1E
100
AcDbEntity
  8
7
100
AcDbLine
 10
1.795029666752552
 20
6.856276697876319
 30
0.0
 11
1.787155171083261
 21
6.889087096498367
 31
0.0
  0
LINE
  5
39A1
330
1E
100
AcDbEntity
  8
7
100
AcDbLine
 10
1.787155171083261
 20
6.889087096498367
 30
0.0
 11
1.766156515965151
 21
6.915335415396005
 31
0.0
  0
LINE
  5
39A2
330
1E
100
AcDbEntity
  8
7
100
AcDbLine
 10
1.720221957894284
 20
6.78015657307317
 30
0.0
 11
1.738595781122631
 21
6.782781404962934
 31
0.0
  0
LINE
  5
39A3
330
1E
100
AcDbEntity
  8
7
100
AcDbLine
 10
1.738595781122631
 20
6.782781404962934
 30
0.0
 11
1.755657188406095
 21
6.789343484687344
 31
0.0
  0
LINE
  5
39A4
330
1E
100
AcDbEntity
  8
7
100
AcDbLine
 10
1.564044460453339
 20
6.789343484687344
 30
0.0
 11
1.581105867736804
 21
6.782781404962934
 31
0.0
  0
LINE
  5
39A5
330
1E
100
AcDbEntity
  8
7
100
AcDbLine
 10
1.581105867736804
 20
6.782781404962934
 30
0.0
 11
1.59947969096515
 21
6.78015657307317
 31
0.0
  0
LINE
  5
39A6
330
1E
100
AcDbEntity
  8
7
100
AcDbLine
 10
1.59947969096515
 20
6.93239682267947
 30
0.0
 11
1.581105867736804
 21
6.929771990789706
 31
0.0
  0
LINE
  5
39A7
330
1E
100
AcDbEntity
  8
7
100
AcDbLine
 10
1.581105867736804
 20
6.929771990789706
 30
0.0
 11
1.564044460453339
 21
6.923209911065296
 31
0.0
  0
LINE
  5
39A8
330
1E
100
AcDbEntity
  8
7
100
AcDbLine
 10
1.755657188406095
 20
6.923209911065296
 30
0.0
 11
1.738595781122631
 21
6.929771990789706
 31
0.0
  0
LINE
  5
39A9
330
1E
100
AcDbEntity
  8
7
100
AcDbLine
 10
1.738595781122631
 20
6.929771990789706
 30
0.0
 11
1.720221957894284
 21
6.93239682267947
 31
0.0
  0
LINE
  5
39AA
330
1E
100
AcDbEntity
  8
7
100
AcDbLine
 10
1.737283365177749
 20
6.623979075632226
 30
0.0
 11
1.737283365177749
 21
6.626603907521989
 31
0.0
  0
LINE
  5
39AB
330
1E
100
AcDbEntity
  8
7
100
AcDbLine
 10
1.737283365177749
 20
6.626603907521989
 30
0.0
 11
1.737283365177749
 21
6.629228739411753
 31
0.0
  0
LINE
  5
39AC
330
1E
100
AcDbEntity
  8
7
100
AcDbLine
 10
1.737283365177749
 20
6.629228739411753
 30
0.0
 11
1.737283365177749
 21
6.631853571301516
 31
0.0
  0
LINE
  5
39AD
330
1E
100
AcDbEntity
  8
7
100
AcDbLine
 10
1.737283365177749
 20
6.631853571301516
 30
0.0
 11
1.737283365177749
 21
6.633165987246399
 31
0.0
  0
LINE
  5
39AE
330
1E
100
AcDbEntity
  8
7
100
AcDbLine
 10
1.737283365177749
 20
6.633165987246399
 30
0.0
 11
1.735970949232867
 21
6.633165987246399
 31
0.0
  0
LINE
  5
39AF
330
1E
100
AcDbEntity
  8
7
100
AcDbLine
 10
1.582418283681686
 20
6.633165987246399
 30
0.0
 11
1.582418283681686
 21
6.631853571301516
 31
0.0
  0
LINE
  5
39B0
330
1E
100
AcDbEntity
  8
7
100
AcDbLine
 10
1.582418283681686
 20
6.631853571301516
 30
0.0
 11
1.582418283681686
 21
6.629228739411753
 31
0.0
  0
LINE
  5
39B1
330
1E
100
AcDbEntity
  8
7
100
AcDbLine
 10
1.582418283681686
 20
6.629228739411753
 30
0.0
 11
1.582418283681686
 21
6.625291491577106
 31
0.0
  0
LINE
  5
39B2
330
1E
100
AcDbEntity
  8
7
100
AcDbLine
 10
1.582418283681686
 20
6.625291491577106
 30
0.0
 11
1.582418283681686
 21
6.623979075632226
 31
0.0
  0
LINE
  5
39B3
330
1E
100
AcDbEntity
  8
7
100
AcDbLine
 10
1.730721285453339
 20
6.63447840319128
 30
0.0
 11
1.733346117343103
 21
6.63447840319128
 31
0.0
  0
LINE
  5
39B4
330
1E
100
AcDbEntity
  8
7
100
AcDbLine
 10
1.733346117343103
 20
6.63447840319128
 30
0.0
 11
1.734658533287985
 21
6.63447840319128
 31
0.0
  0
LINE
  5
39B5
330
1E
100
AcDbEntity
  8
7
100
AcDbLine
 10
1.585043115571449
 20
6.63447840319128
 30
0.0
 11
1.586355531516332
 21
6.63447840319128
 31
0.0
  0
LINE
  5
39B6
330
1E
100
AcDbEntity
  8
7
100
AcDbLine
 10
1.586355531516332
 20
6.63447840319128
 30
0.0
 11
1.588980363406095
 21
6.63447840319128
 31
0.0
  0
LINE
  5
39B7
330
1E
100
AcDbEntity
  8
7
100
AcDbLine
 10
1.735970949232867
 20
6.707973696104666
 30
0.0
 11
1.776655843524205
 21
6.71716060771884
 31
0.0
  0
LINE
  5
39B8
330
1E
100
AcDbEntity
  8
7
100
AcDbLine
 10
1.776655843524205
 20
6.71716060771884
 30
0.0
 11
1.812091074036016
 21
6.738159262836949
 31
0.0
  0
LINE
  5
39B9
330
1E
100
AcDbEntity
  8
7
100
AcDbLine
 10
1.812091074036016
 20
6.738159262836949
 30
0.0
 11
1.840964224823418
 21
6.767032413624351
 31
0.0
  0
LINE
  5
39BA
330
1E
100
AcDbEntity
  8
7
100
AcDbLine
 10
1.840964224823418
 20
6.767032413624351
 30
0.0
 11
1.860650463996647
 21
6.803780060081043
 31
0.0
  0
LINE
  5
39BB
330
1E
100
AcDbEntity
  8
7
100
AcDbLine
 10
1.860650463996647
 20
6.803780060081043
 30
0.0
 11
1.869837375610819
 21
6.843152538427501
 31
0.0
  0
LINE
  5
39BC
330
1E
100
AcDbEntity
  8
7
100
AcDbLine
 10
1.869837375610819
 20
6.843152538427501
 30
0.0
 11
1.867212543721056
 21
6.885149848663721
 31
0.0
  0
LINE
  5
39BD
330
1E
100
AcDbEntity
  8
7
100
AcDbLine
 10
1.867212543721056
 20
6.885149848663721
 30
0.0
 11
1.854088384272237
 21
6.923209911065296
 31
0.0
  0
LINE
  5
39BE
330
1E
100
AcDbEntity
  8
7
100
AcDbLine
 10
1.854088384272237
 20
6.923209911065296
 30
0.0
 11
1.830464897264363
 21
6.957332725632225
 31
0.0
  0
LINE
  5
39BF
330
1E
100
AcDbEntity
  8
7
100
AcDbLine
 10
1.830464897264363
 20
6.957332725632225
 30
0.0
 11
1.798966914587198
 21
6.983581044529863
 31
0.0
  0
LINE
  5
39C0
330
1E
100
AcDbEntity
  8
7
100
AcDbLine
 10
1.798966914587198
 20
6.983581044529863
 30
0.0
 11
1.760906852185623
 21
7.000642451813327
 31
0.0
  0
LINE
  5
39C1
330
1E
100
AcDbEntity
  8
7
100
AcDbLine
 10
1.760906852185623
 20
7.000642451813327
 30
0.0
 11
1.720221957894284
 21
7.005892115592855
 31
0.0
  0
LINE
  5
39C2
330
1E
100
AcDbEntity
  8
7
100
AcDbLine
 10
1.735970949232867
 20
6.78015657307317
 30
0.0
 11
1.766156515965151
 21
6.793280732521989
 31
0.0
  0
LINE
  5
39C3
330
1E
100
AcDbEntity
  8
7
100
AcDbLine
 10
1.766156515965151
 20
6.793280732521989
 30
0.0
 11
1.787155171083261
 21
6.818216635474745
 31
0.0
  0
LINE
  5
39C4
330
1E
100
AcDbEntity
  8
7
100
AcDbLine
 10
1.787155171083261
 20
6.818216635474745
 30
0.0
 11
1.797654498642316
 21
6.848402202207028
 31
0.0
  0
LINE
  5
39C5
330
1E
100
AcDbEntity
  8
7
100
AcDbLine
 10
1.797654498642316
 20
6.848402202207028
 30
0.0
 11
1.79371725080767
 21
6.879900184884194
 31
0.0
  0
LINE
  5
39C6
330
1E
100
AcDbEntity
  8
7
100
AcDbLine
 10
1.79371725080767
 20
6.879900184884194
 30
0.0
 11
1.777968259469087
 21
6.907460919726712
 31
0.0
  0
LINE
  5
39C7
330
1E
100
AcDbEntity
  8
7
100
AcDbLine
 10
1.777968259469087
 20
6.907460919726712
 30
0.0
 11
1.75171994057145
 21
6.927147158899941
 31
0.0
  0
LINE
  5
39C8
330
1E
100
AcDbEntity
  8
7
100
AcDbLine
 10
1.75171994057145
 20
6.927147158899941
 30
0.0
 11
1.720221957894284
 21
6.93370923862435
 31
0.0
  0
LINE
  5
39C9
330
1E
100
AcDbEntity
  8
7
100
AcDbLine
 10
1.59947969096515
 20
6.93370923862435
 30
0.0
 11
1.567981708287985
 21
6.927147158899941
 31
0.0
  0
LINE
  5
39CA
330
1E
100
AcDbEntity
  8
7
100
AcDbLine
 10
1.567981708287985
 20
6.927147158899941
 30
0.0
 11
1.541733389390347
 21
6.907460919726712
 31
0.0
  0
LINE
  5
39CC
330
1E
100
AcDbEntity
  8
7
100
AcDbLine
 10
1.525984398051764
 20
6.879900184884194
 30
0.0
 11
1.522047150217119
 21
6.848402202207028
 31
0.0
  0
LINE
  5
39CD
330
1E
100
AcDbEntity
  8
7
100
AcDbLine
 10
1.522047150217119
 20
6.848402202207028
 30
0.0
 11
1.532546477776174
 21
6.818216635474745
 31
0.0
  0
LINE
  5
39CE
330
1E
100
AcDbEntity
  8
7
100
AcDbLine
 10
1.532546477776174
 20
6.818216635474745
 30
0.0
 11
1.553545132894284
 21
6.793280732521989
 31
0.0
  0
LINE
  5
39CF
330
1E
100
AcDbEntity
  8
7
100
AcDbLine
 10
1.553545132894284
 20
6.793280732521989
 30
0.0
 11
1.583730699626568
 21
6.78015657307317
 31
0.0
  0
LINE
  5
39D0
330
1E
100
AcDbEntity
  8
7
100
AcDbLine
 10
1.59947969096515
 20
7.005892115592855
 30
0.0
 11
1.558794796673812
 21
7.000642451813327
 31
0.0
  0
LINE
  5
39D1
330
1E
100
AcDbEntity
  8
7
100
AcDbLine
 10
1.558794796673812
 20
7.000642451813327
 30
0.0
 11
1.520734734272237
 21
6.983581044529863
 31
0.0
  0
LINE
  5
39D2
330
1E
100
AcDbEntity
  8
7
100
AcDbLine
 10
1.520734734272237
 20
6.983581044529863
 30
0.0
 11
1.489236751595071
 21
6.957332725632225
 31
0.0
  0
LINE
  5
39D3
330
1E
100
AcDbEntity
  8
7
100
AcDbLine
 10
1.489236751595071
 20
6.957332725632225
 30
0.0
 11
1.465613264587197
 21
6.923209911065296
 31
0.0
  0
LINE
  5
39D4
330
1E
100
AcDbEntity
  8
7
100
AcDbLine
 10
1.465613264587197
 20
6.923209911065296
 30
0.0
 11
1.452489105138378
 21
6.885149848663721
 31
0.0
  0
LINE
  5
39D5
330
1E
100
AcDbEntity
  8
7
100
AcDbLine
 10
1.452489105138378
 20
6.885149848663721
 30
0.0
 11
1.449864273248615
 21
6.843152538427501
 31
0.0
  0
LINE
  5
39D6
330
1E
100
AcDbEntity
  8
7
100
AcDbLine
 10
1.449864273248615
 20
6.843152538427501
 30
0.0
 11
1.459051184862788
 21
6.803780060081043
 31
0.0
  0
LINE
  5
39D7
330
1E
100
AcDbEntity
  8
7
100
AcDbLine
 10
1.459051184862788
 20
6.803780060081043
 30
0.0
 11
1.478737424036016
 21
6.767032413624351
 31
0.0
  0
LINE
  5
39D8
330
1E
100
AcDbEntity
  8
7
100
AcDbLine
 10
1.478737424036016
 20
6.767032413624351
 30
0.0
 11
1.507610574823418
 21
6.738159262836949
 31
0.0
  0
LINE
  5
39D9
330
1E
100
AcDbEntity
  8
7
100
AcDbLine
 10
1.507610574823418
 20
6.738159262836949
 30
0.0
 11
1.543045805335229
 21
6.71716060771884
 31
0.0
  0
LINE
  5
39DA
330
1E
100
AcDbEntity
  8
7
100
AcDbLine
 10
1.543045805335229
 20
6.71716060771884
 30
0.0
 11
1.583730699626568
 21
6.707973696104666
 31
0.0
  0
LINE
  5
39DB
330
1E
100
AcDbEntity
  8
7
100
AcDbLine
 10
0.7726576456895602
 20
6.651539810474744
 30
0.0
 11
0.7726576456895602
 21
6.650227394529864
 31
0.0
  0
LINE
  5
39DC
330
1E
100
AcDbEntity
  8
7
100
AcDbLine
 10
0.7726576456895602
 20
6.650227394529864
 30
0.0
 11
0.7319727513982217
 21
6.650227394529864
 31
0.0
  0
LINE
  5
39DD
330
1E
100
AcDbEntity
  8
7
100
AcDbLine
 10
2.091635670295859
 20
6.551796198663721
 30
0.0
 11
2.091635670295859
 21
6.549171366773957
 31
0.0
  0
LINE
  5
39DE
330
1E
100
AcDbEntity
  8
7
100
AcDbLine
 10
2.091635670295859
 20
6.549171366773957
 30
0.0
 11
2.091635670295859
 21
6.543921702994429
 31
0.0
  0
LINE
  5
39DF
330
1E
100
AcDbEntity
  8
7
100
AcDbLine
 10
2.083761174626568
 20
6.559670694333012
 30
0.0
 11
2.081136342736804
 21
6.559670694333012
 31
0.0
  0
LINE
  5
39E0
330
1E
100
AcDbEntity
  8
7
100
AcDbLine
 10
2.081136342736804
 20
6.559670694333012
 30
0.0
 11
2.075886678957277
 21
6.559670694333012
 31
0.0
  0
LINE
  5
39E1
330
1E
100
AcDbEntity
  8
7
100
AcDbLine
 10
2.083761174626568
 20
6.589856261065295
 30
0.0
 11
2.081136342736804
 21
6.589856261065295
 31
0.0
  0
LINE
  5
39E2
330
1E
100
AcDbEntity
  8
7
100
AcDbLine
 10
2.081136342736804
 20
6.589856261065295
 30
0.0
 11
2.075886678957277
 21
6.589856261065295
 31
0.0
  0
LINE
  5
39E3
330
1E
100
AcDbEntity
  8
7
100
AcDbLine
 10
2.091635670295859
 20
6.597730756734588
 30
0.0
 11
2.091635670295859
 21
6.600355588624351
 31
0.0
  0
LINE
  5
39E4
330
1E
100
AcDbEntity
  8
7
100
AcDbLine
 10
2.091635670295859
 20
6.600355588624351
 30
0.0
 11
2.091635670295859
 21
6.605605252403878
 31
0.0
  0
LINE
  5
39E5
330
1E
100
AcDbEntity
  8
7
100
AcDbLine
 10
2.338369867933654
 20
6.597730756734588
 30
0.0
 11
2.338369867933654
 21
6.600355588624351
 31
0.0
  0
LINE
  5
39E6
330
1E
100
AcDbEntity
  8
7
100
AcDbLine
 10
2.338369867933654
 20
6.600355588624351
 30
0.0
 11
2.338369867933654
 21
6.605605252403878
 31
0.0
  0
LINE
  5
39E7
330
1E
100
AcDbEntity
  8
7
100
AcDbLine
 10
2.354118859272237
 20
6.559670694333012
 30
0.0
 11
2.348869195492709
 21
6.559670694333012
 31
0.0
  0
LINE
  5
39E8
330
1E
100
AcDbEntity
  8
7
100
AcDbLine
 10
2.348869195492709
 20
6.559670694333012
 30
0.0
 11
2.346244363602945
 21
6.559670694333012
 31
0.0
  0
LINE
  5
39E9
330
1E
100
AcDbEntity
  8
7
100
AcDbLine
 10
2.338369867933654
 20
6.543921702994429
 30
0.0
 11
2.338369867933654
 21
6.549171366773957
 31
0.0
  0
LINE
  5
39EA
330
1E
100
AcDbEntity
  8
7
100
AcDbLine
 10
2.338369867933654
 20
6.549171366773957
 30
0.0
 11
2.338369867933654
 21
6.551796198663721
 31
0.0
  0
LINE
  5
39EB
330
1E
100
AcDbEntity
  8
7
100
AcDbLine
 10
2.337057451988772
 20
6.592481092955059
 30
0.0
 11
2.338369867933654
 21
6.597730756734588
 31
0.0
  0
LINE
  5
39EC
330
1E
100
AcDbEntity
  8
7
100
AcDbLine
 10
2.338369867933654
 20
6.597730756734588
 30
0.0
 11
2.091635670295859
 21
6.597730756734588
 31
0.0
  0
LINE
  5
39ED
330
1E
100
AcDbEntity
  8
7
100
AcDbLine
 10
2.085073590571449
 20
6.584606597285768
 30
0.0
 11
2.083761174626568
 21
6.589856261065295
 31
0.0
  0
LINE
  5
39EE
330
1E
100
AcDbEntity
  8
7
100
AcDbLine
 10
2.083761174626568
 20
6.589856261065295
 30
0.0
 11
2.083761174626568
 21
6.559670694333012
 31
0.0
  0
LINE
  5
39EF
330
1E
100
AcDbEntity
  8
7
100
AcDbLine
 10
2.083761174626568
 20
6.559670694333012
 30
0.0
 11
2.085073590571449
 21
6.560983110277895
 31
0.0
  0
LINE
  5
39F0
330
1E
100
AcDbEntity
  8
7
100
AcDbLine
 10
2.344931947658064
 20
6.560983110277895
 30
0.0
 11
2.346244363602945
 21
6.559670694333012
 31
0.0
  0
LINE
  5
39F1
330
1E
100
AcDbEntity
  8
7
100
AcDbLine
 10
2.346244363602945
 20
6.559670694333012
 30
0.0
 11
2.346244363602945
 21
6.589856261065295
 31
0.0
  0
LINE
  5
39F2
330
1E
100
AcDbEntity
  8
7
100
AcDbLine
 10
2.346244363602945
 20
6.589856261065295
 30
0.0
 11
2.344931947658064
 21
6.584606597285768
 31
0.0
  0
LINE
  5
39F3
330
1E
100
AcDbEntity
  8
7
100
AcDbLine
 10
2.337057451988772
 20
6.551796198663721
 30
0.0
 11
2.338369867933654
 21
6.551796198663721
 31
0.0
  0
LINE
  5
39F4
330
1E
100
AcDbEntity
  8
7
100
AcDbLine
 10
2.338369867933654
 20
6.551796198663721
 30
0.0
 11
2.337057451988772
 21
6.551796198663721
 31
0.0
  0
LINE
  5
39F5
330
1E
100
AcDbEntity
  8
7
100
AcDbLine
 10
0.7319727513982217
 20
7.062326001222777
 30
0.0
 11
0.7319727513982217
 21
7.061013585277894
 31
0.0
  0
LINE
  5
39F6
330
1E
100
AcDbEntity
  8
7
100
AcDbLine
 10
0.7319727513982217
 20
7.061013585277894
 30
0.0
 11
0.7726576456895602
 21
7.061013585277894
 31
0.0
  0
LINE
  5
39F7
330
1E
100
AcDbEntity
  8
7
100
AcDbLine
 10
2.649412446870662
 20
6.610854916183406
 30
0.0
 11
2.665161438209245
 21
6.614792164018052
 31
0.0
  0
LINE
  5
39F8
330
1E
100
AcDbEntity
  8
7
100
AcDbLine
 10
2.665161438209245
 20
6.614792164018052
 30
0.0
 11
2.6756607657683
 21
6.625291491577106
 31
0.0
  0
LINE
  5
39F9
330
1E
100
AcDbEntity
  8
7
100
AcDbLine
 10
2.6756607657683
 20
6.625291491577106
 30
0.0
 11
2.679598013602945
 21
6.641040482915689
 31
0.0
  0
LINE
  5
39FA
330
1E
100
AcDbEntity
  8
7
100
AcDbLine
 10
0.7227858397840486
 20
6.659414306144037
 30
0.0
 11
0.7254106716738118
 21
6.652852226419626
 31
0.0
  0
LINE
  5
39FB
330
1E
100
AcDbEntity
  8
7
100
AcDbLine
 10
0.7254106716738118
 20
6.652852226419626
 30
0.0
 11
0.7319727513982217
 21
6.650227394529864
 31
0.0
  0
LINE
  5
39FC
330
1E
100
AcDbEntity
  8
7
100
AcDbLine
 10
0.6401036352564891
 20
6.641040482915689
 30
0.0
 11
0.6440408830911349
 21
6.625291491577106
 31
0.0
  0
LINE
  5
39FD
330
1E
100
AcDbEntity
  8
7
100
AcDbLine
 10
0.6440408830911349
 20
6.625291491577106
 30
0.0
 11
0.6545402106501906
 21
6.614792164018052
 31
0.0
  0
LINE
  5
39FE
330
1E
100
AcDbEntity
  8
7
100
AcDbLine
 10
0.6545402106501906
 20
6.614792164018052
 30
0.0
 11
0.6702892019887728
 21
6.610854916183406
 31
0.0
  0
LINE
  5
39FF
330
1E
100
AcDbEntity
  8
7
100
AcDbLine
 10
0.6702892019887728
 20
7.101698479569233
 30
0.0
 11
0.6545402106501906
 21
7.097761231734588
 31
0.0
  0
LINE
  5
3A00
330
1E
100
AcDbEntity
  8
7
100
AcDbLine
 10
0.6545402106501906
 20
7.097761231734588
 30
0.0
 11
0.6440408830911349
 21
7.085949488230651
 31
0.0
  0
LINE
  5
3A01
330
1E
100
AcDbEntity
  8
7
100
AcDbLine
 10
0.6440408830911349
 20
7.085949488230651
 30
0.0
 11
0.6401036352564891
 21
7.07151291283695
 31
0.0
  0
LINE
  5
3A02
330
1E
100
AcDbEntity
  8
7
100
AcDbLine
 10
2.679598013602945
 20
7.07151291283695
 30
0.0
 11
2.6756607657683
 21
7.085949488230651
 31
0.0
  0
LINE
  5
3A03
330
1E
100
AcDbEntity
  8
7
100
AcDbLine
 10
2.6756607657683
 20
7.085949488230651
 30
0.0
 11
2.665161438209245
 21
7.097761231734588
 31
0.0
  0
LINE
  5
3A04
330
1E
100
AcDbEntity
  8
7
100
AcDbLine
 10
2.665161438209245
 20
7.097761231734588
 30
0.0
 11
2.649412446870662
 21
7.101698479569233
 31
0.0
  0
LINE
  5
3A05
330
1E
100
AcDbEntity
  8
7
100
AcDbLine
 10
0.6702892019887728
 20
7.101698479569233
 30
0.0
 11
2.649412446870662
 21
7.101698479569233
 31
0.0
  0
LINE
  5
3A06
330
1E
100
AcDbEntity
  8
7
100
AcDbLine
 10
2.649412446870662
 20
7.101698479569233
 30
0.0
 11
2.650724862815544
 21
7.101698479569233
 31
0.0
  0
LINE
  5
3A07
330
1E
100
AcDbEntity
  8
7
100
AcDbLine
 10
3.007701999823418
 20
7.467862528191281
 30
0.0
 11
3.022138575217119
 21
7.463925280356635
 31
0.0
  0
LINE
  5
3A08
330
1E
100
AcDbEntity
  8
7
100
AcDbLine
 10
3.022138575217119
 20
7.463925280356635
 30
0.0
 11
3.033950318721056
 21
7.453425952797579
 31
0.0
  0
LINE
  5
3A09
330
1E
100
AcDbEntity
  8
7
100
AcDbLine
 10
0.2818140823037334
 20
7.438989377403878
 30
0.0
 11
0.2857513301383792
 21
7.453425952797579
 31
0.0
  0
LINE
  5
3A0A
330
1E
100
AcDbEntity
  8
7
100
AcDbLine
 10
0.2857513301383792
 20
7.453425952797579
 30
0.0
 11
0.296250657697434
 21
7.463925280356635
 31
0.0
  0
LINE
  5
3A0B
330
1E
100
AcDbEntity
  8
7
100
AcDbLine
 10
0.296250657697434
 20
7.463925280356635
 30
0.0
 11
0.3119996490360171
 21
7.467862528191281
 31
0.0
  0
LINE
  5
3A0C
330
1E
100
AcDbEntity
  8
7
100
AcDbLine
 10
0.3119996490360171
 20
2.962338589411753
 30
0.0
 11
0.296250657697434
 21
2.966275837246398
 31
0.0
  0
LINE
  5
3A0D
330
1E
100
AcDbEntity
  8
7
100
AcDbLine
 10
0.296250657697434
 20
2.966275837246398
 30
0.0
 11
0.2857513301383792
 21
2.976775164805453
 31
0.0
  0
LINE
  5
3A0E
330
1E
100
AcDbEntity
  8
7
100
AcDbLine
 10
0.2857513301383792
 20
2.976775164805453
 30
0.0
 11
0.2818140823037334
 21
2.992524156144036
 31
0.0
  0
LINE
  5
3A0F
330
1E
100
AcDbEntity
  8
7
100
AcDbLine
 10
3.037887566555701
 20
2.992524156144036
 30
0.0
 11
3.033950318721056
 21
2.976775164805453
 31
0.0
  0
LINE
  5
3A10
330
1E
100
AcDbEntity
  8
7
100
AcDbLine
 10
3.033950318721056
 20
2.976775164805453
 30
0.0
 11
3.022138575217119
 21
2.966275837246398
 31
0.0
  0
LINE
  5
3A11
330
1E
100
AcDbEntity
  8
7
100
AcDbLine
 10
3.022138575217119
 20
2.966275837246398
 30
0.0
 11
3.007701999823418
 21
2.962338589411753
 31
0.0
  0
LINE
  5
3A12
330
1E
100
AcDbEntity
  8
7
100
AcDbLine
 10
2.417114824626568
 20
3.887591830553486
 30
0.0
 11
2.418427240571449
 21
3.887591830553486
 31
0.0
  0
LINE
  5
3A13
330
1E
100
AcDbEntity
  8
7
100
AcDbLine
 10
2.418427240571449
 20
3.887591830553486
 30
0.0
 11
2.428926568130505
 21
3.882342166773958
 31
0.0
  0
LINE
  5
3A14
330
1E
100
AcDbEntity
  8
7
100
AcDbLine
 10
2.428926568130505
 20
3.882342166773958
 30
0.0
 11
2.434176231910032
 21
3.87053042327002
 31
0.0
  0
LINE
  5
3A15
330
1E
100
AcDbEntity
  8
7
100
AcDbLine
 10
2.434176231910032
 20
3.87053042327002
 30
0.0
 11
2.434176231910032
 21
3.841657272482619
 31
0.0
  0
LINE
  5
3A16
330
1E
100
AcDbEntity
  8
7
100
AcDbLine
 10
2.434176231910032
 20
3.841657272482619
 30
0.0
 11
2.428926568130505
 21
3.829845528978681
 31
0.0
  0
LINE
  5
3A17
330
1E
100
AcDbEntity
  8
7
100
AcDbLine
 10
2.428926568130505
 20
3.829845528978681
 30
0.0
 11
2.418427240571449
 21
3.824595865199154
 31
0.0
  0
LINE
  5
3A18
330
1E
100
AcDbEntity
  8
7
100
AcDbLine
 10
2.418427240571449
 20
3.824595865199154
 30
0.0
 11
2.171693042933654
 21
3.824595865199154
 31
0.0
  0
LINE
  5
3A19
330
1E
100
AcDbEntity
  8
7
100
AcDbLine
 10
2.171693042933654
 20
3.824595865199154
 30
0.0
 11
2.159881299429717
 21
3.829845528978681
 31
0.0
  0
LINE
  5
3A1A
330
1E
100
AcDbEntity
  8
7
100
AcDbLine
 10
2.159881299429717
 20
3.829845528978681
 30
0.0
 11
2.15463163565019
 21
3.841657272482619
 31
0.0
  0
LINE
  5
3A1B
330
1E
100
AcDbEntity
  8
7
100
AcDbLine
 10
2.15463163565019
 20
3.841657272482619
 30
0.0
 11
2.15463163565019
 21
3.87053042327002
 31
0.0
  0
LINE
  5
3A1C
330
1E
100
AcDbEntity
  8
7
100
AcDbLine
 10
2.15463163565019
 20
3.87053042327002
 30
0.0
 11
2.159881299429717
 21
3.882342166773958
 31
0.0
  0
LINE
  5
3A1D
330
1E
100
AcDbEntity
  8
7
100
AcDbLine
 10
2.159881299429717
 20
3.882342166773958
 30
0.0
 11
2.171693042933654
 21
3.887591830553486
 31
0.0
  0
LINE
  5
3A1E
330
1E
100
AcDbEntity
  8
7
100
AcDbLine
 10
1.146696189980898
 20
3.887591830553486
 30
0.0
 11
1.14800860592578
 21
3.887591830553486
 31
0.0
  0
LINE
  5
3A1F
330
1E
100
AcDbEntity
  8
7
100
AcDbLine
 10
1.14800860592578
 20
3.887591830553486
 30
0.0
 11
1.159820349429717
 21
3.882342166773958
 31
0.0
  0
LINE
  5
3A20
330
1E
100
AcDbEntity
  8
7
100
AcDbLine
 10
1.159820349429717
 20
3.882342166773958
 30
0.0
 11
1.163757597264362
 21
3.87053042327002
 31
0.0
  0
LINE
  5
3A21
330
1E
100
AcDbEntity
  8
7
100
AcDbLine
 10
1.163757597264362
 20
3.87053042327002
 30
0.0
 11
1.163757597264362
 21
3.841657272482619
 31
0.0
  0
LINE
  5
3A22
330
1E
100
AcDbEntity
  8
7
100
AcDbLine
 10
1.163757597264362
 20
3.841657272482619
 30
0.0
 11
1.159820349429717
 21
3.829845528978681
 31
0.0
  0
LINE
  5
3A23
330
1E
100
AcDbEntity
  8
7
100
AcDbLine
 10
1.159820349429717
 20
3.829845528978681
 30
0.0
 11
1.14800860592578
 21
3.824595865199154
 31
0.0
  0
LINE
  5
3A24
330
1E
100
AcDbEntity
  8
7
100
AcDbLine
 10
1.14800860592578
 20
3.824595865199154
 30
0.0
 11
0.9012744082879855
 21
3.824595865199154
 31
0.0
  0
LINE
  5
3A25
330
1E
100
AcDbEntity
  8
7
100
AcDbLine
 10
0.9012744082879855
 20
3.824595865199154
 30
0.0
 11
0.8894626647840482
 21
3.829845528978681
 31
0.0
  0
LINE
  5
3A26
330
1E
100
AcDbEntity
  8
7
100
AcDbLine
 10
0.8894626647840482
 20
3.829845528978681
 30
0.0
 11
0.8855254169494033
 21
3.841657272482619
 31
0.0
  0
LINE
  5
3A27
330
1E
100
AcDbEntity
  8
7
100
AcDbLine
 10
0.8855254169494033
 20
3.841657272482619
 30
0.0
 11
0.8855254169494033
 21
3.87053042327002
 31
0.0
  0
LINE
  5
3A28
330
1E
100
AcDbEntity
  8
7
100
AcDbLine
 10
0.8855254169494033
 20
3.87053042327002
 30
0.0
 11
0.8894626647840482
 21
3.882342166773958
 31
0.0
  0
LINE
  5
3A29
330
1E
100
AcDbEntity
  8
7
100
AcDbLine
 10
0.8894626647840482
 20
3.882342166773958
 30
0.0
 11
0.9012744082879855
 21
3.887591830553486
 31
0.0
  0
LINE
  5
3A2A
330
1E
100
AcDbEntity
  8
7
100
AcDbLine
 10
0.6689767860438911
 20
3.3285026380338
 30
0.0
 11
0.6545402106501906
 21
3.332439885868446
 31
0.0
  0
LINE
  5
3A2B
330
1E
100
AcDbEntity
  8
7
100
AcDbLine
 10
0.6545402106501906
 20
3.332439885868446
 30
0.0
 11
0.6427284671462532
 21
3.344251629372382
 31
0.0
  0
LINE
  5
3A2C
330
1E
100
AcDbEntity
  8
7
100
AcDbLine
 10
0.6427284671462532
 20
3.344251629372382
 30
0.0
 11
0.6387912193116075
 21
3.358688204766083
 31
0.0
  0
LINE
  5
3A2D
330
1E
100
AcDbEntity
  8
7
100
AcDbLine
 10
0.6387912193116075
 20
3.358688204766083
 30
0.0
 11
0.6387912193116075
 21
3.790473050632225
 31
0.0
  0
LINE
  5
3A2E
330
1E
100
AcDbEntity
  8
7
100
AcDbLine
 10
0.6387912193116075
 20
3.790473050632225
 30
0.0
 11
0.6427284671462532
 21
3.806222041970808
 31
0.0
  0
LINE
  5
3A2F
330
1E
100
AcDbEntity
  8
7
100
AcDbLine
 10
0.6427284671462532
 20
3.806222041970808
 30
0.0
 11
0.6545402106501906
 21
3.816721369529863
 31
0.0
  0
LINE
  5
3A30
330
1E
100
AcDbEntity
  8
7
100
AcDbLine
 10
0.6545402106501906
 20
3.816721369529863
 30
0.0
 11
0.6689767860438911
 21
3.820658617364509
 31
0.0
  0
LINE
  5
3A31
330
1E
100
AcDbEntity
  8
7
100
AcDbLine
 10
0.6689767860438911
 20
3.820658617364509
 30
0.0
 11
1.579793451791922
 21
3.820658617364509
 31
0.0
  0
LINE
  5
3A32
330
1E
100
AcDbEntity
  8
7
100
AcDbLine
 10
1.579793451791922
 20
3.820658617364509
 30
0.0
 11
1.579793451791922
 21
3.842969688427501
 31
0.0
  0
LINE
  5
3A33
330
1E
100
AcDbEntity
  8
7
100
AcDbLine
 10
2.6756607657683
 20
3.344251629372382
 30
0.0
 11
2.665161438209245
 21
3.332439885868446
 31
0.0
  0
LINE
  5
3A34
330
1E
100
AcDbEntity
  8
7
100
AcDbLine
 10
2.665161438209245
 20
3.332439885868446
 30
0.0
 11
2.650724862815544
 21
3.3285026380338
 31
0.0
  0
LINE
  5
3A35
330
1E
100
AcDbEntity
  8
7
100
AcDbLine
 10
1.739908197067513
 20
3.842969688427501
 30
0.0
 11
1.739908197067513
 21
3.820658617364509
 31
0.0
  0
LINE
  5
3A36
330
1E
100
AcDbEntity
  8
7
100
AcDbLine
 10
1.739908197067513
 20
3.820658617364509
 30
0.0
 11
2.650724862815544
 21
3.820658617364509
 31
0.0
  0
LINE
  5
3A37
330
1E
100
AcDbEntity
  8
7
100
AcDbLine
 10
2.650724862815544
 20
3.820658617364509
 30
0.0
 11
2.665161438209245
 21
3.816721369529863
 31
0.0
  0
LINE
  5
3A38
330
1E
100
AcDbEntity
  8
7
100
AcDbLine
 10
2.665161438209245
 20
3.816721369529863
 30
0.0
 11
2.6756607657683
 21
3.806222041970808
 31
0.0
  0
LINE
  5
3A39
330
1E
100
AcDbEntity
  8
7
100
AcDbLine
 10
2.6756607657683
 20
3.806222041970808
 30
0.0
 11
2.680910429547827
 21
3.790473050632225
 31
0.0
  0
LINE
  5
3A3A
330
1E
100
AcDbEntity
  8
7
100
AcDbLine
 10
2.680910429547827
 20
3.790473050632225
 30
0.0
 11
2.680910429547827
 21
3.358688204766083
 31
0.0
  0
LINE
  5
3A3B
330
1E
100
AcDbEntity
  8
7
100
AcDbLine
 10
2.680910429547827
 20
3.358688204766083
 30
0.0
 11
2.6756607657683
 21
3.344251629372382
 31
0.0
  0
LINE
  5
3A3C
330
1E
100
AcDbEntity
  8
7
100
AcDbLine
 10
0.9813317809257808
 20
6.605605252403878
 30
0.0
 11
1.228065978563575
 21
6.605605252403878
 31
0.0
  0
LINE
  5
3A3D
330
1E
100
AcDbEntity
  8
7
100
AcDbLine
 10
1.228065978563575
 20
6.605605252403878
 30
0.0
 11
1.239877722067513
 21
6.600355588624351
 31
0.0
  0
LINE
  5
3A3E
330
1E
100
AcDbEntity
  8
7
100
AcDbLine
 10
1.239877722067513
 20
6.600355588624351
 30
0.0
 11
1.243814969902158
 21
6.589856261065295
 31
0.0
  0
LINE
  5
3A3F
330
1E
100
AcDbEntity
  8
7
100
AcDbLine
 10
1.243814969902158
 20
6.589856261065295
 30
0.0
 11
1.243814969902158
 21
6.559670694333012
 31
0.0
  0
LINE
  5
3A40
330
1E
100
AcDbEntity
  8
7
100
AcDbLine
 10
1.243814969902158
 20
6.559670694333012
 30
0.0
 11
1.239877722067513
 21
6.547858950829075
 31
0.0
  0
LINE
  5
3A41
330
1E
100
AcDbEntity
  8
7
100
AcDbLine
 10
1.239877722067513
 20
6.547858950829075
 30
0.0
 11
1.228065978563575
 21
6.543921702994429
 31
0.0
  0
LINE
  5
3A42
330
1E
100
AcDbEntity
  8
7
100
AcDbLine
 10
0.9826441968706625
 20
6.543921702994429
 30
0.0
 11
0.9813317809257808
 21
6.543921702994429
 31
0.0
  0
LINE
  5
3A43
330
1E
100
AcDbEntity
  8
7
100
AcDbLine
 10
0.9813317809257808
 20
6.543921702994429
 30
0.0
 11
0.9695200374218435
 21
6.547858950829075
 31
0.0
  0
LINE
  5
3A44
330
1E
100
AcDbEntity
  8
7
100
AcDbLine
 10
0.9695200374218435
 20
6.547858950829075
 30
0.0
 11
0.9655827895871977
 21
6.559670694333012
 31
0.0
  0
LINE
  5
3A45
330
1E
100
AcDbEntity
  8
7
100
AcDbLine
 10
0.9655827895871977
 20
6.559670694333012
 30
0.0
 11
0.9655827895871977
 21
6.589856261065295
 31
0.0
  0
LINE
  5
3A46
330
1E
100
AcDbEntity
  8
7
100
AcDbLine
 10
0.9655827895871977
 20
6.589856261065295
 30
0.0
 11
0.9695200374218435
 21
6.600355588624351
 31
0.0
  0
LINE
  5
3A47
330
1E
100
AcDbEntity
  8
7
100
AcDbLine
 10
0.9695200374218435
 20
6.600355588624351
 30
0.0
 11
0.9813317809257808
 21
6.605605252403878
 31
0.0
  0
LINE
  5
3A48
330
1E
100
AcDbEntity
  8
7
100
AcDbLine
 10
2.091635670295859
 20
6.605605252403878
 30
0.0
 11
2.338369867933654
 21
6.605605252403878
 31
0.0
  0
LINE
  5
3A49
330
1E
100
AcDbEntity
  8
7
100
AcDbLine
 10
2.338369867933654
 20
6.605605252403878
 30
0.0
 11
2.350181611437591
 21
6.600355588624351
 31
0.0
  0
LINE
  5
3A4A
330
1E
100
AcDbEntity
  8
7
100
AcDbLine
 10
2.350181611437591
 20
6.600355588624351
 30
0.0
 11
2.354118859272237
 21
6.589856261065295
 31
0.0
  0
LINE
  5
3A4B
330
1E
100
AcDbEntity
  8
7
100
AcDbLine
 10
2.354118859272237
 20
6.589856261065295
 30
0.0
 11
2.354118859272237
 21
6.559670694333012
 31
0.0
  0
LINE
  5
3A4C
330
1E
100
AcDbEntity
  8
7
100
AcDbLine
 10
2.354118859272237
 20
6.559670694333012
 30
0.0
 11
2.350181611437591
 21
6.547858950829075
 31
0.0
  0
LINE
  5
3A4D
330
1E
100
AcDbEntity
  8
7
100
AcDbLine
 10
2.350181611437591
 20
6.547858950829075
 30
0.0
 11
2.338369867933654
 21
6.543921702994429
 31
0.0
  0
LINE
  5
3A4E
330
1E
100
AcDbEntity
  8
7
100
AcDbLine
 10
2.338369867933654
 20
6.543921702994429
 30
0.0
 11
2.337057451988772
 21
6.543921702994429
 31
0.0
  0
LINE
  5
3A4F
330
1E
100
AcDbEntity
  8
7
100
AcDbLine
 10
2.091635670295859
 20
6.543921702994429
 30
0.0
 11
2.079823926791922
 21
6.547858950829075
 31
0.0
  0
LINE
  5
3A50
330
1E
100
AcDbEntity
  8
7
100
AcDbLine
 10
2.079823926791922
 20
6.547858950829075
 30
0.0
 11
2.075886678957277
 21
6.559670694333012
 31
0.0
  0
LINE
  5
3A51
330
1E
100
AcDbEntity
  8
7
100
AcDbLine
 10
2.075886678957277
 20
6.559670694333012
 30
0.0
 11
2.075886678957277
 21
6.589856261065295
 31
0.0
  0
LINE
  5
3A52
330
1E
100
AcDbEntity
  8
7
100
AcDbLine
 10
2.075886678957277
 20
6.589856261065295
 30
0.0
 11
2.079823926791922
 21
6.600355588624351
 31
0.0
  0
LINE
  5
3A53
330
1E
100
AcDbEntity
  8
7
100
AcDbLine
 10
2.079823926791922
 20
6.600355588624351
 30
0.0
 11
2.091635670295859
 21
6.605605252403878
 31
0.0
  0
LINE
  5
3A54
330
1E
100
AcDbEntity
  8
7
100
AcDbLine
 10
2.680910429547827
 20
6.639728066970808
 30
0.0
 11
2.6756607657683
 21
6.625291491577106
 31
0.0
  0
LINE
  5
3A55
330
1E
100
AcDbEntity
  8
7
100
AcDbLine
 10
2.6756607657683
 20
6.625291491577106
 30
0.0
 11
2.665161438209245
 21
6.61347974807317
 31
0.0
  0
LINE
  5
3A56
330
1E
100
AcDbEntity
  8
7
100
AcDbLine
 10
2.665161438209245
 20
6.61347974807317
 30
0.0
 11
2.650724862815544
 21
6.609542500238524
 31
0.0
  0
LINE
  5
3A57
330
1E
100
AcDbEntity
  8
7
100
AcDbLine
 10
0.6689767860438911
 20
7.101698479569233
 30
0.0
 11
2.650724862815544
 21
7.101698479569233
 31
0.0
  0
LINE
  5
3A58
330
1E
100
AcDbEntity
  8
7
100
AcDbLine
 10
2.650724862815544
 20
7.101698479569233
 30
0.0
 11
2.665161438209245
 21
7.097761231734588
 31
0.0
  0
LINE
  5
3A59
330
1E
100
AcDbEntity
  8
7
100
AcDbLine
 10
2.665161438209245
 20
7.097761231734588
 30
0.0
 11
2.6756607657683
 21
7.087261904175532
 31
0.0
  0
LINE
  5
3A5A
330
1E
100
AcDbEntity
  8
7
100
AcDbLine
 10
2.6756607657683
 20
7.087261904175532
 30
0.0
 11
2.680910429547827
 21
7.07151291283695
 31
0.0
  0
LINE
  5
3A5B
330
1E
100
AcDbEntity
  8
7
100
AcDbLine
 10
0.6689767860438911
 20
6.609542500238524
 30
0.0
 11
0.6545402106501906
 21
6.61347974807317
 31
0.0
  0
LINE
  5
3A5C
330
1E
100
AcDbEntity
  8
7
100
AcDbLine
 10
0.6545402106501906
 20
6.61347974807317
 30
0.0
 11
0.6427284671462532
 21
6.625291491577106
 31
0.0
  0
LINE
  5
3A5D
330
1E
100
AcDbEntity
  8
7
100
AcDbLine
 10
0.6427284671462532
 20
6.625291491577106
 30
0.0
 11
0.6387912193116075
 21
6.639728066970808
 31
0.0
  0
LINE
  5
3A5E
330
1E
100
AcDbEntity
  8
7
100
AcDbLine
 10
0.6387912193116075
 20
6.639728066970808
 30
0.0
 11
0.6387912193116075
 21
7.07151291283695
 31
0.0
  0
LINE
  5
3A5F
330
1E
100
AcDbEntity
  8
7
100
AcDbLine
 10
0.6387912193116075
 20
7.07151291283695
 30
0.0
 11
0.6427284671462532
 21
7.087261904175532
 31
0.0
  0
LINE
  5
3A60
330
1E
100
AcDbEntity
  8
7
100
AcDbLine
 10
0.6427284671462532
 20
7.087261904175532
 30
0.0
 11
0.6545402106501906
 21
7.097761231734588
 31
0.0
  0
LINE
  5
3A61
330
1E
100
AcDbEntity
  8
7
100
AcDbLine
 10
0.6545402106501906
 20
7.097761231734588
 30
0.0
 11
0.6689767860438911
 21
7.101698479569233
 31
0.0
  0
LINE
  5
3A62
330
1E
100
AcDbEntity
  8
7
100
AcDbLine
 10
1.095511968130504
 20
3.837720024647973
 30
0.0
 11
1.146696189980898
 21
3.837720024647973
 31
0.0
  0
LINE
  5
3A63
330
1E
100
AcDbEntity
  8
7
100
AcDbLine
 10
1.146696189980898
 20
3.837720024647973
 30
0.0
 11
1.15457068565019
 21
3.845594520317264
 31
0.0
  0
LINE
  5
3A64
330
1E
100
AcDbEntity
  8
7
100
AcDbLine
 10
0.8947123285635756
 20
3.845594520317264
 30
0.0
 11
0.9025868242328671
 21
3.837720024647973
 31
0.0
  0
LINE
  5
3A65
330
1E
100
AcDbEntity
  8
7
100
AcDbLine
 10
0.9025868242328671
 20
3.837720024647973
 30
0.0
 11
0.9550834620281429
 21
3.837720024647973
 31
0.0
  0
LINE
  5
3A66
330
1E
100
AcDbEntity
  8
7
100
AcDbLine
 10
1.590292779350977
 20
3.818033785474744
 30
0.0
 11
1.582418283681686
 21
3.818033785474744
 31
0.0
  0
LINE
  5
3A67
330
1E
100
AcDbEntity
  8
7
100
AcDbLine
 10
1.582418283681686
 20
3.818033785474744
 30
0.0
 11
1.582418283681686
 21
3.807534457915689
 31
0.0
  0
LINE
  5
3A68
330
1E
100
AcDbEntity
  8
7
100
AcDbLine
 10
2.364618186831292
 20
3.837720024647973
 30
0.0
 11
2.417114824626568
 21
3.837720024647973
 31
0.0
  0
LINE
  5
3A69
330
1E
100
AcDbEntity
  8
7
100
AcDbLine
 10
2.417114824626568
 20
3.837720024647973
 30
0.0
 11
2.424989320295859
 21
3.845594520317264
 31
0.0
  0
LINE
  5
3A6A
330
1E
100
AcDbEntity
  8
7
100
AcDbLine
 10
2.165130963209245
 20
3.845594520317264
 30
0.0
 11
2.173005458878536
 21
3.837720024647973
 31
0.0
  0
LINE
  5
3A6B
330
1E
100
AcDbEntity
  8
7
100
AcDbLine
 10
2.173005458878536
 20
3.837720024647973
 30
0.0
 11
2.22418968072893
 21
3.837720024647973
 31
0.0
  0
LINE
  5
3A6C
330
1E
100
AcDbEntity
  8
7
100
AcDbLine
 10
1.033828418721055
 20
6.592481092955059
 30
0.0
 11
0.9826441968706625
 21
6.592481092955059
 31
0.0
  0
LINE
  5
3A6D
330
1E
100
AcDbEntity
  8
7
100
AcDbLine
 10
0.9826441968706625
 20
6.592481092955059
 30
0.0
 11
0.9747697012013709
 21
6.584606597285768
 31
0.0
  0
LINE
  5
3A6E
330
1E
100
AcDbEntity
  8
7
100
AcDbLine
 10
1.234628058287985
 20
6.584606597285768
 30
0.0
 11
1.226753562618694
 21
6.592481092955059
 31
0.0
  0
LINE
  5
3A6F
330
1E
100
AcDbEntity
  8
7
100
AcDbLine
 10
1.226753562618694
 20
6.592481092955059
 30
0.0
 11
1.1755693407683
 21
6.592481092955059
 31
0.0
  0
LINE
  5
3A70
330
1E
100
AcDbEntity
  8
7
100
AcDbLine
 10
1.729408869508457
 20
6.61347974807317
 30
0.0
 11
1.737283365177749
 21
6.61347974807317
 31
0.0
  0
LINE
  5
3A71
330
1E
100
AcDbEntity
  8
7
100
AcDbLine
 10
1.737283365177749
 20
6.61347974807317
 30
0.0
 11
1.737283365177749
 21
6.623979075632226
 31
0.0
  0
LINE
  5
3A72
330
1E
100
AcDbEntity
  8
7
100
AcDbLine
 10
1.582418283681686
 20
6.623979075632226
 30
0.0
 11
1.582418283681686
 21
6.61347974807317
 31
0.0
  0
LINE
  5
3A73
330
1E
100
AcDbEntity
  8
7
100
AcDbLine
 10
1.582418283681686
 20
6.61347974807317
 30
0.0
 11
1.590292779350977
 21
6.61347974807317
 31
0.0
  0
LINE
  5
3A74
330
1E
100
AcDbEntity
  8
7
100
AcDbLine
 10
2.144132308091135
 20
6.592481092955059
 30
0.0
 11
2.092948086240741
 21
6.592481092955059
 31
0.0
  0
LINE
  5
3A75
330
1E
100
AcDbEntity
  8
7
100
AcDbLine
 10
2.092948086240741
 20
6.592481092955059
 30
0.0
 11
2.085073590571449
 21
6.584606597285768
 31
0.0
  0
LINE
  5
3A76
330
1E
100
AcDbEntity
  8
7
100
AcDbLine
 10
2.344931947658064
 20
6.584606597285768
 30
0.0
 11
2.337057451988772
 21
6.592481092955059
 31
0.0
  0
LINE
  5
3A77
330
1E
100
AcDbEntity
  8
7
100
AcDbLine
 10
2.337057451988772
 20
6.592481092955059
 30
0.0
 11
2.284560814193497
 21
6.592481092955059
 31
0.0
  0
LINE
  5
3A78
330
1E
100
AcDbEntity
  8
7
100
AcDbLine
 10
1.739908197067513
 20
6.651539810474744
 30
0.0
 11
1.741220613012394
 21
6.650227394529864
 31
0.0
  0
LINE
  5
3A79
330
1E
100
AcDbEntity
  8
7
100
AcDbLine
 10
1.741220613012394
 20
6.650227394529864
 30
0.0
 11
2.587728897461213
 21
6.650227394529864
 31
0.0
  0
LINE
  5
3A7A
330
1E
100
AcDbEntity
  8
7
100
AcDbLine
 10
1.739908197067513
 20
6.705348864214902
 30
0.0
 11
1.739908197067513
 21
6.651539810474744
 31
0.0
  0
LINE
  5
3A7B
330
1E
100
AcDbEntity
  8
7
100
AcDbLine
 10
1.739908197067513
 20
6.651539810474744
 30
0.0
 11
2.547044003169874
 21
6.651539810474744
 31
0.0
  0
LINE
  5
3A7C
330
1E
100
AcDbEntity
  8
7
100
AcDbLine
 10
1.868524959665938
 20
6.886462264608603
 30
0.0
 11
1.854088384272237
 21
6.92583474295506
 31
0.0
  0
LINE
  5
3A7D
330
1E
100
AcDbEntity
  8
7
100
AcDbLine
 10
1.854088384272237
 20
6.92583474295506
 30
0.0
 11
1.830464897264363
 21
6.958645141577107
 31
0.0
  0
LINE
  5
3A7E
330
1E
100
AcDbEntity
  8
7
100
AcDbLine
 10
1.830464897264363
 20
6.958645141577107
 30
0.0
 11
1.798966914587198
 21
6.984893460474745
 31
0.0
  0
LINE
  5
3A7F
330
1E
100
AcDbEntity
  8
7
100
AcDbLine
 10
1.798966914587198
 20
6.984893460474745
 30
0.0
 11
1.760906852185623
 21
7.001954867758209
 31
0.0
  0
LINE
  5
3A80
330
1E
100
AcDbEntity
  8
7
100
AcDbLine
 10
1.760906852185623
 20
7.001954867758209
 30
0.0
 11
1.720221957894284
 21
7.007204531537736
 31
0.0
  0
LINE
  5
3A81
330
1E
100
AcDbEntity
  8
7
100
AcDbLine
 10
1.739908197067513
 20
6.706661280159784
 30
0.0
 11
1.779280675413969
 21
6.71716060771884
 31
0.0
  0
LINE
  5
3A82
330
1E
100
AcDbEntity
  8
7
100
AcDbLine
 10
1.779280675413969
 20
6.71716060771884
 30
0.0
 11
1.81471590592578
 21
6.738159262836949
 31
0.0
  0
LINE
  5
3A83
330
1E
100
AcDbEntity
  8
7
100
AcDbLine
 10
1.81471590592578
 20
6.738159262836949
 30
0.0
 11
1.843589056713181
 21
6.768344829569233
 31
0.0
  0
LINE
  5
3A84
330
1E
100
AcDbEntity
  8
7
100
AcDbLine
 10
1.843589056713181
 20
6.768344829569233
 30
0.0
 11
1.861962879941528
 21
6.805092476025926
 31
0.0
  0
LINE
  5
3A85
330
1E
100
AcDbEntity
  8
7
100
AcDbLine
 10
1.861962879941528
 20
6.805092476025926
 30
0.0
 11
1.871149791555701
 21
6.845777370317264
 31
0.0
  0
LINE
  5
3A86
330
1E
100
AcDbEntity
  8
7
100
AcDbLine
 10
1.871149791555701
 20
6.845777370317264
 30
0.0
 11
1.868524959665938
 21
6.886462264608603
 31
0.0
  0
LINE
  5
3A87
330
1E
100
AcDbEntity
  8
7
100
AcDbLine
 10
1.504985742933654
 20
6.738159262836949
 30
0.0
 11
1.540420973445465
 21
6.71716060771884
 31
0.0
  0
LINE
  5
3A88
330
1E
100
AcDbEntity
  8
7
100
AcDbLine
 10
1.540420973445465
 20
6.71716060771884
 30
0.0
 11
1.579793451791922
 21
6.706661280159784
 31
0.0
  0
LINE
  5
3A89
330
1E
100
AcDbEntity
  8
7
100
AcDbLine
 10
1.59947969096515
 20
7.007204531537736
 30
0.0
 11
1.558794796673812
 21
7.001954867758209
 31
0.0
  0
LINE
  5
3A8A
330
1E
100
AcDbEntity
  8
7
100
AcDbLine
 10
1.558794796673812
 20
7.001954867758209
 30
0.0
 11
1.520734734272237
 21
6.984893460474745
 31
0.0
  0
LINE
  5
3A8B
330
1E
100
AcDbEntity
  8
7
100
AcDbLine
 10
1.520734734272237
 20
6.984893460474745
 30
0.0
 11
1.489236751595071
 21
6.958645141577107
 31
0.0
  0
LINE
  5
3A8C
330
1E
100
AcDbEntity
  8
7
100
AcDbLine
 10
1.489236751595071
 20
6.958645141577107
 30
0.0
 11
1.465613264587197
 21
6.92583474295506
 31
0.0
  0
LINE
  5
3A8D
330
1E
100
AcDbEntity
  8
7
100
AcDbLine
 10
1.465613264587197
 20
6.92583474295506
 30
0.0
 11
1.451176689193497
 21
6.886462264608603
 31
0.0
  0
LINE
  5
3A8E
330
1E
100
AcDbEntity
  8
7
100
AcDbLine
 10
1.451176689193497
 20
6.886462264608603
 30
0.0
 11
1.448551857303733
 21
6.845777370317264
 31
0.0
  0
LINE
  5
3A8F
330
1E
100
AcDbEntity
  8
7
100
AcDbLine
 10
1.448551857303733
 20
6.845777370317264
 30
0.0
 11
1.457738768917906
 21
6.805092476025926
 31
0.0
  0
LINE
  5
3A90
330
1E
100
AcDbEntity
  8
7
100
AcDbLine
 10
1.457738768917906
 20
6.805092476025926
 30
0.0
 11
1.476112592146253
 21
6.768344829569233
 31
0.0
  0
LINE
  5
3A91
330
1E
100
AcDbEntity
  8
7
100
AcDbLine
 10
1.476112592146253
 20
6.768344829569233
 30
0.0
 11
1.504985742933654
 21
6.738159262836949
 31
0.0
  0
LINE
  5
3A92
330
1E
100
AcDbEntity
  8
7
100
AcDbLine
 10
0.7726576456895602
 20
6.651539810474744
 30
0.0
 11
1.579793451791922
 21
6.651539810474744
 31
0.0
  0
LINE
  5
3A93
330
1E
100
AcDbEntity
  8
7
100
AcDbLine
 10
1.579793451791922
 20
6.651539810474744
 30
0.0
 11
1.579793451791922
 21
6.705348864214902
 31
0.0
  0
LINE
  5
3A94
330
1E
100
AcDbEntity
  8
7
100
AcDbLine
 10
2.547044003169874
 20
6.650227394529864
 30
0.0
 11
2.547044003169874
 21
6.651539810474744
 31
0.0
  0
LINE
  5
3A95
330
1E
100
AcDbEntity
  8
7
100
AcDbLine
 10
2.547044003169874
 20
6.651539810474744
 30
0.0
 11
2.547044003169874
 21
7.061013585277894
 31
0.0
  0
LINE
  5
3A96
330
1E
100
AcDbEntity
  8
7
100
AcDbLine
 10
2.680910429547827
 20
7.07151291283695
 30
0.0
 11
2.679598013602945
 21
7.07151291283695
 31
0.0
  0
LINE
  5
3A97
330
1E
100
AcDbEntity
  8
7
100
AcDbLine
 10
2.679598013602945
 20
7.07151291283695
 30
0.0
 11
2.679598013602945
 21
6.641040482915689
 31
0.0
  0
LINE
  5
3A98
330
1E
100
AcDbEntity
  8
7
100
AcDbLine
 10
2.679598013602945
 20
6.641040482915689
 30
0.0
 11
2.680910429547827
 21
6.639728066970808
 31
0.0
  0
LINE
  5
3A99
330
1E
100
AcDbEntity
  8
7
100
AcDbLine
 10
2.587728897461213
 20
6.650227394529864
 30
0.0
 11
2.594290977185623
 21
6.652852226419626
 31
0.0
  0
LINE
  5
3A9A
330
1E
100
AcDbEntity
  8
7
100
AcDbLine
 10
2.594290977185623
 20
6.652852226419626
 30
0.0
 11
2.596915809075387
 21
6.659414306144037
 31
0.0
  0
LINE
  5
3A9B
330
1E
100
AcDbEntity
  8
7
100
AcDbLine
 10
2.587728897461213
 20
6.650227394529864
 30
0.0
 11
2.594290977185623
 21
6.652852226419626
 31
0.0
  0
LINE
  5
3A9C
330
1E
100
AcDbEntity
  8
7
100
AcDbLine
 10
2.594290977185623
 20
6.652852226419626
 30
0.0
 11
2.596915809075387
 21
6.659414306144037
 31
0.0
  0
LINE
  5
3A9D
330
1E
100
AcDbEntity
  8
7
100
AcDbLine
 10
2.596915809075387
 20
7.051826673663721
 30
0.0
 11
2.594290977185623
 21
7.058388753388131
 31
0.0
  0
LINE
  5
3A9E
330
1E
100
AcDbEntity
  8
7
100
AcDbLine
 10
2.594290977185623
 20
7.058388753388131
 30
0.0
 11
2.587728897461213
 21
7.061013585277894
 31
0.0
  0
LINE
  5
3A9F
330
1E
100
AcDbEntity
  8
7
100
AcDbLine
 10
2.596915809075387
 20
7.051826673663721
 30
0.0
 11
2.594290977185623
 21
7.058388753388131
 31
0.0
  0
LINE
  5
3AA0
330
1E
100
AcDbEntity
  8
7
100
AcDbLine
 10
2.594290977185623
 20
7.058388753388131
 30
0.0
 11
2.587728897461213
 21
7.061013585277894
 31
0.0
  0
LINE
  5
3AA1
330
1E
100
AcDbEntity
  8
7
100
AcDbLine
 10
3.022138575217119
 20
7.459988032521988
 30
0.0
 11
3.012951663602945
 21
7.463925280356635
 31
0.0
  0
LINE
  5
3AA2
330
1E
100
AcDbEntity
  8
7
100
AcDbLine
 10
3.012951663602945
 20
7.463925280356635
 30
0.0
 11
3.005077167933654
 21
7.465237696301516
 31
0.0
  0
LINE
  5
3AA3
330
1E
100
AcDbEntity
  8
7
100
AcDbLine
 10
3.035262734665938
 20
7.435052129569234
 30
0.0
 11
3.032637902776174
 21
7.445551457128289
 31
0.0
  0
LINE
  5
3AA4
330
1E
100
AcDbEntity
  8
7
100
AcDbLine
 10
3.032637902776174
 20
7.445551457128289
 30
0.0
 11
3.028700654941528
 21
7.453425952797579
 31
0.0
  0
LINE
  5
3AA5
330
1E
100
AcDbEntity
  8
7
100
AcDbLine
 10
3.028700654941528
 20
7.453425952797579
 30
0.0
 11
3.022138575217119
 21
7.459988032521988
 31
0.0
  0
LINE
  5
3AA6
330
1E
100
AcDbEntity
  8
7
100
AcDbLine
 10
2.913208051791922
 20
7.28018704807317
 30
0.0
 11
2.885647316949402
 21
7.315622278584982
 31
0.0
  0
LINE
  5
3AA7
330
1E
100
AcDbEntity
  8
7
100
AcDbLine
 10
2.885647316949402
 20
7.315622278584982
 30
0.0
 11
2.848899670492709
 21
7.344495429372383
 31
0.0
  0
LINE
  5
3AA8
330
1E
100
AcDbEntity
  8
7
100
AcDbLine
 10
2.091635670295859
 20
6.53735962327002
 30
0.0
 11
2.091635670295859
 21
6.563607942167658
 31
0.0
  0
LINE
  5
3AA9
330
1E
100
AcDbEntity
  8
7
100
AcDbLine
 10
2.091635670295859
 20
6.563607942167658
 30
0.0
 11
2.091635670295859
 21
6.583294181340886
 31
0.0
  0
LINE
  5
3AAA
330
1E
100
AcDbEntity
  8
7
100
AcDbLine
 10
2.091635670295859
 20
6.583294181340886
 30
0.0
 11
2.091635670295859
 21
6.591168677010179
 31
0.0
  0
LINE
  5
3AAB
330
1E
100
AcDbEntity
  8
7
100
AcDbLine
 10
2.337057451988772
 20
6.53735962327002
 30
0.0
 11
2.337057451988772
 21
6.563607942167658
 31
0.0
  0
LINE
  5
3AAC
330
1E
100
AcDbEntity
  8
7
100
AcDbLine
 10
2.337057451988772
 20
6.563607942167658
 30
0.0
 11
2.337057451988772
 21
6.583294181340886
 31
0.0
  0
LINE
  5
3AAD
330
1E
100
AcDbEntity
  8
7
100
AcDbLine
 10
2.337057451988772
 20
6.583294181340886
 30
0.0
 11
2.337057451988772
 21
6.591168677010179
 31
0.0
  0
LINE
  5
3AAE
330
1E
100
AcDbEntity
  8
7
100
AcDbLine
 10
1.590292779350977
 20
6.609542500238524
 30
0.0
 11
1.588980363406095
 21
6.601668004569233
 31
0.0
  0
LINE
  5
3AAF
330
1E
100
AcDbEntity
  8
7
100
AcDbLine
 10
1.588980363406095
 20
6.601668004569233
 30
0.0
 11
1.585043115571449
 21
6.595105924844823
 31
0.0
  0
LINE
  5
3AB0
330
1E
100
AcDbEntity
  8
7
100
AcDbLine
 10
1.733346117343103
 20
6.595105924844823
 30
0.0
 11
1.730721285453339
 21
6.602980420514115
 31
0.0
  0
LINE
  5
3AB1
330
1E
100
AcDbEntity
  8
7
100
AcDbLine
 10
1.730721285453339
 20
6.602980420514115
 30
0.0
 11
1.729408869508457
 21
6.609542500238524
 31
0.0
  0
LINE
  5
3AB2
330
1E
100
AcDbEntity
  8
7
100
AcDbLine
 10
1.590292779350977
 20
6.609542500238524
 30
0.0
 11
1.590292779350977
 21
6.638415651025926
 31
0.0
  0
LINE
  5
3AB3
330
1E
100
AcDbEntity
  8
7
100
AcDbLine
 10
1.590292779350977
 20
6.638415651025926
 30
0.0
 11
1.590292779350977
 21
6.648914978584981
 31
0.0
  0
LINE
  5
3AB4
330
1E
100
AcDbEntity
  8
7
100
AcDbLine
 10
1.590292779350977
 20
6.648914978584981
 30
0.0
 11
1.590292779350977
 21
6.654164642364509
 31
0.0
  0
LINE
  5
3AB5
330
1E
100
AcDbEntity
  8
7
100
AcDbLine
 10
1.590292779350977
 20
6.654164642364509
 30
0.0
 11
1.590292779350977
 21
6.667288801813327
 31
0.0
  0
LINE
  5
3AB6
330
1E
100
AcDbEntity
  8
7
100
AcDbLine
 10
1.729408869508457
 20
6.648914978584981
 30
0.0
 11
1.729408869508457
 21
6.654164642364509
 31
0.0
  0
LINE
  5
3AB7
330
1E
100
AcDbEntity
  8
7
100
AcDbLine
 10
1.729408869508457
 20
6.654164642364509
 30
0.0
 11
1.729408869508457
 21
6.667288801813327
 31
0.0
  0
LINE
  5
3AB8
330
1E
100
AcDbEntity
  8
7
100
AcDbLine
 10
1.728096453563575
 20
6.747346174451124
 30
0.0
 11
1.720221957894284
 21
6.768344829569233
 31
0.0
  0
LINE
  5
3AB9
330
1E
100
AcDbEntity
  8
7
100
AcDbLine
 10
1.720221957894284
 20
6.768344829569233
 30
0.0
 11
1.699223302776174
 21
6.776219325238525
 31
0.0
  0
LINE
  5
3ABA
330
1E
100
AcDbEntity
  8
7
100
AcDbLine
 10
1.619165930138378
 20
6.776219325238525
 30
0.0
 11
1.598167275020268
 21
6.768344829569233
 31
0.0
  0
LINE
  5
3ABB
330
1E
100
AcDbEntity
  8
7
100
AcDbLine
 10
1.598167275020268
 20
6.768344829569233
 30
0.0
 11
1.590292779350977
 21
6.747346174451124
 31
0.0
  0
LINE
  5
3ABC
330
1E
100
AcDbEntity
  8
7
100
AcDbLine
 10
0.9826441968706625
 20
6.53735962327002
 30
0.0
 11
0.9826441968706625
 21
6.563607942167658
 31
0.0
  0
LINE
  5
3ABD
330
1E
100
AcDbEntity
  8
7
100
AcDbLine
 10
0.9826441968706625
 20
6.563607942167658
 30
0.0
 11
0.9826441968706625
 21
6.583294181340886
 31
0.0
  0
LINE
  5
3ABE
330
1E
100
AcDbEntity
  8
7
100
AcDbLine
 10
0.9826441968706625
 20
6.583294181340886
 30
0.0
 11
0.9826441968706625
 21
6.591168677010179
 31
0.0
  0
LINE
  5
3ABF
330
1E
100
AcDbEntity
  8
7
100
AcDbLine
 10
1.226753562618694
 20
6.53735962327002
 30
0.0
 11
1.226753562618694
 21
6.563607942167658
 31
0.0
  0
LINE
  5
3AC0
330
1E
100
AcDbEntity
  8
7
100
AcDbLine
 10
1.226753562618694
 20
6.563607942167658
 30
0.0
 11
1.226753562618694
 21
6.583294181340886
 31
0.0
  0
LINE
  5
3AC1
330
1E
100
AcDbEntity
  8
7
100
AcDbLine
 10
1.226753562618694
 20
6.583294181340886
 30
0.0
 11
1.226753562618694
 21
6.591168677010179
 31
0.0
  0
LINE
  5
3AC2
330
1E
100
AcDbEntity
  8
7
100
AcDbLine
 10
2.848899670492709
 20
7.28018704807317
 30
0.0
 11
2.848899670492709
 21
7.314309862640099
 31
0.0
  0
LINE
  5
3AC3
330
1E
100
AcDbEntity
  8
7
100
AcDbLine
 10
2.848899670492709
 20
7.314309862640099
 30
0.0
 11
2.848899670492709
 21
7.344495429372383
 31
0.0
  0
LINE
  5
3AC4
330
1E
100
AcDbEntity
  8
7
100
AcDbLine
 10
0.3487472954927098
 20
7.465237696301516
 30
0.0
 11
0.4694895624218436
 21
7.344495429372383
 31
0.0
  0
LINE
  5
3AC5
330
1E
100
AcDbEntity
  8
7
100
AcDbLine
 10
0.4694895624218436
 20
7.344495429372383
 30
0.0
 11
2.848899670492709
 21
7.344495429372383
 31
0.0
  0
LINE
  5
3AC6
330
1E
100
AcDbEntity
  8
7
100
AcDbLine
 10
2.848899670492709
 20
7.344495429372383
 30
0.0
 11
2.970954353366725
 21
7.465237696301516
 31
0.0
  0
LINE
  5
3AC7
330
1E
100
AcDbEntity
  8
7
100
AcDbLine
 10
0.3146244809257812
 20
7.465237696301516
 30
0.0
 11
0.3054375693116071
 21
7.463925280356635
 31
0.0
  0
LINE
  5
3AC8
330
1E
100
AcDbEntity
  8
7
100
AcDbLine
 10
0.3054375693116071
 20
7.463925280356635
 30
0.0
 11
0.296250657697434
 21
7.458675616577107
 31
0.0
  0
LINE
  5
3AC9
330
1E
100
AcDbEntity
  8
7
100
AcDbLine
 10
0.296250657697434
 20
7.458675616577107
 30
0.0
 11
0.2896885779730249
 21
7.452113536852698
 31
0.0
  0
LINE
  5
3ACA
330
1E
100
AcDbEntity
  8
7
100
AcDbLine
 10
0.2896885779730249
 20
7.452113536852698
 30
0.0
 11
0.2857513301383792
 21
7.442926625238524
 31
0.0
  0
LINE
  5
3ACB
330
1E
100
AcDbEntity
  8
7
100
AcDbLine
 10
0.4051811811226314
 20
7.28018704807317
 30
0.0
 11
0.4340543319100325
 21
7.315622278584982
 31
0.0
  0
LINE
  5
3ACC
330
1E
100
AcDbEntity
  8
7
100
AcDbLine
 10
0.4340543319100325
 20
7.315622278584982
 30
0.0
 11
0.4694895624218436
 21
7.344495429372383
 31
0.0
  0
LINE
  5
3ACD
330
1E
100
AcDbEntity
  8
7
100
AcDbLine
 10
0.4694895624218436
 20
7.28018704807317
 30
0.0
 11
0.4694895624218436
 21
7.314309862640099
 31
0.0
  0
LINE
  5
3ACE
330
1E
100
AcDbEntity
  8
7
100
AcDbLine
 10
0.4694895624218436
 20
7.314309862640099
 30
0.0
 11
0.4694895624218436
 21
7.344495429372383
 31
0.0
  0
LINE
  5
3ACF
330
1E
100
AcDbEntity
  8
7
100
AcDbLine
 10
1.590292779350977
 20
3.684167359096791
 30
0.0
 11
1.598167275020268
 21
3.663168703978682
 31
0.0
  0
LINE
  5
3AD0
330
1E
100
AcDbEntity
  8
7
100
AcDbLine
 10
1.598167275020268
 20
3.663168703978682
 30
0.0
 11
1.619165930138378
 21
3.655294208309391
 31
0.0
  0
LINE
  5
3AD1
330
1E
100
AcDbEntity
  8
7
100
AcDbLine
 10
1.699223302776174
 20
3.655294208309391
 30
0.0
 11
1.720221957894284
 21
3.663168703978682
 31
0.0
  0
LINE
  5
3AD2
330
1E
100
AcDbEntity
  8
7
100
AcDbLine
 10
1.720221957894284
 20
3.663168703978682
 30
0.0
 11
1.728096453563575
 21
3.684167359096791
 31
0.0
  0
LINE
  5
3AD3
330
1E
100
AcDbEntity
  8
7
100
AcDbLine
 10
1.729408869508457
 20
3.781286139018051
 30
0.0
 11
1.729408869508457
 21
3.776036475238524
 31
0.0
  0
LINE
  5
3AD4
330
1E
100
AcDbEntity
  8
7
100
AcDbLine
 10
1.729408869508457
 20
3.776036475238524
 30
0.0
 11
1.729408869508457
 21
3.764224731734588
 31
0.0
  0
LINE
  5
3AD5
330
1E
100
AcDbEntity
  8
7
100
AcDbLine
 10
1.729408869508457
 20
3.764224731734588
 30
0.0
 11
1.590292779350977
 21
3.764224731734588
 31
0.0
  0
LINE
  5
3AD6
330
1E
100
AcDbEntity
  8
7
100
AcDbLine
 10
1.590292779350977
 20
3.764224731734588
 30
0.0
 11
1.590292779350977
 21
3.684167359096791
 31
0.0
  0
LINE
  5
3AD7
330
1E
100
AcDbEntity
  8
7
100
AcDbLine
 10
1.590292779350977
 20
3.781286139018051
 30
0.0
 11
1.590292779350977
 21
3.776036475238524
 31
0.0
  0
LINE
  5
3AD8
330
1E
100
AcDbEntity
  8
7
100
AcDbLine
 10
1.590292779350977
 20
3.776036475238524
 30
0.0
 11
1.590292779350977
 21
3.764224731734588
 31
0.0
  0
LINE
  5
3AD9
330
1E
100
AcDbEntity
  8
7
100
AcDbLine
 10
1.729408869508457
 20
3.820658617364509
 30
0.0
 11
1.730721285453339
 21
3.829845528978681
 31
0.0
  0
LINE
  5
3ADA
330
1E
100
AcDbEntity
  8
7
100
AcDbLine
 10
1.730721285453339
 20
3.829845528978681
 30
0.0
 11
1.733346117343103
 21
3.835095192758209
 31
0.0
  0
LINE
  5
3ADB
330
1E
100
AcDbEntity
  8
7
100
AcDbLine
 10
1.585043115571449
 20
3.835095192758209
 30
0.0
 11
1.588980363406095
 21
3.827220697088918
 31
0.0
  0
LINE
  5
3ADC
330
1E
100
AcDbEntity
  8
7
100
AcDbLine
 10
1.588980363406095
 20
3.827220697088918
 30
0.0
 11
1.590292779350977
 21
3.820658617364509
 31
0.0
  0
LINE
  5
3ADD
330
1E
100
AcDbEntity
  8
7
100
AcDbLine
 10
1.590292779350977
 20
3.820658617364509
 30
0.0
 11
1.590292779350977
 21
3.793097882521989
 31
0.0
  0
LINE
  5
3ADE
330
1E
100
AcDbEntity
  8
7
100
AcDbLine
 10
1.590292779350977
 20
3.793097882521989
 30
0.0
 11
1.590292779350977
 21
3.781286139018051
 31
0.0
  0
LINE
  5
3ADF
330
1E
100
AcDbEntity
  8
7
100
AcDbLine
 10
1.729408869508457
 20
3.820658617364509
 30
0.0
 11
1.729408869508457
 21
3.793097882521989
 31
0.0
  0
LINE
  5
3AE0
330
1E
100
AcDbEntity
  8
7
100
AcDbLine
 10
1.729408869508457
 20
3.793097882521989
 30
0.0
 11
1.729408869508457
 21
3.781286139018051
 31
0.0
  0
LINE
  5
3AE1
330
1E
100
AcDbEntity
  8
7
100
AcDbLine
 10
2.417114824626568
 20
3.894153910277895
 30
0.0
 11
2.417114824626568
 21
3.866593175435374
 31
0.0
  0
LINE
  5
3AE2
330
1E
100
AcDbEntity
  8
7
100
AcDbLine
 10
2.417114824626568
 20
3.866593175435374
 30
0.0
 11
2.417114824626568
 21
3.846906936262147
 31
0.0
  0
LINE
  5
3AE3
330
1E
100
AcDbEntity
  8
7
100
AcDbLine
 10
2.417114824626568
 20
3.846906936262147
 30
0.0
 11
2.417114824626568
 21
3.839032440592855
 31
0.0
  0
LINE
  5
3AE4
330
1E
100
AcDbEntity
  8
7
100
AcDbLine
 10
2.171693042933654
 20
3.894153910277895
 30
0.0
 11
2.171693042933654
 21
3.866593175435374
 31
0.0
  0
LINE
  5
3AE5
330
1E
100
AcDbEntity
  8
7
100
AcDbLine
 10
2.171693042933654
 20
3.866593175435374
 30
0.0
 11
2.171693042933654
 21
3.846906936262147
 31
0.0
  0
LINE
  5
3AE6
330
1E
100
AcDbEntity
  8
7
100
AcDbLine
 10
2.171693042933654
 20
3.846906936262147
 30
0.0
 11
2.171693042933654
 21
3.839032440592855
 31
0.0
  0
LINE
  5
3AE7
330
1E
100
AcDbEntity
  8
7
100
AcDbLine
 10
0.9025868242328671
 20
3.894153910277895
 30
0.0
 11
0.9025868242328671
 21
3.866593175435374
 31
0.0
  0
LINE
  5
3AE8
330
1E
100
AcDbEntity
  8
7
100
AcDbLine
 10
0.9025868242328671
 20
3.866593175435374
 30
0.0
 11
0.9025868242328671
 21
3.846906936262147
 31
0.0
  0
LINE
  5
3AE9
330
1E
100
AcDbEntity
  8
7
100
AcDbLine
 10
0.9025868242328671
 20
3.846906936262147
 30
0.0
 11
0.9025868242328671
 21
3.839032440592855
 31
0.0
  0
LINE
  5
3AEA
330
1E
100
AcDbEntity
  8
7
100
AcDbLine
 10
1.146696189980898
 20
3.894153910277895
 30
0.0
 11
1.146696189980898
 21
3.866593175435374
 31
0.0
  0
LINE
  5
3AEB
330
1E
100
AcDbEntity
  8
7
100
AcDbLine
 10
1.146696189980898
 20
3.866593175435374
 30
0.0
 11
1.146696189980898
 21
3.846906936262147
 31
0.0
  0
LINE
  5
3AEC
330
1E
100
AcDbEntity
  8
7
100
AcDbLine
 10
1.146696189980898
 20
3.846906936262147
 30
0.0
 11
1.146696189980898
 21
3.839032440592855
 31
0.0
  0
LINE
  5
3AED
330
1E
100
AcDbEntity
  8
7
100
AcDbLine
 10
0.4051811811226314
 20
7.28018704807317
 30
0.0
 11
0.4353667478549151
 21
7.28018704807317
 31
0.0
  0
LINE
  5
3AEE
330
1E
100
AcDbEntity
  8
7
100
AcDbLine
 10
0.4353667478549151
 20
7.28018704807317
 30
0.0
 11
0.4694895624218436
 21
7.28018704807317
 31
0.0
  0
LINE
  5
3AEF
330
1E
100
AcDbEntity
  8
7
100
AcDbLine
 10
0.2975630736423165
 20
2.970213085081044
 30
0.0
 11
0.3067499852564888
 21
2.966275837246398
 31
0.0
  0
LINE
  5
3AF0
330
1E
100
AcDbEntity
  8
7
100
AcDbLine
 10
0.3067499852564888
 20
2.966275837246398
 30
0.0
 11
0.3146244809257812
 21
2.964963421301517
 31
0.0
  0
LINE
  5
3AF1
330
1E
100
AcDbEntity
  8
7
100
AcDbLine
 10
0.2844389141934975
 20
3.029271802600729
 30
0.0
 11
0.2844389141934975
 21
2.9951489880338
 31
0.0
  0
LINE
  5
3AF2
330
1E
100
AcDbEntity
  8
7
100
AcDbLine
 10
0.2844389141934975
 20
2.9951489880338
 30
0.0
 11
0.2857513301383792
 21
2.985962076419627
 31
0.0
  0
LINE
  5
3AF3
330
1E
100
AcDbEntity
  8
7
100
AcDbLine
 10
0.2857513301383792
 20
2.985962076419627
 30
0.0
 11
0.2910009939179066
 21
2.976775164805453
 31
0.0
  0
LINE
  5
3AF4
330
1E
100
AcDbEntity
  8
7
100
AcDbLine
 10
0.2910009939179066
 20
2.976775164805453
 30
0.0
 11
0.2975630736423165
 21
2.970213085081044
 31
0.0
  0
LINE
  5
3AF5
330
1E
100
AcDbEntity
  8
7
100
AcDbLine
 10
0.4051811811226314
 20
3.150014069529863
 30
0.0
 11
0.4340543319100325
 21
3.114578839018052
 31
0.0
  0
LINE
  5
3AF6
330
1E
100
AcDbEntity
  8
7
100
AcDbLine
 10
0.4340543319100325
 20
3.114578839018052
 30
0.0
 11
0.4694895624218436
 21
3.08570568823065
 31
0.0
  0
LINE
  5
3AF7
330
1E
100
AcDbEntity
  8
7
100
AcDbLine
 10
0.4051811811226314
 20
3.150014069529863
 30
0.0
 11
0.4353667478549151
 21
3.150014069529863
 31
0.0
  0
LINE
  5
3AF8
330
1E
100
AcDbEntity
  8
7
100
AcDbLine
 10
0.4353667478549151
 20
3.150014069529863
 30
0.0
 11
0.4694895624218436
 21
3.150014069529863
 31
0.0
  0
LINE
  5
3AF9
330
1E
100
AcDbEntity
  8
7
100
AcDbLine
 10
0.4051811811226314
 20
7.28018704807317
 30
0.0
 11
0.2844389141934975
 21
7.400929315002304
 31
0.0
  0
LINE
  5
3AFA
330
1E
100
AcDbEntity
  8
7
100
AcDbLine
 10
0.2844389141934975
 20
7.400929315002304
 30
0.0
 11
0.2844389141934975
 21
3.029271802600729
 31
0.0
  0
LINE
  5
3AFB
330
1E
100
AcDbEntity
  8
7
100
AcDbLine
 10
0.4694895624218436
 20
3.150014069529863
 30
0.0
 11
0.4694895624218436
 21
3.115891254962934
 31
0.0
  0
LINE
  5
3AFC
330
1E
100
AcDbEntity
  8
7
100
AcDbLine
 10
0.4694895624218436
 20
3.115891254962934
 30
0.0
 11
0.4694895624218436
 21
3.08570568823065
 31
0.0
  0
LINE
  5
3AFD
330
1E
100
AcDbEntity
  8
7
100
AcDbLine
 10
0.4694895624218436
 20
3.08570568823065
 30
0.0
 11
2.848899670492709
 21
3.08570568823065
 31
0.0
  0
LINE
  5
3AFE
330
1E
100
AcDbEntity
  8
7
100
AcDbLine
 10
2.848899670492709
 20
7.28018704807317
 30
0.0
 11
2.883022485059638
 21
7.28018704807317
 31
0.0
  0
LINE
  5
3AFF
330
1E
100
AcDbEntity
  8
7
100
AcDbLine
 10
2.883022485059638
 20
7.28018704807317
 30
0.0
 11
2.913208051791922
 21
7.28018704807317
 31
0.0
  0
LINE
  5
3B00
330
1E
100
AcDbEntity
  8
7
100
AcDbLine
 10
2.970954353366725
 20
2.964963421301517
 30
0.0
 11
3.005077167933654
 21
2.964963421301517
 31
0.0
  0
LINE
  5
3B01
330
1E
100
AcDbEntity
  8
7
100
AcDbLine
 10
3.005077167933654
 20
2.964963421301517
 30
0.0
 11
3.014264079547828
 21
2.966275837246398
 31
0.0
  0
LINE
  5
3B02
330
1E
100
AcDbEntity
  8
7
100
AcDbLine
 10
3.014264079547828
 20
2.966275837246398
 30
0.0
 11
3.023450991162
 21
2.971525501025926
 31
0.0
  0
LINE
  5
3B03
330
1E
100
AcDbEntity
  8
7
100
AcDbLine
 10
3.023450991162
 20
2.971525501025926
 30
0.0
 11
3.03001307088641
 21
2.978087580750335
 31
0.0
  0
LINE
  5
3B04
330
1E
100
AcDbEntity
  8
7
100
AcDbLine
 10
3.03001307088641
 20
2.978087580750335
 30
0.0
 11
3.033950318721056
 21
2.987274492364509
 31
0.0
  0
LINE
  5
3B05
330
1E
100
AcDbEntity
  8
7
100
AcDbLine
 10
3.033950318721056
 20
2.987274492364509
 30
0.0
 11
3.035262734665938
 21
2.9951489880338
 31
0.0
  0
LINE
  5
3B06
330
1E
100
AcDbEntity
  8
7
100
AcDbLine
 10
3.035262734665938
 20
2.9951489880338
 30
0.0
 11
3.035262734665938
 21
3.029271802600729
 31
0.0
  0
LINE
  5
3B07
330
1E
100
AcDbEntity
  8
7
100
AcDbLine
 10
2.913208051791922
 20
3.150014069529863
 30
0.0
 11
2.885647316949402
 21
3.114578839018052
 31
0.0
  0
LINE
  5
3B08
330
1E
100
AcDbEntity
  8
7
100
AcDbLine
 10
2.885647316949402
 20
3.114578839018052
 30
0.0
 11
2.848899670492709
 21
3.08570568823065
 31
0.0
  0
LINE
  5
3B09
330
1E
100
AcDbEntity
  8
7
100
AcDbLine
 10
2.848899670492709
 20
3.150014069529863
 30
0.0
 11
2.848899670492709
 21
3.115891254962934
 31
0.0
  0
LINE
  5
3B0A
330
1E
100
AcDbEntity
  8
7
100
AcDbLine
 10
2.848899670492709
 20
3.115891254962934
 30
0.0
 11
2.848899670492709
 21
3.08570568823065
 31
0.0
  0
LINE
  5
3B0B
330
1E
100
AcDbEntity
  8
7
100
AcDbLine
 10
2.848899670492709
 20
3.150014069529863
 30
0.0
 11
2.883022485059638
 21
3.150014069529863
 31
0.0
  0
LINE
  5
3B0C
330
1E
100
AcDbEntity
  8
7
100
AcDbLine
 10
2.883022485059638
 20
3.150014069529863
 30
0.0
 11
2.913208051791922
 21
3.150014069529863
 31
0.0
  0
LINE
  5
3B0D
330
1E
100
AcDbEntity
  8
7
100
AcDbLine
 10
3.035262734665938
 20
7.400929315002304
 30
0.0
 11
2.913208051791922
 21
7.28018704807317
 31
0.0
  0
LINE
  5
3B0E
330
1E
100
AcDbEntity
  8
7
100
AcDbLine
 10
2.913208051791922
 20
7.28018704807317
 30
0.0
 11
2.913208051791922
 21
3.150014069529863
 31
0.0
  0
LINE
  5
3B0F
330
1E
100
AcDbEntity
  8
7
100
AcDbLine
 10
1.560107212618694
 20
6.580669349451123
 30
0.0
 11
1.574543788012394
 21
6.584606597285768
 31
0.0
  0
LINE
  5
3B10
330
1E
100
AcDbEntity
  8
7
100
AcDbLine
 10
1.574543788012394
 20
6.584606597285768
 30
0.0
 11
1.585043115571449
 21
6.595105924844823
 31
0.0
  0
LINE
  5
3B11
330
1E
100
AcDbEntity
  8
7
100
AcDbLine
 10
1.734658533287985
 20
6.595105924844823
 30
0.0
 11
1.74515786084704
 21
6.584606597285768
 31
0.0
  0
LINE
  5
3B12
330
1E
100
AcDbEntity
  8
7
100
AcDbLine
 10
1.74515786084704
 20
6.584606597285768
 30
0.0
 11
1.759594436240741
 21
6.580669349451123
 31
0.0
  0
LINE
  5
3B13
330
1E
100
AcDbEntity
  8
7
100
AcDbLine
 10
1.760906852185623
 20
6.580669349451123
 30
0.0
 11
1.77271859568956
 21
6.583294181340886
 31
0.0
  0
LINE
  5
3B14
330
1E
100
AcDbEntity
  8
7
100
AcDbLine
 10
1.77271859568956
 20
6.583294181340886
 30
0.0
 11
1.781905507303733
 21
6.589856261065295
 31
0.0
  0
LINE
  5
3B15
330
1E
100
AcDbEntity
  8
7
100
AcDbLine
 10
1.805528994311607
 20
6.599043172679469
 30
0.0
 11
1.79371725080767
 21
6.596418340789706
 31
0.0
  0
LINE
  5
3B16
330
1E
100
AcDbEntity
  8
7
100
AcDbLine
 10
1.79371725080767
 20
6.596418340789706
 30
0.0
 11
1.784530339193497
 21
6.589856261065295
 31
0.0
  0
LINE
  5
3B17
330
1E
100
AcDbEntity
  8
7
100
AcDbLine
 10
2.031264536831292
 20
6.570170021892068
 30
0.0
 11
2.023390041162
 21
6.591168677010179
 31
0.0
  0
LINE
  5
3B18
330
1E
100
AcDbEntity
  8
7
100
AcDbLine
 10
2.023390041162
 20
6.591168677010179
 30
0.0
 11
2.00239138604389
 21
6.599043172679469
 31
0.0
  0
LINE
  5
3B19
330
1E
100
AcDbEntity
  8
7
100
AcDbLine
 10
2.033889368721056
 20
6.53735962327002
 30
0.0
 11
2.039139032500583
 21
6.520298215986556
 31
0.0
  0
LINE
  5
3B1A
330
1E
100
AcDbEntity
  8
7
100
AcDbLine
 10
2.039139032500583
 20
6.520298215986556
 30
0.0
 11
2.053575607894284
 21
6.509798888427501
 31
0.0
  0
LINE
  5
3B1B
330
1E
100
AcDbEntity
  8
7
100
AcDbLine
 10
2.053575607894284
 20
6.509798888427501
 30
0.0
 11
2.07194943112263
 21
6.509798888427501
 31
0.0
  0
LINE
  5
3B1C
330
1E
100
AcDbEntity
  8
7
100
AcDbLine
 10
2.07194943112263
 20
6.509798888427501
 30
0.0
 11
2.086386006516331
 21
6.520298215986556
 31
0.0
  0
LINE
  5
3B1D
330
1E
100
AcDbEntity
  8
7
100
AcDbLine
 10
2.086386006516331
 20
6.520298215986556
 30
0.0
 11
2.091635670295859
 21
6.53735962327002
 31
0.0
  0
LINE
  5
3B1E
330
1E
100
AcDbEntity
  8
7
100
AcDbLine
 10
2.338369867933654
 20
6.53735962327002
 30
0.0
 11
2.343619531713181
 21
6.520298215986556
 31
0.0
  0
LINE
  5
3B1F
330
1E
100
AcDbEntity
  8
7
100
AcDbLine
 10
2.343619531713181
 20
6.520298215986556
 30
0.0
 11
2.358056107106882
 21
6.509798888427501
 31
0.0
  0
LINE
  5
3B20
330
1E
100
AcDbEntity
  8
7
100
AcDbLine
 10
2.358056107106882
 20
6.509798888427501
 30
0.0
 11
2.376429930335229
 21
6.509798888427501
 31
0.0
  0
LINE
  5
3B21
330
1E
100
AcDbEntity
  8
7
100
AcDbLine
 10
2.376429930335229
 20
6.509798888427501
 30
0.0
 11
2.390866505728929
 21
6.520298215986556
 31
0.0
  0
LINE
  5
3B22
330
1E
100
AcDbEntity
  8
7
100
AcDbLine
 10
2.390866505728929
 20
6.520298215986556
 30
0.0
 11
2.396116169508458
 21
6.53735962327002
 31
0.0
  0
LINE
  5
3B23
330
1E
100
AcDbEntity
  8
7
100
AcDbLine
 10
2.427614152185623
 20
6.599043172679469
 30
0.0
 11
2.406615497067513
 21
6.591168677010179
 31
0.0
  0
LINE
  5
3B24
330
1E
100
AcDbEntity
  8
7
100
AcDbLine
 10
2.406615497067513
 20
6.591168677010179
 30
0.0
 11
2.398741001398221
 21
6.570170021892068
 31
0.0
  0
LINE
  5
3B25
330
1E
100
AcDbEntity
  8
7
100
AcDbLine
 10
2.659911774429717
 20
6.600355588624351
 30
0.0
 11
2.680910429547827
 21
6.608230084293643
 31
0.0
  0
LINE
  5
3B26
330
1E
100
AcDbEntity
  8
7
100
AcDbLine
 10
2.680910429547827
 20
6.608230084293643
 30
0.0
 11
2.688784925217119
 21
6.629228739411753
 31
0.0
  0
LINE
  5
3B27
330
1E
100
AcDbEntity
  8
7
100
AcDbLine
 10
2.688784925217119
 20
7.082012240396005
 30
0.0
 11
2.680910429547827
 21
7.103010895514115
 31
0.0
  0
LINE
  5
3B28
330
1E
100
AcDbEntity
  8
7
100
AcDbLine
 10
2.680910429547827
 20
7.103010895514115
 30
0.0
 11
2.659911774429717
 21
7.110885391183406
 31
0.0
  0
LINE
  5
3B29
330
1E
100
AcDbEntity
  8
7
100
AcDbLine
 10
0.659789874429718
 20
7.110885391183406
 30
0.0
 11
0.6387912193116075
 21
7.103010895514115
 31
0.0
  0
LINE
  5
3B2A
330
1E
100
AcDbEntity
  8
7
100
AcDbLine
 10
0.6387912193116075
 20
7.103010895514115
 30
0.0
 11
0.6309167236423159
 21
7.082012240396005
 31
0.0
  0
LINE
  5
3B2B
330
1E
100
AcDbEntity
  8
7
100
AcDbLine
 10
0.6309167236423159
 20
6.629228739411753
 30
0.0
 11
0.6387912193116075
 21
6.608230084293643
 31
0.0
  0
LINE
  5
3B2C
330
1E
100
AcDbEntity
  8
7
100
AcDbLine
 10
0.6387912193116075
 20
6.608230084293643
 30
0.0
 11
0.659789874429718
 21
6.600355588624351
 31
0.0
  0
LINE
  5
3B2D
330
1E
100
AcDbEntity
  8
7
100
AcDbLine
 10
0.9209606474612135
 20
6.570170021892068
 30
0.0
 11
0.9130861517919219
 21
6.591168677010179
 31
0.0
  0
LINE
  5
3B2E
330
1E
100
AcDbEntity
  8
7
100
AcDbLine
 10
0.9130861517919219
 20
6.591168677010179
 30
0.0
 11
0.8920874966738123
 21
6.599043172679469
 31
0.0
  0
LINE
  5
3B2F
330
1E
100
AcDbEntity
  8
7
100
AcDbLine
 10
0.9235854793509776
 20
6.53735962327002
 30
0.0
 11
0.928835143130505
 21
6.520298215986556
 31
0.0
  0
LINE
  5
3B30
330
1E
100
AcDbEntity
  8
7
100
AcDbLine
 10
0.928835143130505
 20
6.520298215986556
 30
0.0
 11
0.9432717185242056
 21
6.509798888427501
 31
0.0
  0
LINE
  5
3B31
330
1E
100
AcDbEntity
  8
7
100
AcDbLine
 10
0.9432717185242056
 20
6.509798888427501
 30
0.0
 11
0.9616455417525529
 21
6.509798888427501
 31
0.0
  0
LINE
  5
3B32
330
1E
100
AcDbEntity
  8
7
100
AcDbLine
 10
0.9616455417525529
 20
6.509798888427501
 30
0.0
 11
0.9760821171462525
 21
6.520298215986556
 31
0.0
  0
LINE
  5
3B33
330
1E
100
AcDbEntity
  8
7
100
AcDbLine
 10
0.9760821171462525
 20
6.520298215986556
 30
0.0
 11
0.9813317809257808
 21
6.53735962327002
 31
0.0
  0
LINE
  5
3B34
330
1E
100
AcDbEntity
  8
7
100
AcDbLine
 10
1.228065978563575
 20
6.53735962327002
 30
0.0
 11
1.233315642343103
 21
6.520298215986556
 31
0.0
  0
LINE
  5
3B35
330
1E
100
AcDbEntity
  8
7
100
AcDbLine
 10
1.233315642343103
 20
6.520298215986556
 30
0.0
 11
1.247752217736804
 21
6.509798888427501
 31
0.0
  0
LINE
  5
3B36
330
1E
100
AcDbEntity
  8
7
100
AcDbLine
 10
1.247752217736804
 20
6.509798888427501
 30
0.0
 11
1.266126040965151
 21
6.509798888427501
 31
0.0
  0
LINE
  5
3B37
330
1E
100
AcDbEntity
  8
7
100
AcDbLine
 10
1.266126040965151
 20
6.509798888427501
 30
0.0
 11
1.280562616358851
 21
6.520298215986556
 31
0.0
  0
LINE
  5
3B38
330
1E
100
AcDbEntity
  8
7
100
AcDbLine
 10
1.280562616358851
 20
6.520298215986556
 30
0.0
 11
1.285812280138379
 21
6.53735962327002
 31
0.0
  0
LINE
  5
3B39
330
1E
100
AcDbEntity
  8
7
100
AcDbLine
 10
1.317310262815544
 20
6.599043172679469
 30
0.0
 11
1.296311607697433
 21
6.591168677010179
 31
0.0
  0
LINE
  5
3B3A
330
1E
100
AcDbEntity
  8
7
100
AcDbLine
 10
1.296311607697433
 20
6.591168677010179
 30
0.0
 11
1.288437112028142
 21
6.570170021892068
 31
0.0
  0
LINE
  5
3B3B
330
1E
100
AcDbEntity
  8
7
100
AcDbLine
 10
1.533858893721055
 20
6.589856261065295
 30
0.0
 11
1.524671982106883
 21
6.596418340789706
 31
0.0
  0
LINE
  5
3B3C
330
1E
100
AcDbEntity
  8
7
100
AcDbLine
 10
1.524671982106883
 20
6.596418340789706
 30
0.0
 11
1.512860238602945
 21
6.599043172679469
 31
0.0
  0
LINE
  5
3B3D
330
1E
100
AcDbEntity
  8
7
100
AcDbLine
 10
1.536483725610819
 20
6.589856261065295
 30
0.0
 11
1.545670637224993
 21
6.583294181340886
 31
0.0
  0
LINE
  5
3B3E
330
1E
100
AcDbEntity
  8
7
100
AcDbLine
 10
1.545670637224993
 20
6.583294181340886
 30
0.0
 11
1.55748238072893
 21
6.580669349451123
 31
0.0
  0
LINE
  5
3B3F
330
1E
100
AcDbEntity
  8
7
100
AcDbLine
 10
1.414429042736804
 20
5.440179893348761
 30
0.0
 11
1.418366290571449
 21
5.432305397679469
 31
0.0
  0
LINE
  5
3B40
330
1E
100
AcDbEntity
  8
7
100
AcDbLine
 10
1.418366290571449
 20
5.432305397679469
 30
0.0
 11
1.426240786240741
 21
5.428368149844823
 31
0.0
  0
LINE
  5
3B41
330
1E
100
AcDbEntity
  8
7
100
AcDbLine
 10
1.892148446673812
 20
5.428368149844823
 30
0.0
 11
1.900022942343103
 21
5.432305397679469
 31
0.0
  0
LINE
  5
3B42
330
1E
100
AcDbEntity
  8
7
100
AcDbLine
 10
1.900022942343103
 20
5.432305397679469
 30
0.0
 11
1.903960190177749
 21
5.440179893348761
 31
0.0
  0
LINE
  5
3B43
330
1E
100
AcDbEntity
  8
7
100
AcDbLine
 10
1.917084349626568
 20
5.492676531144036
 30
0.0
 11
1.909209853957277
 21
5.48873928330939
 31
0.0
  0
LINE
  5
3B44
330
1E
100
AcDbEntity
  8
7
100
AcDbLine
 10
1.909209853957277
 20
5.48873928330939
 30
0.0
 11
1.90527260612263
 21
5.480864787640099
 31
0.0
  0
LINE
  5
3B45
330
1E
100
AcDbEntity
  8
7
100
AcDbLine
 10
1.96039407580767
 20
5.492676531144036
 30
0.0
 11
1.968268571476961
 21
5.496613778978681
 31
0.0
  0
LINE
  5
3B46
330
1E
100
AcDbEntity
  8
7
100
AcDbLine
 10
1.968268571476961
 20
5.496613778978681
 30
0.0
 11
1.972205819311607
 21
5.504488274647973
 31
0.0
  0
LINE
  5
3B47
330
1E
100
AcDbEntity
  8
7
100
AcDbLine
 10
1.972205819311607
 20
6.141010007915689
 30
0.0
 11
1.968268571476961
 21
6.148884503584982
 31
0.0
  0
LINE
  5
3B48
330
1E
100
AcDbEntity
  8
7
100
AcDbLine
 10
1.968268571476961
 20
6.148884503584982
 30
0.0
 11
1.96039407580767
 21
6.152821751419626
 31
0.0
  0
LINE
  5
3B49
330
1E
100
AcDbEntity
  8
7
100
AcDbLine
 10
1.359307573051764
 20
6.152821751419626
 30
0.0
 11
1.351433077382472
 21
6.148884503584982
 31
0.0
  0
LINE
  5
3B4A
330
1E
100
AcDbEntity
  8
7
100
AcDbLine
 10
1.351433077382472
 20
6.148884503584982
 30
0.0
 11
1.347495829547828
 21
6.141010007915689
 31
0.0
  0
LINE
  5
3B4B
330
1E
100
AcDbEntity
  8
7
100
AcDbLine
 10
1.347495829547828
 20
5.504488274647973
 30
0.0
 11
1.351433077382472
 21
5.496613778978681
 31
0.0
  0
LINE
  5
3B4C
330
1E
100
AcDbEntity
  8
7
100
AcDbLine
 10
1.351433077382472
 20
5.496613778978681
 30
0.0
 11
1.359307573051764
 21
5.492676531144036
 31
0.0
  0
LINE
  5
3B4D
330
1E
100
AcDbEntity
  8
7
100
AcDbLine
 10
1.414429042736804
 20
5.480864787640099
 30
0.0
 11
1.410491794902158
 21
5.48873928330939
 31
0.0
  0
LINE
  5
3B4E
330
1E
100
AcDbEntity
  8
7
100
AcDbLine
 10
1.410491794902158
 20
5.48873928330939
 30
0.0
 11
1.402617299232867
 21
5.492676531144036
 31
0.0
  0
LINE
  5
3B4F
330
1E
100
AcDbEntity
  8
7
100
AcDbLine
 10
1.96039407580767
 20
4.3430001634275
 30
0.0
 11
1.968268571476961
 21
4.346937411262147
 31
0.0
  0
LINE
  5
3B50
330
1E
100
AcDbEntity
  8
7
100
AcDbLine
 10
1.968268571476961
 20
4.346937411262147
 30
0.0
 11
1.972205819311607
 21
4.354811906931438
 31
0.0
  0
LINE
  5
3B51
330
1E
100
AcDbEntity
  8
7
100
AcDbLine
 10
1.972205819311607
 20
4.991333640199154
 30
0.0
 11
1.968268571476961
 21
4.999208135868445
 31
0.0
  0
LINE
  5
3B52
330
1E
100
AcDbEntity
  8
7
100
AcDbLine
 10
1.968268571476961
 20
4.999208135868445
 30
0.0
 11
1.96039407580767
 21
5.003145383703092
 31
0.0
  0
LINE
  5
3B53
330
1E
100
AcDbEntity
  8
7
100
AcDbLine
 10
1.359307573051764
 20
5.003145383703092
 30
0.0
 11
1.351433077382472
 21
4.999208135868445
 31
0.0
  0
LINE
  5
3B54
330
1E
100
AcDbEntity
  8
7
100
AcDbLine
 10
1.351433077382472
 20
4.999208135868445
 30
0.0
 11
1.347495829547828
 21
4.991333640199154
 31
0.0
  0
LINE
  5
3B55
330
1E
100
AcDbEntity
  8
7
100
AcDbLine
 10
1.347495829547828
 20
4.354811906931438
 30
0.0
 11
1.351433077382472
 21
4.346937411262147
 31
0.0
  0
LINE
  5
3B56
330
1E
100
AcDbEntity
  8
7
100
AcDbLine
 10
1.351433077382472
 20
4.346937411262147
 30
0.0
 11
1.359307573051764
 21
4.3430001634275
 31
0.0
  0
LINE
  5
3B57
330
1E
100
AcDbEntity
  8
7
100
AcDbLine
 10
1.414429042736804
 20
4.331188419923564
 30
0.0
 11
1.410491794902158
 21
4.339062915592855
 31
0.0
  0
LINE
  5
3B58
330
1E
100
AcDbEntity
  8
7
100
AcDbLine
 10
1.410491794902158
 20
4.339062915592855
 30
0.0
 11
1.402617299232867
 21
4.3430001634275
 31
0.0
  0
LINE
  5
3B59
330
1E
100
AcDbEntity
  8
7
100
AcDbLine
 10
1.414429042736804
 20
4.290503525632225
 30
0.0
 11
1.418366290571449
 21
4.282629029962933
 31
0.0
  0
LINE
  5
3B5A
330
1E
100
AcDbEntity
  8
7
100
AcDbLine
 10
1.418366290571449
 20
4.282629029962933
 30
0.0
 11
1.426240786240741
 21
4.278691782128289
 31
0.0
  0
LINE
  5
3B5B
330
1E
100
AcDbEntity
  8
7
100
AcDbLine
 10
1.892148446673812
 20
4.278691782128289
 30
0.0
 11
1.900022942343103
 21
4.282629029962933
 31
0.0
  0
LINE
  5
3B5C
330
1E
100
AcDbEntity
  8
7
100
AcDbLine
 10
1.900022942343103
 20
4.282629029962933
 30
0.0
 11
1.903960190177749
 21
4.290503525632225
 31
0.0
  0
LINE
  5
3B5D
330
1E
100
AcDbEntity
  8
7
100
AcDbLine
 10
1.917084349626568
 20
4.3430001634275
 30
0.0
 11
1.909209853957277
 21
4.339062915592855
 31
0.0
  0
LINE
  5
3B5E
330
1E
100
AcDbEntity
  8
7
100
AcDbLine
 10
1.909209853957277
 20
4.339062915592855
 30
0.0
 11
1.90527260612263
 21
4.331188419923564
 31
0.0
  0
LINE
  5
3B5F
330
1E
100
AcDbEntity
  8
7
100
AcDbLine
 10
2.848899670492709
 20
3.150014069529863
 30
0.0
 11
2.848899670492709
 21
7.28018704807317
 31
0.0
  0
LINE
  5
3B60
330
1E
100
AcDbEntity
  8
7
100
AcDbLine
 10
2.848899670492709
 20
7.28018704807317
 30
0.0
 11
0.4694895624218436
 21
7.28018704807317
 31
0.0
  0
LINE
  5
3B61
330
1E
100
AcDbEntity
  8
7
100
AcDbLine
 10
1.208379739390347
 20
3.860031095710965
 30
0.0
 11
1.216254235059638
 21
3.839032440592855
 31
0.0
  0
LINE
  5
3B62
330
1E
100
AcDbEntity
  8
7
100
AcDbLine
 10
1.216254235059638
 20
3.839032440592855
 30
0.0
 11
1.237252890177749
 21
3.831157944923564
 31
0.0
  0
LINE
  5
3B63
330
1E
100
AcDbEntity
  8
7
100
AcDbLine
 10
1.205754907500583
 20
3.894153910277895
 30
0.0
 11
1.200505243721056
 21
3.911215317561359
 31
0.0
  0
LINE
  5
3B64
330
1E
100
AcDbEntity
  8
7
100
AcDbLine
 10
1.200505243721056
 20
3.911215317561359
 30
0.0
 11
1.186068668327355
 21
3.921714645120414
 31
0.0
  0
LINE
  5
3B65
330
1E
100
AcDbEntity
  8
7
100
AcDbLine
 10
1.186068668327355
 20
3.921714645120414
 30
0.0
 11
1.167694845099009
 21
3.921714645120414
 31
0.0
  0
LINE
  5
3B66
330
1E
100
AcDbEntity
  8
7
100
AcDbLine
 10
1.167694845099009
 20
3.921714645120414
 30
0.0
 11
1.153258269705307
 21
3.911215317561359
 31
0.0
  0
LINE
  5
3B67
330
1E
100
AcDbEntity
  8
7
100
AcDbLine
 10
1.153258269705307
 20
3.911215317561359
 30
0.0
 11
1.14800860592578
 21
3.894153910277895
 31
0.0
  0
LINE
  5
3B68
330
1E
100
AcDbEntity
  8
7
100
AcDbLine
 10
0.9012744082879855
 20
3.894153910277895
 30
0.0
 11
0.8960247445084581
 21
3.911215317561359
 31
0.0
  0
LINE
  5
3B69
330
1E
100
AcDbEntity
  8
7
100
AcDbLine
 10
0.8960247445084581
 20
3.911215317561359
 30
0.0
 11
0.8815881691147566
 21
3.921714645120414
 31
0.0
  0
LINE
  5
3B6A
330
1E
100
AcDbEntity
  8
7
100
AcDbLine
 10
0.8815881691147566
 20
3.921714645120414
 30
0.0
 11
0.8632143458864103
 21
3.921714645120414
 31
0.0
  0
LINE
  5
3B6B
330
1E
100
AcDbEntity
  8
7
100
AcDbLine
 10
0.8632143458864103
 20
3.921714645120414
 30
0.0
 11
0.8487777704927097
 21
3.911215317561359
 31
0.0
  0
LINE
  5
3B6C
330
1E
100
AcDbEntity
  8
7
100
AcDbLine
 10
0.8487777704927097
 20
3.911215317561359
 30
0.0
 11
0.8435281067131823
 21
3.894153910277895
 31
0.0
  0
LINE
  5
3B6D
330
1E
100
AcDbEntity
  8
7
100
AcDbLine
 10
0.812030124036017
 20
3.831157944923564
 30
0.0
 11
0.8330287791541266
 21
3.839032440592855
 31
0.0
  0
LINE
  5
3B6E
330
1E
100
AcDbEntity
  8
7
100
AcDbLine
 10
0.8330287791541266
 20
3.839032440592855
 30
0.0
 11
0.840903274823419
 21
3.860031095710965
 31
0.0
  0
LINE
  5
3B6F
330
1E
100
AcDbEntity
  8
7
100
AcDbLine
 10
0.659789874429718
 20
3.829845528978681
 30
0.0
 11
0.6387912193116075
 21
3.821971033309391
 31
0.0
  0
LINE
  5
3B70
330
1E
100
AcDbEntity
  8
7
100
AcDbLine
 10
0.6387912193116075
 20
3.821971033309391
 30
0.0
 11
0.6309167236423159
 21
3.80097237819128
 31
0.0
  0
LINE
  5
3B71
330
1E
100
AcDbEntity
  8
7
100
AcDbLine
 10
0.6309167236423159
 20
3.348188877207028
 30
0.0
 11
0.6387912193116075
 21
3.327190222088918
 31
0.0
  0
LINE
  5
3B72
330
1E
100
AcDbEntity
  8
7
100
AcDbLine
 10
0.6387912193116075
 20
3.327190222088918
 30
0.0
 11
0.659789874429718
 21
3.319315726419627
 31
0.0
  0
LINE
  5
3B73
330
1E
100
AcDbEntity
  8
7
100
AcDbLine
 10
2.659911774429717
 20
3.319315726419627
 30
0.0
 11
2.680910429547827
 21
3.327190222088918
 31
0.0
  0
LINE
  5
3B74
330
1E
100
AcDbEntity
  8
7
100
AcDbLine
 10
2.680910429547827
 20
3.327190222088918
 30
0.0
 11
2.688784925217119
 21
3.348188877207028
 31
0.0
  0
LINE
  5
3B75
330
1E
100
AcDbEntity
  8
7
100
AcDbLine
 10
2.688784925217119
 20
3.80097237819128
 30
0.0
 11
2.680910429547827
 21
3.821971033309391
 31
0.0
  0
LINE
  5
3B76
330
1E
100
AcDbEntity
  8
7
100
AcDbLine
 10
2.680910429547827
 20
3.821971033309391
 30
0.0
 11
2.659911774429717
 21
3.829845528978681
 31
0.0
  0
LINE
  5
3B77
330
1E
100
AcDbEntity
  8
7
100
AcDbLine
 10
2.478798374036016
 20
3.860031095710965
 30
0.0
 11
2.486672869705308
 21
3.839032440592855
 31
0.0
  0
LINE
  5
3B78
330
1E
100
AcDbEntity
  8
7
100
AcDbLine
 10
2.486672869705308
 20
3.839032440592855
 30
0.0
 11
2.507671524823418
 21
3.831157944923564
 31
0.0
  0
LINE
  5
3B79
330
1E
100
AcDbEntity
  8
7
100
AcDbLine
 10
2.476173542146252
 20
3.894153910277895
 30
0.0
 11
2.470923878366725
 21
3.911215317561359
 31
0.0
  0
LINE
  5
3B7A
330
1E
100
AcDbEntity
  8
7
100
AcDbLine
 10
2.470923878366725
 20
3.911215317561359
 30
0.0
 11
2.456487302973024
 21
3.921714645120414
 31
0.0
  0
LINE
  5
3B7B
330
1E
100
AcDbEntity
  8
7
100
AcDbLine
 10
2.456487302973024
 20
3.921714645120414
 30
0.0
 11
2.438113479744678
 21
3.921714645120414
 31
0.0
  0
LINE
  5
3B7C
330
1E
100
AcDbEntity
  8
7
100
AcDbLine
 10
2.438113479744678
 20
3.921714645120414
 30
0.0
 11
2.423676904350977
 21
3.911215317561359
 31
0.0
  0
LINE
  5
3B7D
330
1E
100
AcDbEntity
  8
7
100
AcDbLine
 10
2.171693042933654
 20
3.894153910277895
 30
0.0
 11
2.166443379154126
 21
3.911215317561359
 31
0.0
  0
LINE
  5
3B7E
330
1E
100
AcDbEntity
  8
7
100
AcDbLine
 10
2.166443379154126
 20
3.911215317561359
 30
0.0
 11
2.152006803760426
 21
3.921714645120414
 31
0.0
  0
LINE
  5
3B7F
330
1E
100
AcDbEntity
  8
7
100
AcDbLine
 10
2.152006803760426
 20
3.921714645120414
 30
0.0
 11
2.133632980532079
 21
3.921714645120414
 31
0.0
  0
LINE
  5
3B80
330
1E
100
AcDbEntity
  8
7
100
AcDbLine
 10
2.133632980532079
 20
3.921714645120414
 30
0.0
 11
2.119196405138378
 21
3.911215317561359
 31
0.0
  0
LINE
  5
3B81
330
1E
100
AcDbEntity
  8
7
100
AcDbLine
 10
2.119196405138378
 20
3.911215317561359
 30
0.0
 11
2.113946741358851
 21
3.894153910277895
 31
0.0
  0
LINE
  5
3B82
330
1E
100
AcDbEntity
  8
7
100
AcDbLine
 10
2.082448758681686
 20
3.831157944923564
 30
0.0
 11
2.103447413799796
 21
3.839032440592855
 31
0.0
  0
LINE
  5
3B83
330
1E
100
AcDbEntity
  8
7
100
AcDbLine
 10
2.103447413799796
 20
3.839032440592855
 30
0.0
 11
2.111321909469087
 21
3.860031095710965
 31
0.0
  0
LINE
  5
3B84
330
1E
100
AcDbEntity
  8
7
100
AcDbLine
 10
1.784530339193497
 20
3.840344856537736
 30
0.0
 11
1.79371725080767
 21
3.833782776813327
 31
0.0
  0
LINE
  5
3B85
330
1E
100
AcDbEntity
  8
7
100
AcDbLine
 10
1.79371725080767
 20
3.833782776813327
 30
0.0
 11
1.805528994311607
 21
3.831157944923564
 31
0.0
  0
LINE
  5
3B86
330
1E
100
AcDbEntity
  8
7
100
AcDbLine
 10
1.781905507303733
 20
3.840344856537736
 30
0.0
 11
1.77271859568956
 21
3.846906936262147
 31
0.0
  0
LINE
  5
3B87
330
1E
100
AcDbEntity
  8
7
100
AcDbLine
 10
1.77271859568956
 20
3.846906936262147
 30
0.0
 11
1.760906852185623
 21
3.84953176815191
 31
0.0
  0
LINE
  5
3B88
330
1E
100
AcDbEntity
  8
7
100
AcDbLine
 10
1.759594436240741
 20
3.84953176815191
 30
0.0
 11
1.74515786084704
 21
3.845594520317264
 31
0.0
  0
LINE
  5
3B89
330
1E
100
AcDbEntity
  8
7
100
AcDbLine
 10
1.74515786084704
 20
3.845594520317264
 30
0.0
 11
1.734658533287985
 21
3.835095192758209
 31
0.0
  0
LINE
  5
3B8A
330
1E
100
AcDbEntity
  8
7
100
AcDbLine
 10
1.585043115571449
 20
3.835095192758209
 30
0.0
 11
1.574543788012394
 21
3.845594520317264
 31
0.0
  0
LINE
  5
3B8B
330
1E
100
AcDbEntity
  8
7
100
AcDbLine
 10
1.574543788012394
 20
3.845594520317264
 30
0.0
 11
1.560107212618694
 21
3.84953176815191
 31
0.0
  0
LINE
  5
3B8C
330
1E
100
AcDbEntity
  8
7
100
AcDbLine
 10
1.55748238072893
 20
3.84953176815191
 30
0.0
 11
1.545670637224993
 21
3.846906936262147
 31
0.0
  0
LINE
  5
3B8D
330
1E
100
AcDbEntity
  8
7
100
AcDbLine
 10
1.545670637224993
 20
3.846906936262147
 30
0.0
 11
1.536483725610819
 21
3.840344856537736
 31
0.0
  0
LINE
  5
3B8E
330
1E
100
AcDbEntity
  8
7
100
AcDbLine
 10
1.512860238602945
 20
3.831157944923564
 30
0.0
 11
1.524671982106883
 21
3.833782776813327
 31
0.0
  0
LINE
  5
3B8F
330
1E
100
AcDbEntity
  8
7
100
AcDbLine
 10
1.524671982106883
 20
3.833782776813327
 30
0.0
 11
1.533858893721055
 21
3.840344856537736
 31
0.0
  0
ENDSEC
  0
SECTION
  2
OBJECTS
  0
DICTIONARY
  5
C
330
0
100
AcDbDictionary
  3
ACAD_GROUP
350
D
  3
ACAD_LAYOUT
350
19
  3
ACAD_MLINESTYLE
350
16
  3
ACAD_PLOTSETTINGS
350
18
1001
ACAD
1000
TREAT_AS_HARD
1070
     0
  0
DICTIONARY
  5
4D27
330
1E
100
AcDbDictionary
  3
ACAD_LAYOUTSELFREF
350
4D62
1001
ACAD
1000
TREAT_AS_HARD
1070
     1
  0
DICTIONARY
  5
4D29
330
1A
100
AcDbDictionary
  3
ACAD_LAYOUTSELFREF
350
4D61
1001
ACAD
1000
TREAT_AS_HARD
1070
     1
  0
DICTIONARY
  5
D
102
{ACAD_REACTORS
330
C
102
}
330
C
100
AcDbDictionary
1001
ACAD
1000
TREAT_AS_HARD
1070
     0
  0
DICTIONARY
  5
19
102
{ACAD_REACTORS
330
C
102
}
330
C
100
AcDbDictionary
1001
ACAD
1000
TREAT_AS_HARD
1070
     0
  0
DICTIONARY
  5
16
102
{ACAD_REACTORS
330
C
102
}
330
C
100
AcDbDictionary
  3
STANDARD
350
17
1001
ACAD
1000
TREAT_AS_HARD
1070
     0
  0
DICTIONARY
  5
18
102
{ACAD_REACTORS
330
C
102
}
330
C
100
AcDbDictionary
1001
ACAD
1000
TREAT_AS_HARD
1070
     0
  0
XRECORD
  5
4D62
102
{ACAD_REACTORS
330
4D27
102
}
330
4D27
100
AcDbXrecord
340
1E
  0
XRECORD
  5
4D61
102
{ACAD_REACTORS
330
4D29
102
}
330
4D29
100
AcDbXrecord
340
1A
  0
MLINESTYLE
  5
17
102
{ACAD_REACTORS
330
16
102
}
330
16
100
AcDbMlineStyle
  2
STANDARD
 70
     0
  3

 62
   256
 51
90.0
 52
90.0
 71
     2
 49
0.5
 62
   256
  6
BYLAYER
 49
-0.5
 62
   256
  6
BYLAYER
  0
ENDSEC
  0
EOF
