  0
SECTION
  2
HEADER
  9
$ACADVER
  1
AC1012
  9
$DWGCODEPAGE
  3
ANSI_1252
  9
$INSBASE
 10
0.0
 20
0.0
 30
0.0
  9
$EXTMIN
 10
2.723327667828797
 20
0.2963562224716369
 30
-2.625969040608953
  9
$EXTMAX
 10
9.950500513834995
 20
4.813797013151688
 30
0.5610643100749489
  9
$LIMMIN
 10
0.0
 20
0.0
  9
$LIMMAX
 10
12.0
 20
9.0
  9
$ORTHOMODE
 70
     0
  9
$REGENMODE
 70
     1
  9
$FILLMODE
 70
     1
  9
$QTEXTMODE
 70
     0
  9
$MIRRTEXT
 70
     1
  9
$DRAGMODE
 70
     2
  9
$LTSCALE
 40
0.469549023999999
  9
$OSMODE
 70
   547
  9
$ATTMODE
 70
     1
  9
$TEXTSIZE
 40
0.2
  9
$TRACEWID
 40
0.05
  9
$TEXTSTYLE
  7
STANDARD
  9
$CLAYER
  8
0
  9
$CELTYPE
  6
BYLAYER
  9
$CECOLOR
 62
   256
  9
$CELTSCALE
 40
1.0
  9
$DELOBJ
 70
     1
  9
$DISPSILH
 70
     0
  9
$DIMSCALE
 40
1.0
  9
$DIMASZ
 40
0.18
  9
$DIMEXO
 40
0.0625
  9
$DIMDLI
 40
0.38
  9
$DIMRND
 40
0.0
  9
$DIMDLE
 40
0.0
  9
$DIMEXE
 40
0.18
  9
$DIMTP
 40
0.0
  9
$DIMTM
 40
0.0
  9
$DIMTXT
 40
0.18
  9
$DIMCEN
 40
0.09
  9
$DIMTSZ
 40
0.0
  9
$DIMTOL
 70
     0
  9
$DIMLIM
 70
     0
  9
$DIMTIH
 70
     1
  9
$DIMTOH
 70
     1
  9
$DIMSE1
 70
     0
  9
$DIMSE2
 70
     0
  9
$DIMTAD
 70
     0
  9
$DIMZIN
 70
     0
  9
$DIMBLK
  1

  9
$DIMASO
 70
     1
  9
$DIMSHO
 70
     1
  9
$DIMPOST
  1

  9
$DIMAPOST
  1

  9
$DIMALT
 70
     1
  9
$DIMALTD
 70
     1
  9
$DIMALTF
 40
25.4
  9
$DIMLFAC
 40
1.0
  9
$DIMTOFL
 70
     0
  9
$DIMTVP
 40
0.0
  9
$DIMTIX
 70
     0
  9
$DIMSOXD
 70
     0
  9
$DIMSAH
 70
     0
  9
$DIMBLK1
  1

  9
$DIMBLK2
  1

  9
$DIMSTYLE
  2
JENNA
  9
$DIMCLRD
 70
     0
  9
$DIMCLRE
 70
     0
  9
$DIMCLRT
 70
     0
  9
$DIMTFAC
 40
1.0
  9
$DIMGAP
 40
0.13
  9
$DIMJUST
 70
     0
  9
$DIMSD1
 70
     0
  9
$DIMSD2
 70
     0
  9
$DIMTOLJ
 70
     1
  9
$DIMTZIN
 70
     0
  9
$DIMALTZ
 70
     0
  9
$DIMALTTZ
 70
     0
  9
$DIMFIT
 70
     3
  9
$DIMUPT
 70
     0
  9
$DIMUNIT
 70
     2
  9
$DIMDEC
 70
     4
  9
$DIMTDEC
 70
     4
  9
$DIMALTU
 70
     2
  9
$DIMALTTD
 70
     2
  9
$DIMTXSTY
  7
STANDARD
  9
$DIMAUNIT
 70
     0
  9
$LUNITS
 70
     2
  9
$LUPREC
 70
     4
  9
$SKETCHINC
 40
0.1
  9
$FILLETRAD
 40
0.0
  9
$AUNITS
 70
     0
  9
$AUPREC
 70
     0
  9
$MENU
  1
acad
  9
$ELEVATION
 40
0.0
  9
$PELEVATION
 40
0.0
  9
$THICKNESS
 40
0.0
  9
$LIMCHECK
 70
     0
  9
$BLIPMODE
 70
     0
  9
$CHAMFERA
 40
0.0
  9
$CHAMFERB
 40
0.0
  9
$CHAMFERC
 40
0.0
  9
$CHAMFERD
 40
0.0
  9
$SKPOLY
 70
     0
  9
$TDCREATE
 40
2450409.666853472
  9
$TDUPDATE
 40
2453944.473117546
  9
$TDINDWG
 40
0.0016597106
  9
$TDUSRTIMER
 40
0.0016586227
  9
$USRTIMER
 70
     1
  9
$ANGBASE
 50
0.0
  9
$ANGDIR
 70
     0
  9
$PDMODE
 70
     0
  9
$PDSIZE
 40
0.0
  9
$PLINEWID
 40
0.0
  9
$COORDS
 70
     1
  9
$SPLFRAME
 70
     0
  9
$SPLINETYPE
 70
     6
  9
$SPLINESEGS
 70
     8
  9
$ATTDIA
 70
     0
  9
$ATTREQ
 70
     1
  9
$HANDLING
 70
  4097
  9
$HANDSEED
  5
49B
  9
$SURFTAB1
 70
     6
  9
$SURFTAB2
 70
     6
  9
$SURFTYPE
 70
     6
  9
$SURFU
 70
     6
  9
$SURFV
 70
     6
  9
$UCSNAME
  2

  9
$UCSORG
 10
0.0
 20
0.0
 30
0.0
  9
$UCSXDIR
 10
1.0
 20
0.0
 30
0.0
  9
$UCSYDIR
 10
0.0
 20
1.0
 30
0.0
  9
$PUCSNAME
  2

  9
$PUCSORG
 10
0.0
 20
0.0
 30
0.0
  9
$PUCSXDIR
 10
1.0
 20
0.0
 30
0.0
  9
$PUCSYDIR
 10
0.0
 20
1.0
 30
0.0
  9
$USERI1
 70
     0
  9
$USERI2
 70
     0
  9
$USERI3
 70
     0
  9
$USERI4
 70
     0
  9
$USERI5
 70
     0
  9
$USERR1
 40
0.0
  9
$USERR2
 40
0.0
  9
$USERR3
 40
0.0
  9
$USERR4
 40
0.0
  9
$USERR5
 40
0.0
  9
$WORLDVIEW
 70
     1
  9
$SHADEDGE
 70
     3
  9
$SHADEDIF
 70
    70
  9
$TILEMODE
 70
     1
  9
$MAXACTVP
 70
    16
  9
$PINSBASE
 10
0.0
 20
0.0
 30
0.0
  9
$PLIMCHECK
 70
     0
  9
$PEXTMIN
 10
1.000000000000000E+20
 20
1.000000000000000E+20
 30
1.000000000000000E+20
  9
$PEXTMAX
 10
-1.000000000000000E+20
 20
-1.000000000000000E+20
 30
-1.000000000000000E+20
  9
$PLIMMIN
 10
0.0
 20
0.0
  9
$PLIMMAX
 10
12.0
 20
9.0
  9
$UNITMODE
 70
     0
  9
$VISRETAIN
 70
     0
  9
$PLINEGEN
 70
     0
  9
$PSLTSCALE
 70
     1
  9
$TREEDEPTH
 70
  3020
  9
$PICKSTYLE
 70
     1
  9
$CMLSTYLE
  2
STANDARD
  9
$CMLJUST
 70
     0
  9
$CMLSCALE
 40
1.0
  9
$SAVEIMAGES
 70
     1
  0
ENDSEC
  0
SECTION
  2
CLASSES
  0
CLASS
  1
ACDBDICTIONARYWDFLT
  2
AcDbDictionaryWithDefault
  3
AutoCAD 2000
 90
    32768
280
     0
281
     0
  0
CLASS
  1
ACDBPLACEHOLDER
  2
AcDbPlaceHolder
  3
AutoCAD 2000
 90
    32768
280
     0
281
     0
  0
CLASS
  1
LAYOUT
  2
AcDbLayout
  3
AutoCAD 2000
 90
    32768
280
     0
281
     0
  0
CLASS
  1
LONG_TRANSACTION
  2
AcDbLongTransaction
  3
AutoCAD 2000
 90
    32768
280
     0
281
     0
  0
CLASS
  1
LWPOLYLINE
  2
AcDbPolyline
  3
AutoCAD 2000
 90
    32768
280
     0
281
     1
  0
CLASS
  1
HATCH
  2
AcDbHatch
  3
AutoCAD 2000
 90
    32768
280
     0
281
     1
  0
CLASS
  1
XRECORD
  2
AcDbXrecord
  3
AutoCAD 2000
 90
    32768
280
     0
281
     0
  0
CLASS
  1
LONG_TRANSACTION
  2
AcDbLongTransaction
  3
AutoCAD 2000
 90
    32768
280
     0
281
     0
  0
CLASS
  1
LWPOLYLINE
  2
AcDbPolyline
  3
AutoCAD 2000
 90
    32768
280
     0
281
     1
  0
CLASS
  1
HATCH
  2
AcDbHatch
  3
AutoCAD 2000
 90
    32768
280
     0
281
     1
  0
CLASS
  1
XRECORD
  2
AcDbXrecord
  3
AutoCAD 2000
 90
    32768
280
     0
281
     0
  0
ENDSEC
  0
SECTION
  2
TABLES
  0
TABLE
  2
VPORT
  5
416
330
0
100
AcDbSymbolTable
 70
     3
  0
VPORT
  5
498
330
416
100
AcDbSymbolTableRecord
100
AcDbViewportTableRecord
  2
*ACTIVE
 70
     0
 10
0.0
 20
0.0
 11
1.0
 21
1.0
 12
6.336914090831896
 22
2.555076617811662
 13
0.0
 23
0.0
 14
1.0
 24
1.0
 15
0.0
 25
0.0
 16
0.0
 26
0.0
 36
1.0
 17
0.0
 27
0.0
 37
0.0
 40
4.564415911553673
 41
1.647569444444444
 42
50.0
 43
0.0
 44
0.0
 50
0.0
 51
0.0
 71
     0
 72
   100
 73
     1
 74
     1
 75
     0
 76
     0
 77
     0
 78
     0
  0
ENDTAB
  0
TABLE
  2
LTYPE
  5
413
330
0
100
AcDbSymbolTable
 70
     1
  0
LTYPE
  5
420
330
413
100
AcDbSymbolTableRecord
100
AcDbLinetypeTableRecord
  2
BYBLOCK
 70
     0
  3

 72
    65
 73
     0
 40
0.0
  0
LTYPE
  5
421
330
413
100
AcDbSymbolTableRecord
100
AcDbLinetypeTableRecord
  2
BYLAYER
 70
     0
  3

 72
    65
 73
     0
 40
0.0
  0
LTYPE
  5
422
330
413
100
AcDbSymbolTableRecord
100
AcDbLinetypeTableRecord
  2
CONTINUOUS
 70
     0
  3
Solid line
 72
    65
 73
     0
 40
0.0
  0
ENDTAB
  0
TABLE
  2
LAYER
  5
410
330
0
100
AcDbSymbolTable
 70
     5
  0
LAYER
  5
41D
330
410
100
AcDbSymbolTableRecord
100
AcDbLayerTableRecord
  2
0
 70
     0
 62
     7
  6
CONTINUOUS
  0
LAYER
  5
43B
330
410
100
AcDbSymbolTableRecord
100
AcDbLayerTableRecord
  2
IGES_FRZ
 70
     1
 62
     7
  6
CONTINUOUS
  0
LAYER
  5
43C
330
410
100
AcDbSymbolTableRecord
100
AcDbLayerTableRecord
  2
1
 70
     0
 62
     7
  6
CONTINUOUS
  0
LAYER
  5
43D
330
410
100
AcDbSymbolTableRecord
100
AcDbLayerTableRecord
  2
1_TOP
 70
     0
 62
     7
  6
CONTINUOUS
  0
LAYER
  5
43E
330
410
100
AcDbSymbolTableRecord
100
AcDbLayerTableRecord
  2
DEFPOINTS
 70
     0
 62
     7
  6
CONTINUOUS
  0
ENDTAB
  0
TABLE
  2
STYLE
  5
411
330
0
100
AcDbSymbolTable
 70
     1
  0
STYLE
  5
41E
330
411
100
AcDbSymbolTableRecord
100
AcDbTextStyleTableRecord
  2
STANDARD
 70
     0
 40
0.0
 41
1.0
 50
0.0
 71
     0
 42
0.2
  3
txt
  4

  0
ENDTAB
  0
TABLE
  2
VIEW
  5
414
330
0
100
AcDbSymbolTable
 70
     7
  0
VIEW
  5
430
330
414
100
AcDbSymbolTableRecord
100
AcDbViewTableRecord
  2
FRONT
 70
     0
 40
10.97756723927014
 10
0.0
 20
0.0
 41
13.72303149606298
 11
0.0
 21
-1.0
 31
0.0
 12
0.0
 22
0.0
 32
0.0
 42
50.0
 43
0.0
 44
0.0
 50
0.0
 71
    16
  0
VIEW
  5
431
330
414
100
AcDbSymbolTableRecord
100
AcDbViewTableRecord
  2
RIGHT
 70
     0
 40
10.97756723927014
 10
0.0
 20
0.0
 41
10.97756723927014
 11
1.0
 21
0.0
 31
0.0
 12
0.0
 22
0.0
 32
0.0
 42
50.0
 43
0.0
 44
0.0
 50
0.0
 71
    16
  0
VIEW
  5
432
330
414
100
AcDbSymbolTableRecord
100
AcDbViewTableRecord
  2
BACK
 70
     0
 40
10.97756723927014
 10
0.0
 20
0.0
 41
13.72303149606298
 11
0.0
 21
1.0
 31
0.0
 12
0.0
 22
0.0
 32
0.0
 42
50.0
 43
0.0
 44
0.0
 50
0.0
 71
    16
  0
VIEW
  5
433
330
414
100
AcDbSymbolTableRecord
100
AcDbViewTableRecord
  2
BOTTOM
 70
     0
 40
10.97756723927014
 10
0.0
 20
0.0
 41
13.72303149606298
 11
0.0
 21
0.0
 31
-1.0
 12
0.0
 22
0.0
 32
0.0
 42
50.0
 43
0.0
 44
0.0
 50
180.0
 71
    16
  0
VIEW
  5
434
330
414
100
AcDbSymbolTableRecord
100
AcDbViewTableRecord
  2
LEFT
 70
     0
 40
10.97756723927014
 10
0.0
 20
0.0
 41
10.97756723927014
 11
-1.0
 21
0.0
 31
0.0
 12
0.0
 22
0.0
 32
0.0
 42
50.0
 43
0.0
 44
0.0
 50
0.0
 71
    16
  0
VIEW
  5
435
330
414
100
AcDbSymbolTableRecord
100
AcDbViewTableRecord
  2
TFR-ISO
 70
     0
 40
19.04712332490191
 10
0.0
 20
0.0
 41
17.46596086512193
 11
0.577350269189626
 21
-0.577350269189626
 31
0.577350269189626
 12
0.0
 22
0.0
 32
0.0
 42
50.0
 43
0.0
 44
0.0
 50
0.0
 71
    16
  0
VIEW
  5
436
330
414
100
AcDbSymbolTableRecord
100
AcDbViewTableRecord
  2
TFR-TRI
 70
     0
 40
16.77181742002173
 10
0.0
 20
0.0
 41
17.17649070187811
 11
0.7188730927569429
 21
-0.5850486126764432
 31
0.375419228750255
 12
0.0
 22
0.0
 32
0.0
 42
50.0
 43
0.0
 44
0.0
 50
0.0000000000000095
 71
    16
  0
ENDTAB
  0
TABLE
  2
UCS
  5
415
330
0
100
AcDbSymbolTable
 70
     0
  0
ENDTAB
  0
TABLE
  2
APPID
  5
417
330
0
100
AcDbSymbolTable
 70
     2
  0
APPID
  5
41F
330
417
100
AcDbSymbolTableRecord
100
AcDbRegAppTableRecord
  2
ACAD
 70
     0
  0
APPID
  5
438
330
417
100
AcDbSymbolTableRecord
100
AcDbRegAppTableRecord
  2
ACADIGES
 70
     0
  0
ENDTAB
  0
TABLE
  2
DIMSTYLE
  5
418
330
0
100
AcDbSymbolTable
 70
     2
  0
DIMSTYLE
105
439
330
418
100
AcDbSymbolTableRecord
100
AcDbDimStyleTableRecord
  2
STANDARD
 70
     0
  3

  4

  5

  6

  7

 40
1.0
 41
0.18
 42
0.0625
 43
0.38
 44
0.18
 45
0.0
 46
0.0
 47
0.0
 48
0.0
140
0.18
141
0.09
142
0.0
143
25.4
144
1.0
145
0.0
146
1.0
147
0.09
 71
     0
 72
     0
 73
     1
 74
     1
 75
     0
 76
     0
 77
     0
 78
     0
170
     1
171
     1
172
     0
173
     0
174
     0
175
     0
176
     0
177
     0
178
     0
270
     2
271
     4
272
     4
273
     2
274
     1
340
41E
275
     0
280
     0
281
     0
282
     0
283
     1
284
     0
285
     0
286
     0
287
     5
288
     0
  0
DIMSTYLE
105
43A
330
418
100
AcDbSymbolTableRecord
100
AcDbDimStyleTableRecord
  2
JENNA
 70
     0
  3

  4

  5

  6

  7

 40
1.0
 41
0.18
 42
0.0625
 43
0.38
 44
0.18
 45
0.0
 46
0.0
 47
0.0
 48
0.0
140
0.18
141
0.09
142
0.0
143
25.4
144
1.0
145
0.0
146
1.0
147
0.13
 71
     0
 72
     0
 73
     1
 74
     1
 75
     0
 76
     0
 77
     0
 78
     0
170
     1
171
     1
172
     0
173
     0
174
     0
175
     0
176
     0
177
     0
178
     0
270
     2
271
     4
272
     4
273
     2
274
     1
340
41E
275
     0
280
     0
281
     0
282
     0
283
     1
284
     0
285
     0
286
     0
287
     5
288
     0
  0
ENDTAB
  0
TABLE
  2
BLOCK_RECORD
  5
40F
330
0
100
AcDbSymbolTable
 70
     6
  0
BLOCK_RECORD
  5
426
102
{ACAD_XDICTIONARY
360
47C
102
}
330
40F
100
AcDbSymbolTableRecord
100
AcDbBlockTableRecord
  2
*MODEL_SPACE
  0
BLOCK_RECORD
  5
423
102
{ACAD_XDICTIONARY
360
47A
102
}
330
40F
100
AcDbSymbolTableRecord
100
AcDbBlockTableRecord
  2
*PAPER_SPACE
  0
BLOCK_RECORD
  5
42A
330
40F
100
AcDbSymbolTableRecord
100
AcDbBlockTableRecord
  2
DVIEWBLOCK
  0
BLOCK_RECORD
  5
42C
330
40F
100
AcDbSymbolTableRecord
100
AcDbBlockTableRecord
  2
NOTES
  0
ENDTAB
  0
ENDSEC
  0
SECTION
  2
BLOCKS
  0
BLOCK
  5
441
330
426
100
AcDbEntity
  8
0
100
AcDbBlockBegin
  2
*MODEL_SPACE
 70
     0
 10
0.0
 20
0.0
 30
0.0
  3
*MODEL_SPACE
  1

  0
ENDBLK
  5
442
330
426
100
AcDbEntity
  8
0
100
AcDbBlockEnd
  0
BLOCK
  5
43F
330
423
100
AcDbEntity
 67
     1
  8
0
100
AcDbBlockBegin
  2
*PAPER_SPACE
 70
     0
 10
0.0
 20
0.0
 30
0.0
  3
*PAPER_SPACE
  1

  0
ENDBLK
  5
440
330
423
100
AcDbEntity
 67
     1
  8
0
100
AcDbBlockEnd
  0
BLOCK
  5
205
330
42A
100
AcDbEntity
  8
0
100
AcDbBlockBegin
  2
DVIEWBLOCK
 70
     0
 10
0.0
 20
0.0
 30
0.0
  3
DVIEWBLOCK
  1

  0
3DFACE
  5
206
330
42A
100
AcDbEntity
  8
IGES_FRZ
 62
     4
100
AcDbFace
 10
0.1
 20
0.1
 30
0.0
 11
0.9
 21
0.1
 31
0.0
 12
0.9
 22
0.9
 32
0.0
 13
0.1
 23
0.9
 33
0.0
  0
3DFACE
  5
207
330
42A
100
AcDbEntity
  8
IGES_FRZ
 62
     4
100
AcDbFace
 10
0.1
 20
0.1
 30
0.0
 11
0.1
 21
0.1
 31
0.595
 12
0.2
 22
0.1
 32
0.4
 13
0.2
 23
0.1
 33
0.0
 70
    10
  0
3DFACE
  5
208
330
42A
100
AcDbEntity
  8
IGES_FRZ
 62
     4
100
AcDbFace
 10
0.2
 20
0.1
 30
0.4
 11
0.1
 21
0.1
 31
0.595
 12
0.9
 22
0.1
 32
0.595
 13
0.4
 23
0.1
 33
0.4
 70
     5
  0
3DFACE
  5
209
330
42A
100
AcDbEntity
  8
IGES_FRZ
 62
     4
100
AcDbFace
 10
0.4
 20
0.1
 30
0.0
 11
0.4
 21
0.1
 31
0.4
 12
0.9
 22
0.1
 32
0.595
 13
0.9
 23
0.1
 33
0.0
 70
    14
  0
3DFACE
  5
20A
330
42A
100
AcDbEntity
  8
IGES_FRZ
 62
     7
100
AcDbFace
 10
0.2
 20
0.1
 30
0.005
 11
0.2
 21
0.1
 31
0.4
 12
0.34
 22
0.24
 32
0.4
 13
0.34
 23
0.24
 33
0.005
 70
     1
  0
3DFACE
  5
20B
330
42A
100
AcDbEntity
  8
IGES_FRZ
 62
     4
100
AcDbFace
 10
0.9
 20
0.1
 30
0.0
 11
0.9
 21
0.1
 31
0.595
 12
0.9
 22
0.5
 32
0.9949999999999999
 13
0.9
 23
0.3
 33
0.4
 70
    12
  0
3DFACE
  5
20C
330
42A
100
AcDbEntity
  8
IGES_FRZ
 62
     4
100
AcDbFace
 10
0.9
 20
0.3
 30
0.4
 11
0.9
 21
0.5
 31
0.9949999999999999
 12
0.9
 22
0.9
 32
0.595
 13
0.9
 23
0.7000000000000001
 33
0.4
 70
     5
  0
3DFACE
  5
20D
330
42A
100
AcDbEntity
  8
IGES_FRZ
 62
     4
100
AcDbFace
 10
0.9
 20
0.7000000000000001
 30
0.4
 11
0.9
 21
0.9
 31
0.595
 12
0.9
 22
0.9
 32
0.0
 13
0.9
 23
0.7000000000000001
 33
0.2
 70
     7
  0
3DFACE
  5
20E
330
42A
100
AcDbEntity
  8
IGES_FRZ
 62
     4
100
AcDbFace
 10
0.9
 20
0.7000000000000001
 30
0.2
 11
0.9
 21
0.9
 31
0.0
 12
0.9
 22
0.1
 32
0.0
 13
0.9
 23
0.3
 33
0.2
 70
     7
  0
3DFACE
  5
20F
330
42A
100
AcDbEntity
  8
IGES_FRZ
 62
     4
100
AcDbFace
 10
0.9
 20
0.3
 30
0.2
 11
0.9
 21
0.3
 31
0.2
 12
0.9
 22
0.1
 32
0.0
 13
0.9
 23
0.3
 33
0.4
 70
     7
  0
3DFACE
  5
210
330
42A
100
AcDbEntity
  8
IGES_FRZ
 62
     4
100
AcDbFace
 10
0.9
 20
0.9
 30
0.0
 11
0.9
 21
0.9
 31
0.595
 12
0.1
 22
0.9
 32
0.595
 13
0.1
 23
0.9
 33
0.0
 70
    12
  0
3DFACE
  5
211
330
42A
100
AcDbEntity
  8
IGES_FRZ
 62
     4
100
AcDbFace
 10
0.1
 20
0.9
 30
0.0
 11
0.1
 21
0.9
 31
0.595
 12
0.1
 22
0.5
 32
0.9949999999999999
 13
0.1
 23
0.5
 33
0.0
 70
    12
  0
3DFACE
  5
212
330
42A
100
AcDbEntity
  8
IGES_FRZ
 62
     4
100
AcDbFace
 10
0.1
 20
0.5
 30
0.0
 11
0.1
 21
0.5
 31
0.9949999999999999
 12
0.1
 22
0.1
 32
0.595
 13
0.1
 23
0.1
 33
0.0
 70
    13
  0
3DFACE
  5
213
330
42A
100
AcDbEntity
  8
IGES_FRZ
 62
     1
100
AcDbFace
 10
0.2
 20
0.6
 30
0.9
 11
0.2
 21
0.6
 31
1.0
 12
0.3
 22
0.6
 32
1.0
 13
0.3
 23
0.6
 33
0.9
 70
     4
  0
3DFACE
  5
214
330
42A
100
AcDbEntity
  8
IGES_FRZ
 62
     1
100
AcDbFace
 10
0.3
 20
0.6
 30
0.9
 11
0.3
 21
0.6
 31
1.0
 12
0.3
 22
0.7000000000000001
 32
1.0
 13
0.3
 23
0.7000000000000001
 33
0.8
 70
     4
  0
3DFACE
  5
215
330
42A
100
AcDbEntity
  8
IGES_FRZ
 62
     1
100
AcDbFace
 10
0.3
 20
0.7000000000000001
 30
0.8
 11
0.3
 21
0.7000000000000001
 31
1.0
 12
0.2
 22
0.7000000000000001
 32
1.0
 13
0.2
 23
0.7000000000000001
 33
0.8
 70
     4
  0
3DFACE
  5
216
330
42A
100
AcDbEntity
  8
IGES_FRZ
 62
     1
100
AcDbFace
 10
0.2
 20
0.7000000000000001
 30
0.8
 11
0.2
 21
0.7000000000000001
 31
1.0
 12
0.2
 22
0.6
 32
1.0
 13
0.2
 23
0.6
 33
0.9
 70
     4
  0
3DFACE
  5
217
330
42A
100
AcDbEntity
  8
IGES_FRZ
 62
     4
100
AcDbFace
 10
0.0
 20
0.0
 30
0.5
 11
1.0
 21
0.0
 31
0.5
 12
1.0
 22
0.5
 32
1.0
 13
0.0
 23
0.5
 33
1.0
  0
3DFACE
  5
218
330
42A
100
AcDbEntity
  8
IGES_FRZ
 62
     4
100
AcDbFace
 10
0.0
 20
0.5
 30
1.0
 11
1.0
 21
0.5
 31
1.0
 12
1.0
 22
1.0
 32
0.5
 13
0.0
 23
1.0
 33
0.5
 70
     1
  0
ENDBLK
  5
219
330
42A
100
AcDbEntity
  8
0
100
AcDbBlockEnd
  0
BLOCK
  5
250
330
42C
100
AcDbEntity
  8
0
100
AcDbBlockBegin
  2
NOTES
 70
     0
 10
0.0
 20
0.0
 30
0.0
  3
NOTES
  1

  0
TEXT
  5
24D
330
42C
100
AcDbEntity
  8
0
  6
CONTINUOUS
100
AcDbText
 10
0.0684721909189179
 20
-1.719478924633133
 30
0.0
 40
0.18
  1
USE OF THIS DRAWING IS SUBECT
100
AcDbText
  0
TEXT
  5
40B
330
42C
100
AcDbEntity
  8
0
  6
CONTINUOUS
100
AcDbText
 10
0.0684721909189179
 20
-2.019478924633133
 30
0.0
 40
0.18
  1
TO THE TERMS OF THE PANDUIT 
100
AcDbText
1001
ACAD
1000
R13OBJECT
1002
{
1005
24D
1002
}
  0
TEXT
  5
40C
330
42C
100
AcDbEntity
  8
0
  6
CONTINUOUS
100
AcDbText
 10
0.0684721909189179
 20
-2.319478924633133
 30
0.0
 40
0.18
  1
PAN-CAD  SOFTWARE LICENSE AGREEMENT.
100
AcDbText
1001
ACAD
1000
R13OBJECT
1002
{
1005
24D
1002
}
  0
TEXT
  5
24E
330
42C
100
AcDbEntity
  8
0
  6
CONTINUOUS
100
AcDbText
 10
0.0684721909189179
 20
-0.2342106407305138
 30
0.0
 40
0.2
  1
CBX6**-A
100
AcDbText
  0
TEXT
  5
40D
330
42C
100
AcDbEntity
  8
0
  6
CONTINUOUS
100
AcDbText
 10
0.0684721909189179
 20
-0.5675439740638472
 30
0.0
 40
0.2
  1
MINI-COM 6 POSITION BOX
100
AcDbText
1001
ACAD
1000
R13OBJECT
1002
{
1005
24E
1002
}
  0
TEXT
  5
40E
330
42C
100
AcDbEntity
  8
0
  6
CONTINUOUS
100
AcDbText
 10
0.0684721909189179
 20
-0.9008773073971806
 30
0.0
 40
0.2
  1
LATEST ISSUE:  10-16-96
100
AcDbText
1001
ACAD
1000
R13OBJECT
1002
{
1005
24E
1002
}
  0
TEXT
  5
24F
330
42C
100
AcDbEntity
  8
0
  6
CONTINUOUS
100
AcDbText
 10
1.35232625226942
 20
-2.232638581470858
 30
0.0
 40
0.1
  1
TM
100
AcDbText
  0
ENDBLK
  5
251
330
42C
100
AcDbEntity
  8
0
100
AcDbBlockEnd
  0
ENDSEC
  0
SECTION
  2
ENTITIES
  0
LINE
  5
2C
330
426
100
AcDbEntity
  8
1_TOP
  6
CONTINUOUS
 62
     7
100
AcDbLine
 10
5.442300529228849
 20
4.796366337867539
 30
0.0
 11
2.754648282370089
 21
4.796366337867539
 31
0.0
  0
LINE
  5
2D
330
426
100
AcDbEntity
  8
1_TOP
  6
CONTINUOUS
 62
     7
100
AcDbLine
 10
3.160974405798581
 20
0.7310830480008095
 30
0.408043434478702
 11
3.160974405798569
 21
1.080649627734209
 31
0.408043434478702
  0
LINE
  5
2E
330
426
100
AcDbEntity
  8
1_TOP
  6
CONTINUOUS
 62
     7
100
AcDbLine
 10
3.226049897076491
 20
0.700913641763199
 30
0.348043434478702
 11
3.226049897076491
 21
1.110819033971809
 31
0.348043434478702
  0
LINE
  5
2F
330
426
100
AcDbEntity
  8
1_TOP
  6
CONTINUOUS
 62
     7
100
AcDbLine
 10
3.1943603822487
 20
0.7003899898153492
 30
0.3780434344787019
 11
3.223425237170711
 21
0.7003899898153492
 31
0.3780434344787019
  0
LINE
  5
30
330
426
100
AcDbEntity
  8
1_TOP
  6
CONTINUOUS
 62
     7
100
AcDbLine
 10
3.223425237170711
 20
1.111342685919659
 30
0.378043434478701
 11
3.1943603822487
 21
1.111342685919659
 31
0.378043434478701
  0
LINE
  5
31
330
426
100
AcDbEntity
  8
1_TOP
  6
CONTINUOUS
 62
     7
100
AcDbLine
 10
5.09847440580036
 20
4.392866337867578
 30
0.408043434478702
 11
3.098474405798569
 21
4.392866337867578
 31
0.408043434478702
  0
LINE
  5
32
330
426
100
AcDbEntity
  8
1_TOP
  6
CONTINUOUS
 62
     7
100
AcDbLine
 10
4.970898914522451
 20
3.981913641763268
 30
0.348043434478702
 11
3.226049897076491
 21
3.981913641763268
 31
0.348043434478702
  0
LINE
  5
33
330
426
100
AcDbEntity
  8
1_TOP
  6
CONTINUOUS
 62
     7
100
AcDbLine
 10
5.0046863918158
 20
3.980866337867579
 30
0.408043434478702
 11
3.192262577890399
 21
3.980866337867579
 31
0.408043434478702
  0
LINE
  5
34
330
426
100
AcDbEntity
  8
1_TOP
  6
CONTINUOUS
 62
     7
100
AcDbLine
 10
4.148474405799469
 20
4.235866337867559
 30
0.148613244104533
 11
4.048474405799471
 21
4.235866337867559
 31
0.148613244104533
  0
LINE
  5
35
330
426
100
AcDbEntity
  8
1_TOP
  6
CONTINUOUS
 62
     7
100
AcDbLine
 10
4.148474405799469
 20
4.263883616398309
 30
0.148613244104533
 11
4.160974405799951
 21
4.263883616398309
 31
0.148613244104533
  0
LINE
  5
36
330
426
100
AcDbEntity
  8
1_TOP
  6
CONTINUOUS
 62
     7
100
AcDbLine
 10
4.970898914522451
 20
0.700913641763199
 30
0.348043434478702
 11
3.226049897076481
 21
0.700913641763199
 31
0.348043434478702
  0
LINE
  5
37
330
426
100
AcDbEntity
  8
1_TOP
  6
CONTINUOUS
 62
     7
100
AcDbLine
 10
2.754648282370089
 20
0.2963663378675392
 30
0.0
 11
5.442300529228849
 21
0.2963663378675392
 31
0.0
  0
LINE
  5
38
330
426
100
AcDbEntity
  8
1_TOP
  6
CONTINUOUS
 62
     7
100
AcDbLine
 10
5.473474405799469
 20
0.3275402144381596
 30
0.0
 11
5.473474405799469
 21
4.765192461296918
 31
0.0
  0
LINE
  5
39
330
426
100
AcDbEntity
  8
1_TOP
  6
CONTINUOUS
 62
     7
100
AcDbLine
 10
4.048474405799471
 20
4.263883616398309
 30
0.148613244104533
 11
4.035974405798981
 21
4.263883616398309
 31
0.148613244104533
  0
LINE
  5
3A
330
426
100
AcDbEntity
  8
1_TOP
  6
CONTINUOUS
 62
     7
100
AcDbLine
 10
4.035974405798981
 20
4.10984905933679
 30
0.148613244104533
 11
4.048474405799471
 21
4.109849059336799
 31
0.148613244104533
  0
LINE
  5
3B
330
426
100
AcDbEntity
  8
1_TOP
  6
CONTINUOUS
 62
     7
100
AcDbLine
 10
4.048474405799471
 20
4.109849059336799
 30
0.148613244104533
 11
4.148474405799469
 21
4.109849059336799
 31
0.148613244104533
  0
LINE
  5
3C
330
426
100
AcDbEntity
  8
1_TOP
  6
CONTINUOUS
 62
     7
100
AcDbLine
 10
4.160974405799951
 20
4.10984905933679
 30
0.148613244104533
 11
4.148474405799469
 21
4.109849059336799
 31
0.148613244104533
  0
LINE
  5
3D
330
426
100
AcDbEntity
  8
1_TOP
  6
CONTINUOUS
 62
     7
100
AcDbLine
 10
4.148474405799469
 20
4.263883616398309
 30
0.148613244104533
 11
4.048474405799471
 21
4.263883616398309
 31
0.148613244104533
  0
LINE
  5
3E
330
426
100
AcDbEntity
  8
1_TOP
  6
CONTINUOUS
 62
     7
100
AcDbLine
 10
2.72347440579947
 20
0.3275402144381596
 30
0.0
 11
2.72347440579947
 21
4.765192461296918
 31
0.0
  0
LINE
  5
3F
330
426
100
AcDbEntity
  8
1_TOP
  6
CONTINUOUS
 62
     7
100
AcDbLine
 10
4.148474405799469
 20
0.9548663378675303
 30
0.148613244104533
 11
4.048474405799471
 21
0.9548663378675303
 31
0.148613244104533
  0
LINE
  5
40
330
426
100
AcDbEntity
  8
1_TOP
  6
CONTINUOUS
 62
     7
100
AcDbLine
 10
4.148474405799469
 20
0.9548663378675303
 30
0.148613244104533
 11
4.148474405799469
 21
0.98288361639829
 31
0.148613244104533
  0
LINE
  5
41
330
426
100
AcDbEntity
  8
1_TOP
  6
CONTINUOUS
 62
     7
100
AcDbLine
 10
4.048474405799471
 20
0.9548663378675303
 30
0.148613244104533
 11
4.048474405799471
 21
0.98288361639829
 31
0.148613244104533
  0
LINE
  5
42
330
426
100
AcDbEntity
  8
1_TOP
  6
CONTINUOUS
 62
     7
100
AcDbLine
 10
4.148474405799469
 20
0.8568663378675296
 30
0.148613244104533
 11
4.148474405799469
 21
0.8288490593367692
 31
0.148613244104533
  0
LINE
  5
43
330
426
100
AcDbEntity
  8
1_TOP
  6
CONTINUOUS
 62
     7
100
AcDbLine
 10
4.148474405799469
 20
0.8568663378675296
 30
0.148613244104533
 11
4.048474405799471
 21
0.8568663378675296
 31
0.148613244104533
  0
LINE
  5
44
330
426
100
AcDbEntity
  8
1_TOP
  6
CONTINUOUS
 62
     7
100
AcDbLine
 10
4.048474405799471
 20
0.8568663378675296
 30
0.148613244104533
 11
4.048474405799471
 21
0.8288490593367692
 31
0.148613244104533
  0
LINE
  5
45
330
426
100
AcDbEntity
  8
1_TOP
  6
CONTINUOUS
 62
     7
100
AcDbLine
 10
4.035974405798981
 20
0.98288361639829
 30
0.148613244104533
 11
4.048474405799471
 21
0.98288361639829
 31
0.148613244104533
  0
LINE
  5
46
330
426
100
AcDbEntity
  8
1_TOP
  6
CONTINUOUS
 62
     7
100
AcDbLine
 10
4.048474405799471
 20
0.98288361639829
 30
0.148613244104533
 11
4.148474405799469
 21
0.98288361639829
 31
0.148613244104533
  0
LINE
  5
47
330
426
100
AcDbEntity
  8
1_TOP
  6
CONTINUOUS
 62
     7
100
AcDbLine
 10
4.160974405799951
 20
0.98288361639829
 30
0.148613244104533
 11
4.148474405799469
 21
0.98288361639829
 31
0.148613244104533
  0
LINE
  5
48
330
426
100
AcDbEntity
  8
1_TOP
  6
CONTINUOUS
 62
     7
100
AcDbLine
 10
4.148474405799469
 20
0.8288490593367692
 30
0.148613244104533
 11
4.048474405799471
 21
0.8288490593367692
 31
0.148613244104533
  0
LINE
  5
49
330
426
100
AcDbEntity
  8
1_TOP
  6
CONTINUOUS
 62
     7
100
AcDbLine
 10
4.048474405799471
 20
0.8288490593367692
 30
0.148613244104533
 11
4.035974405798981
 21
0.8288490593367692
 31
0.148613244104533
  0
LINE
  5
4A
330
426
100
AcDbEntity
  8
1_TOP
  6
CONTINUOUS
 62
     7
100
AcDbLine
 10
4.148474405799469
 20
0.8288490593367692
 30
0.148613244104533
 11
4.160974405799951
 21
0.8288490593367692
 31
0.148613244104533
  0
LINE
  5
4B
330
426
100
AcDbEntity
  8
1_TOP
  6
CONTINUOUS
 62
     7
100
AcDbLine
 10
5.03597440580036
 20
4.361649627734278
 30
0.408043434478702
 11
5.03597440580036
 21
4.01208304800088
 31
0.408043434478702
  0
LINE
  5
4C
330
426
100
AcDbEntity
  8
1_TOP
  6
CONTINUOUS
 62
     7
100
AcDbLine
 10
4.970898914522451
 20
4.39181903397189
 30
0.348043434478702
 11
4.970898914522451
 21
3.981913641763268
 31
0.348043434478702
  0
LINE
  5
4D
330
426
100
AcDbEntity
  8
1_TOP
  6
CONTINUOUS
 62
     7
100
AcDbLine
 10
5.002588429350231
 20
4.39234268591973
 30
0.3780434344787019
 11
4.973523574428221
 21
4.39234268591973
 31
0.3780434344787019
  0
LINE
  5
4E
330
426
100
AcDbEntity
  8
1_TOP
  6
CONTINUOUS
 62
     7
100
AcDbLine
 10
5.033876601442051
 20
4.012606699948718
 30
0.3780434344787019
 11
5.033876601442051
 21
4.361125975786428
 31
0.3780434344787019
  0
LINE
  5
4F
330
426
100
AcDbEntity
  8
1_TOP
  6
CONTINUOUS
 62
     7
100
AcDbLine
 10
4.973523574428221
 20
3.981389989815419
 30
0.378043434478701
 11
5.002588429350231
 21
3.981389989815419
 31
0.3780434344787019
  0
LINE
  5
50
330
426
100
AcDbEntity
  8
1_TOP
  6
CONTINUOUS
 62
     7
100
AcDbLine
 10
4.970898914522451
 20
4.39181903397189
 30
0.348043434478702
 11
4.973523574428221
 21
4.39234268591973
 31
0.3780434344787019
  0
LINE
  5
51
330
426
100
AcDbEntity
  8
1_TOP
  6
CONTINUOUS
 62
     7
100
AcDbLine
 10
5.09847440580036
 20
0.6998663378675101
 30
0.408043434478702
 11
3.098474405798569
 21
0.6998663378675101
 31
0.408043434478702
  0
LINE
  5
52
330
426
100
AcDbEntity
  8
1_TOP
  6
CONTINUOUS
 62
     7
100
AcDbLine
 10
3.226049897076491
 20
0.700913641763199
 30
0.348043434478702
 11
3.223425237170711
 21
0.7003899898153492
 31
0.3780434344787019
  0
LINE
  5
53
330
426
100
AcDbEntity
  8
1_TOP
  6
CONTINUOUS
 62
     7
100
AcDbLine
 10
5.03597440580036
 20
0.7310830480008095
 30
0.408043434478702
 11
5.03597440580036
 21
1.080649627734209
 31
0.408043434478702
  0
LINE
  5
54
330
426
100
AcDbEntity
  8
1_TOP
  6
CONTINUOUS
 62
     7
100
AcDbLine
 10
4.970898914522451
 20
0.700913641763199
 30
0.348043434478702
 11
4.970898914522451
 21
1.110819033971809
 31
0.348043434478702
  0
LINE
  5
55
330
426
100
AcDbEntity
  8
1_TOP
  6
CONTINUOUS
 62
     7
100
AcDbLine
 10
5.004773574428221
 20
0.7003899898153492
 30
0.3780434344787019
 11
4.973523574428221
 21
0.7003899898153492
 31
0.3780434344787019
  0
LINE
  5
56
330
426
100
AcDbEntity
  8
1_TOP
  6
CONTINUOUS
 62
     7
100
AcDbLine
 10
4.973523574428221
 20
1.111342685919659
 30
0.378043434478701
 11
5.002588429350231
 21
1.111342685919659
 31
0.3780434344787019
  0
LINE
  5
57
330
426
100
AcDbEntity
  8
1_TOP
  6
CONTINUOUS
 62
     7
100
AcDbLine
 10
4.970898914522451
 20
0.700913641763199
 30
0.348043434478702
 11
4.973523574428221
 21
0.7003899898153492
 31
0.3780434344787019
  0
LINE
  5
58
330
426
100
AcDbEntity
  8
1_TOP
  6
CONTINUOUS
 62
     7
100
AcDbLine
 10
3.160974405798581
 20
4.361649627734278
 30
0.408043434478702
 11
3.160974405798569
 21
4.01208304800088
 31
0.408043434478702
  0
LINE
  5
59
330
426
100
AcDbEntity
  8
1_TOP
  6
CONTINUOUS
 62
     7
100
AcDbLine
 10
3.226049897076491
 20
4.39181903397189
 30
0.348043434478702
 11
3.226049897076491
 21
3.981913641763268
 31
0.348043434478702
  0
LINE
  5
5A
330
426
100
AcDbEntity
  8
1_TOP
  6
CONTINUOUS
 62
     7
100
AcDbLine
 10
3.1943603822487
 20
4.39234268591973
 30
0.3780434344787019
 11
3.223425237170711
 21
4.39234268591973
 31
0.3780434344787019
  0
LINE
  5
5B
330
426
100
AcDbEntity
  8
1_TOP
  6
CONTINUOUS
 62
     7
100
AcDbLine
 10
3.223425237170711
 20
3.981389989815419
 30
0.378043434478701
 11
3.1943603822487
 21
3.981389989815419
 31
0.378043434478701
  0
LINE
  5
5C
330
426
100
AcDbEntity
  8
1_TOP
  6
CONTINUOUS
 62
     7
100
AcDbLine
 10
4.160974405799951
 20
4.340265468290018
 30
0.3480434344788519
 11
4.035974405798981
 21
4.340265468290018
 31
0.3480434344788519
  0
LINE
  5
5D
330
426
100
AcDbEntity
  8
1_TOP
  6
CONTINUOUS
 62
     7
100
AcDbLine
 10
4.035974405798981
 20
4.033467207445089
 30
0.3480434344788519
 11
4.160974405799951
 21
4.033467207445089
 31
0.348043434478702
  0
LINE
  5
5E
330
426
100
AcDbEntity
  8
1_TOP
  6
CONTINUOUS
 62
     7
100
AcDbLine
 10
4.048474405799471
 20
4.235866337867559
 30
0.148613244104533
 11
4.048474405799471
 21
4.263883616398309
 31
0.148613244104533
  0
LINE
  5
5F
330
426
100
AcDbEntity
  8
1_TOP
  6
CONTINUOUS
 62
     7
100
AcDbLine
 10
4.148474405799469
 20
4.235866337867559
 30
0.148613244104533
 11
4.148474405799469
 21
4.263883616398309
 31
0.148613244104533
  0
LINE
  5
60
330
426
100
AcDbEntity
  8
1_TOP
  6
CONTINUOUS
 62
     7
100
AcDbLine
 10
4.048474405799471
 20
4.137866337867548
 30
0.148613244104533
 11
4.048474405799471
 21
4.109849059336799
 31
0.148613244104533
  0
LINE
  5
61
330
426
100
AcDbEntity
  8
1_TOP
  6
CONTINUOUS
 62
     7
100
AcDbLine
 10
4.148474405799469
 20
4.137866337867548
 30
0.148613244104533
 11
4.148474405799469
 21
4.109849059336799
 31
0.148613244104533
  0
LINE
  5
62
330
426
100
AcDbEntity
  8
1_TOP
  6
CONTINUOUS
 62
     7
100
AcDbLine
 10
4.148474405799469
 20
4.137866337867548
 30
0.148613244104533
 11
4.048474405799471
 21
4.137866337867548
 31
0.148613244104533
  0
LINE
  5
63
330
426
100
AcDbEntity
  8
1_TOP
  6
CONTINUOUS
 62
     7
100
AcDbLine
 10
3.098474405798569
 20
4.392866337867698
 30
0.408043434478702
 11
3.098474405798569
 21
0.6998663378675989
 31
0.408043434478702
  0
LINE
  5
64
330
426
100
AcDbEntity
  8
1_TOP
  6
CONTINUOUS
 62
     7
100
AcDbLine
 10
5.09847440580036
 20
4.39286633786757
 30
0.408043434478702
 11
5.09847440580036
 21
0.6998663378675989
 31
0.408043434478702
  0
LINE
  5
65
330
426
100
AcDbEntity
  8
1_TOP
  6
CONTINUOUS
 62
     7
100
AcDbLine
 10
4.160974405799951
 20
0.7524672074450695
 30
0.3480434344788519
 11
4.035974405798981
 21
0.7524672074450695
 31
0.3480434344788519
  0
LINE
  5
66
330
426
100
AcDbEntity
  8
1_TOP
  6
CONTINUOUS
 62
     7
100
AcDbLine
 10
4.035974405798981
 20
1.059265468289999
 30
0.3480434344788519
 11
4.160974405799951
 21
1.059265468289999
 31
0.348043434478702
  0
LINE
  5
67
330
426
100
AcDbEntity
  8
1_TOP
  6
CONTINUOUS
 62
     7
100
AcDbLine
 10
4.970898914522451
 20
1.110819033971809
 30
0.348043434478702
 11
3.226049897076491
 21
1.110819033971809
 31
0.348043434478702
  0
LINE
  5
68
330
426
100
AcDbEntity
  8
1_TOP
  6
CONTINUOUS
 62
     7
100
AcDbLine
 10
5.004686469721471
 20
1.111866337867508
 30
0.408043434478702
 11
3.192262399878149
 21
1.111866337867508
 31
0.408043434478702
  0
LINE
  5
69
330
426
100
AcDbEntity
  8
1_TOP
  6
CONTINUOUS
 62
     7
100
AcDbLine
 10
9.393591222528831
 20
4.791997101895972
 30
-0.0213779012491353
 11
9.69930945356166
 21
4.813375003145115
 31
0.0
  0
LINE
  5
6A
330
426
100
AcDbEntity
  8
1_TOP
  6
CONTINUOUS
 62
     7
100
AcDbLine
 10
9.69930945356166
 20
0.313375003145115
 30
0.0
 11
9.393591222528851
 21
0.3347529043942448
 31
-0.0213779012491342
  0
LINE
  5
6B
330
426
100
AcDbEntity
  8
1_TOP
  6
CONTINUOUS
 62
     7
100
AcDbLine
 10
9.69930945356166
 20
0.3445488797157346
 30
0.0311738765706195
 11
9.69930945356166
 21
4.782201126574494
 31
0.0311738765706195
  0
LINE
  5
6C
330
426
100
AcDbEntity
  8
1_TOP
  6
CONTINUOUS
 62
     7
100
AcDbLine
 10
9.69930945356166
 20
0.4375488797157347
 30
-2.625826123429378
 11
9.699309453561653
 21
2.158485262796923
 31
-2.625826123429378
  0
LINE
  5
6D
330
426
100
AcDbEntity
  8
1_TOP
  6
CONTINUOUS
 62
     7
100
AcDbLine
 10
9.69930945356166
 20
2.987572998786063
 30
-1.235336850208109
 11
9.936312366189133
 21
2.971000140684703
 31
-1.247757646542529
  0
LINE
  5
6E
330
426
100
AcDbEntity
  8
1_TOP
  6
CONTINUOUS
 62
     7
100
AcDbLine
 10
9.820266019082962
 20
2.887614644831274
 30
-1.241675915196789
 11
9.820266019082962
 21
2.917921880886923
 31
-1.241675915196789
  0
LINE
  5
6F
330
426
100
AcDbEntity
  8
1_TOP
  6
CONTINUOUS
 62
     7
100
AcDbLine
 10
9.844906947596028
 20
2.841301834861394
 30
-1.242967291539629
 11
9.802762172701571
 21
2.837614644831274
 31
-1.240758577479029
  0
LINE
  5
70
330
426
100
AcDbEntity
  8
1_TOP
  6
CONTINUOUS
 62
     7
100
AcDbLine
 10
9.802762172701571
 20
2.847377367788593
 30
-1.240758577479029
 11
9.802762172701571
 21
2.837614644831274
 31
-1.240758577479029
  0
LINE
  5
71
330
426
100
AcDbEntity
  8
1_TOP
  6
CONTINUOUS
 62
     7
100
AcDbLine
 10
9.93192790859582
 20
2.912500802952134
 30
-1.247527866856699
 11
9.844906947596028
 21
2.841301834861394
 31
-1.242967291539629
  0
LINE
  5
72
330
426
100
AcDbEntity
  8
1_TOP
  6
CONTINUOUS
 62
     7
100
AcDbLine
 10
9.820266019082962
 20
2.917921880886923
 30
-1.241675915196789
 11
9.69930945356166
 21
2.920033185591593
 31
-1.235336850208109
  0
LINE
  5
74
330
426
100
AcDbEntity
  8
1_TOP
  6
CONTINUOUS
 62
     7
100
AcDbLine
 10
3.694035404940271
 20
2.202233754226099
 30
0.3592049781759191
 11
3.867913406658661
 21
2.202233754226099
 31
0.3592049781759191
  0
LINE
  5
75
330
426
100
AcDbEntity
  8
1_TOP
  6
CONTINUOUS
 62
     7
100
AcDbLine
 10
3.694035404940271
 20
2.212256549879558
 30
0.3479862847418671
 11
3.694035404940271
 21
2.212232231177658
 31
0.3493795022402919
  0
LINE
  5
76
330
426
100
AcDbEntity
  8
1_TOP
  6
CONTINUOUS
 62
     7
100
AcDbLine
 10
3.694035404940271
 20
2.183438209204458
 30
0.3592049781759191
 11
3.694035404940259
 21
2.212232231177658
 31
-1.290403435863568
  0
LINE
  5
77
330
426
100
AcDbEntity
  8
1_TOP
  6
CONTINUOUS
 62
     7
100
AcDbLine
 10
4.519041951749821
 20
2.820605979553708
 30
-0.103452719139911
 11
4.31290685984911
 21
2.820605979553708
 31
-0.103452719139911
  0
LINE
  5
78
330
426
100
AcDbEntity
  8
1_TOP
  6
CONTINUOUS
 62
     7
100
AcDbLine
 10
4.518124614032061
 20
2.900913215609357
 30
-0.120956565521298
 11
4.31382419756687
 21
2.900913215609357
 31
-0.120956565521298
  0
LINE
  5
79
330
426
100
AcDbEntity
  8
1_TOP
  6
CONTINUOUS
 62
     7
100
AcDbLine
 10
4.518124614032061
 20
2.870605979553709
 30
-0.120956565521297
 11
4.31382419756687
 21
2.870605979553709
 31
-0.120956565521297
  0
LINE
  5
7A
330
426
100
AcDbEntity
  8
1_TOP
  6
CONTINUOUS
 62
     7
100
AcDbLine
 10
4.51895855741184
 20
2.834026636787628
 30
-0.105043977901855
 11
4.312990254187091
 21
2.834026636787628
 31
-0.105043977901855
  0
LINE
  5
7B
330
426
100
AcDbEntity
  8
1_TOP
  6
CONTINUOUS
 62
     7
100
AcDbLine
 10
4.519041951749821
 20
2.830368702511028
 30
-0.103452719139911
 11
4.519041951749821
 21
2.820605979553708
 31
-0.103452719139911
  0
LINE
  5
7C
330
426
100
AcDbEntity
  8
1_TOP
  6
CONTINUOUS
 62
     7
100
AcDbLine
 10
4.518124614032061
 20
2.870605979553709
 30
-0.120956565521297
 11
4.518124614032061
 21
2.900913215609357
 31
-0.120956565521298
  0
LINE
  5
7D
330
426
100
AcDbEntity
  8
1_TOP
  6
CONTINUOUS
 62
     7
100
AcDbLine
 10
3.67882419756687
 20
2.900913215609357
 30
-0.120956565521298
 11
3.654247944173921
 21
2.909098643508318
 31
0.347986284741868
  0
LINE
  5
7E
330
426
100
AcDbEntity
  8
1_TOP
  6
CONTINUOUS
 62
     7
100
AcDbLine
 10
3.883124614032059
 20
2.900913215609357
 30
-0.120956565521298
 11
3.907700867425009
 21
2.909098643508318
 31
0.347986284741868
  0
LINE
  5
7F
330
426
100
AcDbEntity
  8
1_TOP
  6
CONTINUOUS
 62
     7
100
AcDbLine
 10
3.46742610435141
 20
2.182585730778698
 30
0.408043434478702
 11
4.72952270724753
 21
2.182585730778698
 31
0.408043434478702
  0
LINE
  5
80
330
426
100
AcDbEntity
  8
1_TOP
  6
CONTINUOUS
 62
     7
100
AcDbLine
 10
3.67882419756687
 20
2.870605979553709
 30
-0.120956565521297
 11
3.67882419756687
 21
2.900913215609357
 31
-0.120956565521298
  0
LINE
  5
81
330
426
100
AcDbEntity
  8
1_TOP
  6
CONTINUOUS
 62
     7
100
AcDbLine
 10
3.677906859849111
 20
2.830368702511028
 30
-0.103452719139911
 11
3.677906859849111
 21
2.820605979553708
 31
-0.103452719139911
  0
LINE
  5
82
330
426
100
AcDbEntity
  8
1_TOP
  6
CONTINUOUS
 62
     7
100
AcDbLine
 10
3.680115573909712
 20
2.824293169583818
 30
-0.145597494034371
 11
3.677906859849111
 21
2.820605979553708
 31
-0.103452719139911
  0
LINE
  5
83
330
426
100
AcDbEntity
  8
1_TOP
  6
CONTINUOUS
 62
     7
100
AcDbLine
 10
3.677990254187091
 20
2.834026636787628
 30
-0.105043977901855
 11
3.883958557411841
 21
2.834026636787628
 31
-0.105043977901855
  0
LINE
  5
84
330
426
100
AcDbEntity
  8
1_TOP
  6
CONTINUOUS
 62
     7
100
AcDbLine
 10
3.67882419756687
 20
2.870605979553709
 30
-0.120956565521297
 11
3.883124614032059
 21
2.870605979553709
 31
-0.120956565521297
  0
LINE
  5
85
330
426
100
AcDbEntity
  8
1_TOP
  6
CONTINUOUS
 62
     7
100
AcDbLine
 10
3.67882419756687
 20
2.900913215609357
 30
-0.120956565521298
 11
3.883124614032059
 21
2.900913215609357
 31
-0.120956565521298
  0
LINE
  5
86
330
426
100
AcDbEntity
  8
1_TOP
  6
CONTINUOUS
 62
     7
100
AcDbLine
 10
3.677906859849111
 20
2.820605979553708
 30
-0.103452719139911
 11
3.884041951749821
 21
2.820605979553708
 31
-0.103452719139911
  0
LINE
  5
87
330
426
100
AcDbEntity
  8
1_TOP
  6
CONTINUOUS
 62
     7
100
AcDbLine
 10
4.31382419756687
 20
2.900913215609357
 30
-0.120956565521298
 11
4.289247944173919
 21
2.909098643508318
 31
0.347986284741868
  0
LINE
  5
88
330
426
100
AcDbEntity
  8
1_TOP
  6
CONTINUOUS
 62
     7
100
AcDbLine
 10
4.518124614032061
 20
2.900913215609357
 30
-0.120956565521298
 11
4.54270086742501
 21
2.909098643508318
 31
0.347986284741868
  0
LINE
  5
89
330
426
100
AcDbEntity
  8
1_TOP
  6
CONTINUOUS
 62
     7
100
AcDbLine
 10
3.884041951749821
 20
2.830368702511028
 30
-0.103452719139911
 11
3.884041951749821
 21
2.820605979553708
 31
-0.103452719139911
  0
LINE
  5
8A
330
426
100
AcDbEntity
  8
1_TOP
  6
CONTINUOUS
 62
     7
100
AcDbLine
 10
3.883124614032059
 20
2.870605979553709
 30
-0.120956565521297
 11
3.883124614032059
 21
2.900913215609357
 31
-0.120956565521298
  0
LINE
  5
8B
330
426
100
AcDbEntity
  8
1_TOP
  6
CONTINUOUS
 62
     7
100
AcDbLine
 10
3.881833237689221
 20
2.824293169583818
 30
-0.145597494034371
 11
3.884041951749821
 21
2.820605979553708
 31
-0.103452719139911
  0
LINE
  5
8C
330
426
100
AcDbEntity
  8
1_TOP
  6
CONTINUOUS
 62
     7
100
AcDbLine
 10
4.170974405799471
 20
2.909098643508318
 30
0.3479862847418671
 11
4.289247944173919
 21
2.909098643508318
 31
0.347986284741868
  0
LINE
  5
8D
330
426
100
AcDbEntity
  8
1_TOP
  6
CONTINUOUS
 62
     7
100
AcDbLine
 10
4.72952270724753
 20
2.844682333674819
 30
0.408043434478702
 11
4.72952270724753
 21
2.182585730778698
 31
0.408043434478702
  0
LINE
  5
8E
330
426
100
AcDbEntity
  8
1_TOP
  6
CONTINUOUS
 62
     7
100
AcDbLine
 10
4.72952270724753
 20
2.844682333674819
 30
0.408043434478702
 11
4.662022707247531
 21
2.844682333674819
 31
0.408043434478702
  0
LINE
  5
8F
330
426
100
AcDbEntity
  8
1_TOP
  6
CONTINUOUS
 62
     7
100
AcDbLine
 10
4.16992610435141
 20
2.910146944956379
 30
0.408043434478702
 11
4.662022707247531
 21
2.910146944956379
 31
0.408043434478702
  0
LINE
  5
90
330
426
100
AcDbEntity
  8
1_TOP
  6
CONTINUOUS
 62
     7
100
AcDbLine
 10
4.329035404940271
 20
2.183438209204458
 30
0.3592049781759191
 11
4.329035404940271
 21
2.183634032226759
 31
0.3479862847418671
  0
LINE
  5
91
330
426
100
AcDbEntity
  8
1_TOP
  6
CONTINUOUS
 62
     7
100
AcDbLine
 10
4.329035404940271
 20
2.212256549879558
 30
0.3479862847418671
 11
4.329035404940271
 21
2.212232231177658
 31
0.3493795022402919
  0
LINE
  5
92
330
426
100
AcDbEntity
  8
1_TOP
  6
CONTINUOUS
 62
     7
100
AcDbLine
 10
4.329035404940271
 20
2.202233754226099
 30
0.3592049781759191
 11
4.329035404940271
 21
2.183438209204458
 31
0.3592049781759191
  0
LINE
  5
93
330
426
100
AcDbEntity
  8
1_TOP
  6
CONTINUOUS
 62
     7
100
AcDbLine
 10
4.502913406658661
 20
2.183438209204458
 30
0.3592049781759191
 11
4.329035404940271
 21
2.183438209204458
 31
0.3592049781759191
  0
LINE
  5
94
330
426
100
AcDbEntity
  8
1_TOP
  6
CONTINUOUS
 62
     7
100
AcDbLine
 10
4.502913406658661
 20
2.212232231177658
 30
0.3493795022402919
 11
4.329035404940271
 21
2.212232231177658
 31
0.3493795022402919
  0
LINE
  5
95
330
426
100
AcDbEntity
  8
1_TOP
  6
CONTINUOUS
 62
     7
100
AcDbLine
 10
4.502913406658661
 20
2.202233754226099
 30
0.3592049781759191
 11
4.502913406658661
 21
2.183438209204458
 31
0.3592049781759191
  0
LINE
  5
96
330
426
100
AcDbEntity
  8
1_TOP
  6
CONTINUOUS
 62
     7
100
AcDbLine
 10
4.502913406658661
 20
2.183438209204458
 30
0.3592049781759191
 11
4.502913406658661
 21
2.183634032226759
 31
0.3479862847418671
  0
LINE
  5
97
330
426
100
AcDbEntity
  8
1_TOP
  6
CONTINUOUS
 62
     7
100
AcDbLine
 10
4.502913406658661
 20
2.212256549879558
 30
0.3479862847418671
 11
4.502913406658661
 21
2.212232231177658
 31
0.3493795022402919
  0
LINE
  5
98
330
426
100
AcDbEntity
  8
1_TOP
  6
CONTINUOUS
 62
     7
100
AcDbLine
 10
4.502913406658661
 20
2.202233754226099
 30
0.3592049781759191
 11
4.329035404940271
 21
2.202233754226099
 31
0.3592049781759191
  0
LINE
  5
99
330
426
100
AcDbEntity
  8
1_TOP
  6
CONTINUOUS
 62
     7
100
AcDbLine
 10
3.867913406658661
 20
2.183634032226759
 30
0.3479862847418671
 11
4.329035404940271
 21
2.183634032226759
 31
0.3479862847418671
  0
LINE
  5
9A
330
426
100
AcDbEntity
  8
1_TOP
  6
CONTINUOUS
 62
     7
100
AcDbLine
 10
3.694035404940271
 20
2.212232231177658
 30
0.3493795022402919
 11
3.867913406658661
 21
2.212232231177658
 31
0.3493795022402919
  0
LINE
  5
9B
330
426
100
AcDbEntity
  8
1_TOP
  6
CONTINUOUS
 62
     7
100
AcDbLine
 10
3.694035404940271
 20
2.183438209204458
 30
0.3592049781759191
 11
3.867913406658661
 21
2.183438209204458
 31
0.3592049781759191
  0
LINE
  5
9C
330
426
100
AcDbEntity
  8
1_TOP
  6
CONTINUOUS
 62
     7
100
AcDbLine
 10
3.867913406658661
 20
2.202233754226099
 30
0.3592049781759191
 11
3.867913406658661
 21
2.183438209204458
 31
0.3592049781759191
  0
LINE
  5
9D
330
426
100
AcDbEntity
  8
1_TOP
  6
CONTINUOUS
 62
     7
100
AcDbLine
 10
3.867913406658661
 20
2.212256549879558
 30
0.347986284741868
 11
3.867913406658661
 21
2.212232231177658
 31
0.3493795022402919
  0
LINE
  5
9E
330
426
100
AcDbEntity
  8
1_TOP
  6
CONTINUOUS
 62
     7
100
AcDbLine
 10
3.867913406658661
 20
2.183438209204458
 30
0.3592049781759191
 11
3.867913406658661
 21
2.183634032226759
 31
0.3479862847418671
  0
LINE
  5
9F
330
426
100
AcDbEntity
  8
1_TOP
  6
CONTINUOUS
 62
     7
100
AcDbLine
 10
3.534926104351411
 20
2.910146944956379
 30
0.408043434478702
 11
3.535974405799469
 21
2.909098643508318
 31
0.347986284741868
  0
LINE
  5
A0
330
426
100
AcDbEntity
  8
1_TOP
  6
CONTINUOUS
 62
     7
100
AcDbLine
 10
4.027022707247531
 20
2.910146944956379
 30
0.408043434478702
 11
3.534926104351411
 21
2.910146944956379
 31
0.408043434478702
  0
LINE
  5
A1
330
426
100
AcDbEntity
  8
1_TOP
  6
CONTINUOUS
 62
     7
100
AcDbLine
 10
3.46742610435141
 20
2.844682333674819
 30
0.408043434478702
 11
3.534926104351411
 21
2.844682333674819
 31
0.408043434478702
  0
LINE
  5
A2
330
426
100
AcDbEntity
  8
1_TOP
  6
CONTINUOUS
 62
     7
100
AcDbLine
 10
3.46742610435141
 20
2.844682333674819
 30
0.408043434478702
 11
3.46847440579947
 21
2.843634032226757
 31
0.347986284741868
  0
LINE
  5
A3
330
426
100
AcDbEntity
  8
1_TOP
  6
CONTINUOUS
 62
     7
100
AcDbLine
 10
3.535974405799469
 20
2.843634032226757
 30
0.347986284741868
 11
3.534926104351411
 21
2.844682333674819
 31
0.408043434478702
  0
LINE
  5
A4
330
426
100
AcDbEntity
  8
1_TOP
  6
CONTINUOUS
 62
     7
100
AcDbLine
 10
3.46742610435141
 20
2.844682333674819
 30
0.408043434478702
 11
3.46742610435141
 21
2.182585730778698
 31
0.408043434478702
  0
LINE
  5
A5
330
426
100
AcDbEntity
  8
1_TOP
  6
CONTINUOUS
 62
     7
100
AcDbLine
 10
4.027022707247531
 20
2.844682333674819
 30
0.408043434478702
 11
4.16992610435141
 21
2.844682333674819
 31
0.408043434478702
  0
LINE
  5
A6
330
426
100
AcDbEntity
  8
1_TOP
  6
CONTINUOUS
 62
     7
100
AcDbLine
 10
4.329035404940271
 20
2.183634032226759
 30
0.3479862847418671
 11
4.329035404940271
 21
2.212256549879558
 31
0.3479862847418671
  0
LINE
  5
A7
330
426
100
AcDbEntity
  8
1_TOP
  6
CONTINUOUS
 62
     7
100
AcDbLine
 10
4.502913406658661
 20
2.212256549879558
 30
0.3479862847418671
 11
4.502913406658661
 21
2.183634032226759
 31
0.3479862847418671
  0
LINE
  5
A8
330
426
100
AcDbEntity
  8
1_TOP
  6
CONTINUOUS
 62
     7
100
AcDbLine
 10
3.46847440579947
 20
2.183634032226759
 30
0.347986284741868
 11
3.46742610435141
 21
2.182585730778698
 31
0.408043434478702
  0
LINE
  5
A9
330
426
100
AcDbEntity
  8
1_TOP
  6
CONTINUOUS
 62
     7
100
AcDbLine
 10
4.027022707247531
 20
2.844682333674819
 30
0.408043434478702
 11
4.027022707247531
 21
2.910146944956379
 31
0.408043434478702
  0
LINE
  5
AA
330
426
100
AcDbEntity
  8
1_TOP
  6
CONTINUOUS
 62
     7
100
AcDbLine
 10
4.662022707247531
 20
2.910146944956379
 30
0.408043434478702
 11
4.662022707247531
 21
2.844682333674819
 31
0.408043434478702
  0
LINE
  5
AB
330
426
100
AcDbEntity
  8
1_TOP
  6
CONTINUOUS
 62
     7
100
AcDbLine
 10
4.16992610435141
 20
2.844682333674819
 30
0.408043434478702
 11
4.16992610435141
 21
2.910146944956379
 31
0.408043434478702
  0
LINE
  5
AC
330
426
100
AcDbEntity
  8
1_TOP
  6
CONTINUOUS
 62
     7
100
AcDbLine
 10
3.534926104351411
 20
2.910146944956379
 30
0.408043434478702
 11
3.534926104351411
 21
2.844682333674819
 31
0.408043434478702
  0
LINE
  5
AD
330
426
100
AcDbEntity
  8
1_TOP
  6
CONTINUOUS
 62
     7
100
AcDbLine
 10
3.867913406658661
 20
2.183634032226759
 30
0.3479862847418671
 11
3.867913406658661
 21
2.212256549879558
 31
0.347986284741868
  0
LINE
  5
AE
330
426
100
AcDbEntity
  8
1_TOP
  6
CONTINUOUS
 62
     7
100
AcDbLine
 10
4.31382419756687
 20
2.870605979553709
 30
-0.120956565521297
 11
4.31382419756687
 21
2.900913215609357
 31
-0.120956565521298
  0
LINE
  5
AF
330
426
100
AcDbEntity
  8
1_TOP
  6
CONTINUOUS
 62
     7
100
AcDbLine
 10
4.31290685984911
 20
2.830368702511028
 30
-0.103452719139911
 11
4.31290685984911
 21
2.820605979553708
 31
-0.103452719139911
  0
ARC
  5
13C
330
426
100
AcDbEntity
  8
1_TOP
  6
CONTINUOUS
 62
     7
100
AcDbCircle
 10
4.160974405799951
 20
0.90586633786753
 30
0.148613244104533
 40
0.0770172785307604
100
AcDbArc
 50
270.0
 51
90.0
  0
ARC
  5
13D
330
426
100
AcDbEntity
  8
1_TOP
  6
CONTINUOUS
 62
     7
100
AcDbCircle
 10
4.035974405798981
 20
0.90586633786753
 30
0.148613244104533
 40
0.0770172785307604
100
AcDbArc
 50
90.0
 51
270.0
  0
ARC
  5
13E
330
426
100
AcDbEntity
  8
1_TOP
  6
CONTINUOUS
 62
     7
100
AcDbCircle
 10
4.160974405799951
 20
0.90586633786753
 30
0.348043434478702
 40
0.1533991304224651
100
AcDbArc
 50
270.0
 51
90.0
  0
ARC
  5
13F
330
426
100
AcDbEntity
  8
1_TOP
  6
CONTINUOUS
 62
     7
100
AcDbCircle
 10
4.035974405798981
 20
0.90586633786753
 30
0.3480434344788519
 40
0.1533991304224651
100
AcDbArc
 50
90.0
 51
270.0
  0
ARC
  5
140
330
426
100
AcDbEntity
  8
1_TOP
  6
CONTINUOUS
 62
     7
100
AcDbCircle
 10
4.160974405799951
 20
4.186866337867559
 30
0.148613244104533
 40
0.077017278530755
100
AcDbArc
 50
270.0
 51
90.0
  0
ARC
  5
141
330
426
100
AcDbEntity
  8
1_TOP
  6
CONTINUOUS
 62
     7
100
AcDbCircle
 10
4.035974405798981
 20
4.186866337867559
 30
0.148613244104533
 40
0.077017278530755
100
AcDbArc
 50
90.0
 51
270.0
  0
ARC
  5
142
330
426
100
AcDbEntity
  8
1_TOP
  6
CONTINUOUS
 62
     7
100
AcDbCircle
 10
4.160974405799951
 20
4.186866337867549
 30
0.348043434478702
 40
0.1533991304224598
100
AcDbArc
 50
270.0
 51
90.0
  0
ARC
  5
143
330
426
100
AcDbEntity
  8
1_TOP
  6
CONTINUOUS
 62
     7
100
AcDbCircle
 10
4.035974405798981
 20
4.186866337867549
 30
0.3480434344788519
 40
0.1533991304224647
100
AcDbArc
 50
90.0
 51
270.0
  0
ARC
  5
144
330
426
100
AcDbEntity
  8
1_TOP
  6
CONTINUOUS
 62
     7
100
AcDbCircle
 10
9.395771112333351
 20
0.3659267809648643
 30
-0.021377901249134
 40
0.0312500000000009
100
AcDbArc
 50
192.7345062265743
 51
266.0000000000051
  0
ARC
  5
145
330
426
100
AcDbEntity
  8
1_TOP
  6
CONTINUOUS
 62
     7
100
AcDbCircle
 10
9.395771112333331
 20
4.760823225325354
 30
-0.0213779012491355
 40
0.0312500000000009
100
AcDbArc
 50
93.99999999999328
 51
167.2654937734244
  0
ARC
  5
146
330
426
100
AcDbEntity
  8
1_TOP
  6
CONTINUOUS
 62
     7
100
AcDbCircle
 10
2.202233754226099
 20
0.3492049781759191
 30
4.329035404940271
 40
0.0099999999999985
210
1.0
220
0.0
230
0.0
100
AcDbArc
 50
1.000000000000705
 51
90.0
  0
ARC
  5
147
330
426
100
AcDbEntity
  8
1_TOP
  6
CONTINUOUS
 62
     7
100
AcDbCircle
 10
2.202233754226099
 20
0.3492049781759191
 30
4.502913406658669
 40
0.0099999999999985
210
1.0
220
0.0
230
0.0
100
AcDbArc
 50
1.000000000000705
 51
90.0
  0
ARC
  5
148
330
426
100
AcDbEntity
  8
1_TOP
  6
CONTINUOUS
 62
     7
100
AcDbCircle
 10
2.202233754226099
 20
0.3492049781759191
 30
3.867913406658671
 40
0.0099999999999985
210
1.0
220
0.0
230
0.0
100
AcDbArc
 50
1.000000000000705
 51
90.0
  0
POLYLINE
  5
17B
330
426
100
AcDbEntity
  8
1_TOP
  6
CONTINUOUS
 62
     7
100
AcDb3dPolyline
 66
     1
 10
0.0
 20
0.0
 30
0.0
 70
     8
  0
VERTEX
  5
33E
330
17B
100
AcDbEntity
  8
1_TOP
  6
CONTINUOUS
 62
     7
100
AcDbVertex
100
AcDb3dPolylineVertex
 10
5.035974405800356
 20
4.361649627734283
 30
0.408043434478706
 70
    32
1001
ACAD
1000
R13OBJECT
1002
{
1005
17B
1002
}
  0
VERTEX
  5
33F
330
17B
100
AcDbEntity
  8
1_TOP
  6
CONTINUOUS
 62
     7
100
AcDbVertex
100
AcDb3dPolylineVertex
 10
5.026812621674824
 20
4.383725479190656
 30
0.408043434478706
 70
    32
1001
ACAD
1000
R13OBJECT
1002
{
1005
17B
1002
}
  0
VERTEX
  5
340
330
17B
100
AcDbEntity
  8
1_TOP
  6
CONTINUOUS
 62
     7
100
AcDbVertex
100
AcDb3dPolylineVertex
 10
5.004686233708535
 20
4.392866337867581
 30
0.408043434478706
 70
    32
1001
ACAD
1000
R13OBJECT
1002
{
1005
17B
1002
}
  0
SEQEND
  5
341
330
17B
100
AcDbEntity
  8
1_TOP
  6
CONTINUOUS
 62
     7
  0
POLYLINE
  5
17C
330
426
100
AcDbEntity
  8
1_TOP
  6
CONTINUOUS
 62
     7
100
AcDb3dPolyline
 66
     1
 10
0.0
 20
0.0
 30
0.0
 70
     8
  0
VERTEX
  5
342
330
17C
100
AcDbEntity
  8
1_TOP
  6
CONTINUOUS
 62
     7
100
AcDbVertex
100
AcDb3dPolylineVertex
 10
5.004686233708535
 20
3.980866337867576
 30
0.408043434478706
 70
    32
1001
ACAD
1000
R13OBJECT
1002
{
1005
17C
1002
}
  0
VERTEX
  5
343
330
17C
100
AcDbEntity
  8
1_TOP
  6
CONTINUOUS
 62
     7
100
AcDbVertex
100
AcDb3dPolylineVertex
 10
5.026812621674824
 20
3.990007196544501
 30
0.408043434478706
 70
    32
1001
ACAD
1000
R13OBJECT
1002
{
1005
17C
1002
}
  0
VERTEX
  5
344
330
17C
100
AcDbEntity
  8
1_TOP
  6
CONTINUOUS
 62
     7
100
AcDbVertex
100
AcDb3dPolylineVertex
 10
5.035974405800356
 20
4.012083048000874
 30
0.408043434478706
 70
    32
1001
ACAD
1000
R13OBJECT
1002
{
1005
17C
1002
}
  0
SEQEND
  5
345
330
17C
100
AcDbEntity
  8
1_TOP
  6
CONTINUOUS
 62
     7
  0
POLYLINE
  5
17D
330
426
100
AcDbEntity
  8
1_TOP
  6
CONTINUOUS
 62
     7
100
AcDb3dPolyline
 66
     1
 10
0.0
 20
0.0
 30
0.0
 70
     8
  0
VERTEX
  5
346
330
17D
100
AcDbEntity
  8
1_TOP
  6
CONTINUOUS
 62
     7
100
AcDbVertex
100
AcDb3dPolylineVertex
 10
3.098474405798576
 20
4.392866337867581
 30
0.4080434344787083
 70
    32
1001
ACAD
1000
R13OBJECT
1002
{
1005
17D
1002
}
  0
VERTEX
  5
347
330
17D
100
AcDbEntity
  8
1_TOP
  6
CONTINUOUS
 62
     7
100
AcDbVertex
100
AcDb3dPolylineVertex
 10
3.085106016496296
 20
3.165023440840888
 30
0.5608448234075194
 70
    32
1001
ACAD
1000
R13OBJECT
1002
{
1005
17D
1002
}
  0
VERTEX
  5
348
330
17D
100
AcDbEntity
  8
1_TOP
  6
CONTINUOUS
 62
     7
100
AcDbVertex
100
AcDb3dPolylineVertex
 10
3.085106016496296
 20
1.927709234894205
 30
0.5608448234075141
 70
    32
1001
ACAD
1000
R13OBJECT
1002
{
1005
17D
1002
}
  0
VERTEX
  5
349
330
17D
100
AcDbEntity
  8
1_TOP
  6
CONTINUOUS
 62
     7
100
AcDbVertex
100
AcDb3dPolylineVertex
 10
3.098474405798576
 20
0.6998663378675145
 30
0.4080434344786923
 70
    32
1001
ACAD
1000
R13OBJECT
1002
{
1005
17D
1002
}
  0
SEQEND
  5
34A
330
17D
100
AcDbEntity
  8
1_TOP
  6
CONTINUOUS
 62
     7
  0
POLYLINE
  5
17E
330
426
100
AcDbEntity
  8
1_TOP
  6
CONTINUOUS
 62
     7
100
AcDb3dPolyline
 66
     1
 10
0.0
 20
0.0
 30
0.0
 70
     8
  0
VERTEX
  5
34B
330
17E
100
AcDbEntity
  8
1_TOP
  6
CONTINUOUS
 62
     7
100
AcDbVertex
100
AcDb3dPolylineVertex
 10
5.098474405800359
 20
4.392866337867586
 30
0.408043434478712
 70
    32
1001
ACAD
1000
R13OBJECT
1002
{
1005
17E
1002
}
  0
VERTEX
  5
34C
330
17E
100
AcDbEntity
  8
1_TOP
  6
CONTINUOUS
 62
     7
100
AcDbVertex
100
AcDb3dPolylineVertex
 10
5.111842795102638
 20
3.165023440840709
 30
0.5608448234075354
 70
    32
1001
ACAD
1000
R13OBJECT
1002
{
1005
17E
1002
}
  0
VERTEX
  5
34D
330
17E
100
AcDbEntity
  8
1_TOP
  6
CONTINUOUS
 62
     7
100
AcDbVertex
100
AcDb3dPolylineVertex
 10
5.111842795102636
 20
1.927709234893841
 30
0.5608448234074963
 70
    32
1001
ACAD
1000
R13OBJECT
1002
{
1005
17E
1002
}
  0
VERTEX
  5
34E
330
17E
100
AcDbEntity
  8
1_TOP
  6
CONTINUOUS
 62
     7
100
AcDbVertex
100
AcDb3dPolylineVertex
 10
5.098474405800348
 20
0.6998663378669761
 30
0.4080434344785946
 70
    32
1001
ACAD
1000
R13OBJECT
1002
{
1005
17E
1002
}
  0
SEQEND
  5
34F
330
17E
100
AcDbEntity
  8
1_TOP
  6
CONTINUOUS
 62
     7
  0
POLYLINE
  5
17F
330
426
100
AcDbEntity
  8
1_TOP
  6
CONTINUOUS
 62
     7
100
AcDb3dPolyline
 66
     1
 10
0.0
 20
0.0
 30
0.0
 70
     8
  0
VERTEX
  5
350
330
17F
100
AcDbEntity
  8
1_TOP
  6
CONTINUOUS
 62
     7
100
AcDbVertex
100
AcDb3dPolylineVertex
 10
2.754648282370083
 20
0.296366337867543
 30
0.0
 70
    32
1001
ACAD
1000
R13OBJECT
1002
{
1005
17F
1002
}
  0
VERTEX
  5
351
330
17F
100
AcDbEntity
  8
1_TOP
  6
CONTINUOUS
 62
     7
100
AcDbVertex
100
AcDb3dPolylineVertex
 10
2.732595841656149
 20
0.3054877737242299
 30
0.0
 70
    32
1001
ACAD
1000
R13OBJECT
1002
{
1005
17F
1002
}
  0
VERTEX
  5
352
330
17F
100
AcDbEntity
  8
1_TOP
  6
CONTINUOUS
 62
     7
100
AcDbVertex
100
AcDb3dPolylineVertex
 10
2.723474405799464
 20
0.3275402144381643
 30
0.0
 70
    32
1001
ACAD
1000
R13OBJECT
1002
{
1005
17F
1002
}
  0
SEQEND
  5
353
330
17F
100
AcDbEntity
  8
1_TOP
  6
CONTINUOUS
 62
     7
  0
POLYLINE
  5
180
330
426
100
AcDbEntity
  8
1_TOP
  6
CONTINUOUS
 62
     7
100
AcDb3dPolyline
 66
     1
 10
0.0
 20
0.0
 30
0.0
 70
     8
  0
VERTEX
  5
354
330
180
100
AcDbEntity
  8
1_TOP
  6
CONTINUOUS
 62
     7
100
AcDbVertex
100
AcDb3dPolylineVertex
 10
2.723474405799464
 20
4.765192461296916
 30
0.0
 70
    32
1001
ACAD
1000
R13OBJECT
1002
{
1005
180
1002
}
  0
VERTEX
  5
355
330
180
100
AcDbEntity
  8
1_TOP
  6
CONTINUOUS
 62
     7
100
AcDbVertex
100
AcDb3dPolylineVertex
 10
2.73259584165615
 20
4.787244902010851
 30
0.0
 70
    32
1001
ACAD
1000
R13OBJECT
1002
{
1005
180
1002
}
  0
VERTEX
  5
356
330
180
100
AcDbEntity
  8
1_TOP
  6
CONTINUOUS
 62
     7
100
AcDbVertex
100
AcDb3dPolylineVertex
 10
2.754648282370085
 20
4.796366337867535
 30
0.0
 70
    32
1001
ACAD
1000
R13OBJECT
1002
{
1005
180
1002
}
  0
SEQEND
  5
357
330
180
100
AcDbEntity
  8
1_TOP
  6
CONTINUOUS
 62
     7
  0
POLYLINE
  5
181
330
426
100
AcDbEntity
  8
1_TOP
  6
CONTINUOUS
 62
     7
100
AcDb3dPolyline
 66
     1
 10
0.0
 20
0.0
 30
0.0
 70
     8
  0
VERTEX
  5
358
330
181
100
AcDbEntity
  8
1_TOP
  6
CONTINUOUS
 62
     7
100
AcDbVertex
100
AcDb3dPolylineVertex
 10
5.473474405799467
 20
4.765192461296926
 30
0.0
 70
    32
1001
ACAD
1000
R13OBJECT
1002
{
1005
181
1002
}
  0
VERTEX
  5
359
330
181
100
AcDbEntity
  8
1_TOP
  6
CONTINUOUS
 62
     7
100
AcDbVertex
100
AcDb3dPolylineVertex
 10
5.464352969942781
 20
4.78724490201086
 30
0.0
 70
    32
1001
ACAD
1000
R13OBJECT
1002
{
1005
181
1002
}
  0
VERTEX
  5
35A
330
181
100
AcDbEntity
  8
1_TOP
  6
CONTINUOUS
 62
     7
100
AcDbVertex
100
AcDb3dPolylineVertex
 10
5.442300529228848
 20
4.796366337867546
 30
0.0
 70
    32
1001
ACAD
1000
R13OBJECT
1002
{
1005
181
1002
}
  0
SEQEND
  5
35B
330
181
100
AcDbEntity
  8
1_TOP
  6
CONTINUOUS
 62
     7
  0
POLYLINE
  5
182
330
426
100
AcDbEntity
  8
1_TOP
  6
CONTINUOUS
 62
     7
100
AcDb3dPolyline
 66
     1
 10
0.0
 20
0.0
 30
0.0
 70
     8
  0
VERTEX
  5
35C
330
182
100
AcDbEntity
  8
1_TOP
  6
CONTINUOUS
 62
     7
100
AcDbVertex
100
AcDb3dPolylineVertex
 10
5.442300529228848
 20
0.296366337867543
 30
0.0
 70
    32
1001
ACAD
1000
R13OBJECT
1002
{
1005
182
1002
}
  0
VERTEX
  5
35D
330
182
100
AcDbEntity
  8
1_TOP
  6
CONTINUOUS
 62
     7
100
AcDbVertex
100
AcDb3dPolylineVertex
 10
5.464352969942781
 20
0.3054877737242299
 30
0.0
 70
    32
1001
ACAD
1000
R13OBJECT
1002
{
1005
182
1002
}
  0
VERTEX
  5
35E
330
182
100
AcDbEntity
  8
1_TOP
  6
CONTINUOUS
 62
     7
100
AcDbVertex
100
AcDb3dPolylineVertex
 10
5.473474405799467
 20
0.3275402144381643
 30
0.0
 70
    32
1001
ACAD
1000
R13OBJECT
1002
{
1005
182
1002
}
  0
SEQEND
  5
35F
330
182
100
AcDbEntity
  8
1_TOP
  6
CONTINUOUS
 62
     7
  0
POLYLINE
  5
183
330
426
100
AcDbEntity
  8
1_TOP
  6
CONTINUOUS
 62
     7
100
AcDb3dPolyline
 66
     1
 10
0.0
 20
0.0
 30
0.0
 70
     8
  0
VERTEX
  5
360
330
183
100
AcDbEntity
  8
1_TOP
  6
CONTINUOUS
 62
     7
100
AcDbVertex
100
AcDb3dPolylineVertex
 10
3.160974405798573
 20
0.7310830480008052
 30
0.408043434478702
 70
    32
1001
ACAD
1000
R13OBJECT
1002
{
1005
183
1002
}
  0
VERTEX
  5
361
330
183
100
AcDbEntity
  8
1_TOP
  6
CONTINUOUS
 62
     7
100
AcDbVertex
100
AcDb3dPolylineVertex
 10
3.170136189924107
 20
0.709007196544432
 30
0.408043434478702
 70
    32
1001
ACAD
1000
R13OBJECT
1002
{
1005
183
1002
}
  0
VERTEX
  5
362
330
183
100
AcDbEntity
  8
1_TOP
  6
CONTINUOUS
 62
     7
100
AcDbVertex
100
AcDb3dPolylineVertex
 10
3.192262577890395
 20
0.6998663378675071
 30
0.408043434478702
 70
    32
1001
ACAD
1000
R13OBJECT
1002
{
1005
183
1002
}
  0
SEQEND
  5
363
330
183
100
AcDbEntity
  8
1_TOP
  6
CONTINUOUS
 62
     7
  0
POLYLINE
  5
184
330
426
100
AcDbEntity
  8
1_TOP
  6
CONTINUOUS
 62
     7
100
AcDb3dPolyline
 66
     1
 10
0.0
 20
0.0
 30
0.0
 70
     8
  0
VERTEX
  5
364
330
184
100
AcDbEntity
  8
1_TOP
  6
CONTINUOUS
 62
     7
100
AcDbVertex
100
AcDb3dPolylineVertex
 10
3.192262577890395
 20
1.111866337867511
 30
0.408043434478702
 70
    32
1001
ACAD
1000
R13OBJECT
1002
{
1005
184
1002
}
  0
VERTEX
  5
365
330
184
100
AcDbEntity
  8
1_TOP
  6
CONTINUOUS
 62
     7
100
AcDbVertex
100
AcDb3dPolylineVertex
 10
3.170136189924107
 20
1.102725479190585
 30
0.408043434478702
 70
    32
1001
ACAD
1000
R13OBJECT
1002
{
1005
184
1002
}
  0
VERTEX
  5
366
330
184
100
AcDbEntity
  8
1_TOP
  6
CONTINUOUS
 62
     7
100
AcDbVertex
100
AcDb3dPolylineVertex
 10
3.160974405798573
 20
1.080649627734211
 30
0.408043434478702
 70
    32
1001
ACAD
1000
R13OBJECT
1002
{
1005
184
1002
}
  0
SEQEND
  5
367
330
184
100
AcDbEntity
  8
1_TOP
  6
CONTINUOUS
 62
     7
  0
POLYLINE
  5
185
330
426
100
AcDbEntity
  8
1_TOP
  6
CONTINUOUS
 62
     7
100
AcDb3dPolyline
 66
     1
 10
0.0
 20
0.0
 30
0.0
 70
     8
  0
VERTEX
  5
368
330
185
100
AcDbEntity
  8
1_TOP
  6
CONTINUOUS
 62
     7
100
AcDbVertex
100
AcDb3dPolylineVertex
 10
5.035974405800356
 20
0.7310830480008052
 30
0.408043434478702
 70
    32
1001
ACAD
1000
R13OBJECT
1002
{
1005
185
1002
}
  0
VERTEX
  5
369
330
185
100
AcDbEntity
  8
1_TOP
  6
CONTINUOUS
 62
     7
100
AcDbVertex
100
AcDb3dPolylineVertex
 10
5.026812621674824
 20
0.709007196544432
 30
0.408043434478702
 70
    32
1001
ACAD
1000
R13OBJECT
1002
{
1005
185
1002
}
  0
VERTEX
  5
36A
330
185
100
AcDbEntity
  8
1_TOP
  6
CONTINUOUS
 62
     7
100
AcDbVertex
100
AcDb3dPolylineVertex
 10
5.004686233708535
 20
0.6998663378675071
 30
0.408043434478702
 70
    32
1001
ACAD
1000
R13OBJECT
1002
{
1005
185
1002
}
  0
SEQEND
  5
36B
330
185
100
AcDbEntity
  8
1_TOP
  6
CONTINUOUS
 62
     7
  0
POLYLINE
  5
186
330
426
100
AcDbEntity
  8
1_TOP
  6
CONTINUOUS
 62
     7
100
AcDb3dPolyline
 66
     1
 10
0.0
 20
0.0
 30
0.0
 70
     8
  0
VERTEX
  5
36C
330
186
100
AcDbEntity
  8
1_TOP
  6
CONTINUOUS
 62
     7
100
AcDbVertex
100
AcDb3dPolylineVertex
 10
5.004686233708535
 20
1.111866337867511
 30
0.408043434478702
 70
    32
1001
ACAD
1000
R13OBJECT
1002
{
1005
186
1002
}
  0
VERTEX
  5
36D
330
186
100
AcDbEntity
  8
1_TOP
  6
CONTINUOUS
 62
     7
100
AcDbVertex
100
AcDb3dPolylineVertex
 10
5.026812621674824
 20
1.102725479190585
 30
0.408043434478702
 70
    32
1001
ACAD
1000
R13OBJECT
1002
{
1005
186
1002
}
  0
VERTEX
  5
36E
330
186
100
AcDbEntity
  8
1_TOP
  6
CONTINUOUS
 62
     7
100
AcDbVertex
100
AcDb3dPolylineVertex
 10
5.035974405800356
 20
1.080649627734211
 30
0.408043434478702
 70
    32
1001
ACAD
1000
R13OBJECT
1002
{
1005
186
1002
}
  0
SEQEND
  5
36F
330
186
100
AcDbEntity
  8
1_TOP
  6
CONTINUOUS
 62
     7
  0
POLYLINE
  5
187
330
426
100
AcDbEntity
  8
1_TOP
  6
CONTINUOUS
 62
     7
100
AcDb3dPolyline
 66
     1
 10
0.0
 20
0.0
 30
0.0
 70
     8
  0
VERTEX
  5
370
330
187
100
AcDbEntity
  8
1_TOP
  6
CONTINUOUS
 62
     7
100
AcDbVertex
100
AcDb3dPolylineVertex
 10
3.160974405798584
 20
4.361649627734283
 30
0.4080434344786961
 70
    32
1001
ACAD
1000
R13OBJECT
1002
{
1005
187
1002
}
  0
VERTEX
  5
371
330
187
100
AcDbEntity
  8
1_TOP
  6
CONTINUOUS
 62
     7
100
AcDbVertex
100
AcDb3dPolylineVertex
 10
3.170136189924118
 20
4.383725479190656
 30
0.4080434344786961
 70
    32
1001
ACAD
1000
R13OBJECT
1002
{
1005
187
1002
}
  0
VERTEX
  5
372
330
187
100
AcDbEntity
  8
1_TOP
  6
CONTINUOUS
 62
     7
100
AcDbVertex
100
AcDb3dPolylineVertex
 10
3.192262577890405
 20
4.392866337867579
 30
0.4080434344786961
 70
    32
1001
ACAD
1000
R13OBJECT
1002
{
1005
187
1002
}
  0
SEQEND
  5
373
330
187
100
AcDbEntity
  8
1_TOP
  6
CONTINUOUS
 62
     7
  0
POLYLINE
  5
188
330
426
100
AcDbEntity
  8
1_TOP
  6
CONTINUOUS
 62
     7
100
AcDb3dPolyline
 66
     1
 10
0.0
 20
0.0
 30
0.0
 70
     8
  0
VERTEX
  5
374
330
188
100
AcDbEntity
  8
1_TOP
  6
CONTINUOUS
 62
     7
100
AcDbVertex
100
AcDb3dPolylineVertex
 10
3.192262577890405
 20
3.980866337867576
 30
0.4080434344786961
 70
    32
1001
ACAD
1000
R13OBJECT
1002
{
1005
188
1002
}
  0
VERTEX
  5
375
330
188
100
AcDbEntity
  8
1_TOP
  6
CONTINUOUS
 62
     7
100
AcDbVertex
100
AcDb3dPolylineVertex
 10
3.170136189924118
 20
3.990007196544501
 30
0.4080434344786961
 70
    32
1001
ACAD
1000
R13OBJECT
1002
{
1005
188
1002
}
  0
VERTEX
  5
376
330
188
100
AcDbEntity
  8
1_TOP
  6
CONTINUOUS
 62
     7
100
AcDbVertex
100
AcDb3dPolylineVertex
 10
3.160974405798584
 20
4.012083048000874
 30
0.4080434344786961
 70
    32
1001
ACAD
1000
R13OBJECT
1002
{
1005
188
1002
}
  0
SEQEND
  5
377
330
188
100
AcDbEntity
  8
1_TOP
  6
CONTINUOUS
 62
     7
  0
POLYLINE
  5
189
330
426
100
AcDbEntity
  8
1_TOP
  6
CONTINUOUS
 62
     7
100
AcDb3dPolyline
 66
     1
 10
0.0
 20
0.0
 30
0.0
 70
     8
  0
VERTEX
  5
378
330
189
100
AcDbEntity
  8
1_TOP
  6
CONTINUOUS
 62
     7
100
AcDbVertex
100
AcDb3dPolylineVertex
 10
9.699309453561653
 20
4.782201126574482
 30
0.0311738765706186
 70
    32
1001
ACAD
1000
R13OBJECT
1002
{
1005
189
1002
}
  0
VERTEX
  5
379
330
189
100
AcDbEntity
  8
1_TOP
  6
CONTINUOUS
 62
     7
100
AcDbVertex
100
AcDb3dPolylineVertex
 10
9.699309453561653
 20
4.804253567288414
 30
0.0220524407139317
 70
    32
1001
ACAD
1000
R13OBJECT
1002
{
1005
189
1002
}
  0
VERTEX
  5
37A
330
189
100
AcDbEntity
  8
1_TOP
  6
CONTINUOUS
 62
     7
100
AcDbVertex
100
AcDb3dPolylineVertex
 10
9.699309453561653
 20
4.813375003145099
 30
-0.0000000000000026
 70
    32
1001
ACAD
1000
R13OBJECT
1002
{
1005
189
1002
}
  0
SEQEND
  5
37B
330
189
100
AcDbEntity
  8
1_TOP
  6
CONTINUOUS
 62
     7
  0
POLYLINE
  5
18A
330
426
100
AcDbEntity
  8
1_TOP
  6
CONTINUOUS
 62
     7
100
AcDb3dPolyline
 66
     1
 10
0.0
 20
0.0
 30
0.0
 70
     8
  0
VERTEX
  5
37C
330
18A
100
AcDbEntity
  8
1_TOP
  6
CONTINUOUS
 62
     7
100
AcDbVertex
100
AcDb3dPolylineVertex
 10
9.699309453561653
 20
0.3133750031451077
 30
0.0000000000000002
 70
    32
1001
ACAD
1000
R13OBJECT
1002
{
1005
18A
1002
}
  0
VERTEX
  5
37D
330
18A
100
AcDbEntity
  8
1_TOP
  6
CONTINUOUS
 62
     7
100
AcDbVertex
100
AcDb3dPolylineVertex
 10
9.699309453561653
 20
0.3224964390017947
 30
0.022052440713934
 70
    32
1001
ACAD
1000
R13OBJECT
1002
{
1005
18A
1002
}
  0
VERTEX
  5
37E
330
18A
100
AcDbEntity
  8
1_TOP
  6
CONTINUOUS
 62
     7
100
AcDbVertex
100
AcDb3dPolylineVertex
 10
9.699309453561653
 20
0.344548879715729
 30
0.0311738765706197
 70
    32
1001
ACAD
1000
R13OBJECT
1002
{
1005
18A
1002
}
  0
SEQEND
  5
37F
330
18A
100
AcDbEntity
  8
1_TOP
  6
CONTINUOUS
 62
     7
  0
POLYLINE
  5
18B
330
426
100
AcDbEntity
  8
1_TOP
  6
CONTINUOUS
 62
     7
100
AcDb3dPolyline
 66
     1
 10
0.0
 20
0.0
 30
0.0
 70
     8
  0
VERTEX
  5
380
330
18B
100
AcDbEntity
  8
1_TOP
  6
CONTINUOUS
 62
     7
100
AcDbVertex
100
AcDb3dPolylineVertex
 10
9.365289800918828
 20
0.3590382285442328
 30
-0.0213779012491376
 70
    32
1001
ACAD
1000
R13OBJECT
1002
{
1005
18B
1002
}
  0
VERTEX
  5
381
330
18B
100
AcDbEntity
  8
1_TOP
  6
CONTINUOUS
 62
     7
100
AcDbVertex
100
AcDb3dPolylineVertex
 10
9.18099479446505
 20
1.454365653867139
 30
-0.0342247911255015
 70
    32
1001
ACAD
1000
R13OBJECT
1002
{
1005
18B
1002
}
  0
VERTEX
  5
382
330
18B
100
AcDbEntity
  8
1_TOP
  6
CONTINUOUS
 62
     7
100
AcDbVertex
100
AcDb3dPolylineVertex
 10
9.119309453561626
 20
2.563375003145104
 30
-0.0385247707984231
 70
    32
1001
ACAD
1000
R13OBJECT
1002
{
1005
18B
1002
}
  0
VERTEX
  5
383
330
18B
100
AcDbEntity
  8
1_TOP
  6
CONTINUOUS
 62
     7
100
AcDbVertex
100
AcDb3dPolylineVertex
 10
9.180994794465039
 20
3.672384352423069
 30
-0.0342247911255023
 70
    32
1001
ACAD
1000
R13OBJECT
1002
{
1005
18B
1002
}
  0
VERTEX
  5
384
330
18B
100
AcDbEntity
  8
1_TOP
  6
CONTINUOUS
 62
     7
100
AcDbVertex
100
AcDb3dPolylineVertex
 10
9.365289800918803
 20
4.767711777745978
 30
-0.0213779012491392
 70
    32
1001
ACAD
1000
R13OBJECT
1002
{
1005
18B
1002
}
  0
SEQEND
  5
385
330
18B
100
AcDbEntity
  8
1_TOP
  6
CONTINUOUS
 62
     7
  0
POLYLINE
  5
18C
330
426
100
AcDbEntity
  8
1_TOP
  6
CONTINUOUS
 62
     7
100
AcDb3dPolyline
 66
     1
 10
0.0
 20
0.0
 30
0.0
 70
     8
  0
VERTEX
  5
386
330
18C
100
AcDbEntity
  8
1_TOP
  6
CONTINUOUS
 62
     7
100
AcDbVertex
100
AcDb3dPolylineVertex
 10
9.804353431463512
 20
2.851035302065191
 30
-1.240841971816995
 70
    32
1001
ACAD
1000
R13OBJECT
1002
{
1005
18C
1002
}
  0
VERTEX
  5
387
330
18C
100
AcDbEntity
  8
1_TOP
  6
CONTINUOUS
 62
     7
100
AcDbVertex
100
AcDb3dPolylineVertex
 10
9.816115613514247
 20
2.867669352392042
 30
-1.241458401657797
 70
    32
1001
ACAD
1000
R13OBJECT
1002
{
1005
18C
1002
}
  0
VERTEX
  5
388
330
18C
100
AcDbEntity
  8
1_TOP
  6
CONTINUOUS
 62
     7
100
AcDbVertex
100
AcDb3dPolylineVertex
 10
9.820266019082957
 20
2.887614644831263
 30
-1.241675915196777
 70
    32
1001
ACAD
1000
R13OBJECT
1002
{
1005
18C
1002
}
  0
SEQEND
  5
389
330
18C
100
AcDbEntity
  8
1_TOP
  6
CONTINUOUS
 62
     7
  0
POLYLINE
  5
18D
330
426
100
AcDbEntity
  8
1_TOP
  6
CONTINUOUS
 62
     7
100
AcDb3dPolyline
 66
     1
 10
0.0
 20
0.0
 30
0.0
 70
     8
  0
VERTEX
  5
38A
330
18D
100
AcDbEntity
  8
1_TOP
  6
CONTINUOUS
 62
     7
100
AcDbVertex
100
AcDb3dPolylineVertex
 10
9.804353431463507
 20
2.851035302065191
 30
-1.240841971816995
 70
    32
1001
ACAD
1000
R13OBJECT
1002
{
1005
18D
1002
}
  0
VERTEX
  5
38B
330
18D
100
AcDbEntity
  8
1_TOP
  6
CONTINUOUS
 62
     7
100
AcDbVertex
100
AcDb3dPolylineVertex
 10
9.803177213258436
 20
2.849371897032506
 30
-1.240780328832914
 70
    32
1001
ACAD
1000
R13OBJECT
1002
{
1005
18D
1002
}
  0
VERTEX
  5
38C
330
18D
100
AcDbEntity
  8
1_TOP
  6
CONTINUOUS
 62
     7
100
AcDbVertex
100
AcDb3dPolylineVertex
 10
9.802762172701564
 20
2.847377367788584
 30
-1.240758577479017
 70
    32
1001
ACAD
1000
R13OBJECT
1002
{
1005
18D
1002
}
  0
SEQEND
  5
38D
330
18D
100
AcDbEntity
  8
1_TOP
  6
CONTINUOUS
 62
     7
  0
POLYLINE
  5
18E
330
426
100
AcDbEntity
  8
1_TOP
  6
CONTINUOUS
 62
     7
100
AcDb3dPolyline
 66
     1
 10
0.0
 20
0.0
 30
0.0
 70
     8
  0
VERTEX
  5
38E
330
18E
100
AcDbEntity
  8
1_TOP
  6
CONTINUOUS
 62
     7
100
AcDbVertex
100
AcDb3dPolylineVertex
 10
9.931927908595826
 20
2.912500802952115
 30
-1.247527866856696
 70
    32
1001
ACAD
1000
R13OBJECT
1002
{
1005
18E
1002
}
  0
VERTEX
  5
38F
330
18E
100
AcDbEntity
  8
1_TOP
  6
CONTINUOUS
 62
     7
100
AcDbVertex
100
AcDb3dPolylineVertex
 10
9.946097282879366
 20
2.931211290424857
 30
-1.248270452296725
 70
    32
1001
ACAD
1000
R13OBJECT
1002
{
1005
18E
1002
}
  0
VERTEX
  5
390
330
18E
100
AcDbEntity
  8
1_TOP
  6
CONTINUOUS
 62
     7
100
AcDbVertex
100
AcDb3dPolylineVertex
 10
9.950168132168242
 20
2.954325824707902
 30
-1.248483796467751
 70
    32
1001
ACAD
1000
R13OBJECT
1002
{
1005
18E
1002
}
  0
SEQEND
  5
391
330
18E
100
AcDbEntity
  8
1_TOP
  6
CONTINUOUS
 62
     7
  0
POLYLINE
  5
18F
330
426
100
AcDbEntity
  8
1_TOP
  6
CONTINUOUS
 62
     7
100
AcDb3dPolyline
 66
     1
 10
0.0
 20
0.0
 30
0.0
 70
     8
  0
VERTEX
  5
392
330
18F
100
AcDbEntity
  8
1_TOP
  6
CONTINUOUS
 62
     7
100
AcDbVertex
100
AcDb3dPolylineVertex
 10
9.95016813216824
 20
2.95432582470791
 30
-1.248483796467751
 70
    32
1001
ACAD
1000
R13OBJECT
1002
{
1005
18F
1002
}
  0
VERTEX
  5
393
330
18F
100
AcDbEntity
  8
1_TOP
  6
CONTINUOUS
 62
     7
100
AcDbVertex
100
AcDb3dPolylineVertex
 10
9.948937013510873
 20
2.962209516503418
 30
-1.248419276272884
 70
    32
1001
ACAD
1000
R13OBJECT
1002
{
1005
18F
1002
}
  0
VERTEX
  5
394
330
18F
100
AcDbEntity
  8
1_TOP
  6
CONTINUOUS
 62
     7
100
AcDbVertex
100
AcDb3dPolylineVertex
 10
9.943837413592126
 20
2.968346480748375
 30
-1.248152017565912
 70
    32
1001
ACAD
1000
R13OBJECT
1002
{
1005
18F
1002
}
  0
VERTEX
  5
395
330
18F
100
AcDbEntity
  8
1_TOP
  6
CONTINUOUS
 62
     7
100
AcDbVertex
100
AcDb3dPolylineVertex
 10
9.936312366189126
 20
2.971000140684701
 30
-1.24775764654252
 70
    32
1001
ACAD
1000
R13OBJECT
1002
{
1005
18F
1002
}
  0
SEQEND
  5
396
330
18F
100
AcDbEntity
  8
1_TOP
  6
CONTINUOUS
 62
     7
  0
POLYLINE
  5
190
330
426
100
AcDbEntity
  8
1_TOP
  6
CONTINUOUS
 62
     7
100
AcDb3dPolyline
 66
     1
 10
0.0
 20
0.0
 30
0.0
 70
     8
  0
VERTEX
  5
397
330
190
100
AcDbEntity
  8
1_TOP
  6
CONTINUOUS
 62
     7
100
AcDbVertex
100
AcDb3dPolylineVertex
 10
4.312990254187097
 20
2.834026636787646
 30
-0.105043977901856
 70
    32
1001
ACAD
1000
R13OBJECT
1002
{
1005
190
1002
}
  0
VERTEX
  5
398
330
190
100
AcDbEntity
  8
1_TOP
  6
CONTINUOUS
 62
     7
100
AcDbVertex
100
AcDb3dPolylineVertex
 10
4.313606684027897
 20
2.850660687114496
 30
-0.1168061599525907
 70
    32
1001
ACAD
1000
R13OBJECT
1002
{
1005
190
1002
}
  0
VERTEX
  5
399
330
190
100
AcDbEntity
  8
1_TOP
  6
CONTINUOUS
 62
     7
100
AcDbVertex
100
AcDb3dPolylineVertex
 10
4.313824197566877
 20
2.870605979553718
 30
-0.1209565655212991
 70
    32
1001
ACAD
1000
R13OBJECT
1002
{
1005
190
1002
}
  0
SEQEND
  5
39A
330
190
100
AcDbEntity
  8
1_TOP
  6
CONTINUOUS
 62
     7
  0
POLYLINE
  5
191
330
426
100
AcDbEntity
  8
1_TOP
  6
CONTINUOUS
 62
     7
100
AcDb3dPolyline
 66
     1
 10
0.0
 20
0.0
 30
0.0
 70
     8
  0
VERTEX
  5
39B
330
191
100
AcDbEntity
  8
1_TOP
  6
CONTINUOUS
 62
     7
100
AcDbVertex
100
AcDb3dPolylineVertex
 10
4.518958557411848
 20
2.834026636787606
 30
-0.1050439779018565
 70
    32
1001
ACAD
1000
R13OBJECT
1002
{
1005
191
1002
}
  0
VERTEX
  5
39C
330
191
100
AcDbEntity
  8
1_TOP
  6
CONTINUOUS
 62
     7
100
AcDbVertex
100
AcDb3dPolylineVertex
 10
4.518342127571048
 20
2.850660687114456
 30
-0.1168061599525905
 70
    32
1001
ACAD
1000
R13OBJECT
1002
{
1005
191
1002
}
  0
VERTEX
  5
39D
330
191
100
AcDbEntity
  8
1_TOP
  6
CONTINUOUS
 62
     7
100
AcDbVertex
100
AcDb3dPolylineVertex
 10
4.518124614032068
 20
2.870605979553678
 30
-0.1209565655212987
 70
    32
1001
ACAD
1000
R13OBJECT
1002
{
1005
191
1002
}
  0
SEQEND
  5
39E
330
191
100
AcDbEntity
  8
1_TOP
  6
CONTINUOUS
 62
     7
  0
POLYLINE
  5
192
330
426
100
AcDbEntity
  8
1_TOP
  6
CONTINUOUS
 62
     7
100
AcDb3dPolyline
 66
     1
 10
0.0
 20
0.0
 30
0.0
 70
     8
  0
VERTEX
  5
39F
330
192
100
AcDbEntity
  8
1_TOP
  6
CONTINUOUS
 62
     7
100
AcDbVertex
100
AcDb3dPolylineVertex
 10
3.677990254187101
 20
2.834026636787647
 30
-0.1050439779018567
 70
    32
1001
ACAD
1000
R13OBJECT
1002
{
1005
192
1002
}
  0
VERTEX
  5
3A0
330
192
100
AcDbEntity
  8
1_TOP
  6
CONTINUOUS
 62
     7
100
AcDbVertex
100
AcDb3dPolylineVertex
 10
3.677928611203021
 20
2.832363231754961
 30
-0.1038677596967829
 70
    32
1001
ACAD
1000
R13OBJECT
1002
{
1005
192
1002
}
  0
VERTEX
  5
3A1
330
192
100
AcDbEntity
  8
1_TOP
  6
CONTINUOUS
 62
     7
100
AcDbVertex
100
AcDb3dPolylineVertex
 10
3.677906859849122
 20
2.830368702511038
 30
-0.103452719139912
 70
    32
1001
ACAD
1000
R13OBJECT
1002
{
1005
192
1002
}
  0
SEQEND
  5
3A2
330
192
100
AcDbEntity
  8
1_TOP
  6
CONTINUOUS
 62
     7
  0
POLYLINE
  5
193
330
426
100
AcDbEntity
  8
1_TOP
  6
CONTINUOUS
 62
     7
100
AcDb3dPolyline
 66
     1
 10
0.0
 20
0.0
 30
0.0
 70
     8
  0
VERTEX
  5
3A3
330
193
100
AcDbEntity
  8
1_TOP
  6
CONTINUOUS
 62
     7
100
AcDbVertex
100
AcDb3dPolylineVertex
 10
3.677990254187101
 20
2.834026636787636
 30
-0.1050439779018549
 70
    32
1001
ACAD
1000
R13OBJECT
1002
{
1005
193
1002
}
  0
VERTEX
  5
3A4
330
193
100
AcDbEntity
  8
1_TOP
  6
CONTINUOUS
 62
     7
100
AcDbVertex
100
AcDb3dPolylineVertex
 10
3.678606684027903
 20
2.850660687114486
 30
-0.1168061599525896
 70
    32
1001
ACAD
1000
R13OBJECT
1002
{
1005
193
1002
}
  0
VERTEX
  5
3A5
330
193
100
AcDbEntity
  8
1_TOP
  6
CONTINUOUS
 62
     7
100
AcDbVertex
100
AcDb3dPolylineVertex
 10
3.678824197566883
 20
2.870605979553709
 30
-0.120956565521298
 70
    32
1001
ACAD
1000
R13OBJECT
1002
{
1005
193
1002
}
  0
SEQEND
  5
3A6
330
193
100
AcDbEntity
  8
1_TOP
  6
CONTINUOUS
 62
     7
  0
POLYLINE
  5
194
330
426
100
AcDbEntity
  8
1_TOP
  6
CONTINUOUS
 62
     7
100
AcDb3dPolyline
 66
     1
 10
0.0
 20
0.0
 30
0.0
 70
     8
  0
VERTEX
  5
3A7
330
194
100
AcDbEntity
  8
1_TOP
  6
CONTINUOUS
 62
     7
100
AcDbVertex
100
AcDb3dPolylineVertex
 10
3.883958557411853
 20
2.834026636787616
 30
-0.1050439779018565
 70
    32
1001
ACAD
1000
R13OBJECT
1002
{
1005
194
1002
}
  0
VERTEX
  5
3A8
330
194
100
AcDbEntity
  8
1_TOP
  6
CONTINUOUS
 62
     7
100
AcDbVertex
100
AcDb3dPolylineVertex
 10
3.883342127571051
 20
2.850660687114467
 30
-0.1168061599525905
 70
    32
1001
ACAD
1000
R13OBJECT
1002
{
1005
194
1002
}
  0
VERTEX
  5
3A9
330
194
100
AcDbEntity
  8
1_TOP
  6
CONTINUOUS
 62
     7
100
AcDbVertex
100
AcDb3dPolylineVertex
 10
3.883124614032071
 20
2.870605979553688
 30
-0.1209565655212987
 70
    32
1001
ACAD
1000
R13OBJECT
1002
{
1005
194
1002
}
  0
SEQEND
  5
3AA
330
194
100
AcDbEntity
  8
1_TOP
  6
CONTINUOUS
 62
     7
  0
POLYLINE
  5
195
330
426
100
AcDbEntity
  8
1_TOP
  6
CONTINUOUS
 62
     7
100
AcDb3dPolyline
 66
     1
 10
0.0
 20
0.0
 30
0.0
 70
     8
  0
VERTEX
  5
3AB
330
195
100
AcDbEntity
  8
1_TOP
  6
CONTINUOUS
 62
     7
100
AcDbVertex
100
AcDb3dPolylineVertex
 10
3.883958557411853
 20
2.834026636787616
 30
-0.1050439779018566
 70
    32
1001
ACAD
1000
R13OBJECT
1002
{
1005
195
1002
}
  0
VERTEX
  5
3AC
330
195
100
AcDbEntity
  8
1_TOP
  6
CONTINUOUS
 62
     7
100
AcDbVertex
100
AcDb3dPolylineVertex
 10
3.884020200395933
 20
2.832363231754929
 30
-0.1038677596967828
 70
    32
1001
ACAD
1000
R13OBJECT
1002
{
1005
195
1002
}
  0
VERTEX
  5
3AD
330
195
100
AcDbEntity
  8
1_TOP
  6
CONTINUOUS
 62
     7
100
AcDbVertex
100
AcDb3dPolylineVertex
 10
3.884041951749832
 20
2.830368702511008
 30
-0.1034527191399119
 70
    32
1001
ACAD
1000
R13OBJECT
1002
{
1005
195
1002
}
  0
SEQEND
  5
3AE
330
195
100
AcDbEntity
  8
1_TOP
  6
CONTINUOUS
 62
     7
  0
POLYLINE
  5
196
330
426
100
AcDbEntity
  8
1_TOP
  6
CONTINUOUS
 62
     7
100
AcDb3dPolyline
 66
     1
 10
0.0
 20
0.0
 30
0.0
 70
     8
  0
VERTEX
  5
3AF
330
196
100
AcDbEntity
  8
1_TOP
  6
CONTINUOUS
 62
     7
100
AcDbVertex
100
AcDb3dPolylineVertex
 10
4.312990254187097
 20
2.834026636787647
 30
-0.1050439779018568
 70
    32
1001
ACAD
1000
R13OBJECT
1002
{
1005
196
1002
}
  0
VERTEX
  5
3B0
330
196
100
AcDbEntity
  8
1_TOP
  6
CONTINUOUS
 62
     7
100
AcDbVertex
100
AcDb3dPolylineVertex
 10
4.312928611203015
 20
2.832363231754961
 30
-0.103867759696783
 70
    32
1001
ACAD
1000
R13OBJECT
1002
{
1005
196
1002
}
  0
VERTEX
  5
3B1
330
196
100
AcDbEntity
  8
1_TOP
  6
CONTINUOUS
 62
     7
100
AcDbVertex
100
AcDb3dPolylineVertex
 10
4.312906859849118
 20
2.830368702511038
 30
-0.1034527191399121
 70
    32
1001
ACAD
1000
R13OBJECT
1002
{
1005
196
1002
}
  0
SEQEND
  5
3B2
330
196
100
AcDbEntity
  8
1_TOP
  6
CONTINUOUS
 62
     7
  0
ENDSEC
  0
SECTION
  2
OBJECTS
  0
DICTIONARY
  5
41A
330
0
100
AcDbDictionary
  3
ACAD_GROUP
350
41B
  3
ACAD_LAYOUT
350
44C
  3
ACAD_MLINESTYLE
350
41C
  3
ACAD_PLOTSETTINGS
350
44D
1001
ACAD
1000
TREAT_AS_HARD
1070
     0
  0
DICTIONARY
  5
47C
330
426
100
AcDbDictionary
  3
ACAD_LAYOUTSELFREF
350
49A
1001
ACAD
1000
TREAT_AS_HARD
1070
     1
  0
DICTIONARY
  5
47A
330
423
100
AcDbDictionary
  3
ACAD_LAYOUTSELFREF
350
499
1001
ACAD
1000
TREAT_AS_HARD
1070
     1
  0
DICTIONARY
  5
41B
102
{ACAD_REACTORS
330
41A
102
}
330
41A
100
AcDbDictionary
1001
ACAD
1000
TREAT_AS_HARD
1070
     0
  0
DICTIONARY
  5
44C
102
{ACAD_REACTORS
330
41A
102
}
330
41A
100
AcDbDictionary
1001
ACAD
1000
TREAT_AS_HARD
1070
     0
  0
DICTIONARY
  5
41C
102
{ACAD_REACTORS
330
41A
102
}
330
41A
100
AcDbDictionary
  3
STANDARD
350
429
1001
ACAD
1000
TREAT_AS_HARD
1070
     0
  0
DICTIONARY
  5
44D
102
{ACAD_REACTORS
330
41A
102
}
330
41A
100
AcDbDictionary
1001
ACAD
1000
TREAT_AS_HARD
1070
     0
  0
XRECORD
  5
49A
102
{ACAD_REACTORS
330
47C
102
}
330
47C
100
AcDbXrecord
340
426
  0
XRECORD
  5
499
102
{ACAD_REACTORS
330
47A
102
}
330
47A
100
AcDbXrecord
340
423
  0
MLINESTYLE
  5
429
102
{ACAD_REACTORS
330
41C
102
}
330
41C
100
AcDbMlineStyle
  2
STANDARD
 70
     0
  3

 62
     0
 51
90.0
 52
90.0
 71
     2
 49
0.5
 62
   256
  6
BYLAYER
 49
-0.5
 62
   256
  6
BYLAYER
  0
ENDSEC
  0
EOF
