  0
SECTION
  2
HEADER
  9
$ACADVER
  1
AC1012
  9
$DWGCODEPAGE
  3
ANSI_1252
  9
$INSBASE
 10
0.0
 20
0.0
 30
0.0
  9
$EXTMIN
 10
-1.634582493494477
 20
3.901931788192516
 30
-0.0015258207003583
  9
$EXTMAX
 10
2.024780289764493
 20
6.869613665935599
 30
0.0000000349246037
  9
$LIMMIN
 10
0.0
 20
0.0
  9
$LIMMAX
 10
12.0
 20
9.0
  9
$ORTHOMODE
 70
     0
  9
$REGENMODE
 70
     1
  9
$FILLMODE
 70
     1
  9
$QTEXTMODE
 70
     0
  9
$MIRRTEXT
 70
     1
  9
$DRAGMODE
 70
     2
  9
$LTSCALE
 40
1.0
  9
$OSMODE
 70
    33
  9
$ATTMODE
 70
     1
  9
$TEXTSIZE
 40
0.2
  9
$TRACEWID
 40
0.05
  9
$TEXTSTYLE
  7
STANDARD
  9
$CLAYER
  8
0
  9
$CELTYPE
  6
BYLAYER
  9
$CECOLOR
 62
   256
  9
$CELTSCALE
 40
1.0
  9
$DELOBJ
 70
     1
  9
$DISPSILH
 70
     0
  9
$DIMSCALE
 40
1.0
  9
$DIMASZ
 40
0.18
  9
$DIMEXO
 40
0.0625
  9
$DIMDLI
 40
0.38
  9
$DIMRND
 40
0.0
  9
$DIMDLE
 40
0.0
  9
$DIMEXE
 40
0.18
  9
$DIMTP
 40
0.0
  9
$DIMTM
 40
0.0
  9
$DIMTXT
 40
0.18
  9
$DIMCEN
 40
0.09
  9
$DIMTSZ
 40
0.0
  9
$DIMTOL
 70
     0
  9
$DIMLIM
 70
     0
  9
$DIMTIH
 70
     1
  9
$DIMTOH
 70
     1
  9
$DIMSE1
 70
     0
  9
$DIMSE2
 70
     0
  9
$DIMTAD
 70
     0
  9
$DIMZIN
 70
     0
  9
$DIMBLK
  1

  9
$DIMASO
 70
     1
  9
$DIMSHO
 70
     1
  9
$DIMPOST
  1

  9
$DIMAPOST
  1

  9
$DIMALT
 70
     0
  9
$DIMALTD
 70
     2
  9
$DIMALTF
 40
25.4
  9
$DIMLFAC
 40
1.0
  9
$DIMTOFL
 70
     0
  9
$DIMTVP
 40
0.0
  9
$DIMTIX
 70
     0
  9
$DIMSOXD
 70
     0
  9
$DIMSAH
 70
     0
  9
$DIMBLK1
  1

  9
$DIMBLK2
  1

  9
$DIMSTYLE
  2
STANDARD
  9
$DIMCLRD
 70
     0
  9
$DIMCLRE
 70
     0
  9
$DIMCLRT
 70
     0
  9
$DIMTFAC
 40
1.0
  9
$DIMGAP
 40
0.09
  9
$DIMJUST
 70
     0
  9
$DIMSD1
 70
     0
  9
$DIMSD2
 70
     0
  9
$DIMTOLJ
 70
     1
  9
$DIMTZIN
 70
     0
  9
$DIMALTZ
 70
     0
  9
$DIMALTTZ
 70
     0
  9
$DIMFIT
 70
     5
  9
$DIMUPT
 70
     0
  9
$DIMUNIT
 70
     2
  9
$DIMDEC
 70
     4
  9
$DIMTDEC
 70
     4
  9
$DIMALTU
 70
     2
  9
$DIMALTTD
 70
     2
  9
$DIMTXSTY
  7
STANDARD
  9
$DIMAUNIT
 70
     0
  9
$LUNITS
 70
     2
  9
$LUPREC
 70
     4
  9
$SKETCHINC
 40
0.1
  9
$FILLETRAD
 40
0.0
  9
$AUNITS
 70
     0
  9
$AUPREC
 70
     0
  9
$MENU
  1
acad
  9
$ELEVATION
 40
0.0
  9
$PELEVATION
 40
0.0
  9
$THICKNESS
 40
0.0
  9
$LIMCHECK
 70
     0
  9
$BLIPMODE
 70
     0
  9
$CHAMFERA
 40
0.0
  9
$CHAMFERB
 40
0.0
  9
$CHAMFERC
 40
0.0
  9
$CHAMFERD
 40
0.0
  9
$SKPOLY
 70
     0
  9
$TDCREATE
 40
2452650.542870370
  9
$TDUPDATE
 40
2452650.549757268
  9
$TDINDWG
 40
0.0026175463
  9
$TDUSRTIMER
 40
0.0026175463
  9
$USRTIMER
 70
     1
  9
$ANGBASE
 50
0.0
  9
$ANGDIR
 70
     0
  9
$PDMODE
 70
     0
  9
$PDSIZE
 40
0.0
  9
$PLINEWID
 40
0.0
  9
$COORDS
 70
     2
  9
$SPLFRAME
 70
     0
  9
$SPLINETYPE
 70
     6
  9
$SPLINESEGS
 70
     8
  9
$ATTDIA
 70
     0
  9
$ATTREQ
 70
     1
  9
$HANDLING
 70
  4097
  9
$HANDSEED
  5
48D5
  9
$SURFTAB1
 70
     6
  9
$SURFTAB2
 70
     6
  9
$SURFTYPE
 70
     6
  9
$SURFU
 70
     6
  9
$SURFV
 70
     6
  9
$UCSNAME
  2

  9
$UCSORG
 10
0.0
 20
0.0
 30
0.0
  9
$UCSXDIR
 10
1.0
 20
0.0
 30
0.0
  9
$UCSYDIR
 10
0.0
 20
1.0
 30
0.0
  9
$PUCSNAME
  2

  9
$PUCSORG
 10
0.0
 20
0.0
 30
0.0
  9
$PUCSXDIR
 10
1.0
 20
0.0
 30
0.0
  9
$PUCSYDIR
 10
0.0
 20
1.0
 30
0.0
  9
$USERI1
 70
     0
  9
$USERI2
 70
     0
  9
$USERI3
 70
     0
  9
$USERI4
 70
     0
  9
$USERI5
 70
     0
  9
$USERR1
 40
0.0
  9
$USERR2
 40
0.0
  9
$USERR3
 40
0.0
  9
$USERR4
 40
0.0
  9
$USERR5
 40
0.0
  9
$WORLDVIEW
 70
     1
  9
$SHADEDGE
 70
     3
  9
$SHADEDIF
 70
    70
  9
$TILEMODE
 70
     1
  9
$MAXACTVP
 70
    16
  9
$PINSBASE
 10
0.0
 20
0.0
 30
0.0
  9
$PLIMCHECK
 70
     0
  9
$PEXTMIN
 10
1.000000000000000E+20
 20
1.000000000000000E+20
 30
1.000000000000000E+20
  9
$PEXTMAX
 10
-1.000000000000000E+20
 20
-1.000000000000000E+20
 30
-1.000000000000000E+20
  9
$PLIMMIN
 10
0.0
 20
0.0
  9
$PLIMMAX
 10
12.0
 20
9.0
  9
$UNITMODE
 70
     0
  9
$VISRETAIN
 70
     0
  9
$PLINEGEN
 70
     0
  9
$PSLTSCALE
 70
     1
  9
$TREEDEPTH
 70
  3020
  9
$PICKSTYLE
 70
     1
  9
$CMLSTYLE
  2
STANDARD
  9
$CMLJUST
 70
     0
  9
$CMLSCALE
 40
1.0
  9
$SAVEIMAGES
 70
     1
  0
ENDSEC
  0
SECTION
  2
CLASSES
  0
CLASS
  1
ACDBDICTIONARYWDFLT
  2
AcDbDictionaryWithDefault
  3
AutoCAD 2000
 90
    32768
280
     0
281
     0
  0
CLASS
  1
ACDBPLACEHOLDER
  2
AcDbPlaceHolder
  3
AutoCAD 2000
 90
    32768
280
     0
281
     0
  0
CLASS
  1
LAYOUT
  2
AcDbLayout
  3
AutoCAD 2000
 90
    32768
280
     0
281
     0
  0
CLASS
  1
LONG_TRANSACTION
  2
AcDbLongTransaction
  3
AutoCAD 2000
 90
    32768
280
     0
281
     0
  0
CLASS
  1
LWPOLYLINE
  2
AcDbPolyline
  3
AutoCAD 2000
 90
    32768
280
     0
281
     1
  0
CLASS
  1
HATCH
  2
AcDbHatch
  3
AutoCAD 2000
 90
    32768
280
     0
281
     1
  0
CLASS
  1
XRECORD
  2
AcDbXrecord
  3
AutoCAD 2000
 90
    32768
280
     0
281
     0
  0
ENDSEC
  0
SECTION
  2
TABLES
  0
TABLE
  2
VPORT
  5
8
330
0
100
AcDbSymbolTable
 70
     3
  0
VPORT
  5
48D0
330
8
100
AcDbSymbolTableRecord
100
AcDbViewportTableRecord
  2
*ACTIVE
 70
     0
 10
0.0
 20
0.0
 11
1.0
 21
1.0
 12
0.1950988981350079
 22
5.385772727064058
 13
0.0
 23
0.0
 14
1.0
 24
1.0
 15
0.0
 25
0.0
 16
0.0
 26
0.0
 36
1.0
 17
0.0
 27
0.0
 37
0.0
 40
2.991141813535517
 41
1.62928759894459
 42
50.0
 43
0.0
 44
0.0
 50
0.0
 51
0.0
 71
     0
 72
   100
 73
     1
 74
     1
 75
     0
 76
     0
 77
     0
 78
     0
  0
ENDTAB
  0
TABLE
  2
LTYPE
  5
5
330
0
100
AcDbSymbolTable
 70
    25
  0
LTYPE
  5
13
330
5
100
AcDbSymbolTableRecord
100
AcDbLinetypeTableRecord
  2
BYBLOCK
 70
     0
  3

 72
    65
 73
     0
 40
0.0
  0
LTYPE
  5
14
330
5
100
AcDbSymbolTableRecord
100
AcDbLinetypeTableRecord
  2
BYLAYER
 70
     0
  3

 72
    65
 73
     0
 40
0.0
  0
LTYPE
  5
15
330
5
100
AcDbSymbolTableRecord
100
AcDbLinetypeTableRecord
  2
CONTINUOUS
 70
     0
  3
Solid line
 72
    65
 73
     0
 40
0.0
  0
LTYPE
  5
22
330
5
100
AcDbSymbolTableRecord
100
AcDbLinetypeTableRecord
  2
BORDER
 70
     0
  3
__ __ . __ __ . __ __ . __ __ . __ __ . __ __ .
 72
    65
 73
     6
 40
1.75
 49
0.5
 74
     0
 49
-0.25
 74
     0
 49
0.5
 74
     0
 49
-0.25
 74
     0
 49
0.5
 74
     0
 49
-0.25
 74
     0
  0
LTYPE
  5
23
330
5
100
AcDbSymbolTableRecord
100
AcDbLinetypeTableRecord
  2
BORDER2
 70
     0
  3
__.__.__.__.__.__.__.__.__.__.__.__.__.__.__.__
 72
    65
 73
     6
 40
0.875
 49
0.25
 74
     0
 49
-0.125
 74
     0
 49
0.25
 74
     0
 49
-0.125
 74
     0
 49
0.25
 74
     0
 49
-0.125
 74
     0
  0
LTYPE
  5
24
330
5
100
AcDbSymbolTableRecord
100
AcDbLinetypeTableRecord
  2
BORDERX2
 70
     0
  3
____  ____  .  ____  ____  .  
 72
    65
 73
     6
 40
3.5
 49
1.0
 74
     0
 49
-0.5
 74
     0
 49
1.0
 74
     0
 49
-0.5
 74
     0
 49
1.0
 74
     0
 49
-0.5
 74
     0
  0
LTYPE
  5
25
330
5
100
AcDbSymbolTableRecord
100
AcDbLinetypeTableRecord
  2
CENTER
 70
     0
  3
____ _ ____ _ ____ _ ____ _ ____ _ ____ _ ____
 72
    65
 73
     4
 40
2.0
 49
1.25
 74
     0
 49
-0.25
 74
     0
 49
0.25
 74
     0
 49
-0.25
 74
     0
  0
LTYPE
  5
26
330
5
100
AcDbSymbolTableRecord
100
AcDbLinetypeTableRecord
  2
CENTER2
 70
     0
  3
____ _ ____ _ ____ _ ____ _ ____ _ ____ _ ____
 72
    65
 73
     4
 40
1.125
 49
0.75
 74
     0
 49
-0.125
 74
     0
 49
0.125
 74
     0
 49
-0.125
 74
     0
  0
LTYPE
  5
27
330
5
100
AcDbSymbolTableRecord
100
AcDbLinetypeTableRecord
  2
CENTERX2
 70
     0
  3
________  __  ________  __  ________  __  
 72
    65
 73
     4
 40
4.0
 49
2.5
 74
     0
 49
-0.5
 74
     0
 49
0.5
 74
     0
 49
-0.5
 74
     0
  0
LTYPE
  5
28
330
5
100
AcDbSymbolTableRecord
100
AcDbLinetypeTableRecord
  2
DASHDOT
 70
     0
  3
__ . __ . __ . __ . __ . __ . __ . 
 72
    65
 73
     4
 40
1.0
 49
0.5
 74
     0
 49
-0.25
 74
     0
 49
0.0
 74
     0
 49
-0.25
 74
     0
  0
LTYPE
  5
29
330
5
100
AcDbSymbolTableRecord
100
AcDbLinetypeTableRecord
  2
DASHDOT2
 70
     0
  3
_._._._._._._._._._._._._._._._.
 72
    65
 73
     4
 40
0.5
 49
0.25
 74
     0
 49
-0.125
 74
     0
 49
0.0
 74
     0
 49
-0.125
 74
     0
  0
LTYPE
  5
2A
330
5
100
AcDbSymbolTableRecord
100
AcDbLinetypeTableRecord
  2
DASHDOTX2
 70
     0
  3
____  .  ____  .  ____  .  ____  .  
 72
    65
 73
     4
 40
2.0
 49
1.0
 74
     0
 49
-0.5
 74
     0
 49
0.0
 74
     0
 49
-0.5
 74
     0
  0
LTYPE
  5
2B
330
5
100
AcDbSymbolTableRecord
100
AcDbLinetypeTableRecord
  2
DASHED
 70
     0
  3
__ __ __ __ __ __ __ __ __ __ __ __ 
 72
    65
 73
     2
 40
0.75
 49
0.5
 74
     0
 49
-0.25
 74
     0
  0
LTYPE
  5
2C
330
5
100
AcDbSymbolTableRecord
100
AcDbLinetypeTableRecord
  2
DASHED2
 70
     0
  3
_ _ _ _ _ _ _ _ _ _ _ _ _ _ _ _ _ _ 
 72
    65
 73
     2
 40
0.375
 49
0.25
 74
     0
 49
-0.125
 74
     0
  0
LTYPE
  5
2D
330
5
100
AcDbSymbolTableRecord
100
AcDbLinetypeTableRecord
  2
DASHEDX2
 70
     0
  3
____  ____  ____  ____  ____  ____  
 72
    65
 73
     2
 40
1.5
 49
1.0
 74
     0
 49
-0.5
 74
     0
  0
LTYPE
  5
2E
330
5
100
AcDbSymbolTableRecord
100
AcDbLinetypeTableRecord
  2
DIVIDE
 70
     0
  3
____ . . ____ . . ____ . . ____ . . 
 72
    65
 73
     6
 40
1.25
 49
0.5
 74
     0
 49
-0.25
 74
     0
 49
0.0
 74
     0
 49
-0.25
 74
     0
 49
0.0
 74
     0
 49
-0.25
 74
     0
  0
LTYPE
  5
2F
330
5
100
AcDbSymbolTableRecord
100
AcDbLinetypeTableRecord
  2
DIVIDE2
 70
     0
  3
__..__..__..__..__..__..__..__..__..
 72
    65
 73
     6
 40
0.625
 49
0.25
 74
     0
 49
-0.125
 74
     0
 49
0.0
 74
     0
 49
-0.125
 74
     0
 49
0.0
 74
     0
 49
-0.125
 74
     0
  0
LTYPE
  5
30
330
5
100
AcDbSymbolTableRecord
100
AcDbLinetypeTableRecord
  2
DIVIDEX2
 70
     0
  3
________  .  .  ________  .  .  ________  .  . 
 72
    65
 73
     6
 40
2.5
 49
1.0
 74
     0
 49
-0.5
 74
     0
 49
0.0
 74
     0
 49
-0.5
 74
     0
 49
0.0
 74
     0
 49
-0.5
 74
     0
  0
LTYPE
  5
31
330
5
100
AcDbSymbolTableRecord
100
AcDbLinetypeTableRecord
  2
DOT
 70
     0
  3
. . . . . . . . . . . . . . . . . . 
 72
    65
 73
     2
 40
0.25
 49
0.0
 74
     0
 49
-0.25
 74
     0
  0
LTYPE
  5
32
330
5
100
AcDbSymbolTableRecord
100
AcDbLinetypeTableRecord
  2
DOT2
 70
     0
  3
....................................
 72
    65
 73
     2
 40
0.125
 49
0.0
 74
     0
 49
-0.125
 74
     0
  0
LTYPE
  5
33
330
5
100
AcDbSymbolTableRecord
100
AcDbLinetypeTableRecord
  2
DOTX2
 70
     0
  3
.  .  .  .  .  .  .  .  .  .  .  .  .  
 72
    65
 73
     2
 40
0.5
 49
0.0
 74
     0
 49
-0.5
 74
     0
  0
LTYPE
  5
34
330
5
100
AcDbSymbolTableRecord
100
AcDbLinetypeTableRecord
  2
HIDDEN
 70
     0
  3
__ __ __ __ __ __ __ __ __ __ __ __ 
 72
    65
 73
     2
 40
0.375
 49
0.25
 74
     0
 49
-0.125
 74
     0
  0
LTYPE
  5
35
330
5
100
AcDbSymbolTableRecord
100
AcDbLinetypeTableRecord
  2
HIDDEN2
 70
     0
  3
_ _ _ _ _ _ _ _ _ _ _ _ _ _ _ _ _ _ 
 72
    65
 73
     2
 40
0.1875
 49
0.125
 74
     0
 49
-0.0625
 74
     0
  0
LTYPE
  5
36
330
5
100
AcDbSymbolTableRecord
100
AcDbLinetypeTableRecord
  2
HIDDENX2
 70
     0
  3
____ ____ ____ ____ ____ ____ ____ 
 72
    65
 73
     2
 40
0.75
 49
0.5
 74
     0
 49
-0.25
 74
     0
  0
LTYPE
  5
37
330
5
100
AcDbSymbolTableRecord
100
AcDbLinetypeTableRecord
  2
PHANTOM
 70
     0
  3
______  __  __  ______  __  __  
 72
    65
 73
     6
 40
2.5
 49
1.25
 74
     0
 49
-0.25
 74
     0
 49
0.25
 74
     0
 49
-0.25
 74
     0
 49
0.25
 74
     0
 49
-0.25
 74
     0
  0
LTYPE
  5
38
330
5
100
AcDbSymbolTableRecord
100
AcDbLinetypeTableRecord
  2
PHANTOM2
 70
     0
  3
___ _ _ ___ _ _ ___ _ _ ___ _ _ 
 72
    65
 73
     6
 40
1.25
 49
0.625
 74
     0
 49
-0.125
 74
     0
 49
0.125
 74
     0
 49
-0.125
 74
     0
 49
0.125
 74
     0
 49
-0.125
 74
     0
  0
LTYPE
  5
39
330
5
100
AcDbSymbolTableRecord
100
AcDbLinetypeTableRecord
  2
PHANTOMX2
 70
     0
  3
___ _ _ ___ _ _ ___ _ _ ___ _ _ 
 72
    65
 73
     6
 40
5.0
 49
2.5
 74
     0
 49
-0.5
 74
     0
 49
0.5
 74
     0
 49
-0.5
 74
     0
 49
0.5
 74
     0
 49
-0.5
 74
     0
  0
ENDTAB
  0
TABLE
  2
LAYER
  5
2
330
0
100
AcDbSymbolTable
 70
   257
  0
LAYER
  5
10
330
2
100
AcDbSymbolTableRecord
100
AcDbLayerTableRecord
  2
0
 70
     0
 62
     7
  6
CONTINUOUS
  0
LAYER
  5
3A
330
2
100
AcDbSymbolTableRecord
100
AcDbLayerTableRecord
  2
1
 70
     0
 62
     1
  6
CONTINUOUS
  0
LAYER
  5
3B
330
2
100
AcDbSymbolTableRecord
100
AcDbLayerTableRecord
  2
2
 70
     0
 62
     2
  6
CONTINUOUS
  0
LAYER
  5
3C
330
2
100
AcDbSymbolTableRecord
100
AcDbLayerTableRecord
  2
3
 70
     0
 62
     3
  6
CONTINUOUS
  0
LAYER
  5
3D
330
2
100
AcDbSymbolTableRecord
100
AcDbLayerTableRecord
  2
4
 70
     0
 62
     4
  6
CONTINUOUS
  0
LAYER
  5
3E
330
2
100
AcDbSymbolTableRecord
100
AcDbLayerTableRecord
  2
5
 70
     0
 62
     5
  6
CONTINUOUS
  0
LAYER
  5
3F
330
2
100
AcDbSymbolTableRecord
100
AcDbLayerTableRecord
  2
6
 70
     0
 62
     6
  6
CONTINUOUS
  0
LAYER
  5
40
330
2
100
AcDbSymbolTableRecord
100
AcDbLayerTableRecord
  2
7
 70
     0
 62
     7
  6
CONTINUOUS
  0
LAYER
  5
41
330
2
100
AcDbSymbolTableRecord
100
AcDbLayerTableRecord
  2
8
 70
     0
 62
     8
  6
CONTINUOUS
  0
LAYER
  5
42
330
2
100
AcDbSymbolTableRecord
100
AcDbLayerTableRecord
  2
9
 70
     0
 62
     9
  6
CONTINUOUS
  0
LAYER
  5
43
330
2
100
AcDbSymbolTableRecord
100
AcDbLayerTableRecord
  2
10
 70
     0
 62
    10
  6
CONTINUOUS
  0
LAYER
  5
44
330
2
100
AcDbSymbolTableRecord
100
AcDbLayerTableRecord
  2
11
 70
     0
 62
    11
  6
CONTINUOUS
  0
LAYER
  5
45
330
2
100
AcDbSymbolTableRecord
100
AcDbLayerTableRecord
  2
12
 70
     0
 62
    12
  6
CONTINUOUS
  0
LAYER
  5
46
330
2
100
AcDbSymbolTableRecord
100
AcDbLayerTableRecord
  2
13
 70
     0
 62
    13
  6
CONTINUOUS
  0
LAYER
  5
47
330
2
100
AcDbSymbolTableRecord
100
AcDbLayerTableRecord
  2
14
 70
     0
 62
    14
  6
CONTINUOUS
  0
LAYER
  5
48
330
2
100
AcDbSymbolTableRecord
100
AcDbLayerTableRecord
  2
15
 70
     0
 62
    15
  6
CONTINUOUS
  0
LAYER
  5
49
330
2
100
AcDbSymbolTableRecord
100
AcDbLayerTableRecord
  2
16
 70
     0
 62
    16
  6
CONTINUOUS
  0
LAYER
  5
4A
330
2
100
AcDbSymbolTableRecord
100
AcDbLayerTableRecord
  2
17
 70
     0
 62
    17
  6
CONTINUOUS
  0
LAYER
  5
4B
330
2
100
AcDbSymbolTableRecord
100
AcDbLayerTableRecord
  2
18
 70
     0
 62
    18
  6
CONTINUOUS
  0
LAYER
  5
4C
330
2
100
AcDbSymbolTableRecord
100
AcDbLayerTableRecord
  2
19
 70
     0
 62
    19
  6
CONTINUOUS
  0
LAYER
  5
4D
330
2
100
AcDbSymbolTableRecord
100
AcDbLayerTableRecord
  2
20
 70
     0
 62
    20
  6
CONTINUOUS
  0
LAYER
  5
4E
330
2
100
AcDbSymbolTableRecord
100
AcDbLayerTableRecord
  2
21
 70
     0
 62
    21
  6
CONTINUOUS
  0
LAYER
  5
4F
330
2
100
AcDbSymbolTableRecord
100
AcDbLayerTableRecord
  2
22
 70
     0
 62
    22
  6
CONTINUOUS
  0
LAYER
  5
50
330
2
100
AcDbSymbolTableRecord
100
AcDbLayerTableRecord
  2
23
 70
     0
 62
    23
  6
CONTINUOUS
  0
LAYER
  5
51
330
2
100
AcDbSymbolTableRecord
100
AcDbLayerTableRecord
  2
24
 70
     0
 62
    24
  6
CONTINUOUS
  0
LAYER
  5
52
330
2
100
AcDbSymbolTableRecord
100
AcDbLayerTableRecord
  2
25
 70
     0
 62
    25
  6
CONTINUOUS
  0
LAYER
  5
53
330
2
100
AcDbSymbolTableRecord
100
AcDbLayerTableRecord
  2
26
 70
     0
 62
    26
  6
CONTINUOUS
  0
LAYER
  5
54
330
2
100
AcDbSymbolTableRecord
100
AcDbLayerTableRecord
  2
27
 70
     0
 62
    27
  6
CONTINUOUS
  0
LAYER
  5
55
330
2
100
AcDbSymbolTableRecord
100
AcDbLayerTableRecord
  2
28
 70
     0
 62
    28
  6
CONTINUOUS
  0
LAYER
  5
56
330
2
100
AcDbSymbolTableRecord
100
AcDbLayerTableRecord
  2
29
 70
     0
 62
    29
  6
CONTINUOUS
  0
LAYER
  5
57
330
2
100
AcDbSymbolTableRecord
100
AcDbLayerTableRecord
  2
30
 70
     0
 62
    30
  6
CONTINUOUS
  0
LAYER
  5
58
330
2
100
AcDbSymbolTableRecord
100
AcDbLayerTableRecord
  2
31
 70
     0
 62
    31
  6
CONTINUOUS
  0
LAYER
  5
59
330
2
100
AcDbSymbolTableRecord
100
AcDbLayerTableRecord
  2
32
 70
     0
 62
    32
  6
CONTINUOUS
  0
LAYER
  5
5A
330
2
100
AcDbSymbolTableRecord
100
AcDbLayerTableRecord
  2
33
 70
     0
 62
    33
  6
CONTINUOUS
  0
LAYER
  5
5B
330
2
100
AcDbSymbolTableRecord
100
AcDbLayerTableRecord
  2
34
 70
     0
 62
    34
  6
CONTINUOUS
  0
LAYER
  5
5C
330
2
100
AcDbSymbolTableRecord
100
AcDbLayerTableRecord
  2
35
 70
     0
 62
    35
  6
CONTINUOUS
  0
LAYER
  5
5D
330
2
100
AcDbSymbolTableRecord
100
AcDbLayerTableRecord
  2
36
 70
     0
 62
    36
  6
CONTINUOUS
  0
LAYER
  5
5E
330
2
100
AcDbSymbolTableRecord
100
AcDbLayerTableRecord
  2
37
 70
     0
 62
    37
  6
CONTINUOUS
  0
LAYER
  5
5F
330
2
100
AcDbSymbolTableRecord
100
AcDbLayerTableRecord
  2
38
 70
     0
 62
    38
  6
CONTINUOUS
  0
LAYER
  5
60
330
2
100
AcDbSymbolTableRecord
100
AcDbLayerTableRecord
  2
39
 70
     0
 62
    39
  6
CONTINUOUS
  0
LAYER
  5
61
330
2
100
AcDbSymbolTableRecord
100
AcDbLayerTableRecord
  2
40
 70
     0
 62
    40
  6
CONTINUOUS
  0
LAYER
  5
62
330
2
100
AcDbSymbolTableRecord
100
AcDbLayerTableRecord
  2
41
 70
     0
 62
    41
  6
CONTINUOUS
  0
LAYER
  5
63
330
2
100
AcDbSymbolTableRecord
100
AcDbLayerTableRecord
  2
42
 70
     0
 62
    42
  6
CONTINUOUS
  0
LAYER
  5
64
330
2
100
AcDbSymbolTableRecord
100
AcDbLayerTableRecord
  2
43
 70
     0
 62
    43
  6
CONTINUOUS
  0
LAYER
  5
65
330
2
100
AcDbSymbolTableRecord
100
AcDbLayerTableRecord
  2
44
 70
     0
 62
    44
  6
CONTINUOUS
  0
LAYER
  5
66
330
2
100
AcDbSymbolTableRecord
100
AcDbLayerTableRecord
  2
45
 70
     0
 62
    45
  6
CONTINUOUS
  0
LAYER
  5
67
330
2
100
AcDbSymbolTableRecord
100
AcDbLayerTableRecord
  2
46
 70
     0
 62
    46
  6
CONTINUOUS
  0
LAYER
  5
68
330
2
100
AcDbSymbolTableRecord
100
AcDbLayerTableRecord
  2
47
 70
     0
 62
    47
  6
CONTINUOUS
  0
LAYER
  5
69
330
2
100
AcDbSymbolTableRecord
100
AcDbLayerTableRecord
  2
48
 70
     0
 62
    48
  6
CONTINUOUS
  0
LAYER
  5
6A
330
2
100
AcDbSymbolTableRecord
100
AcDbLayerTableRecord
  2
49
 70
     0
 62
    49
  6
CONTINUOUS
  0
LAYER
  5
6B
330
2
100
AcDbSymbolTableRecord
100
AcDbLayerTableRecord
  2
50
 70
     0
 62
    50
  6
CONTINUOUS
  0
LAYER
  5
6C
330
2
100
AcDbSymbolTableRecord
100
AcDbLayerTableRecord
  2
51
 70
     0
 62
    51
  6
CONTINUOUS
  0
LAYER
  5
6D
330
2
100
AcDbSymbolTableRecord
100
AcDbLayerTableRecord
  2
52
 70
     0
 62
    52
  6
CONTINUOUS
  0
LAYER
  5
6E
330
2
100
AcDbSymbolTableRecord
100
AcDbLayerTableRecord
  2
53
 70
     0
 62
    53
  6
CONTINUOUS
  0
LAYER
  5
6F
330
2
100
AcDbSymbolTableRecord
100
AcDbLayerTableRecord
  2
54
 70
     0
 62
    54
  6
CONTINUOUS
  0
LAYER
  5
70
330
2
100
AcDbSymbolTableRecord
100
AcDbLayerTableRecord
  2
55
 70
     0
 62
    55
  6
CONTINUOUS
  0
LAYER
  5
71
330
2
100
AcDbSymbolTableRecord
100
AcDbLayerTableRecord
  2
56
 70
     0
 62
    56
  6
CONTINUOUS
  0
LAYER
  5
72
330
2
100
AcDbSymbolTableRecord
100
AcDbLayerTableRecord
  2
57
 70
     0
 62
    57
  6
CONTINUOUS
  0
LAYER
  5
73
330
2
100
AcDbSymbolTableRecord
100
AcDbLayerTableRecord
  2
58
 70
     0
 62
    58
  6
CONTINUOUS
  0
LAYER
  5
74
330
2
100
AcDbSymbolTableRecord
100
AcDbLayerTableRecord
  2
59
 70
     0
 62
    59
  6
CONTINUOUS
  0
LAYER
  5
75
330
2
100
AcDbSymbolTableRecord
100
AcDbLayerTableRecord
  2
60
 70
     0
 62
    60
  6
CONTINUOUS
  0
LAYER
  5
76
330
2
100
AcDbSymbolTableRecord
100
AcDbLayerTableRecord
  2
61
 70
     0
 62
    61
  6
CONTINUOUS
  0
LAYER
  5
77
330
2
100
AcDbSymbolTableRecord
100
AcDbLayerTableRecord
  2
62
 70
     0
 62
    62
  6
CONTINUOUS
  0
LAYER
  5
78
330
2
100
AcDbSymbolTableRecord
100
AcDbLayerTableRecord
  2
63
 70
     0
 62
    63
  6
CONTINUOUS
  0
LAYER
  5
79
330
2
100
AcDbSymbolTableRecord
100
AcDbLayerTableRecord
  2
64
 70
     0
 62
    64
  6
CONTINUOUS
  0
LAYER
  5
7A
330
2
100
AcDbSymbolTableRecord
100
AcDbLayerTableRecord
  2
65
 70
     0
 62
    65
  6
CONTINUOUS
  0
LAYER
  5
7B
330
2
100
AcDbSymbolTableRecord
100
AcDbLayerTableRecord
  2
66
 70
     0
 62
    66
  6
CONTINUOUS
  0
LAYER
  5
7C
330
2
100
AcDbSymbolTableRecord
100
AcDbLayerTableRecord
  2
67
 70
     0
 62
    67
  6
CONTINUOUS
  0
LAYER
  5
7D
330
2
100
AcDbSymbolTableRecord
100
AcDbLayerTableRecord
  2
68
 70
     0
 62
    68
  6
CONTINUOUS
  0
LAYER
  5
7E
330
2
100
AcDbSymbolTableRecord
100
AcDbLayerTableRecord
  2
69
 70
     0
 62
    69
  6
CONTINUOUS
  0
LAYER
  5
7F
330
2
100
AcDbSymbolTableRecord
100
AcDbLayerTableRecord
  2
70
 70
     0
 62
    70
  6
CONTINUOUS
  0
LAYER
  5
80
330
2
100
AcDbSymbolTableRecord
100
AcDbLayerTableRecord
  2
71
 70
     0
 62
    71
  6
CONTINUOUS
  0
LAYER
  5
81
330
2
100
AcDbSymbolTableRecord
100
AcDbLayerTableRecord
  2
72
 70
     0
 62
    72
  6
CONTINUOUS
  0
LAYER
  5
82
330
2
100
AcDbSymbolTableRecord
100
AcDbLayerTableRecord
  2
73
 70
     0
 62
    73
  6
CONTINUOUS
  0
LAYER
  5
83
330
2
100
AcDbSymbolTableRecord
100
AcDbLayerTableRecord
  2
74
 70
     0
 62
    74
  6
CONTINUOUS
  0
LAYER
  5
84
330
2
100
AcDbSymbolTableRecord
100
AcDbLayerTableRecord
  2
75
 70
     0
 62
    75
  6
CONTINUOUS
  0
LAYER
  5
85
330
2
100
AcDbSymbolTableRecord
100
AcDbLayerTableRecord
  2
76
 70
     0
 62
    76
  6
CONTINUOUS
  0
LAYER
  5
86
330
2
100
AcDbSymbolTableRecord
100
AcDbLayerTableRecord
  2
77
 70
     0
 62
    77
  6
CONTINUOUS
  0
LAYER
  5
87
330
2
100
AcDbSymbolTableRecord
100
AcDbLayerTableRecord
  2
78
 70
     0
 62
    78
  6
CONTINUOUS
  0
LAYER
  5
88
330
2
100
AcDbSymbolTableRecord
100
AcDbLayerTableRecord
  2
79
 70
     0
 62
    79
  6
CONTINUOUS
  0
LAYER
  5
89
330
2
100
AcDbSymbolTableRecord
100
AcDbLayerTableRecord
  2
80
 70
     0
 62
    80
  6
CONTINUOUS
  0
LAYER
  5
8A
330
2
100
AcDbSymbolTableRecord
100
AcDbLayerTableRecord
  2
81
 70
     0
 62
    81
  6
CONTINUOUS
  0
LAYER
  5
8B
330
2
100
AcDbSymbolTableRecord
100
AcDbLayerTableRecord
  2
82
 70
     0
 62
    82
  6
CONTINUOUS
  0
LAYER
  5
8C
330
2
100
AcDbSymbolTableRecord
100
AcDbLayerTableRecord
  2
83
 70
     0
 62
    83
  6
CONTINUOUS
  0
LAYER
  5
8D
330
2
100
AcDbSymbolTableRecord
100
AcDbLayerTableRecord
  2
84
 70
     0
 62
    84
  6
CONTINUOUS
  0
LAYER
  5
8E
330
2
100
AcDbSymbolTableRecord
100
AcDbLayerTableRecord
  2
85
 70
     0
 62
    85
  6
CONTINUOUS
  0
LAYER
  5
8F
330
2
100
AcDbSymbolTableRecord
100
AcDbLayerTableRecord
  2
86
 70
     0
 62
    86
  6
CONTINUOUS
  0
LAYER
  5
90
330
2
100
AcDbSymbolTableRecord
100
AcDbLayerTableRecord
  2
87
 70
     0
 62
    87
  6
CONTINUOUS
  0
LAYER
  5
91
330
2
100
AcDbSymbolTableRecord
100
AcDbLayerTableRecord
  2
88
 70
     0
 62
    88
  6
CONTINUOUS
  0
LAYER
  5
92
330
2
100
AcDbSymbolTableRecord
100
AcDbLayerTableRecord
  2
89
 70
     0
 62
    89
  6
CONTINUOUS
  0
LAYER
  5
93
330
2
100
AcDbSymbolTableRecord
100
AcDbLayerTableRecord
  2
90
 70
     0
 62
    90
  6
CONTINUOUS
  0
LAYER
  5
94
330
2
100
AcDbSymbolTableRecord
100
AcDbLayerTableRecord
  2
91
 70
     0
 62
    91
  6
CONTINUOUS
  0
LAYER
  5
95
330
2
100
AcDbSymbolTableRecord
100
AcDbLayerTableRecord
  2
92
 70
     0
 62
    92
  6
CONTINUOUS
  0
LAYER
  5
96
330
2
100
AcDbSymbolTableRecord
100
AcDbLayerTableRecord
  2
93
 70
     0
 62
    93
  6
CONTINUOUS
  0
LAYER
  5
97
330
2
100
AcDbSymbolTableRecord
100
AcDbLayerTableRecord
  2
94
 70
     0
 62
    94
  6
CONTINUOUS
  0
LAYER
  5
98
330
2
100
AcDbSymbolTableRecord
100
AcDbLayerTableRecord
  2
95
 70
     0
 62
    95
  6
CONTINUOUS
  0
LAYER
  5
99
330
2
100
AcDbSymbolTableRecord
100
AcDbLayerTableRecord
  2
96
 70
     0
 62
    96
  6
CONTINUOUS
  0
LAYER
  5
9A
330
2
100
AcDbSymbolTableRecord
100
AcDbLayerTableRecord
  2
97
 70
     0
 62
    97
  6
CONTINUOUS
  0
LAYER
  5
9B
330
2
100
AcDbSymbolTableRecord
100
AcDbLayerTableRecord
  2
98
 70
     0
 62
    98
  6
CONTINUOUS
  0
LAYER
  5
9C
330
2
100
AcDbSymbolTableRecord
100
AcDbLayerTableRecord
  2
99
 70
     0
 62
    99
  6
CONTINUOUS
  0
LAYER
  5
9D
330
2
100
AcDbSymbolTableRecord
100
AcDbLayerTableRecord
  2
100
 70
     0
 62
   100
  6
CONTINUOUS
  0
LAYER
  5
9E
330
2
100
AcDbSymbolTableRecord
100
AcDbLayerTableRecord
  2
101
 70
     0
 62
   101
  6
CONTINUOUS
  0
LAYER
  5
9F
330
2
100
AcDbSymbolTableRecord
100
AcDbLayerTableRecord
  2
102
 70
     0
 62
   102
  6
CONTINUOUS
  0
LAYER
  5
A0
330
2
100
AcDbSymbolTableRecord
100
AcDbLayerTableRecord
  2
103
 70
     0
 62
   103
  6
CONTINUOUS
  0
LAYER
  5
A1
330
2
100
AcDbSymbolTableRecord
100
AcDbLayerTableRecord
  2
104
 70
     0
 62
   104
  6
CONTINUOUS
  0
LAYER
  5
A2
330
2
100
AcDbSymbolTableRecord
100
AcDbLayerTableRecord
  2
105
 70
     0
 62
   105
  6
CONTINUOUS
  0
LAYER
  5
A3
330
2
100
AcDbSymbolTableRecord
100
AcDbLayerTableRecord
  2
106
 70
     0
 62
   106
  6
CONTINUOUS
  0
LAYER
  5
A4
330
2
100
AcDbSymbolTableRecord
100
AcDbLayerTableRecord
  2
107
 70
     0
 62
   107
  6
CONTINUOUS
  0
LAYER
  5
A5
330
2
100
AcDbSymbolTableRecord
100
AcDbLayerTableRecord
  2
108
 70
     0
 62
   108
  6
CONTINUOUS
  0
LAYER
  5
A6
330
2
100
AcDbSymbolTableRecord
100
AcDbLayerTableRecord
  2
109
 70
     0
 62
   109
  6
CONTINUOUS
  0
LAYER
  5
A7
330
2
100
AcDbSymbolTableRecord
100
AcDbLayerTableRecord
  2
110
 70
     0
 62
   110
  6
CONTINUOUS
  0
LAYER
  5
A8
330
2
100
AcDbSymbolTableRecord
100
AcDbLayerTableRecord
  2
111
 70
     0
 62
   111
  6
CONTINUOUS
  0
LAYER
  5
A9
330
2
100
AcDbSymbolTableRecord
100
AcDbLayerTableRecord
  2
112
 70
     0
 62
   112
  6
CONTINUOUS
  0
LAYER
  5
AA
330
2
100
AcDbSymbolTableRecord
100
AcDbLayerTableRecord
  2
113
 70
     0
 62
   113
  6
CONTINUOUS
  0
LAYER
  5
AB
330
2
100
AcDbSymbolTableRecord
100
AcDbLayerTableRecord
  2
114
 70
     0
 62
   114
  6
CONTINUOUS
  0
LAYER
  5
AC
330
2
100
AcDbSymbolTableRecord
100
AcDbLayerTableRecord
  2
115
 70
     0
 62
   115
  6
CONTINUOUS
  0
LAYER
  5
AD
330
2
100
AcDbSymbolTableRecord
100
AcDbLayerTableRecord
  2
116
 70
     0
 62
   116
  6
CONTINUOUS
  0
LAYER
  5
AE
330
2
100
AcDbSymbolTableRecord
100
AcDbLayerTableRecord
  2
117
 70
     0
 62
   117
  6
CONTINUOUS
  0
LAYER
  5
AF
330
2
100
AcDbSymbolTableRecord
100
AcDbLayerTableRecord
  2
118
 70
     0
 62
   118
  6
CONTINUOUS
  0
LAYER
  5
B0
330
2
100
AcDbSymbolTableRecord
100
AcDbLayerTableRecord
  2
119
 70
     0
 62
   119
  6
CONTINUOUS
  0
LAYER
  5
B1
330
2
100
AcDbSymbolTableRecord
100
AcDbLayerTableRecord
  2
120
 70
     0
 62
   120
  6
CONTINUOUS
  0
LAYER
  5
B2
330
2
100
AcDbSymbolTableRecord
100
AcDbLayerTableRecord
  2
121
 70
     0
 62
   121
  6
CONTINUOUS
  0
LAYER
  5
B3
330
2
100
AcDbSymbolTableRecord
100
AcDbLayerTableRecord
  2
122
 70
     0
 62
   122
  6
CONTINUOUS
  0
LAYER
  5
B4
330
2
100
AcDbSymbolTableRecord
100
AcDbLayerTableRecord
  2
123
 70
     0
 62
   123
  6
CONTINUOUS
  0
LAYER
  5
B5
330
2
100
AcDbSymbolTableRecord
100
AcDbLayerTableRecord
  2
124
 70
     0
 62
   124
  6
CONTINUOUS
  0
LAYER
  5
B6
330
2
100
AcDbSymbolTableRecord
100
AcDbLayerTableRecord
  2
125
 70
     0
 62
   125
  6
CONTINUOUS
  0
LAYER
  5
B7
330
2
100
AcDbSymbolTableRecord
100
AcDbLayerTableRecord
  2
126
 70
     0
 62
   126
  6
CONTINUOUS
  0
LAYER
  5
B8
330
2
100
AcDbSymbolTableRecord
100
AcDbLayerTableRecord
  2
127
 70
     0
 62
   127
  6
CONTINUOUS
  0
LAYER
  5
B9
330
2
100
AcDbSymbolTableRecord
100
AcDbLayerTableRecord
  2
128
 70
     0
 62
   128
  6
CONTINUOUS
  0
LAYER
  5
BA
330
2
100
AcDbSymbolTableRecord
100
AcDbLayerTableRecord
  2
129
 70
     0
 62
   129
  6
CONTINUOUS
  0
LAYER
  5
BB
330
2
100
AcDbSymbolTableRecord
100
AcDbLayerTableRecord
  2
130
 70
     0
 62
   130
  6
CONTINUOUS
  0
LAYER
  5
BC
330
2
100
AcDbSymbolTableRecord
100
AcDbLayerTableRecord
  2
131
 70
     0
 62
   131
  6
CONTINUOUS
  0
LAYER
  5
BD
330
2
100
AcDbSymbolTableRecord
100
AcDbLayerTableRecord
  2
132
 70
     0
 62
   132
  6
CONTINUOUS
  0
LAYER
  5
BE
330
2
100
AcDbSymbolTableRecord
100
AcDbLayerTableRecord
  2
133
 70
     0
 62
   133
  6
CONTINUOUS
  0
LAYER
  5
BF
330
2
100
AcDbSymbolTableRecord
100
AcDbLayerTableRecord
  2
134
 70
     0
 62
   134
  6
CONTINUOUS
  0
LAYER
  5
C0
330
2
100
AcDbSymbolTableRecord
100
AcDbLayerTableRecord
  2
135
 70
     0
 62
   135
  6
CONTINUOUS
  0
LAYER
  5
C1
330
2
100
AcDbSymbolTableRecord
100
AcDbLayerTableRecord
  2
136
 70
     0
 62
   136
  6
CONTINUOUS
  0
LAYER
  5
C2
330
2
100
AcDbSymbolTableRecord
100
AcDbLayerTableRecord
  2
137
 70
     0
 62
   137
  6
CONTINUOUS
  0
LAYER
  5
C3
330
2
100
AcDbSymbolTableRecord
100
AcDbLayerTableRecord
  2
138
 70
     0
 62
   138
  6
CONTINUOUS
  0
LAYER
  5
C4
330
2
100
AcDbSymbolTableRecord
100
AcDbLayerTableRecord
  2
139
 70
     0
 62
   139
  6
CONTINUOUS
  0
LAYER
  5
C5
330
2
100
AcDbSymbolTableRecord
100
AcDbLayerTableRecord
  2
140
 70
     0
 62
   140
  6
CONTINUOUS
  0
LAYER
  5
C6
330
2
100
AcDbSymbolTableRecord
100
AcDbLayerTableRecord
  2
141
 70
     0
 62
   141
  6
CONTINUOUS
  0
LAYER
  5
C7
330
2
100
AcDbSymbolTableRecord
100
AcDbLayerTableRecord
  2
142
 70
     0
 62
   142
  6
CONTINUOUS
  0
LAYER
  5
C8
330
2
100
AcDbSymbolTableRecord
100
AcDbLayerTableRecord
  2
143
 70
     0
 62
   143
  6
CONTINUOUS
  0
LAYER
  5
C9
330
2
100
AcDbSymbolTableRecord
100
AcDbLayerTableRecord
  2
144
 70
     0
 62
   144
  6
CONTINUOUS
  0
LAYER
  5
CA
330
2
100
AcDbSymbolTableRecord
100
AcDbLayerTableRecord
  2
145
 70
     0
 62
   145
  6
CONTINUOUS
  0
LAYER
  5
CB
330
2
100
AcDbSymbolTableRecord
100
AcDbLayerTableRecord
  2
146
 70
     0
 62
   146
  6
CONTINUOUS
  0
LAYER
  5
CC
330
2
100
AcDbSymbolTableRecord
100
AcDbLayerTableRecord
  2
147
 70
     0
 62
   147
  6
CONTINUOUS
  0
LAYER
  5
CD
330
2
100
AcDbSymbolTableRecord
100
AcDbLayerTableRecord
  2
148
 70
     0
 62
   148
  6
CONTINUOUS
  0
LAYER
  5
CE
330
2
100
AcDbSymbolTableRecord
100
AcDbLayerTableRecord
  2
149
 70
     0
 62
   149
  6
CONTINUOUS
  0
LAYER
  5
CF
330
2
100
AcDbSymbolTableRecord
100
AcDbLayerTableRecord
  2
150
 70
     0
 62
   150
  6
CONTINUOUS
  0
LAYER
  5
D0
330
2
100
AcDbSymbolTableRecord
100
AcDbLayerTableRecord
  2
151
 70
     0
 62
   151
  6
CONTINUOUS
  0
LAYER
  5
D1
330
2
100
AcDbSymbolTableRecord
100
AcDbLayerTableRecord
  2
152
 70
     0
 62
   152
  6
CONTINUOUS
  0
LAYER
  5
D2
330
2
100
AcDbSymbolTableRecord
100
AcDbLayerTableRecord
  2
153
 70
     0
 62
   153
  6
CONTINUOUS
  0
LAYER
  5
D3
330
2
100
AcDbSymbolTableRecord
100
AcDbLayerTableRecord
  2
154
 70
     0
 62
   154
  6
CONTINUOUS
  0
LAYER
  5
D4
330
2
100
AcDbSymbolTableRecord
100
AcDbLayerTableRecord
  2
155
 70
     0
 62
   155
  6
CONTINUOUS
  0
LAYER
  5
D5
330
2
100
AcDbSymbolTableRecord
100
AcDbLayerTableRecord
  2
156
 70
     0
 62
   156
  6
CONTINUOUS
  0
LAYER
  5
D6
330
2
100
AcDbSymbolTableRecord
100
AcDbLayerTableRecord
  2
157
 70
     0
 62
   157
  6
CONTINUOUS
  0
LAYER
  5
D7
330
2
100
AcDbSymbolTableRecord
100
AcDbLayerTableRecord
  2
158
 70
     0
 62
   158
  6
CONTINUOUS
  0
LAYER
  5
D8
330
2
100
AcDbSymbolTableRecord
100
AcDbLayerTableRecord
  2
159
 70
     0
 62
   159
  6
CONTINUOUS
  0
LAYER
  5
D9
330
2
100
AcDbSymbolTableRecord
100
AcDbLayerTableRecord
  2
160
 70
     0
 62
   160
  6
CONTINUOUS
  0
LAYER
  5
DA
330
2
100
AcDbSymbolTableRecord
100
AcDbLayerTableRecord
  2
161
 70
     0
 62
   161
  6
CONTINUOUS
  0
LAYER
  5
DB
330
2
100
AcDbSymbolTableRecord
100
AcDbLayerTableRecord
  2
162
 70
     0
 62
   162
  6
CONTINUOUS
  0
LAYER
  5
DC
330
2
100
AcDbSymbolTableRecord
100
AcDbLayerTableRecord
  2
163
 70
     0
 62
   163
  6
CONTINUOUS
  0
LAYER
  5
DD
330
2
100
AcDbSymbolTableRecord
100
AcDbLayerTableRecord
  2
164
 70
     0
 62
   164
  6
CONTINUOUS
  0
LAYER
  5
DE
330
2
100
AcDbSymbolTableRecord
100
AcDbLayerTableRecord
  2
165
 70
     0
 62
   165
  6
CONTINUOUS
  0
LAYER
  5
DF
330
2
100
AcDbSymbolTableRecord
100
AcDbLayerTableRecord
  2
166
 70
     0
 62
   166
  6
CONTINUOUS
  0
LAYER
  5
E0
330
2
100
AcDbSymbolTableRecord
100
AcDbLayerTableRecord
  2
167
 70
     0
 62
   167
  6
CONTINUOUS
  0
LAYER
  5
E1
330
2
100
AcDbSymbolTableRecord
100
AcDbLayerTableRecord
  2
168
 70
     0
 62
   168
  6
CONTINUOUS
  0
LAYER
  5
E2
330
2
100
AcDbSymbolTableRecord
100
AcDbLayerTableRecord
  2
169
 70
     0
 62
   169
  6
CONTINUOUS
  0
LAYER
  5
E3
330
2
100
AcDbSymbolTableRecord
100
AcDbLayerTableRecord
  2
170
 70
     0
 62
   170
  6
CONTINUOUS
  0
LAYER
  5
E4
330
2
100
AcDbSymbolTableRecord
100
AcDbLayerTableRecord
  2
171
 70
     0
 62
   171
  6
CONTINUOUS
  0
LAYER
  5
E5
330
2
100
AcDbSymbolTableRecord
100
AcDbLayerTableRecord
  2
172
 70
     0
 62
   172
  6
CONTINUOUS
  0
LAYER
  5
E6
330
2
100
AcDbSymbolTableRecord
100
AcDbLayerTableRecord
  2
173
 70
     0
 62
   173
  6
CONTINUOUS
  0
LAYER
  5
E7
330
2
100
AcDbSymbolTableRecord
100
AcDbLayerTableRecord
  2
174
 70
     0
 62
   174
  6
CONTINUOUS
  0
LAYER
  5
E8
330
2
100
AcDbSymbolTableRecord
100
AcDbLayerTableRecord
  2
175
 70
     0
 62
   175
  6
CONTINUOUS
  0
LAYER
  5
E9
330
2
100
AcDbSymbolTableRecord
100
AcDbLayerTableRecord
  2
176
 70
     0
 62
   176
  6
CONTINUOUS
  0
LAYER
  5
EA
330
2
100
AcDbSymbolTableRecord
100
AcDbLayerTableRecord
  2
177
 70
     0
 62
   177
  6
CONTINUOUS
  0
LAYER
  5
EB
330
2
100
AcDbSymbolTableRecord
100
AcDbLayerTableRecord
  2
178
 70
     0
 62
   178
  6
CONTINUOUS
  0
LAYER
  5
EC
330
2
100
AcDbSymbolTableRecord
100
AcDbLayerTableRecord
  2
179
 70
     0
 62
   179
  6
CONTINUOUS
  0
LAYER
  5
ED
330
2
100
AcDbSymbolTableRecord
100
AcDbLayerTableRecord
  2
180
 70
     0
 62
   180
  6
CONTINUOUS
  0
LAYER
  5
EE
330
2
100
AcDbSymbolTableRecord
100
AcDbLayerTableRecord
  2
181
 70
     0
 62
   181
  6
CONTINUOUS
  0
LAYER
  5
EF
330
2
100
AcDbSymbolTableRecord
100
AcDbLayerTableRecord
  2
182
 70
     0
 62
   182
  6
CONTINUOUS
  0
LAYER
  5
F0
330
2
100
AcDbSymbolTableRecord
100
AcDbLayerTableRecord
  2
183
 70
     0
 62
   183
  6
CONTINUOUS
  0
LAYER
  5
F1
330
2
100
AcDbSymbolTableRecord
100
AcDbLayerTableRecord
  2
184
 70
     0
 62
   184
  6
CONTINUOUS
  0
LAYER
  5
F2
330
2
100
AcDbSymbolTableRecord
100
AcDbLayerTableRecord
  2
185
 70
     0
 62
   185
  6
CONTINUOUS
  0
LAYER
  5
F3
330
2
100
AcDbSymbolTableRecord
100
AcDbLayerTableRecord
  2
186
 70
     0
 62
   186
  6
CONTINUOUS
  0
LAYER
  5
F4
330
2
100
AcDbSymbolTableRecord
100
AcDbLayerTableRecord
  2
187
 70
     0
 62
   187
  6
CONTINUOUS
  0
LAYER
  5
F5
330
2
100
AcDbSymbolTableRecord
100
AcDbLayerTableRecord
  2
188
 70
     0
 62
   188
  6
CONTINUOUS
  0
LAYER
  5
F6
330
2
100
AcDbSymbolTableRecord
100
AcDbLayerTableRecord
  2
189
 70
     0
 62
   189
  6
CONTINUOUS
  0
LAYER
  5
F7
330
2
100
AcDbSymbolTableRecord
100
AcDbLayerTableRecord
  2
190
 70
     0
 62
   190
  6
CONTINUOUS
  0
LAYER
  5
F8
330
2
100
AcDbSymbolTableRecord
100
AcDbLayerTableRecord
  2
191
 70
     0
 62
   191
  6
CONTINUOUS
  0
LAYER
  5
F9
330
2
100
AcDbSymbolTableRecord
100
AcDbLayerTableRecord
  2
192
 70
     0
 62
   192
  6
CONTINUOUS
  0
LAYER
  5
FA
330
2
100
AcDbSymbolTableRecord
100
AcDbLayerTableRecord
  2
193
 70
     0
 62
   193
  6
CONTINUOUS
  0
LAYER
  5
FB
330
2
100
AcDbSymbolTableRecord
100
AcDbLayerTableRecord
  2
194
 70
     0
 62
   194
  6
CONTINUOUS
  0
LAYER
  5
FC
330
2
100
AcDbSymbolTableRecord
100
AcDbLayerTableRecord
  2
195
 70
     0
 62
   195
  6
CONTINUOUS
  0
LAYER
  5
FD
330
2
100
AcDbSymbolTableRecord
100
AcDbLayerTableRecord
  2
196
 70
     0
 62
   196
  6
CONTINUOUS
  0
LAYER
  5
FE
330
2
100
AcDbSymbolTableRecord
100
AcDbLayerTableRecord
  2
197
 70
     0
 62
   197
  6
CONTINUOUS
  0
LAYER
  5
FF
330
2
100
AcDbSymbolTableRecord
100
AcDbLayerTableRecord
  2
198
 70
     0
 62
   198
  6
CONTINUOUS
  0
LAYER
  5
100
330
2
100
AcDbSymbolTableRecord
100
AcDbLayerTableRecord
  2
199
 70
     0
 62
   199
  6
CONTINUOUS
  0
LAYER
  5
101
330
2
100
AcDbSymbolTableRecord
100
AcDbLayerTableRecord
  2
200
 70
     0
 62
   200
  6
CONTINUOUS
  0
LAYER
  5
102
330
2
100
AcDbSymbolTableRecord
100
AcDbLayerTableRecord
  2
201
 70
     0
 62
   201
  6
CONTINUOUS
  0
LAYER
  5
103
330
2
100
AcDbSymbolTableRecord
100
AcDbLayerTableRecord
  2
202
 70
     0
 62
   202
  6
CONTINUOUS
  0
LAYER
  5
104
330
2
100
AcDbSymbolTableRecord
100
AcDbLayerTableRecord
  2
203
 70
     0
 62
   203
  6
CONTINUOUS
  0
LAYER
  5
105
330
2
100
AcDbSymbolTableRecord
100
AcDbLayerTableRecord
  2
204
 70
     0
 62
   204
  6
CONTINUOUS
  0
LAYER
  5
106
330
2
100
AcDbSymbolTableRecord
100
AcDbLayerTableRecord
  2
205
 70
     0
 62
   205
  6
CONTINUOUS
  0
LAYER
  5
107
330
2
100
AcDbSymbolTableRecord
100
AcDbLayerTableRecord
  2
206
 70
     0
 62
   206
  6
CONTINUOUS
  0
LAYER
  5
108
330
2
100
AcDbSymbolTableRecord
100
AcDbLayerTableRecord
  2
207
 70
     0
 62
   207
  6
CONTINUOUS
  0
LAYER
  5
109
330
2
100
AcDbSymbolTableRecord
100
AcDbLayerTableRecord
  2
208
 70
     0
 62
   208
  6
CONTINUOUS
  0
LAYER
  5
10A
330
2
100
AcDbSymbolTableRecord
100
AcDbLayerTableRecord
  2
209
 70
     0
 62
   209
  6
CONTINUOUS
  0
LAYER
  5
10B
330
2
100
AcDbSymbolTableRecord
100
AcDbLayerTableRecord
  2
210
 70
     0
 62
   210
  6
CONTINUOUS
  0
LAYER
  5
10C
330
2
100
AcDbSymbolTableRecord
100
AcDbLayerTableRecord
  2
211
 70
     0
 62
   211
  6
CONTINUOUS
  0
LAYER
  5
10D
330
2
100
AcDbSymbolTableRecord
100
AcDbLayerTableRecord
  2
212
 70
     0
 62
   212
  6
CONTINUOUS
  0
LAYER
  5
10E
330
2
100
AcDbSymbolTableRecord
100
AcDbLayerTableRecord
  2
213
 70
     0
 62
   213
  6
CONTINUOUS
  0
LAYER
  5
10F
330
2
100
AcDbSymbolTableRecord
100
AcDbLayerTableRecord
  2
214
 70
     0
 62
   214
  6
CONTINUOUS
  0
LAYER
  5
110
330
2
100
AcDbSymbolTableRecord
100
AcDbLayerTableRecord
  2
215
 70
     0
 62
   215
  6
CONTINUOUS
  0
LAYER
  5
111
330
2
100
AcDbSymbolTableRecord
100
AcDbLayerTableRecord
  2
216
 70
     0
 62
   216
  6
CONTINUOUS
  0
LAYER
  5
112
330
2
100
AcDbSymbolTableRecord
100
AcDbLayerTableRecord
  2
217
 70
     0
 62
   217
  6
CONTINUOUS
  0
LAYER
  5
113
330
2
100
AcDbSymbolTableRecord
100
AcDbLayerTableRecord
  2
218
 70
     0
 62
   218
  6
CONTINUOUS
  0
LAYER
  5
114
330
2
100
AcDbSymbolTableRecord
100
AcDbLayerTableRecord
  2
219
 70
     0
 62
   219
  6
CONTINUOUS
  0
LAYER
  5
115
330
2
100
AcDbSymbolTableRecord
100
AcDbLayerTableRecord
  2
220
 70
     0
 62
   220
  6
CONTINUOUS
  0
LAYER
  5
116
330
2
100
AcDbSymbolTableRecord
100
AcDbLayerTableRecord
  2
221
 70
     0
 62
   221
  6
CONTINUOUS
  0
LAYER
  5
117
330
2
100
AcDbSymbolTableRecord
100
AcDbLayerTableRecord
  2
222
 70
     0
 62
   222
  6
CONTINUOUS
  0
LAYER
  5
118
330
2
100
AcDbSymbolTableRecord
100
AcDbLayerTableRecord
  2
223
 70
     0
 62
   223
  6
CONTINUOUS
  0
LAYER
  5
119
330
2
100
AcDbSymbolTableRecord
100
AcDbLayerTableRecord
  2
224
 70
     0
 62
   224
  6
CONTINUOUS
  0
LAYER
  5
11A
330
2
100
AcDbSymbolTableRecord
100
AcDbLayerTableRecord
  2
225
 70
     0
 62
   225
  6
CONTINUOUS
  0
LAYER
  5
11B
330
2
100
AcDbSymbolTableRecord
100
AcDbLayerTableRecord
  2
226
 70
     0
 62
   226
  6
CONTINUOUS
  0
LAYER
  5
11C
330
2
100
AcDbSymbolTableRecord
100
AcDbLayerTableRecord
  2
227
 70
     0
 62
   227
  6
CONTINUOUS
  0
LAYER
  5
11D
330
2
100
AcDbSymbolTableRecord
100
AcDbLayerTableRecord
  2
228
 70
     0
 62
   228
  6
CONTINUOUS
  0
LAYER
  5
11E
330
2
100
AcDbSymbolTableRecord
100
AcDbLayerTableRecord
  2
229
 70
     0
 62
   229
  6
CONTINUOUS
  0
LAYER
  5
11F
330
2
100
AcDbSymbolTableRecord
100
AcDbLayerTableRecord
  2
230
 70
     0
 62
   230
  6
CONTINUOUS
  0
LAYER
  5
120
330
2
100
AcDbSymbolTableRecord
100
AcDbLayerTableRecord
  2
231
 70
     0
 62
   231
  6
CONTINUOUS
  0
LAYER
  5
121
330
2
100
AcDbSymbolTableRecord
100
AcDbLayerTableRecord
  2
232
 70
     0
 62
   232
  6
CONTINUOUS
  0
LAYER
  5
122
330
2
100
AcDbSymbolTableRecord
100
AcDbLayerTableRecord
  2
233
 70
     0
 62
   233
  6
CONTINUOUS
  0
LAYER
  5
123
330
2
100
AcDbSymbolTableRecord
100
AcDbLayerTableRecord
  2
234
 70
     0
 62
   234
  6
CONTINUOUS
  0
LAYER
  5
124
330
2
100
AcDbSymbolTableRecord
100
AcDbLayerTableRecord
  2
235
 70
     0
 62
   235
  6
CONTINUOUS
  0
LAYER
  5
125
330
2
100
AcDbSymbolTableRecord
100
AcDbLayerTableRecord
  2
236
 70
     0
 62
   236
  6
CONTINUOUS
  0
LAYER
  5
126
330
2
100
AcDbSymbolTableRecord
100
AcDbLayerTableRecord
  2
237
 70
     0
 62
   237
  6
CONTINUOUS
  0
LAYER
  5
127
330
2
100
AcDbSymbolTableRecord
100
AcDbLayerTableRecord
  2
238
 70
     0
 62
   238
  6
CONTINUOUS
  0
LAYER
  5
128
330
2
100
AcDbSymbolTableRecord
100
AcDbLayerTableRecord
  2
239
 70
     0
 62
   239
  6
CONTINUOUS
  0
LAYER
  5
129
330
2
100
AcDbSymbolTableRecord
100
AcDbLayerTableRecord
  2
240
 70
     0
 62
   240
  6
CONTINUOUS
  0
LAYER
  5
12A
330
2
100
AcDbSymbolTableRecord
100
AcDbLayerTableRecord
  2
241
 70
     0
 62
   241
  6
CONTINUOUS
  0
LAYER
  5
12B
330
2
100
AcDbSymbolTableRecord
100
AcDbLayerTableRecord
  2
242
 70
     0
 62
   242
  6
CONTINUOUS
  0
LAYER
  5
12C
330
2
100
AcDbSymbolTableRecord
100
AcDbLayerTableRecord
  2
243
 70
     0
 62
   243
  6
CONTINUOUS
  0
LAYER
  5
12D
330
2
100
AcDbSymbolTableRecord
100
AcDbLayerTableRecord
  2
244
 70
     0
 62
   244
  6
CONTINUOUS
  0
LAYER
  5
12E
330
2
100
AcDbSymbolTableRecord
100
AcDbLayerTableRecord
  2
245
 70
     0
 62
   245
  6
CONTINUOUS
  0
LAYER
  5
12F
330
2
100
AcDbSymbolTableRecord
100
AcDbLayerTableRecord
  2
246
 70
     0
 62
   246
  6
CONTINUOUS
  0
LAYER
  5
130
330
2
100
AcDbSymbolTableRecord
100
AcDbLayerTableRecord
  2
247
 70
     0
 62
   247
  6
CONTINUOUS
  0
LAYER
  5
131
330
2
100
AcDbSymbolTableRecord
100
AcDbLayerTableRecord
  2
248
 70
     0
 62
   248
  6
CONTINUOUS
  0
LAYER
  5
132
330
2
100
AcDbSymbolTableRecord
100
AcDbLayerTableRecord
  2
249
 70
     0
 62
   249
  6
CONTINUOUS
  0
LAYER
  5
133
330
2
100
AcDbSymbolTableRecord
100
AcDbLayerTableRecord
  2
250
 70
     0
 62
   250
  6
CONTINUOUS
  0
LAYER
  5
134
330
2
100
AcDbSymbolTableRecord
100
AcDbLayerTableRecord
  2
251
 70
     0
 62
   251
  6
CONTINUOUS
  0
LAYER
  5
135
330
2
100
AcDbSymbolTableRecord
100
AcDbLayerTableRecord
  2
252
 70
     0
 62
   252
  6
CONTINUOUS
  0
LAYER
  5
136
330
2
100
AcDbSymbolTableRecord
100
AcDbLayerTableRecord
  2
253
 70
     0
 62
   253
  6
CONTINUOUS
  0
LAYER
  5
137
330
2
100
AcDbSymbolTableRecord
100
AcDbLayerTableRecord
  2
254
 70
     0
 62
   254
  6
CONTINUOUS
  0
LAYER
  5
138
330
2
100
AcDbSymbolTableRecord
100
AcDbLayerTableRecord
  2
255
 70
     0
 62
   255
  6
CONTINUOUS
  0
LAYER
  5
488C
330
2
100
AcDbSymbolTableRecord
100
AcDbLayerTableRecord
  2
DEFPOINTS
 70
     0
 62
     7
  6
CONTINUOUS
  0
ENDTAB
  0
TABLE
  2
STYLE
  5
3
330
0
100
AcDbSymbolTable
 70
     1
  0
STYLE
  5
11
330
3
100
AcDbSymbolTableRecord
100
AcDbTextStyleTableRecord
  2
STANDARD
 70
     0
 40
0.0
 41
1.0
 50
0.0
 71
     0
 42
0.2
  3
monotxt
  4

  0
ENDTAB
  0
TABLE
  2
VIEW
  5
6
330
0
100
AcDbSymbolTable
 70
     0
  0
ENDTAB
  0
TABLE
  2
UCS
  5
7
330
0
100
AcDbSymbolTable
 70
     0
  0
ENDTAB
  0
TABLE
  2
APPID
  5
9
330
0
100
AcDbSymbolTable
 70
     1
  0
APPID
  5
12
330
9
100
AcDbSymbolTableRecord
100
AcDbRegAppTableRecord
  2
ACAD
 70
     0
  0
ENDTAB
  0
TABLE
  2
DIMSTYLE
  5
A
330
0
100
AcDbSymbolTable
 70
     1
  0
DIMSTYLE
105
310A
102
{ACAD_REACTORS
330
488B
102
}
330
A
100
AcDbSymbolTableRecord
100
AcDbDimStyleTableRecord
  2
STANDARD
 70
     0
  3

  4

  5

  6

  7

 40
1.0
 41
0.18
 42
0.0625
 43
0.38
 44
0.18
 45
0.0
 46
0.0
 47
0.0
 48
0.0
140
0.18
141
0.09
142
0.0
143
25.4
144
1.0
145
0.0
146
1.0
147
0.09
 71
     0
 72
     0
 73
     1
 74
     1
 75
     0
 76
     0
 77
     0
 78
     0
170
     0
171
     2
172
     0
173
     0
174
     0
175
     0
176
     0
177
     0
178
     0
270
     2
271
     4
272
     4
273
     2
274
     2
340
11
275
     0
280
     0
281
     0
282
     0
283
     1
284
     0
285
     0
286
     0
287
     3
288
     0
  0
ENDTAB
  0
TABLE
  2
BLOCK_RECORD
  5
1
330
0
100
AcDbSymbolTable
 70
     1
  0
BLOCK_RECORD
  5
1E
102
{ACAD_XDICTIONARY
360
48D3
102
}
330
1
100
AcDbSymbolTableRecord
100
AcDbBlockTableRecord
  2
*MODEL_SPACE
  0
BLOCK_RECORD
  5
1A
102
{ACAD_XDICTIONARY
360
48D1
102
}
330
1
100
AcDbSymbolTableRecord
100
AcDbBlockTableRecord
  2
*PAPER_SPACE
  0
BLOCK_RECORD
  5
488D
330
1
100
AcDbSymbolTableRecord
100
AcDbBlockTableRecord
  2
*D0
  0
ENDTAB
  0
ENDSEC
  0
SECTION
  2
BLOCKS
  0
BLOCK
  5
13B
330
1E
100
AcDbEntity
  8
0
100
AcDbBlockBegin
  2
*MODEL_SPACE
 70
     0
 10
0.0
 20
0.0
 30
0.0
  3
*MODEL_SPACE
  1

  0
ENDBLK
  5
13C
330
1E
100
AcDbEntity
  8
0
100
AcDbBlockEnd
  0
BLOCK
  5
139
330
1A
100
AcDbEntity
 67
     1
  8
0
100
AcDbBlockBegin
  2
*PAPER_SPACE
 70
     0
 10
0.0
 20
0.0
 30
0.0
  3
*PAPER_SPACE
  1

  0
ENDBLK
  5
13A
330
1A
100
AcDbEntity
 67
     1
  8
0
100
AcDbBlockEnd
  0
BLOCK
  5
4898
330
488D
100
AcDbEntity
  8
0
100
AcDbBlockBegin
  2
*D0
 70
     1
 10
0.0
 20
0.0
 30
0.0
  3
*D0
  1

  0
LINE
  5
488E
330
488D
100
AcDbEntity
  8
0
 62
     0
100
AcDbLine
 10
-1.597440944881889
 20
3.28001968503937
 30
0.0
 11
-1.597440944881889
 21
2.527523289097022
 31
0.0
  0
LINE
  5
488F
330
488D
100
AcDbEntity
  8
0
 62
     0
100
AcDbLine
 10
-0.0344488188976375
 20
3.28001968503937
 30
0.0
 11
-0.0344488188976376
 21
2.527523289097022
 31
0.0
  0
LINE
  5
4890
330
488D
100
AcDbEntity
  8
0
 62
     0
100
AcDbLine
 10
-1.777440944881889
 20
2.707523289097022
 30
0.0
 11
-1.957440944881889
 21
2.707523289097022
 31
0.0
  0
LINE
  5
4891
330
488D
100
AcDbEntity
  8
0
 62
     0
100
AcDbLine
 10
0.1455511811023624
 20
2.707523289097022
 30
0.0
 11
0.3255511811023624
 21
2.707523289097022
 31
0.0
  0
SOLID
  5
4892
330
488D
100
AcDbEntity
  8
0
 62
     0
100
AcDbTrace
 10
-1.777440944881889
 20
2.737523289097021
 30
0.0
 11
-1.777440944881889
 21
2.677523289097022
 31
0.0
 12
-1.597440944881889
 22
2.707523289097022
 32
0.0
 13
-1.597440944881889
 23
2.707523289097022
 33
0.0
  0
SOLID
  5
4893
330
488D
100
AcDbEntity
  8
0
 62
     0
100
AcDbTrace
 10
0.1455511811023624
 20
2.737523289097021
 30
0.0
 11
0.1455511811023624
 21
2.677523289097022
 31
0.0
 12
-0.0344488188976376
 22
2.707523289097022
 32
0.0
 13
-0.0344488188976376
 23
2.707523289097022
 33
0.0
  0
MTEXT
  5
4894
330
488D
100
AcDbEntity
  8
0
 62
     0
100
AcDbMText
 10
-0.8159448818897635
 20
2.707523289097022
 30
0.0
 40
0.18
 41
0.0
 71
     5
 72
     1
  1
\A1;1.5630
1001
ACAD
1000
MTEXTBEGIN
1070
    73
1070
     1
1070
    44
1040
1.0
1070
    74
1070
     0
1000
MTEXTEND
  0
POINT
  5
4895
330
488D
100
AcDbEntity
  8
DEFPOINTS
 62
     0
100
AcDbPoint
 10
-1.597440944881889
 20
3.34251968503937
 30
0.0
  0
POINT
  5
4896
330
488D
100
AcDbEntity
  8
DEFPOINTS
 62
     0
100
AcDbPoint
 10
-0.0344488188976375
 20
3.34251968503937
 30
0.0
  0
POINT
  5
4897
330
488D
100
AcDbEntity
  8
DEFPOINTS
 62
     0
100
AcDbPoint
 10
-0.0344488188976376
 20
2.707523289097022
 30
0.0
  0
ENDBLK
  5
4899
330
488D
100
AcDbEntity
  8
0
100
AcDbBlockEnd
  0
ENDSEC
  0
SECTION
  2
ENTITIES
  0
LINE
  5
280C
330
1E
100
AcDbEntity
  8
3
100
AcDbLine
 10
-1.429133858267716
 20
4.535433070866141
 30
0.0
 11
-1.458661417322834
 21
4.535433070866141
 31
0.0
  0
LINE
  5
280D
330
1E
100
AcDbEntity
  8
3
100
AcDbLine
 10
-0.9537401574803148
 20
4.535433070866141
 30
0.0
 11
-0.9035433070866139
 21
4.535433070866141
 31
0.0
  0
LINE
  5
2813
330
1E
100
AcDbEntity
  8
3
100
AcDbLine
 10
-0.9035433070866139
 20
4.505905511811024
 30
0.0
 11
-0.9035433070866139
 21
4.541338582677165
 31
0.0
  0
LINE
  5
2814
330
1E
100
AcDbEntity
  8
3
100
AcDbLine
 10
-0.840551181102362
 20
4.546259842519685
 30
0.0
 11
-0.8956692913385824
 21
4.546259842519685
 31
0.0
  0
LINE
  5
281A
330
1E
100
AcDbEntity
  8
3
100
AcDbLine
 10
-1.56003937007874
 20
4.808070866141732
 30
0.0
 11
-1.508858267716535
 21
4.808070866141732
 31
0.0
  0
LINE
  5
281B
330
1E
100
AcDbEntity
  8
3
100
AcDbLine
 10
-1.458661417322834
 20
4.77263779527559
 30
0.0
 11
-1.458661417322834
 21
4.540354330708662
 31
0.0
  0
LINE
  5
281C
330
1E
100
AcDbEntity
  8
3
100
AcDbLine
 10
-1.429133858267716
 20
4.493110236220472
 30
0.0
 11
-0.96751968503937
 21
4.493110236220472
 31
0.0
  0
LINE
  5
281D
330
1E
100
AcDbEntity
  8
3
100
AcDbLine
 10
-0.8208661417322833
 20
4.872047244094487
 30
0.0
 11
-0.8208661417322833
 21
4.532480314960629
 31
0.0
  0
LINE
  5
281E
330
1E
100
AcDbEntity
  8
3
100
AcDbLine
 10
-0.8956692913385824
 20
4.52755905511811
 30
0.0
 11
-0.8956692913385824
 21
4.546259842519685
 31
0.0
  0
LINE
  5
281F
330
1E
100
AcDbEntity
  8
3
100
AcDbLine
 10
-0.8208661417322833
 20
4.525590551181102
 30
0.0
 11
-0.8208661417322833
 21
4.532480314960629
 31
0.0
  0
LINE
  5
2820
330
1E
100
AcDbEntity
  8
3
100
AcDbLine
 10
-0.840551181102362
 20
4.885826771653543
 30
0.0
 11
-0.840551181102362
 21
4.880905511811024
 31
0.0
  0
LINE
  5
2821
330
1E
100
AcDbEntity
  8
3
100
AcDbLine
 10
-1.56003937007874
 20
4.77263779527559
 30
0.0
 11
-1.56003937007874
 21
4.779527559055118
 31
0.0
  0
LINE
  5
2822
330
1E
100
AcDbEntity
  8
3
100
AcDbLine
 10
-1.508858267716535
 20
4.77263779527559
 30
0.0
 11
-1.508858267716535
 21
4.779527559055118
 31
0.0
  0
LINE
  5
2823
330
1E
100
AcDbEntity
  8
3
100
AcDbLine
 10
-0.6781496062992125
 20
4.534448818897637
 30
0.0
 11
-0.7283464566929135
 21
4.534448818897637
 31
0.0
  0
LINE
  5
2824
330
1E
100
AcDbEntity
  8
3
100
AcDbLine
 10
-0.6781496062992125
 20
4.540354330708662
 30
0.0
 11
-0.6781496062992125
 21
4.493110236220472
 31
0.0
  0
LINE
  5
2825
330
1E
100
AcDbEntity
  8
3
100
AcDbLine
 10
-0.6781496062992125
 20
4.540354330708662
 30
0.0
 11
-0.7283464566929135
 21
4.540354330708662
 31
0.0
  0
LINE
  5
2826
330
1E
100
AcDbEntity
  8
3
100
AcDbLine
 10
-0.2027559055118107
 20
4.493110236220472
 30
0.0
 11
-0.6781496062992125
 21
4.493110236220472
 31
0.0
  0
LINE
  5
2827
330
1E
100
AcDbEntity
  8
3
100
AcDbLine
 10
-0.1732283464566926
 20
4.77263779527559
 30
0.0
 11
-0.1732283464566926
 21
4.535433070866141
 31
0.0
  0
LINE
  5
2828
330
1E
100
AcDbEntity
  8
3
100
AcDbLine
 10
-0.0708661417322834
 20
4.808070866141732
 30
0.0
 11
-0.1230314960629921
 21
4.808070866141732
 31
0.0
  0
LINE
  5
2829
330
1E
100
AcDbEntity
  8
3
100
AcDbLine
 10
-0.7903543307086613
 20
4.885826771653543
 30
0.0
 11
-0.0708661417322834
 21
4.885826771653543
 31
0.0
  0
LINE
  5
282A
330
1E
100
AcDbEntity
  8
3
100
AcDbLine
 10
-0.7903543307086613
 20
4.546259842519685
 30
0.0
 11
-0.7362204724409447
 21
4.546259842519685
 31
0.0
  0
LINE
  5
282B
330
1E
100
AcDbEntity
  8
3
100
AcDbLine
 10
-0.811023622047244
 20
4.525590551181102
 30
0.0
 11
-0.811023622047244
 21
4.532480314960629
 31
0.0
  0
LINE
  5
282C
330
1E
100
AcDbEntity
  8
3
100
AcDbLine
 10
-1.597440944881889
 20
4.233267716535433
 30
0.0
 11
-1.597440944881889
 21
4.400590551181102
 31
0.0
  0
LINE
  5
282D
330
1E
100
AcDbEntity
  8
3
100
AcDbLine
 10
-1.503937007874015
 20
4.964566929133858
 30
0.0
 11
-0.1279527559055116
 21
4.964566929133858
 31
0.0
  0
LINE
  5
282E
330
1E
100
AcDbEntity
  8
3
100
AcDbLine
 10
-1.581692913385826
 20
4.58759842519685
 30
0.0
 11
-1.502952755905511
 21
4.58759842519685
 31
0.0
  0
LINE
  5
282F
330
1E
100
AcDbEntity
  8
3
100
AcDbLine
 10
-1.581692913385826
 20
4.559055118110236
 30
0.0
 11
-1.503937007874015
 21
4.559055118110236
 31
0.0
  0
LINE
  5
2830
330
1E
100
AcDbEntity
  8
3
100
AcDbLine
 10
-1.502952755905511
 20
4.58759842519685
 30
0.0
 11
-1.500984251968503
 21
4.58759842519685
 31
0.0
  0
LINE
  5
2831
330
1E
100
AcDbEntity
  8
3
100
AcDbLine
 10
-1.491141732283464
 20
4.769685039370078
 30
0.0
 11
-1.491141732283464
 21
4.577755905511811
 31
0.0
  0
LINE
  5
2837
330
1E
100
AcDbEntity
  8
3
100
AcDbLine
 10
-1.500984251968503
 20
4.58759842519685
 30
0.0
 11
-1.503937007874015
 21
4.58759842519685
 31
0.0
  0
LINE
  5
2838
330
1E
100
AcDbEntity
  8
3
100
AcDbLine
 10
-1.503937007874015
 20
4.77755905511811
 30
0.0
 11
-1.503937007874015
 21
4.58759842519685
 31
0.0
  0
LINE
  5
2839
330
1E
100
AcDbEntity
  8
3
100
AcDbLine
 10
-1.503937007874015
 20
4.964566929133858
 30
0.0
 11
-1.503937007874015
 21
4.916338582677165
 31
0.0
  0
LINE
  5
283A
330
1E
100
AcDbEntity
  8
3
100
AcDbLine
 10
-1.239173228346456
 20
4.366141732283464
 30
0.0
 11
-1.238188976377952
 21
4.366141732283464
 31
0.0
  0
LINE
  5
283B
330
1E
100
AcDbEntity
  8
3
100
AcDbLine
 10
-1.429133858267716
 20
4.454724409448819
 30
0.0
 11
-0.9035433070866139
 21
4.454724409448819
 31
0.0
  0
LINE
  5
283C
330
1E
100
AcDbEntity
  8
3
100
AcDbLine
 10
-1.020669291338582
 20
4.39763779527559
 30
0.0
 11
-1.24507874015748
 21
4.39763779527559
 31
0.0
  0
LINE
  5
283D
330
1E
100
AcDbEntity
  8
3
100
AcDbLine
 10
-0.9035433070866139
 20
4.45767716535433
 30
0.0
 11
-0.9035433070866139
 21
4.454724409448819
 31
0.0
  0
LINE
  5
283E
330
1E
100
AcDbEntity
  8
3
100
AcDbLine
 10
-1.02263779527559
 20
4.421259842519685
 30
0.0
 11
-1.024606299212598
 21
4.421259842519685
 31
0.0
  0
LINE
  5
283F
330
1E
100
AcDbEntity
  8
3
100
AcDbLine
 10
-1.236220472440944
 20
4.371062992125984
 30
0.0
 11
-1.117125984251968
 21
4.371062992125984
 31
0.0
  0
LINE
  5
2840
330
1E
100
AcDbEntity
  8
3
100
AcDbLine
 10
-1.242125984251968
 20
4.421259842519685
 30
0.0
 11
-1.024606299212598
 21
4.421259842519685
 31
0.0
  0
LINE
  5
2841
330
1E
100
AcDbEntity
  8
3
100
AcDbLine
 10
-1.244094488188976
 20
4.421259842519685
 30
0.0
 11
-1.242125984251968
 21
4.421259842519685
 31
0.0
  0
LINE
  5
2848
330
1E
100
AcDbEntity
  8
3
100
AcDbLine
 10
-1.49015748031496
 20
4.443897637795275
 30
0.0
 11
-1.49015748031496
 21
4.577755905511811
 31
0.0
  0
LINE
  5
284E
330
1E
100
AcDbEntity
  8
3
100
AcDbLine
 10
-0.0501968503937005
 20
4.423228346456693
 30
0.0
 11
-0.1269685039370079
 21
4.423228346456693
 31
0.0
  0
LINE
  5
284F
330
1E
100
AcDbEntity
  8
3
100
AcDbLine
 10
-0.1368110236220472
 20
4.409448818897637
 30
0.0
 11
-0.1387795275590551
 21
4.371062992125984
 31
0.0
  0
LINE
  5
2850
330
1E
100
AcDbEntity
  8
3
100
AcDbLine
 10
-1.493110236220472
 20
4.371062992125984
 30
0.0
 11
-0.1387795275590551
 21
4.371062992125984
 31
0.0
  0
LINE
  5
2851
330
1E
100
AcDbEntity
  8
3
100
AcDbLine
 10
-1.494094488188976
 20
4.409448818897637
 30
0.0
 11
-1.493110236220472
 21
4.371062992125984
 31
0.0
  0
LINE
  5
2852
330
1E
100
AcDbEntity
  8
3
100
AcDbLine
 10
-0.6092519685039371
 20
4.421259842519685
 30
0.0
 11
-1.02263779527559
 21
4.421259842519685
 31
0.0
  0
LINE
  5
2853
330
1E
100
AcDbEntity
  8
3
100
AcDbLine
 10
-0.6092519685039371
 20
4.421259842519685
 30
0.0
 11
-0.6072834645669292
 21
4.421259842519685
 31
0.0
  0
LINE
  5
2854
330
1E
100
AcDbEntity
  8
3
100
AcDbLine
 10
-0.3897637795275588
 20
4.421259842519685
 30
0.0
 11
-0.6072834645669292
 21
4.421259842519685
 31
0.0
  0
LINE
  5
2855
330
1E
100
AcDbEntity
  8
3
100
AcDbLine
 10
-0.3868110236220472
 20
4.421259842519685
 30
0.0
 11
-0.3897637795275588
 21
4.421259842519685
 31
0.0
  0
LINE
  5
285B
330
1E
100
AcDbEntity
  8
3
100
AcDbLine
 10
-1.244094488188976
 20
4.421259842519685
 30
0.0
 11
-1.493110236220472
 21
4.421259842519685
 31
0.0
  0
LINE
  5
285C
330
1E
100
AcDbEntity
  8
3
100
AcDbLine
 10
-1.49015748031496
 20
4.434055118110236
 30
0.0
 11
-0.140748031496063
 21
4.434055118110236
 31
0.0
  0
LINE
  5
285D
330
1E
100
AcDbEntity
  8
3
100
AcDbLine
 10
-0.9035433070866139
 20
4.45767716535433
 30
0.0
 11
-0.7283464566929135
 21
4.45767716535433
 31
0.0
  0
LINE
  5
285E
330
1E
100
AcDbEntity
  8
3
100
AcDbLine
 10
-0.9035433070866139
 20
4.483267716535433
 30
0.0
 11
-0.7283464566929135
 21
4.483267716535433
 31
0.0
  0
LINE
  5
285F
330
1E
100
AcDbEntity
  8
3
100
AcDbLine
 10
-0.7283464566929135
 20
4.494094488188976
 30
0.0
 11
-0.7283464566929135
 21
4.423228346456693
 31
0.0
  0
LINE
  5
2860
330
1E
100
AcDbEntity
  8
3
100
AcDbLine
 10
-1.49015748031496
 20
4.434055118110236
 30
0.0
 11
-1.49015748031496
 21
4.443897637795275
 31
0.0
  0
LINE
  5
2861
330
1E
100
AcDbEntity
  8
3
100
AcDbLine
 10
-1.49015748031496
 20
4.758858267716535
 30
0.0
 11
-1.491141732283464
 21
4.769685039370078
 31
0.0
  0
LINE
  5
2862
330
1E
100
AcDbEntity
  8
3
100
AcDbLine
 10
-0.0344488188976375
 20
4.233267716535433
 30
0.0
 11
-0.0344488188976375
 21
4.291338582677165
 31
0.0
  0
LINE
  5
2863
330
1E
100
AcDbEntity
  8
3
100
AcDbLine
 10
-0.0344488188976375
 20
4.898622047244094
 30
0.0
 11
-0.0344488188976375
 21
4.878937007874015
 31
0.0
  0
LINE
  5
2864
330
1E
100
AcDbEntity
  8
3
100
AcDbLine
 10
-0.0344488188976375
 20
4.400590551181102
 30
0.0
 11
-0.0344488188976375
 21
4.548228346456693
 31
0.0
  0
LINE
  5
2865
330
1E
100
AcDbEntity
  8
3
100
AcDbLine
 10
-0.0344488188976375
 20
4.233267716535433
 30
0.0
 11
-0.0344488188976375
 21
4.26279527559055
 31
0.0
  0
LINE
  5
2866
330
1E
100
AcDbEntity
  8
3
100
AcDbLine
 10
-0.0344488188976375
 20
4.233267716535433
 30
0.0
 11
-0.0344488188976375
 21
4.26279527559055
 31
0.0
  0
LINE
  5
2867
330
1E
100
AcDbEntity
  8
3
100
AcDbLine
 10
-0.0344488188976375
 20
4.23523622047244
 30
0.0
 11
-0.0344488188976375
 21
4.301181102362204
 31
0.0
  0
LINE
  5
2868
330
1E
100
AcDbEntity
  8
3
100
AcDbLine
 10
-0.0344488188976375
 20
4.233267716535433
 30
0.0
 11
-0.0344488188976375
 21
4.287401574803149
 31
0.0
  0
LINE
  5
2869
330
1E
100
AcDbEntity
  8
3
100
AcDbLine
 10
-0.0344488188976375
 20
4.051181102362204
 30
0.0
 11
-0.0344488188976375
 21
4.233267716535433
 31
0.0
  0
LINE
  5
286A
330
1E
100
AcDbEntity
  8
3
100
AcDbLine
 10
-0.0344488188976375
 20
4.051181102362204
 30
0.0
 11
-0.0344488188976375
 21
4.233267716535433
 31
0.0
  0
LINE
  5
286B
330
1E
100
AcDbEntity
  8
3
100
AcDbLine
 10
-0.1279527559055116
 20
4.051181102362204
 30
0.0
 11
-0.1279527559055116
 21
4.233267716535433
 31
0.0
  0
LINE
  5
2871
330
1E
100
AcDbEntity
  8
3
100
AcDbLine
 10
-0.0748031496062991
 20
3.90255905511811
 30
0.0
 11
0.0
 21
4.03248031496063
 31
0.0
  0
LINE
  5
2877
330
1E
100
AcDbEntity
  8
3
100
AcDbLine
 10
-0.1279527559055116
 20
4.051181102362204
 30
0.0
 11
-0.095472440944882
 21
3.90255905511811
 31
0.0
  0
LINE
  5
2878
330
1E
100
AcDbEntity
  8
3
100
AcDbLine
 10
-0.0344488188976375
 20
4.233267716535433
 30
0.0
 11
-0.0590551181102361
 21
4.233267716535433
 31
0.0
  0
LINE
  5
2879
330
1E
100
AcDbEntity
  8
3
100
AcDbLine
 10
-0.0344488188976375
 20
4.233267716535433
 30
0.0
 11
-0.1279527559055116
 21
4.233267716535433
 31
0.0
  0
LINE
  5
287A
330
1E
100
AcDbEntity
  8
3
100
AcDbLine
 10
-0.0344488188976375
 20
4.051181102362204
 30
0.0
 11
0.0
 21
4.051181102362204
 31
0.0
  0
LINE
  5
287B
330
1E
100
AcDbEntity
  8
3
100
AcDbLine
 10
-0.0344488188976375
 20
4.051181102362204
 30
0.0
 11
0.0
 21
4.051181102362204
 31
0.0
  0
LINE
  5
287C
330
1E
100
AcDbEntity
  8
3
100
AcDbLine
 10
-0.0501968503937005
 20
4.58759842519685
 30
0.0
 11
-0.1289370078740157
 21
4.58759842519685
 31
0.0
  0
LINE
  5
287D
330
1E
100
AcDbEntity
  8
3
100
AcDbLine
 10
-0.1309055118110236
 20
4.58759842519685
 30
0.0
 11
-0.1279527559055116
 21
4.58759842519685
 31
0.0
  0
LINE
  5
287E
330
1E
100
AcDbEntity
  8
3
100
AcDbLine
 10
-0.2027559055118107
 20
4.454724409448819
 30
0.0
 11
-0.7283464566929135
 21
4.454724409448819
 31
0.0
  0
LINE
  5
287F
330
1E
100
AcDbEntity
  8
3
100
AcDbLine
 10
-0.6102362204724408
 20
4.39763779527559
 30
0.0
 11
-0.3858267716535431
 21
4.39763779527559
 31
0.0
  0
LINE
  5
2880
330
1E
100
AcDbEntity
  8
3
100
AcDbLine
 10
-0.7283464566929135
 20
4.494094488188976
 30
0.0
 11
-0.7283464566929135
 21
4.521653543307087
 31
0.0
  0
LINE
  5
2881
330
1E
100
AcDbEntity
  8
3
100
AcDbLine
 10
-0.7283464566929135
 20
4.45767716535433
 30
0.0
 11
-0.7283464566929135
 21
4.454724409448819
 31
0.0
  0
LINE
  5
2882
330
1E
100
AcDbEntity
  8
3
100
AcDbLine
 10
-0.0501968503937005
 20
4.559055118110236
 30
0.0
 11
-0.0501968503937005
 21
4.423228346456693
 31
0.0
  0
LINE
  5
2883
330
1E
100
AcDbEntity
  8
3
100
AcDbLine
 10
-0.9035433070866139
 20
4.521653543307087
 30
0.0
 11
-0.7283464566929135
 21
4.521653543307087
 31
0.0
  0
LINE
  5
2884
330
1E
100
AcDbEntity
  8
3
100
AcDbLine
 10
-1.458661417322834
 20
4.451771653543307
 30
0.0
 11
-1.429133858267716
 21
4.451771653543307
 31
0.0
  0
LINE
  5
2885
330
1E
100
AcDbEntity
  8
3
100
AcDbLine
 10
-1.429133858267716
 20
4.454724409448819
 30
0.0
 11
-0.9537401574803148
 21
4.454724409448819
 31
0.0
  0
LINE
  5
2886
330
1E
100
AcDbEntity
  8
3
100
AcDbLine
 10
-1.472440944881889
 20
4.768700787401574
 30
0.0
 11
-1.472440944881889
 21
4.757874015748031
 31
0.0
  0
LINE
  5
2887
330
1E
100
AcDbEntity
  8
3
100
AcDbLine
 10
-1.472440944881889
 20
4.767716535433071
 30
0.0
 11
-1.472440944881889
 21
4.537401574803149
 31
0.0
  0
LINE
  5
2888
330
1E
100
AcDbEntity
  8
3
100
AcDbLine
 10
-0.840551181102362
 20
4.888779527559055
 30
0.0
 11
-1.56003937007874
 21
4.888779527559055
 31
0.0
  0
LINE
  5
2889
330
1E
100
AcDbEntity
  8
3
100
AcDbLine
 10
-1.56003937007874
 20
4.769685039370078
 30
0.0
 11
-1.508858267716535
 21
4.769685039370078
 31
0.0
  0
LINE
  5
288A
330
1E
100
AcDbEntity
  8
3
100
AcDbLine
 10
-1.575787401574802
 20
4.780511811023622
 30
0.0
 11
-1.575787401574802
 21
4.773622047244094
 31
0.0
  0
LINE
  5
288B
330
1E
100
AcDbEntity
  8
3
100
AcDbLine
 10
-1.502952755905511
 20
4.77263779527559
 30
0.0
 11
-1.502952755905511
 21
4.779527559055118
 31
0.0
  0
LINE
  5
288C
330
1E
100
AcDbEntity
  8
3
100
AcDbLine
 10
-0.6781496062992125
 20
4.454724409448819
 30
0.0
 11
-0.2401574803149606
 21
4.454724409448819
 31
0.0
  0
LINE
  5
288D
330
1E
100
AcDbEntity
  8
3
100
AcDbLine
 10
-1.502952755905511
 20
4.778543307086613
 30
0.0
 11
-1.503937007874015
 21
4.778543307086613
 31
0.0
  0
LINE
  5
288E
330
1E
100
AcDbEntity
  8
3
100
AcDbLine
 10
-0.9035433070866139
 20
4.455708661417323
 30
0.0
 11
-1.429133858267716
 21
4.455708661417323
 31
0.0
  0
LINE
  5
288F
330
1E
100
AcDbEntity
  8
3
100
AcDbLine
 10
-1.567913385826771
 20
4.759842519685039
 30
0.0
 11
-1.567913385826771
 21
4.58759842519685
 31
0.0
  0
LINE
  5
2890
330
1E
100
AcDbEntity
  8
3
100
AcDbLine
 10
-0.1102362204724407
 20
4.58759842519685
 30
0.0
 11
-0.1102362204724407
 21
4.769685039370078
 31
0.0
  0
LINE
  5
2891
330
1E
100
AcDbEntity
  8
3
100
AcDbLine
 10
-0.1358267716535431
 20
4.586614173228346
 30
0.0
 11
-0.1328740157480315
 21
4.586614173228346
 31
0.0
  0
LINE
  5
2892
330
1E
100
AcDbEntity
  8
3
100
AcDbLine
 10
-0.2027559055118107
 20
4.455708661417323
 30
0.0
 11
-0.7283464566929135
 21
4.455708661417323
 31
0.0
  0
LINE
  5
2893
330
1E
100
AcDbEntity
  8
3
100
AcDbLine
 10
-0.1269685039370079
 20
4.559055118110236
 30
0.0
 11
-0.1269685039370079
 21
4.421259842519685
 31
0.0
  0
LINE
  5
2894
330
1E
100
AcDbEntity
  8
3
100
AcDbLine
 10
-0.7283464566929135
 20
4.52755905511811
 30
0.0
 11
-0.9035433070866139
 21
4.52755905511811
 31
0.0
  0
LINE
  5
2895
330
1E
100
AcDbEntity
  8
3
100
AcDbLine
 10
-0.0501968503937005
 20
4.559055118110236
 30
0.0
 11
-0.1269685039370079
 21
4.559055118110236
 31
0.0
  0
LINE
  5
2896
330
1E
100
AcDbEntity
  8
3
100
AcDbLine
 10
-1.503937007874015
 20
4.916338582677165
 30
0.0
 11
-0.1279527559055116
 21
4.916338582677165
 31
0.0
  0
LINE
  5
2897
330
1E
100
AcDbEntity
  8
3
100
AcDbLine
 10
-0.1279527559055116
 20
4.964566929133858
 30
0.0
 11
-0.1279527559055116
 21
4.916338582677165
 31
0.0
  0
LINE
  5
2898
330
1E
100
AcDbEntity
  8
3
100
AcDbLine
 10
-1.503937007874015
 20
4.90255905511811
 30
0.0
 11
-0.1279527559055116
 21
4.90255905511811
 31
0.0
  0
LINE
  5
2899
330
1E
100
AcDbEntity
  8
3
100
AcDbLine
 10
-1.502952755905511
 20
4.283464566929134
 30
0.0
 11
-1.164370078740157
 21
4.283464566929134
 31
0.0
  0
LINE
  5
289A
330
1E
100
AcDbEntity
  8
3
100
AcDbLine
 10
-1.503937007874015
 20
4.352362204724409
 30
0.0
 11
-1.502952755905511
 21
4.283464566929134
 31
0.0
  0
LINE
  5
289B
330
1E
100
AcDbEntity
  8
3
100
AcDbLine
 10
-1.503937007874015
 20
4.352362204724409
 30
0.0
 11
-1.163385826771653
 21
4.352362204724409
 31
0.0
  0
LINE
  5
289C
330
1E
100
AcDbEntity
  8
3
100
AcDbLine
 10
-1.164370078740157
 20
4.283464566929134
 30
0.0
 11
-1.163385826771653
 21
4.352362204724409
 31
0.0
  0
LINE
  5
289D
330
1E
100
AcDbEntity
  8
3
100
AcDbLine
 10
-1.502952755905511
 20
4.3001968503937
 30
0.0
 11
-1.164370078740157
 21
4.3001968503937
 31
0.0
  0
LINE
  5
289E
330
1E
100
AcDbEntity
  8
3
100
AcDbLine
 10
-1.102362204724409
 20
4.283464566929134
 30
0.0
 11
-0.8464566929133855
 21
4.283464566929134
 31
0.0
  0
LINE
  5
289F
330
1E
100
AcDbEntity
  8
3
100
AcDbLine
 10
-1.102362204724409
 20
4.283464566929134
 30
0.0
 11
-1.103346456692913
 21
4.352362204724409
 31
0.0
  0
LINE
  5
28A0
330
1E
100
AcDbEntity
  8
3
100
AcDbLine
 10
-0.8454724409448816
 20
4.352362204724409
 30
0.0
 11
-1.103346456692913
 21
4.352362204724409
 31
0.0
  0
LINE
  5
28A1
330
1E
100
AcDbEntity
  8
3
100
AcDbLine
 10
-0.8464566929133855
 20
4.283464566929134
 30
0.0
 11
-0.8454724409448816
 21
4.352362204724409
 31
0.0
  0
LINE
  5
28A2
330
1E
100
AcDbEntity
  8
3
100
AcDbLine
 10
-1.102362204724409
 20
4.3001968503937
 30
0.0
 11
-0.8464566929133855
 21
4.3001968503937
 31
0.0
  0
LINE
  5
28A8
330
1E
100
AcDbEntity
  8
3
100
AcDbLine
 10
-0.5295275590551181
 20
4.283464566929134
 30
0.0
 11
-0.7854330708661417
 21
4.283464566929134
 31
0.0
  0
LINE
  5
28A9
330
1E
100
AcDbEntity
  8
3
100
AcDbLine
 10
-0.5295275590551181
 20
4.283464566929134
 30
0.0
 11
-0.5285433070866139
 21
4.352362204724409
 31
0.0
  0
LINE
  5
28AA
330
1E
100
AcDbEntity
  8
3
100
AcDbLine
 10
-0.5285433070866139
 20
4.3001968503937
 30
0.0
 11
-0.7844488188976378
 21
4.3001968503937
 31
0.0
  0
LINE
  5
28B0
330
1E
100
AcDbEntity
  8
3
100
AcDbLine
 10
-0.1279527559055116
 20
4.352362204724409
 30
0.0
 11
-0.4685039370078741
 21
4.352362204724409
 31
0.0
  0
LINE
  5
28B1
330
1E
100
AcDbEntity
  8
3
100
AcDbLine
 10
-0.1279527559055116
 20
4.352362204724409
 30
0.0
 11
-0.1279527559055116
 21
4.283464566929134
 31
0.0
  0
LINE
  5
28B2
330
1E
100
AcDbEntity
  8
3
100
AcDbLine
 10
-0.1279527559055116
 20
4.3001968503937
 30
0.0
 11
-0.46751968503937
 21
4.3001968503937
 31
0.0
  0
LINE
  5
28B3
330
1E
100
AcDbEntity
  8
3
100
AcDbLine
 10
-1.502952755905511
 20
4.3001968503937
 30
0.0
 11
-1.503937007874015
 21
4.352362204724409
 31
0.0
  0
LINE
  5
28B4
330
1E
100
AcDbEntity
  8
3
100
AcDbLine
 10
-0.7844488188976378
 20
4.283464566929134
 30
0.0
 11
-0.7854330708661417
 21
4.283464566929134
 31
0.0
  0
LINE
  5
28B5
330
1E
100
AcDbEntity
  8
3
100
AcDbLine
 10
-0.4665354330708662
 20
4.283464566929134
 30
0.0
 11
-0.46751968503937
 21
4.283464566929134
 31
0.0
  0
LINE
  5
28B6
330
1E
100
AcDbEntity
  8
3
100
AcDbLine
 10
1.149606299212598
 20
4.752952755905512
 30
0.0
 11
1.156496062992125
 21
4.759842519685039
 31
0.0
  0
LINE
  5
28B7
330
1E
100
AcDbEntity
  8
3
100
AcDbLine
 10
0.984251968503937
 20
4.58759842519685
 30
0.0
 11
1.149606299212598
 21
4.752952755905512
 31
0.0
  0
LINE
  5
28B8
330
1E
100
AcDbEntity
  8
3
100
AcDbLine
 10
1.141732283464567
 20
4.773622047244094
 30
0.0
 11
0.9557086614173231
 21
4.58759842519685
 31
0.0
  0
LINE
  5
28B9
330
1E
100
AcDbEntity
  8
3
100
AcDbLine
 10
1.290354330708661
 20
4.879921259842519
 30
0.0
 11
1.283464566929133
 21
4.886811023622047
 31
0.0
  0
LINE
  5
28BA
330
1E
100
AcDbEntity
  8
3
100
AcDbLine
 10
1.184055118110236
 20
4.773622047244094
 30
0.0
 11
1.177165354330708
 21
4.780511811023622
 31
0.0
  0
LINE
  5
28BB
330
1E
100
AcDbEntity
  8
3
100
AcDbLine
 10
1.187992125984252
 20
4.770669291338582
 30
0.0
 11
1.177165354330708
 21
4.780511811023622
 31
0.0
  0
LINE
  5
28BC
330
1E
100
AcDbEntity
  8
3
100
AcDbLine
 10
0.6889763779527561
 20
4.234251968503937
 30
0.0
 11
0.6889763779527561
 21
4.401574803149606
 31
0.0
  0
LINE
  5
28BD
330
1E
100
AcDbEntity
  8
3
100
AcDbLine
 10
0.6889763779527561
 20
4.410433070866141
 30
0.0
 11
0.6889763779527561
 21
4.372047244094487
 31
0.0
  0
LINE
  5
28BE
330
1E
100
AcDbEntity
  8
3
100
AcDbLine
 10
2.024606299212598
 20
4.234251968503937
 30
0.0
 11
2.024606299212598
 21
4.292322834645669
 31
0.0
  0
LINE
  5
28BF
330
1E
100
AcDbEntity
  8
3
100
AcDbLine
 10
1.395669291338582
 20
4.899606299212598
 30
0.0
 11
2.024606299212598
 21
4.292322834645669
 31
0.0
  0
LINE
  5
28C0
330
1E
100
AcDbEntity
  8
3
100
AcDbLine
 10
1.068897637795275
 20
4.572834645669291
 30
0.0
 11
1.395669291338582
 21
4.899606299212598
 31
0.0
  0
LINE
  5
28C1
330
1E
100
AcDbEntity
  8
3
100
AcDbLine
 10
0.8946850393700787
 20
4.572834645669291
 30
0.0
 11
1.068897637795275
 21
4.572834645669291
 31
0.0
  0
LINE
  5
28C2
330
1E
100
AcDbEntity
  8
3
100
AcDbLine
 10
0.6889763779527561
 20
4.401574803149606
 30
0.0
 11
0.8366141732283466
 21
4.549212598425197
 31
0.0
  0
LINE
  5
28C8
330
1E
100
AcDbEntity
  8
3
100
AcDbLine
 10
0.846456692913386
 20
4.234251968503937
 30
0.0
 11
0.846456692913386
 21
4.263779527559055
 31
0.0
  0
LINE
  5
28C9
330
1E
100
AcDbEntity
  8
3
100
AcDbLine
 10
0.8513779527559055
 20
4.234251968503937
 30
0.0
 11
0.846456692913386
 21
4.234251968503937
 31
0.0
  0
LINE
  5
28CA
330
1E
100
AcDbEntity
  8
3
100
AcDbLine
 10
0.862204724409449
 20
4.236220472440945
 30
0.0
 11
1.044291338582677
 21
4.302165354330709
 31
0.0
  0
LINE
  5
28CB
330
1E
100
AcDbEntity
  8
3
100
AcDbLine
 10
1.101377952755905
 20
4.304133858267716
 30
0.0
 11
1.054133858267716
 21
4.304133858267716
 31
0.0
  0
LINE
  5
28CC
330
1E
100
AcDbEntity
  8
3
100
AcDbLine
 10
1.117125984251968
 20
4.234251968503937
 30
0.0
 11
1.117125984251968
 21
4.288385826771653
 31
0.0
  0
LINE
  5
28CD
330
1E
100
AcDbEntity
  8
3
100
AcDbLine
 10
1.193897637795275
 20
4.234251968503937
 30
0.0
 11
1.117125984251968
 21
4.234251968503937
 31
0.0
  0
LINE
  5
28CE
330
1E
100
AcDbEntity
  8
3
100
AcDbLine
 10
1.193897637795275
 20
4.052165354330709
 30
0.0
 11
1.193897637795275
 21
4.234251968503937
 31
0.0
  0
LINE
  5
28D4
330
1E
100
AcDbEntity
  8
3
100
AcDbLine
 10
2.024606299212598
 20
4.234251968503937
 30
0.0
 11
1.519685039370079
 21
4.234251968503937
 31
0.0
  0
LINE
  5
28D5
330
1E
100
AcDbEntity
  8
3
100
AcDbLine
 10
1.193897637795275
 20
4.052165354330709
 30
0.0
 11
1.193897637795275
 21
4.234251968503937
 31
0.0
  0
LINE
  5
28D6
330
1E
100
AcDbEntity
  8
3
100
AcDbLine
 10
1.519685039370079
 20
4.033464566929134
 30
0.0
 11
1.193897637795275
 21
4.033464566929134
 31
0.0
  0
LINE
  5
28D7
330
1E
100
AcDbEntity
  8
3
100
AcDbLine
 10
1.519685039370079
 20
4.033464566929134
 30
0.0
 11
1.519685039370079
 21
4.052165354330709
 31
0.0
  0
LINE
  5
28D8
330
1E
100
AcDbEntity
  8
3
100
AcDbLine
 10
1.193897637795275
 20
4.052165354330709
 30
0.0
 11
1.519685039370079
 21
4.052165354330709
 31
0.0
  0
LINE
  5
28D9
330
1E
100
AcDbEntity
  8
3
100
AcDbLine
 10
1.193897637795275
 20
4.052165354330709
 30
0.0
 11
1.193897637795275
 21
4.033464566929134
 31
0.0
  0
LINE
  5
28DA
330
1E
100
AcDbEntity
  8
3
100
AcDbLine
 10
1.193897637795275
 20
3.903543307086613
 30
0.0
 11
1.193897637795275
 21
4.033464566929134
 31
0.0
  0
LINE
  5
28DB
330
1E
100
AcDbEntity
  8
3
100
AcDbLine
 10
1.193897637795275
 20
3.903543307086613
 30
0.0
 11
1.519685039370079
 21
3.903543307086613
 31
0.0
  0
LINE
  5
28DC
330
1E
100
AcDbEntity
  8
3
100
AcDbLine
 10
1.519685039370079
 20
4.033464566929134
 30
0.0
 11
1.519685039370079
 21
3.903543307086613
 31
0.0
  0
LINE
  5
28DD
330
1E
100
AcDbEntity
  8
3
100
AcDbLine
 10
1.193897637795275
 20
4.052165354330709
 30
0.0
 11
1.193897637795275
 21
3.903543307086613
 31
0.0
  0
LINE
  5
28DE
330
1E
100
AcDbEntity
  8
3
100
AcDbLine
 10
1.011811023622047
 20
4.588582677165354
 30
0.0
 11
0.8946850393700787
 21
4.588582677165354
 31
0.0
  0
LINE
  5
28DF
330
1E
100
AcDbEntity
  8
3
100
AcDbLine
 10
0.8257874015748033
 20
4.56003937007874
 30
0.0
 11
0.6889763779527561
 21
4.423228346456693
 31
0.0
  0
LINE
  5
28E5
330
1E
100
AcDbEntity
  8
3
100
AcDbLine
 10
1.289370078740157
 20
4.878937007874015
 30
0.0
 11
1.28248031496063
 21
4.885826771653543
 31
0.0
  0
LINE
  5
28E6
330
1E
100
AcDbEntity
  8
3
100
AcDbLine
 10
2.024606299212598
 20
4.419291338582677
 30
0.0
 11
1.459645669291338
 21
4.965551181102362
 31
0.0
  0
LINE
  5
28E7
330
1E
100
AcDbEntity
  8
3
100
AcDbLine
 10
1.329724409448818
 20
4.965551181102362
 30
0.0
 11
1.28248031496063
 21
4.917322834645669
 31
0.0
  0
LINE
  5
28E8
330
1E
100
AcDbEntity
  8
3
100
AcDbLine
 10
1.030511811023622
 20
4.588582677165354
 30
0.0
 11
1.320866141732283
 21
4.877952755905512
 31
0.0
  0
LINE
  5
28E9
330
1E
100
AcDbEntity
  8
3
100
AcDbLine
 10
-1.597440944881889
 20
4.051181102362204
 30
0.0
 11
-1.597440944881889
 21
4.233267716535433
 31
0.0
  0
LINE
  5
28EA
330
1E
100
AcDbEntity
  8
3
100
AcDbLine
 10
-1.597440944881889
 20
4.051181102362204
 30
0.0
 11
-1.597440944881889
 21
4.233267716535433
 31
0.0
  0
LINE
  5
28EB
330
1E
100
AcDbEntity
  8
3
100
AcDbLine
 10
-1.503937007874015
 20
4.051181102362204
 30
0.0
 11
-1.503937007874015
 21
4.233267716535433
 31
0.0
  0
LINE
  5
28F1
330
1E
100
AcDbEntity
  8
3
100
AcDbLine
 10
-1.557086614173228
 20
3.90255905511811
 30
0.0
 11
-1.631889763779527
 21
4.03248031496063
 31
0.0
  0
LINE
  5
28F7
330
1E
100
AcDbEntity
  8
3
100
AcDbLine
 10
-1.503937007874015
 20
4.051181102362204
 30
0.0
 11
-1.535433070866141
 21
3.90255905511811
 31
0.0
  0
LINE
  5
28F8
330
1E
100
AcDbEntity
  8
3
100
AcDbLine
 10
-1.597440944881889
 20
4.233267716535433
 30
0.0
 11
-1.572834645669291
 21
4.233267716535433
 31
0.0
  0
LINE
  5
28F9
330
1E
100
AcDbEntity
  8
3
100
AcDbLine
 10
-1.597440944881889
 20
4.233267716535433
 30
0.0
 11
-1.503937007874015
 21
4.233267716535433
 31
0.0
  0
LINE
  5
28FA
330
1E
100
AcDbEntity
  8
3
100
AcDbLine
 10
-1.597440944881889
 20
4.051181102362204
 30
0.0
 11
-1.631889763779527
 21
4.051181102362204
 31
0.0
  0
LINE
  5
28FB
330
1E
100
AcDbEntity
  8
3
100
AcDbLine
 10
-1.597440944881889
 20
4.051181102362204
 30
0.0
 11
-1.631889763779527
 21
4.051181102362204
 31
0.0
  0
LINE
  5
2902
330
1E
100
AcDbEntity
  8
3
100
AcDbLine
 10
-0.2027559055118107
 20
4.535433070866141
 30
0.0
 11
-0.1732283464566926
 21
4.535433070866141
 31
0.0
  0
LINE
  5
2903
330
1E
100
AcDbEntity
  8
3
100
AcDbLine
 10
-1.597440944881889
 20
4.792322834645669
 30
0.0
 11
-1.597440944881889
 21
4.291338582677165
 31
0.0
  0
LINE
  5
2904
330
1E
100
AcDbEntity
  8
3
100
AcDbLine
 10
-0.0639763779527556
 20
4.759842519685039
 30
0.0
 11
-0.0639763779527556
 21
4.58759842519685
 31
0.0
  0
LINE
  5
2905
330
1E
100
AcDbEntity
  8
3
100
AcDbLine
 10
-0.7903543307086613
 20
4.546259842519685
 30
0.0
 11
-0.7903543307086613
 21
4.885826771653543
 31
0.0
  0
LINE
  5
2906
330
1E
100
AcDbEntity
  8
3
100
AcDbLine
 10
-0.7903543307086613
 20
4.546259842519685
 30
0.0
 11
-0.7903543307086613
 21
4.885826771653543
 31
0.0
  0
LINE
  5
2907
330
1E
100
AcDbEntity
  8
3
100
AcDbLine
 10
-0.811023622047244
 20
4.872047244094487
 30
0.0
 11
-0.811023622047244
 21
4.532480314960629
 31
0.0
  0
LINE
  5
2908
330
1E
100
AcDbEntity
  8
3
100
AcDbLine
 10
-0.7903543307086613
 20
4.888779527559055
 30
0.0
 11
-0.0708661417322834
 21
4.888779527559055
 31
0.0
  0
LINE
  5
2909
330
1E
100
AcDbEntity
  8
3
100
AcDbLine
 10
-0.9035433070866139
 20
4.494094488188976
 30
0.0
 11
-0.9035433070866139
 21
4.423228346456693
 31
0.0
  0
LINE
  5
290A
330
1E
100
AcDbEntity
  8
3
100
AcDbLine
 10
-0.1417322834645667
 20
4.758858267716535
 30
0.0
 11
-0.140748031496063
 21
4.769685039370078
 31
0.0
  0
LINE
  5
290B
330
1E
100
AcDbEntity
  8
3
100
AcDbLine
 10
-0.1594488188976375
 20
4.768700787401574
 30
0.0
 11
-0.1594488188976375
 21
4.757874015748031
 31
0.0
  0
LINE
  5
290C
330
1E
100
AcDbEntity
  8
3
100
AcDbLine
 10
-0.0708661417322834
 20
4.769685039370078
 30
0.0
 11
-0.1230314960629921
 21
4.769685039370078
 31
0.0
  0
LINE
  5
290D
330
1E
100
AcDbEntity
  8
3
100
AcDbLine
 10
-0.1289370078740157
 20
4.77263779527559
 30
0.0
 11
-0.1289370078740157
 21
4.779527559055118
 31
0.0
  0
LINE
  5
290E
330
1E
100
AcDbEntity
  8
3
100
AcDbLine
 10
-0.1289370078740157
 20
4.778543307086613
 30
0.0
 11
-0.1279527559055116
 21
4.778543307086613
 31
0.0
  0
LINE
  5
290F
330
1E
100
AcDbEntity
  8
3
100
AcDbLine
 10
-0.0708661417322834
 20
4.77263779527559
 30
0.0
 11
-0.0708661417322834
 21
4.779527559055118
 31
0.0
  0
LINE
  5
2910
330
1E
100
AcDbEntity
  8
3
100
AcDbLine
 10
-0.1230314960629921
 20
4.77263779527559
 30
0.0
 11
-0.1230314960629921
 21
4.779527559055118
 31
0.0
  0
LINE
  5
2911
330
1E
100
AcDbEntity
  8
3
100
AcDbLine
 10
-0.1279527559055116
 20
4.77755905511811
 30
0.0
 11
-0.1289370078740157
 21
4.77755905511811
 31
0.0
  0
LINE
  5
2912
330
1E
100
AcDbEntity
  8
3
100
AcDbLine
 10
-0.1289370078740157
 20
4.77755905511811
 30
0.0
 11
-0.1279527559055116
 21
4.77755905511811
 31
0.0
  0
LINE
  5
2913
330
1E
100
AcDbEntity
  8
3
100
AcDbLine
 10
-0.1594488188976375
 20
4.767716535433071
 30
0.0
 11
-0.1594488188976375
 21
4.537401574803149
 31
0.0
  0
LINE
  5
2914
330
1E
100
AcDbEntity
  8
3
100
AcDbLine
 10
-0.140748031496063
 20
4.769685039370078
 30
0.0
 11
-0.140748031496063
 21
4.577755905511811
 31
0.0
  0
LINE
  5
2915
330
1E
100
AcDbEntity
  8
3
100
AcDbLine
 10
-0.1279527559055116
 20
4.77755905511811
 30
0.0
 11
-0.1279527559055116
 21
4.58759842519685
 31
0.0
  0
LINE
  5
2916
330
1E
100
AcDbEntity
  8
3
100
AcDbLine
 10
-0.140748031496063
 20
4.421259842519685
 30
0.0
 11
-0.140748031496063
 21
4.577755905511811
 31
0.0
  0
LINE
  5
2917
330
1E
100
AcDbEntity
  8
3
100
AcDbLine
 10
-0.0344488188976375
 20
4.774606299212598
 30
0.0
 11
-0.0344488188976375
 21
4.291338582677165
 31
0.0
  0
LINE
  5
2918
330
1E
100
AcDbEntity
  8
3
100
AcDbLine
 10
-0.1279527559055116
 20
6.869094488188976
 30
0.0
 11
-1.503937007874015
 21
6.869094488188976
 31
0.0
  0
LINE
  5
291E
330
1E
100
AcDbEntity
  8
3
100
AcDbLine
 10
-1.429133858267716
 20
5.740157480314961
 30
0.0
 11
-1.458661417322834
 21
5.740157480314961
 31
0.0
  0
LINE
  5
291F
330
1E
100
AcDbEntity
  8
3
100
AcDbLine
 10
-0.9537401574803148
 20
5.740157480314961
 30
0.0
 11
-0.9035433070866139
 21
5.740157480314961
 31
0.0
  0
LINE
  5
2920
330
1E
100
AcDbEntity
  8
3
100
AcDbLine
 10
-0.9537401574803148
 20
5.753937007874015
 30
0.0
 11
-0.9035433070866139
 21
5.753937007874015
 31
0.0
  0
LINE
  5
2926
330
1E
100
AcDbEntity
  8
3
100
AcDbLine
 10
-1.56003937007874
 20
6.021653543307087
 30
0.0
 11
-1.508858267716535
 21
6.021653543307087
 31
0.0
  0
LINE
  5
2927
330
1E
100
AcDbEntity
  8
3
100
AcDbLine
 10
-1.458661417322834
 20
5.986220472440945
 30
0.0
 11
-1.458661417322834
 21
5.753937007874015
 31
0.0
  0
LINE
  5
2928
330
1E
100
AcDbEntity
  8
3
100
AcDbLine
 10
-0.8208661417322833
 20
6.113188976377952
 30
0.0
 11
-0.8208661417322833
 21
5.774606299212598
 31
0.0
  0
LINE
  5
2929
330
1E
100
AcDbEntity
  8
3
100
AcDbLine
 10
-0.8208661417322833
 20
5.781496062992125
 30
0.0
 11
-0.8208661417322833
 21
5.774606299212598
 31
0.0
  0
LINE
  5
292A
330
1E
100
AcDbEntity
  8
3
100
AcDbLine
 10
-0.6781496062992125
 20
5.740157480314961
 30
0.0
 11
-0.7283464566929135
 21
5.740157480314961
 31
0.0
  0
LINE
  5
292B
330
1E
100
AcDbEntity
  8
3
100
AcDbLine
 10
-0.6781496062992125
 20
5.753937007874015
 30
0.0
 11
-0.6781496062992125
 21
5.706692913385826
 31
0.0
  0
LINE
  5
292C
330
1E
100
AcDbEntity
  8
3
100
AcDbLine
 10
-0.6781496062992125
 20
5.753937007874015
 30
0.0
 11
-0.7283464566929135
 21
5.753937007874015
 31
0.0
  0
LINE
  5
292D
330
1E
100
AcDbEntity
  8
3
100
AcDbLine
 10
-0.1732283464566926
 20
5.986220472440945
 30
0.0
 11
-0.1732283464566926
 21
5.695866141732283
 31
0.0
  0
LINE
  5
292E
330
1E
100
AcDbEntity
  8
3
100
AcDbLine
 10
-0.0718503937007871
 20
6.021653543307087
 30
0.0
 11
-0.1230314960629921
 21
6.021653543307087
 31
0.0
  0
LINE
  5
2930
330
1E
100
AcDbEntity
  8
3
100
AcDbLine
 10
-0.1230314960629921
 20
6.021653543307087
 30
0.0
 11
-0.0718503937007871
 21
6.021653543307087
 31
0.0
  0
LINE
  5
2931
330
1E
100
AcDbEntity
  8
3
100
AcDbLine
 10
-0.811023622047244
 20
5.781496062992125
 30
0.0
 11
-0.811023622047244
 21
5.774606299212598
 31
0.0
  0
LINE
  5
2932
330
1E
100
AcDbEntity
  8
3
100
AcDbLine
 10
-0.0718503937007871
 20
6.134842519685039
 30
0.0
 11
-0.0718503937007871
 21
6.127952755905512
 31
0.0
  0
LINE
  5
2934
330
1E
100
AcDbEntity
  8
3
100
AcDbLine
 10
-1.581692913385826
 20
5.739173228346456
 30
0.0
 11
-1.502952755905511
 21
5.739173228346456
 31
0.0
  0
LINE
  5
2935
330
1E
100
AcDbEntity
  8
3
100
AcDbLine
 10
-1.581692913385826
 20
5.670275590551181
 30
0.0
 11
-1.503937007874015
 21
5.670275590551181
 31
0.0
  0
LINE
  5
2936
330
1E
100
AcDbEntity
  8
3
100
AcDbLine
 10
-1.502952755905511
 20
5.739173228346456
 30
0.0
 11
-1.500984251968503
 21
5.797244094488188
 31
0.0
  0
LINE
  5
2937
330
1E
100
AcDbEntity
  8
3
100
AcDbLine
 10
-1.491141732283464
 20
5.801181102362204
 30
0.0
 11
-1.493110236220472
 21
5.738188976377952
 31
0.0
  0
LINE
  5
2938
330
1E
100
AcDbEntity
  8
3
100
AcDbLine
 10
-1.491141732283464
 20
5.993110236220472
 30
0.0
 11
-1.491141732283464
 21
5.801181102362204
 31
0.0
  0
LINE
  5
2939
330
1E
100
AcDbEntity
  8
3
100
AcDbLine
 10
-1.500984251968503
 20
5.797244094488188
 30
0.0
 11
-1.500984251968503
 21
5.986220472440945
 31
0.0
  0
LINE
  5
293A
330
1E
100
AcDbEntity
  8
3
100
AcDbLine
 10
-1.503937007874015
 20
6.000984251968503
 30
0.0
 11
-1.502952755905511
 21
6.000984251968503
 31
0.0
  0
LINE
  5
293B
330
1E
100
AcDbEntity
  8
3
100
AcDbLine
 10
-1.502952755905511
 20
5.987204724409449
 30
0.0
 11
-1.503937007874015
 21
5.987204724409449
 31
0.0
  0
LINE
  5
293C
330
1E
100
AcDbEntity
  8
3
100
AcDbLine
 10
-1.500984251968503
 20
5.797244094488188
 30
0.0
 11
-1.503937007874015
 21
5.797244094488188
 31
0.0
  0
LINE
  5
293D
330
1E
100
AcDbEntity
  8
3
100
AcDbLine
 10
-1.503937007874015
 20
5.987204724409449
 30
0.0
 11
-1.503937007874015
 21
5.797244094488188
 31
0.0
  0
LINE
  5
293E
330
1E
100
AcDbEntity
  8
3
100
AcDbLine
 10
-1.503937007874015
 20
6.174212598425197
 30
0.0
 11
-1.503937007874015
 21
6.125984251968503
 31
0.0
  0
LINE
  5
293F
330
1E
100
AcDbEntity
  8
3
100
AcDbLine
 10
-1.49015748031496
 20
5.695866141732283
 30
0.0
 11
-0.9035433070866139
 21
5.695866141732283
 31
0.0
  0
LINE
  5
2940
330
1E
100
AcDbEntity
  8
3
100
AcDbLine
 10
-1.020669291338582
 20
5.541338582677165
 30
0.0
 11
-1.246062992125984
 21
5.541338582677165
 31
0.0
  0
LINE
  5
2941
330
1E
100
AcDbEntity
  8
3
100
AcDbLine
 10
-1.019685039370078
 20
5.541338582677165
 30
0.0
 11
-1.024606299212598
 21
5.62007874015748
 31
0.0
  0
LINE
  5
2942
330
1E
100
AcDbEntity
  8
3
100
AcDbLine
 10
-1.236220472440944
 20
5.662401574803149
 30
0.0
 11
-1.117125984251968
 21
5.662401574803149
 31
0.0
  0
LINE
  5
2943
330
1E
100
AcDbEntity
  8
3
100
AcDbLine
 10
-1.242125984251968
 20
5.62007874015748
 30
0.0
 11
-1.024606299212598
 21
5.62007874015748
 31
0.0
  0
LINE
  5
2944
330
1E
100
AcDbEntity
  8
3
100
AcDbLine
 10
-1.247047244094487
 20
5.541338582677165
 30
0.0
 11
-1.242125984251968
 21
5.62007874015748
 31
0.0
  0
LINE
  5
294A
330
1E
100
AcDbEntity
  8
3
100
AcDbLine
 10
-1.494094488188976
 20
5.676181102362204
 30
0.0
 11
-1.494094488188976
 21
5.533464566929134
 31
0.0
  0
LINE
  5
294B
330
1E
100
AcDbEntity
  8
3
100
AcDbLine
 10
-1.49015748031496
 20
5.671259842519685
 30
0.0
 11
-1.49015748031496
 21
5.682086614173228
 31
0.0
  0
LINE
  5
294C
330
1E
100
AcDbEntity
  8
3
100
AcDbLine
 10
-1.597440944881889
 20
5.533464566929134
 30
0.0
 11
-0.0344488188976375
 21
5.533464566929134
 31
0.0
  0
LINE
  5
294D
330
1E
100
AcDbEntity
  8
3
100
AcDbLine
 10
-0.0501968503937005
 20
5.533464566929134
 30
0.0
 11
-0.1269685039370079
 21
5.533464566929134
 31
0.0
  0
LINE
  5
294E
330
1E
100
AcDbEntity
  8
3
100
AcDbLine
 10
-1.493110236220472
 20
5.533464566929134
 30
0.0
 11
-0.1387795275590551
 21
5.533464566929134
 31
0.0
  0
LINE
  5
294F
330
1E
100
AcDbEntity
  8
3
100
AcDbLine
 10
-0.6122047244094487
 20
5.541338582677165
 30
0.0
 11
-0.6072834645669292
 21
5.62007874015748
 31
0.0
  0
LINE
  5
2950
330
1E
100
AcDbEntity
  8
3
100
AcDbLine
 10
-0.3897637795275588
 20
5.62007874015748
 30
0.0
 11
-0.6072834645669292
 21
5.62007874015748
 31
0.0
  0
LINE
  5
2951
330
1E
100
AcDbEntity
  8
3
100
AcDbLine
 10
-0.3848425196850394
 20
5.541338582677165
 30
0.0
 11
-0.3897637795275588
 21
5.62007874015748
 31
0.0
  0
LINE
  5
2957
330
1E
100
AcDbEntity
  8
3
100
AcDbLine
 10
-1.49015748031496
 20
5.661417322834645
 30
0.0
 11
-0.1338582677165352
 21
5.661417322834645
 31
0.0
  0
LINE
  5
2958
330
1E
100
AcDbEntity
  8
3
100
AcDbLine
 10
-0.9035433070866139
 20
5.693897637795275
 30
0.0
 11
-0.7283464566929135
 21
5.693897637795275
 31
0.0
  0
LINE
  5
2959
330
1E
100
AcDbEntity
  8
3
100
AcDbLine
 10
-1.49015748031496
 20
5.661417322834645
 30
0.0
 11
-1.49015748031496
 21
5.671259842519685
 31
0.0
  0
LINE
  5
295A
330
1E
100
AcDbEntity
  8
3
100
AcDbLine
 10
-1.597440944881889
 20
6.028543307086613
 30
0.0
 11
-1.597440944881889
 21
5.913385826771653
 31
0.0
  0
LINE
  5
295B
330
1E
100
AcDbEntity
  8
3
100
AcDbLine
 10
-0.0344488188976375
 20
6.240157480314961
 30
0.0
 11
-0.0344488188976375
 21
6.869094488188976
 31
0.0
  0
LINE
  5
295C
330
1E
100
AcDbEntity
  8
3
100
AcDbLine
 10
-0.0344488188976375
 20
5.913385826771653
 30
0.0
 11
-0.0344488188976375
 21
6.026574803149606
 31
0.0
  0
LINE
  5
295D
330
1E
100
AcDbEntity
  8
3
100
AcDbLine
 10
-0.0344488188976375
 20
5.739173228346456
 30
0.0
 11
-0.0344488188976375
 21
5.913385826771653
 31
0.0
  0
LINE
  5
295E
330
1E
100
AcDbEntity
  8
3
100
AcDbLine
 10
-0.0344488188976375
 20
5.533464566929134
 30
0.0
 11
-0.0344488188976375
 21
5.681102362204724
 31
0.0
  0
LINE
  5
295F
330
1E
100
AcDbEntity
  8
3
100
AcDbLine
 10
-0.0344488188976375
 20
5.533464566929134
 30
0.0
 11
-0.0344488188976375
 21
5.671259842519685
 31
0.0
  0
LINE
  5
2960
330
1E
100
AcDbEntity
  8
3
100
AcDbLine
 10
-0.0344488188976375
 20
5.695866141732283
 30
0.0
 11
-0.0344488188976375
 21
5.690944881889763
 31
0.0
  0
LINE
  5
2961
330
1E
100
AcDbEntity
  8
3
100
AcDbLine
 10
-0.0344488188976375
 20
5.706692913385826
 30
0.0
 11
-0.0344488188976375
 21
5.888779527559055
 31
0.0
  0
LINE
  5
2962
330
1E
100
AcDbEntity
  8
3
100
AcDbLine
 10
-0.0344488188976375
 20
5.945866141732283
 30
0.0
 11
-0.0344488188976375
 21
5.898622047244094
 31
0.0
  0
LINE
  5
2963
330
1E
100
AcDbEntity
  8
3
100
AcDbLine
 10
-0.0344488188976375
 20
6.028543307086613
 30
0.0
 11
-0.0344488188976375
 21
5.960629921259842
 31
0.0
  0
LINE
  5
2964
330
1E
100
AcDbEntity
  8
3
100
AcDbLine
 10
-0.0344488188976375
 20
6.869094488188976
 30
0.0
 11
-0.0344488188976375
 21
6.363188976377952
 31
0.0
  0
LINE
  5
2965
330
1E
100
AcDbEntity
  8
3
100
AcDbLine
 10
0.0
 20
6.363188976377952
 30
0.0
 11
0.0
 21
6.08759842519685
 31
0.0
  0
LINE
  5
2966
330
1E
100
AcDbEntity
  8
3
100
AcDbLine
 10
0.0
 20
6.038385826771653
 30
0.0
 11
0.0
 21
6.363188976377952
 31
0.0
  0
LINE
  5
296C
330
1E
100
AcDbEntity
  8
3
100
AcDbLine
 10
-0.0501968503937005
 20
5.739173228346456
 30
0.0
 11
-0.1289370078740157
 21
5.739173228346456
 31
0.0
  0
LINE
  5
296D
330
1E
100
AcDbEntity
  8
3
100
AcDbLine
 10
-0.1309055118110236
 20
5.797244094488188
 30
0.0
 11
-0.1279527559055116
 21
5.797244094488188
 31
0.0
  0
LINE
  5
296E
330
1E
100
AcDbEntity
  8
3
100
AcDbLine
 10
-0.0501968503937005
 20
5.856299212598425
 30
0.0
 11
-0.0501968503937005
 21
5.739173228346456
 31
0.0
  0
LINE
  5
296F
330
1E
100
AcDbEntity
  8
3
100
AcDbLine
 10
-0.1417322834645667
 20
5.695866141732283
 30
0.0
 11
-0.7283464566929135
 21
5.695866141732283
 31
0.0
  0
LINE
  5
2970
330
1E
100
AcDbEntity
  8
3
100
AcDbLine
 10
-0.6102362204724408
 20
5.541338582677165
 30
0.0
 11
-0.3858267716535431
 21
5.541338582677165
 31
0.0
  0
LINE
  5
2971
330
1E
100
AcDbEntity
  8
3
100
AcDbLine
 10
-0.4822834645669292
 20
5.662401574803149
 30
0.0
 11
-0.6013779527559056
 21
5.662401574803149
 31
0.0
  0
LINE
  5
2972
330
1E
100
AcDbEntity
  8
3
100
AcDbLine
 10
-0.0501968503937005
 20
5.670275590551181
 30
0.0
 11
-0.0501968503937005
 21
5.533464566929134
 31
0.0
  0
LINE
  5
2973
330
1E
100
AcDbEntity
  8
3
100
AcDbLine
 10
-0.9035433070866139
 20
5.706692913385826
 30
0.0
 11
-0.7283464566929135
 21
5.706692913385826
 31
0.0
  0
LINE
  5
2974
330
1E
100
AcDbEntity
  8
3
100
AcDbLine
 10
-1.458661417322834
 20
5.714566929133858
 30
0.0
 11
-1.429133858267716
 21
5.714566929133858
 31
0.0
  0
LINE
  5
2975
330
1E
100
AcDbEntity
  8
3
100
AcDbLine
 10
-0.9537401574803148
 20
5.714566929133858
 30
0.0
 11
-0.9035433070866139
 21
5.714566929133858
 31
0.0
  0
LINE
  5
2976
330
1E
100
AcDbEntity
  8
3
100
AcDbLine
 10
-1.429133858267716
 20
5.710629921259842
 30
0.0
 11
-0.9537401574803148
 21
5.710629921259842
 31
0.0
  0
LINE
  5
2977
330
1E
100
AcDbEntity
  8
3
100
AcDbLine
 10
-1.472440944881889
 20
5.990157480314961
 30
0.0
 11
-1.472440944881889
 21
5.978346456692913
 31
0.0
  0
LINE
  5
2978
330
1E
100
AcDbEntity
  8
3
100
AcDbLine
 10
-1.472440944881889
 20
5.989173228346456
 30
0.0
 11
-1.472440944881889
 21
5.757874015748031
 31
0.0
  0
LINE
  5
2979
330
1E
100
AcDbEntity
  8
3
100
AcDbLine
 10
-0.7283464566929135
 20
5.714566929133858
 30
0.0
 11
-0.6781496062992125
 21
5.714566929133858
 31
0.0
  0
LINE
  5
297A
330
1E
100
AcDbEntity
  8
3
100
AcDbLine
 10
-0.6781496062992125
 20
5.711614173228346
 30
0.0
 11
-0.2027559055118107
 21
5.711614173228346
 31
0.0
  0
LINE
  5
297B
330
1E
100
AcDbEntity
  8
3
100
AcDbLine
 10
-0.1279527559055116
 20
6.290354330708661
 30
0.0
 11
-1.503937007874015
 21
6.29035433070866
 31
0.0
  0
LINE
  5
297C
330
1E
100
AcDbEntity
  8
3
100
AcDbLine
 10
-1.502952755905511
 20
6.0
 30
0.0
 11
-1.503937007874015
 21
6.0
 31
0.0
  0
LINE
  5
297D
330
1E
100
AcDbEntity
  8
3
100
AcDbLine
 10
-1.567913385826771
 20
6.191929133858267
 30
0.0
 11
-1.567913385826771
 21
6.143700787401574
 31
0.0
  0
LINE
  5
297E
330
1E
100
AcDbEntity
  8
3
100
AcDbLine
 10
-1.567913385826771
 20
6.005905511811024
 30
0.0
 11
-1.567913385826771
 21
5.84251968503937
 31
0.0
  0
LINE
  5
297F
330
1E
100
AcDbEntity
  8
3
100
AcDbLine
 10
-0.1102362204724407
 20
6.869094488188976
 30
0.0
 11
-0.1102362204724407
 21
6.303149606299212
 31
0.0
  0
LINE
  5
2980
330
1E
100
AcDbEntity
  8
3
100
AcDbLine
 10
-0.1358267716535431
 20
5.798228346456693
 30
0.0
 11
-0.1338582677165352
 21
5.738188976377952
 31
0.0
  0
LINE
  5
2981
330
1E
100
AcDbEntity
  8
3
100
AcDbLine
 10
-0.1338582677165352
 20
5.671259842519685
 30
0.0
 11
-0.1338582677165352
 21
5.533464566929134
 31
0.0
  0
LINE
  5
2982
330
1E
100
AcDbEntity
  8
3
100
AcDbLine
 10
-0.7283464566929135
 20
5.76279527559055
 30
0.0
 11
-0.9035433070866139
 21
5.76279527559055
 31
0.0
  0
LINE
  5
2983
330
1E
100
AcDbEntity
  8
3
100
AcDbLine
 10
-0.0501968503937005
 20
5.670275590551181
 30
0.0
 11
-0.1269685039370079
 21
5.670275590551181
 31
0.0
  0
LINE
  5
2984
330
1E
100
AcDbEntity
  8
3
100
AcDbLine
 10
-1.576771653543306
 20
6.125984251968503
 30
0.0
 11
-0.1279527559055116
 21
6.125984251968503
 31
0.0
  0
LINE
  5
2985
330
1E
100
AcDbEntity
  8
3
100
AcDbLine
 10
-0.1279527559055116
 20
6.174212598425197
 30
0.0
 11
-0.1279527559055116
 21
6.125984251968503
 31
0.0
  0
LINE
  5
2986
330
1E
100
AcDbEntity
  8
3
100
AcDbLine
 10
-0.042322834645669
 20
6.124015748031496
 30
0.0
 11
-0.042322834645669
 21
6.164370078740157
 31
0.0
  0
LINE
  5
298C
330
1E
100
AcDbEntity
  8
3
100
AcDbLine
 10
-1.56003937007874
 20
6.134842519685039
 30
0.0
 11
-1.56003937007874
 21
6.127952755905512
 31
0.0
  0
LINE
  5
298D
330
1E
100
AcDbEntity
  8
3
100
AcDbLine
 10
-1.597440944881889
 20
6.240157480314961
 30
0.0
 11
-1.597440944881889
 21
6.869094488188976
 31
0.0
  0
LINE
  5
298E
330
1E
100
AcDbEntity
  8
3
100
AcDbLine
 10
-1.597440944881889
 20
6.869094488188976
 30
0.0
 11
-1.597440944881889
 21
6.363188976377952
 31
0.0
  0
LINE
  5
2994
330
1E
100
AcDbEntity
  8
3
100
AcDbLine
 10
-1.521653543307086
 20
6.869094488188976
 30
0.0
 11
-1.521653543307086
 21
6.303149606299212
 31
0.0
  0
LINE
  5
2995
330
1E
100
AcDbEntity
  8
3
100
AcDbLine
 10
-1.503937007874015
 20
6.174212598425197
 30
0.0
 11
-1.503937007874015
 21
6.125984251968503
 31
0.0
  0
LINE
  5
2996
330
1E
100
AcDbEntity
  8
3
100
AcDbLine
 10
-1.631889763779527
 20
6.363188976377952
 30
0.0
 11
-1.631889763779527
 21
6.038385826771653
 31
0.0
  0
LINE
  5
2997
330
1E
100
AcDbEntity
  8
3
100
AcDbLine
 10
-1.581692913385826
 20
5.533464566929134
 30
0.0
 11
-1.503937007874015
 21
5.533464566929134
 31
0.0
  0
LINE
  5
2998
330
1E
100
AcDbEntity
  8
3
100
AcDbLine
 10
-1.597440944881889
 20
5.739173228346456
 30
0.0
 11
-1.597440944881889
 21
5.913385826771653
 31
0.0
  0
LINE
  5
2999
330
1E
100
AcDbEntity
  8
3
100
AcDbLine
 10
-1.597440944881889
 20
5.533464566929134
 30
0.0
 11
-1.597440944881889
 21
5.681102362204724
 31
0.0
  0
LINE
  5
299A
330
1E
100
AcDbEntity
  8
3
100
AcDbLine
 10
-1.597440944881889
 20
5.533464566929134
 30
0.0
 11
-1.597440944881889
 21
5.671259842519685
 31
0.0
  0
LINE
  5
299B
330
1E
100
AcDbEntity
  8
3
100
AcDbLine
 10
-1.597440944881889
 20
5.695866141732283
 30
0.0
 11
-1.597440944881889
 21
5.690944881889763
 31
0.0
  0
LINE
  5
299C
330
1E
100
AcDbEntity
  8
3
100
AcDbLine
 10
-1.597440944881889
 20
5.706692913385826
 30
0.0
 11
-1.597440944881889
 21
5.888779527559055
 31
0.0
  0
LINE
  5
299D
330
1E
100
AcDbEntity
  8
3
100
AcDbLine
 10
-1.581692913385826
 20
5.739173228346456
 30
0.0
 11
-1.502952755905511
 21
5.739173228346456
 31
0.0
  0
LINE
  5
299E
330
1E
100
AcDbEntity
  8
3
100
AcDbLine
 10
-1.500984251968503
 20
5.797244094488188
 30
0.0
 11
-1.503937007874015
 21
5.797244094488188
 31
0.0
  0
LINE
  5
299F
330
1E
100
AcDbEntity
  8
3
100
AcDbLine
 10
-1.581692913385826
 20
5.856299212598425
 30
0.0
 11
-1.581692913385826
 21
5.739173228346456
 31
0.0
  0
LINE
  5
29A0
330
1E
100
AcDbEntity
  8
3
100
AcDbLine
 10
-1.581692913385826
 20
5.670275590551181
 30
0.0
 11
-1.581692913385826
 21
5.533464566929134
 31
0.0
  0
LINE
  5
29A1
330
1E
100
AcDbEntity
  8
3
100
AcDbLine
 10
-1.581692913385826
 20
5.670275590551181
 30
0.0
 11
-1.503937007874015
 21
5.670275590551181
 31
0.0
  0
LINE
  5
29A2
330
1E
100
AcDbEntity
  8
3
100
AcDbLine
 10
-0.140748031496063
 20
6.015748031496062
 30
0.0
 11
-0.140748031496063
 21
5.801181102362204
 31
0.0
  0
LINE
  5
29A3
330
1E
100
AcDbEntity
  8
3
100
AcDbLine
 10
-0.1309055118110236
 20
5.797244094488188
 30
0.0
 11
-0.1309055118110236
 21
5.986220472440945
 31
0.0
  0
LINE
  5
29A4
330
1E
100
AcDbEntity
  8
3
100
AcDbLine
 10
-0.1279527559055116
 20
6.000984251968503
 30
0.0
 11
-0.1289370078740157
 21
6.000984251968503
 31
0.0
  0
LINE
  5
29A5
330
1E
100
AcDbEntity
  8
3
100
AcDbLine
 10
-0.1289370078740157
 20
5.987204724409449
 30
0.0
 11
-0.1279527559055116
 21
5.987204724409449
 31
0.0
  0
LINE
  5
29A6
330
1E
100
AcDbEntity
  8
3
100
AcDbLine
 10
-0.1309055118110236
 20
5.797244094488188
 30
0.0
 11
-0.1279527559055116
 21
5.797244094488188
 31
0.0
  0
LINE
  5
29A7
330
1E
100
AcDbEntity
  8
3
100
AcDbLine
 10
-0.1279527559055116
 20
5.987204724409449
 30
0.0
 11
-0.1279527559055116
 21
5.797244094488188
 31
0.0
  0
LINE
  5
29A8
330
1E
100
AcDbEntity
  8
3
100
AcDbLine
 10
-0.1289370078740157
 20
6.0
 30
0.0
 11
-0.1279527559055116
 21
6.0
 31
0.0
  0
LINE
  5
29A9
330
1E
100
AcDbEntity
  8
3
100
AcDbLine
 10
-0.0639763779527556
 20
6.005905511811024
 30
0.0
 11
-0.0639763779527556
 21
5.84251968503937
 31
0.0
  0
LINE
  5
29AA
330
1E
100
AcDbEntity
  8
3
100
AcDbLine
 10
-0.1309055118110236
 20
5.797244094488188
 30
0.0
 11
-0.1279527559055116
 21
5.797244094488188
 31
0.0
  0
LINE
  5
29AB
330
1E
100
AcDbEntity
  8
3
100
AcDbLine
 10
-0.7913385826771653
 20
5.76279527559055
 30
0.0
 11
-0.7913385826771653
 21
6.099409448818898
 31
0.0
  0
LINE
  5
29AC
330
1E
100
AcDbEntity
  8
3
100
AcDbLine
 10
-0.811023622047244
 20
6.113188976377952
 30
0.0
 11
-0.811023622047244
 21
5.774606299212598
 31
0.0
  0
LINE
  5
29AD
330
1E
100
AcDbEntity
  8
3
100
AcDbLine
 10
-0.0344488188976375
 20
6.240157480314961
 30
0.0
 11
-0.0344488188976375
 21
6.121062992125984
 31
0.0
  0
LINE
  5
29B3
330
1E
100
AcDbEntity
  8
3
100
AcDbLine
 10
-0.2027559055118107
 20
5.740157480314961
 30
0.0
 11
-0.1732283464566926
 21
5.740157480314961
 31
0.0
  0
LINE
  5
29B4
330
1E
100
AcDbEntity
  8
3
100
AcDbLine
 10
-0.1732283464566926
 20
5.714566929133858
 30
0.0
 11
-0.2027559055118107
 21
5.714566929133858
 31
0.0
  0
LINE
  5
29B5
330
1E
100
AcDbEntity
  8
3
100
AcDbLine
 10
-0.1594488188976375
 20
5.990157480314961
 30
0.0
 11
-0.1594488188976375
 21
5.978346456692913
 31
0.0
  0
LINE
  5
29B6
330
1E
100
AcDbEntity
  8
3
100
AcDbLine
 10
-0.1594488188976375
 20
5.989173228346456
 30
0.0
 11
-0.1594488188976375
 21
5.757874015748031
 31
0.0
  0
LINE
  5
29B7
330
1E
100
AcDbEntity
  8
3
100
AcDbLine
 10
-1.61515748031496
 20
6.038385826771653
 30
0.0
 11
-1.631889763779527
 21
6.038385826771653
 31
0.0
  0
LINE
  5
29B8
330
1E
100
AcDbEntity
  8
3
100
AcDbLine
 10
-1.588582677165354
 20
6.119094488188976
 30
0.0
 11
-1.588582677165354
 21
6.160433070866141
 31
0.0
  0
LINE
  5
29B9
330
1E
100
AcDbEntity
  8
3
100
AcDbLine
 10
-0.1377952755905509
 20
5.676181102362204
 30
0.0
 11
-0.1377952755905509
 21
5.533464566929134
 31
0.0
  0
LINE
  5
29BA
330
1E
100
AcDbEntity
  8
3
100
AcDbLine
 10
-0.140748031496063
 20
5.661417322834645
 30
0.0
 11
-0.140748031496063
 21
5.671259842519685
 31
0.0
  0
LINE
  5
29BB
330
1E
100
AcDbEntity
  8
3
100
AcDbLine
 10
-0.1417322834645667
 20
5.695866141732283
 30
0.0
 11
-0.1437007874015745
 21
5.719488188976377
 31
0.0
  0
LINE
  5
29BC
330
1E
100
AcDbEntity
  8
3
100
AcDbLine
 10
-0.0501968503937005
 20
5.670275590551181
 30
0.0
 11
-0.1269685039370079
 21
5.670275590551181
 31
0.0
  0
LINE
  5
29BD
330
1E
100
AcDbEntity
  8
3
100
AcDbLine
 10
-0.0167322834645667
 20
6.038385826771653
 30
0.0
 11
0.0
 21
6.038385826771653
 31
0.0
  0
LINE
  5
29C3
330
1E
100
AcDbEntity
  8
3
100
AcDbLine
 10
-0.3238188976377949
 20
6.869094488188976
 30
0.0
 11
-0.3248031496062991
 21
6.869094488188976
 31
0.0
  0
LINE
  5
2A54
330
1E
100
AcDbEntity
  8
3
100
AcDbLine
 10
-1.503937007874015
 20
6.174212598425197
 30
0.0
 11
-0.1279527559055116
 21
6.174212598425197
 31
0.0
  0
LINE
  5
2A55
330
1E
100
AcDbEntity
  8
3
100
AcDbLine
 10
-0.3011811023622046
 20
6.125984251968503
 30
0.0
 11
-0.1279527559055116
 21
6.125984251968503
 31
0.0
  0
LINE
  5
2A56
330
1E
100
AcDbEntity
  8
3
100
AcDbLine
 10
-0.8671259842519683
 20
6.125984251968503
 30
0.0
 11
-0.7677165354330706
 21
6.125984251968503
 31
0.0
  0
LINE
  5
2A5B
330
1E
100
AcDbEntity
  8
3
100
AcDbLine
 10
-0.7913385826771652
 20
6.099409448818899
 30
0.0
 11
-0.0718503937007871
 21
6.099409448818898
 31
0.0
  0
LINE
  5
2AC9
330
1E
100
AcDbEntity
  8
3
100
AcDbLine
 10
-0.8208661417322833
 20
4.532480314960629
 30
0.0
 11
-0.826771653543307
 21
4.542322834645669
 31
0.0
  0
LINE
  5
2ACA
330
1E
100
AcDbEntity
  8
3
100
AcDbLine
 10
-0.826771653543307
 20
4.542322834645669
 30
0.0
 11
-0.840551181102362
 21
4.546259842519685
 31
0.0
  0
LINE
  5
2ADE
330
1E
100
AcDbEntity
  8
3
100
AcDbLine
 10
-0.6781496062992125
 20
4.465551181102362
 30
0.0
 11
-0.6781496062992125
 21
4.451771653543307
 31
0.0
  0
LINE
  5
2AF2
330
1E
100
AcDbEntity
  8
3
100
AcDbLine
 10
-0.6781496062992125
 20
4.465551181102362
 30
0.0
 11
-0.6781496062992125
 21
4.454724409448819
 31
0.0
  0
LINE
  5
2B2B
330
1E
100
AcDbEntity
  8
3
100
AcDbLine
 10
-0.811023622047244
 20
4.532480314960629
 30
0.0
 11
-0.8051181102362203
 21
4.542322834645669
 31
0.0
  0
LINE
  5
2B2C
330
1E
100
AcDbEntity
  8
3
100
AcDbLine
 10
-0.8051181102362203
 20
4.542322834645669
 30
0.0
 11
-0.7903543307086613
 21
4.546259842519685
 31
0.0
  0
LINE
  5
2B55
330
1E
100
AcDbEntity
  8
3
100
AcDbLine
 10
-0.7283464566929135
 20
4.45767716535433
 30
0.0
 11
-0.7283464566929135
 21
4.469488188976377
 31
0.0
  0
LINE
  5
2B56
330
1E
100
AcDbEntity
  8
3
100
AcDbLine
 10
-0.7283464566929135
 20
4.469488188976377
 30
0.0
 11
-0.7283464566929135
 21
4.483267716535433
 31
0.0
  0
LINE
  5
2B5C
330
1E
100
AcDbEntity
  8
3
100
AcDbLine
 10
-0.0344488188976375
 20
4.23523622047244
 30
0.0
 11
-0.0344488188976375
 21
4.233267716535433
 31
0.0
  0
LINE
  5
2B5D
330
1E
100
AcDbEntity
  8
3
100
AcDbLine
 10
-0.0344488188976375
 20
4.303149606299212
 30
0.0
 11
-0.0344488188976375
 21
4.301181102362204
 31
0.0
  0
LINE
  5
2B63
330
1E
100
AcDbEntity
  8
3
100
AcDbLine
 10
-0.1279527559055116
 20
4.964566929133858
 30
0.0
 11
-0.0925196850393699
 21
4.959645669291338
 31
0.0
  0
LINE
  5
2BD4
330
1E
100
AcDbEntity
  8
3
100
AcDbLine
 10
0.8316929133858268
 20
4.27263779527559
 30
0.0
 11
0.8267716535433073
 21
4.263779527559055
 31
0.0
  0
LINE
  5
2BDF
330
1E
100
AcDbEntity
  8
3
100
AcDbLine
 10
1.116141732283464
 20
4.288385826771653
 30
0.0
 11
1.112204724409449
 21
4.299212598425197
 31
0.0
  0
LINE
  5
2BE0
330
1E
100
AcDbEntity
  8
3
100
AcDbLine
 10
1.112204724409449
 20
4.299212598425197
 30
0.0
 11
1.101377952755905
 21
4.303149606299212
 31
0.0
  0
LINE
  5
2BFD
330
1E
100
AcDbEntity
  8
3
100
AcDbLine
 10
-1.597440944881889
 20
4.23523622047244
 30
0.0
 11
-1.597440944881889
 21
4.233267716535433
 31
0.0
  0
LINE
  5
2C35
330
1E
100
AcDbEntity
  8
3
100
AcDbLine
 10
-0.1279527559055116
 20
4.77755905511811
 30
0.0
 11
-0.1279527559055116
 21
4.780511811023622
 31
0.0
  0
LINE
  5
2C36
330
1E
100
AcDbEntity
  8
3
100
AcDbLine
 10
-0.1279527559055116
 20
4.780511811023622
 30
0.0
 11
-0.1279527559055116
 21
4.77755905511811
 31
0.0
  0
LINE
  5
2C58
330
1E
100
AcDbEntity
  8
3
100
AcDbLine
 10
-1.429133858267716
 20
5.740157480314961
 30
0.0
 11
-1.429133858267716
 21
5.719488188976377
 31
0.0
  0
LINE
  5
2C94
330
1E
100
AcDbEntity
  8
3
100
AcDbLine
 10
-1.508858267716535
 20
6.021653543307087
 30
0.0
 11
-1.484251968503936
 21
6.016732283464566
 31
0.0
  0
LINE
  5
2CA6
330
1E
100
AcDbEntity
  8
3
100
AcDbLine
 10
-0.8208661417322833
 20
5.774606299212598
 30
0.0
 11
-0.8228346456692911
 21
5.767716535433071
 31
0.0
  0
LINE
  5
2CA7
330
1E
100
AcDbEntity
  8
3
100
AcDbLine
 10
-0.8228346456692911
 20
5.767716535433071
 30
0.0
 11
-0.8287401574803148
 21
5.76279527559055
 31
0.0
  0
LINE
  5
2CF5
330
1E
100
AcDbEntity
  8
3
100
AcDbLine
 10
-1.503937007874015
 20
6.281496062992125
 30
0.0
 11
-1.503937007874015
 21
6.304133858267716
 31
0.0
  0
LINE
  5
2D1C
330
1E
100
AcDbEntity
  8
3
100
AcDbLine
 10
-0.9035433070866139
 20
5.770669291338582
 30
0.0
 11
-0.9035433070866139
 21
5.75
 31
0.0
  0
LINE
  5
2D48
330
1E
100
AcDbEntity
  8
3
100
AcDbLine
 10
-0.0984251968503935
 20
6.301181102362204
 30
0.0
 11
-0.1279527559055116
 21
6.304133858267716
 31
0.0
  0
LINE
  5
2D6C
330
1E
100
AcDbEntity
  8
3
100
AcDbLine
 10
-0.0344488188976375
 20
5.681102362204724
 30
0.0
 11
-0.0393700787401574
 21
5.673228346456693
 31
0.0
  0
LINE
  5
2D6D
330
1E
100
AcDbEntity
  8
3
100
AcDbLine
 10
-0.0393700787401574
 20
5.673228346456693
 30
0.0
 11
-0.0501968503937005
 21
5.670275590551181
 31
0.0
  0
LINE
  5
2DAA
330
1E
100
AcDbEntity
  8
3
100
AcDbLine
 10
-1.597440944881889
 20
5.898622047244094
 30
0.0
 11
-1.597440944881889
 21
5.893700787401574
 31
0.0
  0
LINE
  5
2DAB
330
1E
100
AcDbEntity
  8
3
100
AcDbLine
 10
-1.597440944881889
 20
5.893700787401574
 30
0.0
 11
-1.597440944881889
 21
5.888779527559055
 31
0.0
  0
LINE
  5
2DBD
330
1E
100
AcDbEntity
  8
3
100
AcDbLine
 10
-1.597440944881889
 20
5.681102362204724
 30
0.0
 11
-1.592519685039369
 21
5.673228346456693
 31
0.0
  0
LINE
  5
2DBE
330
1E
100
AcDbEntity
  8
3
100
AcDbLine
 10
-1.592519685039369
 20
5.673228346456693
 30
0.0
 11
-1.581692913385826
 21
5.670275590551181
 31
0.0
  0
LINE
  5
2DFD
330
1E
100
AcDbEntity
  8
3
100
AcDbLine
 10
-1.56003937007874
 20
6.021653543307087
 30
0.0
 11
-1.585629921259842
 21
6.024606299212598
 31
0.0
  0
LINE
  5
2E0E
330
1E
100
AcDbEntity
  8
3
100
AcDbLine
 10
-1.503937007874015
 20
4.559055118110236
 30
0.0
 11
-1.503937007874015
 21
4.574803149606299
 31
0.0
  0
LINE
  5
2E1E
330
1E
100
AcDbEntity
  8
3
100
AcDbLine
 10
-1.500984251968503
 20
4.776574803149606
 30
0.0
 11
-1.502952755905511
 21
4.77755905511811
 31
0.0
  0
LINE
  5
2E24
330
1E
100
AcDbEntity
  8
3
100
AcDbLine
 10
-1.528543307086613
 20
4.914370078740157
 30
0.0
 11
-1.503937007874015
 21
4.916338582677165
 31
0.0
  0
LINE
  5
2E53
330
1E
100
AcDbEntity
  8
3
100
AcDbLine
 10
-1.547244094488188
 20
4.769685039370078
 30
0.0
 11
-1.567913385826771
 21
4.759842519685039
 31
0.0
  0
LINE
  5
2E9A
330
1E
100
AcDbEntity
  8
3
100
AcDbLine
 10
0.6889763779527561
 20
4.412401574803149
 30
0.0
 11
0.6889763779527561
 21
4.401574803149606
 31
0.0
  0
LINE
  5
2EAF
330
1E
100
AcDbEntity
  8
3
100
AcDbLine
 10
0.987204724409449
 20
4.588582677165354
 30
0.0
 11
1.011811023622047
 21
4.588582677165354
 31
0.0
  0
LINE
  5
2EBE
330
1E
100
AcDbEntity
  8
3
100
AcDbLine
 10
-0.1309055118110236
 20
4.776574803149606
 30
0.0
 11
-0.1289370078740157
 21
4.77755905511811
 31
0.0
  0
LINE
  5
2EC4
330
1E
100
AcDbEntity
  8
3
100
AcDbLine
 10
-0.0846456692913385
 20
4.769685039370078
 30
0.0
 11
-0.0639763779527556
 21
4.759842519685039
 31
0.0
  0
LINE
  5
2EDB
330
1E
100
AcDbEntity
  8
3
100
AcDbLine
 10
-1.500984251968503
 20
5.986220472440945
 30
0.0
 11
-1.502952755905511
 21
5.987204724409449
 31
0.0
  0
LINE
  5
2F11
330
1E
100
AcDbEntity
  8
3
100
AcDbLine
 10
-0.1387795275590551
 20
5.799212598425197
 30
0.0
 11
-0.1309055118110236
 21
5.797244094488188
 31
0.0
  0
LINE
  5
2F19
330
1E
100
AcDbEntity
  8
3
100
AcDbLine
 10
-0.042322834645669
 20
6.164370078740157
 30
0.0
 11
-0.0570866141732283
 21
6.148622047244094
 31
0.0
  0
LINE
  5
2F51
330
1E
100
AcDbEntity
  8
3
100
AcDbLine
 10
-0.1309055118110236
 20
5.986220472440945
 30
0.0
 11
-0.1289370078740157
 21
5.987204724409449
 31
0.0
  0
LINE
  5
2F52
330
1E
100
AcDbEntity
  8
3
100
AcDbLine
 10
-0.1279527559055116
 20
5.987204724409449
 30
0.0
 11
-0.1043307086614171
 21
5.989173228346456
 31
0.0
  0
LINE
  5
2F58
330
1E
100
AcDbEntity
  8
3
100
AcDbLine
 10
-0.1387795275590551
 20
5.799212598425197
 30
0.0
 11
-0.1309055118110236
 21
5.797244094488188
 31
0.0
  0
LINE
  5
300E
330
1E
100
AcDbEntity
  8
3
100
AcDbLine
 10
-1.472440944881889
 20
4.537401574803149
 30
0.0
 11
-1.467519685039369
 21
4.532480314960629
 31
0.0
  0
LINE
  5
3020
330
1E
100
AcDbEntity
  8
3
100
AcDbLine
 10
-1.598425196850393
 20
4.793307086614173
 30
0.0
 11
-1.575787401574802
 21
4.780511811023622
 31
0.0
  0
LINE
  5
3021
330
1E
100
AcDbEntity
  8
3
100
AcDbLine
 10
-1.575787401574802
 20
4.773622047244094
 30
0.0
 11
-1.56003937007874
 21
4.769685039370078
 31
0.0
  0
LINE
  5
3022
330
1E
100
AcDbEntity
  8
3
100
AcDbLine
 10
-1.508858267716535
 20
4.769685039370078
 30
0.0
 11
-1.502952755905511
 21
4.77263779527559
 31
0.0
  0
LINE
  5
302A
330
1E
100
AcDbEntity
  8
3
100
AcDbLine
 10
-1.500984251968503
 20
4.77755905511811
 30
0.0
 11
-1.502952755905511
 21
4.778543307086613
 31
0.0
  0
LINE
  5
302B
330
1E
100
AcDbEntity
  8
3
100
AcDbLine
 10
-1.553149606299212
 20
4.769685039370078
 30
0.0
 11
-1.567913385826771
 21
4.759842519685039
 31
0.0
  0
LINE
  5
302C
330
1E
100
AcDbEntity
  8
3
100
AcDbLine
 10
-1.567913385826771
 20
4.898622047244094
 30
0.0
 11
-1.572834645669291
 21
4.889763779527559
 31
0.0
  0
LINE
  5
3037
330
1E
100
AcDbEntity
  8
3
100
AcDbLine
 10
1.28248031496063
 20
4.885826771653543
 30
0.0
 11
1.280511811023621
 21
4.889763779527559
 31
0.0
  0
LINE
  5
305D
330
1E
100
AcDbEntity
  8
3
100
AcDbLine
 10
-0.1594488188976375
 20
4.537401574803149
 30
0.0
 11
-0.1633858267716532
 21
4.532480314960629
 31
0.0
  0
LINE
  5
3064
330
1E
100
AcDbEntity
  8
3
100
AcDbLine
 10
-0.1230314960629921
 20
4.769685039370078
 30
0.0
 11
-0.1289370078740157
 21
4.77263779527559
 31
0.0
  0
LINE
  5
3065
330
1E
100
AcDbEntity
  8
3
100
AcDbLine
 10
-0.1309055118110236
 20
4.77755905511811
 30
0.0
 11
-0.1289370078740157
 21
4.778543307086613
 31
0.0
  0
LINE
  5
3066
330
1E
100
AcDbEntity
  8
3
100
AcDbLine
 10
-0.0777559055118107
 20
4.769685039370078
 30
0.0
 11
-0.0639763779527556
 21
4.759842519685039
 31
0.0
  0
LINE
  5
30CB
330
1E
100
AcDbEntity
  8
3
100
AcDbLine
 10
-1.472440944881889
 20
5.757874015748031
 30
0.0
 11
-1.467519685039369
 21
5.739173228346456
 31
0.0
  0
LINE
  5
30D2
330
1E
100
AcDbEntity
  8
3
100
AcDbLine
 10
-1.500984251968503
 20
6.000984251968503
 30
0.0
 11
-1.502952755905511
 21
6.0
 31
0.0
  0
LINE
  5
30F2
330
1E
100
AcDbEntity
  8
3
100
AcDbLine
 10
-0.1309055118110236
 20
6.000984251968503
 30
0.0
 11
-0.1289370078740157
 21
6.0
 31
0.0
  0
LINE
  5
30FA
330
1E
100
AcDbEntity
  8
3
100
AcDbLine
 10
-0.1594488188976375
 20
5.757874015748031
 30
0.0
 11
-0.1633858267716532
 21
5.739173228346456
 31
0.0
  0
LINE
  5
3101
330
1E
100
AcDbEntity
  8
3
100
AcDbLine
 10
-0.1594488188976375
 20
5.757874015748031
 30
0.0
 11
-0.1633858267716532
 21
5.739173228346456
 31
0.0
  0
LINE
  5
310D
330
1E
100
AcDbEntity
  8
3
100
AcDbLine
 10
-0.1594488188976375
 20
5.757874015748031
 30
0.0
 11
-0.1633858267716532
 21
5.739173228346456
 31
0.0
  0
LINE
  5
310E
330
1E
100
AcDbEntity
  8
3
100
AcDbLine
 10
-0.1633858267716532
 20
5.739173228346456
 30
0.0
 11
-0.1594488188976375
 21
5.713582677165354
 31
0.0
  0
LINE
  5
310F
330
1E
100
AcDbEntity
  8
3
100
AcDbLine
 10
-0.1594488188976375
 20
5.713582677165354
 30
0.0
 11
-0.1594488188976375
 21
5.701771653543307
 31
0.0
  0
LINE
  5
3110
330
1E
100
AcDbEntity
  8
3
100
AcDbLine
 10
-0.1594488188976375
 20
5.701771653543307
 30
0.0
 11
-0.1624015748031495
 21
5.698818897637795
 31
0.0
  0
LINE
  5
3111
330
1E
100
AcDbEntity
  8
3
100
AcDbLine
 10
-0.1624015748031495
 20
5.698818897637795
 30
0.0
 11
-0.170275590551181
 21
5.709645669291338
 31
0.0
  0
LINE
  5
3112
330
1E
100
AcDbEntity
  8
3
100
AcDbLine
 10
-0.1289370078740157
 20
6.021653543307087
 30
0.0
 11
-0.1486220472440944
 21
6.007874015748031
 31
0.0
  0
LINE
  5
3113
330
1E
100
AcDbEntity
  8
3
100
AcDbLine
 10
-0.1486220472440944
 20
6.007874015748031
 30
0.0
 11
-0.1564960629921259
 21
5.999015748031496
 31
0.0
  0
LINE
  5
3114
330
1E
100
AcDbEntity
  8
3
100
AcDbLine
 10
-0.1564960629921259
 20
5.999015748031496
 30
0.0
 11
-0.1594488188976375
 21
5.990157480314961
 31
0.0
  0
LINE
  5
3115
330
1E
100
AcDbEntity
  8
3
100
AcDbLine
 10
-0.1279527559055116
 20
6.0
 30
0.0
 11
-0.1102362204724407
 21
6.0
 31
0.0
  0
LINE
  5
3116
330
1E
100
AcDbEntity
  8
3
100
AcDbLine
 10
-0.1102362204724407
 20
6.0
 30
0.0
 11
-0.0944881889763778
 21
6.003937007874015
 31
0.0
  0
LINE
  5
3117
330
1E
100
AcDbEntity
  8
3
100
AcDbLine
 10
-0.0944881889763778
 20
6.003937007874015
 30
0.0
 11
-0.0777559055118107
 21
6.005905511811024
 31
0.0
  0
LINE
  5
3118
330
1E
100
AcDbEntity
  8
3
100
AcDbLine
 10
-0.0777559055118107
 20
6.005905511811024
 30
0.0
 11
-0.0639763779527556
 21
6.005905511811024
 31
0.0
  0
LINE
  5
3119
330
1E
100
AcDbEntity
  8
3
100
AcDbLine
 10
-1.597440944881889
 20
5.913385826771653
 30
0.0
 11
-1.592519685039369
 21
5.884842519685039
 31
0.0
  0
LINE
  5
311A
330
1E
100
AcDbEntity
  8
3
100
AcDbLine
 10
-1.592519685039369
 20
5.884842519685039
 30
0.0
 11
-1.581692913385826
 21
5.856299212598425
 31
0.0
  0
LINE
  5
311B
330
1E
100
AcDbEntity
  8
3
100
AcDbLine
 10
-1.57775590551181
 20
6.157480314960629
 30
0.0
 11
-1.585629921259842
 21
6.159448818897637
 31
0.0
  0
LINE
  5
311C
330
1E
100
AcDbEntity
  8
3
100
AcDbLine
 10
-1.585629921259842
 20
6.159448818897637
 30
0.0
 11
-1.58759842519685
 21
6.162401574803149
 31
0.0
  0
LINE
  5
311D
330
1E
100
AcDbEntity
  8
3
100
AcDbLine
 10
-1.58759842519685
 20
6.162401574803149
 30
0.0
 11
-1.588582677165354
 21
6.164370078740157
 31
0.0
  0
LINE
  5
311E
330
1E
100
AcDbEntity
  8
3
100
AcDbLine
 10
-0.1338582677165352
 20
5.738188976377952
 30
0.0
 11
-0.1338582677165352
 21
5.702755905511811
 31
0.0
  0
LINE
  5
311F
330
1E
100
AcDbEntity
  8
3
100
AcDbLine
 10
-0.1338582677165352
 20
5.702755905511811
 30
0.0
 11
-0.1338582677165352
 21
5.671259842519685
 31
0.0
  0
LINE
  5
3120
330
1E
100
AcDbEntity
  8
3
100
AcDbLine
 10
-1.567913385826771
 20
6.143700787401574
 30
0.0
 11
-1.575787401574802
 21
6.148622047244094
 31
0.0
  0
LINE
  5
3121
330
1E
100
AcDbEntity
  8
3
100
AcDbLine
 10
-1.575787401574802
 20
6.148622047244094
 30
0.0
 11
-1.58267716535433
 21
6.158464566929134
 31
0.0
  0
LINE
  5
3122
330
1E
100
AcDbEntity
  8
3
100
AcDbLine
 10
-1.537401574803149
 20
6.003937007874015
 30
0.0
 11
-1.554133858267716
 21
6.005905511811024
 31
0.0
  0
LINE
  5
3123
330
1E
100
AcDbEntity
  8
3
100
AcDbLine
 10
-1.554133858267716
 20
6.005905511811024
 30
0.0
 11
-1.567913385826771
 21
6.005905511811024
 31
0.0
  0
LINE
  5
3124
330
1E
100
AcDbEntity
  8
3
100
AcDbLine
 10
-1.503937007874015
 20
6.0
 30
0.0
 11
-1.521653543307086
 21
6.0
 31
0.0
  0
LINE
  5
3125
330
1E
100
AcDbEntity
  8
3
100
AcDbLine
 10
-1.521653543307086
 20
6.0
 30
0.0
 11
-1.537401574803149
 21
6.003937007874015
 31
0.0
  0
LINE
  5
3126
330
1E
100
AcDbEntity
  8
3
100
AcDbLine
 10
-1.502952755905511
 20
6.021653543307087
 30
0.0
 11
-1.483267716535432
 21
6.007874015748031
 31
0.0
  0
LINE
  5
3127
330
1E
100
AcDbEntity
  8
3
100
AcDbLine
 10
-1.483267716535432
 20
6.007874015748031
 30
0.0
 11
-1.475393700787401
 21
5.999015748031496
 31
0.0
  0
LINE
  5
3128
330
1E
100
AcDbEntity
  8
3
100
AcDbLine
 10
-1.475393700787401
 20
5.999015748031496
 30
0.0
 11
-1.472440944881889
 21
5.990157480314961
 31
0.0
  0
LINE
  5
3129
330
1E
100
AcDbEntity
  8
3
100
AcDbLine
 10
-1.472440944881889
 20
5.701771653543307
 30
0.0
 11
-1.469488188976377
 21
5.698818897637795
 31
0.0
  0
LINE
  5
312A
330
1E
100
AcDbEntity
  8
3
100
AcDbLine
 10
-1.469488188976377
 20
5.698818897637795
 30
0.0
 11
-1.461614173228346
 21
5.709645669291338
 31
0.0
  0
LINE
  5
312B
330
1E
100
AcDbEntity
  8
3
100
AcDbLine
 10
-1.467519685039369
 20
5.739173228346456
 30
0.0
 11
-1.472440944881889
 21
5.713582677165354
 31
0.0
  0
LINE
  5
312C
330
1E
100
AcDbEntity
  8
3
100
AcDbLine
 10
-1.472440944881889
 20
5.713582677165354
 30
0.0
 11
-1.472440944881889
 21
5.701771653543307
 31
0.0
  0
LINE
  5
312D
330
1E
100
AcDbEntity
  8
3
100
AcDbLine
 10
-0.0344488188976375
 20
5.913385826771653
 30
0.0
 11
-0.0393700787401574
 21
5.884842519685039
 31
0.0
  0
LINE
  5
312E
330
1E
100
AcDbEntity
  8
3
100
AcDbLine
 10
-0.0393700787401574
 20
5.884842519685039
 30
0.0
 11
-0.0501968503937005
 21
5.856299212598425
 31
0.0
  0
LINE
  5
3170
330
1E
100
AcDbEntity
  8
3
100
AcDbLine
 10
-1.581692913385826
 20
4.58759842519685
 30
0.0
 11
-1.581692913385826
 21
4.579724409448819
 31
0.0
  0
LINE
  5
3171
330
1E
100
AcDbEntity
  8
3
100
AcDbLine
 10
-1.581692913385826
 20
4.579724409448819
 30
0.0
 11
-1.58267716535433
 21
4.558070866141732
 31
0.0
  0
LINE
  5
3172
330
1E
100
AcDbEntity
  8
3
100
AcDbLine
 10
-0.1289370078740157
 20
4.779527559055118
 30
0.0
 11
-0.1486220472440944
 21
4.781496062992125
 31
0.0
  0
LINE
  5
3173
330
1E
100
AcDbEntity
  8
3
100
AcDbLine
 10
-0.1486220472440944
 20
4.781496062992125
 30
0.0
 11
-0.1564960629921259
 21
4.776574803149606
 31
0.0
  0
LINE
  5
3174
330
1E
100
AcDbEntity
  8
3
100
AcDbLine
 10
-0.1564960629921259
 20
4.776574803149606
 30
0.0
 11
-0.1594488188976375
 21
4.768700787401574
 31
0.0
  0
LINE
  5
3175
330
1E
100
AcDbEntity
  8
3
100
AcDbLine
 10
-0.1633858267716532
 20
4.532480314960629
 30
0.0
 11
-0.1594488188976375
 21
4.520669291338582
 31
0.0
  0
LINE
  5
3176
330
1E
100
AcDbEntity
  8
3
100
AcDbLine
 10
-0.1594488188976375
 20
4.520669291338582
 30
0.0
 11
-0.1594488188976375
 21
4.504921259842519
 31
0.0
  0
LINE
  5
3177
330
1E
100
AcDbEntity
  8
3
100
AcDbLine
 10
-0.1594488188976375
 20
4.504921259842519
 30
0.0
 11
-0.1624015748031495
 21
4.479330708661417
 31
0.0
  0
LINE
  5
3178
330
1E
100
AcDbEntity
  8
3
100
AcDbLine
 10
-0.1624015748031495
 20
4.479330708661417
 30
0.0
 11
-0.170275590551181
 21
4.456692913385826
 31
0.0
  0
LINE
  5
3179
330
1E
100
AcDbEntity
  8
3
100
AcDbLine
 10
1.312992125984252
 20
4.871062992125984
 30
0.0
 11
1.314960629921259
 21
4.873031496062992
 31
0.0
  0
LINE
  5
317A
330
1E
100
AcDbEntity
  8
3
100
AcDbLine
 10
1.314960629921259
 20
4.873031496062992
 30
0.0
 11
1.317913385826771
 21
4.875
 31
0.0
  0
LINE
  5
317B
330
1E
100
AcDbEntity
  8
3
100
AcDbLine
 10
1.317913385826771
 20
4.875
 30
0.0
 11
1.320866141732283
 21
4.877952755905512
 31
0.0
  0
LINE
  5
317C
330
1E
100
AcDbEntity
  8
3
100
AcDbLine
 10
1.18996062992126
 20
4.747047244094487
 30
0.0
 11
1.187992125984252
 21
4.74507874015748
 31
0.0
  0
LINE
  5
317D
330
1E
100
AcDbEntity
  8
3
100
AcDbLine
 10
1.187992125984252
 20
4.74507874015748
 30
0.0
 11
1.18503937007874
 21
4.743110236220472
 31
0.0
  0
LINE
  5
317E
330
1E
100
AcDbEntity
  8
3
100
AcDbLine
 10
1.18503937007874
 20
4.743110236220472
 30
0.0
 11
1.183070866141732
 21
4.740157480314961
 31
0.0
  0
LINE
  5
317F
330
1E
100
AcDbEntity
  8
3
100
AcDbLine
 10
1.173228346456693
 20
4.742125984251968
 30
0.0
 11
1.187007874015748
 21
4.755905511811024
 31
0.0
  0
LINE
  5
3180
330
1E
100
AcDbEntity
  8
3
100
AcDbLine
 10
1.187007874015748
 20
4.755905511811024
 30
0.0
 11
1.191929133858268
 21
4.763779527559055
 31
0.0
  0
LINE
  5
3181
330
1E
100
AcDbEntity
  8
3
100
AcDbLine
 10
1.191929133858268
 20
4.763779527559055
 30
0.0
 11
1.187992125984252
 21
4.770669291338582
 31
0.0
  0
LINE
  5
3182
330
1E
100
AcDbEntity
  8
3
100
AcDbLine
 10
1.187992125984252
 20
4.770669291338582
 30
0.0
 11
1.202755905511811
 21
4.774606299212598
 31
0.0
  0
LINE
  5
3183
330
1E
100
AcDbEntity
  8
3
100
AcDbLine
 10
1.202755905511811
 20
4.774606299212598
 30
0.0
 11
1.21751968503937
 21
4.786417322834645
 31
0.0
  0
LINE
  5
3184
330
1E
100
AcDbEntity
  8
3
100
AcDbLine
 10
1.21751968503937
 20
4.786417322834645
 30
0.0
 11
1.225393700787401
 21
4.794291338582677
 31
0.0
  0
LINE
  5
3185
330
1E
100
AcDbEntity
  8
3
100
AcDbLine
 10
1.225393700787401
 20
4.794291338582677
 30
0.0
 11
1.243110236220472
 21
4.812007874015748
 31
0.0
  0
LINE
  5
3186
330
1E
100
AcDbEntity
  8
3
100
AcDbLine
 10
1.243110236220472
 20
4.812007874015748
 30
0.0
 11
1.261811023622047
 21
4.830708661417323
 31
0.0
  0
LINE
  5
3187
330
1E
100
AcDbEntity
  8
3
100
AcDbLine
 10
1.261811023622047
 20
4.830708661417323
 30
0.0
 11
1.269685039370079
 21
4.840551181102362
 31
0.0
  0
LINE
  5
3188
330
1E
100
AcDbEntity
  8
3
100
AcDbLine
 10
1.269685039370079
 20
4.840551181102362
 30
0.0
 11
1.28248031496063
 21
4.858267716535433
 31
0.0
  0
LINE
  5
3189
330
1E
100
AcDbEntity
  8
3
100
AcDbLine
 10
1.28248031496063
 20
4.858267716535433
 30
0.0
 11
1.287401574803149
 21
4.866141732283464
 31
0.0
  0
LINE
  5
318A
330
1E
100
AcDbEntity
  8
3
100
AcDbLine
 10
1.287401574803149
 20
4.866141732283464
 30
0.0
 11
1.289370078740157
 21
4.878937007874015
 31
0.0
  0
LINE
  5
318B
330
1E
100
AcDbEntity
  8
3
100
AcDbLine
 10
1.068897637795275
 20
4.572834645669291
 30
0.0
 11
1.040354330708661
 21
4.583661417322835
 31
0.0
  0
LINE
  5
318C
330
1E
100
AcDbEntity
  8
3
100
AcDbLine
 10
1.040354330708661
 20
4.583661417322835
 30
0.0
 11
1.011811023622047
 21
4.588582677165354
 31
0.0
  0
LINE
  5
318D
330
1E
100
AcDbEntity
  8
3
100
AcDbLine
 10
-0.1328740157480315
 20
4.586614173228346
 30
0.0
 11
-0.1338582677165352
 21
4.577755905511811
 31
0.0
  0
LINE
  5
318E
330
1E
100
AcDbEntity
  8
3
100
AcDbLine
 10
-0.1338582677165352
 20
4.577755905511811
 30
0.0
 11
-0.1338582677165352
 21
4.557086614173228
 31
0.0
  0
LINE
  5
318F
330
1E
100
AcDbEntity
  8
3
100
AcDbLine
 10
-0.0708661417322834
 20
4.769685039370078
 30
0.0
 11
-0.0354330708661417
 21
4.773622047244094
 31
0.0
  0
LINE
  5
3190
330
1E
100
AcDbEntity
  8
3
100
AcDbLine
 10
-0.0354330708661417
 20
4.773622047244094
 30
0.0
 11
-0.0167322834645667
 21
4.785433070866141
 31
0.0
  0
LINE
  5
3191
330
1E
100
AcDbEntity
  8
3
100
AcDbLine
 10
-0.0167322834645667
 20
4.785433070866141
 30
0.0
 11
-0.0098425196850394
 21
4.793307086614173
 31
0.0
  0
LINE
  5
3192
330
1E
100
AcDbEntity
  8
3
100
AcDbLine
 10
-0.0098425196850394
 20
4.793307086614173
 30
0.0
 11
-0.0029527559055116
 21
4.811023622047244
 31
0.0
  0
LINE
  5
3193
330
1E
100
AcDbEntity
  8
3
100
AcDbLine
 10
-1.56003937007874
 20
4.888779527559055
 30
0.0
 11
-1.596456692913385
 21
4.884842519685039
 31
0.0
  0
LINE
  5
3194
330
1E
100
AcDbEntity
  8
3
100
AcDbLine
 10
-1.596456692913385
 20
4.884842519685039
 30
0.0
 11
-1.61515748031496
 21
4.873031496062992
 31
0.0
  0
LINE
  5
3195
330
1E
100
AcDbEntity
  8
3
100
AcDbLine
 10
-1.61515748031496
 20
4.873031496062992
 30
0.0
 11
-1.622047244094487
 21
4.865157480314961
 31
0.0
  0
LINE
  5
3196
330
1E
100
AcDbEntity
  8
3
100
AcDbLine
 10
-1.622047244094487
 20
4.865157480314961
 30
0.0
 11
-1.628937007874015
 21
4.847440944881889
 31
0.0
  0
LINE
  5
3197
330
1E
100
AcDbEntity
  8
3
100
AcDbLine
 10
-1.628937007874015
 20
4.847440944881889
 30
0.0
 11
-1.626968503937007
 21
4.828740157480314
 31
0.0
  0
LINE
  5
3198
330
1E
100
AcDbEntity
  8
3
100
AcDbLine
 10
-1.626968503937007
 20
4.828740157480314
 30
0.0
 11
-1.623031496062991
 21
4.818897637795275
 31
0.0
  0
LINE
  5
3199
330
1E
100
AcDbEntity
  8
3
100
AcDbLine
 10
-1.623031496062991
 20
4.818897637795275
 30
0.0
 11
-1.608267716535432
 21
4.801181102362204
 31
0.0
  0
LINE
  5
319A
330
1E
100
AcDbEntity
  8
3
100
AcDbLine
 10
-1.608267716535432
 20
4.801181102362204
 30
0.0
 11
-1.598425196850393
 21
4.793307086614173
 31
0.0
  0
LINE
  5
319B
330
1E
100
AcDbEntity
  8
3
100
AcDbLine
 10
-1.502952755905511
 20
4.779527559055118
 30
0.0
 11
-1.483267716535432
 21
4.781496062992125
 31
0.0
  0
LINE
  5
319C
330
1E
100
AcDbEntity
  8
3
100
AcDbLine
 10
-1.483267716535432
 20
4.781496062992125
 30
0.0
 11
-1.475393700787401
 21
4.776574803149606
 31
0.0
  0
LINE
  5
319D
330
1E
100
AcDbEntity
  8
3
100
AcDbLine
 10
-1.475393700787401
 20
4.776574803149606
 30
0.0
 11
-1.472440944881889
 21
4.768700787401574
 31
0.0
  0
LINE
  5
319E
330
1E
100
AcDbEntity
  8
3
100
AcDbLine
 10
-1.467519685039369
 20
4.532480314960629
 30
0.0
 11
-1.472440944881889
 21
4.520669291338582
 31
0.0
  0
LINE
  5
319F
330
1E
100
AcDbEntity
  8
3
100
AcDbLine
 10
-1.472440944881889
 20
4.520669291338582
 30
0.0
 11
-1.472440944881889
 21
4.504921259842519
 31
0.0
  0
LINE
  5
31A0
330
1E
100
AcDbEntity
  8
3
100
AcDbLine
 10
-1.472440944881889
 20
4.504921259842519
 30
0.0
 11
-1.470472440944881
 21
4.48523622047244
 31
0.0
  0
LINE
  5
31A1
330
1E
100
AcDbEntity
  8
3
100
AcDbLine
 10
-1.470472440944881
 20
4.48523622047244
 30
0.0
 11
-1.466535433070865
 21
4.466535433070866
 31
0.0
  0
LINE
  5
31A2
330
1E
100
AcDbEntity
  8
3
100
AcDbLine
 10
-1.466535433070865
 20
4.466535433070866
 30
0.0
 11
-1.45767716535433
 21
4.451771653543307
 31
0.0
  0
LINE
  5
31A3
330
1E
100
AcDbEntity
  8
3
100
AcDbLine
 10
-0.0344488188976375
 20
4.571850393700787
 30
0.0
 11
-0.0393700787401574
 21
4.58267716535433
 31
0.0
  0
LINE
  5
31A4
330
1E
100
AcDbEntity
  8
3
100
AcDbLine
 10
-0.0393700787401574
 20
4.58267716535433
 30
0.0
 11
-0.0501968503937005
 21
4.58759842519685
 31
0.0
  0
LINE
  5
31A5
330
1E
100
AcDbEntity
  8
3
100
AcDbLine
 10
-1.597440944881889
 20
4.571850393700787
 30
0.0
 11
-1.592519685039369
 21
4.58267716535433
 31
0.0
  0
LINE
  5
31A6
330
1E
100
AcDbEntity
  8
3
100
AcDbLine
 10
-1.592519685039369
 20
4.58267716535433
 30
0.0
 11
-1.581692913385826
 21
4.58759842519685
 31
0.0
  0
LINE
  5
31D9
330
1E
100
AcDbEntity
  8
3
100
AcDbLine
 10
-0.1397637795275588
 20
5.671259842519685
 30
0.0
 11
-0.1387795275590551
 21
5.6751968503937
 31
0.0
  0
LINE
  5
31DA
330
1E
100
AcDbEntity
  8
3
100
AcDbLine
 10
-0.1387795275590551
 20
5.6751968503937
 30
0.0
 11
-0.1387795275590551
 21
5.686023622047244
 31
0.0
  0
LINE
  5
31DB
330
1E
100
AcDbEntity
  8
3
100
AcDbLine
 10
-0.1387795275590551
 20
5.686023622047244
 30
0.0
 11
-0.1387795275590551
 21
5.702755905511811
 31
0.0
  0
LINE
  5
31DC
330
1E
100
AcDbEntity
  8
3
100
AcDbLine
 10
-0.1387795275590551
 20
5.702755905511811
 30
0.0
 11
-0.1387795275590551
 21
5.723425196850393
 31
0.0
  0
LINE
  5
31DD
330
1E
100
AcDbEntity
  8
3
100
AcDbLine
 10
-0.1387795275590551
 20
5.723425196850393
 30
0.0
 11
-0.1397637795275588
 21
5.746062992125984
 31
0.0
  0
LINE
  5
31DE
330
1E
100
AcDbEntity
  8
3
100
AcDbLine
 10
-0.1397637795275588
 20
5.746062992125984
 30
0.0
 11
-0.140748031496063
 21
5.767716535433071
 31
0.0
  0
LINE
  5
31DF
330
1E
100
AcDbEntity
  8
3
100
AcDbLine
 10
-0.140748031496063
 20
5.767716535433071
 30
0.0
 11
-0.1417322834645667
 21
5.786417322834645
 31
0.0
  0
LINE
  5
31E0
330
1E
100
AcDbEntity
  8
3
100
AcDbLine
 10
-0.140748031496063
 20
5.682086614173228
 30
0.0
 11
-0.1417322834645667
 21
5.688976377952756
 31
0.0
  0
LINE
  5
31E1
330
1E
100
AcDbEntity
  8
3
100
AcDbLine
 10
-0.1417322834645667
 20
5.688976377952756
 30
0.0
 11
-0.1417322834645667
 21
5.695866141732283
 31
0.0
  0
LINE
  5
31E2
330
1E
100
AcDbEntity
  8
3
100
AcDbLine
 10
-0.140748031496063
 20
5.661417322834645
 30
0.0
 11
-0.140748031496063
 21
5.646653543307087
 31
0.0
  0
LINE
  5
31E3
330
1E
100
AcDbEntity
  8
3
100
AcDbLine
 10
-0.140748031496063
 20
5.646653543307087
 30
0.0
 11
-0.140748031496063
 21
5.629921259842519
 31
0.0
  0
LINE
  5
31E4
330
1E
100
AcDbEntity
  8
3
100
AcDbLine
 10
-0.1387795275590551
 20
5.738188976377952
 30
0.0
 11
-0.1377952755905509
 21
5.715551181102362
 31
0.0
  0
LINE
  5
31E5
330
1E
100
AcDbEntity
  8
3
100
AcDbLine
 10
-0.1377952755905509
 20
5.715551181102362
 30
0.0
 11
-0.1377952755905509
 21
5.694881889763779
 31
0.0
  0
LINE
  5
31E6
330
1E
100
AcDbEntity
  8
3
100
AcDbLine
 10
-0.1377952755905509
 20
5.694881889763779
 30
0.0
 11
-0.1377952755905509
 21
5.676181102362204
 31
0.0
  0
LINE
  5
31E7
330
1E
100
AcDbEntity
  8
3
100
AcDbLine
 10
-0.1279527559055116
 20
5.797244094488188
 30
0.0
 11
-0.1053149606299213
 21
5.801181102362204
 31
0.0
  0
LINE
  5
31E8
330
1E
100
AcDbEntity
  8
3
100
AcDbLine
 10
-0.1053149606299213
 20
5.801181102362204
 30
0.0
 11
-0.0836614173228343
 21
5.812992125984251
 31
0.0
  0
LINE
  5
31E9
330
1E
100
AcDbEntity
  8
3
100
AcDbLine
 10
-0.0836614173228343
 20
5.812992125984251
 30
0.0
 11
-0.0649606299212597
 21
5.831692913385826
 31
0.0
  0
LINE
  5
31EA
330
1E
100
AcDbEntity
  8
3
100
AcDbLine
 10
-0.0649606299212597
 20
5.831692913385826
 30
0.0
 11
-0.0501968503937005
 21
5.856299212598425
 31
0.0
  0
LINE
  5
31EB
330
1E
100
AcDbEntity
  8
3
100
AcDbLine
 10
-0.1043307086614171
 20
5.989173228346456
 30
0.0
 11
-0.0826771653543306
 21
5.996062992125984
 31
0.0
  0
LINE
  5
31EC
330
1E
100
AcDbEntity
  8
3
100
AcDbLine
 10
-0.0826771653543306
 20
5.996062992125984
 30
0.0
 11
-0.0639763779527556
 21
6.005905511811024
 31
0.0
  0
LINE
  5
31ED
330
1E
100
AcDbEntity
  8
3
100
AcDbLine
 10
-0.1289370078740157
 20
6.000984251968503
 30
0.0
 11
-0.1377952755905509
 21
5.999015748031496
 31
0.0
  0
LINE
  5
31EE
330
1E
100
AcDbEntity
  8
3
100
AcDbLine
 10
-0.1377952755905509
 20
5.999015748031496
 30
0.0
 11
-0.140748031496063
 21
5.993110236220472
 31
0.0
  0
LINE
  5
31EF
330
1E
100
AcDbEntity
  8
3
100
AcDbLine
 10
-0.140748031496063
 20
5.801181102362204
 30
0.0
 11
-0.1377952755905509
 21
5.798228346456693
 31
0.0
  0
LINE
  5
31F0
330
1E
100
AcDbEntity
  8
3
100
AcDbLine
 10
-0.1377952755905509
 20
5.798228346456693
 30
0.0
 11
-0.1309055118110236
 21
5.797244094488188
 31
0.0
  0
LINE
  5
31F1
330
1E
100
AcDbEntity
  8
3
100
AcDbLine
 10
-1.548228346456692
 20
5.812992125984251
 30
0.0
 11
-1.566929133858267
 21
5.831692913385826
 31
0.0
  0
LINE
  5
31F2
330
1E
100
AcDbEntity
  8
3
100
AcDbLine
 10
-1.566929133858267
 20
5.831692913385826
 30
0.0
 11
-1.581692913385826
 21
5.856299212598425
 31
0.0
  0
LINE
  5
31F3
330
1E
100
AcDbEntity
  8
3
100
AcDbLine
 10
-1.503937007874015
 20
5.797244094488188
 30
0.0
 11
-1.526574803149606
 21
5.801181102362204
 31
0.0
  0
LINE
  5
31F4
330
1E
100
AcDbEntity
  8
3
100
AcDbLine
 10
-1.526574803149606
 20
5.801181102362204
 30
0.0
 11
-1.548228346456692
 21
5.812992125984251
 31
0.0
  0
LINE
  5
31F5
330
1E
100
AcDbEntity
  8
3
100
AcDbLine
 10
-1.581692913385826
 20
5.533464566929134
 30
0.0
 11
-1.589566929133858
 21
5.533464566929134
 31
0.0
  0
LINE
  5
31F6
330
1E
100
AcDbEntity
  8
3
100
AcDbLine
 10
-1.589566929133858
 20
5.533464566929134
 30
0.0
 11
-1.595472440944881
 21
5.533464566929134
 31
0.0
  0
LINE
  5
31F7
330
1E
100
AcDbEntity
  8
3
100
AcDbLine
 10
-1.595472440944881
 20
5.533464566929134
 30
0.0
 11
-1.597440944881889
 21
5.533464566929134
 31
0.0
  0
LINE
  5
31F8
330
1E
100
AcDbEntity
  8
3
100
AcDbLine
 10
-1.55511811023622
 20
6.136811023622047
 30
0.0
 11
-1.530511811023621
 21
6.128937007874015
 31
0.0
  0
LINE
  5
31F9
330
1E
100
AcDbEntity
  8
3
100
AcDbLine
 10
-1.530511811023621
 20
6.128937007874015
 30
0.0
 11
-1.503937007874015
 21
6.125984251968503
 31
0.0
  0
LINE
  5
31FA
330
1E
100
AcDbEntity
  8
3
100
AcDbLine
 10
-1.503937007874015
 20
6.125984251968503
 30
0.0
 11
-1.526574803149606
 21
6.128937007874015
 31
0.0
  0
LINE
  5
31FB
330
1E
100
AcDbEntity
  8
3
100
AcDbLine
 10
-1.526574803149606
 20
6.128937007874015
 30
0.0
 11
-1.547244094488188
 21
6.134842519685039
 31
0.0
  0
LINE
  5
31FC
330
1E
100
AcDbEntity
  8
3
100
AcDbLine
 10
-1.547244094488188
 20
6.134842519685039
 30
0.0
 11
-1.564960629921259
 21
6.144685039370078
 31
0.0
  0
LINE
  5
31FD
330
1E
100
AcDbEntity
  8
3
100
AcDbLine
 10
-1.564960629921259
 20
6.144685039370078
 30
0.0
 11
-1.57775590551181
 21
6.157480314960629
 31
0.0
  0
LINE
  5
31FE
330
1E
100
AcDbEntity
  8
3
100
AcDbLine
 10
-1.588582677165354
 20
6.164370078740157
 30
0.0
 11
-1.574803149606299
 21
6.148622047244094
 31
0.0
  0
LINE
  5
31FF
330
1E
100
AcDbEntity
  8
3
100
AcDbLine
 10
-1.574803149606299
 20
6.148622047244094
 30
0.0
 11
-1.55511811023622
 21
6.136811023622047
 31
0.0
  0
LINE
  5
3200
330
1E
100
AcDbEntity
  8
3
100
AcDbLine
 10
-1.597440944881889
 20
6.869094488188976
 30
0.0
 11
-1.593503937007873
 21
6.869094488188976
 31
0.0
  0
LINE
  5
3201
330
1E
100
AcDbEntity
  8
3
100
AcDbLine
 10
-1.593503937007873
 20
6.869094488188976
 30
0.0
 11
-1.584645669291338
 21
6.869094488188976
 31
0.0
  0
LINE
  5
3202
330
1E
100
AcDbEntity
  8
3
100
AcDbLine
 10
-1.584645669291338
 20
6.869094488188976
 30
0.0
 11
-1.569881889763779
 21
6.869094488188976
 31
0.0
  0
LINE
  5
3203
330
1E
100
AcDbEntity
  8
3
100
AcDbLine
 10
-1.569881889763779
 20
6.869094488188976
 30
0.0
 11
-1.5501968503937
 21
6.869094488188976
 31
0.0
  0
LINE
  5
3204
330
1E
100
AcDbEntity
  8
3
100
AcDbLine
 10
-1.5501968503937
 20
6.869094488188976
 30
0.0
 11
-1.528543307086613
 21
6.869094488188976
 31
0.0
  0
LINE
  5
3205
330
1E
100
AcDbEntity
  8
3
100
AcDbLine
 10
-1.528543307086613
 20
6.869094488188976
 30
0.0
 11
-1.503937007874015
 21
6.869094488188976
 31
0.0
  0
LINE
  5
3206
330
1E
100
AcDbEntity
  8
3
100
AcDbLine
 10
-0.0570866141732283
 20
6.148622047244094
 30
0.0
 11
-0.076771653543307
 21
6.136811023622047
 31
0.0
  0
LINE
  5
3207
330
1E
100
AcDbEntity
  8
3
100
AcDbLine
 10
-0.076771653543307
 20
6.136811023622047
 30
0.0
 11
-0.1013779527559055
 21
6.128937007874015
 31
0.0
  0
LINE
  5
3208
330
1E
100
AcDbEntity
  8
3
100
AcDbLine
 10
-0.1013779527559055
 20
6.128937007874015
 30
0.0
 11
-0.1279527559055116
 21
6.125984251968503
 31
0.0
  0
LINE
  5
3209
330
1E
100
AcDbEntity
  8
3
100
AcDbLine
 10
-0.1279527559055116
 20
5.797244094488188
 30
0.0
 11
-0.1053149606299213
 21
5.801181102362204
 31
0.0
  0
LINE
  5
320A
330
1E
100
AcDbEntity
  8
3
100
AcDbLine
 10
-0.1053149606299213
 20
5.801181102362204
 30
0.0
 11
-0.0836614173228343
 21
5.812992125984251
 31
0.0
  0
LINE
  5
320B
330
1E
100
AcDbEntity
  8
3
100
AcDbLine
 10
-0.0836614173228343
 20
5.812992125984251
 30
0.0
 11
-0.0649606299212597
 21
5.831692913385826
 31
0.0
  0
LINE
  5
320C
330
1E
100
AcDbEntity
  8
3
100
AcDbLine
 10
-0.0649606299212597
 20
5.831692913385826
 30
0.0
 11
-0.0501968503937005
 21
5.856299212598425
 31
0.0
  0
LINE
  5
320D
330
1E
100
AcDbEntity
  8
3
100
AcDbLine
 10
-0.0620078740157477
 20
6.869094488188976
 30
0.0
 11
-0.0807086614173227
 21
6.869094488188976
 31
0.0
  0
LINE
  5
320E
330
1E
100
AcDbEntity
  8
3
100
AcDbLine
 10
-0.0807086614173227
 20
6.869094488188976
 30
0.0
 11
-0.1033464566929134
 21
6.869094488188976
 31
0.0
  0
LINE
  5
320F
330
1E
100
AcDbEntity
  8
3
100
AcDbLine
 10
-0.1033464566929134
 20
6.869094488188976
 30
0.0
 11
-0.1279527559055116
 21
6.869094488188976
 31
0.0
  0
LINE
  5
3210
330
1E
100
AcDbEntity
  8
3
100
AcDbLine
 10
-0.0344488188976375
 20
6.869094488188976
 30
0.0
 11
-0.0374015748031496
 21
6.869094488188976
 31
0.0
  0
LINE
  5
3211
330
1E
100
AcDbEntity
  8
3
100
AcDbLine
 10
-0.0374015748031496
 20
6.869094488188976
 30
0.0
 11
-0.0472440944881889
 21
6.869094488188976
 31
0.0
  0
LINE
  5
3212
330
1E
100
AcDbEntity
  8
3
100
AcDbLine
 10
-0.0472440944881889
 20
6.869094488188976
 30
0.0
 11
-0.0620078740157477
 21
6.869094488188976
 31
0.0
  0
LINE
  5
3213
330
1E
100
AcDbEntity
  8
3
100
AcDbLine
 10
-1.503937007874015
 20
6.125984251968503
 30
0.0
 11
-1.526574803149606
 21
6.128937007874015
 31
0.0
  0
LINE
  5
3214
330
1E
100
AcDbEntity
  8
3
100
AcDbLine
 10
-1.526574803149606
 20
6.128937007874015
 30
0.0
 11
-1.547244094488188
 21
6.134842519685039
 31
0.0
  0
LINE
  5
3215
330
1E
100
AcDbEntity
  8
3
100
AcDbLine
 10
-1.547244094488188
 20
6.134842519685039
 30
0.0
 11
-1.564960629921259
 21
6.144685039370078
 31
0.0
  0
LINE
  5
3216
330
1E
100
AcDbEntity
  8
3
100
AcDbLine
 10
-1.564960629921259
 20
6.144685039370078
 30
0.0
 11
-1.57775590551181
 21
6.157480314960629
 31
0.0
  0
LINE
  5
3217
330
1E
100
AcDbEntity
  8
3
100
AcDbLine
 10
-1.503937007874015
 20
5.987204724409449
 30
0.0
 11
-1.52755905511811
 21
5.989173228346456
 31
0.0
  0
LINE
  5
3218
330
1E
100
AcDbEntity
  8
3
100
AcDbLine
 10
-1.52755905511811
 20
5.989173228346456
 30
0.0
 11
-1.549212598425196
 21
5.996062992125984
 31
0.0
  0
LINE
  5
3219
330
1E
100
AcDbEntity
  8
3
100
AcDbLine
 10
-1.549212598425196
 20
5.996062992125984
 30
0.0
 11
-1.567913385826771
 21
6.005905511811024
 31
0.0
  0
LINE
  5
321A
330
1E
100
AcDbEntity
  8
3
100
AcDbLine
 10
-1.49015748031496
 20
5.661417322834645
 30
0.0
 11
-1.491141732283464
 21
5.646653543307087
 31
0.0
  0
LINE
  5
321B
330
1E
100
AcDbEntity
  8
3
100
AcDbLine
 10
-1.491141732283464
 20
5.646653543307087
 30
0.0
 11
-1.491141732283464
 21
5.629921259842519
 31
0.0
  0
LINE
  5
321C
330
1E
100
AcDbEntity
  8
3
100
AcDbLine
 10
-0.0501968503937005
 20
5.533464566929134
 30
0.0
 11
-0.042322834645669
 21
5.533464566929134
 31
0.0
  0
LINE
  5
321D
330
1E
100
AcDbEntity
  8
3
100
AcDbLine
 10
-0.042322834645669
 20
5.533464566929134
 30
0.0
 11
-0.0364173228346454
 21
5.533464566929134
 31
0.0
  0
LINE
  5
321E
330
1E
100
AcDbEntity
  8
3
100
AcDbLine
 10
-0.0364173228346454
 20
5.533464566929134
 30
0.0
 11
-0.0344488188976375
 21
5.533464566929134
 31
0.0
  0
LINE
  5
321F
330
1E
100
AcDbEntity
  8
3
100
AcDbLine
 10
-1.581692913385826
 20
5.533464566929134
 30
0.0
 11
-1.589566929133858
 21
5.533464566929134
 31
0.0
  0
LINE
  5
3220
330
1E
100
AcDbEntity
  8
3
100
AcDbLine
 10
-1.589566929133858
 20
5.533464566929134
 30
0.0
 11
-1.595472440944881
 21
5.533464566929134
 31
0.0
  0
LINE
  5
3221
330
1E
100
AcDbEntity
  8
3
100
AcDbLine
 10
-1.595472440944881
 20
5.533464566929134
 30
0.0
 11
-1.597440944881889
 21
5.533464566929134
 31
0.0
  0
LINE
  5
3222
330
1E
100
AcDbEntity
  8
3
100
AcDbLine
 10
-1.49015748031496
 20
5.682086614173228
 30
0.0
 11
-1.49015748031496
 21
5.688976377952756
 31
0.0
  0
LINE
  5
3223
330
1E
100
AcDbEntity
  8
3
100
AcDbLine
 10
-1.49015748031496
 20
5.688976377952756
 30
0.0
 11
-1.49015748031496
 21
5.695866141732283
 31
0.0
  0
LINE
  5
3224
330
1E
100
AcDbEntity
  8
3
100
AcDbLine
 10
-1.569881889763779
 20
6.145669291338582
 30
0.0
 11
-1.551181102362204
 21
6.134842519685039
 31
0.0
  0
LINE
  5
3225
330
1E
100
AcDbEntity
  8
3
100
AcDbLine
 10
-1.551181102362204
 20
6.134842519685039
 30
0.0
 11
-1.528543307086613
 21
6.128937007874015
 31
0.0
  0
LINE
  5
3226
330
1E
100
AcDbEntity
  8
3
100
AcDbLine
 10
-1.528543307086613
 20
6.128937007874015
 30
0.0
 11
-1.503937007874015
 21
6.125984251968503
 31
0.0
  0
LINE
  5
3227
330
1E
100
AcDbEntity
  8
3
100
AcDbLine
 10
-1.502952755905511
 20
6.000984251968503
 30
0.0
 11
-1.494094488188976
 21
5.999015748031496
 31
0.0
  0
LINE
  5
3228
330
1E
100
AcDbEntity
  8
3
100
AcDbLine
 10
-1.494094488188976
 20
5.999015748031496
 30
0.0
 11
-1.491141732283464
 21
5.993110236220472
 31
0.0
  0
LINE
  5
3229
330
1E
100
AcDbEntity
  8
3
100
AcDbLine
 10
-1.491141732283464
 20
5.801181102362204
 30
0.0
 11
-1.494094488188976
 21
5.798228346456693
 31
0.0
  0
LINE
  5
322A
330
1E
100
AcDbEntity
  8
3
100
AcDbLine
 10
-1.494094488188976
 20
5.798228346456693
 30
0.0
 11
-1.500984251968503
 21
5.797244094488188
 31
0.0
  0
LINE
  5
322B
330
1E
100
AcDbEntity
  8
3
100
AcDbLine
 10
-1.493110236220472
 20
5.738188976377952
 30
0.0
 11
-1.494094488188976
 21
5.715551181102362
 31
0.0
  0
LINE
  5
322C
330
1E
100
AcDbEntity
  8
3
100
AcDbLine
 10
-1.494094488188976
 20
5.715551181102362
 30
0.0
 11
-1.494094488188976
 21
5.694881889763779
 31
0.0
  0
LINE
  5
322D
330
1E
100
AcDbEntity
  8
3
100
AcDbLine
 10
-1.494094488188976
 20
5.694881889763779
 30
0.0
 11
-1.494094488188976
 21
5.676181102362204
 31
0.0
  0
LINE
  5
322E
330
1E
100
AcDbEntity
  8
3
100
AcDbLine
 10
-1.503937007874015
 20
5.670275590551181
 30
0.0
 11
-1.503937007874015
 21
5.68996062992126
 31
0.0
  0
LINE
  5
322F
330
1E
100
AcDbEntity
  8
3
100
AcDbLine
 10
-1.503937007874015
 20
5.68996062992126
 30
0.0
 11
-1.503937007874015
 21
5.713582677165354
 31
0.0
  0
LINE
  5
3230
330
1E
100
AcDbEntity
  8
3
100
AcDbLine
 10
-1.503937007874015
 20
5.713582677165354
 30
0.0
 11
-1.502952755905511
 21
5.739173228346456
 31
0.0
  0
LINE
  5
3231
330
1E
100
AcDbEntity
  8
3
100
AcDbLine
 10
-0.1289370078740157
 20
4.77755905511811
 30
0.0
 11
-0.1377952755905509
 21
4.775590551181102
 31
0.0
  0
LINE
  5
3232
330
1E
100
AcDbEntity
  8
3
100
AcDbLine
 10
-0.1377952755905509
 20
4.775590551181102
 30
0.0
 11
-0.140748031496063
 21
4.769685039370078
 31
0.0
  0
LINE
  5
3233
330
1E
100
AcDbEntity
  8
3
100
AcDbLine
 10
1.28248031496063
 20
4.903543307086613
 30
0.0
 11
1.284448818897637
 21
4.901574803149606
 31
0.0
  0
LINE
  5
3234
330
1E
100
AcDbEntity
  8
3
100
AcDbLine
 10
1.284448818897637
 20
4.901574803149606
 30
0.0
 11
1.290354330708661
 21
4.894685039370078
 31
0.0
  0
LINE
  5
3235
330
1E
100
AcDbEntity
  8
3
100
AcDbLine
 10
1.290354330708661
 20
4.894685039370078
 30
0.0
 11
1.300196850393701
 21
4.883858267716535
 31
0.0
  0
LINE
  5
3236
330
1E
100
AcDbEntity
  8
3
100
AcDbLine
 10
1.300196850393701
 20
4.883858267716535
 30
0.0
 11
1.312992125984252
 21
4.871062992125984
 31
0.0
  0
LINE
  5
3237
330
1E
100
AcDbEntity
  8
3
100
AcDbLine
 10
1.320866141732283
 20
4.877952755905512
 30
0.0
 11
1.30511811023622
 21
4.893700787401574
 31
0.0
  0
LINE
  5
3238
330
1E
100
AcDbEntity
  8
3
100
AcDbLine
 10
1.30511811023622
 20
4.893700787401574
 30
0.0
 11
1.292322834645668
 21
4.906496062992125
 31
0.0
  0
LINE
  5
3239
330
1E
100
AcDbEntity
  8
3
100
AcDbLine
 10
1.292322834645668
 20
4.906496062992125
 30
0.0
 11
1.284448818897637
 21
4.914370078740157
 31
0.0
  0
LINE
  5
323A
330
1E
100
AcDbEntity
  8
3
100
AcDbLine
 10
1.284448818897637
 20
4.914370078740157
 30
0.0
 11
1.28248031496063
 21
4.917322834645669
 31
0.0
  0
LINE
  5
323B
330
1E
100
AcDbEntity
  8
3
100
AcDbLine
 10
0.9527559055118111
 20
4.588582677165354
 30
0.0
 11
0.9566929133858268
 21
4.588582677165354
 31
0.0
  0
LINE
  5
323C
330
1E
100
AcDbEntity
  8
3
100
AcDbLine
 10
0.9566929133858268
 20
4.588582677165354
 30
0.0
 11
0.968503937007874
 21
4.588582677165354
 31
0.0
  0
LINE
  5
323D
330
1E
100
AcDbEntity
  8
3
100
AcDbLine
 10
0.968503937007874
 20
4.588582677165354
 30
0.0
 11
0.987204724409449
 21
4.588582677165354
 31
0.0
  0
LINE
  5
323E
330
1E
100
AcDbEntity
  8
3
100
AcDbLine
 10
2.024606299212598
 20
4.292322834645669
 30
0.0
 11
2.024606299212598
 21
4.325787401574803
 31
0.0
  0
LINE
  5
323F
330
1E
100
AcDbEntity
  8
3
100
AcDbLine
 10
2.024606299212598
 20
4.325787401574803
 30
0.0
 11
2.024606299212598
 21
4.357283464566929
 31
0.0
  0
LINE
  5
3240
330
1E
100
AcDbEntity
  8
3
100
AcDbLine
 10
2.024606299212598
 20
4.357283464566929
 30
0.0
 11
2.024606299212598
 21
4.383858267716535
 31
0.0
  0
LINE
  5
3241
330
1E
100
AcDbEntity
  8
3
100
AcDbLine
 10
2.024606299212598
 20
4.383858267716535
 30
0.0
 11
2.024606299212598
 21
4.404527559055118
 31
0.0
  0
LINE
  5
3242
330
1E
100
AcDbEntity
  8
3
100
AcDbLine
 10
2.024606299212598
 20
4.404527559055118
 30
0.0
 11
2.024606299212598
 21
4.417322834645669
 31
0.0
  0
LINE
  5
3243
330
1E
100
AcDbEntity
  8
3
100
AcDbLine
 10
2.024606299212598
 20
4.417322834645669
 30
0.0
 11
2.024606299212598
 21
4.421259842519685
 31
0.0
  0
LINE
  5
3244
330
1E
100
AcDbEntity
  8
3
100
AcDbLine
 10
0.6889763779527561
 20
4.410433070866141
 30
0.0
 11
0.6889763779527561
 21
4.420275590551181
 31
0.0
  0
LINE
  5
3245
330
1E
100
AcDbEntity
  8
3
100
AcDbLine
 10
0.6889763779527561
 20
4.420275590551181
 30
0.0
 11
0.6889763779527561
 21
4.423228346456693
 31
0.0
  0
LINE
  5
3246
330
1E
100
AcDbEntity
  8
3
100
AcDbLine
 10
0.6889763779527561
 20
4.423228346456693
 30
0.0
 11
0.6889763779527561
 21
4.420275590551181
 31
0.0
  0
LINE
  5
3247
330
1E
100
AcDbEntity
  8
3
100
AcDbLine
 10
0.6889763779527561
 20
4.420275590551181
 30
0.0
 11
0.6889763779527561
 21
4.412401574803149
 31
0.0
  0
LINE
  5
3248
330
1E
100
AcDbEntity
  8
3
100
AcDbLine
 10
-0.46751968503937
 20
4.3001968503937
 30
0.0
 11
-0.4665354330708662
 21
4.293307086614173
 31
0.0
  0
LINE
  5
3249
330
1E
100
AcDbEntity
  8
3
100
AcDbLine
 10
-0.4665354330708662
 20
4.293307086614173
 30
0.0
 11
-0.4665354330708662
 21
4.286417322834646
 31
0.0
  0
LINE
  5
324A
330
1E
100
AcDbEntity
  8
3
100
AcDbLine
 10
-0.4665354330708662
 20
4.286417322834646
 30
0.0
 11
-0.4665354330708662
 21
4.283464566929134
 31
0.0
  0
LINE
  5
324B
330
1E
100
AcDbEntity
  8
3
100
AcDbLine
 10
-1.502952755905511
 20
4.3001968503937
 30
0.0
 11
-1.502952755905511
 21
4.293307086614173
 31
0.0
  0
LINE
  5
324C
330
1E
100
AcDbEntity
  8
3
100
AcDbLine
 10
-1.502952755905511
 20
4.293307086614173
 30
0.0
 11
-1.502952755905511
 21
4.286417322834646
 31
0.0
  0
LINE
  5
324D
330
1E
100
AcDbEntity
  8
3
100
AcDbLine
 10
-1.502952755905511
 20
4.286417322834646
 30
0.0
 11
-1.502952755905511
 21
4.283464566929134
 31
0.0
  0
LINE
  5
324E
330
1E
100
AcDbEntity
  8
3
100
AcDbLine
 10
-1.102362204724409
 20
4.3001968503937
 30
0.0
 11
-1.102362204724409
 21
4.293307086614173
 31
0.0
  0
LINE
  5
324F
330
1E
100
AcDbEntity
  8
3
100
AcDbLine
 10
-1.102362204724409
 20
4.293307086614173
 30
0.0
 11
-1.101377952755905
 21
4.286417322834646
 31
0.0
  0
LINE
  5
3250
330
1E
100
AcDbEntity
  8
3
100
AcDbLine
 10
-1.101377952755905
 20
4.286417322834646
 30
0.0
 11
-1.102362204724409
 21
4.283464566929134
 31
0.0
  0
LINE
  5
3251
330
1E
100
AcDbEntity
  8
3
100
AcDbLine
 10
-0.7844488188976378
 20
4.3001968503937
 30
0.0
 11
-0.7844488188976378
 21
4.293307086614173
 31
0.0
  0
LINE
  5
3252
330
1E
100
AcDbEntity
  8
3
100
AcDbLine
 10
-0.7844488188976378
 20
4.293307086614173
 30
0.0
 11
-0.7844488188976378
 21
4.286417322834646
 31
0.0
  0
LINE
  5
3253
330
1E
100
AcDbEntity
  8
3
100
AcDbLine
 10
-0.7844488188976378
 20
4.286417322834646
 30
0.0
 11
-0.7844488188976378
 21
4.283464566929134
 31
0.0
  0
LINE
  5
3254
330
1E
100
AcDbEntity
  8
3
100
AcDbLine
 10
-0.1279527559055116
 20
4.90255905511811
 30
0.0
 11
-0.0994094488188977
 21
4.898622047244094
 31
0.0
  0
LINE
  5
3255
330
1E
100
AcDbEntity
  8
3
100
AcDbLine
 10
-0.0994094488188977
 20
4.898622047244094
 30
0.0
 11
-0.0738188976377949
 21
4.888779527559055
 31
0.0
  0
LINE
  5
3256
330
1E
100
AcDbEntity
  8
3
100
AcDbLine
 10
-0.042322834645669
 20
4.876968503937008
 30
0.0
 11
-0.0570866141732283
 21
4.893700787401574
 31
0.0
  0
LINE
  5
3257
330
1E
100
AcDbEntity
  8
3
100
AcDbLine
 10
-0.0570866141732283
 20
4.893700787401574
 30
0.0
 11
-0.076771653543307
 21
4.905511811023622
 31
0.0
  0
LINE
  5
3258
330
1E
100
AcDbEntity
  8
3
100
AcDbLine
 10
-0.076771653543307
 20
4.905511811023622
 30
0.0
 11
-0.1013779527559055
 21
4.913385826771653
 31
0.0
  0
LINE
  5
3259
330
1E
100
AcDbEntity
  8
3
100
AcDbLine
 10
-0.1013779527559055
 20
4.913385826771653
 30
0.0
 11
-0.1279527559055116
 21
4.916338582677165
 31
0.0
  0
LINE
  5
325A
330
1E
100
AcDbEntity
  8
3
100
AcDbLine
 10
-0.3868110236220472
 20
4.421259842519685
 30
0.0
 11
-0.3868110236220472
 21
4.418307086614173
 31
0.0
  0
LINE
  5
325B
330
1E
100
AcDbEntity
  8
3
100
AcDbLine
 10
-0.3868110236220472
 20
4.418307086614173
 30
0.0
 11
-0.3858267716535431
 21
4.410433070866141
 31
0.0
  0
LINE
  5
325C
330
1E
100
AcDbEntity
  8
3
100
AcDbLine
 10
-0.3858267716535431
 20
4.410433070866141
 30
0.0
 11
-0.3858267716535431
 21
4.39763779527559
 31
0.0
  0
LINE
  5
325D
330
1E
100
AcDbEntity
  8
3
100
AcDbLine
 10
-0.6092519685039371
 20
4.421259842519685
 30
0.0
 11
-0.6102362204724408
 21
4.418307086614173
 31
0.0
  0
LINE
  5
325E
330
1E
100
AcDbEntity
  8
3
100
AcDbLine
 10
-0.6102362204724408
 20
4.418307086614173
 30
0.0
 11
-0.6102362204724408
 21
4.410433070866141
 31
0.0
  0
LINE
  5
325F
330
1E
100
AcDbEntity
  8
3
100
AcDbLine
 10
-0.6102362204724408
 20
4.410433070866141
 30
0.0
 11
-0.6102362204724408
 21
4.39763779527559
 31
0.0
  0
LINE
  5
3260
330
1E
100
AcDbEntity
  8
3
100
AcDbLine
 10
-0.1279527559055116
 20
4.58759842519685
 30
0.0
 11
-0.1053149606299213
 21
4.58759842519685
 31
0.0
  0
LINE
  5
3261
330
1E
100
AcDbEntity
  8
3
100
AcDbLine
 10
-0.1053149606299213
 20
4.58759842519685
 30
0.0
 11
-0.0836614173228343
 21
4.58759842519685
 31
0.0
  0
LINE
  5
3262
330
1E
100
AcDbEntity
  8
3
100
AcDbLine
 10
-0.0836614173228343
 20
4.58759842519685
 30
0.0
 11
-0.0649606299212597
 21
4.58759842519685
 31
0.0
  0
LINE
  5
3263
330
1E
100
AcDbEntity
  8
3
100
AcDbLine
 10
-0.0649606299212597
 20
4.58759842519685
 30
0.0
 11
-0.0501968503937005
 21
4.58759842519685
 31
0.0
  0
LINE
  5
3264
330
1E
100
AcDbEntity
  8
3
100
AcDbLine
 10
-0.140748031496063
 20
4.576771653543307
 30
0.0
 11
-0.1377952755905509
 21
4.584645669291338
 31
0.0
  0
LINE
  5
3265
330
1E
100
AcDbEntity
  8
3
100
AcDbLine
 10
-0.1377952755905509
 20
4.584645669291338
 30
0.0
 11
-0.1309055118110236
 21
4.58759842519685
 31
0.0
  0
LINE
  5
3266
330
1E
100
AcDbEntity
  8
3
100
AcDbLine
 10
-1.503937007874015
 20
4.90255905511811
 30
0.0
 11
-1.532480314960629
 21
4.898622047244094
 31
0.0
  0
LINE
  5
3267
330
1E
100
AcDbEntity
  8
3
100
AcDbLine
 10
-1.532480314960629
 20
4.898622047244094
 30
0.0
 11
-1.557086614173228
 21
4.888779527559055
 31
0.0
  0
LINE
  5
3268
330
1E
100
AcDbEntity
  8
3
100
AcDbLine
 10
-1.493110236220472
 20
4.371062992125984
 30
0.0
 11
-1.493110236220472
 21
4.389763779527559
 31
0.0
  0
LINE
  5
3269
330
1E
100
AcDbEntity
  8
3
100
AcDbLine
 10
-1.493110236220472
 20
4.389763779527559
 30
0.0
 11
-1.494094488188976
 21
4.406496062992125
 31
0.0
  0
LINE
  5
326A
330
1E
100
AcDbEntity
  8
3
100
AcDbLine
 10
-1.494094488188976
 20
4.406496062992125
 30
0.0
 11
-1.493110236220472
 21
4.417322834645669
 31
0.0
  0
LINE
  5
326B
330
1E
100
AcDbEntity
  8
3
100
AcDbLine
 10
-1.493110236220472
 20
4.417322834645669
 30
0.0
 11
-1.493110236220472
 21
4.421259842519685
 31
0.0
  0
LINE
  5
326C
330
1E
100
AcDbEntity
  8
3
100
AcDbLine
 10
-1.49015748031496
 20
4.434055118110236
 30
0.0
 11
-1.491141732283464
 21
4.424212598425197
 31
0.0
  0
LINE
  5
326D
330
1E
100
AcDbEntity
  8
3
100
AcDbLine
 10
-1.491141732283464
 20
4.424212598425197
 30
0.0
 11
-1.491141732283464
 21
4.421259842519685
 31
0.0
  0
LINE
  5
326E
330
1E
100
AcDbEntity
  8
3
100
AcDbLine
 10
-0.1368110236220472
 20
4.409448818897637
 30
0.0
 11
-0.1338582677165352
 21
4.419291338582677
 31
0.0
  0
LINE
  5
326F
330
1E
100
AcDbEntity
  8
3
100
AcDbLine
 10
-0.1338582677165352
 20
4.419291338582677
 30
0.0
 11
-0.1269685039370079
 21
4.423228346456693
 31
0.0
  0
LINE
  5
3270
330
1E
100
AcDbEntity
  8
3
100
AcDbLine
 10
-0.0501968503937005
 20
4.423228346456693
 30
0.0
 11
-0.042322834645669
 21
4.420275590551181
 31
0.0
  0
LINE
  5
3271
330
1E
100
AcDbEntity
  8
3
100
AcDbLine
 10
-0.042322834645669
 20
4.420275590551181
 30
0.0
 11
-0.0364173228346454
 21
4.411417322834646
 31
0.0
  0
LINE
  5
3272
330
1E
100
AcDbEntity
  8
3
100
AcDbLine
 10
-0.0364173228346454
 20
4.411417322834646
 30
0.0
 11
-0.0344488188976375
 21
4.400590551181102
 31
0.0
  0
LINE
  5
3273
330
1E
100
AcDbEntity
  8
3
100
AcDbLine
 10
-1.494094488188976
 20
4.409448818897637
 30
0.0
 11
-1.497047244094487
 21
4.419291338582677
 31
0.0
  0
LINE
  5
3274
330
1E
100
AcDbEntity
  8
3
100
AcDbLine
 10
-1.497047244094487
 20
4.419291338582677
 30
0.0
 11
-1.503937007874015
 21
4.423228346456693
 31
0.0
  0
LINE
  5
3275
330
1E
100
AcDbEntity
  8
3
100
AcDbLine
 10
-1.581692913385826
 20
4.423228346456693
 30
0.0
 11
-1.589566929133858
 21
4.420275590551181
 31
0.0
  0
LINE
  5
3276
330
1E
100
AcDbEntity
  8
3
100
AcDbLine
 10
-1.589566929133858
 20
4.420275590551181
 30
0.0
 11
-1.594488188976377
 21
4.411417322834646
 31
0.0
  0
LINE
  5
3277
330
1E
100
AcDbEntity
  8
3
100
AcDbLine
 10
-1.594488188976377
 20
4.411417322834646
 30
0.0
 11
-1.597440944881889
 21
4.400590551181102
 31
0.0
  0
LINE
  5
3278
330
1E
100
AcDbEntity
  8
3
100
AcDbLine
 10
-1.244094488188976
 20
4.421259842519685
 30
0.0
 11
-1.24507874015748
 21
4.418307086614173
 31
0.0
  0
LINE
  5
3279
330
1E
100
AcDbEntity
  8
3
100
AcDbLine
 10
-1.24507874015748
 20
4.418307086614173
 30
0.0
 11
-1.246062992125984
 21
4.410433070866141
 31
0.0
  0
LINE
  5
327A
330
1E
100
AcDbEntity
  8
3
100
AcDbLine
 10
-1.246062992125984
 20
4.410433070866141
 30
0.0
 11
-1.24507874015748
 21
4.39763779527559
 31
0.0
  0
LINE
  5
327B
330
1E
100
AcDbEntity
  8
3
100
AcDbLine
 10
-1.02263779527559
 20
4.421259842519685
 30
0.0
 11
-1.021653543307086
 21
4.418307086614173
 31
0.0
  0
LINE
  5
327C
330
1E
100
AcDbEntity
  8
3
100
AcDbLine
 10
-1.021653543307086
 20
4.418307086614173
 30
0.0
 11
-1.020669291338582
 21
4.410433070866141
 31
0.0
  0
LINE
  5
327D
330
1E
100
AcDbEntity
  8
3
100
AcDbLine
 10
-1.020669291338582
 20
4.410433070866141
 30
0.0
 11
-1.020669291338582
 21
4.39763779527559
 31
0.0
  0
LINE
  5
327E
330
1E
100
AcDbEntity
  8
3
100
AcDbLine
 10
-1.569881889763779
 20
4.896653543307087
 30
0.0
 11
-1.551181102362204
 21
4.907480314960629
 31
0.0
  0
LINE
  5
327F
330
1E
100
AcDbEntity
  8
3
100
AcDbLine
 10
-1.551181102362204
 20
4.907480314960629
 30
0.0
 11
-1.528543307086613
 21
4.914370078740157
 31
0.0
  0
LINE
  5
3280
330
1E
100
AcDbEntity
  8
3
100
AcDbLine
 10
-1.502952755905511
 20
4.77755905511811
 30
0.0
 11
-1.494094488188976
 21
4.775590551181102
 31
0.0
  0
LINE
  5
3281
330
1E
100
AcDbEntity
  8
3
100
AcDbLine
 10
-1.494094488188976
 20
4.775590551181102
 30
0.0
 11
-1.491141732283464
 21
4.769685039370078
 31
0.0
  0
LINE
  5
3282
330
1E
100
AcDbEntity
  8
3
100
AcDbLine
 10
-1.491141732283464
 20
4.577755905511811
 30
0.0
 11
-1.494094488188976
 21
4.584645669291338
 31
0.0
  0
LINE
  5
3283
330
1E
100
AcDbEntity
  8
3
100
AcDbLine
 10
-1.494094488188976
 20
4.584645669291338
 30
0.0
 11
-1.500984251968503
 21
4.58759842519685
 31
0.0
  0
LINE
  5
3284
330
1E
100
AcDbEntity
  8
3
100
AcDbLine
 10
-1.503937007874015
 20
4.574803149606299
 30
0.0
 11
-1.503937007874015
 21
4.584645669291338
 31
0.0
  0
LINE
  5
3285
330
1E
100
AcDbEntity
  8
3
100
AcDbLine
 10
-1.503937007874015
 20
4.584645669291338
 30
0.0
 11
-1.502952755905511
 21
4.58759842519685
 31
0.0
  0
LINE
  5
3286
330
1E
100
AcDbEntity
  8
3
100
AcDbLine
 10
-0.1377952755905509
 20
5.676181102362204
 30
0.0
 11
-0.1338582677165352
 21
5.672244094488188
 31
0.0
  0
LINE
  5
3287
330
1E
100
AcDbEntity
  8
3
100
AcDbLine
 10
-0.1338582677165352
 20
5.672244094488188
 30
0.0
 11
-0.1269685039370079
 21
5.670275590551181
 31
0.0
  0
LINE
  5
3288
330
1E
100
AcDbEntity
  8
3
100
AcDbLine
 10
-1.585629921259842
 20
6.024606299212598
 30
0.0
 11
-1.608267716535432
 21
6.034448818897637
 31
0.0
  0
LINE
  5
3289
330
1E
100
AcDbEntity
  8
3
100
AcDbLine
 10
-1.608267716535432
 20
6.034448818897637
 30
0.0
 11
-1.624999999999999
 21
6.048228346456693
 31
0.0
  0
LINE
  5
328A
330
1E
100
AcDbEntity
  8
3
100
AcDbLine
 10
-1.624999999999999
 20
6.048228346456693
 30
0.0
 11
-1.633858267716535
 21
6.065944881889763
 31
0.0
  0
LINE
  5
328B
330
1E
100
AcDbEntity
  8
3
100
AcDbLine
 10
-1.633858267716535
 20
6.065944881889763
 30
0.0
 11
-1.633858267716535
 21
6.083661417322835
 31
0.0
  0
LINE
  5
328C
330
1E
100
AcDbEntity
  8
3
100
AcDbLine
 10
-1.633858267716535
 20
6.083661417322835
 30
0.0
 11
-1.624999999999999
 21
6.101377952755905
 31
0.0
  0
LINE
  5
328D
330
1E
100
AcDbEntity
  8
3
100
AcDbLine
 10
-1.624999999999999
 20
6.101377952755905
 30
0.0
 11
-1.608267716535432
 21
6.115157480314961
 31
0.0
  0
LINE
  5
328E
330
1E
100
AcDbEntity
  8
3
100
AcDbLine
 10
-1.608267716535432
 20
6.115157480314961
 30
0.0
 11
-1.585629921259842
 21
6.125
 31
0.0
  0
LINE
  5
328F
330
1E
100
AcDbEntity
  8
3
100
AcDbLine
 10
-1.585629921259842
 20
6.125
 30
0.0
 11
-1.56003937007874
 21
6.127952755905512
 31
0.0
  0
LINE
  5
3290
330
1E
100
AcDbEntity
  8
3
100
AcDbLine
 10
-0.1368110236220472
 20
5.738188976377952
 30
0.0
 11
-0.1338582677165352
 21
5.738188976377952
 31
0.0
  0
LINE
  5
3291
330
1E
100
AcDbEntity
  8
3
100
AcDbLine
 10
-0.1338582677165352
 20
5.738188976377952
 30
0.0
 11
-0.1289370078740157
 21
5.739173228346456
 31
0.0
  0
LINE
  5
3292
330
1E
100
AcDbEntity
  8
3
100
AcDbLine
 10
-0.1387795275590551
 20
5.738188976377952
 30
0.0
 11
-0.1358267716535431
 21
5.738188976377952
 31
0.0
  0
LINE
  5
3293
330
1E
100
AcDbEntity
  8
3
100
AcDbLine
 10
-0.1358267716535431
 20
5.738188976377952
 30
0.0
 11
-0.1289370078740157
 21
5.739173228346456
 31
0.0
  0
LINE
  5
3294
330
1E
100
AcDbEntity
  8
3
100
AcDbLine
 10
-0.1732283464566926
 20
5.753937007874015
 30
0.0
 11
-0.1732283464566926
 21
5.748031496062992
 31
0.0
  0
LINE
  5
3295
330
1E
100
AcDbEntity
  8
3
100
AcDbLine
 10
-0.1732283464566926
 20
5.748031496062992
 30
0.0
 11
-0.1732283464566926
 21
5.740157480314961
 31
0.0
  0
LINE
  5
3296
330
1E
100
AcDbEntity
  8
3
100
AcDbLine
 10
-0.1732283464566926
 20
5.704724409448819
 30
0.0
 11
-0.1732283464566926
 21
5.695866141732283
 31
0.0
  0
LINE
  5
3297
330
1E
100
AcDbEntity
  8
3
100
AcDbLine
 10
-0.1732283464566926
 20
5.695866141732283
 30
0.0
 11
-0.1732283464566926
 21
5.693897637795275
 31
0.0
  0
LINE
  5
3298
330
1E
100
AcDbEntity
  8
3
100
AcDbLine
 10
-0.1732283464566926
 20
5.693897637795275
 30
0.0
 11
-0.1732283464566926
 21
5.700787401574803
 31
0.0
  0
LINE
  5
3299
330
1E
100
AcDbEntity
  8
3
100
AcDbLine
 10
-0.1732283464566926
 20
5.700787401574803
 30
0.0
 11
-0.1732283464566926
 21
5.714566929133858
 31
0.0
  0
LINE
  5
329A
330
1E
100
AcDbEntity
  8
3
100
AcDbLine
 10
-0.1732283464566926
 20
5.740157480314961
 30
0.0
 11
-0.1732283464566926
 21
5.720472440944882
 31
0.0
  0
LINE
  5
329B
330
1E
100
AcDbEntity
  8
3
100
AcDbLine
 10
-0.1732283464566926
 20
5.720472440944882
 30
0.0
 11
-0.1732283464566926
 21
5.704724409448819
 31
0.0
  0
LINE
  5
329C
330
1E
100
AcDbEntity
  8
3
100
AcDbLine
 10
-0.2027559055118107
 20
5.740157480314961
 30
0.0
 11
-0.2027559055118107
 21
5.719488188976377
 31
0.0
  0
LINE
  5
329D
330
1E
100
AcDbEntity
  8
3
100
AcDbLine
 10
-0.2027559055118107
 20
5.719488188976377
 30
0.0
 11
-0.2027559055118107
 21
5.702755905511811
 31
0.0
  0
LINE
  5
329E
330
1E
100
AcDbEntity
  8
3
100
AcDbLine
 10
-0.2027559055118107
 20
5.702755905511811
 30
0.0
 11
-0.2027559055118107
 21
5.693897637795275
 31
0.0
  0
LINE
  5
329F
330
1E
100
AcDbEntity
  8
3
100
AcDbLine
 10
-0.2027559055118107
 20
5.693897637795275
 30
0.0
 11
-0.2027559055118107
 21
5.695866141732283
 31
0.0
  0
LINE
  5
32A0
330
1E
100
AcDbEntity
  8
3
100
AcDbLine
 10
-0.2027559055118107
 20
5.695866141732283
 30
0.0
 11
-0.2027559055118107
 21
5.706692913385826
 31
0.0
  0
LINE
  5
32A1
330
1E
100
AcDbEntity
  8
3
100
AcDbLine
 10
-0.2027559055118107
 20
5.740157480314961
 30
0.0
 11
-0.2027559055118107
 21
5.748031496062992
 31
0.0
  0
LINE
  5
32A2
330
1E
100
AcDbEntity
  8
3
100
AcDbLine
 10
-0.2027559055118107
 20
5.748031496062992
 30
0.0
 11
-0.2027559055118107
 21
5.753937007874015
 31
0.0
  0
LINE
  5
32A3
330
1E
100
AcDbEntity
  8
3
100
AcDbLine
 10
-0.2027559055118107
 20
5.706692913385826
 30
0.0
 11
-0.2027559055118107
 21
5.699803149606299
 31
0.0
  0
LINE
  5
32A4
330
1E
100
AcDbEntity
  8
3
100
AcDbLine
 10
-0.2027559055118107
 20
5.699803149606299
 30
0.0
 11
-0.2027559055118107
 21
5.706692913385826
 31
0.0
  0
LINE
  5
32A5
330
1E
100
AcDbEntity
  8
3
100
AcDbLine
 10
-0.7913385826771653
 20
6.127952755905512
 30
0.0
 11
-0.8051181102362203
 21
6.124015748031496
 31
0.0
  0
LINE
  5
32A6
330
1E
100
AcDbEntity
  8
3
100
AcDbLine
 10
-0.8051181102362203
 20
6.124015748031496
 30
0.0
 11
-0.811023622047244
 21
6.113188976377952
 31
0.0
  0
LINE
  5
32A7
330
1E
100
AcDbEntity
  8
3
100
AcDbLine
 10
-0.811023622047244
 20
6.113188976377952
 30
0.0
 11
-0.8051181102362203
 21
6.103346456692913
 31
0.0
  0
LINE
  5
32A8
330
1E
100
AcDbEntity
  8
3
100
AcDbLine
 10
-0.8051181102362203
 20
6.103346456692913
 30
0.0
 11
-0.7913385826771653
 21
6.099409448818898
 31
0.0
  0
LINE
  5
32A9
330
1E
100
AcDbEntity
  8
3
100
AcDbLine
 10
-0.1309055118110236
 20
5.986220472440945
 30
0.0
 11
-0.1377952755905509
 21
5.988188976377952
 31
0.0
  0
LINE
  5
32AA
330
1E
100
AcDbEntity
  8
3
100
AcDbLine
 10
-0.1377952755905509
 20
5.988188976377952
 30
0.0
 11
-0.140748031496063
 21
5.993110236220472
 31
0.0
  0
LINE
  5
32AB
330
1E
100
AcDbEntity
  8
3
100
AcDbLine
 10
-1.597440944881889
 20
5.681102362204724
 30
0.0
 11
-1.597440944881889
 21
5.70767716535433
 31
0.0
  0
LINE
  5
32AC
330
1E
100
AcDbEntity
  8
3
100
AcDbLine
 10
-1.597440944881889
 20
5.70767716535433
 30
0.0
 11
-1.597440944881889
 21
5.739173228346456
 31
0.0
  0
LINE
  5
32AD
330
1E
100
AcDbEntity
  8
3
100
AcDbLine
 10
-1.494094488188976
 20
5.676181102362204
 30
0.0
 11
-1.497047244094487
 21
5.672244094488188
 31
0.0
  0
LINE
  5
32AE
330
1E
100
AcDbEntity
  8
3
100
AcDbLine
 10
-1.497047244094487
 20
5.672244094488188
 30
0.0
 11
-1.503937007874015
 21
5.670275590551181
 31
0.0
  0
LINE
  5
32AF
330
1E
100
AcDbEntity
  8
3
100
AcDbLine
 10
-1.494094488188976
 20
5.738188976377952
 30
0.0
 11
-1.498031496062991
 21
5.738188976377952
 31
0.0
  0
LINE
  5
32B0
330
1E
100
AcDbEntity
  8
3
100
AcDbLine
 10
-1.498031496062991
 20
5.738188976377952
 30
0.0
 11
-1.502952755905511
 21
5.739173228346456
 31
0.0
  0
LINE
  5
32B1
330
1E
100
AcDbEntity
  8
3
100
AcDbLine
 10
-1.597440944881889
 20
5.739173228346456
 30
0.0
 11
-1.592519685039369
 21
5.739173228346456
 31
0.0
  0
LINE
  5
32B2
330
1E
100
AcDbEntity
  8
3
100
AcDbLine
 10
-1.592519685039369
 20
5.739173228346456
 30
0.0
 11
-1.581692913385826
 21
5.739173228346456
 31
0.0
  0
LINE
  5
32B3
330
1E
100
AcDbEntity
  8
3
100
AcDbLine
 10
-1.581692913385826
 20
5.739173228346456
 30
0.0
 11
-1.581692913385826
 21
5.701771653543307
 31
0.0
  0
LINE
  5
32B4
330
1E
100
AcDbEntity
  8
3
100
AcDbLine
 10
-1.581692913385826
 20
5.701771653543307
 30
0.0
 11
-1.581692913385826
 21
5.670275590551181
 31
0.0
  0
LINE
  5
32B5
330
1E
100
AcDbEntity
  8
3
100
AcDbLine
 10
-1.597440944881889
 20
5.706692913385826
 30
0.0
 11
-1.597440944881889
 21
5.700787401574803
 31
0.0
  0
LINE
  5
32B6
330
1E
100
AcDbEntity
  8
3
100
AcDbLine
 10
-1.597440944881889
 20
5.700787401574803
 30
0.0
 11
-1.597440944881889
 21
5.695866141732283
 31
0.0
  0
LINE
  5
32B7
330
1E
100
AcDbEntity
  8
3
100
AcDbLine
 10
-1.597440944881889
 20
5.690944881889763
 30
0.0
 11
-1.597440944881889
 21
5.686023622047244
 31
0.0
  0
LINE
  5
32B8
330
1E
100
AcDbEntity
  8
3
100
AcDbLine
 10
-1.597440944881889
 20
5.686023622047244
 30
0.0
 11
-1.597440944881889
 21
5.676181102362204
 31
0.0
  0
LINE
  5
32B9
330
1E
100
AcDbEntity
  8
3
100
AcDbLine
 10
-1.597440944881889
 20
5.676181102362204
 30
0.0
 11
-1.597440944881889
 21
5.671259842519685
 31
0.0
  0
LINE
  5
32BA
330
1E
100
AcDbEntity
  8
3
100
AcDbLine
 10
-1.503937007874015
 20
6.125984251968503
 30
0.0
 11
-1.503937007874015
 21
6.124015748031496
 31
0.0
  0
LINE
  5
32BB
330
1E
100
AcDbEntity
  8
3
100
AcDbLine
 10
-1.503937007874015
 20
6.124015748031496
 30
0.0
 11
-1.503937007874015
 21
6.125984251968503
 31
0.0
  0
LINE
  5
32BC
330
1E
100
AcDbEntity
  8
3
100
AcDbLine
 10
-1.521653543307086
 20
6.303149606299212
 30
0.0
 11
-1.51279527559055
 21
6.297244094488188
 31
0.0
  0
LINE
  5
32BD
330
1E
100
AcDbEntity
  8
3
100
AcDbLine
 10
-1.51279527559055
 20
6.297244094488188
 30
0.0
 11
-1.503937007874015
 21
6.290354330708661
 31
0.0
  0
LINE
  5
32BE
330
1E
100
AcDbEntity
  8
3
100
AcDbLine
 10
-1.503937007874015
 20
6.174212598425197
 30
0.0
 11
-1.539370078740157
 21
6.179133858267716
 31
0.0
  0
LINE
  5
32BF
330
1E
100
AcDbEntity
  8
3
100
AcDbLine
 10
-1.539370078740157
 20
6.179133858267716
 30
0.0
 11
-1.568897637795275
 21
6.192913385826772
 31
0.0
  0
LINE
  5
32C0
330
1E
100
AcDbEntity
  8
3
100
AcDbLine
 10
-1.568897637795275
 20
6.192913385826772
 30
0.0
 11
-1.588582677165354
 21
6.213582677165354
 31
0.0
  0
LINE
  5
32C1
330
1E
100
AcDbEntity
  8
3
100
AcDbLine
 10
-1.588582677165354
 20
6.213582677165354
 30
0.0
 11
-1.595472440944881
 21
6.226377952755905
 31
0.0
  0
LINE
  5
32C2
330
1E
100
AcDbEntity
  8
3
100
AcDbLine
 10
-1.595472440944881
 20
6.226377952755905
 30
0.0
 11
-1.597440944881889
 21
6.240157480314961
 31
0.0
  0
LINE
  5
32C3
330
1E
100
AcDbEntity
  8
3
100
AcDbLine
 10
-1.597440944881889
 20
6.240157480314961
 30
0.0
 11
-1.592519685039369
 21
6.259842519685039
 31
0.0
  0
LINE
  5
32C4
330
1E
100
AcDbEntity
  8
3
100
AcDbLine
 10
-1.592519685039369
 20
6.259842519685039
 30
0.0
 11
-1.579724409448818
 21
6.27755905511811
 31
0.0
  0
LINE
  5
32C5
330
1E
100
AcDbEntity
  8
3
100
AcDbLine
 10
-1.579724409448818
 20
6.27755905511811
 30
0.0
 11
-1.559055118110236
 21
6.292322834645669
 31
0.0
  0
LINE
  5
32C6
330
1E
100
AcDbEntity
  8
3
100
AcDbLine
 10
-1.559055118110236
 20
6.292322834645669
 30
0.0
 11
-1.532480314960629
 21
6.301181102362204
 31
0.0
  0
LINE
  5
32C7
330
1E
100
AcDbEntity
  8
3
100
AcDbLine
 10
-1.532480314960629
 20
6.301181102362204
 30
0.0
 11
-1.503937007874015
 21
6.304133858267716
 31
0.0
  0
LINE
  5
32C8
330
1E
100
AcDbEntity
  8
3
100
AcDbLine
 10
-1.503937007874015
 20
6.224409448818898
 30
0.0
 11
-1.503937007874015
 21
6.253937007874015
 31
0.0
  0
LINE
  5
32C9
330
1E
100
AcDbEntity
  8
3
100
AcDbLine
 10
-1.503937007874015
 20
6.253937007874015
 30
0.0
 11
-1.503937007874015
 21
6.281496062992125
 31
0.0
  0
LINE
  5
32CA
330
1E
100
AcDbEntity
  8
3
100
AcDbLine
 10
-1.503937007874015
 20
6.281496062992125
 30
0.0
 11
-1.503937007874015
 21
6.304133858267716
 31
0.0
  0
LINE
  5
32CB
330
1E
100
AcDbEntity
  8
3
100
AcDbLine
 10
-1.503937007874015
 20
6.174212598425197
 30
0.0
 11
-1.503937007874015
 21
6.197834645669291
 31
0.0
  0
LINE
  5
32CC
330
1E
100
AcDbEntity
  8
3
100
AcDbLine
 10
-1.503937007874015
 20
6.197834645669291
 30
0.0
 11
-1.503937007874015
 21
6.224409448818898
 31
0.0
  0
LINE
  5
32CD
330
1E
100
AcDbEntity
  8
3
100
AcDbLine
 10
-1.56003937007874
 20
6.127952755905512
 30
0.0
 11
-1.56003937007874
 21
6.113188976377952
 31
0.0
  0
LINE
  5
32CE
330
1E
100
AcDbEntity
  8
3
100
AcDbLine
 10
-1.56003937007874
 20
6.113188976377952
 30
0.0
 11
-1.56003937007874
 21
6.099409448818898
 31
0.0
  0
LINE
  5
32CF
330
1E
100
AcDbEntity
  8
3
100
AcDbLine
 10
-0.1279527559055116
 20
6.125984251968503
 30
0.0
 11
-0.1279527559055116
 21
6.124015748031496
 31
0.0
  0
LINE
  5
32D0
330
1E
100
AcDbEntity
  8
3
100
AcDbLine
 10
-0.1279527559055116
 20
6.124015748031496
 30
0.0
 11
-0.1279527559055116
 21
6.125984251968503
 31
0.0
  0
LINE
  5
32D1
330
1E
100
AcDbEntity
  8
3
100
AcDbLine
 10
-0.0344488188976375
 20
5.681102362204724
 30
0.0
 11
-0.0344488188976375
 21
5.70767716535433
 31
0.0
  0
LINE
  5
32D2
330
1E
100
AcDbEntity
  8
3
100
AcDbLine
 10
-0.0344488188976375
 20
5.70767716535433
 30
0.0
 11
-0.0344488188976375
 21
5.739173228346456
 31
0.0
  0
LINE
  5
32D3
330
1E
100
AcDbEntity
  8
3
100
AcDbLine
 10
-0.1102362204724407
 20
6.303149606299212
 30
0.0
 11
-0.1190944881889764
 21
6.297244094488188
 31
0.0
  0
LINE
  5
32D4
330
1E
100
AcDbEntity
  8
3
100
AcDbLine
 10
-0.1190944881889764
 20
6.297244094488188
 30
0.0
 11
-0.1279527559055116
 21
6.290354330708661
 31
0.0
  0
LINE
  5
32D5
330
1E
100
AcDbEntity
  8
3
100
AcDbLine
 10
-0.8366141732283463
 20
6.126968503937008
 30
0.0
 11
-0.838582677165354
 21
6.125984251968503
 31
0.0
  0
LINE
  5
32D6
330
1E
100
AcDbEntity
  8
3
100
AcDbLine
 10
-0.838582677165354
 20
6.125984251968503
 30
0.0
 11
-0.840551181102362
 21
6.124015748031496
 31
0.0
  0
LINE
  5
32D7
330
1E
100
AcDbEntity
  8
3
100
AcDbLine
 10
-0.7283464566929135
 20
5.76279527559055
 30
0.0
 11
-0.7283464566929135
 21
5.744094488188976
 31
0.0
  0
LINE
  5
32D8
330
1E
100
AcDbEntity
  8
3
100
AcDbLine
 10
-0.7283464566929135
 20
5.744094488188976
 30
0.0
 11
-0.7283464566929135
 21
5.723425196850393
 31
0.0
  0
LINE
  5
32D9
330
1E
100
AcDbEntity
  8
3
100
AcDbLine
 10
-0.7283464566929135
 20
5.723425196850393
 30
0.0
 11
-0.7283464566929135
 21
5.706692913385826
 31
0.0
  0
LINE
  5
32DA
330
1E
100
AcDbEntity
  8
3
100
AcDbLine
 10
-0.7283464566929135
 20
5.706692913385826
 30
0.0
 11
-0.7283464566929135
 21
5.695866141732283
 31
0.0
  0
LINE
  5
32DB
330
1E
100
AcDbEntity
  8
3
100
AcDbLine
 10
-0.7283464566929135
 20
5.695866141732283
 30
0.0
 11
-0.7283464566929135
 21
5.693897637795275
 31
0.0
  0
LINE
  5
32DC
330
1E
100
AcDbEntity
  8
3
100
AcDbLine
 10
-0.1377952755905509
 20
5.676181102362204
 30
0.0
 11
-0.1338582677165352
 21
5.672244094488188
 31
0.0
  0
LINE
  5
32DD
330
1E
100
AcDbEntity
  8
3
100
AcDbLine
 10
-0.1338582677165352
 20
5.672244094488188
 30
0.0
 11
-0.1269685039370079
 21
5.670275590551181
 31
0.0
  0
LINE
  5
32DE
330
1E
100
AcDbEntity
  8
3
100
AcDbLine
 10
-0.1368110236220472
 20
5.738188976377952
 30
0.0
 11
-0.1338582677165352
 21
5.738188976377952
 31
0.0
  0
LINE
  5
32DF
330
1E
100
AcDbEntity
  8
3
100
AcDbLine
 10
-0.1338582677165352
 20
5.738188976377952
 30
0.0
 11
-0.1289370078740157
 21
5.739173228346456
 31
0.0
  0
LINE
  5
32E0
330
1E
100
AcDbEntity
  8
3
100
AcDbLine
 10
-0.0344488188976375
 20
5.739173228346456
 30
0.0
 11
-0.0393700787401574
 21
5.739173228346456
 31
0.0
  0
LINE
  5
32E1
330
1E
100
AcDbEntity
  8
3
100
AcDbLine
 10
-0.0393700787401574
 20
5.739173228346456
 30
0.0
 11
-0.0501968503937005
 21
5.739173228346456
 31
0.0
  0
LINE
  5
32E2
330
1E
100
AcDbEntity
  8
3
100
AcDbLine
 10
-0.0501968503937005
 20
5.739173228346456
 30
0.0
 11
-0.0501968503937005
 21
5.701771653543307
 31
0.0
  0
LINE
  5
32E3
330
1E
100
AcDbEntity
  8
3
100
AcDbLine
 10
-0.0501968503937005
 20
5.701771653543307
 30
0.0
 11
-0.0501968503937005
 21
5.670275590551181
 31
0.0
  0
LINE
  5
32E4
330
1E
100
AcDbEntity
  8
3
100
AcDbLine
 10
-0.1279527559055116
 20
6.174212598425197
 30
0.0
 11
-0.0925196850393699
 21
6.179133858267716
 31
0.0
  0
LINE
  5
32E5
330
1E
100
AcDbEntity
  8
3
100
AcDbLine
 10
-0.0925196850393699
 20
6.179133858267716
 30
0.0
 11
-0.0629921259842519
 21
6.192913385826772
 31
0.0
  0
LINE
  5
32E6
330
1E
100
AcDbEntity
  8
3
100
AcDbLine
 10
-0.0629921259842519
 20
6.192913385826772
 30
0.0
 11
-0.042322834645669
 21
6.213582677165354
 31
0.0
  0
LINE
  5
32E7
330
1E
100
AcDbEntity
  8
3
100
AcDbLine
 10
-0.042322834645669
 20
6.213582677165354
 30
0.0
 11
-0.0364173228346454
 21
6.226377952755905
 31
0.0
  0
LINE
  5
32E8
330
1E
100
AcDbEntity
  8
3
100
AcDbLine
 10
-0.0364173228346454
 20
6.226377952755905
 30
0.0
 11
-0.0344488188976375
 21
6.240157480314961
 31
0.0
  0
LINE
  5
32E9
330
1E
100
AcDbEntity
  8
3
100
AcDbLine
 10
-0.0344488188976375
 20
6.240157480314961
 30
0.0
 11
-0.0393700787401574
 21
6.259842519685039
 31
0.0
  0
LINE
  5
32EA
330
1E
100
AcDbEntity
  8
3
100
AcDbLine
 10
-0.0393700787401574
 20
6.259842519685039
 30
0.0
 11
-0.0521653543307084
 21
6.27755905511811
 31
0.0
  0
LINE
  5
32EB
330
1E
100
AcDbEntity
  8
3
100
AcDbLine
 10
-0.0521653543307084
 20
6.27755905511811
 30
0.0
 11
-0.0728346456692912
 21
6.292322834645669
 31
0.0
  0
LINE
  5
32EC
330
1E
100
AcDbEntity
  8
3
100
AcDbLine
 10
-0.0728346456692912
 20
6.292322834645669
 30
0.0
 11
-0.0984251968503935
 21
6.301181102362204
 31
0.0
  0
LINE
  5
32ED
330
1E
100
AcDbEntity
  8
3
100
AcDbLine
 10
-0.0344488188976375
 20
5.960629921259842
 30
0.0
 11
-0.0344488188976375
 21
5.956692913385826
 31
0.0
  0
LINE
  5
32EE
330
1E
100
AcDbEntity
  8
3
100
AcDbLine
 10
-0.0344488188976375
 20
5.956692913385826
 30
0.0
 11
-0.0344488188976375
 21
5.945866141732283
 31
0.0
  0
LINE
  5
32EF
330
1E
100
AcDbEntity
  8
3
100
AcDbLine
 10
-0.0344488188976375
 20
5.898622047244094
 30
0.0
 11
-0.0344488188976375
 21
5.893700787401574
 31
0.0
  0
LINE
  5
32F0
330
1E
100
AcDbEntity
  8
3
100
AcDbLine
 10
-0.0344488188976375
 20
5.893700787401574
 30
0.0
 11
-0.0344488188976375
 21
5.888779527559055
 31
0.0
  0
LINE
  5
32F1
330
1E
100
AcDbEntity
  8
3
100
AcDbLine
 10
-0.0344488188976375
 20
5.706692913385826
 30
0.0
 11
-0.0344488188976375
 21
5.700787401574803
 31
0.0
  0
LINE
  5
32F2
330
1E
100
AcDbEntity
  8
3
100
AcDbLine
 10
-0.0344488188976375
 20
5.700787401574803
 30
0.0
 11
-0.0344488188976375
 21
5.695866141732283
 31
0.0
  0
LINE
  5
32F3
330
1E
100
AcDbEntity
  8
3
100
AcDbLine
 10
-0.0344488188976375
 20
5.690944881889763
 30
0.0
 11
-0.0344488188976375
 21
5.686023622047244
 31
0.0
  0
LINE
  5
32F4
330
1E
100
AcDbEntity
  8
3
100
AcDbLine
 10
-0.0344488188976375
 20
5.686023622047244
 30
0.0
 11
-0.0344488188976375
 21
5.676181102362204
 31
0.0
  0
LINE
  5
32F5
330
1E
100
AcDbEntity
  8
3
100
AcDbLine
 10
-0.0344488188976375
 20
5.676181102362204
 30
0.0
 11
-0.0344488188976375
 21
5.671259842519685
 31
0.0
  0
LINE
  5
32F6
330
1E
100
AcDbEntity
  8
3
100
AcDbLine
 10
-1.503937007874015
 20
6.125984251968503
 30
0.0
 11
-1.503937007874015
 21
6.124015748031496
 31
0.0
  0
LINE
  5
32F7
330
1E
100
AcDbEntity
  8
3
100
AcDbLine
 10
-1.503937007874015
 20
6.124015748031496
 30
0.0
 11
-1.503937007874015
 21
6.125984251968503
 31
0.0
  0
LINE
  5
32F8
330
1E
100
AcDbEntity
  8
3
100
AcDbLine
 10
-0.9035433070866139
 20
5.75
 30
0.0
 11
-0.9035433070866139
 21
5.727362204724409
 31
0.0
  0
LINE
  5
32F9
330
1E
100
AcDbEntity
  8
3
100
AcDbLine
 10
-0.9035433070866139
 20
5.727362204724409
 30
0.0
 11
-0.9035433070866139
 21
5.706692913385826
 31
0.0
  0
LINE
  5
32FA
330
1E
100
AcDbEntity
  8
3
100
AcDbLine
 10
-0.9035433070866139
 20
5.706692913385826
 30
0.0
 11
-0.9035433070866139
 21
5.695866141732283
 31
0.0
  0
LINE
  5
32FB
330
1E
100
AcDbEntity
  8
3
100
AcDbLine
 10
-0.9035433070866139
 20
5.695866141732283
 30
0.0
 11
-0.9035433070866139
 21
5.693897637795275
 31
0.0
  0
LINE
  5
32FC
330
1E
100
AcDbEntity
  8
3
100
AcDbLine
 10
-1.500984251968503
 20
5.986220472440945
 30
0.0
 11
-1.494094488188976
 21
5.988188976377952
 31
0.0
  0
LINE
  5
32FD
330
1E
100
AcDbEntity
  8
3
100
AcDbLine
 10
-1.494094488188976
 20
5.988188976377952
 30
0.0
 11
-1.491141732283464
 21
5.993110236220472
 31
0.0
  0
LINE
  5
32FE
330
1E
100
AcDbEntity
  8
3
100
AcDbLine
 10
-1.494094488188976
 20
5.676181102362204
 30
0.0
 11
-1.497047244094487
 21
5.672244094488188
 31
0.0
  0
LINE
  5
32FF
330
1E
100
AcDbEntity
  8
3
100
AcDbLine
 10
-1.497047244094487
 20
5.672244094488188
 30
0.0
 11
-1.503937007874015
 21
5.670275590551181
 31
0.0
  0
LINE
  5
3300
330
1E
100
AcDbEntity
  8
3
100
AcDbLine
 10
-1.493110236220472
 20
5.738188976377952
 30
0.0
 11
-1.496062992125984
 21
5.738188976377952
 31
0.0
  0
LINE
  5
3301
330
1E
100
AcDbEntity
  8
3
100
AcDbLine
 10
-1.496062992125984
 20
5.738188976377952
 30
0.0
 11
-1.502952755905511
 21
5.739173228346456
 31
0.0
  0
LINE
  5
3302
330
1E
100
AcDbEntity
  8
3
100
AcDbLine
 10
-1.597440944881889
 20
5.681102362204724
 30
0.0
 11
-1.592519685039369
 21
5.673228346456693
 31
0.0
  0
LINE
  5
3303
330
1E
100
AcDbEntity
  8
3
100
AcDbLine
 10
-1.592519685039369
 20
5.673228346456693
 30
0.0
 11
-1.581692913385826
 21
5.670275590551181
 31
0.0
  0
LINE
  5
3304
330
1E
100
AcDbEntity
  8
3
100
AcDbLine
 10
-0.1279527559055116
 20
6.174212598425197
 30
0.0
 11
-0.1279527559055116
 21
6.197834645669291
 31
0.0
  0
LINE
  5
3305
330
1E
100
AcDbEntity
  8
3
100
AcDbLine
 10
-0.1279527559055116
 20
6.197834645669291
 30
0.0
 11
-0.1279527559055116
 21
6.224409448818898
 31
0.0
  0
LINE
  5
3306
330
1E
100
AcDbEntity
  8
3
100
AcDbLine
 10
-0.1279527559055116
 20
6.224409448818898
 30
0.0
 11
-0.1279527559055116
 21
6.253937007874015
 31
0.0
  0
LINE
  5
3307
330
1E
100
AcDbEntity
  8
3
100
AcDbLine
 10
-0.1279527559055116
 20
6.253937007874015
 30
0.0
 11
-0.1279527559055116
 21
6.281496062992125
 31
0.0
  0
LINE
  5
3308
330
1E
100
AcDbEntity
  8
3
100
AcDbLine
 10
-0.1279527559055116
 20
6.281496062992125
 30
0.0
 11
-0.1279527559055116
 21
6.304133858267716
 31
0.0
  0
LINE
  5
3309
330
1E
100
AcDbEntity
  8
3
100
AcDbLine
 10
-1.503937007874015
 20
6.174212598425197
 30
0.0
 11
-1.538385826771653
 21
6.179133858267716
 31
0.0
  0
LINE
  5
330A
330
1E
100
AcDbEntity
  8
3
100
AcDbLine
 10
-1.538385826771653
 20
6.179133858267716
 30
0.0
 11
-1.567913385826771
 21
6.191929133858267
 31
0.0
  0
LINE
  5
330B
330
1E
100
AcDbEntity
  8
3
100
AcDbLine
 10
-1.503937007874015
 20
6.174212598425197
 30
0.0
 11
-1.503937007874015
 21
6.197834645669291
 31
0.0
  0
LINE
  5
330C
330
1E
100
AcDbEntity
  8
3
100
AcDbLine
 10
-1.503937007874015
 20
6.197834645669291
 30
0.0
 11
-1.503937007874015
 21
6.224409448818898
 31
0.0
  0
LINE
  5
330D
330
1E
100
AcDbEntity
  8
3
100
AcDbLine
 10
-1.503937007874015
 20
6.224409448818898
 30
0.0
 11
-1.503937007874015
 21
6.253937007874015
 31
0.0
  0
LINE
  5
330E
330
1E
100
AcDbEntity
  8
3
100
AcDbLine
 10
-1.503937007874015
 20
6.253937007874015
 30
0.0
 11
-1.503937007874015
 21
6.281496062992125
 31
0.0
  0
LINE
  5
330F
330
1E
100
AcDbEntity
  8
3
100
AcDbLine
 10
-0.811023622047244
 20
5.774606299212598
 30
0.0
 11
-0.8090551181102361
 21
5.767716535433071
 31
0.0
  0
LINE
  5
3310
330
1E
100
AcDbEntity
  8
3
100
AcDbLine
 10
-0.8090551181102361
 20
5.767716535433071
 30
0.0
 11
-0.8031496062992125
 21
5.76279527559055
 31
0.0
  0
LINE
  5
3311
330
1E
100
AcDbEntity
  8
3
100
AcDbLine
 10
0.002952755905512
 20
6.083661417322835
 30
0.0
 11
-0.0068897637795273
 21
6.101377952755905
 31
0.0
  0
LINE
  5
3312
330
1E
100
AcDbEntity
  8
3
100
AcDbLine
 10
-0.0068897637795273
 20
6.101377952755905
 30
0.0
 11
-0.0236220472440945
 21
6.115157480314961
 31
0.0
  0
LINE
  5
3313
330
1E
100
AcDbEntity
  8
3
100
AcDbLine
 10
-0.0236220472440945
 20
6.115157480314961
 30
0.0
 11
-0.045275590551181
 21
6.125
 31
0.0
  0
LINE
  5
3314
330
1E
100
AcDbEntity
  8
3
100
AcDbLine
 10
-0.045275590551181
 20
6.125
 30
0.0
 11
-0.0718503937007871
 21
6.127952755905512
 31
0.0
  0
LINE
  5
3315
330
1E
100
AcDbEntity
  8
3
100
AcDbLine
 10
-0.0718503937007871
 20
6.127952755905512
 30
0.0
 11
-0.0718503937007871
 21
6.113188976377952
 31
0.0
  0
LINE
  5
3316
330
1E
100
AcDbEntity
  8
3
100
AcDbLine
 10
-0.0718503937007871
 20
6.113188976377952
 30
0.0
 11
-0.0718503937007871
 21
6.099409448818898
 31
0.0
  0
LINE
  5
3317
330
1E
100
AcDbEntity
  8
3
100
AcDbLine
 10
-0.0718503937007871
 20
6.099409448818898
 30
0.0
 11
-0.0501968503937005
 21
6.096456692913386
 31
0.0
  0
LINE
  5
3318
330
1E
100
AcDbEntity
  8
3
100
AcDbLine
 10
-0.0501968503937005
 20
6.096456692913386
 30
0.0
 11
-0.0324803149606297
 21
6.088582677165354
 31
0.0
  0
LINE
  5
3319
330
1E
100
AcDbEntity
  8
3
100
AcDbLine
 10
-0.0324803149606297
 20
6.088582677165354
 30
0.0
 11
-0.0206692913385824
 21
6.075787401574803
 31
0.0
  0
LINE
  5
331A
330
1E
100
AcDbEntity
  8
3
100
AcDbLine
 10
-0.0206692913385824
 20
6.075787401574803
 30
0.0
 11
-0.0167322834645667
 21
6.061023622047244
 31
0.0
  0
LINE
  5
331B
330
1E
100
AcDbEntity
  8
3
100
AcDbLine
 10
-0.0167322834645667
 20
6.061023622047244
 30
0.0
 11
-0.0206692913385824
 21
6.045275590551181
 31
0.0
  0
LINE
  5
331C
330
1E
100
AcDbEntity
  8
3
100
AcDbLine
 10
-0.0206692913385824
 20
6.045275590551181
 30
0.0
 11
-0.0324803149606297
 21
6.033464566929134
 31
0.0
  0
LINE
  5
331D
330
1E
100
AcDbEntity
  8
3
100
AcDbLine
 10
-0.0324803149606297
 20
6.033464566929134
 30
0.0
 11
-0.0501968503937005
 21
6.024606299212598
 31
0.0
  0
LINE
  5
331E
330
1E
100
AcDbEntity
  8
3
100
AcDbLine
 10
-0.0501968503937005
 20
6.024606299212598
 30
0.0
 11
-0.0718503937007871
 21
6.021653543307087
 31
0.0
  0
LINE
  5
331F
330
1E
100
AcDbEntity
  8
3
100
AcDbLine
 10
-0.0718503937007871
 20
6.021653543307087
 30
0.0
 11
-0.045275590551181
 21
6.024606299212598
 31
0.0
  0
LINE
  5
3320
330
1E
100
AcDbEntity
  8
3
100
AcDbLine
 10
-0.045275590551181
 20
6.024606299212598
 30
0.0
 11
-0.0236220472440945
 21
6.034448818897637
 31
0.0
  0
LINE
  5
3321
330
1E
100
AcDbEntity
  8
3
100
AcDbLine
 10
-0.0236220472440945
 20
6.034448818897637
 30
0.0
 11
-0.0068897637795273
 21
6.048228346456693
 31
0.0
  0
LINE
  5
3322
330
1E
100
AcDbEntity
  8
3
100
AcDbLine
 10
-0.0068897637795273
 20
6.048228346456693
 30
0.0
 11
0.002952755905512
 21
6.065944881889763
 31
0.0
  0
LINE
  5
3323
330
1E
100
AcDbEntity
  8
3
100
AcDbLine
 10
0.002952755905512
 20
6.065944881889763
 30
0.0
 11
0.002952755905512
 21
6.083661417322835
 31
0.0
  0
LINE
  5
3324
330
1E
100
AcDbEntity
  8
3
100
AcDbLine
 10
-0.1230314960629921
 20
6.021653543307087
 30
0.0
 11
-0.1476377952755903
 21
6.016732283464566
 31
0.0
  0
LINE
  5
3325
330
1E
100
AcDbEntity
  8
3
100
AcDbLine
 10
-0.1476377952755903
 20
6.016732283464566
 30
0.0
 11
-0.1663385826771653
 21
6.003937007874015
 31
0.0
  0
LINE
  5
3326
330
1E
100
AcDbEntity
  8
3
100
AcDbLine
 10
-0.1663385826771653
 20
6.003937007874015
 30
0.0
 11
-0.1732283464566926
 21
5.986220472440945
 31
0.0
  0
LINE
  5
3327
330
1E
100
AcDbEntity
  8
3
100
AcDbLine
 10
-0.7283464566929135
 20
5.740157480314961
 30
0.0
 11
-0.7283464566929135
 21
5.748031496062992
 31
0.0
  0
LINE
  5
3328
330
1E
100
AcDbEntity
  8
3
100
AcDbLine
 10
-0.7283464566929135
 20
5.748031496062992
 30
0.0
 11
-0.7283464566929135
 21
5.753937007874015
 31
0.0
  0
LINE
  5
3329
330
1E
100
AcDbEntity
  8
3
100
AcDbLine
 10
-0.6781496062992125
 20
5.706692913385826
 30
0.0
 11
-0.6781496062992125
 21
5.699803149606299
 31
0.0
  0
LINE
  5
332A
330
1E
100
AcDbEntity
  8
3
100
AcDbLine
 10
-0.6781496062992125
 20
5.699803149606299
 30
0.0
 11
-0.6781496062992125
 21
5.701771653543307
 31
0.0
  0
LINE
  5
332B
330
1E
100
AcDbEntity
  8
3
100
AcDbLine
 10
-0.6781496062992125
 20
5.701771653543307
 30
0.0
 11
-0.6781496062992125
 21
5.711614173228346
 31
0.0
  0
LINE
  5
332C
330
1E
100
AcDbEntity
  8
3
100
AcDbLine
 10
-0.6781496062992125
 20
5.740157480314961
 30
0.0
 11
-0.6781496062992125
 21
5.748031496062992
 31
0.0
  0
LINE
  5
332D
330
1E
100
AcDbEntity
  8
3
100
AcDbLine
 10
-0.6781496062992125
 20
5.748031496062992
 30
0.0
 11
-0.6781496062992125
 21
5.753937007874015
 31
0.0
  0
LINE
  5
332E
330
1E
100
AcDbEntity
  8
3
100
AcDbLine
 10
-0.7283464566929135
 20
5.740157480314961
 30
0.0
 11
-0.7283464566929135
 21
5.720472440944882
 31
0.0
  0
LINE
  5
332F
330
1E
100
AcDbEntity
  8
3
100
AcDbLine
 10
-0.7283464566929135
 20
5.720472440944882
 30
0.0
 11
-0.7283464566929135
 21
5.705708661417323
 31
0.0
  0
LINE
  5
3330
330
1E
100
AcDbEntity
  8
3
100
AcDbLine
 10
-0.7283464566929135
 20
5.705708661417323
 30
0.0
 11
-0.7283464566929135
 21
5.695866141732283
 31
0.0
  0
LINE
  5
3331
330
1E
100
AcDbEntity
  8
3
100
AcDbLine
 10
-0.7283464566929135
 20
5.695866141732283
 30
0.0
 11
-0.7283464566929135
 21
5.693897637795275
 31
0.0
  0
LINE
  5
3332
330
1E
100
AcDbEntity
  8
3
100
AcDbLine
 10
-0.7283464566929135
 20
5.693897637795275
 30
0.0
 11
-0.7283464566929135
 21
5.700787401574803
 31
0.0
  0
LINE
  5
3333
330
1E
100
AcDbEntity
  8
3
100
AcDbLine
 10
-0.7283464566929135
 20
5.700787401574803
 30
0.0
 11
-0.7283464566929135
 21
5.714566929133858
 31
0.0
  0
LINE
  5
3334
330
1E
100
AcDbEntity
  8
3
100
AcDbLine
 10
-0.6781496062992125
 20
5.740157480314961
 30
0.0
 11
-0.6781496062992125
 21
5.720472440944882
 31
0.0
  0
LINE
  5
3335
330
1E
100
AcDbEntity
  8
3
100
AcDbLine
 10
-0.6781496062992125
 20
5.720472440944882
 30
0.0
 11
-0.6781496062992125
 21
5.705708661417323
 31
0.0
  0
LINE
  5
3336
330
1E
100
AcDbEntity
  8
3
100
AcDbLine
 10
-0.6781496062992125
 20
5.705708661417323
 30
0.0
 11
-0.6781496062992125
 21
5.695866141732283
 31
0.0
  0
LINE
  5
3337
330
1E
100
AcDbEntity
  8
3
100
AcDbLine
 10
-0.6781496062992125
 20
5.695866141732283
 30
0.0
 11
-0.6781496062992125
 21
5.693897637795275
 31
0.0
  0
LINE
  5
3338
330
1E
100
AcDbEntity
  8
3
100
AcDbLine
 10
-0.6781496062992125
 20
5.693897637795275
 30
0.0
 11
-0.6781496062992125
 21
5.700787401574803
 31
0.0
  0
LINE
  5
3339
330
1E
100
AcDbEntity
  8
3
100
AcDbLine
 10
-0.6781496062992125
 20
5.700787401574803
 30
0.0
 11
-0.6781496062992125
 21
5.714566929133858
 31
0.0
  0
LINE
  5
333A
330
1E
100
AcDbEntity
  8
3
100
AcDbLine
 10
-0.840551181102362
 20
6.127952755905512
 30
0.0
 11
-0.826771653543307
 21
6.124015748031496
 31
0.0
  0
LINE
  5
333B
330
1E
100
AcDbEntity
  8
3
100
AcDbLine
 10
-0.826771653543307
 20
6.124015748031496
 30
0.0
 11
-0.8208661417322833
 21
6.113188976377952
 31
0.0
  0
LINE
  5
333C
330
1E
100
AcDbEntity
  8
3
100
AcDbLine
 10
-0.8208661417322833
 20
6.113188976377952
 30
0.0
 11
-0.826771653543307
 21
6.103346456692913
 31
0.0
  0
LINE
  5
333D
330
1E
100
AcDbEntity
  8
3
100
AcDbLine
 10
-0.826771653543307
 20
6.103346456692913
 30
0.0
 11
-0.840551181102362
 21
6.099409448818898
 31
0.0
  0
LINE
  5
333E
330
1E
100
AcDbEntity
  8
3
100
AcDbLine
 10
-1.56003937007874
 20
6.127952755905512
 30
0.0
 11
-1.56003937007874
 21
6.113188976377952
 31
0.0
  0
LINE
  5
333F
330
1E
100
AcDbEntity
  8
3
100
AcDbLine
 10
-1.56003937007874
 20
6.113188976377952
 30
0.0
 11
-1.56003937007874
 21
6.099409448818898
 31
0.0
  0
LINE
  5
3340
330
1E
100
AcDbEntity
  8
3
100
AcDbLine
 10
-1.484251968503936
 20
6.016732283464566
 30
0.0
 11
-1.465551181102362
 21
6.003937007874015
 31
0.0
  0
LINE
  5
3341
330
1E
100
AcDbEntity
  8
3
100
AcDbLine
 10
-1.465551181102362
 20
6.003937007874015
 30
0.0
 11
-1.458661417322834
 21
5.986220472440945
 31
0.0
  0
LINE
  5
3342
330
1E
100
AcDbEntity
  8
3
100
AcDbLine
 10
-1.56003937007874
 20
6.099409448818898
 30
0.0
 11
-1.581692913385826
 21
6.096456692913386
 31
0.0
  0
LINE
  5
3343
330
1E
100
AcDbEntity
  8
3
100
AcDbLine
 10
-1.581692913385826
 20
6.096456692913386
 30
0.0
 11
-1.599409448818897
 21
6.08759842519685
 31
0.0
  0
LINE
  5
3344
330
1E
100
AcDbEntity
  8
3
100
AcDbLine
 10
-1.599409448818897
 20
6.08759842519685
 30
0.0
 11
-1.611220472440944
 21
6.075787401574803
 31
0.0
  0
LINE
  5
3345
330
1E
100
AcDbEntity
  8
3
100
AcDbLine
 10
-1.611220472440944
 20
6.075787401574803
 30
0.0
 11
-1.61515748031496
 21
6.06003937007874
 31
0.0
  0
LINE
  5
3346
330
1E
100
AcDbEntity
  8
3
100
AcDbLine
 10
-1.61515748031496
 20
6.06003937007874
 30
0.0
 11
-1.611220472440944
 21
6.045275590551181
 31
0.0
  0
LINE
  5
3347
330
1E
100
AcDbEntity
  8
3
100
AcDbLine
 10
-1.611220472440944
 20
6.045275590551181
 30
0.0
 11
-1.599409448818897
 21
6.033464566929134
 31
0.0
  0
LINE
  5
3348
330
1E
100
AcDbEntity
  8
3
100
AcDbLine
 10
-1.599409448818897
 20
6.033464566929134
 30
0.0
 11
-1.581692913385826
 21
6.024606299212598
 31
0.0
  0
LINE
  5
3349
330
1E
100
AcDbEntity
  8
3
100
AcDbLine
 10
-1.581692913385826
 20
6.024606299212598
 30
0.0
 11
-1.56003937007874
 21
6.021653543307087
 31
0.0
  0
LINE
  5
334A
330
1E
100
AcDbEntity
  8
3
100
AcDbLine
 10
-0.9035433070866139
 20
5.740157480314961
 30
0.0
 11
-0.9035433070866139
 21
5.748031496062992
 31
0.0
  0
LINE
  5
334B
330
1E
100
AcDbEntity
  8
3
100
AcDbLine
 10
-0.9035433070866139
 20
5.748031496062992
 30
0.0
 11
-0.9035433070866139
 21
5.753937007874015
 31
0.0
  0
LINE
  5
334C
330
1E
100
AcDbEntity
  8
3
100
AcDbLine
 10
-0.9537401574803148
 20
5.740157480314961
 30
0.0
 11
-0.9537401574803148
 21
5.748031496062992
 31
0.0
  0
LINE
  5
334D
330
1E
100
AcDbEntity
  8
3
100
AcDbLine
 10
-0.9537401574803148
 20
5.748031496062992
 30
0.0
 11
-0.9537401574803148
 21
5.753937007874015
 31
0.0
  0
LINE
  5
334E
330
1E
100
AcDbEntity
  8
3
100
AcDbLine
 10
-0.9035433070866139
 20
5.740157480314961
 30
0.0
 11
-0.9035433070866139
 21
5.720472440944882
 31
0.0
  0
LINE
  5
334F
330
1E
100
AcDbEntity
  8
3
100
AcDbLine
 10
-0.9035433070866139
 20
5.720472440944882
 30
0.0
 11
-0.9035433070866139
 21
5.704724409448819
 31
0.0
  0
LINE
  5
3350
330
1E
100
AcDbEntity
  8
3
100
AcDbLine
 10
-0.9035433070866139
 20
5.704724409448819
 30
0.0
 11
-0.9035433070866139
 21
5.695866141732283
 31
0.0
  0
LINE
  5
3351
330
1E
100
AcDbEntity
  8
3
100
AcDbLine
 10
-0.9035433070866139
 20
5.695866141732283
 30
0.0
 11
-0.9035433070866139
 21
5.693897637795275
 31
0.0
  0
LINE
  5
3352
330
1E
100
AcDbEntity
  8
3
100
AcDbLine
 10
-0.9035433070866139
 20
5.693897637795275
 30
0.0
 11
-0.9035433070866139
 21
5.700787401574803
 31
0.0
  0
LINE
  5
3353
330
1E
100
AcDbEntity
  8
3
100
AcDbLine
 10
-0.9035433070866139
 20
5.700787401574803
 30
0.0
 11
-0.9035433070866139
 21
5.714566929133858
 31
0.0
  0
LINE
  5
3354
330
1E
100
AcDbEntity
  8
3
100
AcDbLine
 10
-0.9537401574803148
 20
5.740157480314961
 30
0.0
 11
-0.9537401574803148
 21
5.719488188976377
 31
0.0
  0
LINE
  5
3355
330
1E
100
AcDbEntity
  8
3
100
AcDbLine
 10
-0.9537401574803148
 20
5.719488188976377
 30
0.0
 11
-0.9537401574803148
 21
5.702755905511811
 31
0.0
  0
LINE
  5
3356
330
1E
100
AcDbEntity
  8
3
100
AcDbLine
 10
-0.9537401574803148
 20
5.702755905511811
 30
0.0
 11
-0.9537401574803148
 21
5.693897637795275
 31
0.0
  0
LINE
  5
3357
330
1E
100
AcDbEntity
  8
3
100
AcDbLine
 10
-0.9537401574803148
 20
5.693897637795275
 30
0.0
 11
-0.9537401574803148
 21
5.695866141732283
 31
0.0
  0
LINE
  5
3358
330
1E
100
AcDbEntity
  8
3
100
AcDbLine
 10
-0.9537401574803148
 20
5.695866141732283
 30
0.0
 11
-0.9537401574803148
 21
5.706692913385826
 31
0.0
  0
LINE
  5
3359
330
1E
100
AcDbEntity
  8
3
100
AcDbLine
 10
-1.458661417322834
 20
5.753937007874015
 30
0.0
 11
-1.458661417322834
 21
5.748031496062992
 31
0.0
  0
LINE
  5
335A
330
1E
100
AcDbEntity
  8
3
100
AcDbLine
 10
-1.458661417322834
 20
5.748031496062992
 30
0.0
 11
-1.458661417322834
 21
5.740157480314961
 31
0.0
  0
LINE
  5
335B
330
1E
100
AcDbEntity
  8
3
100
AcDbLine
 10
-1.458661417322834
 20
5.740157480314961
 30
0.0
 11
-1.458661417322834
 21
5.720472440944882
 31
0.0
  0
LINE
  5
335C
330
1E
100
AcDbEntity
  8
3
100
AcDbLine
 10
-1.458661417322834
 20
5.720472440944882
 30
0.0
 11
-1.458661417322834
 21
5.704724409448819
 31
0.0
  0
LINE
  5
335D
330
1E
100
AcDbEntity
  8
3
100
AcDbLine
 10
-1.458661417322834
 20
5.704724409448819
 30
0.0
 11
-1.458661417322834
 21
5.695866141732283
 31
0.0
  0
LINE
  5
335E
330
1E
100
AcDbEntity
  8
3
100
AcDbLine
 10
-1.458661417322834
 20
5.695866141732283
 30
0.0
 11
-1.458661417322834
 21
5.693897637795275
 31
0.0
  0
LINE
  5
335F
330
1E
100
AcDbEntity
  8
3
100
AcDbLine
 10
-1.458661417322834
 20
5.693897637795275
 30
0.0
 11
-1.458661417322834
 21
5.700787401574803
 31
0.0
  0
LINE
  5
3360
330
1E
100
AcDbEntity
  8
3
100
AcDbLine
 10
-1.458661417322834
 20
5.700787401574803
 30
0.0
 11
-1.458661417322834
 21
5.714566929133858
 31
0.0
  0
LINE
  5
3361
330
1E
100
AcDbEntity
  8
3
100
AcDbLine
 10
-1.429133858267716
 20
5.719488188976377
 30
0.0
 11
-1.429133858267716
 21
5.702755905511811
 31
0.0
  0
LINE
  5
3362
330
1E
100
AcDbEntity
  8
3
100
AcDbLine
 10
-1.429133858267716
 20
5.702755905511811
 30
0.0
 11
-1.429133858267716
 21
5.693897637795275
 31
0.0
  0
LINE
  5
3363
330
1E
100
AcDbEntity
  8
3
100
AcDbLine
 10
-1.429133858267716
 20
5.693897637795275
 30
0.0
 11
-1.429133858267716
 21
5.695866141732283
 31
0.0
  0
LINE
  5
3364
330
1E
100
AcDbEntity
  8
3
100
AcDbLine
 10
-1.429133858267716
 20
5.695866141732283
 30
0.0
 11
-1.429133858267716
 21
5.706692913385826
 31
0.0
  0
LINE
  5
3365
330
1E
100
AcDbEntity
  8
3
100
AcDbLine
 10
-1.429133858267716
 20
5.740157480314961
 30
0.0
 11
-1.429133858267716
 21
5.748031496062992
 31
0.0
  0
LINE
  5
3366
330
1E
100
AcDbEntity
  8
3
100
AcDbLine
 10
-1.429133858267716
 20
5.748031496062992
 30
0.0
 11
-1.429133858267716
 21
5.753937007874015
 31
0.0
  0
LINE
  5
3367
330
1E
100
AcDbEntity
  8
3
100
AcDbLine
 10
-1.429133858267716
 20
5.706692913385826
 30
0.0
 11
-1.429133858267716
 21
5.699803149606299
 31
0.0
  0
LINE
  5
3368
330
1E
100
AcDbEntity
  8
3
100
AcDbLine
 10
-1.429133858267716
 20
5.699803149606299
 30
0.0
 11
-1.429133858267716
 21
5.706692913385826
 31
0.0
  0
LINE
  5
3369
330
1E
100
AcDbEntity
  8
3
100
AcDbLine
 10
-1.489173228346456
 20
4.548228346456693
 30
0.0
 11
-1.493110236220472
 21
4.556102362204724
 31
0.0
  0
LINE
  5
336A
330
1E
100
AcDbEntity
  8
3
100
AcDbLine
 10
-1.493110236220472
 20
4.556102362204724
 30
0.0
 11
-1.503937007874015
 21
4.559055118110236
 31
0.0
  0
LINE
  5
336B
330
1E
100
AcDbEntity
  8
3
100
AcDbLine
 10
-1.597440944881889
 20
4.883858267716535
 30
0.0
 11
-1.597440944881889
 21
4.891732283464566
 31
0.0
  0
LINE
  5
336C
330
1E
100
AcDbEntity
  8
3
100
AcDbLine
 10
-1.597440944881889
 20
4.891732283464566
 30
0.0
 11
-1.597440944881889
 21
4.898622047244094
 31
0.0
  0
LINE
  5
336D
330
1E
100
AcDbEntity
  8
3
100
AcDbLine
 10
-0.140748031496063
 20
4.548228346456693
 30
0.0
 11
-0.1358267716535431
 21
4.556102362204724
 31
0.0
  0
LINE
  5
336E
330
1E
100
AcDbEntity
  8
3
100
AcDbLine
 10
-0.1358267716535431
 20
4.556102362204724
 30
0.0
 11
-0.125
 21
4.559055118110236
 31
0.0
  0
LINE
  5
336F
330
1E
100
AcDbEntity
  8
3
100
AcDbLine
 10
1.459645669291338
 20
4.966535433070866
 30
0.0
 11
1.437007874015748
 21
4.982283464566929
 31
0.0
  0
LINE
  5
3370
330
1E
100
AcDbEntity
  8
3
100
AcDbLine
 10
1.437007874015748
 20
4.982283464566929
 30
0.0
 11
1.409448818897637
 21
4.991141732283464
 31
0.0
  0
LINE
  5
3371
330
1E
100
AcDbEntity
  8
3
100
AcDbLine
 10
1.409448818897637
 20
4.991141732283464
 30
0.0
 11
1.380905511811023
 21
4.991141732283464
 31
0.0
  0
LINE
  5
3372
330
1E
100
AcDbEntity
  8
3
100
AcDbLine
 10
1.380905511811023
 20
4.991141732283464
 30
0.0
 11
1.353346456692913
 21
4.982283464566929
 31
0.0
  0
LINE
  5
3373
330
1E
100
AcDbEntity
  8
3
100
AcDbLine
 10
1.353346456692913
 20
4.982283464566929
 30
0.0
 11
1.330708661417322
 21
4.964566929133858
 31
0.0
  0
LINE
  5
3374
330
1E
100
AcDbEntity
  8
3
100
AcDbLine
 10
-0.1309055118110236
 20
4.776574803149606
 30
0.0
 11
-0.1377952755905509
 21
4.774606299212598
 31
0.0
  0
LINE
  5
3375
330
1E
100
AcDbEntity
  8
3
100
AcDbLine
 10
-0.1377952755905509
 20
4.774606299212598
 30
0.0
 11
-0.140748031496063
 21
4.769685039370078
 31
0.0
  0
LINE
  5
3376
330
1E
100
AcDbEntity
  8
3
100
AcDbLine
 10
-0.840551181102362
 20
4.888779527559055
 30
0.0
 11
-0.8316929133858266
 21
4.889763779527559
 31
0.0
  0
LINE
  5
3377
330
1E
100
AcDbEntity
  8
3
100
AcDbLine
 10
-0.8316929133858266
 20
4.889763779527559
 30
0.0
 11
-0.826771653543307
 21
4.881889763779527
 31
0.0
  0
LINE
  5
3378
330
1E
100
AcDbEntity
  8
3
100
AcDbLine
 10
-1.503937007874015
 20
4.964566929133858
 30
0.0
 11
-1.538385826771653
 21
4.959645669291338
 31
0.0
  0
LINE
  5
3379
330
1E
100
AcDbEntity
  8
3
100
AcDbLine
 10
-1.538385826771653
 20
4.959645669291338
 30
0.0
 11
-1.568897637795275
 21
4.945866141732283
 31
0.0
  0
LINE
  5
337A
330
1E
100
AcDbEntity
  8
3
100
AcDbLine
 10
-1.568897637795275
 20
4.945866141732283
 30
0.0
 11
-1.588582677165354
 21
4.9251968503937
 31
0.0
  0
LINE
  5
337B
330
1E
100
AcDbEntity
  8
3
100
AcDbLine
 10
-1.588582677165354
 20
4.9251968503937
 30
0.0
 11
-1.595472440944881
 21
4.912401574803149
 31
0.0
  0
LINE
  5
337C
330
1E
100
AcDbEntity
  8
3
100
AcDbLine
 10
-1.595472440944881
 20
4.912401574803149
 30
0.0
 11
-1.597440944881889
 21
4.898622047244094
 31
0.0
  0
LINE
  5
337D
330
1E
100
AcDbEntity
  8
3
100
AcDbLine
 10
-0.1732283464566926
 20
4.540354330708662
 30
0.0
 11
-0.1732283464566926
 21
4.536417322834646
 31
0.0
  0
LINE
  5
337E
330
1E
100
AcDbEntity
  8
3
100
AcDbLine
 10
-0.1732283464566926
 20
4.536417322834646
 30
0.0
 11
-0.1732283464566926
 21
4.535433070866141
 31
0.0
  0
LINE
  5
337F
330
1E
100
AcDbEntity
  8
3
100
AcDbLine
 10
-0.1633858267716532
 20
4.532480314960629
 30
0.0
 11
-0.1683070866141731
 21
4.534448818897637
 31
0.0
  0
LINE
  5
3380
330
1E
100
AcDbEntity
  8
3
100
AcDbLine
 10
-0.1683070866141731
 20
4.534448818897637
 30
0.0
 11
-0.1732283464566926
 21
4.535433070866141
 31
0.0
  0
LINE
  5
3381
330
1E
100
AcDbEntity
  8
3
100
AcDbLine
 10
-0.1732283464566926
 20
4.535433070866141
 30
0.0
 11
-0.1732283464566926
 21
4.531496062992125
 31
0.0
  0
LINE
  5
3382
330
1E
100
AcDbEntity
  8
3
100
AcDbLine
 10
-0.1732283464566926
 20
4.531496062992125
 30
0.0
 11
-0.1732283464566926
 21
4.519685039370078
 31
0.0
  0
LINE
  5
3383
330
1E
100
AcDbEntity
  8
3
100
AcDbLine
 10
-0.1732283464566926
 20
4.519685039370078
 30
0.0
 11
-0.1732283464566926
 21
4.502952755905512
 31
0.0
  0
LINE
  5
3384
330
1E
100
AcDbEntity
  8
3
100
AcDbLine
 10
-0.1732283464566926
 20
4.502952755905512
 30
0.0
 11
-0.1732283464566926
 21
4.484251968503937
 31
0.0
  0
LINE
  5
3385
330
1E
100
AcDbEntity
  8
3
100
AcDbLine
 10
-0.1732283464566926
 20
4.484251968503937
 30
0.0
 11
-0.1732283464566926
 21
4.465551181102362
 31
0.0
  0
LINE
  5
3386
330
1E
100
AcDbEntity
  8
3
100
AcDbLine
 10
-0.1732283464566926
 20
4.465551181102362
 30
0.0
 11
-0.1732283464566926
 21
4.451771653543307
 31
0.0
  0
LINE
  5
3387
330
1E
100
AcDbEntity
  8
3
100
AcDbLine
 10
-0.2027559055118107
 20
4.535433070866141
 30
0.0
 11
-0.2027559055118107
 21
4.530511811023622
 31
0.0
  0
LINE
  5
3388
330
1E
100
AcDbEntity
  8
3
100
AcDbLine
 10
-0.2027559055118107
 20
4.530511811023622
 30
0.0
 11
-0.2027559055118107
 21
4.516732283464566
 31
0.0
  0
LINE
  5
3389
330
1E
100
AcDbEntity
  8
3
100
AcDbLine
 10
-0.2027559055118107
 20
4.516732283464566
 30
0.0
 11
-0.2027559055118107
 21
4.497047244094487
 31
0.0
  0
LINE
  5
338A
330
1E
100
AcDbEntity
  8
3
100
AcDbLine
 10
-0.2027559055118107
 20
4.497047244094487
 30
0.0
 11
-0.2027559055118107
 21
4.476377952755905
 31
0.0
  0
LINE
  5
338B
330
1E
100
AcDbEntity
  8
3
100
AcDbLine
 10
-0.2027559055118107
 20
4.476377952755905
 30
0.0
 11
-0.2027559055118107
 21
4.45767716535433
 31
0.0
  0
LINE
  5
338C
330
1E
100
AcDbEntity
  8
3
100
AcDbLine
 10
-0.2027559055118107
 20
4.535433070866141
 30
0.0
 11
-0.2027559055118107
 21
4.536417322834646
 31
0.0
  0
LINE
  5
338D
330
1E
100
AcDbEntity
  8
3
100
AcDbLine
 10
-0.2027559055118107
 20
4.536417322834646
 30
0.0
 11
-0.2027559055118107
 21
4.540354330708662
 31
0.0
  0
LINE
  5
338E
330
1E
100
AcDbEntity
  8
3
100
AcDbLine
 10
-0.2027559055118107
 20
4.45767716535433
 30
0.0
 11
-0.2027559055118107
 21
4.475393700787401
 31
0.0
  0
LINE
  5
338F
330
1E
100
AcDbEntity
  8
3
100
AcDbLine
 10
-0.2027559055118107
 20
4.475393700787401
 30
0.0
 11
-0.2027559055118107
 21
4.493110236220472
 31
0.0
  0
LINE
  5
3390
330
1E
100
AcDbEntity
  8
3
100
AcDbLine
 10
1.28248031496063
 20
4.917322834645669
 30
0.0
 11
1.279527559055118
 21
4.910433070866141
 31
0.0
  0
LINE
  5
3391
330
1E
100
AcDbEntity
  8
3
100
AcDbLine
 10
1.279527559055118
 20
4.910433070866141
 30
0.0
 11
1.28248031496063
 21
4.903543307086613
 31
0.0
  0
LINE
  5
3392
330
1E
100
AcDbEntity
  8
3
100
AcDbLine
 10
0.8946850393700787
 20
4.572834645669291
 30
0.0
 11
0.8631889763779527
 21
4.566929133858267
 31
0.0
  0
LINE
  5
3393
330
1E
100
AcDbEntity
  8
3
100
AcDbLine
 10
0.8631889763779527
 20
4.566929133858267
 30
0.0
 11
0.8366141732283466
 21
4.549212598425197
 31
0.0
  0
LINE
  5
3394
330
1E
100
AcDbEntity
  8
3
100
AcDbLine
 10
0.8946850393700787
 20
4.588582677165354
 30
0.0
 11
0.8572834645669292
 21
4.580708661417323
 31
0.0
  0
LINE
  5
3395
330
1E
100
AcDbEntity
  8
3
100
AcDbLine
 10
0.8572834645669292
 20
4.580708661417323
 30
0.0
 11
0.8257874015748033
 21
4.56003937007874
 31
0.0
  0
LINE
  5
3396
330
1E
100
AcDbEntity
  8
3
100
AcDbLine
 10
1.329724409448818
 20
4.965551181102362
 30
0.0
 11
1.334645669291338
 21
4.960629921259842
 31
0.0
  0
LINE
  5
3397
330
1E
100
AcDbEntity
  8
3
100
AcDbLine
 10
1.334645669291338
 20
4.960629921259842
 30
0.0
 11
1.348425196850393
 21
4.946850393700787
 31
0.0
  0
LINE
  5
3398
330
1E
100
AcDbEntity
  8
3
100
AcDbLine
 10
1.348425196850393
 20
4.946850393700787
 30
0.0
 11
1.369094488188976
 21
4.926181102362204
 31
0.0
  0
LINE
  5
3399
330
1E
100
AcDbEntity
  8
3
100
AcDbLine
 10
1.369094488188976
 20
4.926181102362204
 30
0.0
 11
1.381889763779527
 21
4.913385826771653
 31
0.0
  0
LINE
  5
339A
330
1E
100
AcDbEntity
  8
3
100
AcDbLine
 10
1.381889763779527
 20
4.913385826771653
 30
0.0
 11
1.395669291338582
 21
4.899606299212598
 31
0.0
  0
LINE
  5
339B
330
1E
100
AcDbEntity
  8
3
100
AcDbLine
 10
1.395669291338582
 20
4.899606299212598
 30
0.0
 11
1.415354330708661
 21
4.920275590551181
 31
0.0
  0
LINE
  5
339C
330
1E
100
AcDbEntity
  8
3
100
AcDbLine
 10
1.415354330708661
 20
4.920275590551181
 30
0.0
 11
1.434055118110236
 21
4.938976377952756
 31
0.0
  0
LINE
  5
339D
330
1E
100
AcDbEntity
  8
3
100
AcDbLine
 10
1.434055118110236
 20
4.938976377952756
 30
0.0
 11
1.447834645669291
 21
4.953740157480314
 31
0.0
  0
LINE
  5
339E
330
1E
100
AcDbEntity
  8
3
100
AcDbLine
 10
1.447834645669291
 20
4.953740157480314
 30
0.0
 11
1.456692913385827
 21
4.963582677165354
 31
0.0
  0
LINE
  5
339F
330
1E
100
AcDbEntity
  8
3
100
AcDbLine
 10
1.456692913385827
 20
4.963582677165354
 30
0.0
 11
1.460629921259843
 21
4.966535433070866
 31
0.0
  0
LINE
  5
33A0
330
1E
100
AcDbEntity
  8
3
100
AcDbLine
 10
1.054133858267716
 20
4.303149606299212
 30
0.0
 11
1.049212598425197
 21
4.303149606299212
 31
0.0
  0
LINE
  5
33A1
330
1E
100
AcDbEntity
  8
3
100
AcDbLine
 10
1.049212598425197
 20
4.303149606299212
 30
0.0
 11
1.044291338582677
 21
4.301181102362204
 31
0.0
  0
LINE
  5
33A2
330
1E
100
AcDbEntity
  8
3
100
AcDbLine
 10
0.8513779527559055
 20
4.234251968503937
 30
0.0
 11
0.8562992125984255
 21
4.234251968503937
 31
0.0
  0
LINE
  5
33A3
330
1E
100
AcDbEntity
  8
3
100
AcDbLine
 10
0.8562992125984255
 20
4.234251968503937
 30
0.0
 11
0.8612204724409448
 21
4.236220472440945
 31
0.0
  0
LINE
  5
33A4
330
1E
100
AcDbEntity
  8
3
100
AcDbLine
 10
0.846456692913386
 20
4.263779527559055
 30
0.0
 11
0.8415354330708662
 21
4.27263779527559
 31
0.0
  0
LINE
  5
33A5
330
1E
100
AcDbEntity
  8
3
100
AcDbLine
 10
0.8415354330708662
 20
4.27263779527559
 30
0.0
 11
0.8316929133858268
 21
4.27263779527559
 31
0.0
  0
LINE
  5
33A6
330
1E
100
AcDbEntity
  8
3
100
AcDbLine
 10
1.283464566929133
 20
4.886811023622047
 30
0.0
 11
1.269685039370079
 21
4.892716535433071
 31
0.0
  0
LINE
  5
33A7
330
1E
100
AcDbEntity
  8
3
100
AcDbLine
 10
1.269685039370079
 20
4.892716535433071
 30
0.0
 11
1.255905511811023
 21
4.886811023622047
 31
0.0
  0
LINE
  5
33A8
330
1E
100
AcDbEntity
  8
3
100
AcDbLine
 10
1.221456692913386
 20
4.824803149606299
 30
0.0
 11
1.239173228346456
 21
4.84251968503937
 31
0.0
  0
LINE
  5
33A9
330
1E
100
AcDbEntity
  8
3
100
AcDbLine
 10
1.239173228346456
 20
4.84251968503937
 30
0.0
 11
1.256889763779527
 21
4.86023622047244
 31
0.0
  0
LINE
  5
33AA
330
1E
100
AcDbEntity
  8
3
100
AcDbLine
 10
1.256889763779527
 20
4.86023622047244
 30
0.0
 11
1.270669291338582
 21
4.874015748031496
 31
0.0
  0
LINE
  5
33AB
330
1E
100
AcDbEntity
  8
3
100
AcDbLine
 10
1.270669291338582
 20
4.874015748031496
 30
0.0
 11
1.280511811023621
 21
4.883858267716535
 31
0.0
  0
LINE
  5
33AC
330
1E
100
AcDbEntity
  8
3
100
AcDbLine
 10
1.280511811023621
 20
4.883858267716535
 30
0.0
 11
1.283464566929133
 21
4.886811023622047
 31
0.0
  0
LINE
  5
33AD
330
1E
100
AcDbEntity
  8
3
100
AcDbLine
 10
1.177165354330708
 20
4.780511811023622
 30
0.0
 11
1.18011811023622
 21
4.783464566929134
 31
0.0
  0
LINE
  5
33AE
330
1E
100
AcDbEntity
  8
3
100
AcDbLine
 10
1.18011811023622
 20
4.783464566929134
 30
0.0
 11
1.18996062992126
 21
4.793307086614173
 31
0.0
  0
LINE
  5
33AF
330
1E
100
AcDbEntity
  8
3
100
AcDbLine
 10
1.18996062992126
 20
4.793307086614173
 30
0.0
 11
1.203740157480315
 21
4.807086614173228
 31
0.0
  0
LINE
  5
33B0
330
1E
100
AcDbEntity
  8
3
100
AcDbLine
 10
1.203740157480315
 20
4.807086614173228
 30
0.0
 11
1.221456692913386
 21
4.824803149606299
 31
0.0
  0
LINE
  5
33B1
330
1E
100
AcDbEntity
  8
3
100
AcDbLine
 10
1.178149606299212
 20
4.809055118110236
 30
0.0
 11
1.172244094488189
 21
4.795275590551181
 31
0.0
  0
LINE
  5
33B2
330
1E
100
AcDbEntity
  8
3
100
AcDbLine
 10
1.172244094488189
 20
4.795275590551181
 30
0.0
 11
1.178149606299212
 21
4.781496062992125
 31
0.0
  0
LINE
  5
33B3
330
1E
100
AcDbEntity
  8
3
100
AcDbLine
 10
1.178149606299212
 20
4.809055118110236
 30
0.0
 11
1.172244094488189
 21
4.795275590551181
 31
0.0
  0
LINE
  5
33B4
330
1E
100
AcDbEntity
  8
3
100
AcDbLine
 10
1.172244094488189
 20
4.795275590551181
 30
0.0
 11
1.178149606299212
 21
4.781496062992125
 31
0.0
  0
LINE
  5
33B5
330
1E
100
AcDbEntity
  8
3
100
AcDbLine
 10
1.156496062992125
 20
4.759842519685039
 30
0.0
 11
1.166338582677165
 21
4.769685039370078
 31
0.0
  0
LINE
  5
33B6
330
1E
100
AcDbEntity
  8
3
100
AcDbLine
 10
1.166338582677165
 20
4.769685039370078
 30
0.0
 11
1.174212598425197
 21
4.77755905511811
 31
0.0
  0
LINE
  5
33B7
330
1E
100
AcDbEntity
  8
3
100
AcDbLine
 10
1.174212598425197
 20
4.77755905511811
 30
0.0
 11
1.177165354330708
 21
4.780511811023622
 31
0.0
  0
LINE
  5
33B8
330
1E
100
AcDbEntity
  8
3
100
AcDbLine
 10
1.254921259842519
 20
4.886811023622047
 30
0.0
 11
1.251968503937007
 21
4.883858267716535
 31
0.0
  0
LINE
  5
33B9
330
1E
100
AcDbEntity
  8
3
100
AcDbLine
 10
1.251968503937007
 20
4.883858267716535
 30
0.0
 11
1.244094488188976
 21
4.875
 31
0.0
  0
LINE
  5
33BA
330
1E
100
AcDbEntity
  8
3
100
AcDbLine
 10
1.244094488188976
 20
4.875
 30
0.0
 11
1.231299212598425
 21
4.863188976377952
 31
0.0
  0
LINE
  5
33BB
330
1E
100
AcDbEntity
  8
3
100
AcDbLine
 10
1.231299212598425
 20
4.863188976377952
 30
0.0
 11
1.216535433070866
 21
4.847440944881889
 31
0.0
  0
LINE
  5
33BC
330
1E
100
AcDbEntity
  8
3
100
AcDbLine
 10
1.216535433070866
 20
4.847440944881889
 30
0.0
 11
1.201771653543307
 21
4.83267716535433
 31
0.0
  0
LINE
  5
33BD
330
1E
100
AcDbEntity
  8
3
100
AcDbLine
 10
1.201771653543307
 20
4.83267716535433
 30
0.0
 11
1.188976377952756
 21
4.819881889763779
 31
0.0
  0
LINE
  5
33BE
330
1E
100
AcDbEntity
  8
3
100
AcDbLine
 10
1.188976377952756
 20
4.819881889763779
 30
0.0
 11
1.18011811023622
 21
4.812007874015748
 31
0.0
  0
LINE
  5
33BF
330
1E
100
AcDbEntity
  8
3
100
AcDbLine
 10
1.18011811023622
 20
4.812007874015748
 30
0.0
 11
1.177165354330708
 21
4.809055118110236
 31
0.0
  0
LINE
  5
33C0
330
1E
100
AcDbEntity
  8
3
100
AcDbLine
 10
1.177165354330708
 20
4.809055118110236
 30
0.0
 11
1.172244094488189
 21
4.804133858267716
 31
0.0
  0
LINE
  5
33C1
330
1E
100
AcDbEntity
  8
3
100
AcDbLine
 10
1.172244094488189
 20
4.804133858267716
 30
0.0
 11
1.159448818897637
 21
4.791338582677165
 31
0.0
  0
LINE
  5
33C2
330
1E
100
AcDbEntity
  8
3
100
AcDbLine
 10
1.159448818897637
 20
4.791338582677165
 30
0.0
 11
1.141732283464567
 21
4.773622047244094
 31
0.0
  0
LINE
  5
33C3
330
1E
100
AcDbEntity
  8
3
100
AcDbLine
 10
-0.1279527559055116
 20
4.90255905511811
 30
0.0
 11
-0.1279527559055116
 21
4.909448818897637
 31
0.0
  0
LINE
  5
33C4
330
1E
100
AcDbEntity
  8
3
100
AcDbLine
 10
-0.1279527559055116
 20
4.909448818897637
 30
0.0
 11
-0.1279527559055116
 21
4.916338582677165
 31
0.0
  0
LINE
  5
33C5
330
1E
100
AcDbEntity
  8
3
100
AcDbLine
 10
-0.0344488188976375
 20
4.548228346456693
 30
0.0
 11
-0.0344488188976375
 21
4.565944881889763
 31
0.0
  0
LINE
  5
33C6
330
1E
100
AcDbEntity
  8
3
100
AcDbLine
 10
-0.0344488188976375
 20
4.565944881889763
 30
0.0
 11
-0.0344488188976375
 21
4.571850393700787
 31
0.0
  0
LINE
  5
33C7
330
1E
100
AcDbEntity
  8
3
100
AcDbLine
 10
-0.0344488188976375
 20
4.548228346456693
 30
0.0
 11
-0.0393700787401574
 21
4.556102362204724
 31
0.0
  0
LINE
  5
33C8
330
1E
100
AcDbEntity
  8
3
100
AcDbLine
 10
-0.0393700787401574
 20
4.556102362204724
 30
0.0
 11
-0.0501968503937005
 21
4.559055118110236
 31
0.0
  0
LINE
  5
33C9
330
1E
100
AcDbEntity
  8
3
100
AcDbLine
 10
-0.7903543307086613
 20
4.888779527559055
 30
0.0
 11
-0.8001968503937007
 21
4.889763779527559
 31
0.0
  0
LINE
  5
33CA
330
1E
100
AcDbEntity
  8
3
100
AcDbLine
 10
-0.8001968503937007
 20
4.889763779527559
 30
0.0
 11
-0.8041338582677164
 21
4.881889763779527
 31
0.0
  0
LINE
  5
33CB
330
1E
100
AcDbEntity
  8
3
100
AcDbLine
 10
-0.8366141732283463
 20
4.885826771653543
 30
0.0
 11
-0.838582677165354
 21
4.88779527559055
 31
0.0
  0
LINE
  5
33CC
330
1E
100
AcDbEntity
  8
3
100
AcDbLine
 10
-0.838582677165354
 20
4.88779527559055
 30
0.0
 11
-0.840551181102362
 21
4.888779527559055
 31
0.0
  0
LINE
  5
33CD
330
1E
100
AcDbEntity
  8
3
100
AcDbLine
 10
-0.7283464566929135
 20
4.521653543307087
 30
0.0
 11
-0.7283464566929135
 21
4.533464566929134
 31
0.0
  0
LINE
  5
33CE
330
1E
100
AcDbEntity
  8
3
100
AcDbLine
 10
-0.7283464566929135
 20
4.533464566929134
 30
0.0
 11
-0.7283464566929135
 21
4.521653543307087
 31
0.0
  0
LINE
  5
33CF
330
1E
100
AcDbEntity
  8
3
100
AcDbLine
 10
-0.7283464566929135
 20
4.521653543307087
 30
0.0
 11
-0.7283464566929135
 21
4.503937007874015
 31
0.0
  0
LINE
  5
33D0
330
1E
100
AcDbEntity
  8
3
100
AcDbLine
 10
-0.7283464566929135
 20
4.503937007874015
 30
0.0
 11
-0.7283464566929135
 21
4.483267716535433
 31
0.0
  0
LINE
  5
33D1
330
1E
100
AcDbEntity
  8
3
100
AcDbLine
 10
-0.7283464566929135
 20
4.454724409448819
 30
0.0
 11
-0.7283464566929135
 21
4.45767716535433
 31
0.0
  0
LINE
  5
33D2
330
1E
100
AcDbEntity
  8
3
100
AcDbLine
 10
-0.7283464566929135
 20
4.45767716535433
 30
0.0
 11
-0.7283464566929135
 21
4.454724409448819
 31
0.0
  0
LINE
  5
33D3
330
1E
100
AcDbEntity
  8
3
100
AcDbLine
 10
-0.0501968503937005
 20
4.58759842519685
 30
0.0
 11
-0.0501968503937005
 21
4.579724409448819
 31
0.0
  0
LINE
  5
33D4
330
1E
100
AcDbEntity
  8
3
100
AcDbLine
 10
-0.0501968503937005
 20
4.579724409448819
 30
0.0
 11
-0.0501968503937005
 21
4.559055118110236
 31
0.0
  0
LINE
  5
33D5
330
1E
100
AcDbEntity
  8
3
100
AcDbLine
 10
-0.0354330708661417
 20
4.571850393700787
 30
0.0
 11
-0.0393700787401574
 21
4.58267716535433
 31
0.0
  0
LINE
  5
33D6
330
1E
100
AcDbEntity
  8
3
100
AcDbLine
 10
-0.0393700787401574
 20
4.58267716535433
 30
0.0
 11
-0.0501968503937005
 21
4.586614173228346
 31
0.0
  0
LINE
  5
33D7
330
1E
100
AcDbEntity
  8
3
100
AcDbLine
 10
-0.0925196850393699
 20
4.959645669291338
 30
0.0
 11
-0.0629921259842519
 21
4.945866141732283
 31
0.0
  0
LINE
  5
33D8
330
1E
100
AcDbEntity
  8
3
100
AcDbLine
 10
-0.0629921259842519
 20
4.945866141732283
 30
0.0
 11
-0.042322834645669
 21
4.9251968503937
 31
0.0
  0
LINE
  5
33D9
330
1E
100
AcDbEntity
  8
3
100
AcDbLine
 10
-0.042322834645669
 20
4.9251968503937
 30
0.0
 11
-0.0364173228346454
 21
4.912401574803149
 31
0.0
  0
LINE
  5
33DA
330
1E
100
AcDbEntity
  8
3
100
AcDbLine
 10
-0.0364173228346454
 20
4.912401574803149
 30
0.0
 11
-0.0344488188976375
 21
4.898622047244094
 31
0.0
  0
LINE
  5
33DB
330
1E
100
AcDbEntity
  8
3
100
AcDbLine
 10
-0.0344488188976375
 20
4.287401574803149
 30
0.0
 11
-0.0344488188976375
 21
4.298228346456693
 31
0.0
  0
LINE
  5
33DC
330
1E
100
AcDbEntity
  8
3
100
AcDbLine
 10
-0.0344488188976375
 20
4.298228346456693
 30
0.0
 11
-0.0344488188976375
 21
4.303149606299212
 31
0.0
  0
LINE
  5
33DD
330
1E
100
AcDbEntity
  8
3
100
AcDbLine
 10
-0.0344488188976375
 20
4.26279527559055
 30
0.0
 11
-0.0344488188976375
 21
4.271653543307087
 31
0.0
  0
LINE
  5
33DE
330
1E
100
AcDbEntity
  8
3
100
AcDbLine
 10
-0.0344488188976375
 20
4.271653543307087
 30
0.0
 11
-0.0344488188976375
 21
4.26279527559055
 31
0.0
  0
LINE
  5
33DF
330
1E
100
AcDbEntity
  8
3
100
AcDbLine
 10
-1.503937007874015
 20
4.90255905511811
 30
0.0
 11
-1.503937007874015
 21
4.909448818897637
 31
0.0
  0
LINE
  5
33E0
330
1E
100
AcDbEntity
  8
3
100
AcDbLine
 10
-1.503937007874015
 20
4.909448818897637
 30
0.0
 11
-1.503937007874015
 21
4.916338582677165
 31
0.0
  0
LINE
  5
33E1
330
1E
100
AcDbEntity
  8
3
100
AcDbLine
 10
-0.9035433070866139
 20
4.521653543307087
 30
0.0
 11
-0.9035433070866139
 21
4.533464566929134
 31
0.0
  0
LINE
  5
33E2
330
1E
100
AcDbEntity
  8
3
100
AcDbLine
 10
-0.9035433070866139
 20
4.533464566929134
 30
0.0
 11
-0.9035433070866139
 21
4.521653543307087
 31
0.0
  0
LINE
  5
33E3
330
1E
100
AcDbEntity
  8
3
100
AcDbLine
 10
-0.9035433070866139
 20
4.521653543307087
 30
0.0
 11
-0.9035433070866139
 21
4.503937007874015
 31
0.0
  0
LINE
  5
33E4
330
1E
100
AcDbEntity
  8
3
100
AcDbLine
 10
-0.9035433070866139
 20
4.503937007874015
 30
0.0
 11
-0.9035433070866139
 21
4.483267716535433
 31
0.0
  0
LINE
  5
33E5
330
1E
100
AcDbEntity
  8
3
100
AcDbLine
 10
-0.9035433070866139
 20
4.45767716535433
 30
0.0
 11
-0.9035433070866139
 21
4.469488188976377
 31
0.0
  0
LINE
  5
33E6
330
1E
100
AcDbEntity
  8
3
100
AcDbLine
 10
-0.9035433070866139
 20
4.469488188976377
 30
0.0
 11
-0.9035433070866139
 21
4.483267716535433
 31
0.0
  0
LINE
  5
33E7
330
1E
100
AcDbEntity
  8
3
100
AcDbLine
 10
-1.503937007874015
 20
4.77755905511811
 30
0.0
 11
-1.503937007874015
 21
4.780511811023622
 31
0.0
  0
LINE
  5
33E8
330
1E
100
AcDbEntity
  8
3
100
AcDbLine
 10
-1.503937007874015
 20
4.780511811023622
 30
0.0
 11
-1.503937007874015
 21
4.77755905511811
 31
0.0
  0
LINE
  5
33E9
330
1E
100
AcDbEntity
  8
3
100
AcDbLine
 10
-1.500984251968503
 20
4.776574803149606
 30
0.0
 11
-1.494094488188976
 21
4.774606299212598
 31
0.0
  0
LINE
  5
33EA
330
1E
100
AcDbEntity
  8
3
100
AcDbLine
 10
-1.494094488188976
 20
4.774606299212598
 30
0.0
 11
-1.491141732283464
 21
4.769685039370078
 31
0.0
  0
LINE
  5
33EB
330
1E
100
AcDbEntity
  8
3
100
AcDbLine
 10
-1.597440944881889
 20
4.548228346456693
 30
0.0
 11
-1.592519685039369
 21
4.556102362204724
 31
0.0
  0
LINE
  5
33EC
330
1E
100
AcDbEntity
  8
3
100
AcDbLine
 10
-1.592519685039369
 20
4.556102362204724
 30
0.0
 11
-1.581692913385826
 21
4.559055118110236
 31
0.0
  0
LINE
  5
33ED
330
1E
100
AcDbEntity
  8
3
100
AcDbLine
 10
-1.597440944881889
 20
4.548228346456693
 30
0.0
 11
-1.597440944881889
 21
4.565944881889763
 31
0.0
  0
LINE
  5
33EE
330
1E
100
AcDbEntity
  8
3
100
AcDbLine
 10
-1.597440944881889
 20
4.565944881889763
 30
0.0
 11
-1.597440944881889
 21
4.571850393700787
 31
0.0
  0
LINE
  5
33EF
330
1E
100
AcDbEntity
  8
3
100
AcDbLine
 10
-0.811023622047244
 20
4.872047244094487
 30
0.0
 11
-0.8051181102362203
 21
4.881889763779527
 31
0.0
  0
LINE
  5
33F0
330
1E
100
AcDbEntity
  8
3
100
AcDbLine
 10
-0.8051181102362203
 20
4.881889763779527
 30
0.0
 11
-0.7903543307086613
 21
4.885826771653543
 31
0.0
  0
LINE
  5
33F1
330
1E
100
AcDbEntity
  8
3
100
AcDbLine
 10
-0.0029527559055116
 20
4.811023622047244
 30
0.0
 11
0.002952755905512
 21
4.827755905511811
 31
0.0
  0
LINE
  5
33F2
330
1E
100
AcDbEntity
  8
3
100
AcDbLine
 10
0.002952755905512
 20
4.827755905511811
 30
0.0
 11
0.0019685039370079
 21
4.845472440944882
 31
0.0
  0
LINE
  5
33F3
330
1E
100
AcDbEntity
  8
3
100
AcDbLine
 10
0.0019685039370079
 20
4.845472440944882
 30
0.0
 11
-0.0078740157480315
 21
4.861220472440945
 31
0.0
  0
LINE
  5
33F4
330
1E
100
AcDbEntity
  8
3
100
AcDbLine
 10
-0.0078740157480315
 20
4.861220472440945
 30
0.0
 11
-0.0246062992125982
 21
4.875
 31
0.0
  0
LINE
  5
33F5
330
1E
100
AcDbEntity
  8
3
100
AcDbLine
 10
-0.0246062992125982
 20
4.875
 30
0.0
 11
-0.0472440944881889
 21
4.882874015748031
 31
0.0
  0
LINE
  5
33F6
330
1E
100
AcDbEntity
  8
3
100
AcDbLine
 10
-0.0472440944881889
 20
4.882874015748031
 30
0.0
 11
-0.0708661417322834
 21
4.885826771653543
 31
0.0
  0
LINE
  5
33F7
330
1E
100
AcDbEntity
  8
3
100
AcDbLine
 10
-0.0708661417322834
 20
4.885826771653543
 30
0.0
 11
-0.0708661417322834
 21
4.891732283464566
 31
0.0
  0
LINE
  5
33F8
330
1E
100
AcDbEntity
  8
3
100
AcDbLine
 10
-0.0708661417322834
 20
4.891732283464566
 30
0.0
 11
-0.0708661417322834
 21
4.885826771653543
 31
0.0
  0
LINE
  5
33F9
330
1E
100
AcDbEntity
  8
3
100
AcDbLine
 10
-0.0708661417322834
 20
4.779527559055118
 30
0.0
 11
-0.0708661417322834
 21
4.794291338582677
 31
0.0
  0
LINE
  5
33FA
330
1E
100
AcDbEntity
  8
3
100
AcDbLine
 10
-0.0708661417322834
 20
4.794291338582677
 30
0.0
 11
-0.0708661417322834
 21
4.808070866141732
 31
0.0
  0
LINE
  5
33FB
330
1E
100
AcDbEntity
  8
3
100
AcDbLine
 10
-0.1230314960629921
 20
4.779527559055118
 30
0.0
 11
-0.1230314960629921
 21
4.794291338582677
 31
0.0
  0
LINE
  5
33FC
330
1E
100
AcDbEntity
  8
3
100
AcDbLine
 10
-0.1230314960629921
 20
4.794291338582677
 30
0.0
 11
-0.1230314960629921
 21
4.808070866141732
 31
0.0
  0
LINE
  5
33FD
330
1E
100
AcDbEntity
  8
3
100
AcDbLine
 10
-0.7362204724409447
 20
4.546259842519685
 30
0.0
 11
-0.7303149606299213
 21
4.544291338582677
 31
0.0
  0
LINE
  5
33FE
330
1E
100
AcDbEntity
  8
3
100
AcDbLine
 10
-0.7303149606299213
 20
4.544291338582677
 30
0.0
 11
-0.7283464566929135
 21
4.540354330708662
 31
0.0
  0
LINE
  5
33FF
330
1E
100
AcDbEntity
  8
3
100
AcDbLine
 10
-0.0167322834645667
 20
4.847440944881889
 30
0.0
 11
-0.0206692913385824
 21
4.831692913385826
 31
0.0
  0
LINE
  5
3400
330
1E
100
AcDbEntity
  8
3
100
AcDbLine
 10
-0.0206692913385824
 20
4.831692913385826
 30
0.0
 11
-0.0324803149606297
 21
4.819881889763779
 31
0.0
  0
LINE
  5
3401
330
1E
100
AcDbEntity
  8
3
100
AcDbLine
 10
-0.0324803149606297
 20
4.819881889763779
 30
0.0
 11
-0.0501968503937005
 21
4.811023622047244
 31
0.0
  0
LINE
  5
3402
330
1E
100
AcDbEntity
  8
3
100
AcDbLine
 10
-0.0501968503937005
 20
4.811023622047244
 30
0.0
 11
-0.0708661417322834
 21
4.808070866141732
 31
0.0
  0
LINE
  5
3403
330
1E
100
AcDbEntity
  8
3
100
AcDbLine
 10
-0.0708661417322834
 20
4.885826771653543
 30
0.0
 11
-0.0501968503937005
 21
4.882874015748031
 31
0.0
  0
LINE
  5
3404
330
1E
100
AcDbEntity
  8
3
100
AcDbLine
 10
-0.0501968503937005
 20
4.882874015748031
 30
0.0
 11
-0.0324803149606297
 21
4.874015748031496
 31
0.0
  0
LINE
  5
3405
330
1E
100
AcDbEntity
  8
3
100
AcDbLine
 10
-0.0324803149606297
 20
4.874015748031496
 30
0.0
 11
-0.0206692913385824
 21
4.862204724409449
 31
0.0
  0
LINE
  5
3406
330
1E
100
AcDbEntity
  8
3
100
AcDbLine
 10
-0.0206692913385824
 20
4.862204724409449
 30
0.0
 11
-0.0167322834645667
 21
4.847440944881889
 31
0.0
  0
LINE
  5
3407
330
1E
100
AcDbEntity
  8
3
100
AcDbLine
 10
-0.1230314960629921
 20
4.808070866141732
 30
0.0
 11
-0.1476377952755903
 21
4.803149606299212
 31
0.0
  0
LINE
  5
3408
330
1E
100
AcDbEntity
  8
3
100
AcDbLine
 10
-0.1476377952755903
 20
4.803149606299212
 30
0.0
 11
-0.1663385826771653
 21
4.790354330708662
 31
0.0
  0
LINE
  5
3409
330
1E
100
AcDbEntity
  8
3
100
AcDbLine
 10
-0.1663385826771653
 20
4.790354330708662
 30
0.0
 11
-0.1732283464566926
 21
4.77263779527559
 31
0.0
  0
LINE
  5
340A
330
1E
100
AcDbEntity
  8
3
100
AcDbLine
 10
-0.7283464566929135
 20
4.534448818897637
 30
0.0
 11
-0.7283464566929135
 21
4.536417322834646
 31
0.0
  0
LINE
  5
340B
330
1E
100
AcDbEntity
  8
3
100
AcDbLine
 10
-0.7283464566929135
 20
4.536417322834646
 30
0.0
 11
-0.7283464566929135
 21
4.540354330708662
 31
0.0
  0
LINE
  5
340C
330
1E
100
AcDbEntity
  8
3
100
AcDbLine
 10
-0.6781496062992125
 20
4.493110236220472
 30
0.0
 11
-0.6781496062992125
 21
4.480314960629921
 31
0.0
  0
LINE
  5
340D
330
1E
100
AcDbEntity
  8
3
100
AcDbLine
 10
-0.6781496062992125
 20
4.480314960629921
 30
0.0
 11
-0.6781496062992125
 21
4.465551181102362
 31
0.0
  0
LINE
  5
340E
330
1E
100
AcDbEntity
  8
3
100
AcDbLine
 10
-0.6781496062992125
 20
4.534448818897637
 30
0.0
 11
-0.6781496062992125
 21
4.536417322834646
 31
0.0
  0
LINE
  5
340F
330
1E
100
AcDbEntity
  8
3
100
AcDbLine
 10
-0.6781496062992125
 20
4.536417322834646
 30
0.0
 11
-0.6781496062992125
 21
4.540354330708662
 31
0.0
  0
LINE
  5
3410
330
1E
100
AcDbEntity
  8
3
100
AcDbLine
 10
-0.7283464566929135
 20
4.534448818897637
 30
0.0
 11
-0.7283464566929135
 21
4.531496062992125
 31
0.0
  0
LINE
  5
3411
330
1E
100
AcDbEntity
  8
3
100
AcDbLine
 10
-0.7283464566929135
 20
4.531496062992125
 30
0.0
 11
-0.7283464566929135
 21
4.519685039370078
 31
0.0
  0
LINE
  5
3412
330
1E
100
AcDbEntity
  8
3
100
AcDbLine
 10
-0.7283464566929135
 20
4.519685039370078
 30
0.0
 11
-0.7283464566929135
 21
4.502952755905512
 31
0.0
  0
LINE
  5
3413
330
1E
100
AcDbEntity
  8
3
100
AcDbLine
 10
-0.7283464566929135
 20
4.502952755905512
 30
0.0
 11
-0.7283464566929135
 21
4.483267716535433
 31
0.0
  0
LINE
  5
3414
330
1E
100
AcDbEntity
  8
3
100
AcDbLine
 10
-0.7283464566929135
 20
4.483267716535433
 30
0.0
 11
-0.7283464566929135
 21
4.465551181102362
 31
0.0
  0
LINE
  5
3415
330
1E
100
AcDbEntity
  8
3
100
AcDbLine
 10
-0.7283464566929135
 20
4.465551181102362
 30
0.0
 11
-0.7283464566929135
 21
4.451771653543307
 31
0.0
  0
LINE
  5
3416
330
1E
100
AcDbEntity
  8
3
100
AcDbLine
 10
-0.6781496062992125
 20
4.534448818897637
 30
0.0
 11
-0.6781496062992125
 21
4.531496062992125
 31
0.0
  0
LINE
  5
3417
330
1E
100
AcDbEntity
  8
3
100
AcDbLine
 10
-0.6781496062992125
 20
4.531496062992125
 30
0.0
 11
-0.6781496062992125
 21
4.519685039370078
 31
0.0
  0
LINE
  5
3418
330
1E
100
AcDbEntity
  8
3
100
AcDbLine
 10
-0.6781496062992125
 20
4.519685039370078
 30
0.0
 11
-0.6781496062992125
 21
4.502952755905512
 31
0.0
  0
LINE
  5
3419
330
1E
100
AcDbEntity
  8
3
100
AcDbLine
 10
-0.6781496062992125
 20
4.502952755905512
 30
0.0
 11
-0.6781496062992125
 21
4.483267716535433
 31
0.0
  0
LINE
  5
341A
330
1E
100
AcDbEntity
  8
3
100
AcDbLine
 10
-0.6781496062992125
 20
4.483267716535433
 30
0.0
 11
-0.6781496062992125
 21
4.465551181102362
 31
0.0
  0
LINE
  5
341B
330
1E
100
AcDbEntity
  8
3
100
AcDbLine
 10
-0.2027559055118107
 20
4.534448818897637
 30
0.0
 11
-0.2027559055118107
 21
4.536417322834646
 31
0.0
  0
LINE
  5
341C
330
1E
100
AcDbEntity
  8
3
100
AcDbLine
 10
-0.2027559055118107
 20
4.536417322834646
 30
0.0
 11
-0.2027559055118107
 21
4.540354330708662
 31
0.0
  0
LINE
  5
341D
330
1E
100
AcDbEntity
  8
3
100
AcDbLine
 10
-0.2027559055118107
 20
4.534448818897637
 30
0.0
 11
-0.2027559055118107
 21
4.528543307086613
 31
0.0
  0
LINE
  5
341E
330
1E
100
AcDbEntity
  8
3
100
AcDbLine
 10
-0.2027559055118107
 20
4.528543307086613
 30
0.0
 11
-0.2027559055118107
 21
4.510826771653543
 31
0.0
  0
LINE
  5
341F
330
1E
100
AcDbEntity
  8
3
100
AcDbLine
 10
-0.2027559055118107
 20
4.510826771653543
 30
0.0
 11
-0.2027559055118107
 21
4.487204724409449
 31
0.0
  0
LINE
  5
3420
330
1E
100
AcDbEntity
  8
3
100
AcDbLine
 10
-0.840551181102362
 20
4.885826771653543
 30
0.0
 11
-0.840551181102362
 21
4.891732283464566
 31
0.0
  0
LINE
  5
3421
330
1E
100
AcDbEntity
  8
3
100
AcDbLine
 10
-0.840551181102362
 20
4.891732283464566
 30
0.0
 11
-0.840551181102362
 21
4.885826771653543
 31
0.0
  0
LINE
  5
3422
330
1E
100
AcDbEntity
  8
3
100
AcDbLine
 10
-0.840551181102362
 20
4.885826771653543
 30
0.0
 11
-0.826771653543307
 21
4.881889763779527
 31
0.0
  0
LINE
  5
3423
330
1E
100
AcDbEntity
  8
3
100
AcDbLine
 10
-0.826771653543307
 20
4.881889763779527
 30
0.0
 11
-0.8208661417322833
 21
4.872047244094487
 31
0.0
  0
LINE
  5
3424
330
1E
100
AcDbEntity
  8
3
100
AcDbLine
 10
-0.8208661417322833
 20
4.872047244094487
 30
0.0
 11
-0.826771653543307
 21
4.881889763779527
 31
0.0
  0
LINE
  5
3425
330
1E
100
AcDbEntity
  8
3
100
AcDbLine
 10
-0.826771653543307
 20
4.881889763779527
 30
0.0
 11
-0.840551181102362
 21
4.885826771653543
 31
0.0
  0
LINE
  5
3426
330
1E
100
AcDbEntity
  8
3
100
AcDbLine
 10
-1.56003937007874
 20
4.779527559055118
 30
0.0
 11
-1.56003937007874
 21
4.794291338582677
 31
0.0
  0
LINE
  5
3427
330
1E
100
AcDbEntity
  8
3
100
AcDbLine
 10
-1.56003937007874
 20
4.794291338582677
 30
0.0
 11
-1.56003937007874
 21
4.808070866141732
 31
0.0
  0
LINE
  5
3428
330
1E
100
AcDbEntity
  8
3
100
AcDbLine
 10
-1.508858267716535
 20
4.779527559055118
 30
0.0
 11
-1.508858267716535
 21
4.794291338582677
 31
0.0
  0
LINE
  5
3429
330
1E
100
AcDbEntity
  8
3
100
AcDbLine
 10
-1.508858267716535
 20
4.794291338582677
 30
0.0
 11
-1.508858267716535
 21
4.808070866141732
 31
0.0
  0
LINE
  5
342A
330
1E
100
AcDbEntity
  8
3
100
AcDbLine
 10
-1.508858267716535
 20
4.808070866141732
 30
0.0
 11
-1.484251968503936
 21
4.803149606299212
 31
0.0
  0
LINE
  5
342B
330
1E
100
AcDbEntity
  8
3
100
AcDbLine
 10
-1.484251968503936
 20
4.803149606299212
 30
0.0
 11
-1.465551181102362
 21
4.790354330708662
 31
0.0
  0
LINE
  5
342C
330
1E
100
AcDbEntity
  8
3
100
AcDbLine
 10
-1.465551181102362
 20
4.790354330708662
 30
0.0
 11
-1.458661417322834
 21
4.77263779527559
 31
0.0
  0
LINE
  5
342D
330
1E
100
AcDbEntity
  8
3
100
AcDbLine
 10
-1.56003937007874
 20
4.885826771653543
 30
0.0
 11
-1.581692913385826
 21
4.882874015748031
 31
0.0
  0
LINE
  5
342E
330
1E
100
AcDbEntity
  8
3
100
AcDbLine
 10
-1.581692913385826
 20
4.882874015748031
 30
0.0
 11
-1.599409448818897
 21
4.875
 31
0.0
  0
LINE
  5
342F
330
1E
100
AcDbEntity
  8
3
100
AcDbLine
 10
-1.599409448818897
 20
4.875
 30
0.0
 11
-1.611220472440944
 21
4.862204724409449
 31
0.0
  0
LINE
  5
3430
330
1E
100
AcDbEntity
  8
3
100
AcDbLine
 10
-1.611220472440944
 20
4.862204724409449
 30
0.0
 11
-1.61515748031496
 21
4.847440944881889
 31
0.0
  0
LINE
  5
3431
330
1E
100
AcDbEntity
  8
3
100
AcDbLine
 10
-1.61515748031496
 20
4.847440944881889
 30
0.0
 11
-1.611220472440944
 21
4.831692913385826
 31
0.0
  0
LINE
  5
3432
330
1E
100
AcDbEntity
  8
3
100
AcDbLine
 10
-1.611220472440944
 20
4.831692913385826
 30
0.0
 11
-1.599409448818897
 21
4.819881889763779
 31
0.0
  0
LINE
  5
3433
330
1E
100
AcDbEntity
  8
3
100
AcDbLine
 10
-1.599409448818897
 20
4.819881889763779
 30
0.0
 11
-1.581692913385826
 21
4.811023622047244
 31
0.0
  0
LINE
  5
3434
330
1E
100
AcDbEntity
  8
3
100
AcDbLine
 10
-1.581692913385826
 20
4.811023622047244
 30
0.0
 11
-1.56003937007874
 21
4.808070866141732
 31
0.0
  0
LINE
  5
3435
330
1E
100
AcDbEntity
  8
3
100
AcDbLine
 10
-0.8956692913385824
 20
4.546259842519685
 30
0.0
 11
-0.900590551181102
 21
4.545275590551181
 31
0.0
  0
LINE
  5
3436
330
1E
100
AcDbEntity
  8
3
100
AcDbLine
 10
-0.900590551181102
 20
4.545275590551181
 30
0.0
 11
-0.9035433070866139
 21
4.541338582677165
 31
0.0
  0
LINE
  5
3437
330
1E
100
AcDbEntity
  8
3
100
AcDbLine
 10
-0.9035433070866139
 20
4.535433070866141
 30
0.0
 11
-0.9035433070866139
 21
4.536417322834646
 31
0.0
  0
LINE
  5
3438
330
1E
100
AcDbEntity
  8
3
100
AcDbLine
 10
-0.9035433070866139
 20
4.536417322834646
 30
0.0
 11
-0.9035433070866139
 21
4.540354330708662
 31
0.0
  0
LINE
  5
3439
330
1E
100
AcDbEntity
  8
3
100
AcDbLine
 10
-0.9537401574803148
 20
4.535433070866141
 30
0.0
 11
-0.9537401574803148
 21
4.536417322834646
 31
0.0
  0
LINE
  5
343A
330
1E
100
AcDbEntity
  8
3
100
AcDbLine
 10
-0.9537401574803148
 20
4.536417322834646
 30
0.0
 11
-0.9537401574803148
 21
4.540354330708662
 31
0.0
  0
LINE
  5
343B
330
1E
100
AcDbEntity
  8
3
100
AcDbLine
 10
-0.9035433070866139
 20
4.519685039370078
 30
0.0
 11
-0.9035433070866139
 21
4.502952755905512
 31
0.0
  0
LINE
  5
343C
330
1E
100
AcDbEntity
  8
3
100
AcDbLine
 10
-0.9035433070866139
 20
4.502952755905512
 30
0.0
 11
-0.9035433070866139
 21
4.484251968503937
 31
0.0
  0
LINE
  5
343D
330
1E
100
AcDbEntity
  8
3
100
AcDbLine
 10
-0.9035433070866139
 20
4.484251968503937
 30
0.0
 11
-0.9035433070866139
 21
4.465551181102362
 31
0.0
  0
LINE
  5
343E
330
1E
100
AcDbEntity
  8
3
100
AcDbLine
 10
-0.9035433070866139
 20
4.465551181102362
 30
0.0
 11
-0.9035433070866139
 21
4.451771653543307
 31
0.0
  0
LINE
  5
343F
330
1E
100
AcDbEntity
  8
3
100
AcDbLine
 10
-0.9035433070866139
 20
4.535433070866141
 30
0.0
 11
-0.9035433070866139
 21
4.531496062992125
 31
0.0
  0
LINE
  5
3440
330
1E
100
AcDbEntity
  8
3
100
AcDbLine
 10
-0.9035433070866139
 20
4.531496062992125
 30
0.0
 11
-0.9035433070866139
 21
4.519685039370078
 31
0.0
  0
LINE
  5
3441
330
1E
100
AcDbEntity
  8
3
100
AcDbLine
 10
-0.9537401574803148
 20
4.535433070866141
 30
0.0
 11
-0.9537401574803148
 21
4.530511811023622
 31
0.0
  0
LINE
  5
3442
330
1E
100
AcDbEntity
  8
3
100
AcDbLine
 10
-0.9537401574803148
 20
4.530511811023622
 30
0.0
 11
-0.9537401574803148
 21
4.516732283464566
 31
0.0
  0
LINE
  5
3443
330
1E
100
AcDbEntity
  8
3
100
AcDbLine
 10
-0.9537401574803148
 20
4.516732283464566
 30
0.0
 11
-0.9537401574803148
 21
4.497047244094487
 31
0.0
  0
LINE
  5
3444
330
1E
100
AcDbEntity
  8
3
100
AcDbLine
 10
-0.9537401574803148
 20
4.497047244094487
 30
0.0
 11
-0.9537401574803148
 21
4.476377952755905
 31
0.0
  0
LINE
  5
3445
330
1E
100
AcDbEntity
  8
3
100
AcDbLine
 10
-0.9537401574803148
 20
4.476377952755905
 30
0.0
 11
-0.9537401574803148
 21
4.45767716535433
 31
0.0
  0
LINE
  5
3446
330
1E
100
AcDbEntity
  8
3
100
AcDbLine
 10
-1.458661417322834
 20
4.540354330708662
 30
0.0
 11
-1.458661417322834
 21
4.536417322834646
 31
0.0
  0
LINE
  5
3447
330
1E
100
AcDbEntity
  8
3
100
AcDbLine
 10
-1.458661417322834
 20
4.536417322834646
 30
0.0
 11
-1.458661417322834
 21
4.535433070866141
 31
0.0
  0
LINE
  5
3448
330
1E
100
AcDbEntity
  8
3
100
AcDbLine
 10
-1.468503937007873
 20
4.532480314960629
 30
0.0
 11
-1.463582677165354
 21
4.534448818897637
 31
0.0
  0
LINE
  5
3449
330
1E
100
AcDbEntity
  8
3
100
AcDbLine
 10
-1.463582677165354
 20
4.534448818897637
 30
0.0
 11
-1.458661417322834
 21
4.535433070866141
 31
0.0
  0
LINE
  5
344A
330
1E
100
AcDbEntity
  8
3
100
AcDbLine
 10
-1.458661417322834
 20
4.535433070866141
 30
0.0
 11
-1.458661417322834
 21
4.531496062992125
 31
0.0
  0
LINE
  5
344B
330
1E
100
AcDbEntity
  8
3
100
AcDbLine
 10
-1.458661417322834
 20
4.531496062992125
 30
0.0
 11
-1.458661417322834
 21
4.519685039370078
 31
0.0
  0
LINE
  5
344C
330
1E
100
AcDbEntity
  8
3
100
AcDbLine
 10
-1.458661417322834
 20
4.519685039370078
 30
0.0
 11
-1.458661417322834
 21
4.502952755905512
 31
0.0
  0
LINE
  5
344D
330
1E
100
AcDbEntity
  8
3
100
AcDbLine
 10
-1.458661417322834
 20
4.502952755905512
 30
0.0
 11
-1.458661417322834
 21
4.484251968503937
 31
0.0
  0
LINE
  5
344E
330
1E
100
AcDbEntity
  8
3
100
AcDbLine
 10
-1.458661417322834
 20
4.484251968503937
 30
0.0
 11
-1.458661417322834
 21
4.465551181102362
 31
0.0
  0
LINE
  5
344F
330
1E
100
AcDbEntity
  8
3
100
AcDbLine
 10
-1.458661417322834
 20
4.465551181102362
 30
0.0
 11
-1.458661417322834
 21
4.451771653543307
 31
0.0
  0
LINE
  5
3450
330
1E
100
AcDbEntity
  8
3
100
AcDbLine
 10
-1.429133858267716
 20
4.535433070866141
 30
0.0
 11
-1.429133858267716
 21
4.530511811023622
 31
0.0
  0
LINE
  5
3451
330
1E
100
AcDbEntity
  8
3
100
AcDbLine
 10
-1.429133858267716
 20
4.530511811023622
 30
0.0
 11
-1.429133858267716
 21
4.516732283464566
 31
0.0
  0
LINE
  5
3452
330
1E
100
AcDbEntity
  8
3
100
AcDbLine
 10
-1.429133858267716
 20
4.516732283464566
 30
0.0
 11
-1.429133858267716
 21
4.497047244094487
 31
0.0
  0
LINE
  5
3453
330
1E
100
AcDbEntity
  8
3
100
AcDbLine
 10
-1.429133858267716
 20
4.497047244094487
 30
0.0
 11
-1.429133858267716
 21
4.476377952755905
 31
0.0
  0
LINE
  5
3454
330
1E
100
AcDbEntity
  8
3
100
AcDbLine
 10
-1.429133858267716
 20
4.476377952755905
 30
0.0
 11
-1.429133858267716
 21
4.45767716535433
 31
0.0
  0
LINE
  5
3455
330
1E
100
AcDbEntity
  8
3
100
AcDbLine
 10
-1.429133858267716
 20
4.535433070866141
 30
0.0
 11
-1.429133858267716
 21
4.536417322834646
 31
0.0
  0
LINE
  5
3456
330
1E
100
AcDbEntity
  8
3
100
AcDbLine
 10
-1.429133858267716
 20
4.536417322834646
 30
0.0
 11
-1.429133858267716
 21
4.540354330708662
 31
0.0
  0
LINE
  5
3457
330
1E
100
AcDbEntity
  8
3
100
AcDbLine
 10
-1.429133858267716
 20
4.451771653543307
 30
0.0
 11
-1.429133858267716
 21
4.46259842519685
 31
0.0
  0
LINE
  5
3458
330
1E
100
AcDbEntity
  8
3
100
AcDbLine
 10
-1.429133858267716
 20
4.46259842519685
 30
0.0
 11
-1.429133858267716
 21
4.478346456692913
 31
0.0
  0
LINE
  5
3459
330
1E
100
AcDbEntity
  8
3
100
AcDbLine
 10
-1.429133858267716
 20
4.478346456692913
 30
0.0
 11
-1.429133858267716
 21
4.493110236220472
 31
0.0
  0
LINE
  5
3462
330
1E
100
AcDbEntity
  8
3
100
AcDbLine
 10
-0.2027559055118107
 20
5.706692913385826
 30
0.0
 11
-0.2027559055118107
 21
5.753937007874015
 31
0.0
  0
LINE
  5
3463
330
1E
100
AcDbEntity
  8
3
100
AcDbLine
 10
-0.2027559055118107
 20
5.753937007874015
 30
0.0
 11
-0.1732283464566926
 21
5.753937007874015
 31
0.0
  0
LINE
  5
3464
330
1E
100
AcDbEntity
  8
3
100
AcDbLine
 10
-1.631889763779527
 20
6.363188976377952
 30
0.0
 11
-1.597440944881889
 21
6.363188976377952
 31
0.0
  0
LINE
  5
3465
330
1E
100
AcDbEntity
  8
3
100
AcDbLine
 10
-1.597440944881889
 20
6.363188976377952
 30
0.0
 11
-1.631889763779527
 21
6.363188976377952
 31
0.0
  0
LINE
  5
3466
330
1E
100
AcDbEntity
  8
3
100
AcDbLine
 10
-1.588582677165354
 20
6.154527559055118
 30
0.0
 11
-1.588582677165354
 21
6.155511811023622
 31
0.0
  0
LINE
  5
3467
330
1E
100
AcDbEntity
  8
3
100
AcDbLine
 10
-1.588582677165354
 20
6.155511811023622
 30
0.0
 11
-1.588582677165354
 21
6.160433070866141
 31
0.0
  0
LINE
  5
3468
330
1E
100
AcDbEntity
  8
3
100
AcDbLine
 10
0.0
 20
6.363188976377952
 30
0.0
 11
-0.0344488188976375
 21
6.363188976377952
 31
0.0
  0
LINE
  5
3469
330
1E
100
AcDbEntity
  8
3
100
AcDbLine
 10
-0.0344488188976375
 20
6.363188976377952
 30
0.0
 11
0.0
 21
6.363188976377952
 31
0.0
  0
LINE
  5
346A
330
1E
100
AcDbEntity
  8
3
100
AcDbLine
 10
-0.1338582677165352
 20
5.629921259842519
 30
0.0
 11
-1.491141732283464
 21
5.629921259842519
 31
0.0
  0
LINE
  5
346B
330
1E
100
AcDbEntity
  8
3
100
AcDbLine
 10
-1.491141732283464
 20
5.629921259842519
 30
0.0
 11
-1.493110236220472
 21
5.583661417322835
 31
0.0
  0
LINE
  5
346C
330
1E
100
AcDbEntity
  8
3
100
AcDbLine
 10
-1.581692913385826
 20
5.533464566929134
 30
0.0
 11
-1.503937007874015
 21
5.533464566929134
 31
0.0
  0
LINE
  5
346D
330
1E
100
AcDbEntity
  8
3
100
AcDbLine
 10
-1.503937007874015
 20
5.533464566929134
 30
0.0
 11
-1.503937007874015
 21
5.670275590551181
 31
0.0
  0
LINE
  5
346E
330
1E
100
AcDbEntity
  8
3
100
AcDbLine
 10
-0.840551181102362
 20
5.76279527559055
 30
0.0
 11
-0.840551181102362
 21
6.099409448818898
 31
0.0
  0
LINE
  5
346F
330
1E
100
AcDbEntity
  8
3
100
AcDbLine
 10
-0.840551181102362
 20
6.099409448818898
 30
0.0
 11
-1.56003937007874
 21
6.099409448818898
 31
0.0
  0
LINE
  5
3470
330
1E
100
AcDbEntity
  8
3
100
AcDbLine
 10
-1.429133858267716
 20
5.706692913385826
 30
0.0
 11
-1.429133858267716
 21
5.753937007874015
 31
0.0
  0
LINE
  5
3471
330
1E
100
AcDbEntity
  8
3
100
AcDbLine
 10
-1.429133858267716
 20
5.753937007874015
 30
0.0
 11
-1.458661417322834
 21
5.753937007874015
 31
0.0
  0
LINE
  5
3472
330
1E
100
AcDbEntity
  8
3
100
AcDbLine
 10
-0.1732283464566926
 20
4.451771653543307
 30
0.0
 11
-0.2027559055118107
 21
4.451771653543307
 31
0.0
  0
LINE
  5
3473
330
1E
100
AcDbEntity
  8
3
100
AcDbLine
 10
-0.2027559055118107
 20
4.451771653543307
 30
0.0
 11
-0.2027559055118107
 21
4.540354330708662
 31
0.0
  0
LINE
  5
3474
330
1E
100
AcDbEntity
  8
3
100
AcDbLine
 10
-0.2027559055118107
 20
4.540354330708662
 30
0.0
 11
-0.1732283464566926
 21
4.540354330708662
 31
0.0
  0
LINE
  5
3475
330
1E
100
AcDbEntity
  8
3
100
AcDbLine
 10
-1.631889763779527
 20
4.03248031496063
 30
0.0
 11
-1.557086614173228
 21
3.90255905511811
 31
0.0
  0
LINE
  5
3476
330
1E
100
AcDbEntity
  8
3
100
AcDbLine
 10
-1.557086614173228
 20
3.90255905511811
 30
0.0
 11
-1.535433070866141
 21
3.90255905511811
 31
0.0
  0
LINE
  5
3477
330
1E
100
AcDbEntity
  8
3
100
AcDbLine
 10
-1.631889763779527
 20
4.03248031496063
 30
0.0
 11
-1.631889763779527
 21
4.051181102362204
 31
0.0
  0
LINE
  5
3478
330
1E
100
AcDbEntity
  8
3
100
AcDbLine
 10
-1.631889763779527
 20
4.051181102362204
 30
0.0
 11
-1.631889763779527
 21
4.03248031496063
 31
0.0
  0
LINE
  5
3479
330
1E
100
AcDbEntity
  8
3
100
AcDbLine
 10
1.018700787401574
 20
4.58759842519685
 30
0.0
 11
1.162401574803149
 21
4.730314960629921
 31
0.0
  0
LINE
  5
347A
330
1E
100
AcDbEntity
  8
3
100
AcDbLine
 10
1.162401574803149
 20
4.730314960629921
 30
0.0
 11
1.173228346456693
 21
4.742125984251968
 31
0.0
  0
LINE
  5
347B
330
1E
100
AcDbEntity
  8
3
100
AcDbLine
 10
1.193897637795275
 20
4.052165354330709
 30
0.0
 11
1.519685039370079
 21
4.052165354330709
 31
0.0
  0
LINE
  5
347C
330
1E
100
AcDbEntity
  8
3
100
AcDbLine
 10
1.519685039370079
 20
4.052165354330709
 30
0.0
 11
1.519685039370079
 21
4.234251968503937
 31
0.0
  0
LINE
  5
347D
330
1E
100
AcDbEntity
  8
3
100
AcDbLine
 10
0.6889763779527561
 20
4.234251968503937
 30
0.0
 11
0.8267716535433073
 21
4.234251968503937
 31
0.0
  0
LINE
  5
347E
330
1E
100
AcDbEntity
  8
3
100
AcDbLine
 10
0.8267716535433073
 20
4.234251968503937
 30
0.0
 11
0.8267716535433073
 21
4.263779527559055
 31
0.0
  0
LINE
  5
347F
330
1E
100
AcDbEntity
  8
3
100
AcDbLine
 10
-0.1279527559055116
 20
4.283464566929134
 30
0.0
 11
-0.46751968503937
 21
4.283464566929134
 31
0.0
  0
LINE
  5
3480
330
1E
100
AcDbEntity
  8
3
100
AcDbLine
 10
-0.46751968503937
 20
4.283464566929134
 30
0.0
 11
-0.4685039370078741
 21
4.352362204724409
 31
0.0
  0
LINE
  5
3481
330
1E
100
AcDbEntity
  8
3
100
AcDbLine
 10
-0.7854330708661417
 20
4.283464566929134
 30
0.0
 11
-0.7854330708661417
 21
4.352362204724409
 31
0.0
  0
LINE
  5
3482
330
1E
100
AcDbEntity
  8
3
100
AcDbLine
 10
-0.7854330708661417
 20
4.352362204724409
 30
0.0
 11
-0.5285433070866139
 21
4.352362204724409
 31
0.0
  0
LINE
  5
3483
330
1E
100
AcDbEntity
  8
3
100
AcDbLine
 10
0.0
 20
4.03248031496063
 30
0.0
 11
-0.0748031496062991
 21
3.90255905511811
 31
0.0
  0
LINE
  5
3484
330
1E
100
AcDbEntity
  8
3
100
AcDbLine
 10
-0.0748031496062991
 20
3.90255905511811
 30
0.0
 11
-0.095472440944882
 21
3.90255905511811
 31
0.0
  0
LINE
  5
3485
330
1E
100
AcDbEntity
  8
3
100
AcDbLine
 10
0.0
 20
4.03248031496063
 30
0.0
 11
0.0
 21
4.051181102362204
 31
0.0
  0
LINE
  5
3486
330
1E
100
AcDbEntity
  8
3
100
AcDbLine
 10
0.0
 20
4.051181102362204
 30
0.0
 11
0.0
 21
4.03248031496063
 31
0.0
  0
LINE
  5
3487
330
1E
100
AcDbEntity
  8
3
100
AcDbLine
 10
-0.1368110236220472
 20
4.421259842519685
 30
0.0
 11
-1.491141732283464
 21
4.421259842519685
 31
0.0
  0
LINE
  5
3488
330
1E
100
AcDbEntity
  8
3
100
AcDbLine
 10
-1.491141732283464
 20
4.421259842519685
 30
0.0
 11
-1.493110236220472
 21
4.421259842519685
 31
0.0
  0
LINE
  5
3489
330
1E
100
AcDbEntity
  8
3
100
AcDbLine
 10
-1.597440944881889
 20
4.233267716535433
 30
0.0
 11
-0.0344488188976375
 21
4.233267716535433
 31
0.0
  0
LINE
  5
348A
330
1E
100
AcDbEntity
  8
3
100
AcDbLine
 10
-0.0344488188976375
 20
4.233267716535433
 30
0.0
 11
-0.0344488188976375
 21
4.400590551181102
 31
0.0
  0
LINE
  5
348B
330
1E
100
AcDbEntity
  8
3
100
AcDbLine
 10
-1.581692913385826
 20
4.559055118110236
 30
0.0
 11
-1.581692913385826
 21
4.423228346456693
 31
0.0
  0
LINE
  5
348C
330
1E
100
AcDbEntity
  8
3
100
AcDbLine
 10
-1.581692913385826
 20
4.423228346456693
 30
0.0
 11
-1.503937007874015
 21
4.423228346456693
 31
0.0
  0
LINE
  5
348D
330
1E
100
AcDbEntity
  8
3
100
AcDbLine
 10
-1.503937007874015
 20
4.423228346456693
 30
0.0
 11
-1.503937007874015
 21
4.559055118110236
 31
0.0
  0
LINE
  5
348E
330
1E
100
AcDbEntity
  8
3
100
AcDbLine
 10
-1.503937007874015
 20
4.77755905511811
 30
0.0
 11
-1.502952755905511
 21
4.77755905511811
 31
0.0
  0
LINE
  5
348F
330
1E
100
AcDbEntity
  8
3
100
AcDbLine
 10
-1.502952755905511
 20
4.77755905511811
 30
0.0
 11
-1.503937007874015
 21
4.77755905511811
 31
0.0
  0
LINE
  5
3490
330
1E
100
AcDbEntity
  8
3
100
AcDbLine
 10
-0.840551181102362
 20
4.546259842519685
 30
0.0
 11
-0.840551181102362
 21
4.885826771653543
 31
0.0
  0
LINE
  5
3491
330
1E
100
AcDbEntity
  8
3
100
AcDbLine
 10
-0.840551181102362
 20
4.885826771653543
 30
0.0
 11
-1.56003937007874
 21
4.885826771653543
 31
0.0
  0
LINE
  5
3492
330
1E
100
AcDbEntity
  8
3
100
AcDbLine
 10
-0.9537401574803148
 20
4.540354330708662
 30
0.0
 11
-0.9035433070866139
 21
4.540354330708662
 31
0.0
  0
LINE
  5
3493
330
1E
100
AcDbEntity
  8
3
100
AcDbLine
 10
-0.9035433070866139
 20
4.540354330708662
 30
0.0
 11
-0.9035433070866139
 21
4.541338582677165
 31
0.0
  0
LINE
  5
3494
330
1E
100
AcDbEntity
  8
3
100
AcDbLine
 10
-1.429133858267716
 20
4.493110236220472
 30
0.0
 11
-1.429133858267716
 21
4.540354330708662
 31
0.0
  0
LINE
  5
3495
330
1E
100
AcDbEntity
  8
3
100
AcDbLine
 10
-1.429133858267716
 20
4.540354330708662
 30
0.0
 11
-1.458661417322834
 21
4.540354330708662
 31
0.0
  0
ENDSEC
  0
SECTION
  2
OBJECTS
  0
DICTIONARY
  5
C
330
0
100
AcDbDictionary
  3
ACAD_GROUP
350
D
  3
ACAD_MLINESTYLE
350
16
  3
ACAD_PLOTSETTINGS
350
18
  3
ACAD_LAYOUT
350
19
1001
ACAD
1000
TREAT_AS_HARD
1070
     0
  0
DICTIONARY
  5
48D3
330
1E
100
AcDbDictionary
  3
ACAD_LAYOUTSELFREF
350
48D4
  0
DICTIONARY
  5
48D1
330
1A
100
AcDbDictionary
  3
ACAD_LAYOUTSELFREF
350
48D2
  0
DICTIONARY
  5
D
102
{ACAD_REACTORS
330
C
102
}
330
C
100
AcDbDictionary
1001
ACAD
1000
TREAT_AS_HARD
1070
     0
  0
DICTIONARY
  5
16
102
{ACAD_REACTORS
330
C
102
}
330
C
100
AcDbDictionary
  3
STANDARD
350
17
1001
ACAD
1000
TREAT_AS_HARD
1070
     0
  0
DICTIONARY
  5
18
102
{ACAD_REACTORS
330
C
102
}
330
C
100
AcDbDictionary
1001
ACAD
1000
TREAT_AS_HARD
1070
     0
  0
DICTIONARY
  5
19
102
{ACAD_REACTORS
330
C
102
}
330
C
100
AcDbDictionary
1001
ACAD
1000
TREAT_AS_HARD
1070
     0
  0
XRECORD
  5
48D4
102
{ACAD_REACTORS
330
48D3
102
}
330
48D3
100
AcDbXrecord
340
1E
  0
XRECORD
  5
48D2
102
{ACAD_REACTORS
330
48D1
102
}
330
48D1
100
AcDbXrecord
340
1A
  0
MLINESTYLE
  5
17
102
{ACAD_REACTORS
330
16
102
}
330
16
100
AcDbMlineStyle
  2
STANDARD
 70
     0
  3

 62
   256
 51
90.0
 52
90.0
 71
     2
 49
0.5
 62
   256
  6
BYLAYER
 49
-0.5
 62
   256
  6
BYLAYER
  0
ENDSEC
  0
EOF
