  0
SECTION
  2
HEADER
  9
$ACADVER
  1
AC1012
  9
$DWGCODEPAGE
  3
ANSI_1252
  9
$INSBASE
 10
0.0
 20
0.0
 30
0.0
  9
$EXTMIN
 10
2.182251007042651
 20
3.457672144120643
 30
-0.0015258207003583
  9
$EXTMAX
 10
3.293701189679211
 20
7.006256122149359
 30
0.0000000349246037
  9
$LIMMIN
 10
0.0
 20
0.0
  9
$LIMMAX
 10
12.0
 20
9.0
  9
$ORTHOMODE
 70
     1
  9
$REGENMODE
 70
     1
  9
$FILLMODE
 70
     1
  9
$QTEXTMODE
 70
     0
  9
$MIRRTEXT
 70
     1
  9
$DRAGMODE
 70
     2
  9
$LTSCALE
 40
1.0
  9
$OSMODE
 70
    33
  9
$ATTMODE
 70
     1
  9
$TEXTSIZE
 40
0.2
  9
$TRACEWID
 40
0.05
  9
$TEXTSTYLE
  7
STANDARD
  9
$CLAYER
  8
0
  9
$CELTYPE
  6
BYLAYER
  9
$CECOLOR
 62
   256
  9
$CELTSCALE
 40
1.0
  9
$DELOBJ
 70
     1
  9
$DISPSILH
 70
     0
  9
$DIMSCALE
 40
1.0
  9
$DIMASZ
 40
0.18
  9
$DIMEXO
 40
0.0625
  9
$DIMDLI
 40
0.38
  9
$DIMRND
 40
0.0
  9
$DIMDLE
 40
0.0
  9
$DIMEXE
 40
0.18
  9
$DIMTP
 40
0.0
  9
$DIMTM
 40
0.0
  9
$DIMTXT
 40
0.18
  9
$DIMCEN
 40
0.09
  9
$DIMTSZ
 40
0.0
  9
$DIMTOL
 70
     0
  9
$DIMLIM
 70
     0
  9
$DIMTIH
 70
     1
  9
$DIMTOH
 70
     1
  9
$DIMSE1
 70
     0
  9
$DIMSE2
 70
     0
  9
$DIMTAD
 70
     0
  9
$DIMZIN
 70
     0
  9
$DIMBLK
  1

  9
$DIMASO
 70
     1
  9
$DIMSHO
 70
     1
  9
$DIMPOST
  1

  9
$DIMAPOST
  1

  9
$DIMALT
 70
     0
  9
$DIMALTD
 70
     2
  9
$DIMALTF
 40
25.4
  9
$DIMLFAC
 40
1.0
  9
$DIMTOFL
 70
     0
  9
$DIMTVP
 40
0.0
  9
$DIMTIX
 70
     0
  9
$DIMSOXD
 70
     0
  9
$DIMSAH
 70
     0
  9
$DIMBLK1
  1

  9
$DIMBLK2
  1

  9
$DIMSTYLE
  2
STANDARD
  9
$DIMCLRD
 70
     0
  9
$DIMCLRE
 70
     0
  9
$DIMCLRT
 70
     0
  9
$DIMTFAC
 40
1.0
  9
$DIMGAP
 40
0.09
  9
$DIMJUST
 70
     0
  9
$DIMSD1
 70
     0
  9
$DIMSD2
 70
     0
  9
$DIMTOLJ
 70
     1
  9
$DIMTZIN
 70
     0
  9
$DIMALTZ
 70
     0
  9
$DIMALTTZ
 70
     0
  9
$DIMFIT
 70
     3
  9
$DIMUPT
 70
     0
  9
$DIMUNIT
 70
     2
  9
$DIMDEC
 70
     4
  9
$DIMTDEC
 70
     4
  9
$DIMALTU
 70
     2
  9
$DIMALTTD
 70
     2
  9
$DIMTXSTY
  7
STANDARD
  9
$DIMAUNIT
 70
     0
  9
$LUNITS
 70
     2
  9
$LUPREC
 70
     4
  9
$SKETCHINC
 40
0.1
  9
$FILLETRAD
 40
0.0
  9
$AUNITS
 70
     0
  9
$AUPREC
 70
     0
  9
$MENU
  1
acad
  9
$ELEVATION
 40
0.0
  9
$PELEVATION
 40
0.0
  9
$THICKNESS
 40
0.0
  9
$LIMCHECK
 70
     0
  9
$BLIPMODE
 70
     0
  9
$CHAMFERA
 40
0.0
  9
$CHAMFERB
 40
0.0
  9
$CHAMFERC
 40
0.0
  9
$CHAMFERD
 40
0.0
  9
$SKPOLY
 70
     0
  9
$TDCREATE
 40
2452152.339386574
  9
$TDUPDATE
 40
2452347.364632176
  9
$TDINDWG
 40
0.0016248843
  9
$TDUSRTIMER
 40
0.0016245255
  9
$USRTIMER
 70
     1
  9
$ANGBASE
 50
0.0
  9
$ANGDIR
 70
     0
  9
$PDMODE
 70
     0
  9
$PDSIZE
 40
0.0
  9
$PLINEWID
 40
0.0
  9
$COORDS
 70
     2
  9
$SPLFRAME
 70
     0
  9
$SPLINETYPE
 70
     6
  9
$SPLINESEGS
 70
     8
  9
$ATTDIA
 70
     0
  9
$ATTREQ
 70
     1
  9
$HANDLING
 70
  4097
  9
$HANDSEED
  5
53E2
  9
$SURFTAB1
 70
     6
  9
$SURFTAB2
 70
     6
  9
$SURFTYPE
 70
     6
  9
$SURFU
 70
     6
  9
$SURFV
 70
     6
  9
$UCSNAME
  2

  9
$UCSORG
 10
0.0
 20
0.0
 30
0.0
  9
$UCSXDIR
 10
1.0
 20
0.0
 30
0.0
  9
$UCSYDIR
 10
0.0
 20
1.0
 30
0.0
  9
$PUCSNAME
  2

  9
$PUCSORG
 10
0.0
 20
0.0
 30
0.0
  9
$PUCSXDIR
 10
1.0
 20
0.0
 30
0.0
  9
$PUCSYDIR
 10
0.0
 20
1.0
 30
0.0
  9
$USERI1
 70
     0
  9
$USERI2
 70
     0
  9
$USERI3
 70
     0
  9
$USERI4
 70
     0
  9
$USERI5
 70
     0
  9
$USERR1
 40
0.0
  9
$USERR2
 40
0.0
  9
$USERR3
 40
0.0
  9
$USERR4
 40
0.0
  9
$USERR5
 40
0.0
  9
$WORLDVIEW
 70
     1
  9
$SHADEDGE
 70
     3
  9
$SHADEDIF
 70
    70
  9
$TILEMODE
 70
     1
  9
$MAXACTVP
 70
    16
  9
$PINSBASE
 10
0.0
 20
0.0
 30
0.0
  9
$PLIMCHECK
 70
     0
  9
$PEXTMIN
 10
1.000000000000000E+20
 20
1.000000000000000E+20
 30
1.000000000000000E+20
  9
$PEXTMAX
 10
-1.000000000000000E+20
 20
-1.000000000000000E+20
 30
-1.000000000000000E+20
  9
$PLIMMIN
 10
0.0
 20
0.0
  9
$PLIMMAX
 10
12.0
 20
9.0
  9
$UNITMODE
 70
     0
  9
$VISRETAIN
 70
     0
  9
$PLINEGEN
 70
     0
  9
$PSLTSCALE
 70
     1
  9
$TREEDEPTH
 70
  3020
  9
$PICKSTYLE
 70
     1
  9
$CMLSTYLE
  2
STANDARD
  9
$CMLJUST
 70
     0
  9
$CMLSCALE
 40
1.0
  9
$SAVEIMAGES
 70
     1
  0
ENDSEC
  0
SECTION
  2
CLASSES
  0
CLASS
  1
ACDBDICTIONARYWDFLT
  2
AcDbDictionaryWithDefault
  3
AutoCAD 2000
 90
    32768
280
     0
281
     0
  0
CLASS
  1
ACDBPLACEHOLDER
  2
AcDbPlaceHolder
  3
AutoCAD 2000
 90
    32768
280
     0
281
     0
  0
CLASS
  1
LAYOUT
  2
AcDbLayout
  3
AutoCAD 2000
 90
    32768
280
     0
281
     0
  0
CLASS
  1
LONG_TRANSACTION
  2
AcDbLongTransaction
  3
AutoCAD 2000
 90
    32768
280
     0
281
     0
  0
CLASS
  1
LWPOLYLINE
  2
AcDbPolyline
  3
AutoCAD 2000
 90
    32768
280
     0
281
     1
  0
CLASS
  1
HATCH
  2
AcDbHatch
  3
AutoCAD 2000
 90
    32768
280
     0
281
     1
  0
CLASS
  1
XRECORD
  2
AcDbXrecord
  3
AutoCAD 2000
 90
    32768
280
     0
281
     0
  0
CLASS
  1
LONG_TRANSACTION
  2
AcDbLongTransaction
  3
AutoCAD 2000
 90
    32768
280
     0
281
     0
  0
CLASS
  1
LWPOLYLINE
  2
AcDbPolyline
  3
AutoCAD 2000
 90
    32768
280
     0
281
     1
  0
CLASS
  1
HATCH
  2
AcDbHatch
  3
AutoCAD 2000
 90
    32768
280
     0
281
     1
  0
CLASS
  1
XRECORD
  2
AcDbXrecord
  3
AutoCAD 2000
 90
    32768
280
     0
281
     0
  0
CLASS
  1
LONG_TRANSACTION
  2
AcDbLongTransaction
  3
AutoCAD 2000
 90
    32768
280
     0
281
     0
  0
CLASS
  1
LWPOLYLINE
  2
AcDbPolyline
  3
AutoCAD 2000
 90
    32768
280
     0
281
     1
  0
CLASS
  1
HATCH
  2
AcDbHatch
  3
AutoCAD 2000
 90
    32768
280
     0
281
     1
  0
CLASS
  1
XRECORD
  2
AcDbXrecord
  3
AutoCAD 2000
 90
    32768
280
     0
281
     0
  0
ENDSEC
  0
SECTION
  2
TABLES
  0
TABLE
  2
VPORT
  5
8
330
0
100
AcDbSymbolTable
 70
     3
  0
VPORT
  5
53DF
330
8
100
AcDbSymbolTableRecord
100
AcDbViewportTableRecord
  2
*ACTIVE
 70
     0
 10
0.0
 20
0.0
 11
1.0
 21
1.0
 12
2.737976098360931
 22
5.231964133135001
 13
0.0
 23
0.0
 14
1.0
 24
1.0
 15
0.0
 25
0.0
 16
0.0
 26
0.0
 36
1.0
 17
0.0
 27
0.0
 37
0.0
 40
3.57663602528586
 41
1.608179419525066
 42
50.0
 43
0.0
 44
0.0
 50
0.0
 51
0.0
 71
     0
 72
   100
 73
     1
 74
     1
 75
     0
 76
     0
 77
     0
 78
     0
  0
ENDTAB
  0
TABLE
  2
LTYPE
  5
5
330
0
100
AcDbSymbolTable
 70
    25
  0
LTYPE
  5
13
330
5
100
AcDbSymbolTableRecord
100
AcDbLinetypeTableRecord
  2
BYBLOCK
 70
     0
  3

 72
    65
 73
     0
 40
0.0
  0
LTYPE
  5
14
330
5
100
AcDbSymbolTableRecord
100
AcDbLinetypeTableRecord
  2
BYLAYER
 70
     0
  3

 72
    65
 73
     0
 40
0.0
  0
LTYPE
  5
15
330
5
100
AcDbSymbolTableRecord
100
AcDbLinetypeTableRecord
  2
CONTINUOUS
 70
     0
  3
Solid line
 72
    65
 73
     0
 40
0.0
  0
LTYPE
  5
22
330
5
100
AcDbSymbolTableRecord
100
AcDbLinetypeTableRecord
  2
BORDER
 70
     0
  3
__ __ . __ __ . __ __ . __ __ . __ __ . __ __ .
 72
    65
 73
     6
 40
1.75
 49
0.5
 74
     0
 49
-0.25
 74
     0
 49
0.5
 74
     0
 49
-0.25
 74
     0
 49
0.5
 74
     0
 49
-0.25
 74
     0
  0
LTYPE
  5
23
330
5
100
AcDbSymbolTableRecord
100
AcDbLinetypeTableRecord
  2
BORDER2
 70
     0
  3
__.__.__.__.__.__.__.__.__.__.__.__.__.__.__.__
 72
    65
 73
     6
 40
0.875
 49
0.25
 74
     0
 49
-0.125
 74
     0
 49
0.25
 74
     0
 49
-0.125
 74
     0
 49
0.25
 74
     0
 49
-0.125
 74
     0
  0
LTYPE
  5
24
330
5
100
AcDbSymbolTableRecord
100
AcDbLinetypeTableRecord
  2
BORDERX2
 70
     0
  3
____  ____  .  ____  ____  .  
 72
    65
 73
     6
 40
3.5
 49
1.0
 74
     0
 49
-0.5
 74
     0
 49
1.0
 74
     0
 49
-0.5
 74
     0
 49
1.0
 74
     0
 49
-0.5
 74
     0
  0
LTYPE
  5
25
330
5
100
AcDbSymbolTableRecord
100
AcDbLinetypeTableRecord
  2
CENTER
 70
     0
  3
____ _ ____ _ ____ _ ____ _ ____ _ ____ _ ____
 72
    65
 73
     4
 40
2.0
 49
1.25
 74
     0
 49
-0.25
 74
     0
 49
0.25
 74
     0
 49
-0.25
 74
     0
  0
LTYPE
  5
26
330
5
100
AcDbSymbolTableRecord
100
AcDbLinetypeTableRecord
  2
CENTER2
 70
     0
  3
____ _ ____ _ ____ _ ____ _ ____ _ ____ _ ____
 72
    65
 73
     4
 40
1.125
 49
0.75
 74
     0
 49
-0.125
 74
     0
 49
0.125
 74
     0
 49
-0.125
 74
     0
  0
LTYPE
  5
27
330
5
100
AcDbSymbolTableRecord
100
AcDbLinetypeTableRecord
  2
CENTERX2
 70
     0
  3
________  __  ________  __  ________  __  
 72
    65
 73
     4
 40
4.0
 49
2.5
 74
     0
 49
-0.5
 74
     0
 49
0.5
 74
     0
 49
-0.5
 74
     0
  0
LTYPE
  5
28
330
5
100
AcDbSymbolTableRecord
100
AcDbLinetypeTableRecord
  2
DASHDOT
 70
     0
  3
__ . __ . __ . __ . __ . __ . __ . 
 72
    65
 73
     4
 40
1.0
 49
0.5
 74
     0
 49
-0.25
 74
     0
 49
0.0
 74
     0
 49
-0.25
 74
     0
  0
LTYPE
  5
29
330
5
100
AcDbSymbolTableRecord
100
AcDbLinetypeTableRecord
  2
DASHDOT2
 70
     0
  3
_._._._._._._._._._._._._._._._.
 72
    65
 73
     4
 40
0.5
 49
0.25
 74
     0
 49
-0.125
 74
     0
 49
0.0
 74
     0
 49
-0.125
 74
     0
  0
LTYPE
  5
2A
330
5
100
AcDbSymbolTableRecord
100
AcDbLinetypeTableRecord
  2
DASHDOTX2
 70
     0
  3
____  .  ____  .  ____  .  ____  .  
 72
    65
 73
     4
 40
2.0
 49
1.0
 74
     0
 49
-0.5
 74
     0
 49
0.0
 74
     0
 49
-0.5
 74
     0
  0
LTYPE
  5
2B
330
5
100
AcDbSymbolTableRecord
100
AcDbLinetypeTableRecord
  2
DASHED
 70
     0
  3
__ __ __ __ __ __ __ __ __ __ __ __ 
 72
    65
 73
     2
 40
0.75
 49
0.5
 74
     0
 49
-0.25
 74
     0
  0
LTYPE
  5
2C
330
5
100
AcDbSymbolTableRecord
100
AcDbLinetypeTableRecord
  2
DASHED2
 70
     0
  3
_ _ _ _ _ _ _ _ _ _ _ _ _ _ _ _ _ _ 
 72
    65
 73
     2
 40
0.375
 49
0.25
 74
     0
 49
-0.125
 74
     0
  0
LTYPE
  5
2D
330
5
100
AcDbSymbolTableRecord
100
AcDbLinetypeTableRecord
  2
DASHEDX2
 70
     0
  3
____  ____  ____  ____  ____  ____  
 72
    65
 73
     2
 40
1.5
 49
1.0
 74
     0
 49
-0.5
 74
     0
  0
LTYPE
  5
2E
330
5
100
AcDbSymbolTableRecord
100
AcDbLinetypeTableRecord
  2
DIVIDE
 70
     0
  3
____ . . ____ . . ____ . . ____ . . 
 72
    65
 73
     6
 40
1.25
 49
0.5
 74
     0
 49
-0.25
 74
     0
 49
0.0
 74
     0
 49
-0.25
 74
     0
 49
0.0
 74
     0
 49
-0.25
 74
     0
  0
LTYPE
  5
2F
330
5
100
AcDbSymbolTableRecord
100
AcDbLinetypeTableRecord
  2
DIVIDE2
 70
     0
  3
__..__..__..__..__..__..__..__..__..
 72
    65
 73
     6
 40
0.625
 49
0.25
 74
     0
 49
-0.125
 74
     0
 49
0.0
 74
     0
 49
-0.125
 74
     0
 49
0.0
 74
     0
 49
-0.125
 74
     0
  0
LTYPE
  5
30
330
5
100
AcDbSymbolTableRecord
100
AcDbLinetypeTableRecord
  2
DIVIDEX2
 70
     0
  3
________  .  .  ________  .  .  ________  .  . 
 72
    65
 73
     6
 40
2.5
 49
1.0
 74
     0
 49
-0.5
 74
     0
 49
0.0
 74
     0
 49
-0.5
 74
     0
 49
0.0
 74
     0
 49
-0.5
 74
     0
  0
LTYPE
  5
31
330
5
100
AcDbSymbolTableRecord
100
AcDbLinetypeTableRecord
  2
DOT
 70
     0
  3
. . . . . . . . . . . . . . . . . . 
 72
    65
 73
     2
 40
0.25
 49
0.0
 74
     0
 49
-0.25
 74
     0
  0
LTYPE
  5
32
330
5
100
AcDbSymbolTableRecord
100
AcDbLinetypeTableRecord
  2
DOT2
 70
     0
  3
....................................
 72
    65
 73
     2
 40
0.125
 49
0.0
 74
     0
 49
-0.125
 74
     0
  0
LTYPE
  5
33
330
5
100
AcDbSymbolTableRecord
100
AcDbLinetypeTableRecord
  2
DOTX2
 70
     0
  3
.  .  .  .  .  .  .  .  .  .  .  .  .  
 72
    65
 73
     2
 40
0.5
 49
0.0
 74
     0
 49
-0.5
 74
     0
  0
LTYPE
  5
34
330
5
100
AcDbSymbolTableRecord
100
AcDbLinetypeTableRecord
  2
HIDDEN
 70
     0
  3
__ __ __ __ __ __ __ __ __ __ __ __ 
 72
    65
 73
     2
 40
0.375
 49
0.25
 74
     0
 49
-0.125
 74
     0
  0
LTYPE
  5
35
330
5
100
AcDbSymbolTableRecord
100
AcDbLinetypeTableRecord
  2
HIDDEN2
 70
     0
  3
_ _ _ _ _ _ _ _ _ _ _ _ _ _ _ _ _ _ 
 72
    65
 73
     2
 40
0.1875
 49
0.125
 74
     0
 49
-0.0625
 74
     0
  0
LTYPE
  5
36
330
5
100
AcDbSymbolTableRecord
100
AcDbLinetypeTableRecord
  2
HIDDENX2
 70
     0
  3
____ ____ ____ ____ ____ ____ ____ 
 72
    65
 73
     2
 40
0.75
 49
0.5
 74
     0
 49
-0.25
 74
     0
  0
LTYPE
  5
37
330
5
100
AcDbSymbolTableRecord
100
AcDbLinetypeTableRecord
  2
PHANTOM
 70
     0
  3
______  __  __  ______  __  __  
 72
    65
 73
     6
 40
2.5
 49
1.25
 74
     0
 49
-0.25
 74
     0
 49
0.25
 74
     0
 49
-0.25
 74
     0
 49
0.25
 74
     0
 49
-0.25
 74
     0
  0
LTYPE
  5
38
330
5
100
AcDbSymbolTableRecord
100
AcDbLinetypeTableRecord
  2
PHANTOM2
 70
     0
  3
___ _ _ ___ _ _ ___ _ _ ___ _ _ 
 72
    65
 73
     6
 40
1.25
 49
0.625
 74
     0
 49
-0.125
 74
     0
 49
0.125
 74
     0
 49
-0.125
 74
     0
 49
0.125
 74
     0
 49
-0.125
 74
     0
  0
LTYPE
  5
39
330
5
100
AcDbSymbolTableRecord
100
AcDbLinetypeTableRecord
  2
PHANTOMX2
 70
     0
  3
___ _ _ ___ _ _ ___ _ _ ___ _ _ 
 72
    65
 73
     6
 40
5.0
 49
2.5
 74
     0
 49
-0.5
 74
     0
 49
0.5
 74
     0
 49
-0.5
 74
     0
 49
0.5
 74
     0
 49
-0.5
 74
     0
  0
ENDTAB
  0
TABLE
  2
LAYER
  5
2
330
0
100
AcDbSymbolTable
 70
   256
  0
LAYER
  5
10
330
2
100
AcDbSymbolTableRecord
100
AcDbLayerTableRecord
  2
0
 70
     0
 62
     7
  6
CONTINUOUS
  0
LAYER
  5
3A
330
2
100
AcDbSymbolTableRecord
100
AcDbLayerTableRecord
  2
1
 70
     0
 62
     1
  6
CONTINUOUS
  0
LAYER
  5
3B
330
2
100
AcDbSymbolTableRecord
100
AcDbLayerTableRecord
  2
2
 70
     0
 62
     2
  6
CONTINUOUS
  0
LAYER
  5
3C
330
2
100
AcDbSymbolTableRecord
100
AcDbLayerTableRecord
  2
3
 70
     0
 62
     3
  6
CONTINUOUS
  0
LAYER
  5
3D
330
2
100
AcDbSymbolTableRecord
100
AcDbLayerTableRecord
  2
4
 70
     0
 62
     4
  6
CONTINUOUS
  0
LAYER
  5
3E
330
2
100
AcDbSymbolTableRecord
100
AcDbLayerTableRecord
  2
5
 70
     0
 62
     5
  6
CONTINUOUS
  0
LAYER
  5
3F
330
2
100
AcDbSymbolTableRecord
100
AcDbLayerTableRecord
  2
6
 70
     0
 62
     6
  6
CONTINUOUS
  0
LAYER
  5
40
330
2
100
AcDbSymbolTableRecord
100
AcDbLayerTableRecord
  2
7
 70
     0
 62
     7
  6
CONTINUOUS
  0
LAYER
  5
41
330
2
100
AcDbSymbolTableRecord
100
AcDbLayerTableRecord
  2
8
 70
     0
 62
     8
  6
CONTINUOUS
  0
LAYER
  5
42
330
2
100
AcDbSymbolTableRecord
100
AcDbLayerTableRecord
  2
9
 70
     0
 62
     9
  6
CONTINUOUS
  0
LAYER
  5
43
330
2
100
AcDbSymbolTableRecord
100
AcDbLayerTableRecord
  2
10
 70
     0
 62
    10
  6
CONTINUOUS
  0
LAYER
  5
44
330
2
100
AcDbSymbolTableRecord
100
AcDbLayerTableRecord
  2
11
 70
     0
 62
    11
  6
CONTINUOUS
  0
LAYER
  5
45
330
2
100
AcDbSymbolTableRecord
100
AcDbLayerTableRecord
  2
12
 70
     0
 62
    12
  6
CONTINUOUS
  0
LAYER
  5
46
330
2
100
AcDbSymbolTableRecord
100
AcDbLayerTableRecord
  2
13
 70
     0
 62
    13
  6
CONTINUOUS
  0
LAYER
  5
47
330
2
100
AcDbSymbolTableRecord
100
AcDbLayerTableRecord
  2
14
 70
     0
 62
    14
  6
CONTINUOUS
  0
LAYER
  5
48
330
2
100
AcDbSymbolTableRecord
100
AcDbLayerTableRecord
  2
15
 70
     0
 62
    15
  6
CONTINUOUS
  0
LAYER
  5
49
330
2
100
AcDbSymbolTableRecord
100
AcDbLayerTableRecord
  2
16
 70
     0
 62
    16
  6
CONTINUOUS
  0
LAYER
  5
4A
330
2
100
AcDbSymbolTableRecord
100
AcDbLayerTableRecord
  2
17
 70
     0
 62
    17
  6
CONTINUOUS
  0
LAYER
  5
4B
330
2
100
AcDbSymbolTableRecord
100
AcDbLayerTableRecord
  2
18
 70
     0
 62
    18
  6
CONTINUOUS
  0
LAYER
  5
4C
330
2
100
AcDbSymbolTableRecord
100
AcDbLayerTableRecord
  2
19
 70
     0
 62
    19
  6
CONTINUOUS
  0
LAYER
  5
4D
330
2
100
AcDbSymbolTableRecord
100
AcDbLayerTableRecord
  2
20
 70
     0
 62
    20
  6
CONTINUOUS
  0
LAYER
  5
4E
330
2
100
AcDbSymbolTableRecord
100
AcDbLayerTableRecord
  2
21
 70
     0
 62
    21
  6
CONTINUOUS
  0
LAYER
  5
4F
330
2
100
AcDbSymbolTableRecord
100
AcDbLayerTableRecord
  2
22
 70
     0
 62
    22
  6
CONTINUOUS
  0
LAYER
  5
50
330
2
100
AcDbSymbolTableRecord
100
AcDbLayerTableRecord
  2
23
 70
     0
 62
    23
  6
CONTINUOUS
  0
LAYER
  5
51
330
2
100
AcDbSymbolTableRecord
100
AcDbLayerTableRecord
  2
24
 70
     0
 62
    24
  6
CONTINUOUS
  0
LAYER
  5
52
330
2
100
AcDbSymbolTableRecord
100
AcDbLayerTableRecord
  2
25
 70
     0
 62
    25
  6
CONTINUOUS
  0
LAYER
  5
53
330
2
100
AcDbSymbolTableRecord
100
AcDbLayerTableRecord
  2
26
 70
     0
 62
    26
  6
CONTINUOUS
  0
LAYER
  5
54
330
2
100
AcDbSymbolTableRecord
100
AcDbLayerTableRecord
  2
27
 70
     0
 62
    27
  6
CONTINUOUS
  0
LAYER
  5
55
330
2
100
AcDbSymbolTableRecord
100
AcDbLayerTableRecord
  2
28
 70
     0
 62
    28
  6
CONTINUOUS
  0
LAYER
  5
56
330
2
100
AcDbSymbolTableRecord
100
AcDbLayerTableRecord
  2
29
 70
     0
 62
    29
  6
CONTINUOUS
  0
LAYER
  5
57
330
2
100
AcDbSymbolTableRecord
100
AcDbLayerTableRecord
  2
30
 70
     0
 62
    30
  6
CONTINUOUS
  0
LAYER
  5
58
330
2
100
AcDbSymbolTableRecord
100
AcDbLayerTableRecord
  2
31
 70
     0
 62
    31
  6
CONTINUOUS
  0
LAYER
  5
59
330
2
100
AcDbSymbolTableRecord
100
AcDbLayerTableRecord
  2
32
 70
     0
 62
    32
  6
CONTINUOUS
  0
LAYER
  5
5A
330
2
100
AcDbSymbolTableRecord
100
AcDbLayerTableRecord
  2
33
 70
     0
 62
    33
  6
CONTINUOUS
  0
LAYER
  5
5B
330
2
100
AcDbSymbolTableRecord
100
AcDbLayerTableRecord
  2
34
 70
     0
 62
    34
  6
CONTINUOUS
  0
LAYER
  5
5C
330
2
100
AcDbSymbolTableRecord
100
AcDbLayerTableRecord
  2
35
 70
     0
 62
    35
  6
CONTINUOUS
  0
LAYER
  5
5D
330
2
100
AcDbSymbolTableRecord
100
AcDbLayerTableRecord
  2
36
 70
     0
 62
    36
  6
CONTINUOUS
  0
LAYER
  5
5E
330
2
100
AcDbSymbolTableRecord
100
AcDbLayerTableRecord
  2
37
 70
     0
 62
    37
  6
CONTINUOUS
  0
LAYER
  5
5F
330
2
100
AcDbSymbolTableRecord
100
AcDbLayerTableRecord
  2
38
 70
     0
 62
    38
  6
CONTINUOUS
  0
LAYER
  5
60
330
2
100
AcDbSymbolTableRecord
100
AcDbLayerTableRecord
  2
39
 70
     0
 62
    39
  6
CONTINUOUS
  0
LAYER
  5
61
330
2
100
AcDbSymbolTableRecord
100
AcDbLayerTableRecord
  2
40
 70
     0
 62
    40
  6
CONTINUOUS
  0
LAYER
  5
62
330
2
100
AcDbSymbolTableRecord
100
AcDbLayerTableRecord
  2
41
 70
     0
 62
    41
  6
CONTINUOUS
  0
LAYER
  5
63
330
2
100
AcDbSymbolTableRecord
100
AcDbLayerTableRecord
  2
42
 70
     0
 62
    42
  6
CONTINUOUS
  0
LAYER
  5
64
330
2
100
AcDbSymbolTableRecord
100
AcDbLayerTableRecord
  2
43
 70
     0
 62
    43
  6
CONTINUOUS
  0
LAYER
  5
65
330
2
100
AcDbSymbolTableRecord
100
AcDbLayerTableRecord
  2
44
 70
     0
 62
    44
  6
CONTINUOUS
  0
LAYER
  5
66
330
2
100
AcDbSymbolTableRecord
100
AcDbLayerTableRecord
  2
45
 70
     0
 62
    45
  6
CONTINUOUS
  0
LAYER
  5
67
330
2
100
AcDbSymbolTableRecord
100
AcDbLayerTableRecord
  2
46
 70
     0
 62
    46
  6
CONTINUOUS
  0
LAYER
  5
68
330
2
100
AcDbSymbolTableRecord
100
AcDbLayerTableRecord
  2
47
 70
     0
 62
    47
  6
CONTINUOUS
  0
LAYER
  5
69
330
2
100
AcDbSymbolTableRecord
100
AcDbLayerTableRecord
  2
48
 70
     0
 62
    48
  6
CONTINUOUS
  0
LAYER
  5
6A
330
2
100
AcDbSymbolTableRecord
100
AcDbLayerTableRecord
  2
49
 70
     0
 62
    49
  6
CONTINUOUS
  0
LAYER
  5
6B
330
2
100
AcDbSymbolTableRecord
100
AcDbLayerTableRecord
  2
50
 70
     0
 62
    50
  6
CONTINUOUS
  0
LAYER
  5
6C
330
2
100
AcDbSymbolTableRecord
100
AcDbLayerTableRecord
  2
51
 70
     0
 62
    51
  6
CONTINUOUS
  0
LAYER
  5
6D
330
2
100
AcDbSymbolTableRecord
100
AcDbLayerTableRecord
  2
52
 70
     0
 62
    52
  6
CONTINUOUS
  0
LAYER
  5
6E
330
2
100
AcDbSymbolTableRecord
100
AcDbLayerTableRecord
  2
53
 70
     0
 62
    53
  6
CONTINUOUS
  0
LAYER
  5
6F
330
2
100
AcDbSymbolTableRecord
100
AcDbLayerTableRecord
  2
54
 70
     0
 62
    54
  6
CONTINUOUS
  0
LAYER
  5
70
330
2
100
AcDbSymbolTableRecord
100
AcDbLayerTableRecord
  2
55
 70
     0
 62
    55
  6
CONTINUOUS
  0
LAYER
  5
71
330
2
100
AcDbSymbolTableRecord
100
AcDbLayerTableRecord
  2
56
 70
     0
 62
    56
  6
CONTINUOUS
  0
LAYER
  5
72
330
2
100
AcDbSymbolTableRecord
100
AcDbLayerTableRecord
  2
57
 70
     0
 62
    57
  6
CONTINUOUS
  0
LAYER
  5
73
330
2
100
AcDbSymbolTableRecord
100
AcDbLayerTableRecord
  2
58
 70
     0
 62
    58
  6
CONTINUOUS
  0
LAYER
  5
74
330
2
100
AcDbSymbolTableRecord
100
AcDbLayerTableRecord
  2
59
 70
     0
 62
    59
  6
CONTINUOUS
  0
LAYER
  5
75
330
2
100
AcDbSymbolTableRecord
100
AcDbLayerTableRecord
  2
60
 70
     0
 62
    60
  6
CONTINUOUS
  0
LAYER
  5
76
330
2
100
AcDbSymbolTableRecord
100
AcDbLayerTableRecord
  2
61
 70
     0
 62
    61
  6
CONTINUOUS
  0
LAYER
  5
77
330
2
100
AcDbSymbolTableRecord
100
AcDbLayerTableRecord
  2
62
 70
     0
 62
    62
  6
CONTINUOUS
  0
LAYER
  5
78
330
2
100
AcDbSymbolTableRecord
100
AcDbLayerTableRecord
  2
63
 70
     0
 62
    63
  6
CONTINUOUS
  0
LAYER
  5
79
330
2
100
AcDbSymbolTableRecord
100
AcDbLayerTableRecord
  2
64
 70
     0
 62
    64
  6
CONTINUOUS
  0
LAYER
  5
7A
330
2
100
AcDbSymbolTableRecord
100
AcDbLayerTableRecord
  2
65
 70
     0
 62
    65
  6
CONTINUOUS
  0
LAYER
  5
7B
330
2
100
AcDbSymbolTableRecord
100
AcDbLayerTableRecord
  2
66
 70
     0
 62
    66
  6
CONTINUOUS
  0
LAYER
  5
7C
330
2
100
AcDbSymbolTableRecord
100
AcDbLayerTableRecord
  2
67
 70
     0
 62
    67
  6
CONTINUOUS
  0
LAYER
  5
7D
330
2
100
AcDbSymbolTableRecord
100
AcDbLayerTableRecord
  2
68
 70
     0
 62
    68
  6
CONTINUOUS
  0
LAYER
  5
7E
330
2
100
AcDbSymbolTableRecord
100
AcDbLayerTableRecord
  2
69
 70
     0
 62
    69
  6
CONTINUOUS
  0
LAYER
  5
7F
330
2
100
AcDbSymbolTableRecord
100
AcDbLayerTableRecord
  2
70
 70
     0
 62
    70
  6
CONTINUOUS
  0
LAYER
  5
80
330
2
100
AcDbSymbolTableRecord
100
AcDbLayerTableRecord
  2
71
 70
     0
 62
    71
  6
CONTINUOUS
  0
LAYER
  5
81
330
2
100
AcDbSymbolTableRecord
100
AcDbLayerTableRecord
  2
72
 70
     0
 62
    72
  6
CONTINUOUS
  0
LAYER
  5
82
330
2
100
AcDbSymbolTableRecord
100
AcDbLayerTableRecord
  2
73
 70
     0
 62
    73
  6
CONTINUOUS
  0
LAYER
  5
83
330
2
100
AcDbSymbolTableRecord
100
AcDbLayerTableRecord
  2
74
 70
     0
 62
    74
  6
CONTINUOUS
  0
LAYER
  5
84
330
2
100
AcDbSymbolTableRecord
100
AcDbLayerTableRecord
  2
75
 70
     0
 62
    75
  6
CONTINUOUS
  0
LAYER
  5
85
330
2
100
AcDbSymbolTableRecord
100
AcDbLayerTableRecord
  2
76
 70
     0
 62
    76
  6
CONTINUOUS
  0
LAYER
  5
86
330
2
100
AcDbSymbolTableRecord
100
AcDbLayerTableRecord
  2
77
 70
     0
 62
    77
  6
CONTINUOUS
  0
LAYER
  5
87
330
2
100
AcDbSymbolTableRecord
100
AcDbLayerTableRecord
  2
78
 70
     0
 62
    78
  6
CONTINUOUS
  0
LAYER
  5
88
330
2
100
AcDbSymbolTableRecord
100
AcDbLayerTableRecord
  2
79
 70
     0
 62
    79
  6
CONTINUOUS
  0
LAYER
  5
89
330
2
100
AcDbSymbolTableRecord
100
AcDbLayerTableRecord
  2
80
 70
     0
 62
    80
  6
CONTINUOUS
  0
LAYER
  5
8A
330
2
100
AcDbSymbolTableRecord
100
AcDbLayerTableRecord
  2
81
 70
     0
 62
    81
  6
CONTINUOUS
  0
LAYER
  5
8B
330
2
100
AcDbSymbolTableRecord
100
AcDbLayerTableRecord
  2
82
 70
     0
 62
    82
  6
CONTINUOUS
  0
LAYER
  5
8C
330
2
100
AcDbSymbolTableRecord
100
AcDbLayerTableRecord
  2
83
 70
     0
 62
    83
  6
CONTINUOUS
  0
LAYER
  5
8D
330
2
100
AcDbSymbolTableRecord
100
AcDbLayerTableRecord
  2
84
 70
     0
 62
    84
  6
CONTINUOUS
  0
LAYER
  5
8E
330
2
100
AcDbSymbolTableRecord
100
AcDbLayerTableRecord
  2
85
 70
     0
 62
    85
  6
CONTINUOUS
  0
LAYER
  5
8F
330
2
100
AcDbSymbolTableRecord
100
AcDbLayerTableRecord
  2
86
 70
     0
 62
    86
  6
CONTINUOUS
  0
LAYER
  5
90
330
2
100
AcDbSymbolTableRecord
100
AcDbLayerTableRecord
  2
87
 70
     0
 62
    87
  6
CONTINUOUS
  0
LAYER
  5
91
330
2
100
AcDbSymbolTableRecord
100
AcDbLayerTableRecord
  2
88
 70
     0
 62
    88
  6
CONTINUOUS
  0
LAYER
  5
92
330
2
100
AcDbSymbolTableRecord
100
AcDbLayerTableRecord
  2
89
 70
     0
 62
    89
  6
CONTINUOUS
  0
LAYER
  5
93
330
2
100
AcDbSymbolTableRecord
100
AcDbLayerTableRecord
  2
90
 70
     0
 62
    90
  6
CONTINUOUS
  0
LAYER
  5
94
330
2
100
AcDbSymbolTableRecord
100
AcDbLayerTableRecord
  2
91
 70
     0
 62
    91
  6
CONTINUOUS
  0
LAYER
  5
95
330
2
100
AcDbSymbolTableRecord
100
AcDbLayerTableRecord
  2
92
 70
     0
 62
    92
  6
CONTINUOUS
  0
LAYER
  5
96
330
2
100
AcDbSymbolTableRecord
100
AcDbLayerTableRecord
  2
93
 70
     0
 62
    93
  6
CONTINUOUS
  0
LAYER
  5
97
330
2
100
AcDbSymbolTableRecord
100
AcDbLayerTableRecord
  2
94
 70
     0
 62
    94
  6
CONTINUOUS
  0
LAYER
  5
98
330
2
100
AcDbSymbolTableRecord
100
AcDbLayerTableRecord
  2
95
 70
     0
 62
    95
  6
CONTINUOUS
  0
LAYER
  5
99
330
2
100
AcDbSymbolTableRecord
100
AcDbLayerTableRecord
  2
96
 70
     0
 62
    96
  6
CONTINUOUS
  0
LAYER
  5
9A
330
2
100
AcDbSymbolTableRecord
100
AcDbLayerTableRecord
  2
97
 70
     0
 62
    97
  6
CONTINUOUS
  0
LAYER
  5
9B
330
2
100
AcDbSymbolTableRecord
100
AcDbLayerTableRecord
  2
98
 70
     0
 62
    98
  6
CONTINUOUS
  0
LAYER
  5
9C
330
2
100
AcDbSymbolTableRecord
100
AcDbLayerTableRecord
  2
99
 70
     0
 62
    99
  6
CONTINUOUS
  0
LAYER
  5
9D
330
2
100
AcDbSymbolTableRecord
100
AcDbLayerTableRecord
  2
100
 70
     0
 62
   100
  6
CONTINUOUS
  0
LAYER
  5
9E
330
2
100
AcDbSymbolTableRecord
100
AcDbLayerTableRecord
  2
101
 70
     0
 62
   101
  6
CONTINUOUS
  0
LAYER
  5
9F
330
2
100
AcDbSymbolTableRecord
100
AcDbLayerTableRecord
  2
102
 70
     0
 62
   102
  6
CONTINUOUS
  0
LAYER
  5
A0
330
2
100
AcDbSymbolTableRecord
100
AcDbLayerTableRecord
  2
103
 70
     0
 62
   103
  6
CONTINUOUS
  0
LAYER
  5
A1
330
2
100
AcDbSymbolTableRecord
100
AcDbLayerTableRecord
  2
104
 70
     0
 62
   104
  6
CONTINUOUS
  0
LAYER
  5
A2
330
2
100
AcDbSymbolTableRecord
100
AcDbLayerTableRecord
  2
105
 70
     0
 62
   105
  6
CONTINUOUS
  0
LAYER
  5
A3
330
2
100
AcDbSymbolTableRecord
100
AcDbLayerTableRecord
  2
106
 70
     0
 62
   106
  6
CONTINUOUS
  0
LAYER
  5
A4
330
2
100
AcDbSymbolTableRecord
100
AcDbLayerTableRecord
  2
107
 70
     0
 62
   107
  6
CONTINUOUS
  0
LAYER
  5
A5
330
2
100
AcDbSymbolTableRecord
100
AcDbLayerTableRecord
  2
108
 70
     0
 62
   108
  6
CONTINUOUS
  0
LAYER
  5
A6
330
2
100
AcDbSymbolTableRecord
100
AcDbLayerTableRecord
  2
109
 70
     0
 62
   109
  6
CONTINUOUS
  0
LAYER
  5
A7
330
2
100
AcDbSymbolTableRecord
100
AcDbLayerTableRecord
  2
110
 70
     0
 62
   110
  6
CONTINUOUS
  0
LAYER
  5
A8
330
2
100
AcDbSymbolTableRecord
100
AcDbLayerTableRecord
  2
111
 70
     0
 62
   111
  6
CONTINUOUS
  0
LAYER
  5
A9
330
2
100
AcDbSymbolTableRecord
100
AcDbLayerTableRecord
  2
112
 70
     0
 62
   112
  6
CONTINUOUS
  0
LAYER
  5
AA
330
2
100
AcDbSymbolTableRecord
100
AcDbLayerTableRecord
  2
113
 70
     0
 62
   113
  6
CONTINUOUS
  0
LAYER
  5
AB
330
2
100
AcDbSymbolTableRecord
100
AcDbLayerTableRecord
  2
114
 70
     0
 62
   114
  6
CONTINUOUS
  0
LAYER
  5
AC
330
2
100
AcDbSymbolTableRecord
100
AcDbLayerTableRecord
  2
115
 70
     0
 62
   115
  6
CONTINUOUS
  0
LAYER
  5
AD
330
2
100
AcDbSymbolTableRecord
100
AcDbLayerTableRecord
  2
116
 70
     0
 62
   116
  6
CONTINUOUS
  0
LAYER
  5
AE
330
2
100
AcDbSymbolTableRecord
100
AcDbLayerTableRecord
  2
117
 70
     0
 62
   117
  6
CONTINUOUS
  0
LAYER
  5
AF
330
2
100
AcDbSymbolTableRecord
100
AcDbLayerTableRecord
  2
118
 70
     0
 62
   118
  6
CONTINUOUS
  0
LAYER
  5
B0
330
2
100
AcDbSymbolTableRecord
100
AcDbLayerTableRecord
  2
119
 70
     0
 62
   119
  6
CONTINUOUS
  0
LAYER
  5
B1
330
2
100
AcDbSymbolTableRecord
100
AcDbLayerTableRecord
  2
120
 70
     0
 62
   120
  6
CONTINUOUS
  0
LAYER
  5
B2
330
2
100
AcDbSymbolTableRecord
100
AcDbLayerTableRecord
  2
121
 70
     0
 62
   121
  6
CONTINUOUS
  0
LAYER
  5
B3
330
2
100
AcDbSymbolTableRecord
100
AcDbLayerTableRecord
  2
122
 70
     0
 62
   122
  6
CONTINUOUS
  0
LAYER
  5
B4
330
2
100
AcDbSymbolTableRecord
100
AcDbLayerTableRecord
  2
123
 70
     0
 62
   123
  6
CONTINUOUS
  0
LAYER
  5
B5
330
2
100
AcDbSymbolTableRecord
100
AcDbLayerTableRecord
  2
124
 70
     0
 62
   124
  6
CONTINUOUS
  0
LAYER
  5
B6
330
2
100
AcDbSymbolTableRecord
100
AcDbLayerTableRecord
  2
125
 70
     0
 62
   125
  6
CONTINUOUS
  0
LAYER
  5
B7
330
2
100
AcDbSymbolTableRecord
100
AcDbLayerTableRecord
  2
126
 70
     0
 62
   126
  6
CONTINUOUS
  0
LAYER
  5
B8
330
2
100
AcDbSymbolTableRecord
100
AcDbLayerTableRecord
  2
127
 70
     0
 62
   127
  6
CONTINUOUS
  0
LAYER
  5
B9
330
2
100
AcDbSymbolTableRecord
100
AcDbLayerTableRecord
  2
128
 70
     0
 62
   128
  6
CONTINUOUS
  0
LAYER
  5
BA
330
2
100
AcDbSymbolTableRecord
100
AcDbLayerTableRecord
  2
129
 70
     0
 62
   129
  6
CONTINUOUS
  0
LAYER
  5
BB
330
2
100
AcDbSymbolTableRecord
100
AcDbLayerTableRecord
  2
130
 70
     0
 62
   130
  6
CONTINUOUS
  0
LAYER
  5
BC
330
2
100
AcDbSymbolTableRecord
100
AcDbLayerTableRecord
  2
131
 70
     0
 62
   131
  6
CONTINUOUS
  0
LAYER
  5
BD
330
2
100
AcDbSymbolTableRecord
100
AcDbLayerTableRecord
  2
132
 70
     0
 62
   132
  6
CONTINUOUS
  0
LAYER
  5
BE
330
2
100
AcDbSymbolTableRecord
100
AcDbLayerTableRecord
  2
133
 70
     0
 62
   133
  6
CONTINUOUS
  0
LAYER
  5
BF
330
2
100
AcDbSymbolTableRecord
100
AcDbLayerTableRecord
  2
134
 70
     0
 62
   134
  6
CONTINUOUS
  0
LAYER
  5
C0
330
2
100
AcDbSymbolTableRecord
100
AcDbLayerTableRecord
  2
135
 70
     0
 62
   135
  6
CONTINUOUS
  0
LAYER
  5
C1
330
2
100
AcDbSymbolTableRecord
100
AcDbLayerTableRecord
  2
136
 70
     0
 62
   136
  6
CONTINUOUS
  0
LAYER
  5
C2
330
2
100
AcDbSymbolTableRecord
100
AcDbLayerTableRecord
  2
137
 70
     0
 62
   137
  6
CONTINUOUS
  0
LAYER
  5
C3
330
2
100
AcDbSymbolTableRecord
100
AcDbLayerTableRecord
  2
138
 70
     0
 62
   138
  6
CONTINUOUS
  0
LAYER
  5
C4
330
2
100
AcDbSymbolTableRecord
100
AcDbLayerTableRecord
  2
139
 70
     0
 62
   139
  6
CONTINUOUS
  0
LAYER
  5
C5
330
2
100
AcDbSymbolTableRecord
100
AcDbLayerTableRecord
  2
140
 70
     0
 62
   140
  6
CONTINUOUS
  0
LAYER
  5
C6
330
2
100
AcDbSymbolTableRecord
100
AcDbLayerTableRecord
  2
141
 70
     0
 62
   141
  6
CONTINUOUS
  0
LAYER
  5
C7
330
2
100
AcDbSymbolTableRecord
100
AcDbLayerTableRecord
  2
142
 70
     0
 62
   142
  6
CONTINUOUS
  0
LAYER
  5
C8
330
2
100
AcDbSymbolTableRecord
100
AcDbLayerTableRecord
  2
143
 70
     0
 62
   143
  6
CONTINUOUS
  0
LAYER
  5
C9
330
2
100
AcDbSymbolTableRecord
100
AcDbLayerTableRecord
  2
144
 70
     0
 62
   144
  6
CONTINUOUS
  0
LAYER
  5
CA
330
2
100
AcDbSymbolTableRecord
100
AcDbLayerTableRecord
  2
145
 70
     0
 62
   145
  6
CONTINUOUS
  0
LAYER
  5
CB
330
2
100
AcDbSymbolTableRecord
100
AcDbLayerTableRecord
  2
146
 70
     0
 62
   146
  6
CONTINUOUS
  0
LAYER
  5
CC
330
2
100
AcDbSymbolTableRecord
100
AcDbLayerTableRecord
  2
147
 70
     0
 62
   147
  6
CONTINUOUS
  0
LAYER
  5
CD
330
2
100
AcDbSymbolTableRecord
100
AcDbLayerTableRecord
  2
148
 70
     0
 62
   148
  6
CONTINUOUS
  0
LAYER
  5
CE
330
2
100
AcDbSymbolTableRecord
100
AcDbLayerTableRecord
  2
149
 70
     0
 62
   149
  6
CONTINUOUS
  0
LAYER
  5
CF
330
2
100
AcDbSymbolTableRecord
100
AcDbLayerTableRecord
  2
150
 70
     0
 62
   150
  6
CONTINUOUS
  0
LAYER
  5
D0
330
2
100
AcDbSymbolTableRecord
100
AcDbLayerTableRecord
  2
151
 70
     0
 62
   151
  6
CONTINUOUS
  0
LAYER
  5
D1
330
2
100
AcDbSymbolTableRecord
100
AcDbLayerTableRecord
  2
152
 70
     0
 62
   152
  6
CONTINUOUS
  0
LAYER
  5
D2
330
2
100
AcDbSymbolTableRecord
100
AcDbLayerTableRecord
  2
153
 70
     0
 62
   153
  6
CONTINUOUS
  0
LAYER
  5
D3
330
2
100
AcDbSymbolTableRecord
100
AcDbLayerTableRecord
  2
154
 70
     0
 62
   154
  6
CONTINUOUS
  0
LAYER
  5
D4
330
2
100
AcDbSymbolTableRecord
100
AcDbLayerTableRecord
  2
155
 70
     0
 62
   155
  6
CONTINUOUS
  0
LAYER
  5
D5
330
2
100
AcDbSymbolTableRecord
100
AcDbLayerTableRecord
  2
156
 70
     0
 62
   156
  6
CONTINUOUS
  0
LAYER
  5
D6
330
2
100
AcDbSymbolTableRecord
100
AcDbLayerTableRecord
  2
157
 70
     0
 62
   157
  6
CONTINUOUS
  0
LAYER
  5
D7
330
2
100
AcDbSymbolTableRecord
100
AcDbLayerTableRecord
  2
158
 70
     0
 62
   158
  6
CONTINUOUS
  0
LAYER
  5
D8
330
2
100
AcDbSymbolTableRecord
100
AcDbLayerTableRecord
  2
159
 70
     0
 62
   159
  6
CONTINUOUS
  0
LAYER
  5
D9
330
2
100
AcDbSymbolTableRecord
100
AcDbLayerTableRecord
  2
160
 70
     0
 62
   160
  6
CONTINUOUS
  0
LAYER
  5
DA
330
2
100
AcDbSymbolTableRecord
100
AcDbLayerTableRecord
  2
161
 70
     0
 62
   161
  6
CONTINUOUS
  0
LAYER
  5
DB
330
2
100
AcDbSymbolTableRecord
100
AcDbLayerTableRecord
  2
162
 70
     0
 62
   162
  6
CONTINUOUS
  0
LAYER
  5
DC
330
2
100
AcDbSymbolTableRecord
100
AcDbLayerTableRecord
  2
163
 70
     0
 62
   163
  6
CONTINUOUS
  0
LAYER
  5
DD
330
2
100
AcDbSymbolTableRecord
100
AcDbLayerTableRecord
  2
164
 70
     0
 62
   164
  6
CONTINUOUS
  0
LAYER
  5
DE
330
2
100
AcDbSymbolTableRecord
100
AcDbLayerTableRecord
  2
165
 70
     0
 62
   165
  6
CONTINUOUS
  0
LAYER
  5
DF
330
2
100
AcDbSymbolTableRecord
100
AcDbLayerTableRecord
  2
166
 70
     0
 62
   166
  6
CONTINUOUS
  0
LAYER
  5
E0
330
2
100
AcDbSymbolTableRecord
100
AcDbLayerTableRecord
  2
167
 70
     0
 62
   167
  6
CONTINUOUS
  0
LAYER
  5
E1
330
2
100
AcDbSymbolTableRecord
100
AcDbLayerTableRecord
  2
168
 70
     0
 62
   168
  6
CONTINUOUS
  0
LAYER
  5
E2
330
2
100
AcDbSymbolTableRecord
100
AcDbLayerTableRecord
  2
169
 70
     0
 62
   169
  6
CONTINUOUS
  0
LAYER
  5
E3
330
2
100
AcDbSymbolTableRecord
100
AcDbLayerTableRecord
  2
170
 70
     0
 62
   170
  6
CONTINUOUS
  0
LAYER
  5
E4
330
2
100
AcDbSymbolTableRecord
100
AcDbLayerTableRecord
  2
171
 70
     0
 62
   171
  6
CONTINUOUS
  0
LAYER
  5
E5
330
2
100
AcDbSymbolTableRecord
100
AcDbLayerTableRecord
  2
172
 70
     0
 62
   172
  6
CONTINUOUS
  0
LAYER
  5
E6
330
2
100
AcDbSymbolTableRecord
100
AcDbLayerTableRecord
  2
173
 70
     0
 62
   173
  6
CONTINUOUS
  0
LAYER
  5
E7
330
2
100
AcDbSymbolTableRecord
100
AcDbLayerTableRecord
  2
174
 70
     0
 62
   174
  6
CONTINUOUS
  0
LAYER
  5
E8
330
2
100
AcDbSymbolTableRecord
100
AcDbLayerTableRecord
  2
175
 70
     0
 62
   175
  6
CONTINUOUS
  0
LAYER
  5
E9
330
2
100
AcDbSymbolTableRecord
100
AcDbLayerTableRecord
  2
176
 70
     0
 62
   176
  6
CONTINUOUS
  0
LAYER
  5
EA
330
2
100
AcDbSymbolTableRecord
100
AcDbLayerTableRecord
  2
177
 70
     0
 62
   177
  6
CONTINUOUS
  0
LAYER
  5
EB
330
2
100
AcDbSymbolTableRecord
100
AcDbLayerTableRecord
  2
178
 70
     0
 62
   178
  6
CONTINUOUS
  0
LAYER
  5
EC
330
2
100
AcDbSymbolTableRecord
100
AcDbLayerTableRecord
  2
179
 70
     0
 62
   179
  6
CONTINUOUS
  0
LAYER
  5
ED
330
2
100
AcDbSymbolTableRecord
100
AcDbLayerTableRecord
  2
180
 70
     0
 62
   180
  6
CONTINUOUS
  0
LAYER
  5
EE
330
2
100
AcDbSymbolTableRecord
100
AcDbLayerTableRecord
  2
181
 70
     0
 62
   181
  6
CONTINUOUS
  0
LAYER
  5
EF
330
2
100
AcDbSymbolTableRecord
100
AcDbLayerTableRecord
  2
182
 70
     0
 62
   182
  6
CONTINUOUS
  0
LAYER
  5
F0
330
2
100
AcDbSymbolTableRecord
100
AcDbLayerTableRecord
  2
183
 70
     0
 62
   183
  6
CONTINUOUS
  0
LAYER
  5
F1
330
2
100
AcDbSymbolTableRecord
100
AcDbLayerTableRecord
  2
184
 70
     0
 62
   184
  6
CONTINUOUS
  0
LAYER
  5
F2
330
2
100
AcDbSymbolTableRecord
100
AcDbLayerTableRecord
  2
185
 70
     0
 62
   185
  6
CONTINUOUS
  0
LAYER
  5
F3
330
2
100
AcDbSymbolTableRecord
100
AcDbLayerTableRecord
  2
186
 70
     0
 62
   186
  6
CONTINUOUS
  0
LAYER
  5
F4
330
2
100
AcDbSymbolTableRecord
100
AcDbLayerTableRecord
  2
187
 70
     0
 62
   187
  6
CONTINUOUS
  0
LAYER
  5
F5
330
2
100
AcDbSymbolTableRecord
100
AcDbLayerTableRecord
  2
188
 70
     0
 62
   188
  6
CONTINUOUS
  0
LAYER
  5
F6
330
2
100
AcDbSymbolTableRecord
100
AcDbLayerTableRecord
  2
189
 70
     0
 62
   189
  6
CONTINUOUS
  0
LAYER
  5
F7
330
2
100
AcDbSymbolTableRecord
100
AcDbLayerTableRecord
  2
190
 70
     0
 62
   190
  6
CONTINUOUS
  0
LAYER
  5
F8
330
2
100
AcDbSymbolTableRecord
100
AcDbLayerTableRecord
  2
191
 70
     0
 62
   191
  6
CONTINUOUS
  0
LAYER
  5
F9
330
2
100
AcDbSymbolTableRecord
100
AcDbLayerTableRecord
  2
192
 70
     0
 62
   192
  6
CONTINUOUS
  0
LAYER
  5
FA
330
2
100
AcDbSymbolTableRecord
100
AcDbLayerTableRecord
  2
193
 70
     0
 62
   193
  6
CONTINUOUS
  0
LAYER
  5
FB
330
2
100
AcDbSymbolTableRecord
100
AcDbLayerTableRecord
  2
194
 70
     0
 62
   194
  6
CONTINUOUS
  0
LAYER
  5
FC
330
2
100
AcDbSymbolTableRecord
100
AcDbLayerTableRecord
  2
195
 70
     0
 62
   195
  6
CONTINUOUS
  0
LAYER
  5
FD
330
2
100
AcDbSymbolTableRecord
100
AcDbLayerTableRecord
  2
196
 70
     0
 62
   196
  6
CONTINUOUS
  0
LAYER
  5
FE
330
2
100
AcDbSymbolTableRecord
100
AcDbLayerTableRecord
  2
197
 70
     0
 62
   197
  6
CONTINUOUS
  0
LAYER
  5
FF
330
2
100
AcDbSymbolTableRecord
100
AcDbLayerTableRecord
  2
198
 70
     0
 62
   198
  6
CONTINUOUS
  0
LAYER
  5
100
330
2
100
AcDbSymbolTableRecord
100
AcDbLayerTableRecord
  2
199
 70
     0
 62
   199
  6
CONTINUOUS
  0
LAYER
  5
101
330
2
100
AcDbSymbolTableRecord
100
AcDbLayerTableRecord
  2
200
 70
     0
 62
   200
  6
CONTINUOUS
  0
LAYER
  5
102
330
2
100
AcDbSymbolTableRecord
100
AcDbLayerTableRecord
  2
201
 70
     0
 62
   201
  6
CONTINUOUS
  0
LAYER
  5
103
330
2
100
AcDbSymbolTableRecord
100
AcDbLayerTableRecord
  2
202
 70
     0
 62
   202
  6
CONTINUOUS
  0
LAYER
  5
104
330
2
100
AcDbSymbolTableRecord
100
AcDbLayerTableRecord
  2
203
 70
     0
 62
   203
  6
CONTINUOUS
  0
LAYER
  5
105
330
2
100
AcDbSymbolTableRecord
100
AcDbLayerTableRecord
  2
204
 70
     0
 62
   204
  6
CONTINUOUS
  0
LAYER
  5
106
330
2
100
AcDbSymbolTableRecord
100
AcDbLayerTableRecord
  2
205
 70
     0
 62
   205
  6
CONTINUOUS
  0
LAYER
  5
107
330
2
100
AcDbSymbolTableRecord
100
AcDbLayerTableRecord
  2
206
 70
     0
 62
   206
  6
CONTINUOUS
  0
LAYER
  5
108
330
2
100
AcDbSymbolTableRecord
100
AcDbLayerTableRecord
  2
207
 70
     0
 62
   207
  6
CONTINUOUS
  0
LAYER
  5
109
330
2
100
AcDbSymbolTableRecord
100
AcDbLayerTableRecord
  2
208
 70
     0
 62
   208
  6
CONTINUOUS
  0
LAYER
  5
10A
330
2
100
AcDbSymbolTableRecord
100
AcDbLayerTableRecord
  2
209
 70
     0
 62
   209
  6
CONTINUOUS
  0
LAYER
  5
10B
330
2
100
AcDbSymbolTableRecord
100
AcDbLayerTableRecord
  2
210
 70
     0
 62
   210
  6
CONTINUOUS
  0
LAYER
  5
10C
330
2
100
AcDbSymbolTableRecord
100
AcDbLayerTableRecord
  2
211
 70
     0
 62
   211
  6
CONTINUOUS
  0
LAYER
  5
10D
330
2
100
AcDbSymbolTableRecord
100
AcDbLayerTableRecord
  2
212
 70
     0
 62
   212
  6
CONTINUOUS
  0
LAYER
  5
10E
330
2
100
AcDbSymbolTableRecord
100
AcDbLayerTableRecord
  2
213
 70
     0
 62
   213
  6
CONTINUOUS
  0
LAYER
  5
10F
330
2
100
AcDbSymbolTableRecord
100
AcDbLayerTableRecord
  2
214
 70
     0
 62
   214
  6
CONTINUOUS
  0
LAYER
  5
110
330
2
100
AcDbSymbolTableRecord
100
AcDbLayerTableRecord
  2
215
 70
     0
 62
   215
  6
CONTINUOUS
  0
LAYER
  5
111
330
2
100
AcDbSymbolTableRecord
100
AcDbLayerTableRecord
  2
216
 70
     0
 62
   216
  6
CONTINUOUS
  0
LAYER
  5
112
330
2
100
AcDbSymbolTableRecord
100
AcDbLayerTableRecord
  2
217
 70
     0
 62
   217
  6
CONTINUOUS
  0
LAYER
  5
113
330
2
100
AcDbSymbolTableRecord
100
AcDbLayerTableRecord
  2
218
 70
     0
 62
   218
  6
CONTINUOUS
  0
LAYER
  5
114
330
2
100
AcDbSymbolTableRecord
100
AcDbLayerTableRecord
  2
219
 70
     0
 62
   219
  6
CONTINUOUS
  0
LAYER
  5
115
330
2
100
AcDbSymbolTableRecord
100
AcDbLayerTableRecord
  2
220
 70
     0
 62
   220
  6
CONTINUOUS
  0
LAYER
  5
116
330
2
100
AcDbSymbolTableRecord
100
AcDbLayerTableRecord
  2
221
 70
     0
 62
   221
  6
CONTINUOUS
  0
LAYER
  5
117
330
2
100
AcDbSymbolTableRecord
100
AcDbLayerTableRecord
  2
222
 70
     0
 62
   222
  6
CONTINUOUS
  0
LAYER
  5
118
330
2
100
AcDbSymbolTableRecord
100
AcDbLayerTableRecord
  2
223
 70
     0
 62
   223
  6
CONTINUOUS
  0
LAYER
  5
119
330
2
100
AcDbSymbolTableRecord
100
AcDbLayerTableRecord
  2
224
 70
     0
 62
   224
  6
CONTINUOUS
  0
LAYER
  5
11A
330
2
100
AcDbSymbolTableRecord
100
AcDbLayerTableRecord
  2
225
 70
     0
 62
   225
  6
CONTINUOUS
  0
LAYER
  5
11B
330
2
100
AcDbSymbolTableRecord
100
AcDbLayerTableRecord
  2
226
 70
     0
 62
   226
  6
CONTINUOUS
  0
LAYER
  5
11C
330
2
100
AcDbSymbolTableRecord
100
AcDbLayerTableRecord
  2
227
 70
     0
 62
   227
  6
CONTINUOUS
  0
LAYER
  5
11D
330
2
100
AcDbSymbolTableRecord
100
AcDbLayerTableRecord
  2
228
 70
     0
 62
   228
  6
CONTINUOUS
  0
LAYER
  5
11E
330
2
100
AcDbSymbolTableRecord
100
AcDbLayerTableRecord
  2
229
 70
     0
 62
   229
  6
CONTINUOUS
  0
LAYER
  5
11F
330
2
100
AcDbSymbolTableRecord
100
AcDbLayerTableRecord
  2
230
 70
     0
 62
   230
  6
CONTINUOUS
  0
LAYER
  5
120
330
2
100
AcDbSymbolTableRecord
100
AcDbLayerTableRecord
  2
231
 70
     0
 62
   231
  6
CONTINUOUS
  0
LAYER
  5
121
330
2
100
AcDbSymbolTableRecord
100
AcDbLayerTableRecord
  2
232
 70
     0
 62
   232
  6
CONTINUOUS
  0
LAYER
  5
122
330
2
100
AcDbSymbolTableRecord
100
AcDbLayerTableRecord
  2
233
 70
     0
 62
   233
  6
CONTINUOUS
  0
LAYER
  5
123
330
2
100
AcDbSymbolTableRecord
100
AcDbLayerTableRecord
  2
234
 70
     0
 62
   234
  6
CONTINUOUS
  0
LAYER
  5
124
330
2
100
AcDbSymbolTableRecord
100
AcDbLayerTableRecord
  2
235
 70
     0
 62
   235
  6
CONTINUOUS
  0
LAYER
  5
125
330
2
100
AcDbSymbolTableRecord
100
AcDbLayerTableRecord
  2
236
 70
     0
 62
   236
  6
CONTINUOUS
  0
LAYER
  5
126
330
2
100
AcDbSymbolTableRecord
100
AcDbLayerTableRecord
  2
237
 70
     0
 62
   237
  6
CONTINUOUS
  0
LAYER
  5
127
330
2
100
AcDbSymbolTableRecord
100
AcDbLayerTableRecord
  2
238
 70
     0
 62
   238
  6
CONTINUOUS
  0
LAYER
  5
128
330
2
100
AcDbSymbolTableRecord
100
AcDbLayerTableRecord
  2
239
 70
     0
 62
   239
  6
CONTINUOUS
  0
LAYER
  5
129
330
2
100
AcDbSymbolTableRecord
100
AcDbLayerTableRecord
  2
240
 70
     0
 62
   240
  6
CONTINUOUS
  0
LAYER
  5
12A
330
2
100
AcDbSymbolTableRecord
100
AcDbLayerTableRecord
  2
241
 70
     0
 62
   241
  6
CONTINUOUS
  0
LAYER
  5
12B
330
2
100
AcDbSymbolTableRecord
100
AcDbLayerTableRecord
  2
242
 70
     0
 62
   242
  6
CONTINUOUS
  0
LAYER
  5
12C
330
2
100
AcDbSymbolTableRecord
100
AcDbLayerTableRecord
  2
243
 70
     0
 62
   243
  6
CONTINUOUS
  0
LAYER
  5
12D
330
2
100
AcDbSymbolTableRecord
100
AcDbLayerTableRecord
  2
244
 70
     0
 62
   244
  6
CONTINUOUS
  0
LAYER
  5
12E
330
2
100
AcDbSymbolTableRecord
100
AcDbLayerTableRecord
  2
245
 70
     0
 62
   245
  6
CONTINUOUS
  0
LAYER
  5
12F
330
2
100
AcDbSymbolTableRecord
100
AcDbLayerTableRecord
  2
246
 70
     0
 62
   246
  6
CONTINUOUS
  0
LAYER
  5
130
330
2
100
AcDbSymbolTableRecord
100
AcDbLayerTableRecord
  2
247
 70
     0
 62
   247
  6
CONTINUOUS
  0
LAYER
  5
131
330
2
100
AcDbSymbolTableRecord
100
AcDbLayerTableRecord
  2
248
 70
     0
 62
   248
  6
CONTINUOUS
  0
LAYER
  5
132
330
2
100
AcDbSymbolTableRecord
100
AcDbLayerTableRecord
  2
249
 70
     0
 62
   249
  6
CONTINUOUS
  0
LAYER
  5
133
330
2
100
AcDbSymbolTableRecord
100
AcDbLayerTableRecord
  2
250
 70
     0
 62
   250
  6
CONTINUOUS
  0
LAYER
  5
134
330
2
100
AcDbSymbolTableRecord
100
AcDbLayerTableRecord
  2
251
 70
     0
 62
   251
  6
CONTINUOUS
  0
LAYER
  5
135
330
2
100
AcDbSymbolTableRecord
100
AcDbLayerTableRecord
  2
252
 70
     0
 62
   252
  6
CONTINUOUS
  0
LAYER
  5
136
330
2
100
AcDbSymbolTableRecord
100
AcDbLayerTableRecord
  2
253
 70
     0
 62
   253
  6
CONTINUOUS
  0
LAYER
  5
137
330
2
100
AcDbSymbolTableRecord
100
AcDbLayerTableRecord
  2
254
 70
     0
 62
   254
  6
CONTINUOUS
  0
LAYER
  5
138
330
2
100
AcDbSymbolTableRecord
100
AcDbLayerTableRecord
  2
255
 70
     0
 62
   255
  6
CONTINUOUS
  0
ENDTAB
  0
TABLE
  2
STYLE
  5
3
330
0
100
AcDbSymbolTable
 70
     1
  0
STYLE
  5
11
330
3
100
AcDbSymbolTableRecord
100
AcDbTextStyleTableRecord
  2
STANDARD
 70
     0
 40
0.0
 41
1.0
 50
0.0
 71
     0
 42
0.2
  3
monotxt
  4

  0
ENDTAB
  0
TABLE
  2
VIEW
  5
6
330
0
100
AcDbSymbolTable
 70
     0
  0
ENDTAB
  0
TABLE
  2
UCS
  5
7
330
0
100
AcDbSymbolTable
 70
     0
  0
ENDTAB
  0
TABLE
  2
APPID
  5
9
330
0
100
AcDbSymbolTable
 70
     1
  0
APPID
  5
12
330
9
100
AcDbSymbolTableRecord
100
AcDbRegAppTableRecord
  2
ACAD
 70
     0
  0
ENDTAB
  0
TABLE
  2
DIMSTYLE
  5
A
330
0
100
AcDbSymbolTable
 70
     1
  0
DIMSTYLE
105
2589
330
A
100
AcDbSymbolTableRecord
100
AcDbDimStyleTableRecord
  2
STANDARD
 70
     0
  3

  4

  5

  6

  7

 40
1.0
 41
0.18
 42
0.0625
 43
0.38
 44
0.18
 45
0.0
 46
0.0
 47
0.0
 48
0.0
140
0.18
141
0.09
142
0.0
143
25.4
144
1.0
145
0.0
146
1.0
147
0.09
 71
     0
 72
     0
 73
     1
 74
     1
 75
     0
 76
     0
 77
     0
 78
     0
170
     0
171
     2
172
     0
173
     0
174
     0
175
     0
176
     0
177
     0
178
     0
270
     2
271
     4
272
     4
273
     2
274
     2
340
11
275
     0
280
     0
281
     0
282
     0
283
     1
284
     0
285
     0
286
     0
287
     3
288
     0
  0
ENDTAB
  0
TABLE
  2
BLOCK_RECORD
  5
1
330
0
100
AcDbSymbolTable
 70
     0
  0
BLOCK_RECORD
  5
1E
102
{ACAD_XDICTIONARY
360
258D
102
}
330
1
100
AcDbSymbolTableRecord
100
AcDbBlockTableRecord
  2
*MODEL_SPACE
  0
BLOCK_RECORD
  5
1A
102
{ACAD_XDICTIONARY
360
258F
102
}
330
1
100
AcDbSymbolTableRecord
100
AcDbBlockTableRecord
  2
*PAPER_SPACE
  0
ENDTAB
  0
ENDSEC
  0
SECTION
  2
BLOCKS
  0
BLOCK
  5
13B
330
1E
100
AcDbEntity
  8
0
100
AcDbBlockBegin
  2
*MODEL_SPACE
 70
     0
 10
0.0
 20
0.0
 30
0.0
  3
*MODEL_SPACE
  1

  0
ENDBLK
  5
13C
330
1E
100
AcDbEntity
  8
0
100
AcDbBlockEnd
  0
BLOCK
  5
139
330
1A
100
AcDbEntity
 67
     1
  8
0
100
AcDbBlockBegin
  2
*PAPER_SPACE
 70
     0
 10
0.0
 20
0.0
 30
0.0
  3
*PAPER_SPACE
  1

  0
ENDBLK
  5
13A
330
1A
100
AcDbEntity
 67
     1
  8
0
100
AcDbBlockEnd
  0
ENDSEC
  0
SECTION
  2
ENTITIES
  0
LINE
  5
22BF
330
1E
100
AcDbEntity
  8
7
100
AcDbLine
 10
3.282480314960628
 20
6.741141732283463
 30
0.0
 11
3.263779527559055
 21
6.933070866141733
 31
0.0
  0
LINE
  5
22DE
330
1E
100
AcDbEntity
  8
7
100
AcDbLine
 10
2.211614173228345
 20
6.933070866141733
 30
0.0
 11
2.216535433070865
 21
6.949803149606299
 31
0.0
  0
LINE
  5
22F3
330
1E
100
AcDbEntity
  8
7
100
AcDbLine
 10
3.258858267716535
 20
6.948818897637795
 30
0.0
 11
3.263779527559055
 21
6.933070866141733
 31
0.0
  0
LINE
  5
22F4
330
1E
100
AcDbEntity
  8
7
100
AcDbLine
 10
2.194881889763779
 20
6.755905511811023
 30
0.0
 11
2.18799212598425
 21
6.755905511811023
 31
0.0
  0
LINE
  5
22F5
330
1E
100
AcDbEntity
  8
7
100
AcDbLine
 10
3.281496062992125
 20
6.14763779527559
 30
0.0
 11
3.287401574803149
 21
6.148622047244093
 31
0.0
  0
LINE
  5
2342
330
1E
100
AcDbEntity
  8
7
100
AcDbLine
 10
2.427165354330707
 20
6.135826771653542
 30
0.0
 11
2.424212598425195
 21
6.141732283464566
 31
0.0
  0
LINE
  5
2343
330
1E
100
AcDbEntity
  8
7
100
AcDbLine
 10
2.424212598425195
 20
6.787401574803148
 30
0.0
 11
2.424212598425195
 21
6.141732283464566
 31
0.0
  0
LINE
  5
234F
330
1E
100
AcDbEntity
  8
7
100
AcDbLine
 10
2.992125984251968
 20
6.133858267716535
 30
0.0
 11
3.043307086614173
 21
6.133858267716535
 31
0.0
  0
LINE
  5
2355
330
1E
100
AcDbEntity
  8
7
100
AcDbLine
 10
2.983267716535431
 20
6.075787401574802
 30
0.0
 11
2.983267716535431
 21
6.125984251968502
 31
0.0
  0
LINE
  5
2363
330
1E
100
AcDbEntity
  8
7
100
AcDbLine
 10
2.4251968503937
 20
6.786417322834644
 30
0.0
 11
2.424212598425195
 21
6.787401574803148
 31
0.0
  0
LINE
  5
2364
330
1E
100
AcDbEntity
  8
7
100
AcDbLine
 10
2.43307086614173
 20
6.134842519685037
 30
0.0
 11
2.432086614173228
 21
6.133858267716535
 31
0.0
  0
LINE
  5
236A
330
1E
100
AcDbEntity
  8
7
100
AcDbLine
 10
2.991141732283463
 20
6.134842519685037
 30
0.0
 11
3.042322834645667
 21
6.134842519685037
 31
0.0
  0
LINE
  5
236B
330
1E
100
AcDbEntity
  8
7
100
AcDbLine
 10
2.991141732283463
 20
6.134842519685037
 30
0.0
 11
2.992125984251968
 21
6.133858267716535
 31
0.0
  0
LINE
  5
236C
330
1E
100
AcDbEntity
  8
7
100
AcDbLine
 10
3.043307086614173
 20
6.133858267716535
 30
0.0
 11
3.042322834645667
 21
6.134842519685037
 31
0.0
  0
LINE
  5
236D
330
1E
100
AcDbEntity
  8
7
100
AcDbLine
 10
3.0501968503937
 20
6.14271653543307
 30
0.0
 11
3.0501968503937
 21
6.786417322834644
 31
0.0
  0
LINE
  5
236E
330
1E
100
AcDbEntity
  8
7
100
AcDbLine
 10
3.0501968503937
 20
6.14271653543307
 30
0.0
 11
3.051181102362203
 21
6.141732283464566
 31
0.0
  0
LINE
  5
236F
330
1E
100
AcDbEntity
  8
7
100
AcDbLine
 10
3.051181102362203
 20
6.787401574803148
 30
0.0
 11
3.0501968503937
 21
6.786417322834644
 31
0.0
  0
LINE
  5
2375
330
1E
100
AcDbEntity
  8
7
100
AcDbLine
 10
2.432086614173228
 20
6.795275590551182
 30
0.0
 11
2.43307086614173
 21
6.794291338582675
 31
0.0
  0
LINE
  5
2376
330
1E
100
AcDbEntity
  8
7
100
AcDbLine
 10
2.650590551181102
 20
6.794291338582675
 30
0.0
 11
2.43307086614173
 21
6.794291338582675
 31
0.0
  0
LINE
  5
2377
330
1E
100
AcDbEntity
  8
7
100
AcDbLine
 10
2.825787401574801
 20
6.794291338582675
 30
0.0
 11
2.650590551181102
 21
6.794291338582675
 31
0.0
  0
LINE
  5
2378
330
1E
100
AcDbEntity
  8
7
100
AcDbLine
 10
2.493110236220471
 20
6.126968503937008
 30
0.0
 11
2.493110236220471
 21
6.077755905511811
 31
0.0
  0
LINE
  5
2379
330
1E
100
AcDbEntity
  8
7
100
AcDbLine
 10
2.493110236220471
 20
6.126968503937008
 30
0.0
 11
2.492125984251968
 21
6.125984251968502
 31
0.0
  0
LINE
  5
237A
330
1E
100
AcDbEntity
  8
7
100
AcDbLine
 10
2.492125984251968
 20
6.075787401574802
 30
0.0
 11
2.493110236220471
 21
6.077755905511811
 31
0.0
  0
LINE
  5
237B
330
1E
100
AcDbEntity
  8
7
100
AcDbLine
 10
2.983267716535431
 20
6.077755905511811
 30
0.0
 11
2.983267716535431
 21
6.075787401574802
 31
0.0
  0
LINE
  5
2381
330
1E
100
AcDbEntity
  8
7
100
AcDbLine
 10
2.500984251968502
 20
6.069881889763778
 30
0.0
 11
2.610236220472439
 21
6.069881889763778
 31
0.0
  0
LINE
  5
238C
330
1E
100
AcDbEntity
  8
7
100
AcDbLine
 10
2.840551181102361
 20
6.081692913385825
 30
0.0
 11
2.865157480314959
 21
6.069881889763778
 31
0.0
  0
LINE
  5
238D
330
1E
100
AcDbEntity
  8
7
100
AcDbLine
 10
2.500984251968502
 20
6.069881889763778
 30
0.0
 11
2.5
 21
6.067913385826771
 31
0.0
  0
LINE
  5
2393
330
1E
100
AcDbEntity
  8
7
100
AcDbLine
 10
2.634842519685038
 20
6.081692913385825
 30
0.0
 11
2.840551181102361
 21
6.081692913385825
 31
0.0
  0
LINE
  5
2394
330
1E
100
AcDbEntity
  8
7
100
AcDbLine
 10
2.634842519685038
 20
6.081692913385825
 30
0.0
 11
2.610236220472439
 21
6.069881889763778
 31
0.0
  0
LINE
  5
239A
330
1E
100
AcDbEntity
  8
7
100
AcDbLine
 10
2.635826771653543
 20
6.107283464566927
 30
0.0
 11
2.635826771653543
 21
6.096456692913386
 31
0.0
  0
LINE
  5
23A0
330
1E
100
AcDbEntity
  8
7
100
AcDbLine
 10
2.634842519685038
 20
6.148622047244093
 30
0.0
 11
2.634842519685038
 21
6.143700787401573
 31
0.0
  0
LINE
  5
23A1
330
1E
100
AcDbEntity
  8
7
100
AcDbLine
 10
2.634842519685038
 20
6.178149606299212
 30
0.0
 11
2.634842519685038
 21
6.148622047244093
 31
0.0
  0
LINE
  5
23A2
330
1E
100
AcDbEntity
  8
7
100
AcDbLine
 10
2.650590551181102
 20
6.794291338582675
 30
0.0
 11
2.650590551181102
 21
6.755905511811023
 31
0.0
  0
LINE
  5
23A3
330
1E
100
AcDbEntity
  8
7
100
AcDbLine
 10
2.825787401574801
 20
6.755905511811023
 30
0.0
 11
2.650590551181102
 21
6.755905511811023
 31
0.0
  0
LINE
  5
23A4
330
1E
100
AcDbEntity
  8
7
100
AcDbLine
 10
2.825787401574801
 20
6.794291338582675
 30
0.0
 11
2.825787401574801
 21
6.755905511811023
 31
0.0
  0
LINE
  5
23A5
330
1E
100
AcDbEntity
  8
7
100
AcDbLine
 10
2.840551181102361
 20
6.096456692913386
 30
0.0
 11
2.635826771653543
 21
6.096456692913386
 31
0.0
  0
LINE
  5
23A6
330
1E
100
AcDbEntity
  8
7
100
AcDbLine
 10
2.840551181102361
 20
6.107283464566927
 30
0.0
 11
2.635826771653543
 21
6.107283464566927
 31
0.0
  0
LINE
  5
23A7
330
1E
100
AcDbEntity
  8
7
100
AcDbLine
 10
2.634842519685038
 20
6.143700787401573
 30
0.0
 11
2.840551181102361
 21
6.143700787401573
 31
0.0
  0
LINE
  5
23A8
330
1E
100
AcDbEntity
  8
7
100
AcDbLine
 10
2.840551181102361
 20
6.148622047244093
 30
0.0
 11
2.634842519685038
 21
6.148622047244093
 31
0.0
  0
LINE
  5
23A9
330
1E
100
AcDbEntity
  8
7
100
AcDbLine
 10
2.840551181102361
 20
6.178149606299212
 30
0.0
 11
2.634842519685038
 21
6.178149606299212
 31
0.0
  0
LINE
  5
23AA
330
1E
100
AcDbEntity
  8
7
100
AcDbLine
 10
3.281496062992125
 20
6.148622047244093
 30
0.0
 11
3.287401574803149
 21
6.148622047244093
 31
0.0
  0
LINE
  5
23AB
330
1E
100
AcDbEntity
  8
7
100
AcDbLine
 10
3.287401574803149
 20
6.251968503937008
 30
0.0
 11
3.287401574803149
 21
6.148622047244093
 31
0.0
  0
LINE
  5
23AC
330
1E
100
AcDbEntity
  8
7
100
AcDbLine
 10
2.18799212598425
 20
6.754921259842518
 30
0.0
 11
2.18799212598425
 21
6.755905511811023
 31
0.0
  0
LINE
  5
23AD
330
1E
100
AcDbEntity
  8
7
100
AcDbLine
 10
2.193897637795275
 20
6.754921259842518
 30
0.0
 11
2.18799212598425
 21
6.754921259842518
 31
0.0
  0
LINE
  5
23AE
330
1E
100
AcDbEntity
  8
7
100
AcDbLine
 10
2.18799212598425
 20
6.651574803149605
 30
0.0
 11
2.18799212598425
 21
6.754921259842518
 31
0.0
  0
LINE
  5
2410
330
1E
100
AcDbEntity
  8
7
100
AcDbLine
 10
2.233267716535431
 20
5.988188976377951
 30
0.0
 11
2.218503937007873
 21
5.978346456692912
 31
0.0
  0
LINE
  5
242D
330
1E
100
AcDbEntity
  8
7
100
AcDbLine
 10
3.211614173228346
 20
5.933070866141733
 30
0.0
 11
3.201771653543306
 21
5.94783464566929
 31
0.0
  0
LINE
  5
246F
330
1E
100
AcDbEntity
  8
7
100
AcDbLine
 10
2.983267716535431
 20
4.048228346456691
 30
0.0
 11
2.989173228346456
 21
3.738188976377951
 31
0.0
  0
LINE
  5
2470
330
1E
100
AcDbEntity
  8
7
100
AcDbLine
 10
2.486220472440943
 20
3.738188976377951
 30
0.0
 11
2.492125984251968
 21
4.048228346456691
 31
0.0
  0
LINE
  5
2471
330
1E
100
AcDbEntity
  8
7
100
AcDbLine
 10
2.189960629921258
 20
4.062007874015748
 30
0.0
 11
2.18307086614173
 21
4.048228346456691
 31
0.0
  0
LINE
  5
2472
330
1E
100
AcDbEntity
  8
7
100
AcDbLine
 10
3.293307086614173
 20
4.048228346456691
 30
0.0
 11
3.285433070866141
 21
4.062007874015748
 31
0.0
  0
LINE
  5
2473
330
1E
100
AcDbEntity
  8
7
100
AcDbLine
 10
3.232283464566928
 20
4.008858267716535
 30
0.0
 11
3.233267716535431
 21
4.048228346456691
 31
0.0
  0
LINE
  5
2474
330
1E
100
AcDbEntity
  8
7
100
AcDbLine
 10
2.243110236220471
 20
4.048228346456691
 30
0.0
 11
2.243110236220471
 21
4.008858267716535
 31
0.0
  0
LINE
  5
2475
330
1E
100
AcDbEntity
  8
7
100
AcDbLine
 10
2.643700787401574
 20
3.45767716535433
 30
0.0
 11
2.831692913385826
 21
3.45767716535433
 31
0.0
  0
LINE
  5
24B1
330
1E
100
AcDbEntity
  8
7
100
AcDbLine
 10
2.25295275590551
 20
3.738188976377951
 30
0.0
 11
2.248031496062991
 21
4.048228346456691
 31
0.0
  0
LINE
  5
24B8
330
1E
100
AcDbEntity
  8
7
100
AcDbLine
 10
2.326771653543306
 20
4.008858267716535
 30
0.0
 11
2.326771653543306
 21
4.048228346456691
 31
0.0
  0
LINE
  5
24B9
330
1E
100
AcDbEntity
  8
7
100
AcDbLine
 10
2.287401574803148
 20
4.048228346456691
 30
0.0
 11
2.293307086614173
 21
3.738188976377951
 31
0.0
  0
LINE
  5
24BA
330
1E
100
AcDbEntity
  8
7
100
AcDbLine
 10
2.481299212598425
 20
3.738188976377951
 30
0.0
 11
2.293307086614173
 21
3.738188976377951
 31
0.0
  0
LINE
  5
24BB
330
1E
100
AcDbEntity
  8
7
100
AcDbLine
 10
2.481299212598425
 20
3.738188976377951
 30
0.0
 11
2.487204724409448
 21
4.048228346456691
 31
0.0
  0
LINE
  5
24BC
330
1E
100
AcDbEntity
  8
7
100
AcDbLine
 10
2.349409448818896
 20
4.008858267716535
 30
0.0
 11
2.349409448818896
 21
4.048228346456691
 31
0.0
  0
LINE
  5
24BD
330
1E
100
AcDbEntity
  8
7
100
AcDbLine
 10
3.126968503937006
 20
4.008858267716535
 30
0.0
 11
3.131889763779526
 21
3.999015748031495
 31
0.0
  0
LINE
  5
24C3
330
1E
100
AcDbEntity
  8
7
100
AcDbLine
 10
3.126968503937006
 20
4.008858267716535
 30
0.0
 11
3.126968503937006
 21
4.048228346456691
 31
0.0
  0
LINE
  5
24C4
330
1E
100
AcDbEntity
  8
7
100
AcDbLine
 10
2.988188976377951
 20
4.048228346456691
 30
0.0
 11
2.994094488188975
 21
3.738188976377951
 31
0.0
  0
LINE
  5
24C5
330
1E
100
AcDbEntity
  8
7
100
AcDbLine
 10
3.182086614173228
 20
3.738188976377951
 30
0.0
 11
2.994094488188975
 21
3.738188976377951
 31
0.0
  0
LINE
  5
24C6
330
1E
100
AcDbEntity
  8
7
100
AcDbLine
 10
3.182086614173228
 20
3.738188976377951
 30
0.0
 11
3.187992125984251
 21
4.048228346456691
 31
0.0
  0
LINE
  5
24C7
330
1E
100
AcDbEntity
  8
7
100
AcDbLine
 10
3.148622047244094
 20
4.008858267716535
 30
0.0
 11
3.148622047244094
 21
4.048228346456691
 31
0.0
  0
LINE
  5
24C8
330
1E
100
AcDbEntity
  8
7
100
AcDbLine
 10
3.227362204724408
 20
4.048228346456691
 30
0.0
 11
3.222440944881888
 21
3.738188976377951
 31
0.0
  0
LINE
  5
24C9
330
1E
100
AcDbEntity
  8
7
100
AcDbLine
 10
2.486220472440943
 20
3.738188976377951
 30
0.0
 11
2.481299212598425
 21
3.738188976377951
 31
0.0
  0
LINE
  5
24D6
330
1E
100
AcDbEntity
  8
7
100
AcDbLine
 10
2.251968503937006
 20
3.794291338582676
 30
0.0
 11
2.18799212598425
 21
3.935039370078738
 31
0.0
  0
LINE
  5
24D7
330
1E
100
AcDbEntity
  8
7
100
AcDbLine
 10
3.223425196850392
 20
3.788385826771653
 30
0.0
 11
3.287401574803149
 21
3.935039370078738
 31
0.0
  0
LINE
  5
24FC
330
1E
100
AcDbEntity
  8
7
100
AcDbLine
 10
2.833661417322834
 20
3.48523622047244
 30
0.0
 11
2.846456692913385
 21
3.738188976377951
 31
0.0
  0
LINE
  5
2503
330
1E
100
AcDbEntity
  8
7
100
AcDbLine
 10
2.642716535433069
 20
3.48523622047244
 30
0.0
 11
2.628937007874015
 21
3.738188976377951
 31
0.0
  0
LINE
  5
250A
330
1E
100
AcDbEntity
  8
7
100
AcDbLine
 10
2.833661417322834
 20
3.48523622047244
 30
0.0
 11
2.642716535433069
 21
3.48523622047244
 31
0.0
  0
LINE
  5
250B
330
1E
100
AcDbEntity
  8
7
100
AcDbLine
 10
2.497047244094486
 20
4.048228346456691
 30
0.0
 11
2.492125984251968
 21
3.738188976377951
 31
0.0
  0
LINE
  5
250C
330
1E
100
AcDbEntity
  8
7
100
AcDbLine
 10
2.984251968503936
 20
3.738188976377951
 30
0.0
 11
2.846456692913385
 21
3.738188976377951
 31
0.0
  0
LINE
  5
250D
330
1E
100
AcDbEntity
  8
7
100
AcDbLine
 10
2.984251968503936
 20
3.738188976377951
 30
0.0
 11
2.978346456692912
 21
4.048228346456691
 31
0.0
  0
LINE
  5
251A
330
1E
100
AcDbEntity
  8
7
100
AcDbLine
 10
3.287401574803149
 20
3.949803149606298
 30
0.0
 11
3.287401574803149
 21
3.935039370078738
 31
0.0
  0
LINE
  5
251B
330
1E
100
AcDbEntity
  8
7
100
AcDbLine
 10
3.262795275590549
 20
3.950787401574801
 30
0.0
 11
3.287401574803149
 21
3.949803149606298
 31
0.0
  0
LINE
  5
251C
330
1E
100
AcDbEntity
  8
7
100
AcDbLine
 10
3.262795275590549
 20
3.950787401574801
 30
0.0
 11
3.257874015748031
 21
3.955708661417323
 31
0.0
  0
LINE
  5
251D
330
1E
100
AcDbEntity
  8
7
100
AcDbLine
 10
3.257874015748031
 20
3.979330708661416
 30
0.0
 11
3.257874015748031
 21
3.955708661417323
 31
0.0
  0
LINE
  5
251E
330
1E
100
AcDbEntity
  8
7
100
AcDbLine
 10
3.237204724409448
 20
3.980314960629921
 30
0.0
 11
3.257874015748031
 21
3.979330708661416
 31
0.0
  0
LINE
  5
2525
330
1E
100
AcDbEntity
  8
7
100
AcDbLine
 10
2.243110236220471
 20
4.004921259842518
 30
0.0
 11
2.244094488188975
 21
4.004921259842518
 31
0.0
  0
LINE
  5
2526
330
1E
100
AcDbEntity
  8
7
100
AcDbLine
 10
2.243110236220471
 20
3.98523622047244
 30
0.0
 11
2.243110236220471
 21
4.004921259842518
 31
0.0
  0
LINE
  5
2536
330
1E
100
AcDbEntity
  8
7
100
AcDbLine
 10
2.263779527559055
 20
4.062007874015748
 30
0.0
 11
2.244094488188975
 21
4.066929133858266
 31
0.0
  0
LINE
  5
40BB
330
1E
100
AcDbEntity
  8
7
100
AcDbLine
 10
2.248031496062991
 20
4.008858267716535
 30
0.0
 11
2.24507874015748
 21
4.008858267716535
 31
0.0
  0
LINE
  5
40BC
330
1E
100
AcDbEntity
  8
7
100
AcDbLine
 10
2.24507874015748
 20
4.008858267716535
 30
0.0
 11
2.243110236220471
 21
4.008858267716535
 31
0.0
  0
LINE
  5
40BD
330
1E
100
AcDbEntity
  8
7
100
AcDbLine
 10
2.349409448818896
 20
4.008858267716535
 30
0.0
 11
2.33759842519685
 21
4.008858267716535
 31
0.0
  0
LINE
  5
40BE
330
1E
100
AcDbEntity
  8
7
100
AcDbLine
 10
2.33759842519685
 20
4.008858267716535
 30
0.0
 11
2.326771653543306
 21
4.008858267716535
 31
0.0
  0
LINE
  5
40BF
330
1E
100
AcDbEntity
  8
7
100
AcDbLine
 10
3.148622047244094
 20
4.008858267716535
 30
0.0
 11
3.137795275590549
 21
4.008858267716535
 31
0.0
  0
LINE
  5
40C0
330
1E
100
AcDbEntity
  8
7
100
AcDbLine
 10
3.137795275590549
 20
4.008858267716535
 30
0.0
 11
3.126968503937006
 21
4.008858267716535
 31
0.0
  0
LINE
  5
40C1
330
1E
100
AcDbEntity
  8
7
100
AcDbLine
 10
3.232283464566928
 20
4.008858267716535
 30
0.0
 11
3.231299212598424
 21
4.008858267716535
 31
0.0
  0
LINE
  5
40C2
330
1E
100
AcDbEntity
  8
7
100
AcDbLine
 10
3.231299212598424
 20
4.008858267716535
 30
0.0
 11
3.227362204724408
 21
4.008858267716535
 31
0.0
  0
LINE
  5
40C3
330
1E
100
AcDbEntity
  8
7
100
AcDbLine
 10
3.133858267716535
 20
4.140748031496062
 30
0.0
 11
3.129921259842518
 21
4.141732283464566
 31
0.0
  0
LINE
  5
40C4
330
1E
100
AcDbEntity
  8
7
100
AcDbLine
 10
3.129921259842518
 20
4.141732283464566
 30
0.0
 11
3.128937007874014
 21
4.141732283464566
 31
0.0
  0
LINE
  5
40C5
330
1E
100
AcDbEntity
  8
7
100
AcDbLine
 10
3.128937007874014
 20
4.141732283464566
 30
0.0
 11
3.127952755905511
 21
4.141732283464566
 31
0.0
  0
LINE
  5
40C6
330
1E
100
AcDbEntity
  8
7
100
AcDbLine
 10
3.127952755905511
 20
4.141732283464566
 30
0.0
 11
3.126968503937006
 21
4.141732283464566
 31
0.0
  0
LINE
  5
40C7
330
1E
100
AcDbEntity
  8
7
100
AcDbLine
 10
3.211614173228346
 20
4.062007874015748
 30
0.0
 11
3.201771653543306
 21
4.083661417322834
 31
0.0
  0
LINE
  5
40C8
330
1E
100
AcDbEntity
  8
7
100
AcDbLine
 10
3.201771653543306
 20
4.083661417322834
 30
0.0
 11
3.189960629921258
 21
4.103346456692912
 31
0.0
  0
LINE
  5
40C9
330
1E
100
AcDbEntity
  8
7
100
AcDbLine
 10
3.189960629921258
 20
4.103346456692912
 30
0.0
 11
3.177165354330707
 21
4.119094488188975
 31
0.0
  0
LINE
  5
40CA
330
1E
100
AcDbEntity
  8
7
100
AcDbLine
 10
3.177165354330707
 20
4.119094488188975
 30
0.0
 11
3.163385826771653
 21
4.129921259842518
 31
0.0
  0
LINE
  5
40CB
330
1E
100
AcDbEntity
  8
7
100
AcDbLine
 10
3.163385826771653
 20
4.129921259842518
 30
0.0
 11
3.142716535433069
 21
4.139763779527558
 31
0.0
  0
LINE
  5
40CC
330
1E
100
AcDbEntity
  8
7
100
AcDbLine
 10
3.142716535433069
 20
4.139763779527558
 30
0.0
 11
3.133858267716535
 21
4.140748031496062
 31
0.0
  0
LINE
  5
40CD
330
1E
100
AcDbEntity
  8
7
100
AcDbLine
 10
2.341535433070865
 20
4.140748031496062
 30
0.0
 11
2.33267716535433
 21
4.139763779527558
 31
0.0
  0
LINE
  5
40CE
330
1E
100
AcDbEntity
  8
7
100
AcDbLine
 10
2.33267716535433
 20
4.139763779527558
 30
0.0
 11
2.312007874015746
 21
4.129921259842518
 31
0.0
  0
LINE
  5
40CF
330
1E
100
AcDbEntity
  8
7
100
AcDbLine
 10
2.312007874015746
 20
4.129921259842518
 30
0.0
 11
2.298228346456691
 21
4.119094488188975
 31
0.0
  0
LINE
  5
40D0
330
1E
100
AcDbEntity
  8
7
100
AcDbLine
 10
2.298228346456691
 20
4.119094488188975
 30
0.0
 11
2.285433070866141
 21
4.103346456692912
 31
0.0
  0
LINE
  5
40D1
330
1E
100
AcDbEntity
  8
7
100
AcDbLine
 10
2.285433070866141
 20
4.103346456692912
 30
0.0
 11
2.273622047244094
 21
4.083661417322834
 31
0.0
  0
LINE
  5
40D2
330
1E
100
AcDbEntity
  8
7
100
AcDbLine
 10
2.273622047244094
 20
4.083661417322834
 30
0.0
 11
2.263779527559055
 21
4.062007874015748
 31
0.0
  0
LINE
  5
40D3
330
1E
100
AcDbEntity
  8
7
100
AcDbLine
 10
2.348425196850393
 20
4.141732283464566
 30
0.0
 11
2.347440944881889
 21
4.141732283464566
 31
0.0
  0
LINE
  5
40D4
330
1E
100
AcDbEntity
  8
7
100
AcDbLine
 10
2.347440944881889
 20
4.141732283464566
 30
0.0
 11
2.345472440944881
 21
4.141732283464566
 31
0.0
  0
LINE
  5
40D5
330
1E
100
AcDbEntity
  8
7
100
AcDbLine
 10
2.345472440944881
 20
4.141732283464566
 30
0.0
 11
2.341535433070865
 21
4.140748031496062
 31
0.0
  0
LINE
  5
40D6
330
1E
100
AcDbEntity
  8
7
100
AcDbLine
 10
3.256889763779526
 20
4.062007874015748
 30
0.0
 11
3.242125984251968
 21
4.083661417322834
 31
0.0
  0
LINE
  5
40D7
330
1E
100
AcDbEntity
  8
7
100
AcDbLine
 10
3.242125984251968
 20
4.083661417322834
 30
0.0
 11
3.224409448818896
 21
4.103346456692912
 31
0.0
  0
LINE
  5
40D8
330
1E
100
AcDbEntity
  8
7
100
AcDbLine
 10
3.224409448818896
 20
4.103346456692912
 30
0.0
 11
3.204724409448818
 21
4.119094488188975
 31
0.0
  0
LINE
  5
40D9
330
1E
100
AcDbEntity
  8
7
100
AcDbLine
 10
3.204724409448818
 20
4.119094488188975
 30
0.0
 11
3.183070866141731
 21
4.129921259842518
 31
0.0
  0
LINE
  5
40DA
330
1E
100
AcDbEntity
  8
7
100
AcDbLine
 10
3.183070866141731
 20
4.129921259842518
 30
0.0
 11
3.151574803149606
 21
4.139763779527558
 31
0.0
  0
LINE
  5
40DB
330
1E
100
AcDbEntity
  8
7
100
AcDbLine
 10
3.151574803149606
 20
4.139763779527558
 30
0.0
 11
3.137795275590549
 21
4.140748031496062
 31
0.0
  0
LINE
  5
40DC
330
1E
100
AcDbEntity
  8
7
100
AcDbLine
 10
3.137795275590549
 20
4.140748031496062
 30
0.0
 11
3.131889763779526
 21
4.141732283464566
 31
0.0
  0
LINE
  5
40DD
330
1E
100
AcDbEntity
  8
7
100
AcDbLine
 10
3.131889763779526
 20
4.141732283464566
 30
0.0
 11
3.128937007874014
 21
4.141732283464566
 31
0.0
  0
LINE
  5
40DE
330
1E
100
AcDbEntity
  8
7
100
AcDbLine
 10
3.128937007874014
 20
4.141732283464566
 30
0.0
 11
3.127952755905511
 21
4.141732283464566
 31
0.0
  0
LINE
  5
40DF
330
1E
100
AcDbEntity
  8
7
100
AcDbLine
 10
3.127952755905511
 20
4.141732283464566
 30
0.0
 11
3.126968503937006
 21
4.141732283464566
 31
0.0
  0
LINE
  5
40E0
330
1E
100
AcDbEntity
  8
7
100
AcDbLine
 10
2.348425196850393
 20
4.141732283464566
 30
0.0
 11
2.347440944881889
 21
4.141732283464566
 31
0.0
  0
LINE
  5
40E1
330
1E
100
AcDbEntity
  8
7
100
AcDbLine
 10
2.347440944881889
 20
4.141732283464566
 30
0.0
 11
2.346456692913384
 21
4.141732283464566
 31
0.0
  0
LINE
  5
40E2
330
1E
100
AcDbEntity
  8
7
100
AcDbLine
 10
2.346456692913384
 20
4.141732283464566
 30
0.0
 11
2.343503937007873
 21
4.141732283464566
 31
0.0
  0
LINE
  5
40E3
330
1E
100
AcDbEntity
  8
7
100
AcDbLine
 10
2.343503937007873
 20
4.141732283464566
 30
0.0
 11
2.33759842519685
 21
4.140748031496062
 31
0.0
  0
LINE
  5
40E4
330
1E
100
AcDbEntity
  8
7
100
AcDbLine
 10
2.33759842519685
 20
4.140748031496062
 30
0.0
 11
2.323818897637794
 21
4.139763779527558
 31
0.0
  0
LINE
  5
40E5
330
1E
100
AcDbEntity
  8
7
100
AcDbLine
 10
2.323818897637794
 20
4.139763779527558
 30
0.0
 11
2.292322834645668
 21
4.129921259842518
 31
0.0
  0
LINE
  5
40E6
330
1E
100
AcDbEntity
  8
7
100
AcDbLine
 10
2.292322834645668
 20
4.129921259842518
 30
0.0
 11
2.270669291338581
 21
4.119094488188975
 31
0.0
  0
LINE
  5
40E7
330
1E
100
AcDbEntity
  8
7
100
AcDbLine
 10
2.270669291338581
 20
4.119094488188975
 30
0.0
 11
2.250984251968502
 21
4.103346456692912
 31
0.0
  0
LINE
  5
40E8
330
1E
100
AcDbEntity
  8
7
100
AcDbLine
 10
2.250984251968502
 20
4.103346456692912
 30
0.0
 11
2.233267716535431
 21
4.083661417322834
 31
0.0
  0
LINE
  5
40E9
330
1E
100
AcDbEntity
  8
7
100
AcDbLine
 10
2.233267716535431
 20
4.083661417322834
 30
0.0
 11
2.218503937007873
 21
4.062007874015748
 31
0.0
  0
LINE
  5
40EA
330
1E
100
AcDbEntity
  8
7
100
AcDbLine
 10
2.244094488188975
 20
4.066929133858266
 30
0.0
 11
2.228346456692912
 21
4.066929133858266
 31
0.0
  0
LINE
  5
40EB
330
1E
100
AcDbEntity
  8
7
100
AcDbLine
 10
2.228346456692912
 20
4.066929133858266
 30
0.0
 11
2.218503937007873
 21
4.062007874015748
 31
0.0
  0
LINE
  5
40EC
330
1E
100
AcDbEntity
  8
7
100
AcDbLine
 10
3.256889763779526
 20
4.062007874015748
 30
0.0
 11
3.247047244094486
 21
4.066929133858266
 31
0.0
  0
LINE
  5
40ED
330
1E
100
AcDbEntity
  8
7
100
AcDbLine
 10
3.247047244094486
 20
4.066929133858266
 30
0.0
 11
3.231299212598424
 21
4.066929133858266
 31
0.0
  0
LINE
  5
40EE
330
1E
100
AcDbEntity
  8
7
100
AcDbLine
 10
3.231299212598424
 20
4.066929133858266
 30
0.0
 11
3.211614173228346
 21
4.062007874015748
 31
0.0
  0
LINE
  5
40EF
330
1E
100
AcDbEntity
  8
7
100
AcDbLine
 10
2.243110236220471
 20
3.98523622047244
 30
0.0
 11
2.238188976377951
 21
3.980314960629921
 31
0.0
  0
LINE
  5
40F0
330
1E
100
AcDbEntity
  8
7
100
AcDbLine
 10
2.238188976377951
 20
3.980314960629921
 30
0.0
 11
2.217519685039369
 21
3.979330708661416
 31
0.0
  0
LINE
  5
40F1
330
1E
100
AcDbEntity
  8
7
100
AcDbLine
 10
2.217519685039369
 20
3.979330708661416
 30
0.0
 11
2.217519685039369
 21
3.955708661417323
 31
0.0
  0
LINE
  5
40F2
330
1E
100
AcDbEntity
  8
7
100
AcDbLine
 10
2.217519685039369
 20
3.955708661417323
 30
0.0
 11
2.21259842519685
 21
3.950787401574801
 31
0.0
  0
LINE
  5
40F3
330
1E
100
AcDbEntity
  8
7
100
AcDbLine
 10
2.21259842519685
 20
3.950787401574801
 30
0.0
 11
2.18799212598425
 21
3.949803149606298
 31
0.0
  0
LINE
  5
40F4
330
1E
100
AcDbEntity
  8
7
100
AcDbLine
 10
2.18799212598425
 20
3.949803149606298
 30
0.0
 11
2.18799212598425
 21
3.935039370078738
 31
0.0
  0
LINE
  5
40F5
330
1E
100
AcDbEntity
  8
7
100
AcDbLine
 10
3.237204724409448
 20
3.980314960629921
 30
0.0
 11
3.233267716535431
 21
3.98523622047244
 31
0.0
  0
LINE
  5
40F6
330
1E
100
AcDbEntity
  8
7
100
AcDbLine
 10
3.233267716535431
 20
3.98523622047244
 30
0.0
 11
3.233267716535431
 21
4.004921259842518
 31
0.0
  0
LINE
  5
40F7
330
1E
100
AcDbEntity
  8
7
100
AcDbLine
 10
3.233267716535431
 20
4.004921259842518
 30
0.0
 11
3.231299212598424
 21
4.004921259842518
 31
0.0
  0
LINE
  5
40F8
330
1E
100
AcDbEntity
  8
7
100
AcDbLine
 10
3.222440944881888
 20
3.738188976377951
 30
0.0
 11
3.219488188976377
 21
3.738188976377951
 31
0.0
  0
LINE
  5
40F9
330
1E
100
AcDbEntity
  8
7
100
AcDbLine
 10
3.219488188976377
 20
3.738188976377951
 30
0.0
 11
3.210629921259841
 21
3.738188976377951
 31
0.0
  0
LINE
  5
40FA
330
1E
100
AcDbEntity
  8
7
100
AcDbLine
 10
3.210629921259841
 20
3.738188976377951
 30
0.0
 11
3.197834645669291
 21
3.738188976377951
 31
0.0
  0
LINE
  5
40FB
330
1E
100
AcDbEntity
  8
7
100
AcDbLine
 10
3.197834645669291
 20
3.738188976377951
 30
0.0
 11
3.182086614173228
 21
3.738188976377951
 31
0.0
  0
LINE
  5
40FC
330
1E
100
AcDbEntity
  8
7
100
AcDbLine
 10
2.994094488188975
 20
3.738188976377951
 30
0.0
 11
2.989173228346456
 21
3.738188976377951
 31
0.0
  0
LINE
  5
40FD
330
1E
100
AcDbEntity
  8
7
100
AcDbLine
 10
2.989173228346456
 20
3.738188976377951
 30
0.0
 11
2.984251968503936
 21
3.738188976377951
 31
0.0
  0
LINE
  5
40FE
330
1E
100
AcDbEntity
  8
7
100
AcDbLine
 10
2.643700787401574
 20
3.45767716535433
 30
0.0
 11
2.643700787401574
 21
3.461614173228346
 31
0.0
  0
LINE
  5
40FF
330
1E
100
AcDbEntity
  8
7
100
AcDbLine
 10
2.643700787401574
 20
3.461614173228346
 30
0.0
 11
2.642716535433069
 21
3.471456692913385
 31
0.0
  0
LINE
  5
4100
330
1E
100
AcDbEntity
  8
7
100
AcDbLine
 10
2.642716535433069
 20
3.471456692913385
 30
0.0
 11
2.642716535433069
 21
3.48523622047244
 31
0.0
  0
LINE
  5
4101
330
1E
100
AcDbEntity
  8
7
100
AcDbLine
 10
2.831692913385826
 20
3.45767716535433
 30
0.0
 11
2.831692913385826
 21
3.461614173228346
 31
0.0
  0
LINE
  5
4102
330
1E
100
AcDbEntity
  8
7
100
AcDbLine
 10
2.831692913385826
 20
3.461614173228346
 30
0.0
 11
2.83267716535433
 21
3.471456692913385
 31
0.0
  0
LINE
  5
4103
330
1E
100
AcDbEntity
  8
7
100
AcDbLine
 10
2.83267716535433
 20
3.471456692913385
 30
0.0
 11
2.833661417322834
 21
3.48523622047244
 31
0.0
  0
LINE
  5
4104
330
1E
100
AcDbEntity
  8
7
100
AcDbLine
 10
2.933070866141731
 20
4.141732283464566
 30
0.0
 11
3.126968503937006
 21
4.141732283464566
 31
0.0
  0
LINE
  5
4105
330
1E
100
AcDbEntity
  8
7
100
AcDbLine
 10
3.126968503937006
 20
4.141732283464566
 30
0.0
 11
3.141732283464566
 21
4.141732283464566
 31
0.0
  0
LINE
  5
4106
330
1E
100
AcDbEntity
  8
7
100
AcDbLine
 10
3.141732283464566
 20
4.141732283464566
 30
0.0
 11
3.146653543307086
 21
4.141732283464566
 31
0.0
  0
LINE
  5
4107
330
1E
100
AcDbEntity
  8
7
100
AcDbLine
 10
2.328740157480313
 20
4.141732283464566
 30
0.0
 11
2.333661417322833
 21
4.141732283464566
 31
0.0
  0
LINE
  5
4108
330
1E
100
AcDbEntity
  8
7
100
AcDbLine
 10
2.333661417322833
 20
4.141732283464566
 30
0.0
 11
2.348425196850393
 21
4.141732283464566
 31
0.0
  0
LINE
  5
4109
330
1E
100
AcDbEntity
  8
7
100
AcDbLine
 10
2.348425196850393
 20
4.141732283464566
 30
0.0
 11
2.543307086614173
 21
4.141732283464566
 31
0.0
  0
LINE
  5
410A
330
1E
100
AcDbEntity
  8
7
100
AcDbLine
 10
2.543307086614173
 20
4.141732283464566
 30
0.0
 11
2.738188976377951
 21
4.141732283464566
 31
0.0
  0
LINE
  5
410B
330
1E
100
AcDbEntity
  8
7
100
AcDbLine
 10
2.738188976377951
 20
4.141732283464566
 30
0.0
 11
2.933070866141731
 21
4.141732283464566
 31
0.0
  0
LINE
  5
410C
330
1E
100
AcDbEntity
  8
7
100
AcDbLine
 10
2.211614173228345
 20
4.048228346456691
 30
0.0
 11
2.218503937007873
 21
4.062007874015748
 31
0.0
  0
LINE
  5
410D
330
1E
100
AcDbEntity
  8
7
100
AcDbLine
 10
2.218503937007873
 20
4.062007874015748
 30
0.0
 11
2.197834645669291
 21
4.062007874015748
 31
0.0
  0
LINE
  5
410E
330
1E
100
AcDbEntity
  8
7
100
AcDbLine
 10
2.197834645669291
 20
4.062007874015748
 30
0.0
 11
2.189960629921258
 21
4.062007874015748
 31
0.0
  0
LINE
  5
410F
330
1E
100
AcDbEntity
  8
7
100
AcDbLine
 10
3.285433070866141
 20
4.062007874015748
 30
0.0
 11
3.278543307086613
 21
4.062007874015748
 31
0.0
  0
LINE
  5
4110
330
1E
100
AcDbEntity
  8
7
100
AcDbLine
 10
3.278543307086613
 20
4.062007874015748
 30
0.0
 11
3.256889763779526
 21
4.062007874015748
 31
0.0
  0
LINE
  5
4111
330
1E
100
AcDbEntity
  8
7
100
AcDbLine
 10
3.256889763779526
 20
4.062007874015748
 30
0.0
 11
3.263779527559055
 21
4.048228346456691
 31
0.0
  0
LINE
  5
4112
330
1E
100
AcDbEntity
  8
7
100
AcDbLine
 10
3.218503937007873
 20
4.048228346456691
 30
0.0
 11
3.211614173228346
 21
4.062007874015748
 31
0.0
  0
LINE
  5
4113
330
1E
100
AcDbEntity
  8
7
100
AcDbLine
 10
3.211614173228346
 20
4.062007874015748
 30
0.0
 11
3.022637795275589
 21
4.062007874015748
 31
0.0
  0
LINE
  5
4114
330
1E
100
AcDbEntity
  8
7
100
AcDbLine
 10
3.022637795275589
 20
4.062007874015748
 30
0.0
 11
2.83267716535433
 21
4.062007874015748
 31
0.0
  0
LINE
  5
4115
330
1E
100
AcDbEntity
  8
7
100
AcDbLine
 10
2.83267716535433
 20
4.062007874015748
 30
0.0
 11
2.642716535433069
 21
4.062007874015748
 31
0.0
  0
LINE
  5
4116
330
1E
100
AcDbEntity
  8
7
100
AcDbLine
 10
2.642716535433069
 20
4.062007874015748
 30
0.0
 11
2.45275590551181
 21
4.062007874015748
 31
0.0
  0
LINE
  5
4117
330
1E
100
AcDbEntity
  8
7
100
AcDbLine
 10
2.45275590551181
 20
4.062007874015748
 30
0.0
 11
2.263779527559055
 21
4.062007874015748
 31
0.0
  0
LINE
  5
4118
330
1E
100
AcDbEntity
  8
7
100
AcDbLine
 10
2.263779527559055
 20
4.062007874015748
 30
0.0
 11
2.256889763779526
 21
4.048228346456691
 31
0.0
  0
LINE
  5
4119
330
1E
100
AcDbEntity
  8
7
100
AcDbLine
 10
2.628937007874015
 20
3.738188976377951
 30
0.0
 11
2.492125984251968
 21
3.738188976377951
 31
0.0
  0
LINE
  5
411A
330
1E
100
AcDbEntity
  8
7
100
AcDbLine
 10
2.492125984251968
 20
3.738188976377951
 30
0.0
 11
2.486220472440943
 21
3.738188976377951
 31
0.0
  0
LINE
  5
411B
330
1E
100
AcDbEntity
  8
7
100
AcDbLine
 10
2.293307086614173
 20
3.738188976377951
 30
0.0
 11
2.277559055118109
 21
3.738188976377951
 31
0.0
  0
LINE
  5
411C
330
1E
100
AcDbEntity
  8
7
100
AcDbLine
 10
2.277559055118109
 20
3.738188976377951
 30
0.0
 11
2.264763779527557
 21
3.738188976377951
 31
0.0
  0
LINE
  5
411D
330
1E
100
AcDbEntity
  8
7
100
AcDbLine
 10
2.264763779527557
 20
3.738188976377951
 30
0.0
 11
2.255905511811023
 21
3.738188976377951
 31
0.0
  0
LINE
  5
411E
330
1E
100
AcDbEntity
  8
7
100
AcDbLine
 10
2.255905511811023
 20
3.738188976377951
 30
0.0
 11
2.25295275590551
 21
3.738188976377951
 31
0.0
  0
LINE
  5
411F
330
1E
100
AcDbEntity
  8
7
100
AcDbLine
 10
3.131889763779526
 20
3.999015748031495
 30
0.0
 11
3.143700787401573
 21
3.999015748031495
 31
0.0
  0
LINE
  5
4120
330
1E
100
AcDbEntity
  8
7
100
AcDbLine
 10
3.143700787401573
 20
3.999015748031495
 30
0.0
 11
3.148622047244094
 21
4.008858267716535
 31
0.0
  0
LINE
  5
4121
330
1E
100
AcDbEntity
  8
7
100
AcDbLine
 10
2.326771653543306
 20
4.008858267716535
 30
0.0
 11
2.331692913385825
 21
3.999015748031495
 31
0.0
  0
LINE
  5
4122
330
1E
100
AcDbEntity
  8
7
100
AcDbLine
 10
2.331692913385825
 20
3.999015748031495
 30
0.0
 11
2.343503937007873
 21
3.999015748031495
 31
0.0
  0
LINE
  5
4123
330
1E
100
AcDbEntity
  8
7
100
AcDbLine
 10
2.343503937007873
 20
3.999015748031495
 30
0.0
 11
2.349409448818896
 21
4.008858267716535
 31
0.0
  0
LINE
  5
4124
330
1E
100
AcDbEntity
  8
7
100
AcDbLine
 10
2.18307086614173
 20
4.048228346456691
 30
0.0
 11
2.189960629921258
 21
4.048228346456691
 31
0.0
  0
LINE
  5
4125
330
1E
100
AcDbEntity
  8
7
100
AcDbLine
 10
2.189960629921258
 20
4.048228346456691
 30
0.0
 11
2.211614173228345
 21
4.048228346456691
 31
0.0
  0
LINE
  5
4126
330
1E
100
AcDbEntity
  8
7
100
AcDbLine
 10
2.256889763779526
 20
4.048228346456691
 30
0.0
 11
2.240157480314959
 21
4.048228346456691
 31
0.0
  0
LINE
  5
4127
330
1E
100
AcDbEntity
  8
7
100
AcDbLine
 10
2.240157480314959
 20
4.048228346456691
 30
0.0
 11
2.2253937007874
 21
4.048228346456691
 31
0.0
  0
LINE
  5
4128
330
1E
100
AcDbEntity
  8
7
100
AcDbLine
 10
2.2253937007874
 20
4.048228346456691
 30
0.0
 11
2.216535433070865
 21
4.048228346456691
 31
0.0
  0
LINE
  5
4129
330
1E
100
AcDbEntity
  8
7
100
AcDbLine
 10
2.216535433070865
 20
4.048228346456691
 30
0.0
 11
2.211614173228345
 21
4.048228346456691
 31
0.0
  0
LINE
  5
412A
330
1E
100
AcDbEntity
  8
7
100
AcDbLine
 10
2.256889763779526
 20
4.048228346456691
 30
0.0
 11
2.448818897637794
 21
4.048228346456691
 31
0.0
  0
LINE
  5
412B
330
1E
100
AcDbEntity
  8
7
100
AcDbLine
 10
2.448818897637794
 20
4.048228346456691
 30
0.0
 11
2.641732283464565
 21
4.048228346456691
 31
0.0
  0
LINE
  5
412C
330
1E
100
AcDbEntity
  8
7
100
AcDbLine
 10
2.641732283464565
 20
4.048228346456691
 30
0.0
 11
2.834645669291337
 21
4.048228346456691
 31
0.0
  0
LINE
  5
412D
330
1E
100
AcDbEntity
  8
7
100
AcDbLine
 10
2.834645669291337
 20
4.048228346456691
 30
0.0
 11
3.026574803149606
 21
4.048228346456691
 31
0.0
  0
LINE
  5
412E
330
1E
100
AcDbEntity
  8
7
100
AcDbLine
 10
3.026574803149606
 20
4.048228346456691
 30
0.0
 11
3.218503937007873
 21
4.048228346456691
 31
0.0
  0
LINE
  5
412F
330
1E
100
AcDbEntity
  8
7
100
AcDbLine
 10
3.263779527559055
 20
4.048228346456691
 30
0.0
 11
3.258858267716535
 21
4.048228346456691
 31
0.0
  0
LINE
  5
4130
330
1E
100
AcDbEntity
  8
7
100
AcDbLine
 10
3.258858267716535
 20
4.048228346456691
 30
0.0
 11
3.249015748031495
 21
4.048228346456691
 31
0.0
  0
LINE
  5
4131
330
1E
100
AcDbEntity
  8
7
100
AcDbLine
 10
3.249015748031495
 20
4.048228346456691
 30
0.0
 11
3.23523622047244
 21
4.048228346456691
 31
0.0
  0
LINE
  5
4132
330
1E
100
AcDbEntity
  8
7
100
AcDbLine
 10
3.23523622047244
 20
4.048228346456691
 30
0.0
 11
3.218503937007873
 21
4.048228346456691
 31
0.0
  0
LINE
  5
4133
330
1E
100
AcDbEntity
  8
7
100
AcDbLine
 10
3.263779527559055
 20
4.048228346456691
 30
0.0
 11
3.285433070866141
 21
4.048228346456691
 31
0.0
  0
LINE
  5
4134
330
1E
100
AcDbEntity
  8
7
100
AcDbLine
 10
3.285433070866141
 20
4.048228346456691
 30
0.0
 11
3.293307086614173
 21
4.048228346456691
 31
0.0
  0
LINE
  5
4135
330
1E
100
AcDbEntity
  8
7
100
AcDbLine
 10
3.227362204724408
 20
3.998031496062991
 30
0.0
 11
3.231299212598424
 21
4.002952755905512
 31
0.0
  0
LINE
  5
4136
330
1E
100
AcDbEntity
  8
7
100
AcDbLine
 10
3.231299212598424
 20
4.002952755905512
 30
0.0
 11
3.232283464566928
 21
4.008858267716535
 31
0.0
  0
LINE
  5
4137
330
1E
100
AcDbEntity
  8
7
100
AcDbLine
 10
2.244094488188975
 20
4.008858267716535
 30
0.0
 11
2.24507874015748
 21
4.002952755905512
 31
0.0
  0
LINE
  5
4138
330
1E
100
AcDbEntity
  8
7
100
AcDbLine
 10
2.24507874015748
 20
4.002952755905512
 30
0.0
 11
2.249015748031495
 21
3.998031496062991
 31
0.0
  0
LINE
  5
4139
330
1E
100
AcDbEntity
  8
7
100
AcDbLine
 10
2.249015748031495
 20
4.119094488188975
 30
0.0
 11
2.215551181102361
 21
4.094488188976376
 31
0.0
  0
LINE
  5
413A
330
1E
100
AcDbEntity
  8
7
100
AcDbLine
 10
2.215551181102361
 20
4.094488188976376
 30
0.0
 11
2.190944881889762
 21
4.061023622047243
 31
0.0
  0
LINE
  5
413B
330
1E
100
AcDbEntity
  8
7
100
AcDbLine
 10
2.328740157480313
 20
4.140748031496062
 30
0.0
 11
2.287401574803148
 21
4.134842519685038
 31
0.0
  0
LINE
  5
413C
330
1E
100
AcDbEntity
  8
7
100
AcDbLine
 10
2.287401574803148
 20
4.134842519685038
 30
0.0
 11
2.249015748031495
 21
4.119094488188975
 31
0.0
  0
LINE
  5
413D
330
1E
100
AcDbEntity
  8
7
100
AcDbLine
 10
3.284448818897636
 20
4.061023622047243
 30
0.0
 11
3.259842519685038
 21
4.094488188976376
 31
0.0
  0
LINE
  5
413E
330
1E
100
AcDbEntity
  8
7
100
AcDbLine
 10
3.259842519685038
 20
4.094488188976376
 30
0.0
 11
3.226377952755904
 21
4.119094488188975
 31
0.0
  0
LINE
  5
413F
330
1E
100
AcDbEntity
  8
7
100
AcDbLine
 10
3.226377952755904
 20
4.119094488188975
 30
0.0
 11
3.187992125984251
 21
4.134842519685038
 31
0.0
  0
LINE
  5
4140
330
1E
100
AcDbEntity
  8
7
100
AcDbLine
 10
3.187992125984251
 20
4.134842519685038
 30
0.0
 11
3.146653543307086
 21
4.140748031496062
 31
0.0
  0
LINE
  5
4141
330
1E
100
AcDbEntity
  8
7
100
AcDbLine
 10
2.43307086614173
 20
6.794291338582675
 30
0.0
 11
2.427165354330707
 21
6.792322834645669
 31
0.0
  0
LINE
  5
4142
330
1E
100
AcDbEntity
  8
7
100
AcDbLine
 10
2.427165354330707
 20
6.792322834645669
 30
0.0
 11
2.4251968503937
 21
6.786417322834644
 31
0.0
  0
LINE
  5
4143
330
1E
100
AcDbEntity
  8
7
100
AcDbLine
 10
3.0501968503937
 20
6.786417322834644
 30
0.0
 11
3.048228346456691
 21
6.792322834645669
 31
0.0
  0
LINE
  5
4144
330
1E
100
AcDbEntity
  8
7
100
AcDbLine
 10
3.048228346456691
 20
6.792322834645669
 30
0.0
 11
3.042322834645667
 21
6.794291338582675
 31
0.0
  0
LINE
  5
4145
330
1E
100
AcDbEntity
  8
7
100
AcDbLine
 10
3.042322834645667
 20
6.134842519685037
 30
0.0
 11
3.044291338582675
 21
6.134842519685037
 31
0.0
  0
LINE
  5
4146
330
1E
100
AcDbEntity
  8
7
100
AcDbLine
 10
3.044291338582675
 20
6.134842519685037
 30
0.0
 11
3.046259842519683
 21
6.135826771653542
 31
0.0
  0
LINE
  5
4147
330
1E
100
AcDbEntity
  8
7
100
AcDbLine
 10
3.046259842519683
 20
6.135826771653542
 30
0.0
 11
3.048228346456691
 21
6.13779527559055
 31
0.0
  0
LINE
  5
4148
330
1E
100
AcDbEntity
  8
7
100
AcDbLine
 10
3.048228346456691
 20
6.13779527559055
 30
0.0
 11
3.0501968503937
 21
6.139763779527558
 31
0.0
  0
LINE
  5
4149
330
1E
100
AcDbEntity
  8
7
100
AcDbLine
 10
3.0501968503937
 20
6.139763779527558
 30
0.0
 11
3.0501968503937
 21
6.14271653543307
 31
0.0
  0
LINE
  5
414A
330
1E
100
AcDbEntity
  8
7
100
AcDbLine
 10
2.983267716535431
 20
6.126968503937008
 30
0.0
 11
2.98523622047244
 21
6.132874015748031
 31
0.0
  0
LINE
  5
414B
330
1E
100
AcDbEntity
  8
7
100
AcDbLine
 10
2.98523622047244
 20
6.132874015748031
 30
0.0
 11
2.991141732283463
 21
6.134842519685037
 31
0.0
  0
LINE
  5
414C
330
1E
100
AcDbEntity
  8
7
100
AcDbLine
 10
2.974409448818896
 20
6.069881889763778
 30
0.0
 11
2.977362204724408
 21
6.069881889763778
 31
0.0
  0
LINE
  5
414D
330
1E
100
AcDbEntity
  8
7
100
AcDbLine
 10
2.977362204724408
 20
6.069881889763778
 30
0.0
 11
2.98031496062992
 21
6.070866141732282
 31
0.0
  0
LINE
  5
414E
330
1E
100
AcDbEntity
  8
7
100
AcDbLine
 10
2.98031496062992
 20
6.070866141732282
 30
0.0
 11
2.981299212598424
 21
6.073818897637795
 31
0.0
  0
LINE
  5
414F
330
1E
100
AcDbEntity
  8
7
100
AcDbLine
 10
2.981299212598424
 20
6.073818897637795
 30
0.0
 11
2.982283464566928
 21
6.075787401574802
 31
0.0
  0
LINE
  5
4150
330
1E
100
AcDbEntity
  8
7
100
AcDbLine
 10
2.982283464566928
 20
6.075787401574802
 30
0.0
 11
2.983267716535431
 21
6.077755905511811
 31
0.0
  0
LINE
  5
4151
330
1E
100
AcDbEntity
  8
7
100
AcDbLine
 10
2.493110236220471
 20
6.077755905511811
 30
0.0
 11
2.493110236220471
 21
6.075787401574802
 31
0.0
  0
LINE
  5
4152
330
1E
100
AcDbEntity
  8
7
100
AcDbLine
 10
2.493110236220471
 20
6.075787401574802
 30
0.0
 11
2.494094488188975
 21
6.07283464566929
 31
0.0
  0
LINE
  5
4153
330
1E
100
AcDbEntity
  8
7
100
AcDbLine
 10
2.494094488188975
 20
6.07283464566929
 30
0.0
 11
2.496062992125983
 21
6.070866141732282
 31
0.0
  0
LINE
  5
4154
330
1E
100
AcDbEntity
  8
7
100
AcDbLine
 10
2.496062992125983
 20
6.070866141732282
 30
0.0
 11
2.498031496062991
 21
6.069881889763778
 31
0.0
  0
LINE
  5
4155
330
1E
100
AcDbEntity
  8
7
100
AcDbLine
 10
2.498031496062991
 20
6.069881889763778
 30
0.0
 11
2.500984251968502
 21
6.069881889763778
 31
0.0
  0
LINE
  5
4156
330
1E
100
AcDbEntity
  8
7
100
AcDbLine
 10
2.485236220472439
 20
6.134842519685037
 30
0.0
 11
2.490157480314959
 21
6.132874015748031
 31
0.0
  0
LINE
  5
4157
330
1E
100
AcDbEntity
  8
7
100
AcDbLine
 10
2.490157480314959
 20
6.132874015748031
 30
0.0
 11
2.493110236220471
 21
6.126968503937008
 31
0.0
  0
LINE
  5
4158
330
1E
100
AcDbEntity
  8
7
100
AcDbLine
 10
2.4251968503937
 20
6.14271653543307
 30
0.0
 11
2.426181102362204
 21
6.139763779527558
 31
0.0
  0
LINE
  5
4159
330
1E
100
AcDbEntity
  8
7
100
AcDbLine
 10
2.426181102362204
 20
6.139763779527558
 30
0.0
 11
2.427165354330707
 21
6.13779527559055
 31
0.0
  0
LINE
  5
415A
330
1E
100
AcDbEntity
  8
7
100
AcDbLine
 10
2.427165354330707
 20
6.13779527559055
 30
0.0
 11
2.429133858267715
 21
6.135826771653542
 31
0.0
  0
LINE
  5
415B
330
1E
100
AcDbEntity
  8
7
100
AcDbLine
 10
2.429133858267715
 20
6.135826771653542
 30
0.0
 11
2.431102362204724
 21
6.134842519685037
 31
0.0
  0
LINE
  5
415C
330
1E
100
AcDbEntity
  8
7
100
AcDbLine
 10
2.431102362204724
 20
6.134842519685037
 30
0.0
 11
2.43307086614173
 21
6.134842519685037
 31
0.0
  0
LINE
  5
415D
330
1E
100
AcDbEntity
  8
7
100
AcDbLine
 10
3.201771653543306
 20
5.94783464566929
 30
0.0
 11
3.189960629921258
 21
5.965551181102362
 31
0.0
  0
LINE
  5
415E
330
1E
100
AcDbEntity
  8
7
100
AcDbLine
 10
3.189960629921258
 20
5.965551181102362
 30
0.0
 11
3.177165354330707
 21
5.98523622047244
 31
0.0
  0
LINE
  5
415F
330
1E
100
AcDbEntity
  8
7
100
AcDbLine
 10
3.177165354330707
 20
5.98523622047244
 30
0.0
 11
3.163385826771653
 21
6.006889763779526
 31
0.0
  0
LINE
  5
4160
330
1E
100
AcDbEntity
  8
7
100
AcDbLine
 10
3.163385826771653
 20
6.006889763779526
 30
0.0
 11
3.142716535433069
 21
6.038385826771652
 31
0.0
  0
LINE
  5
4161
330
1E
100
AcDbEntity
  8
7
100
AcDbLine
 10
3.142716535433069
 20
6.038385826771652
 30
0.0
 11
3.133858267716535
 21
6.051181102362203
 31
0.0
  0
LINE
  5
4162
330
1E
100
AcDbEntity
  8
7
100
AcDbLine
 10
3.133858267716535
 20
6.051181102362203
 30
0.0
 11
3.129921259842518
 21
6.058070866141733
 31
0.0
  0
LINE
  5
4163
330
1E
100
AcDbEntity
  8
7
100
AcDbLine
 10
3.129921259842518
 20
6.058070866141733
 30
0.0
 11
3.128937007874014
 21
6.060039370078738
 31
0.0
  0
LINE
  5
4164
330
1E
100
AcDbEntity
  8
7
100
AcDbLine
 10
3.128937007874014
 20
6.060039370078738
 30
0.0
 11
3.127952755905511
 21
6.062007874015747
 31
0.0
  0
LINE
  5
4165
330
1E
100
AcDbEntity
  8
7
100
AcDbLine
 10
3.127952755905511
 20
6.062007874015747
 30
0.0
 11
3.126968503937006
 21
6.062007874015747
 31
0.0
  0
LINE
  5
4166
330
1E
100
AcDbEntity
  8
7
100
AcDbLine
 10
3.126968503937006
 20
6.062007874015747
 30
0.0
 11
3.126968503937006
 21
6.062992125984251
 31
0.0
  0
LINE
  5
4167
330
1E
100
AcDbEntity
  8
7
100
AcDbLine
 10
2.348425196850393
 20
6.062992125984251
 30
0.0
 11
2.348425196850393
 21
6.062007874015747
 31
0.0
  0
LINE
  5
4168
330
1E
100
AcDbEntity
  8
7
100
AcDbLine
 10
2.348425196850393
 20
6.062007874015747
 30
0.0
 11
2.347440944881889
 21
6.062007874015747
 31
0.0
  0
LINE
  5
4169
330
1E
100
AcDbEntity
  8
7
100
AcDbLine
 10
2.347440944881889
 20
6.062007874015747
 30
0.0
 11
2.347440944881889
 21
6.060039370078738
 31
0.0
  0
LINE
  5
416A
330
1E
100
AcDbEntity
  8
7
100
AcDbLine
 10
2.347440944881889
 20
6.060039370078738
 30
0.0
 11
2.345472440944881
 21
6.058070866141733
 31
0.0
  0
LINE
  5
416B
330
1E
100
AcDbEntity
  8
7
100
AcDbLine
 10
2.345472440944881
 20
6.058070866141733
 30
0.0
 11
2.341535433070865
 21
6.051181102362203
 31
0.0
  0
LINE
  5
416C
330
1E
100
AcDbEntity
  8
7
100
AcDbLine
 10
2.341535433070865
 20
6.051181102362203
 30
0.0
 11
2.33267716535433
 21
6.038385826771652
 31
0.0
  0
LINE
  5
416D
330
1E
100
AcDbEntity
  8
7
100
AcDbLine
 10
2.33267716535433
 20
6.038385826771652
 30
0.0
 11
2.312007874015746
 21
6.006889763779526
 31
0.0
  0
LINE
  5
416E
330
1E
100
AcDbEntity
  8
7
100
AcDbLine
 10
2.312007874015746
 20
6.006889763779526
 30
0.0
 11
2.298228346456691
 21
5.98523622047244
 31
0.0
  0
LINE
  5
416F
330
1E
100
AcDbEntity
  8
7
100
AcDbLine
 10
2.298228346456691
 20
5.98523622047244
 30
0.0
 11
2.285433070866141
 21
5.965551181102362
 31
0.0
  0
LINE
  5
4170
330
1E
100
AcDbEntity
  8
7
100
AcDbLine
 10
2.285433070866141
 20
5.965551181102362
 30
0.0
 11
2.273622047244094
 21
5.94783464566929
 31
0.0
  0
LINE
  5
4171
330
1E
100
AcDbEntity
  8
7
100
AcDbLine
 10
2.273622047244094
 20
5.94783464566929
 30
0.0
 11
2.263779527559055
 21
5.933070866141733
 31
0.0
  0
LINE
  5
4172
330
1E
100
AcDbEntity
  8
7
100
AcDbLine
 10
3.256889763779526
 20
5.978346456692912
 30
0.0
 11
3.242125984251968
 21
5.988188976377951
 31
0.0
  0
LINE
  5
4173
330
1E
100
AcDbEntity
  8
7
100
AcDbLine
 10
3.242125984251968
 20
5.988188976377951
 30
0.0
 11
3.224409448818896
 21
5.999015748031495
 31
0.0
  0
LINE
  5
4174
330
1E
100
AcDbEntity
  8
7
100
AcDbLine
 10
3.224409448818896
 20
5.999015748031495
 30
0.0
 11
3.204724409448818
 21
6.01279527559055
 31
0.0
  0
LINE
  5
4175
330
1E
100
AcDbEntity
  8
7
100
AcDbLine
 10
3.204724409448818
 20
6.01279527559055
 30
0.0
 11
3.183070866141731
 21
6.026574803149605
 31
0.0
  0
LINE
  5
4176
330
1E
100
AcDbEntity
  8
7
100
AcDbLine
 10
3.183070866141731
 20
6.026574803149605
 30
0.0
 11
3.151574803149606
 21
6.047244094488188
 31
0.0
  0
LINE
  5
4177
330
1E
100
AcDbEntity
  8
7
100
AcDbLine
 10
3.151574803149606
 20
6.047244094488188
 30
0.0
 11
3.137795275590549
 21
6.055118110236219
 31
0.0
  0
LINE
  5
4178
330
1E
100
AcDbEntity
  8
7
100
AcDbLine
 10
3.137795275590549
 20
6.055118110236219
 30
0.0
 11
3.131889763779526
 21
6.059055118110236
 31
0.0
  0
LINE
  5
4179
330
1E
100
AcDbEntity
  8
7
100
AcDbLine
 10
3.131889763779526
 20
6.059055118110236
 30
0.0
 11
3.128937007874014
 21
6.061023622047244
 31
0.0
  0
LINE
  5
417A
330
1E
100
AcDbEntity
  8
7
100
AcDbLine
 10
3.128937007874014
 20
6.061023622047244
 30
0.0
 11
3.127952755905511
 21
6.062007874015747
 31
0.0
  0
LINE
  5
417B
330
1E
100
AcDbEntity
  8
7
100
AcDbLine
 10
3.127952755905511
 20
6.062007874015747
 30
0.0
 11
3.127952755905511
 21
6.062992125984251
 31
0.0
  0
LINE
  5
417C
330
1E
100
AcDbEntity
  8
7
100
AcDbLine
 10
3.127952755905511
 20
6.062992125984251
 30
0.0
 11
3.126968503937006
 21
6.062992125984251
 31
0.0
  0
LINE
  5
417D
330
1E
100
AcDbEntity
  8
7
100
AcDbLine
 10
2.348425196850393
 20
6.062992125984251
 30
0.0
 11
2.347440944881889
 21
6.062007874015747
 31
0.0
  0
LINE
  5
417E
330
1E
100
AcDbEntity
  8
7
100
AcDbLine
 10
2.347440944881889
 20
6.062007874015747
 30
0.0
 11
2.346456692913384
 21
6.061023622047244
 31
0.0
  0
LINE
  5
417F
330
1E
100
AcDbEntity
  8
7
100
AcDbLine
 10
2.346456692913384
 20
6.061023622047244
 30
0.0
 11
2.343503937007873
 21
6.059055118110236
 31
0.0
  0
LINE
  5
4180
330
1E
100
AcDbEntity
  8
7
100
AcDbLine
 10
2.343503937007873
 20
6.059055118110236
 30
0.0
 11
2.33759842519685
 21
6.055118110236219
 31
0.0
  0
LINE
  5
4181
330
1E
100
AcDbEntity
  8
7
100
AcDbLine
 10
2.33759842519685
 20
6.055118110236219
 30
0.0
 11
2.323818897637794
 21
6.047244094488188
 31
0.0
  0
LINE
  5
4182
330
1E
100
AcDbEntity
  8
7
100
AcDbLine
 10
2.323818897637794
 20
6.047244094488188
 30
0.0
 11
2.292322834645668
 21
6.026574803149605
 31
0.0
  0
LINE
  5
4183
330
1E
100
AcDbEntity
  8
7
100
AcDbLine
 10
2.292322834645668
 20
6.026574803149605
 30
0.0
 11
2.270669291338581
 21
6.01279527559055
 31
0.0
  0
LINE
  5
4184
330
1E
100
AcDbEntity
  8
7
100
AcDbLine
 10
2.270669291338581
 20
6.01279527559055
 30
0.0
 11
2.250984251968502
 21
5.999015748031495
 31
0.0
  0
LINE
  5
4185
330
1E
100
AcDbEntity
  8
7
100
AcDbLine
 10
2.250984251968502
 20
5.999015748031495
 30
0.0
 11
2.233267716535431
 21
5.988188976377951
 31
0.0
  0
LINE
  5
4186
330
1E
100
AcDbEntity
  8
7
100
AcDbLine
 10
3.131889763779526
 20
6.844488188976378
 30
0.0
 11
3.128937007874014
 21
6.84251968503937
 31
0.0
  0
LINE
  5
4187
330
1E
100
AcDbEntity
  8
7
100
AcDbLine
 10
3.128937007874014
 20
6.84251968503937
 30
0.0
 11
3.127952755905511
 21
6.841535433070864
 31
0.0
  0
LINE
  5
4188
330
1E
100
AcDbEntity
  8
7
100
AcDbLine
 10
3.127952755905511
 20
6.841535433070864
 30
0.0
 11
3.126968503937006
 21
6.841535433070864
 31
0.0
  0
LINE
  5
4189
330
1E
100
AcDbEntity
  8
7
100
AcDbLine
 10
3.256889763779526
 20
6.926181102362203
 30
0.0
 11
3.242125984251968
 21
6.916338582677163
 31
0.0
  0
LINE
  5
418A
330
1E
100
AcDbEntity
  8
7
100
AcDbLine
 10
3.242125984251968
 20
6.916338582677163
 30
0.0
 11
3.224409448818896
 21
6.904527559055117
 31
0.0
  0
LINE
  5
418B
330
1E
100
AcDbEntity
  8
7
100
AcDbLine
 10
3.224409448818896
 20
6.904527559055117
 30
0.0
 11
3.204724409448818
 21
6.891732283464566
 31
0.0
  0
LINE
  5
418C
330
1E
100
AcDbEntity
  8
7
100
AcDbLine
 10
3.204724409448818
 20
6.891732283464566
 30
0.0
 11
3.183070866141731
 21
6.876968503937008
 31
0.0
  0
LINE
  5
418D
330
1E
100
AcDbEntity
  8
7
100
AcDbLine
 10
3.183070866141731
 20
6.876968503937008
 30
0.0
 11
3.151574803149606
 21
6.857283464566927
 31
0.0
  0
LINE
  5
418E
330
1E
100
AcDbEntity
  8
7
100
AcDbLine
 10
3.151574803149606
 20
6.857283464566927
 30
0.0
 11
3.137795275590549
 21
6.848425196850392
 31
0.0
  0
LINE
  5
418F
330
1E
100
AcDbEntity
  8
7
100
AcDbLine
 10
3.137795275590549
 20
6.848425196850392
 30
0.0
 11
3.131889763779526
 21
6.844488188976378
 31
0.0
  0
LINE
  5
4190
330
1E
100
AcDbEntity
  8
7
100
AcDbLine
 10
2.292322834645668
 20
6.876968503937008
 30
0.0
 11
2.270669291338581
 21
6.891732283464566
 31
0.0
  0
LINE
  5
4191
330
1E
100
AcDbEntity
  8
7
100
AcDbLine
 10
2.270669291338581
 20
6.891732283464566
 30
0.0
 11
2.250984251968502
 21
6.904527559055117
 31
0.0
  0
LINE
  5
4192
330
1E
100
AcDbEntity
  8
7
100
AcDbLine
 10
2.250984251968502
 20
6.904527559055117
 30
0.0
 11
2.233267716535431
 21
6.916338582677163
 31
0.0
  0
LINE
  5
4193
330
1E
100
AcDbEntity
  8
7
100
AcDbLine
 10
2.233267716535431
 20
6.916338582677163
 30
0.0
 11
2.218503937007873
 21
6.926181102362203
 31
0.0
  0
LINE
  5
4194
330
1E
100
AcDbEntity
  8
7
100
AcDbLine
 10
2.348425196850393
 20
6.841535433070864
 30
0.0
 11
2.347440944881889
 21
6.841535433070864
 31
0.0
  0
LINE
  5
4195
330
1E
100
AcDbEntity
  8
7
100
AcDbLine
 10
2.347440944881889
 20
6.841535433070864
 30
0.0
 11
2.346456692913384
 21
6.84251968503937
 31
0.0
  0
LINE
  5
4196
330
1E
100
AcDbEntity
  8
7
100
AcDbLine
 10
2.346456692913384
 20
6.84251968503937
 30
0.0
 11
2.343503937007873
 21
6.844488188976378
 31
0.0
  0
LINE
  5
4197
330
1E
100
AcDbEntity
  8
7
100
AcDbLine
 10
2.343503937007873
 20
6.844488188976378
 30
0.0
 11
2.33759842519685
 21
6.848425196850392
 31
0.0
  0
LINE
  5
4198
330
1E
100
AcDbEntity
  8
7
100
AcDbLine
 10
2.33759842519685
 20
6.848425196850392
 30
0.0
 11
2.323818897637794
 21
6.857283464566927
 31
0.0
  0
LINE
  5
4199
330
1E
100
AcDbEntity
  8
7
100
AcDbLine
 10
2.323818897637794
 20
6.857283464566927
 30
0.0
 11
2.292322834645668
 21
6.876968503937008
 31
0.0
  0
LINE
  5
419A
330
1E
100
AcDbEntity
  8
7
100
AcDbLine
 10
2.345472440944881
 20
6.846456692913386
 30
0.0
 11
2.341535433070865
 21
6.852362204724409
 31
0.0
  0
LINE
  5
419B
330
1E
100
AcDbEntity
  8
7
100
AcDbLine
 10
2.341535433070865
 20
6.852362204724409
 30
0.0
 11
2.33267716535433
 21
6.866141732283463
 31
0.0
  0
LINE
  5
419C
330
1E
100
AcDbEntity
  8
7
100
AcDbLine
 10
2.33267716535433
 20
6.866141732283463
 30
0.0
 11
2.312007874015746
 21
6.896653543307086
 31
0.0
  0
LINE
  5
419D
330
1E
100
AcDbEntity
  8
7
100
AcDbLine
 10
2.312007874015746
 20
6.896653543307086
 30
0.0
 11
2.298228346456691
 21
6.919291338582675
 31
0.0
  0
LINE
  5
419E
330
1E
100
AcDbEntity
  8
7
100
AcDbLine
 10
2.298228346456691
 20
6.919291338582675
 30
0.0
 11
2.285433070866141
 21
6.938976377952754
 31
0.0
  0
LINE
  5
419F
330
1E
100
AcDbEntity
  8
7
100
AcDbLine
 10
2.285433070866141
 20
6.938976377952754
 30
0.0
 11
2.273622047244094
 21
6.956692913385825
 31
0.0
  0
LINE
  5
41A0
330
1E
100
AcDbEntity
  8
7
100
AcDbLine
 10
2.273622047244094
 20
6.956692913385825
 30
0.0
 11
2.263779527559055
 21
6.971456692913386
 31
0.0
  0
LINE
  5
41A1
330
1E
100
AcDbEntity
  8
7
100
AcDbLine
 10
2.348425196850393
 20
6.841535433070864
 30
0.0
 11
2.347440944881889
 21
6.84251968503937
 31
0.0
  0
LINE
  5
41A2
330
1E
100
AcDbEntity
  8
7
100
AcDbLine
 10
2.347440944881889
 20
6.84251968503937
 30
0.0
 11
2.347440944881889
 21
6.843503937007874
 31
0.0
  0
LINE
  5
41A3
330
1E
100
AcDbEntity
  8
7
100
AcDbLine
 10
2.347440944881889
 20
6.843503937007874
 30
0.0
 11
2.345472440944881
 21
6.846456692913386
 31
0.0
  0
LINE
  5
41A4
330
1E
100
AcDbEntity
  8
7
100
AcDbLine
 10
3.211614173228346
 20
6.971456692913386
 30
0.0
 11
3.201771653543306
 21
6.956692913385825
 31
0.0
  0
LINE
  5
41A5
330
1E
100
AcDbEntity
  8
7
100
AcDbLine
 10
3.201771653543306
 20
6.956692913385825
 30
0.0
 11
3.189960629921258
 21
6.938976377952754
 31
0.0
  0
LINE
  5
41A6
330
1E
100
AcDbEntity
  8
7
100
AcDbLine
 10
3.189960629921258
 20
6.938976377952754
 30
0.0
 11
3.177165354330707
 21
6.919291338582675
 31
0.0
  0
LINE
  5
41A7
330
1E
100
AcDbEntity
  8
7
100
AcDbLine
 10
3.177165354330707
 20
6.919291338582675
 30
0.0
 11
3.163385826771653
 21
6.896653543307086
 31
0.0
  0
LINE
  5
41A8
330
1E
100
AcDbEntity
  8
7
100
AcDbLine
 10
3.163385826771653
 20
6.896653543307086
 30
0.0
 11
3.142716535433069
 21
6.866141732283463
 31
0.0
  0
LINE
  5
41A9
330
1E
100
AcDbEntity
  8
7
100
AcDbLine
 10
3.142716535433069
 20
6.866141732283463
 30
0.0
 11
3.133858267716535
 21
6.852362204724409
 31
0.0
  0
LINE
  5
41AA
330
1E
100
AcDbEntity
  8
7
100
AcDbLine
 10
3.133858267716535
 20
6.852362204724409
 30
0.0
 11
3.129921259842518
 21
6.846456692913386
 31
0.0
  0
LINE
  5
41AB
330
1E
100
AcDbEntity
  8
7
100
AcDbLine
 10
3.129921259842518
 20
6.846456692913386
 30
0.0
 11
3.128937007874014
 21
6.843503937007874
 31
0.0
  0
LINE
  5
41AC
330
1E
100
AcDbEntity
  8
7
100
AcDbLine
 10
3.128937007874014
 20
6.843503937007874
 30
0.0
 11
3.127952755905511
 21
6.84251968503937
 31
0.0
  0
LINE
  5
41AD
330
1E
100
AcDbEntity
  8
7
100
AcDbLine
 10
3.127952755905511
 20
6.84251968503937
 30
0.0
 11
3.126968503937006
 21
6.841535433070864
 31
0.0
  0
LINE
  5
41AE
330
1E
100
AcDbEntity
  8
7
100
AcDbLine
 10
3.211614173228346
 20
6.971456692913386
 30
0.0
 11
3.231299212598424
 21
6.961614173228346
 31
0.0
  0
LINE
  5
41AF
330
1E
100
AcDbEntity
  8
7
100
AcDbLine
 10
3.231299212598424
 20
6.961614173228346
 30
0.0
 11
3.247047244094486
 21
6.944881889763778
 31
0.0
  0
LINE
  5
41B0
330
1E
100
AcDbEntity
  8
7
100
AcDbLine
 10
3.247047244094486
 20
6.944881889763778
 30
0.0
 11
3.256889763779526
 21
6.926181102362203
 31
0.0
  0
LINE
  5
41B1
330
1E
100
AcDbEntity
  8
7
100
AcDbLine
 10
2.218503937007873
 20
6.926181102362203
 30
0.0
 11
2.228346456692912
 21
6.944881889763778
 31
0.0
  0
LINE
  5
41B2
330
1E
100
AcDbEntity
  8
7
100
AcDbLine
 10
2.228346456692912
 20
6.944881889763778
 30
0.0
 11
2.244094488188975
 21
6.961614173228346
 31
0.0
  0
LINE
  5
41B3
330
1E
100
AcDbEntity
  8
7
100
AcDbLine
 10
2.244094488188975
 20
6.961614173228346
 30
0.0
 11
2.263779527559055
 21
6.971456692913386
 31
0.0
  0
LINE
  5
41B4
330
1E
100
AcDbEntity
  8
7
100
AcDbLine
 10
2.263779527559055
 20
5.933070866141733
 30
0.0
 11
2.244094488188975
 21
5.942913385826771
 31
0.0
  0
LINE
  5
41B5
330
1E
100
AcDbEntity
  8
7
100
AcDbLine
 10
2.244094488188975
 20
5.942913385826771
 30
0.0
 11
2.228346456692912
 21
5.958661417322833
 31
0.0
  0
LINE
  5
41B6
330
1E
100
AcDbEntity
  8
7
100
AcDbLine
 10
2.228346456692912
 20
5.958661417322833
 30
0.0
 11
2.218503937007873
 21
5.978346456692912
 31
0.0
  0
LINE
  5
41B7
330
1E
100
AcDbEntity
  8
7
100
AcDbLine
 10
3.256889763779526
 20
5.978346456692912
 30
0.0
 11
3.247047244094486
 21
5.958661417322833
 31
0.0
  0
LINE
  5
41B8
330
1E
100
AcDbEntity
  8
7
100
AcDbLine
 10
3.247047244094486
 20
5.958661417322833
 30
0.0
 11
3.231299212598424
 21
5.942913385826771
 31
0.0
  0
LINE
  5
41B9
330
1E
100
AcDbEntity
  8
7
100
AcDbLine
 10
3.231299212598424
 20
5.942913385826771
 30
0.0
 11
3.211614173228346
 21
5.933070866141733
 31
0.0
  0
LINE
  5
41BA
330
1E
100
AcDbEntity
  8
7
100
AcDbLine
 10
2.634842519685038
 20
6.143700787401573
 30
0.0
 11
2.634842519685038
 21
6.126968503937008
 31
0.0
  0
LINE
  5
41BB
330
1E
100
AcDbEntity
  8
7
100
AcDbLine
 10
2.634842519685038
 20
6.126968503937008
 30
0.0
 11
2.635826771653543
 21
6.107283464566927
 31
0.0
  0
LINE
  5
41BC
330
1E
100
AcDbEntity
  8
7
100
AcDbLine
 10
2.635826771653543
 20
6.096456692913386
 30
0.0
 11
2.634842519685038
 21
6.086614173228346
 31
0.0
  0
LINE
  5
41BD
330
1E
100
AcDbEntity
  8
7
100
AcDbLine
 10
2.634842519685038
 20
6.086614173228346
 30
0.0
 11
2.634842519685038
 21
6.081692913385825
 31
0.0
  0
LINE
  5
41BE
330
1E
100
AcDbEntity
  8
7
100
AcDbLine
 10
2.975393700787401
 20
6.067913385826771
 30
0.0
 11
2.974409448818896
 21
6.069881889763778
 31
0.0
  0
LINE
  5
41BF
330
1E
100
AcDbEntity
  8
7
100
AcDbLine
 10
2.974409448818896
 20
6.069881889763778
 30
0.0
 11
2.865157480314959
 21
6.069881889763778
 31
0.0
  0
LINE
  5
41C0
330
1E
100
AcDbEntity
  8
7
100
AcDbLine
 10
2.840551181102361
 20
6.178149606299212
 30
0.0
 11
2.840551181102361
 21
6.148622047244093
 31
0.0
  0
LINE
  5
41C1
330
1E
100
AcDbEntity
  8
7
100
AcDbLine
 10
2.840551181102361
 20
6.148622047244093
 30
0.0
 11
2.840551181102361
 21
6.143700787401573
 31
0.0
  0
LINE
  5
41C2
330
1E
100
AcDbEntity
  8
7
100
AcDbLine
 10
2.840551181102361
 20
6.143700787401573
 30
0.0
 11
2.840551181102361
 21
6.126968503937008
 31
0.0
  0
LINE
  5
41C3
330
1E
100
AcDbEntity
  8
7
100
AcDbLine
 10
2.840551181102361
 20
6.126968503937008
 30
0.0
 11
2.840551181102361
 21
6.107283464566927
 31
0.0
  0
LINE
  5
41C4
330
1E
100
AcDbEntity
  8
7
100
AcDbLine
 10
2.840551181102361
 20
6.107283464566927
 30
0.0
 11
2.840551181102361
 21
6.096456692913386
 31
0.0
  0
LINE
  5
41C5
330
1E
100
AcDbEntity
  8
7
100
AcDbLine
 10
2.840551181102361
 20
6.096456692913386
 30
0.0
 11
2.840551181102361
 21
6.086614173228346
 31
0.0
  0
LINE
  5
41C6
330
1E
100
AcDbEntity
  8
7
100
AcDbLine
 10
2.840551181102361
 20
6.086614173228346
 30
0.0
 11
2.840551181102361
 21
6.081692913385825
 31
0.0
  0
LINE
  5
41C7
330
1E
100
AcDbEntity
  8
7
100
AcDbLine
 10
2.983267716535431
 20
6.125984251968502
 30
0.0
 11
2.983267716535431
 21
6.126968503937008
 31
0.0
  0
LINE
  5
41C8
330
1E
100
AcDbEntity
  8
7
100
AcDbLine
 10
2.983267716535431
 20
6.126968503937008
 30
0.0
 11
2.983267716535431
 21
6.077755905511811
 31
0.0
  0
LINE
  5
41C9
330
1E
100
AcDbEntity
  8
7
100
AcDbLine
 10
2.825787401574801
 20
6.794291338582675
 30
0.0
 11
3.042322834645667
 21
6.794291338582675
 31
0.0
  0
LINE
  5
41CA
330
1E
100
AcDbEntity
  8
7
100
AcDbLine
 10
3.042322834645667
 20
6.794291338582675
 30
0.0
 11
3.043307086614173
 21
6.795275590551182
 31
0.0
  0
LINE
  5
41CB
330
1E
100
AcDbEntity
  8
7
100
AcDbLine
 10
2.484251968503936
 20
6.133858267716535
 30
0.0
 11
2.485236220472439
 21
6.134842519685037
 31
0.0
  0
LINE
  5
41CC
330
1E
100
AcDbEntity
  8
7
100
AcDbLine
 10
2.485236220472439
 20
6.134842519685037
 30
0.0
 11
2.43307086614173
 21
6.134842519685037
 31
0.0
  0
LINE
  5
41CD
330
1E
100
AcDbEntity
  8
7
100
AcDbLine
 10
2.424212598425195
 20
6.141732283464566
 30
0.0
 11
2.4251968503937
 21
6.14271653543307
 31
0.0
  0
LINE
  5
41CE
330
1E
100
AcDbEntity
  8
7
100
AcDbLine
 10
2.4251968503937
 20
6.14271653543307
 30
0.0
 11
2.4251968503937
 21
6.786417322834644
 31
0.0
  0
LINE
  5
41CF
330
1E
100
AcDbEntity
  8
7
100
AcDbLine
 10
2.983267716535431
 20
6.075787401574802
 30
0.0
 11
2.981299212598424
 21
6.070866141732282
 31
0.0
  0
LINE
  5
41D0
330
1E
100
AcDbEntity
  8
7
100
AcDbLine
 10
2.981299212598424
 20
6.070866141732282
 30
0.0
 11
2.975393700787401
 21
6.067913385826771
 31
0.0
  0
LINE
  5
41D1
330
1E
100
AcDbEntity
  8
7
100
AcDbLine
 10
2.975393700787401
 20
6.067913385826771
 30
0.0
 11
2.5
 21
6.067913385826771
 31
0.0
  0
LINE
  5
41D2
330
1E
100
AcDbEntity
  8
7
100
AcDbLine
 10
2.5
 20
6.067913385826771
 30
0.0
 11
2.494094488188975
 21
6.070866141732282
 31
0.0
  0
LINE
  5
41D3
330
1E
100
AcDbEntity
  8
7
100
AcDbLine
 10
2.494094488188975
 20
6.070866141732282
 30
0.0
 11
2.492125984251968
 21
6.075787401574802
 31
0.0
  0
LINE
  5
41D4
330
1E
100
AcDbEntity
  8
7
100
AcDbLine
 10
2.992125984251968
 20
6.133858267716535
 30
0.0
 11
2.986220472440943
 21
6.131889763779526
 31
0.0
  0
LINE
  5
41D5
330
1E
100
AcDbEntity
  8
7
100
AcDbLine
 10
2.986220472440943
 20
6.131889763779526
 30
0.0
 11
2.983267716535431
 21
6.125984251968502
 31
0.0
  0
LINE
  5
41D6
330
1E
100
AcDbEntity
  8
7
100
AcDbLine
 10
2.424212598425195
 20
6.787401574803148
 30
0.0
 11
2.427165354330707
 21
6.793307086614172
 31
0.0
  0
LINE
  5
41D7
330
1E
100
AcDbEntity
  8
7
100
AcDbLine
 10
2.427165354330707
 20
6.793307086614172
 30
0.0
 11
2.432086614173228
 21
6.795275590551182
 31
0.0
  0
LINE
  5
41D8
330
1E
100
AcDbEntity
  8
7
100
AcDbLine
 10
2.432086614173228
 20
6.795275590551182
 30
0.0
 11
3.043307086614173
 21
6.795275590551182
 31
0.0
  0
LINE
  5
41D9
330
1E
100
AcDbEntity
  8
7
100
AcDbLine
 10
3.043307086614173
 20
6.795275590551182
 30
0.0
 11
3.049212598425196
 21
6.793307086614172
 31
0.0
  0
LINE
  5
41DA
330
1E
100
AcDbEntity
  8
7
100
AcDbLine
 10
3.049212598425196
 20
6.793307086614172
 30
0.0
 11
3.051181102362203
 21
6.787401574803148
 31
0.0
  0
LINE
  5
41DB
330
1E
100
AcDbEntity
  8
7
100
AcDbLine
 10
3.051181102362203
 20
6.787401574803148
 30
0.0
 11
3.051181102362203
 21
6.141732283464566
 31
0.0
  0
LINE
  5
41DC
330
1E
100
AcDbEntity
  8
7
100
AcDbLine
 10
3.051181102362203
 20
6.141732283464566
 30
0.0
 11
3.049212598425196
 21
6.135826771653542
 31
0.0
  0
LINE
  5
41DD
330
1E
100
AcDbEntity
  8
7
100
AcDbLine
 10
3.049212598425196
 20
6.135826771653542
 30
0.0
 11
3.043307086614173
 21
6.133858267716535
 31
0.0
  0
LINE
  5
41DE
330
1E
100
AcDbEntity
  8
7
100
AcDbLine
 10
2.492125984251968
 20
6.075787401574802
 30
0.0
 11
2.492125984251968
 21
6.125984251968502
 31
0.0
  0
LINE
  5
41DF
330
1E
100
AcDbEntity
  8
7
100
AcDbLine
 10
2.492125984251968
 20
6.125984251968502
 30
0.0
 11
2.489173228346456
 21
6.131889763779526
 31
0.0
  0
LINE
  5
41E0
330
1E
100
AcDbEntity
  8
7
100
AcDbLine
 10
2.489173228346456
 20
6.131889763779526
 30
0.0
 11
2.484251968503936
 21
6.133858267716535
 31
0.0
  0
LINE
  5
41E1
330
1E
100
AcDbEntity
  8
7
100
AcDbLine
 10
2.484251968503936
 20
6.133858267716535
 30
0.0
 11
2.432086614173228
 21
6.133858267716535
 31
0.0
  0
LINE
  5
41E2
330
1E
100
AcDbEntity
  8
7
100
AcDbLine
 10
2.432086614173228
 20
6.133858267716535
 30
0.0
 11
2.427165354330707
 21
6.135826771653542
 31
0.0
  0
LINE
  5
41E3
330
1E
100
AcDbEntity
  8
7
100
AcDbLine
 10
3.141732283464566
 20
6.256889763779526
 30
0.0
 11
3.146653543307086
 21
6.451771653543307
 31
0.0
  0
LINE
  5
41E4
330
1E
100
AcDbEntity
  8
7
100
AcDbLine
 10
3.146653543307086
 20
6.451771653543307
 30
0.0
 11
3.141732283464566
 21
6.646653543307086
 31
0.0
  0
LINE
  5
41E5
330
1E
100
AcDbEntity
  8
7
100
AcDbLine
 10
3.141732283464566
 20
6.646653543307086
 30
0.0
 11
3.126968503937006
 21
6.841535433070864
 31
0.0
  0
LINE
  5
41E6
330
1E
100
AcDbEntity
  8
7
100
AcDbLine
 10
3.126968503937006
 20
6.841535433070864
 30
0.0
 11
2.933070866141731
 21
6.856299212598425
 31
0.0
  0
LINE
  5
41E7
330
1E
100
AcDbEntity
  8
7
100
AcDbLine
 10
2.933070866141731
 20
6.856299212598425
 30
0.0
 11
2.738188976377951
 21
6.861220472440943
 31
0.0
  0
LINE
  5
41E8
330
1E
100
AcDbEntity
  8
7
100
AcDbLine
 10
2.738188976377951
 20
6.861220472440943
 30
0.0
 11
2.543307086614173
 21
6.856299212598425
 31
0.0
  0
LINE
  5
41E9
330
1E
100
AcDbEntity
  8
7
100
AcDbLine
 10
2.543307086614173
 20
6.856299212598425
 30
0.0
 11
2.348425196850393
 21
6.841535433070864
 31
0.0
  0
LINE
  5
41EA
330
1E
100
AcDbEntity
  8
7
100
AcDbLine
 10
2.348425196850393
 20
6.841535433070864
 30
0.0
 11
2.333661417322833
 21
6.646653543307086
 31
0.0
  0
LINE
  5
41EB
330
1E
100
AcDbEntity
  8
7
100
AcDbLine
 10
2.333661417322833
 20
6.646653543307086
 30
0.0
 11
2.328740157480313
 21
6.451771653543307
 31
0.0
  0
LINE
  5
41EC
330
1E
100
AcDbEntity
  8
7
100
AcDbLine
 10
2.328740157480313
 20
6.451771653543307
 30
0.0
 11
2.333661417322833
 21
6.256889763779526
 31
0.0
  0
LINE
  5
41ED
330
1E
100
AcDbEntity
  8
7
100
AcDbLine
 10
2.333661417322833
 20
6.256889763779526
 30
0.0
 11
2.348425196850393
 21
6.062992125984251
 31
0.0
  0
LINE
  5
41EE
330
1E
100
AcDbEntity
  8
7
100
AcDbLine
 10
2.348425196850393
 20
6.062992125984251
 30
0.0
 11
2.543307086614173
 21
6.048228346456692
 31
0.0
  0
LINE
  5
41EF
330
1E
100
AcDbEntity
  8
7
100
AcDbLine
 10
2.543307086614173
 20
6.048228346456692
 30
0.0
 11
2.738188976377951
 21
6.043307086614172
 31
0.0
  0
LINE
  5
41F0
330
1E
100
AcDbEntity
  8
7
100
AcDbLine
 10
2.738188976377951
 20
6.043307086614172
 30
0.0
 11
2.933070866141731
 21
6.048228346456692
 31
0.0
  0
LINE
  5
41F1
330
1E
100
AcDbEntity
  8
7
100
AcDbLine
 10
2.933070866141731
 20
6.048228346456692
 30
0.0
 11
3.126968503937006
 21
6.062992125984251
 31
0.0
  0
LINE
  5
41F2
330
1E
100
AcDbEntity
  8
7
100
AcDbLine
 10
3.126968503937006
 20
6.062992125984251
 30
0.0
 11
3.141732283464566
 21
6.256889763779526
 31
0.0
  0
LINE
  5
41F3
330
1E
100
AcDbEntity
  8
7
100
AcDbLine
 10
2.200787401574801
 20
6.737204724409449
 30
0.0
 11
2.218503937007873
 21
6.926181102362203
 31
0.0
  0
LINE
  5
41F4
330
1E
100
AcDbEntity
  8
7
100
AcDbLine
 10
2.218503937007873
 20
6.926181102362203
 30
0.0
 11
2.211614173228345
 21
6.933070866141733
 31
0.0
  0
LINE
  5
41F5
330
1E
100
AcDbEntity
  8
7
100
AcDbLine
 10
2.211614173228345
 20
5.971456692913386
 30
0.0
 11
2.218503937007873
 21
5.978346456692912
 31
0.0
  0
LINE
  5
41F6
330
1E
100
AcDbEntity
  8
7
100
AcDbLine
 10
2.218503937007873
 20
5.978346456692912
 30
0.0
 11
2.200787401574801
 21
6.167322834645669
 31
0.0
  0
LINE
  5
41F7
330
1E
100
AcDbEntity
  8
7
100
AcDbLine
 10
2.200787401574801
 20
6.167322834645669
 30
0.0
 11
2.191929133858266
 21
6.357283464566927
 31
0.0
  0
LINE
  5
41F8
330
1E
100
AcDbEntity
  8
7
100
AcDbLine
 10
2.191929133858266
 20
6.357283464566927
 30
0.0
 11
2.191929133858266
 21
6.547244094488188
 31
0.0
  0
LINE
  5
41F9
330
1E
100
AcDbEntity
  8
7
100
AcDbLine
 10
2.191929133858266
 20
6.547244094488188
 30
0.0
 11
2.200787401574801
 21
6.737204724409449
 31
0.0
  0
LINE
  5
41FA
330
1E
100
AcDbEntity
  8
7
100
AcDbLine
 10
2.256889763779526
 20
6.978346456692912
 30
0.0
 11
2.263779527559055
 21
6.971456692913386
 31
0.0
  0
LINE
  5
41FB
330
1E
100
AcDbEntity
  8
7
100
AcDbLine
 10
2.263779527559055
 20
6.971456692913386
 30
0.0
 11
2.45275590551181
 21
6.989173228346456
 31
0.0
  0
LINE
  5
41FC
330
1E
100
AcDbEntity
  8
7
100
AcDbLine
 10
2.45275590551181
 20
6.989173228346456
 30
0.0
 11
2.642716535433069
 21
6.998031496062991
 31
0.0
  0
LINE
  5
41FD
330
1E
100
AcDbEntity
  8
7
100
AcDbLine
 10
2.642716535433069
 20
6.998031496062991
 30
0.0
 11
2.83267716535433
 21
6.998031496062991
 31
0.0
  0
LINE
  5
41FE
330
1E
100
AcDbEntity
  8
7
100
AcDbLine
 10
2.83267716535433
 20
6.998031496062991
 30
0.0
 11
3.022637795275589
 21
6.989173228346456
 31
0.0
  0
LINE
  5
41FF
330
1E
100
AcDbEntity
  8
7
100
AcDbLine
 10
3.022637795275589
 20
6.989173228346456
 30
0.0
 11
3.211614173228346
 21
6.971456692913386
 31
0.0
  0
LINE
  5
4200
330
1E
100
AcDbEntity
  8
7
100
AcDbLine
 10
3.211614173228346
 20
6.971456692913386
 30
0.0
 11
3.218503937007873
 21
6.978346456692912
 31
0.0
  0
LINE
  5
4201
330
1E
100
AcDbEntity
  8
7
100
AcDbLine
 10
3.263779527559055
 20
6.933070866141733
 30
0.0
 11
3.256889763779526
 21
6.926181102362203
 31
0.0
  0
LINE
  5
4202
330
1E
100
AcDbEntity
  8
7
100
AcDbLine
 10
3.256889763779526
 20
6.926181102362203
 30
0.0
 11
3.275590551181101
 21
6.737204724409449
 31
0.0
  0
LINE
  5
4203
330
1E
100
AcDbEntity
  8
7
100
AcDbLine
 10
3.275590551181101
 20
6.737204724409449
 30
0.0
 11
3.284448818897636
 21
6.547244094488188
 31
0.0
  0
LINE
  5
4204
330
1E
100
AcDbEntity
  8
7
100
AcDbLine
 10
3.284448818897636
 20
6.547244094488188
 30
0.0
 11
3.284448818897636
 21
6.357283464566927
 31
0.0
  0
LINE
  5
4205
330
1E
100
AcDbEntity
  8
7
100
AcDbLine
 10
3.284448818897636
 20
6.357283464566927
 30
0.0
 11
3.275590551181101
 21
6.167322834645669
 31
0.0
  0
LINE
  5
4206
330
1E
100
AcDbEntity
  8
7
100
AcDbLine
 10
3.275590551181101
 20
6.167322834645669
 30
0.0
 11
3.256889763779526
 21
5.978346456692912
 31
0.0
  0
LINE
  5
4207
330
1E
100
AcDbEntity
  8
7
100
AcDbLine
 10
3.256889763779526
 20
5.978346456692912
 30
0.0
 11
3.263779527559055
 21
5.971456692913386
 31
0.0
  0
LINE
  5
4208
330
1E
100
AcDbEntity
  8
7
100
AcDbLine
 10
2.45275590551181
 20
5.914370078740156
 30
0.0
 11
2.263779527559055
 21
5.933070866141733
 31
0.0
  0
LINE
  5
4209
330
1E
100
AcDbEntity
  8
7
100
AcDbLine
 10
2.263779527559055
 20
5.933070866141733
 30
0.0
 11
2.256889763779526
 21
5.926181102362203
 31
0.0
  0
LINE
  5
420A
330
1E
100
AcDbEntity
  8
7
100
AcDbLine
 10
3.218503937007873
 20
5.926181102362203
 30
0.0
 11
3.211614173228346
 21
5.933070866141733
 31
0.0
  0
LINE
  5
420B
330
1E
100
AcDbEntity
  8
7
100
AcDbLine
 10
3.211614173228346
 20
5.933070866141733
 30
0.0
 11
3.022637795275589
 21
5.914370078740156
 31
0.0
  0
LINE
  5
420C
330
1E
100
AcDbEntity
  8
7
100
AcDbLine
 10
3.022637795275589
 20
5.914370078740156
 30
0.0
 11
2.83267716535433
 21
5.905511811023621
 31
0.0
  0
LINE
  5
420D
330
1E
100
AcDbEntity
  8
7
100
AcDbLine
 10
2.83267716535433
 20
5.905511811023621
 30
0.0
 11
2.642716535433069
 21
5.905511811023621
 31
0.0
  0
LINE
  5
420E
330
1E
100
AcDbEntity
  8
7
100
AcDbLine
 10
2.642716535433069
 20
5.905511811023621
 30
0.0
 11
2.45275590551181
 21
5.914370078740156
 31
0.0
  0
LINE
  5
420F
330
1E
100
AcDbEntity
  8
7
100
AcDbLine
 10
3.218503937007873
 20
6.978346456692912
 30
0.0
 11
3.23523622047244
 21
6.973425196850392
 31
0.0
  0
LINE
  5
4210
330
1E
100
AcDbEntity
  8
7
100
AcDbLine
 10
3.23523622047244
 20
6.973425196850392
 30
0.0
 11
3.25
 21
6.962598425196849
 31
0.0
  0
LINE
  5
4211
330
1E
100
AcDbEntity
  8
7
100
AcDbLine
 10
3.25
 20
6.962598425196849
 30
0.0
 11
3.258858267716535
 21
6.948818897637795
 31
0.0
  0
LINE
  5
4212
330
1E
100
AcDbEntity
  8
7
100
AcDbLine
 10
3.218503937007873
 20
6.978346456692912
 30
0.0
 11
3.026574803149606
 21
6.997047244094487
 31
0.0
  0
LINE
  5
4213
330
1E
100
AcDbEntity
  8
7
100
AcDbLine
 10
3.026574803149606
 20
6.997047244094487
 30
0.0
 11
2.834645669291337
 21
7.005905511811023
 31
0.0
  0
LINE
  5
4214
330
1E
100
AcDbEntity
  8
7
100
AcDbLine
 10
2.834645669291337
 20
7.005905511811023
 30
0.0
 11
2.641732283464565
 21
7.005905511811023
 31
0.0
  0
LINE
  5
4215
330
1E
100
AcDbEntity
  8
7
100
AcDbLine
 10
2.641732283464565
 20
7.005905511811023
 30
0.0
 11
2.448818897637794
 21
6.997047244094487
 31
0.0
  0
LINE
  5
4216
330
1E
100
AcDbEntity
  8
7
100
AcDbLine
 10
2.448818897637794
 20
6.997047244094487
 30
0.0
 11
2.256889763779526
 21
6.978346456692912
 31
0.0
  0
LINE
  5
4217
330
1E
100
AcDbEntity
  8
7
100
AcDbLine
 10
2.216535433070865
 20
6.949803149606299
 30
0.0
 11
2.227362204724409
 21
6.964566929133857
 31
0.0
  0
LINE
  5
4218
330
1E
100
AcDbEntity
  8
7
100
AcDbLine
 10
2.227362204724409
 20
6.964566929133857
 30
0.0
 11
2.241141732283463
 21
6.973425196850392
 31
0.0
  0
LINE
  5
4219
330
1E
100
AcDbEntity
  8
7
100
AcDbLine
 10
2.241141732283463
 20
6.973425196850392
 30
0.0
 11
2.256889763779526
 21
6.978346456692912
 31
0.0
  0
LINE
  5
421A
330
1E
100
AcDbEntity
  8
7
100
AcDbLine
 10
2.211614173228345
 20
6.933070866141733
 30
0.0
 11
2.19291338582677
 21
6.741141732283463
 31
0.0
  0
LINE
  5
421B
330
1E
100
AcDbEntity
  8
7
100
AcDbLine
 10
2.19291338582677
 20
6.741141732283463
 30
0.0
 11
2.184055118110236
 21
6.548228346456692
 31
0.0
  0
LINE
  5
421C
330
1E
100
AcDbEntity
  8
7
100
AcDbLine
 10
2.184055118110236
 20
6.548228346456692
 30
0.0
 11
2.184055118110236
 21
6.355314960629921
 31
0.0
  0
LINE
  5
421D
330
1E
100
AcDbEntity
  8
7
100
AcDbLine
 10
2.184055118110236
 20
6.355314960629921
 30
0.0
 11
2.19291338582677
 21
6.163385826771652
 31
0.0
  0
LINE
  5
421E
330
1E
100
AcDbEntity
  8
7
100
AcDbLine
 10
2.19291338582677
 20
6.163385826771652
 30
0.0
 11
2.211614173228345
 21
5.971456692913386
 31
0.0
  0
LINE
  5
421F
330
1E
100
AcDbEntity
  8
7
100
AcDbLine
 10
2.256889763779526
 20
5.926181102362203
 30
0.0
 11
2.240157480314959
 21
5.931102362204723
 31
0.0
  0
LINE
  5
4220
330
1E
100
AcDbEntity
  8
7
100
AcDbLine
 10
2.240157480314959
 20
5.931102362204723
 30
0.0
 11
2.2253937007874
 21
5.940944881889762
 31
0.0
  0
LINE
  5
4221
330
1E
100
AcDbEntity
  8
7
100
AcDbLine
 10
2.2253937007874
 20
5.940944881889762
 30
0.0
 11
2.216535433070865
 21
5.954724409448817
 31
0.0
  0
LINE
  5
4222
330
1E
100
AcDbEntity
  8
7
100
AcDbLine
 10
2.216535433070865
 20
5.954724409448817
 30
0.0
 11
2.211614173228345
 21
5.971456692913386
 31
0.0
  0
LINE
  5
4223
330
1E
100
AcDbEntity
  8
7
100
AcDbLine
 10
2.256889763779526
 20
5.926181102362203
 30
0.0
 11
2.448818897637794
 21
5.907480314960628
 31
0.0
  0
LINE
  5
4224
330
1E
100
AcDbEntity
  8
7
100
AcDbLine
 10
2.448818897637794
 20
5.907480314960628
 30
0.0
 11
2.641732283464565
 21
5.898622047244093
 31
0.0
  0
LINE
  5
4225
330
1E
100
AcDbEntity
  8
7
100
AcDbLine
 10
2.641732283464565
 20
5.898622047244093
 30
0.0
 11
2.834645669291337
 21
5.898622047244093
 31
0.0
  0
LINE
  5
4226
330
1E
100
AcDbEntity
  8
7
100
AcDbLine
 10
2.834645669291337
 20
5.898622047244093
 30
0.0
 11
3.026574803149606
 21
5.907480314960628
 31
0.0
  0
LINE
  5
4227
330
1E
100
AcDbEntity
  8
7
100
AcDbLine
 10
3.026574803149606
 20
5.907480314960628
 30
0.0
 11
3.218503937007873
 21
5.926181102362203
 31
0.0
  0
LINE
  5
4228
330
1E
100
AcDbEntity
  8
7
100
AcDbLine
 10
3.263779527559055
 20
5.971456692913386
 30
0.0
 11
3.258858267716535
 21
5.954724409448817
 31
0.0
  0
LINE
  5
4229
330
1E
100
AcDbEntity
  8
7
100
AcDbLine
 10
3.258858267716535
 20
5.954724409448817
 30
0.0
 11
3.249015748031495
 21
5.93996062992126
 31
0.0
  0
LINE
  5
422A
330
1E
100
AcDbEntity
  8
7
100
AcDbLine
 10
3.249015748031495
 20
5.93996062992126
 30
0.0
 11
3.23523622047244
 21
5.930118110236219
 31
0.0
  0
LINE
  5
422B
330
1E
100
AcDbEntity
  8
7
100
AcDbLine
 10
3.23523622047244
 20
5.930118110236219
 30
0.0
 11
3.218503937007873
 21
5.926181102362203
 31
0.0
  0
LINE
  5
422C
330
1E
100
AcDbEntity
  8
7
100
AcDbLine
 10
3.263779527559055
 20
5.971456692913386
 30
0.0
 11
3.282480314960628
 21
6.163385826771652
 31
0.0
  0
LINE
  5
422D
330
1E
100
AcDbEntity
  8
7
100
AcDbLine
 10
3.282480314960628
 20
6.163385826771652
 30
0.0
 11
3.291338582677165
 21
6.355314960629921
 31
0.0
  0
LINE
  5
422E
330
1E
100
AcDbEntity
  8
7
100
AcDbLine
 10
3.291338582677165
 20
6.355314960629921
 30
0.0
 11
3.291338582677165
 21
6.548228346456692
 31
0.0
  0
LINE
  5
422F
330
1E
100
AcDbEntity
  8
7
100
AcDbLine
 10
3.291338582677165
 20
6.548228346456692
 30
0.0
 11
3.282480314960628
 21
6.741141732283463
 31
0.0
  0
ENDSEC
  0
SECTION
  2
OBJECTS
  0
DICTIONARY
  5
C
330
0
100
AcDbDictionary
  3
ACAD_GROUP
350
D
  3
ACAD_LAYOUT
350
19
  3
ACAD_MLINESTYLE
350
16
  3
ACAD_PLOTSETTINGS
350
18
1001
ACAD
1000
TREAT_AS_HARD
1070
     0
1000
TREAT_AS_HARD
1070
     0
  0
DICTIONARY
  5
258D
330
1E
100
AcDbDictionary
  3
ACAD_LAYOUTSELFREF
350
53E1
1001
ACAD
1000
TREAT_AS_HARD
1070
     1
1000
TREAT_AS_HARD
1070
     1
  0
DICTIONARY
  5
258F
330
1A
100
AcDbDictionary
  3
ACAD_LAYOUTSELFREF
350
53E0
1001
ACAD
1000
TREAT_AS_HARD
1070
     1
1000
TREAT_AS_HARD
1070
     1
  0
DICTIONARY
  5
D
102
{ACAD_REACTORS
330
C
102
}
330
C
100
AcDbDictionary
1001
ACAD
1000
TREAT_AS_HARD
1070
     0
1000
TREAT_AS_HARD
1070
     0
  0
DICTIONARY
  5
19
102
{ACAD_REACTORS
330
C
102
}
330
C
100
AcDbDictionary
1001
ACAD
1000
TREAT_AS_HARD
1070
     0
1000
TREAT_AS_HARD
1070
     0
  0
DICTIONARY
  5
16
102
{ACAD_REACTORS
330
C
102
}
330
C
100
AcDbDictionary
  3
STANDARD
350
17
1001
ACAD
1000
TREAT_AS_HARD
1070
     0
1000
TREAT_AS_HARD
1070
     0
  0
DICTIONARY
  5
18
102
{ACAD_REACTORS
330
C
102
}
330
C
100
AcDbDictionary
1001
ACAD
1000
TREAT_AS_HARD
1070
     0
1000
TREAT_AS_HARD
1070
     0
  0
XRECORD
  5
53E1
102
{ACAD_REACTORS
330
258D
102
}
330
258D
100
AcDbXrecord
340
1E
  0
XRECORD
  5
53E0
102
{ACAD_REACTORS
330
258F
102
}
330
258F
100
AcDbXrecord
340
1A
  0
MLINESTYLE
  5
17
102
{ACAD_REACTORS
330
16
102
}
330
16
100
AcDbMlineStyle
  2
STANDARD
 70
     0
  3

 62
   256
 51
90.0
 52
90.0
 71
     2
 49
0.5
 62
   256
  6
BYLAYER
 49
-0.5
 62
   256
  6
BYLAYER
  0
ENDSEC
  0
EOF
