  0
SECTION
  2
HEADER
  9
$ACADVER
  1
AC1012
  9
$DWGCODEPAGE
  3
ANSI_1252
  9
$INSBASE
 10
0.0
 20
0.0
 30
0.0
  9
$EXTMIN
 10
-5.00418845032194
 20
-5.290930613149001
 30
-0.0000000000000129
  9
$EXTMAX
 10
4.877170732058637
 20
5.884421020886364
 30
0.0000000000000024
  9
$LIMMIN
 10
0.0
 20
0.0
  9
$LIMMAX
 10
12.0
 20
9.0
  9
$ORTHOMODE
 70
     1
  9
$REGENMODE
 70
     1
  9
$FILLMODE
 70
     1
  9
$QTEXTMODE
 70
     0
  9
$MIRRTEXT
 70
     1
  9
$DRAGMODE
 70
     2
  9
$LTSCALE
 40
0.1546648393518988
  9
$OSMODE
 70
   547
  9
$ATTMODE
 70
     1
  9
$TEXTSIZE
 40
0.2
  9
$TRACEWID
 40
0.05
  9
$TEXTSTYLE
  7
STANDARD
  9
$CLAYER
  8
0
  9
$CELTYPE
  6
BYLAYER
  9
$CECOLOR
 62
   256
  9
$CELTSCALE
 40
1.0
  9
$DELOBJ
 70
     1
  9
$DISPSILH
 70
     0
  9
$DIMSCALE
 40
1.0
  9
$DIMASZ
 40
0.18
  9
$DIMEXO
 40
0.0625
  9
$DIMDLI
 40
0.38
  9
$DIMRND
 40
0.0
  9
$DIMDLE
 40
0.0
  9
$DIMEXE
 40
0.18
  9
$DIMTP
 40
0.0
  9
$DIMTM
 40
0.0
  9
$DIMTXT
 40
0.18
  9
$DIMCEN
 40
0.09
  9
$DIMTSZ
 40
0.0
  9
$DIMTOL
 70
     0
  9
$DIMLIM
 70
     0
  9
$DIMTIH
 70
     1
  9
$DIMTOH
 70
     1
  9
$DIMSE1
 70
     0
  9
$DIMSE2
 70
     0
  9
$DIMTAD
 70
     0
  9
$DIMZIN
 70
     0
  9
$DIMBLK
  1

  9
$DIMASO
 70
     1
  9
$DIMSHO
 70
     1
  9
$DIMPOST
  1

  9
$DIMAPOST
  1

  9
$DIMALT
 70
     0
  9
$DIMALTD
 70
     2
  9
$DIMALTF
 40
25.4
  9
$DIMLFAC
 40
1.0
  9
$DIMTOFL
 70
     0
  9
$DIMTVP
 40
0.0
  9
$DIMTIX
 70
     0
  9
$DIMSOXD
 70
     0
  9
$DIMSAH
 70
     0
  9
$DIMBLK1
  1

  9
$DIMBLK2
  1

  9
$DIMSTYLE
  2
STANDARD
  9
$DIMCLRD
 70
     0
  9
$DIMCLRE
 70
     0
  9
$DIMCLRT
 70
     0
  9
$DIMTFAC
 40
1.0
  9
$DIMGAP
 40
0.09
  9
$DIMJUST
 70
     0
  9
$DIMSD1
 70
     0
  9
$DIMSD2
 70
     0
  9
$DIMTOLJ
 70
     1
  9
$DIMTZIN
 70
     0
  9
$DIMALTZ
 70
     0
  9
$DIMALTTZ
 70
     0
  9
$DIMFIT
 70
     3
  9
$DIMUPT
 70
     0
  9
$DIMUNIT
 70
     2
  9
$DIMDEC
 70
     4
  9
$DIMTDEC
 70
     4
  9
$DIMALTU
 70
     2
  9
$DIMALTTD
 70
     2
  9
$DIMTXSTY
  7
STANDARD
  9
$DIMAUNIT
 70
     0
  9
$LUNITS
 70
     2
  9
$LUPREC
 70
     4
  9
$SKETCHINC
 40
0.1
  9
$FILLETRAD
 40
0.0
  9
$AUNITS
 70
     0
  9
$AUPREC
 70
     0
  9
$MENU
  1
acad
  9
$ELEVATION
 40
0.0
  9
$PELEVATION
 40
0.0
  9
$THICKNESS
 40
0.0
  9
$LIMCHECK
 70
     0
  9
$BLIPMODE
 70
     0
  9
$CHAMFERA
 40
0.0
  9
$CHAMFERB
 40
0.0
  9
$CHAMFERC
 40
0.0
  9
$CHAMFERD
 40
0.0
  9
$SKPOLY
 70
     0
  9
$TDCREATE
 40
2451107.298330532
  9
$TDUPDATE
 40
2454130.284510787
  9
$TDINDWG
 40
0.0027245023
  9
$TDUSRTIMER
 40
0.0027232407
  9
$USRTIMER
 70
     1
  9
$ANGBASE
 50
0.0
  9
$ANGDIR
 70
     0
  9
$PDMODE
 70
     0
  9
$PDSIZE
 40
0.0
  9
$PLINEWID
 40
0.0
  9
$COORDS
 70
     1
  9
$SPLFRAME
 70
     0
  9
$SPLINETYPE
 70
     6
  9
$SPLINESEGS
 70
     8
  9
$ATTDIA
 70
     0
  9
$ATTREQ
 70
     1
  9
$HANDLING
 70
  4097
  9
$HANDSEED
  5
134D
  9
$SURFTAB1
 70
     6
  9
$SURFTAB2
 70
     6
  9
$SURFTYPE
 70
     6
  9
$SURFU
 70
     6
  9
$SURFV
 70
     6
  9
$UCSNAME
  2

  9
$UCSORG
 10
0.0
 20
0.0
 30
0.0
  9
$UCSXDIR
 10
1.0
 20
0.0
 30
0.0
  9
$UCSYDIR
 10
0.0
 20
1.0
 30
0.0
  9
$PUCSNAME
  2

  9
$PUCSORG
 10
0.0
 20
0.0
 30
0.0
  9
$PUCSXDIR
 10
1.0
 20
0.0
 30
0.0
  9
$PUCSYDIR
 10
0.0
 20
1.0
 30
0.0
  9
$USERI1
 70
     0
  9
$USERI2
 70
     0
  9
$USERI3
 70
     0
  9
$USERI4
 70
     0
  9
$USERI5
 70
     0
  9
$USERR1
 40
0.0
  9
$USERR2
 40
0.0
  9
$USERR3
 40
0.0
  9
$USERR4
 40
0.0
  9
$USERR5
 40
0.0
  9
$WORLDVIEW
 70
     1
  9
$SHADEDGE
 70
     3
  9
$SHADEDIF
 70
    70
  9
$TILEMODE
 70
     1
  9
$MAXACTVP
 70
    16
  9
$PINSBASE
 10
0.0
 20
0.0
 30
0.0
  9
$PLIMCHECK
 70
     0
  9
$PEXTMIN
 10
1.000000000000000E+20
 20
1.000000000000000E+20
 30
1.000000000000000E+20
  9
$PEXTMAX
 10
-1.000000000000000E+20
 20
-1.000000000000000E+20
 30
-1.000000000000000E+20
  9
$PLIMMIN
 10
0.0
 20
0.0
  9
$PLIMMAX
 10
12.0
 20
9.0
  9
$UNITMODE
 70
     0
  9
$VISRETAIN
 70
     0
  9
$PLINEGEN
 70
     0
  9
$PSLTSCALE
 70
     1
  9
$TREEDEPTH
 70
  3020
  9
$PICKSTYLE
 70
     1
  9
$CMLSTYLE
  2
STANDARD
  9
$CMLJUST
 70
     0
  9
$CMLSCALE
 40
1.0
  9
$SAVEIMAGES
 70
     1
  0
ENDSEC
  0
SECTION
  2
CLASSES
  0
CLASS
  1
ACDBDICTIONARYWDFLT
  2
AcDbDictionaryWithDefault
  3
AutoCAD 2000
 90
    32768
280
     0
281
     0
  0
CLASS
  1
ACDBPLACEHOLDER
  2
AcDbPlaceHolder
  3
AutoCAD 2000
 90
    32768
280
     0
281
     0
  0
CLASS
  1
LAYOUT
  2
AcDbLayout
  3
AutoCAD 2000
 90
    32768
280
     0
281
     0
  0
CLASS
  1
LONG_TRANSACTION
  2
AcDbLongTransaction
  3
AutoCAD 2000
 90
    32768
280
     0
281
     0
  0
CLASS
  1
LWPOLYLINE
  2
AcDbPolyline
  3
AutoCAD 2000
 90
    32768
280
     0
281
     1
  0
CLASS
  1
HATCH
  2
AcDbHatch
  3
AutoCAD 2000
 90
    32768
280
     0
281
     1
  0
CLASS
  1
XRECORD
  2
AcDbXrecord
  3
AutoCAD 2000
 90
    32768
280
     0
281
     0
  0
CLASS
  1
LONG_TRANSACTION
  2
AcDbLongTransaction
  3
AutoCAD 2000
 90
    32768
280
     0
281
     0
  0
CLASS
  1
LWPOLYLINE
  2
AcDbPolyline
  3
AutoCAD 2000
 90
    32768
280
     0
281
     1
  0
CLASS
  1
HATCH
  2
AcDbHatch
  3
AutoCAD 2000
 90
    32768
280
     0
281
     1
  0
CLASS
  1
XRECORD
  2
AcDbXrecord
  3
AutoCAD 2000
 90
    32768
280
     0
281
     0
  0
CLASS
  1
LONG_TRANSACTION
  2
AcDbLongTransaction
  3
AutoCAD 2000
 90
    32768
280
     0
281
     0
  0
CLASS
  1
LWPOLYLINE
  2
AcDbPolyline
  3
AutoCAD 2000
 90
    32768
280
     0
281
     1
  0
CLASS
  1
HATCH
  2
AcDbHatch
  3
AutoCAD 2000
 90
    32768
280
     0
281
     1
  0
CLASS
  1
XRECORD
  2
AcDbXrecord
  3
AutoCAD 2000
 90
    32768
280
     0
281
     0
  0
ENDSEC
  0
SECTION
  2
TABLES
  0
TABLE
  2
VPORT
  5
8
330
0
100
AcDbSymbolTable
 70
     2
  0
VPORT
  5
134A
330
8
100
AcDbSymbolTableRecord
100
AcDbViewportTableRecord
  2
*ACTIVE
 70
     0
 10
0.0
 20
0.0
 11
1.0
 21
1.0
 12
-0.0635088591316508
 22
0.2967452038686815
 13
0.0
 23
0.0
 14
1.0
 24
1.0
 15
0.0
 25
0.0
 16
0.0
 26
0.0
 36
1.0
 17
0.0
 27
0.0
 37
0.0
 40
11.3002158981028
 41
1.740671641791045
 42
50.0
 43
0.0
 44
0.0
 50
0.0
 51
0.0
 71
     0
 72
   100
 73
     1
 74
     1
 75
     0
 76
     0
 77
     0
 78
     0
  0
ENDTAB
  0
TABLE
  2
LTYPE
  5
5
330
0
100
AcDbSymbolTable
 70
     1
  0
LTYPE
  5
14
330
5
100
AcDbSymbolTableRecord
100
AcDbLinetypeTableRecord
  2
BYBLOCK
 70
     0
  3

 72
    65
 73
     0
 40
0.0
  0
LTYPE
  5
15
330
5
100
AcDbSymbolTableRecord
100
AcDbLinetypeTableRecord
  2
BYLAYER
 70
     0
  3

 72
    65
 73
     0
 40
0.0
  0
LTYPE
  5
16
330
5
100
AcDbSymbolTableRecord
100
AcDbLinetypeTableRecord
  2
CONTINUOUS
 70
     0
  3
Solid line
 72
    65
 73
     0
 40
0.0
  0
ENDTAB
  0
TABLE
  2
LAYER
  5
2
330
0
100
AcDbSymbolTable
 70
     5
  0
LAYER
  5
F
330
2
100
AcDbSymbolTableRecord
100
AcDbLayerTableRecord
  2
0
 70
     0
 62
     7
  6
CONTINUOUS
  0
LAYER
  5
28
330
2
100
AcDbSymbolTableRecord
100
AcDbLayerTableRecord
  2
IGES_FRZ
 70
     1
 62
     7
  6
CONTINUOUS
  0
LAYER
  5
2A
330
2
100
AcDbSymbolTableRecord
100
AcDbLayerTableRecord
  2
1
 70
     0
 62
     7
  6
CONTINUOUS
  0
LAYER
  5
2B
330
2
100
AcDbSymbolTableRecord
100
AcDbLayerTableRecord
  2
1_TOP
 70
     0
 62
     7
  6
CONTINUOUS
  0
LAYER
  5
12F8
330
2
100
AcDbSymbolTableRecord
100
AcDbLayerTableRecord
  2
DEFPOINTS
 70
     0
 62
     7
  6
CONTINUOUS
  0
ENDTAB
  0
TABLE
  2
STYLE
  5
3
330
0
100
AcDbSymbolTable
 70
     1
  0
STYLE
  5
10
330
3
100
AcDbSymbolTableRecord
100
AcDbTextStyleTableRecord
  2
STANDARD
 70
     0
 40
0.0
 41
1.0
 50
0.0
 71
     0
 42
0.2
  3
txt
  4

  0
ENDTAB
  0
TABLE
  2
VIEW
  5
6
330
0
100
AcDbSymbolTable
 70
     7
  0
VIEW
  5
12A0
330
6
100
AcDbSymbolTableRecord
100
AcDbViewTableRecord
  2
FRONT
 70
     0
 40
10.02626162285044
 10
0.0
 20
0.0
 41
10.35310039370078
 11
0.0
 21
-1.0
 31
0.0
 12
0.0
 22
0.0
 32
0.0
 42
50.0
 43
7.206119099277563
 44
-7.206119099277563
 50
0.0
 71
    22
  0
VIEW
  5
12A2
330
6
100
AcDbSymbolTableRecord
100
AcDbViewTableRecord
  2
RIGHT
 70
     0
 40
10.02626162285044
 10
0.0
 20
0.0
 41
10.02626162285044
 11
1.0
 21
0.0
 31
0.0
 12
0.0
 22
0.0
 32
0.0
 42
50.0
 43
7.08963758346799
 44
-7.08963758346799
 50
0.0
 71
    22
  0
VIEW
  5
12A4
330
6
100
AcDbSymbolTableRecord
100
AcDbViewTableRecord
  2
BACK
 70
     0
 40
10.02626162285044
 10
0.0
 20
0.0
 41
10.35310039370078
 11
0.0
 21
1.0
 31
0.0
 12
0.0
 22
0.0
 32
0.0
 42
50.0
 43
7.206119099277563
 44
-7.206119099277563
 50
0.0
 71
    22
  0
VIEW
  5
12A6
330
6
100
AcDbSymbolTableRecord
100
AcDbViewTableRecord
  2
BOTTOM
 70
     0
 40
10.02626162285044
 10
0.0
 20
0.0
 41
10.35310039370078
 11
0.0
 21
0.0
 31
-1.0
 12
0.0
 22
0.0
 32
0.0
 42
50.0
 43
7.206119099277563
 44
-7.206119099277563
 50
180.0
 71
    22
  0
VIEW
  5
12A8
330
6
100
AcDbSymbolTableRecord
100
AcDbViewTableRecord
  2
LEFT
 70
     0
 40
10.02626162285044
 10
0.0
 20
0.0
 41
10.02626162285044
 11
-1.0
 21
0.0
 31
0.0
 12
0.0
 22
0.0
 32
0.0
 42
50.0
 43
7.08963758346799
 44
-7.08963758346799
 50
0.0
 71
    22
  0
VIEW
  5
12AA
330
6
100
AcDbSymbolTableRecord
100
AcDbViewTableRecord
  2
TFR-ISO
 70
     0
 40
16.50624803854548
 10
0.0
 20
0.0
 41
14.41038507815894
 11
0.577350269189626
 21
-0.577350269189626
 31
0.577350269189626
 12
0.0
 22
0.0
 32
0.0
 42
50.0
 43
10.95576814297847
 44
-10.95576814297847
 50
0.0
 71
    22
  0
VIEW
  5
12AC
330
6
100
AcDbSymbolTableRecord
100
AcDbViewTableRecord
  2
TFR-TRI
 70
     0
 40
14.68341633614008
 10
0.0
 20
0.0
 41
14.31148894890226
 11
0.7188730927569429
 21
-0.5850486126764432
 31
0.375419228750255
 12
0.0
 22
0.0
 32
0.0
 42
50.0
 43
10.2520904116548
 44
-10.2520904116548
 50
0.0000000000000095
 71
    22
  0
ENDTAB
  0
TABLE
  2
UCS
  5
7
330
0
100
AcDbSymbolTable
 70
     0
  0
ENDTAB
  0
TABLE
  2
APPID
  5
9
330
0
100
AcDbSymbolTable
 70
     2
  0
APPID
  5
11
330
9
100
AcDbSymbolTableRecord
100
AcDbRegAppTableRecord
  2
ACAD
 70
     0
  0
APPID
  5
29
330
9
100
AcDbSymbolTableRecord
100
AcDbRegAppTableRecord
  2
ACADIGES
 70
     0
  0
ENDTAB
  0
TABLE
  2
DIMSTYLE
  5
A
330
0
100
AcDbSymbolTable
 70
     1
  0
DIMSTYLE
105
1D
330
A
100
AcDbSymbolTableRecord
100
AcDbDimStyleTableRecord
  2
STANDARD
 70
     0
  3

  4

  5

  6

  7

 40
1.0
 41
0.18
 42
0.0625
 43
0.38
 44
0.18
 45
0.0
 46
0.0
 47
0.0
 48
0.0
140
0.18
141
0.09
142
0.0
143
25.4
144
1.0
145
0.0
146
1.0
147
0.09
 71
     0
 72
     0
 73
     1
 74
     1
 75
     0
 76
     0
 77
     0
 78
     0
170
     0
171
     2
172
     0
173
     0
174
     0
175
     0
176
     0
177
     0
178
     0
270
     2
271
     4
272
     4
273
     2
274
     2
340
10
275
     0
280
     0
281
     0
282
     0
283
     1
284
     0
285
     0
286
     0
287
     3
288
     0
  0
ENDTAB
  0
TABLE
  2
BLOCK_RECORD
  5
1
330
0
100
AcDbSymbolTable
 70
     2
  0
BLOCK_RECORD
  5
1A
102
{ACAD_XDICTIONARY
360
12E2
102
}
330
1
100
AcDbSymbolTableRecord
100
AcDbBlockTableRecord
  2
*MODEL_SPACE
  0
BLOCK_RECORD
  5
17
102
{ACAD_XDICTIONARY
360
12E0
102
}
330
1
100
AcDbSymbolTableRecord
100
AcDbBlockTableRecord
  2
*PAPER_SPACE
  0
BLOCK_RECORD
  5
1289
330
1
100
AcDbSymbolTableRecord
100
AcDbBlockTableRecord
  2
DVIEWBLOCK
  0
ENDTAB
  0
ENDSEC
  0
SECTION
  2
BLOCKS
  0
BLOCK
  5
1B
330
1A
100
AcDbEntity
  8
0
100
AcDbBlockBegin
  2
*MODEL_SPACE
 70
     0
 10
0.0
 20
0.0
 30
0.0
  3
*MODEL_SPACE
  1

  0
ENDBLK
  5
1C
330
1A
100
AcDbEntity
  8
0
100
AcDbBlockEnd
  0
BLOCK
  5
18
330
17
100
AcDbEntity
 67
     1
  8
0
100
AcDbBlockBegin
  2
*PAPER_SPACE
 70
     0
 10
0.0
 20
0.0
 30
0.0
  3
*PAPER_SPACE
  1

  0
ENDBLK
  5
19
330
17
100
AcDbEntity
 67
     1
  8
0
100
AcDbBlockEnd
  0
BLOCK
  5
128A
330
1289
100
AcDbEntity
  8
0
100
AcDbBlockBegin
  2
DVIEWBLOCK
 70
     0
 10
0.0
 20
0.0
 30
0.0
  3
DVIEWBLOCK
  1

  0
3DFACE
  5
128B
330
1289
100
AcDbEntity
  8
IGES_FRZ
 62
     4
100
AcDbFace
 10
0.1
 20
0.1
 30
0.0
 11
0.9
 21
0.1
 31
0.0
 12
0.9
 22
0.9
 32
0.0
 13
0.1
 23
0.9
 33
0.0
  0
3DFACE
  5
128C
330
1289
100
AcDbEntity
  8
IGES_FRZ
 62
     4
100
AcDbFace
 10
0.1
 20
0.1
 30
0.0
 11
0.1
 21
0.1
 31
0.595
 12
0.2
 22
0.1
 32
0.4
 13
0.2
 23
0.1
 33
0.0
 70
    10
  0
3DFACE
  5
128D
330
1289
100
AcDbEntity
  8
IGES_FRZ
 62
     4
100
AcDbFace
 10
0.2
 20
0.1
 30
0.4
 11
0.1
 21
0.1
 31
0.595
 12
0.9
 22
0.1
 32
0.595
 13
0.4
 23
0.1
 33
0.4
 70
     5
  0
3DFACE
  5
128E
330
1289
100
AcDbEntity
  8
IGES_FRZ
 62
     4
100
AcDbFace
 10
0.4
 20
0.1
 30
0.0
 11
0.4
 21
0.1
 31
0.4
 12
0.9
 22
0.1
 32
0.595
 13
0.9
 23
0.1
 33
0.0
 70
    14
  0
3DFACE
  5
128F
330
1289
100
AcDbEntity
  8
IGES_FRZ
 62
     7
100
AcDbFace
 10
0.2
 20
0.1
 30
0.005
 11
0.2
 21
0.1
 31
0.4
 12
0.34
 22
0.24
 32
0.4
 13
0.34
 23
0.24
 33
0.005
 70
     1
  0
3DFACE
  5
1290
330
1289
100
AcDbEntity
  8
IGES_FRZ
 62
     4
100
AcDbFace
 10
0.9
 20
0.1
 30
0.0
 11
0.9
 21
0.1
 31
0.595
 12
0.9
 22
0.5
 32
0.9949999999999999
 13
0.9
 23
0.3
 33
0.4
 70
    12
  0
3DFACE
  5
1291
330
1289
100
AcDbEntity
  8
IGES_FRZ
 62
     4
100
AcDbFace
 10
0.9
 20
0.3
 30
0.4
 11
0.9
 21
0.5
 31
0.9949999999999999
 12
0.9
 22
0.9
 32
0.595
 13
0.9
 23
0.7000000000000001
 33
0.4
 70
     5
  0
3DFACE
  5
1292
330
1289
100
AcDbEntity
  8
IGES_FRZ
 62
     4
100
AcDbFace
 10
0.9
 20
0.7000000000000001
 30
0.4
 11
0.9
 21
0.9
 31
0.595
 12
0.9
 22
0.9
 32
0.0
 13
0.9
 23
0.7000000000000001
 33
0.2
 70
     7
  0
3DFACE
  5
1293
330
1289
100
AcDbEntity
  8
IGES_FRZ
 62
     4
100
AcDbFace
 10
0.9
 20
0.7000000000000001
 30
0.2
 11
0.9
 21
0.9
 31
0.0
 12
0.9
 22
0.1
 32
0.0
 13
0.9
 23
0.3
 33
0.2
 70
     7
  0
3DFACE
  5
1294
330
1289
100
AcDbEntity
  8
IGES_FRZ
 62
     4
100
AcDbFace
 10
0.9
 20
0.3
 30
0.2
 11
0.9
 21
0.3
 31
0.2
 12
0.9
 22
0.1
 32
0.0
 13
0.9
 23
0.3
 33
0.4
 70
     7
  0
3DFACE
  5
1295
330
1289
100
AcDbEntity
  8
IGES_FRZ
 62
     4
100
AcDbFace
 10
0.9
 20
0.9
 30
0.0
 11
0.9
 21
0.9
 31
0.595
 12
0.1
 22
0.9
 32
0.595
 13
0.1
 23
0.9
 33
0.0
 70
    12
  0
3DFACE
  5
1296
330
1289
100
AcDbEntity
  8
IGES_FRZ
 62
     4
100
AcDbFace
 10
0.1
 20
0.9
 30
0.0
 11
0.1
 21
0.9
 31
0.595
 12
0.1
 22
0.5
 32
0.9949999999999999
 13
0.1
 23
0.5
 33
0.0
 70
    12
  0
3DFACE
  5
1297
330
1289
100
AcDbEntity
  8
IGES_FRZ
 62
     4
100
AcDbFace
 10
0.1
 20
0.5
 30
0.0
 11
0.1
 21
0.5
 31
0.9949999999999999
 12
0.1
 22
0.1
 32
0.595
 13
0.1
 23
0.1
 33
0.0
 70
    13
  0
3DFACE
  5
1298
330
1289
100
AcDbEntity
  8
IGES_FRZ
 62
     1
100
AcDbFace
 10
0.2
 20
0.6
 30
0.9
 11
0.2
 21
0.6
 31
1.0
 12
0.3
 22
0.6
 32
1.0
 13
0.3
 23
0.6
 33
0.9
 70
     4
  0
3DFACE
  5
1299
330
1289
100
AcDbEntity
  8
IGES_FRZ
 62
     1
100
AcDbFace
 10
0.3
 20
0.6
 30
0.9
 11
0.3
 21
0.6
 31
1.0
 12
0.3
 22
0.7000000000000001
 32
1.0
 13
0.3
 23
0.7000000000000001
 33
0.8
 70
     4
  0
3DFACE
  5
129A
330
1289
100
AcDbEntity
  8
IGES_FRZ
 62
     1
100
AcDbFace
 10
0.3
 20
0.7000000000000001
 30
0.8
 11
0.3
 21
0.7000000000000001
 31
1.0
 12
0.2
 22
0.7000000000000001
 32
1.0
 13
0.2
 23
0.7000000000000001
 33
0.8
 70
     4
  0
3DFACE
  5
129B
330
1289
100
AcDbEntity
  8
IGES_FRZ
 62
     1
100
AcDbFace
 10
0.2
 20
0.7000000000000001
 30
0.8
 11
0.2
 21
0.7000000000000001
 31
1.0
 12
0.2
 22
0.6
 32
1.0
 13
0.2
 23
0.6
 33
0.9
 70
     4
  0
3DFACE
  5
129C
330
1289
100
AcDbEntity
  8
IGES_FRZ
 62
     4
100
AcDbFace
 10
0.0
 20
0.0
 30
0.5
 11
1.0
 21
0.0
 31
0.5
 12
1.0
 22
0.5
 32
1.0
 13
0.0
 23
0.5
 33
1.0
  0
3DFACE
  5
129D
330
1289
100
AcDbEntity
  8
IGES_FRZ
 62
     4
100
AcDbFace
 10
0.0
 20
0.5
 30
1.0
 11
1.0
 21
0.5
 31
1.0
 12
1.0
 22
1.0
 32
0.5
 13
0.0
 23
1.0
 33
0.5
 70
     1
  0
ENDBLK
  5
129E
330
1289
100
AcDbEntity
  8
0
100
AcDbBlockEnd
  0
ENDSEC
  0
SECTION
  2
ENTITIES
  0
LINE
  5
30
330
1A
100
AcDbEntity
  8
1_TOP
  6
CONTINUOUS
 62
     7
100
AcDbLine
 10
3.770324815423761
 20
-4.365396333489606
 30
0.0
 11
3.752750827440871
 21
-4.365396333489606
 31
0.0
  0
LINE
  5
34
330
1A
100
AcDbEntity
  8
1_TOP
  6
CONTINUOUS
 62
     7
100
AcDbLine
 10
3.943361004793255
 20
-4.365396333489606
 30
0.0
 11
3.951472076169975
 21
-4.365396333489606
 31
0.0
  0
LINE
  5
38
330
1A
100
AcDbEntity
  8
1_TOP
  6
CONTINUOUS
 62
     7
100
AcDbLine
 10
3.943361004793255
 20
-4.365396333489606
 30
0.0
 11
3.951472076169975
 21
-4.365396333489606
 31
0.0
  0
LINE
  5
3D
330
1A
100
AcDbEntity
  8
1_TOP
  6
CONTINUOUS
 62
     7
100
AcDbLine
 10
-4.739540903960992
 20
5.884294196196673
 30
0.0
 11
-0.5663946806503315
 21
5.884294196196673
 31
0.0
  0
LINE
  5
42
330
1A
100
AcDbEntity
  8
1_TOP
  6
CONTINUOUS
 62
     7
100
AcDbLine
 10
3.752750827440871
 20
-4.365396333489606
 30
0.0
 11
3.841972612584552
 21
-4.365396333489606
 31
0.0
  0
LINE
  5
4B
330
1A
100
AcDbEntity
  8
1_TOP
  6
CONTINUOUS
 62
     7
100
AcDbLine
 10
3.841972612584552
 20
-4.365396333489606
 30
0.0
 11
3.752750827440871
 21
-4.365396333489606
 31
0.0
  0
LINE
  5
50
330
1A
100
AcDbEntity
  8
1_TOP
  6
CONTINUOUS
 62
     7
100
AcDbLine
 10
4.032582789936938
 20
-4.365396333489606
 30
0.0
 11
4.023119873330784
 21
-4.365396333489606
 31
0.0
  0
LINE
  5
53
330
1A
100
AcDbEntity
  8
1_TOP
  6
CONTINUOUS
 62
     7
100
AcDbLine
 10
-4.731429832584296
 20
-0.6559330238801407
 30
0.0
 11
-3.345788472398536
 21
-0.6505256429623496
 31
0.0
  0
LINE
  5
55
330
1A
100
AcDbEntity
  8
1_TOP
  6
CONTINUOUS
 62
     7
100
AcDbLine
 10
3.960934992776129
 20
-4.365396333489606
 30
0.0
 11
3.943361004793255
 21
-4.365396333489606
 31
0.0
  0
LINE
  5
56
330
1A
100
AcDbEntity
  8
1_TOP
  6
CONTINUOUS
 62
     7
100
AcDbLine
 10
-4.896354950577135
 20
4.568948787942253
 30
0.0
 11
-4.900410486265491
 21
5.517944139015862
 31
0.0
  0
LINE
  5
5B
330
1A
100
AcDbEntity
  8
1_TOP
  6
CONTINUOUS
 62
     7
100
AcDbLine
 10
-3.286307282302762
 20
-0.5153411200174048
 30
0.0
 11
-3.280899901384962
 21
-0.5166929652468328
 31
0.0
  0
LINE
  5
5C
330
1A
100
AcDbEntity
  8
1_TOP
  6
CONTINUOUS
 62
     7
100
AcDbLine
 10
4.626042845665241
 20
-4.224804429626853
 30
0.0
 11
4.658487131172064
 21
-4.157212168154376
 31
0.0
  0
LINE
  5
5E
330
1A
100
AcDbEntity
  8
1_TOP
  6
CONTINUOUS
 62
     7
100
AcDbLine
 10
3.494548388616052
 20
-5.118374126292988
 30
0.0
 11
3.920379635892653
 21
-5.118374126292988
 31
0.0
  0
LINE
  5
67
330
1A
100
AcDbEntity
  8
1_TOP
  6
CONTINUOUS
 62
     7
100
AcDbLine
 10
4.795023499346443
 20
-4.304563298164373
 30
0.0
 11
4.850449153753878
 21
-4.327544667065016
 31
0.0
  0
LINE
  5
69
330
1A
100
AcDbEntity
  8
1_TOP
  6
CONTINUOUS
 62
     7
100
AcDbLine
 10
3.48914100769827
 20
-4.971022996282992
 30
0.0
 11
3.494548388616052
 21
-5.118374126292988
 31
0.0
  0
LINE
  5
72
330
1A
100
AcDbEntity
  8
1_TOP
  6
CONTINUOUS
 62
     7
100
AcDbLine
 10
3.96904606415278
 20
-4.673617045804095
 30
0.0
 11
3.996082968741817
 21
-4.697950259934191
 31
0.0
  0
LINE
  5
74
330
1A
100
AcDbEntity
  8
1_TOP
  6
CONTINUOUS
 62
     7
100
AcDbLine
 10
3.9284907072693
 20
-4.971022996282992
 30
0.0
 11
3.48914100769827
 21
-4.971022996282992
 31
0.0
  0
LINE
  5
75
330
1A
100
AcDbEntity
  8
1_TOP
  6
CONTINUOUS
 62
     7
100
AcDbLine
 10
-3.912211623537887
 20
-0.5193966557057605
 30
0.0
 11
-3.909507933078991
 21
-0.523452191394052
 31
0.0
  0
LINE
  5
79
330
1A
100
AcDbEntity
  8
1_TOP
  6
CONTINUOUS
 62
     7
100
AcDbLine
 10
4.659838976401498
 20
-4.288341155410981
 30
0.0
 11
4.63956129795976
 21
-4.304563298164373
 31
0.0
  0
LINE
  5
7B
330
1A
100
AcDbEntity
  8
1_TOP
  6
CONTINUOUS
 62
     7
100
AcDbLine
 10
-3.950063289962478
 20
-0.5694149291953213
 30
0.0
 11
-3.959526206568626
 21
-0.573470464883677
 31
0.0
  0
LINE
  5
81
330
1A
100
AcDbEntity
  8
1_TOP
  6
CONTINUOUS
 62
     7
100
AcDbLine
 10
-2.671217702903229
 20
-0.5586001673597377
 30
0.0
 11
-2.67797692905048
 21
-0.5667112387364579
 31
0.0
  0
LINE
  5
84
330
1A
100
AcDbEntity
  8
1_TOP
  6
CONTINUOUS
 62
     7
100
AcDbLine
 10
-1.747907411189206
 20
4.60139307344909
 30
0.0
 11
-1.74385187550086
 21
4.60139307344909
 31
0.0
  0
LINE
  5
8C
330
1A
100
AcDbEntity
  8
1_TOP
  6
CONTINUOUS
 62
     7
100
AcDbLine
 10
4.032582789936938
 20
-4.365396333489606
 30
0.0
 11
4.01365695672462
 21
-4.365396333489606
 31
0.0
  0
LINE
  5
8D
330
1A
100
AcDbEntity
  8
1_TOP
  6
CONTINUOUS
 62
     7
100
AcDbLine
 10
-3.58776876847
 20
4.210709802138171
 30
0.0
 11
-3.589120613699452
 21
4.221524563973762
 31
0.0
  0
LINE
  5
93
330
1A
100
AcDbEntity
  8
1_TOP
  6
CONTINUOUS
 62
     7
100
AcDbLine
 10
-0.4568952170649132
 20
5.527407055621944
 30
0.0
 11
-0.5690983711092244
 21
5.531462591310305
 31
0.0
  0
LINE
  5
9A
330
1A
100
AcDbEntity
  8
1_TOP
  6
CONTINUOUS
 62
     7
100
AcDbLine
 10
4.824764094394346
 20
5.636906519207366
 30
0.0
 11
4.824764094394346
 21
5.504425686721342
 31
0.0
  0
LINE
  5
9D
330
1A
100
AcDbEntity
  8
1_TOP
  6
CONTINUOUS
 62
     7
100
AcDbLine
 10
-1.970961874048377
 20
-0.5748223101131856
 30
0.0
 11
-1.977721100195627
 21
-0.5748223101131856
 31
0.0
  0
LINE
  5
A6
330
1A
100
AcDbEntity
  8
1_TOP
  6
CONTINUOUS
 62
     7
100
AcDbLine
 10
-3.525583887915323
 20
4.190432123696433
 30
0.0
 11
-3.528287578374226
 21
4.190432123696433
 31
0.0
  0
LINE
  5
AD
330
1A
100
AcDbEntity
  8
1_TOP
  6
CONTINUOUS
 62
     7
100
AcDbLine
 10
-1.719518661370763
 20
4.583819085466199
 30
0.0
 11
-1.716814970911868
 21
4.573004323630625
 31
0.0
  0
LINE
  5
B3
330
1A
100
AcDbEntity
  8
1_TOP
  6
CONTINUOUS
 62
     7
100
AcDbLine
 10
-1.724926042288565
 20
4.199895040302505
 30
0.0
 11
-1.733037113665258
 21
4.193135814155295
 31
0.0
  0
LINE
  5
B4
330
1A
100
AcDbEntity
  8
1_TOP
  6
CONTINUOUS
 62
     7
100
AcDbLine
 10
-0.4447286099998729
 20
5.657184197649098
 30
0.0
 11
-0.4109324792636313
 21
5.574721638652715
 31
0.0
  0
LINE
  5
D4
330
1A
100
AcDbEntity
  8
1_TOP
  6
CONTINUOUS
 62
     7
100
AcDbLine
 10
-1.589847848329933
 20
-4.27211901265759
 30
0.0
 11
-1.410052432813142
 21
-4.27211901265759
 31
0.0
  0
LINE
  5
E7
330
1A
100
AcDbEntity
  8
1_TOP
  6
CONTINUOUS
 62
     7
100
AcDbLine
 10
-2.061535504421494
 20
-0.5748223101131856
 30
0.0
 11
-2.064239194880392
 21
-0.5748223101131856
 31
0.0
  0
LINE
  5
E8
330
1A
100
AcDbEntity
  8
1_TOP
  6
CONTINUOUS
 62
     7
100
AcDbLine
 10
-1.958795266983333
 20
-0.6505256429623496
 30
0.0
 11
-0.5745057520270251
 21
-0.6559330238801407
 31
0.0
  0
LINE
  5
ED
330
1A
100
AcDbEntity
  8
1_TOP
  6
CONTINUOUS
 62
     7
100
AcDbLine
 10
-1.780351696695997
 20
4.190432123696433
 30
0.0
 11
-3.525583887915323
 21
4.190432123696433
 31
0.0
  0
LINE
  5
F4
330
1A
100
AcDbEntity
  8
1_TOP
  6
CONTINUOUS
 62
     7
100
AcDbLine
 10
-3.69467087058283
 20
-4.323489131376668
 30
0.0
 11
-3.693319025353377
 21
-4.299155917246581
 31
0.0
  0
LINE
  5
F8
330
1A
100
AcDbEntity
  8
1_TOP
  6
CONTINUOUS
 62
     7
100
AcDbLine
 10
-1.39777949676178
 20
-0.5261558818529795
 30
0.0
 11
-1.395075806302886
 21
-0.5221003461646239
 31
0.0
  0
LINE
  5
FD
330
1A
100
AcDbEntity
  8
1_TOP
  6
CONTINUOUS
 62
     7
100
AcDbLine
 10
3.110624343452369
 20
3.004863857469173
 30
0.0
 11
3.110624343452369
 21
3.021086000222549
 31
0.0
  0
LINE
  5
FE
330
1A
100
AcDbEntity
  8
1_TOP
  6
CONTINUOUS
 62
     7
100
AcDbLine
 10
-1.373446282631694
 20
-0.5193966557057605
 30
0.0
 11
-1.369390746943346
 21
-0.523452191394052
 31
0.0
  0
LINE
  5
103
330
1A
100
AcDbEntity
  8
1_TOP
  6
CONTINUOUS
 62
     7
100
AcDbLine
 10
3.111976188681797
 20
2.842642429935261
 30
0.0
 11
3.111976188681797
 21
2.834531358558535
 31
0.0
  0
LINE
  5
106
330
1A
100
AcDbEntity
  8
1_TOP
  6
CONTINUOUS
 62
     7
100
AcDbLine
 10
3.110624343452369
 20
3.004863857469173
 30
0.0
 11
3.110624343452369
 21
3.021086000222549
 31
0.0
  0
LINE
  5
10C
330
1A
100
AcDbEntity
  8
1_TOP
  6
CONTINUOUS
 62
     7
100
AcDbLine
 10
-1.353168604189945
 20
-0.5707667744248209
 30
0.0
 11
-1.361279675566642
 21
-0.5640075482775304
 31
0.0
  0
LINE
  5
11B
330
1A
100
AcDbEntity
  8
1_TOP
  6
CONTINUOUS
 62
     7
100
AcDbLine
 10
-0.4339138481642724
 20
5.849146220230985
 30
0.0
 11
-0.3379328368733627
 21
5.753165208940091
 31
0.0
  0
LINE
  5
124
330
1A
100
AcDbEntity
  8
1_TOP
  6
CONTINUOUS
 62
     7
100
AcDbLine
 10
-1.970961874048377
 20
-0.5748223101131856
 30
0.0
 11
-1.428871937039118
 21
-0.5748223101131856
 31
0.0
  0
LINE
  5
12E
330
1A
100
AcDbEntity
  8
1_TOP
  6
CONTINUOUS
 62
     7
100
AcDbLine
 10
-0.5421677955065563
 20
-4.561413891759783
 30
0.0
 11
-0.6313895806502235
 21
-4.561413891759783
 31
0.0
  0
LINE
  5
131
330
1A
100
AcDbEntity
  8
1_TOP
  6
CONTINUOUS
 62
     7
100
AcDbLine
 10
4.824764094394346
 20
-0.8925059390337978
 30
0.0
 11
3.276901306674644
 21
-0.7843583206777951
 31
0.0
  0
LINE
  5
133
330
1A
100
AcDbEntity
  8
1_TOP
  6
CONTINUOUS
 62
     7
100
AcDbLine
 10
3.239049640250095
 20
5.411148365889295
 30
0.0
 11
3.186327676301531
 21
5.416555746807087
 31
0.0
  0
LINE
  5
134
330
1A
100
AcDbEntity
  8
1_TOP
  6
CONTINUOUS
 62
     7
100
AcDbLine
 10
-2.432047426276982
 20
-4.531673296711896
 30
0.0
 11
-2.377973617098998
 21
-4.531673296711896
 31
0.0
  0
LINE
  5
139
330
1A
100
AcDbEntity
  8
1_TOP
  6
CONTINUOUS
 62
     7
100
AcDbLine
 10
3.018698867849828
 20
-0.6315998097500404
 30
0.0
 11
3.018698867849828
 21
-0.6329516549794665
 31
0.0
  0
LINE
  5
13E
330
1A
100
AcDbEntity
  8
1_TOP
  6
CONTINUOUS
 62
     7
100
AcDbLine
 10
3.010587796473092
 20
-0.6910809998458351
 30
0.0
 11
3.010587796473092
 21
-0.6897291546164
 31
0.0
  0
LINE
  5
140
330
1A
100
AcDbEntity
  8
1_TOP
  6
CONTINUOUS
 62
     7
100
AcDbLine
 10
-0.7894491435094987
 20
-0.5815815362604062
 30
0.0
 11
-0.7880972982800474
 21
-0.5856370719487691
 31
0.0
  0
LINE
  5
149
330
1A
100
AcDbEntity
  8
1_TOP
  6
CONTINUOUS
 62
     7
100
AcDbLine
 10
3.091698510240058
 20
-0.7208215948937302
 30
0.0
 11
3.080883748404467
 21
-0.7208215948937302
 31
0.0
  0
LINE
  5
14D
330
1A
100
AcDbEntity
  8
1_TOP
  6
CONTINUOUS
 62
     7
100
AcDbLine
 10
3.018698867849828
 20
-0.646470107273994
 30
0.0
 11
3.010587796473092
 21
-0.646470107273994
 31
0.0
  0
LINE
  5
153
330
1A
100
AcDbEntity
  8
1_TOP
  6
CONTINUOUS
 62
     7
100
AcDbLine
 10
-4.996391497556404
 20
4.886632416862944
 30
0.0
 11
-4.996391497556404
 21
4.439171645915099
 31
0.0
  0
LINE
  5
157
330
1A
100
AcDbEntity
  8
1_TOP
  6
CONTINUOUS
 62
     7
100
AcDbLine
 10
-2.630662346019742
 20
-0.5640075482775304
 30
0.0
 11
-2.636069726937543
 21
-0.5558964769008743
 31
0.0
  0
LINE
  5
15A
330
1A
100
AcDbEntity
  8
1_TOP
  6
CONTINUOUS
 62
     7
100
AcDbLine
 10
-5.003150723703654
 20
-0.4166564182675668
 30
0.0
 11
-5.003150723703654
 21
-0.776247249301155
 31
0.0
  0
LINE
  5
15E
330
1A
100
AcDbEntity
  8
1_TOP
  6
CONTINUOUS
 62
     7
100
AcDbLine
 10
-4.736837213502094
 20
5.531462591310305
 30
0.0
 11
-4.732781677813748
 21
4.577059859318987
 31
0.0
  0
LINE
  5
165
330
1A
100
AcDbEntity
  8
1_TOP
  6
CONTINUOUS
 62
     7
100
AcDbLine
 10
-4.678707868635767
 20
5.612573305077265
 30
0.0
 11
-4.704392927995305
 21
5.599054852782817
 31
0.0
  0
LINE
  5
16C
330
1A
100
AcDbEntity
  8
1_TOP
  6
CONTINUOUS
 62
     7
100
AcDbLine
 10
-4.885540188741545
 20
5.604462233700617
 30
0.0
 11
-4.842281141399162
 21
5.682869257008628
 31
0.0
  0
LINE
  5
171
330
1A
100
AcDbEntity
  8
1_TOP
  6
CONTINUOUS
 62
     7
100
AcDbLine
 10
-0.669134918088494
 20
5.781553958758467
 30
0.0
 11
-0.6596720014823447
 21
5.730183840039407
 31
0.0
  0
LINE
  5
173
330
1A
100
AcDbEntity
  8
1_TOP
  6
CONTINUOUS
 62
     7
100
AcDbLine
 10
-3.90815608784954
 20
-0.5437298698357822
 30
0.0
 11
-3.90815608784954
 21
-0.5302114175413442
 31
0.0
  0
LINE
  5
174
330
1A
100
AcDbEntity
  8
1_TOP
  6
CONTINUOUS
 62
     7
100
AcDbLine
 10
-2.667162167214881
 20
-0.5248040366235534
 30
0.0
 11
-2.664458476755986
 21
-0.5207485009351958
 31
0.0
  0
LINE
  5
175
330
1A
100
AcDbEntity
  8
1_TOP
  6
CONTINUOUS
 62
     7
100
AcDbLine
 10
-0.7908009887389519
 20
-0.6005073694727246
 30
0.0
 11
-0.7948565244273003
 21
-0.603211059931579
 31
0.0
  0
LINE
  5
17F
330
1A
100
AcDbEntity
  8
1_TOP
  6
CONTINUOUS
 62
     7
100
AcDbLine
 10
-3.299825734597257
 20
-0.5207485009351958
 30
0.0
 11
-3.29577019890891
 21
-0.5180448104762592
 31
0.0
  0
LINE
  5
185
330
1A
100
AcDbEntity
  8
1_TOP
  6
CONTINUOUS
 62
     7
100
AcDbLine
 10
-0.9558324357181028
 20
-4.27211901265759
 30
0.0
 11
-0.954480590488659
 21
-4.299155917246581
 31
0.0
  0
LINE
  5
187
330
1A
100
AcDbEntity
  8
1_TOP
  6
CONTINUOUS
 62
     7
100
AcDbLine
 10
-3.589120613699452
 20
4.570300633171688
 30
0.0
 11
-3.589120613699452
 21
4.395912598572755
 31
0.0
  0
LINE
  5
1A0
330
1A
100
AcDbEntity
  8
1_TOP
  6
CONTINUOUS
 62
     7
100
AcDbLine
 10
-0.3027848609076751
 20
0.0335080431391377
 30
0.0
 11
-0.3095440870549164
 21
0.0321561979097078
 31
0.0
  0
LINE
  5
1B1
330
1A
100
AcDbEntity
  8
1_TOP
  6
CONTINUOUS
 62
     7
100
AcDbLine
 10
-1.733037113665258
 20
4.193135814155295
 30
0.0
 11
-1.742500030271408
 21
4.190432123696433
 31
0.0
  0
LINE
  5
1BB
330
1A
100
AcDbEntity
  8
1_TOP
  6
CONTINUOUS
 62
     7
100
AcDbLine
 10
-2.69960645272167
 20
-0.5748223101131856
 30
0.0
 11
-3.241696389730929
 21
-0.5748223101131856
 31
0.0
  0
LINE
  5
1D3
330
1A
100
AcDbEntity
  8
1_TOP
  6
CONTINUOUS
 62
     7
100
AcDbLine
 10
-1.789920942288457
 20
-4.323489131376668
 30
0.0
 11
-1.588496003100478
 21
-4.323489131376668
 31
0.0
  0
LINE
  5
1E0
330
1A
100
AcDbEntity
  8
1_TOP
  6
CONTINUOUS
 62
     7
100
AcDbLine
 10
3.110624343452369
 20
3.00621570269861
 30
0.0
 11
3.110624343452369
 21
3.004863857469173
 31
0.0
  0
LINE
  5
1E2
330
1A
100
AcDbEntity
  8
1_TOP
  6
CONTINUOUS
 62
     7
100
AcDbLine
 10
-2.035850445061957
 20
-0.5586001673597377
 30
0.0
 11
-2.042609671209201
 21
-0.5667112387364579
 31
0.0
  0
LINE
  5
1EB
330
1A
100
AcDbEntity
  8
1_TOP
  6
CONTINUOUS
 62
     7
100
AcDbLine
 10
-0.5745057520270251
 20
5.559851341128767
 30
0.0
 11
-0.5880242043215203
 21
5.585536400488297
 31
0.0
  0
LINE
  5
1F3
330
1A
100
AcDbEntity
  8
1_TOP
  6
CONTINUOUS
 62
     7
100
AcDbLine
 10
-2.859230518783031
 20
-4.27211901265759
 30
0.0
 11
-3.057951767512106
 21
-4.27211901265759
 31
0.0
  0
LINE
  5
1F5
330
1A
100
AcDbEntity
  8
1_TOP
  6
CONTINUOUS
 62
     7
100
AcDbLine
 10
3.029513629685407
 20
-0.6897291546164
 30
0.0
 11
3.030865474914833
 21
-0.6910809998458351
 31
0.0
  0
LINE
  5
1F8
330
1A
100
AcDbEntity
  8
1_TOP
  6
CONTINUOUS
 62
     7
100
AcDbLine
 10
-0.6313895806502235
 20
-4.547895439465288
 30
0.0
 11
-0.7435927346945337
 21
-4.547895439465288
 31
0.0
  0
LINE
  5
20B
330
1A
100
AcDbEntity
  8
1_TOP
  6
CONTINUOUS
 62
     7
100
AcDbLine
 10
-2.557662703629466
 20
4.264783611316087
 30
0.0
 11
-2.499533358763139
 21
4.345894325083133
 31
0.0
  0
LINE
  5
20C
330
1A
100
AcDbEntity
  8
1_TOP
  6
CONTINUOUS
 62
     7
100
AcDbLine
 10
3.113328033911304
 20
2.843994275164696
 30
0.0
 11
3.111976188681797
 21
2.843994275164696
 31
0.0
  0
LINE
  5
20D
330
1A
100
AcDbEntity
  8
1_TOP
  6
CONTINUOUS
 62
     7
100
AcDbLine
 10
-3.318751567809552
 20
-0.5707667744248209
 30
0.0
 11
-3.328214484415692
 21
-0.5748223101131856
 31
0.0
  0
LINE
  5
211
330
1A
100
AcDbEntity
  8
1_TOP
  6
CONTINUOUS
 62
     7
100
AcDbLine
 10
-2.806402225848183
 20
4.345894325083133
 30
0.0
 11
-2.746921035752401
 21
4.264783611316087
 31
0.0
  0
LINE
  5
215
330
1A
100
AcDbEntity
  8
1_TOP
  6
CONTINUOUS
 62
     7
100
AcDbLine
 10
-1.71816681614132
 20
4.570300633171688
 30
0.0
 11
-1.71816681614132
 21
4.221524563973762
 31
0.0
  0
LINE
  5
222
330
1A
100
AcDbEntity
  8
1_TOP
  6
CONTINUOUS
 62
     7
100
AcDbLine
 10
3.110624343452369
 20
3.030548916828712
 30
0.0
 11
3.110624343452369
 21
3.075159809400553
 31
0.0
  0
LINE
  5
228
330
1A
100
AcDbEntity
  8
1_TOP
  6
CONTINUOUS
 62
     7
100
AcDbLine
 10
3.122790950517372
 20
5.496314615344615
 30
0.0
 11
3.10251327207564
 21
5.494962770115193
 31
0.0
  0
LINE
  5
229
330
1A
100
AcDbEntity
  8
1_TOP
  6
CONTINUOUS
 62
     7
100
AcDbLine
 10
-2.033146754603054
 20
-0.5302114175413442
 30
0.0
 11
-2.031794909373608
 21
-0.5248040366235534
 31
0.0
  0
LINE
  5
22C
330
1A
100
AcDbEntity
  8
1_TOP
  6
CONTINUOUS
 62
     7
100
AcDbLine
 10
3.189031366760466
 20
5.469277710755656
 30
0.0
 11
3.189031366760466
 21
5.488203543967967
 31
0.0
  0
LINE
  5
22E
330
1A
100
AcDbEntity
  8
1_TOP
  6
CONTINUOUS
 62
     7
100
AcDbLine
 10
-4.502967988807327
 20
-0.6059147503905156
 30
0.0
 11
-4.508375369725126
 21
-0.6045629051610804
 31
0.0
  0
LINE
  5
22F
330
1A
100
AcDbEntity
  8
1_TOP
  6
CONTINUOUS
 62
     7
100
AcDbLine
 10
-0.5435196407359993
 20
-4.487062404140064
 30
0.0
 11
-0.5502788668832519
 21
-4.481655023222264
 31
0.0
  0
LINE
  5
231
330
1A
100
AcDbEntity
  8
1_TOP
  6
CONTINUOUS
 62
     7
100
AcDbLine
 10
3.349900949064952
 20
5.607165924159475
 30
0.0
 11
3.349900949064952
 21
5.540925507916457
 31
0.0
  0
LINE
  5
232
330
1A
100
AcDbEntity
  8
1_TOP
  6
CONTINUOUS
 62
     7
100
AcDbLine
 10
-1.778999851466545
 20
4.60139307344909
 30
0.0
 11
-1.749259256418658
 21
4.60139307344909
 31
0.0
  0
LINE
  5
237
330
1A
100
AcDbEntity
  8
1_TOP
  6
CONTINUOUS
 62
     7
100
AcDbLine
 10
-4.667999435786487
 20
-4.472192106616118
 30
0.0
 11
-4.68016604285153
 21
-4.472192106616118
 31
0.0
  0
LINE
  5
238
330
1A
100
AcDbEntity
  8
1_TOP
  6
CONTINUOUS
 62
     7
100
AcDbLine
 10
3.352604639523808
 20
5.40168544928314
 30
0.0
 11
3.295827139886948
 21
4.454041943439046
 31
0.0
  0
LINE
  5
23A
330
1A
100
AcDbEntity
  8
1_TOP
  6
CONTINUOUS
 62
     7
100
AcDbLine
 10
-4.74505461386511
 20
-4.492469785057854
 30
0.0
 11
-4.758573066159605
 21
-4.507340082581802
 31
0.0
  0
LINE
  5
23B
330
1A
100
AcDbEntity
  8
1_TOP
  6
CONTINUOUS
 62
     7
100
AcDbLine
 10
3.051143153356579
 20
4.279653908840034
 30
0.0
 11
3.04573577243878
 21
4.105265874241117
 31
0.0
  0
LINE
  5
241
330
1A
100
AcDbEntity
  8
1_TOP
  6
CONTINUOUS
 62
     7
100
AcDbLine
 10
3.04573577243878
 20
4.105265874241117
 30
0.0
 11
3.04573577243878
 21
4.102562183782175
 31
0.0
  0
LINE
  5
245
330
1A
100
AcDbEntity
  8
1_TOP
  6
CONTINUOUS
 62
     7
100
AcDbLine
 10
3.044383927209351
 20
4.486486228945869
 30
0.0
 11
3.040328391520987
 21
4.486486228945869
 31
0.0
  0
LINE
  5
248
330
1A
100
AcDbEntity
  8
1_TOP
  6
CONTINUOUS
 62
     7
100
AcDbLine
 10
-2.770008733639356
 20
-4.531673296711896
 30
0.0
 11
-2.824082542817336
 21
-4.531673296711896
 31
0.0
  0
LINE
  5
24A
330
1A
100
AcDbEntity
  8
1_TOP
  6
CONTINUOUS
 62
     7
100
AcDbLine
 10
4.824764094394346
 20
-0.0827506465934978
 30
0.0
 11
4.824764094394346
 21
4.322912956182449
 31
0.0
  0
LINE
  5
24F
330
1A
100
AcDbEntity
  8
1_TOP
  6
CONTINUOUS
 62
     7
100
AcDbLine
 10
-1.336946461436557
 20
-0.5748223101131856
 30
0.0
 11
-0.8016157505745425
 21
-0.5748223101131856
 31
0.0
  0
LINE
  5
252
330
1A
100
AcDbEntity
  8
1_TOP
  6
CONTINUOUS
 62
     7
100
AcDbLine
 10
3.043032081979845
 20
-0.6667477857157261
 30
0.0
 11
3.043032081979845
 21
-0.6775625475513168
 31
0.0
  0
LINE
  5
254
330
1A
100
AcDbEntity
  8
1_TOP
  6
CONTINUOUS
 62
     7
100
AcDbLine
 10
3.113328033911304
 20
3.094085642612857
 30
0.0
 11
3.111976188681797
 21
3.094085642612857
 31
0.0
  0
LINE
  5
255
330
1A
100
AcDbEntity
  8
1_TOP
  6
CONTINUOUS
 62
     7
100
AcDbLine
 10
-3.927081921061835
 20
-0.5166929652468328
 30
0.0
 11
-3.921674540144034
 21
-0.5153411200174048
 31
0.0
  0
LINE
  5
259
330
1A
100
AcDbEntity
  8
1_TOP
  6
CONTINUOUS
 62
     7
100
AcDbLine
 10
3.029513629685407
 20
-0.6343035002088947
 30
0.0
 11
3.029513629685407
 21
-0.6315998097500404
 31
0.0
  0
LINE
  5
25C
330
1A
100
AcDbEntity
  8
1_TOP
  6
CONTINUOUS
 62
     7
100
AcDbLine
 10
-1.392372115843981
 20
-0.5180448104762592
 30
0.0
 11
-1.386964734926189
 21
-0.5166929652468328
 31
0.0
  0
LINE
  5
25E
330
1A
100
AcDbEntity
  8
1_TOP
  6
CONTINUOUS
 62
     7
100
AcDbLine
 10
3.055198689044944
 20
-0.646470107273994
 30
0.0
 11
3.055198689044944
 21
-0.6424145715856222
 31
0.0
  0
LINE
  5
261
330
1A
100
AcDbEntity
  8
1_TOP
  6
CONTINUOUS
 62
     7
100
AcDbLine
 10
3.055198689044944
 20
-0.6680996309451524
 30
0.0
 11
3.055198689044944
 21
-0.6775625475513168
 31
0.0
  0
LINE
  5
263
330
1A
100
AcDbEntity
  8
1_TOP
  6
CONTINUOUS
 62
     7
100
AcDbLine
 10
-2.725397841067522
 20
-4.531673296711896
 30
0.0
 11
-2.655101889136149
 21
-4.531673296711896
 31
0.0
  0
LINE
  5
264
330
1A
100
AcDbEntity
  8
1_TOP
  6
CONTINUOUS
 62
     7
100
AcDbLine
 10
-3.586416923240555
 20
4.570300633171688
 30
0.0
 11
-3.555324482963216
 21
4.60139307344909
 31
0.0
  0
LINE
  5
266
330
1A
100
AcDbEntity
  8
1_TOP
  6
CONTINUOUS
 62
     7
100
AcDbLine
 10
3.091698510240058
 20
-0.7154142139759374
 30
0.0
 11
3.093050355469479
 21
-0.7100068330581393
 31
0.0
  0
LINE
  5
26B
330
1A
100
AcDbEntity
  8
1_TOP
  6
CONTINUOUS
 62
     7
100
AcDbLine
 10
-1.716814970911868
 20
4.395912598572755
 30
0.0
 11
-1.715463125682417
 21
4.221524563973762
 31
0.0
  0
LINE
  5
26C
330
1A
100
AcDbEntity
  8
1_TOP
  6
CONTINUOUS
 62
     7
100
AcDbLine
 10
3.080883748404467
 20
-0.7208215948937302
 30
0.0
 11
3.025458093997049
 21
-0.7208215948937302
 31
0.0
  0
LINE
  5
26E
330
1A
100
AcDbEntity
  8
1_TOP
  6
CONTINUOUS
 62
     7
100
AcDbLine
 10
-2.625361294088262
 20
-4.531673296711896
 30
0.0
 11
-2.606435460875968
 21
-4.531673296711896
 31
0.0
  0
LINE
  5
26F
330
1A
100
AcDbEntity
  8
1_TOP
  6
CONTINUOUS
 62
     7
100
AcDbLine
 10
-3.570194780487156
 20
4.598689382990148
 30
0.0
 11
-3.559380018651566
 21
4.60139307344909
 31
0.0
  0
LINE
  5
273
330
1A
100
AcDbEntity
  8
1_TOP
  6
CONTINUOUS
 62
     7
100
AcDbLine
 10
-1.791272787517909
 20
-4.35187788119511
 30
0.0
 11
-1.789920942288457
 21
-4.323489131376668
 31
0.0
  0
LINE
  5
275
330
1A
100
AcDbEntity
  8
1_TOP
  6
CONTINUOUS
 62
     7
100
AcDbLine
 10
3.110624343452369
 20
3.094085642612857
 30
0.0
 11
3.110624343452369
 21
3.09273379738335
 31
0.0
  0
LINE
  5
276
330
1A
100
AcDbEntity
  8
1_TOP
  6
CONTINUOUS
 62
     7
100
AcDbLine
 10
3.04573577243878
 20
-0.6910809998458351
 30
0.0
 11
3.04573577243878
 21
-0.6897291546164
 31
0.0
  0
LINE
  5
27A
330
1A
100
AcDbEntity
  8
1_TOP
  6
CONTINUOUS
 62
     7
100
AcDbLine
 10
-2.222511415712305
 20
-4.323489131376668
 30
0.0
 11
-2.22386326094175
 21
-4.299155917246581
 31
0.0
  0
LINE
  5
27F
330
1A
100
AcDbEntity
  8
1_TOP
  6
CONTINUOUS
 62
     7
100
AcDbLine
 10
-0.7935046791978447
 20
-0.5775260005720489
 30
0.0
 11
-0.7894491435094987
 21
-0.5815815362604062
 31
0.0
  0
LINE
  5
283
330
1A
100
AcDbEntity
  8
1_TOP
  6
CONTINUOUS
 62
     7
100
AcDbLine
 10
-3.696022715812283
 20
-4.35187788119511
 30
0.0
 11
-3.69467087058283
 21
-4.323489131376668
 31
0.0
  0
LINE
  5
284
330
1A
100
AcDbEntity
  8
1_TOP
  6
CONTINUOUS
 62
     7
100
AcDbLine
 10
3.020050713079249
 20
-0.6910809998458351
 30
0.0
 11
3.020050713079249
 21
-0.6870254641574708
 31
0.0
  0
LINE
  5
285
330
1A
100
AcDbEntity
  8
1_TOP
  6
CONTINUOUS
 62
     7
100
AcDbLine
 10
-5.003150723703654
 20
5.620684376453983
 30
0.0
 11
-4.96800274773796
 21
5.753165208940091
 31
0.0
  0
LINE
  5
287
330
1A
100
AcDbEntity
  8
1_TOP
  6
CONTINUOUS
 62
     7
100
AcDbLine
 10
-3.057951767512106
 20
-4.27211901265759
 30
0.0
 11
-3.059303612741559
 21
-4.299155917246581
 31
0.0
  0
LINE
  5
28C
330
1A
100
AcDbEntity
  8
1_TOP
  6
CONTINUOUS
 62
     7
100
AcDbLine
 10
3.111976188681797
 20
2.772346478003896
 30
0.0
 11
3.111976188681797
 21
2.780457549380543
 31
0.0
  0
LINE
  5
28F
330
1A
100
AcDbEntity
  8
1_TOP
  6
CONTINUOUS
 62
     7
100
AcDbLine
 10
-2.903841411354865
 20
-4.531673296711896
 30
0.0
 11
-2.922767244567154
 21
-4.531673296711896
 31
0.0
  0
LINE
  5
295
330
1A
100
AcDbEntity
  8
1_TOP
  6
CONTINUOUS
 62
     7
100
AcDbLine
 10
3.10251327207564
 20
5.494962770115193
 30
0.0
 11
3.066013450880528
 21
4.990724499530496
 31
0.0
  0
LINE
  5
296
330
1A
100
AcDbEntity
  8
1_TOP
  6
CONTINUOUS
 62
     7
100
AcDbLine
 10
-0.5056679743114172
 20
-4.561413891759783
 30
0.0
 11
-0.5421677955065563
 21
-4.561413891759783
 31
0.0
  0
LINE
  5
29C
330
1A
100
AcDbEntity
  8
1_TOP
  6
CONTINUOUS
 62
     7
100
AcDbLine
 10
-0.4907976767874676
 20
-5.271132637220786
 30
0.0
 11
-0.4259091057738953
 21
-5.160281328405918
 31
0.0
  0
LINE
  5
2A1
330
1A
100
AcDbEntity
  8
1_TOP
  6
CONTINUOUS
 62
     7
100
AcDbLine
 10
3.113328033911304
 20
3.021086000222549
 30
0.0
 11
3.113328033911304
 21
3.094085642612857
 31
0.0
  0
LINE
  5
2A2
330
1A
100
AcDbEntity
  8
1_TOP
  6
CONTINUOUS
 62
     7
100
AcDbLine
 10
-1.788569097059011
 20
-4.27211901265759
 30
0.0
 11
-1.589847848329933
 21
-4.27211901265759
 31
0.0
  0
LINE
  5
2A3
330
1A
100
AcDbEntity
  8
1_TOP
  6
CONTINUOUS
 62
     7
100
AcDbLine
 10
-3.901396861702288
 20
-0.5626557030481023
 30
0.0
 11
-3.905452397390645
 21
-0.5531927864419448
 31
0.0
  0
LINE
  5
2A6
330
1A
100
AcDbEntity
  8
1_TOP
  6
CONTINUOUS
 62
     7
100
AcDbLine
 10
-0.7746851749718729
 20
-4.27211901265759
 30
0.0
 11
-0.9558324357181028
 21
-4.27211901265759
 31
0.0
  0
LINE
  5
2B6
330
1A
100
AcDbEntity
  8
1_TOP
  6
CONTINUOUS
 62
     7
100
AcDbLine
 10
-3.272788830008267
 20
-0.5437298698357822
 30
0.0
 11
-3.272788830008267
 21
-0.5302114175413442
 31
0.0
  0
LINE
  5
2B8
330
1A
100
AcDbEntity
  8
1_TOP
  6
CONTINUOUS
 62
     7
100
AcDbLine
 10
-4.699091876063825
 20
-4.912893651416663
 30
0.0
 11
-4.712610328358319
 21
-5.284651089515281
 31
0.0
  0
LINE
  5
2BB
330
1A
100
AcDbEntity
  8
1_TOP
  6
CONTINUOUS
 62
     7
100
AcDbLine
 10
-4.539574138988784
 20
-4.561413891759783
 30
0.0
 11
-4.538222293759333
 21
-4.35187788119511
 31
0.0
  0
LINE
  5
2C1
330
1A
100
AcDbEntity
  8
1_TOP
  6
CONTINUOUS
 62
     7
100
AcDbLine
 10
-4.129965034465577
 20
-4.27211901265759
 30
0.0
 11
-4.327334437965208
 21
-4.27211901265759
 31
0.0
  0
LINE
  5
2C2
330
1A
100
AcDbEntity
  8
1_TOP
  6
CONTINUOUS
 62
     7
100
AcDbLine
 10
3.110624343452369
 20
2.780457549380543
 30
0.0
 11
3.110624343452369
 21
2.843994275164696
 31
0.0
  0
LINE
  5
2C6
330
1A
100
AcDbEntity
  8
1_TOP
  6
CONTINUOUS
 62
     7
100
AcDbLine
 10
-3.237747183028892
 20
-4.27211901265759
 30
0.0
 11
-3.057951767512106
 21
-4.27211901265759
 31
0.0
  0
LINE
  5
2C7
330
1A
100
AcDbEntity
  8
1_TOP
  6
CONTINUOUS
 62
     7
100
AcDbLine
 10
-0.4055250983458397
 20
5.517944139015862
 30
0.0
 11
-0.4568952170649132
 21
5.527407055621944
 31
0.0
  0
LINE
  5
2CC
330
1A
100
AcDbEntity
  8
1_TOP
  6
CONTINUOUS
 62
     7
100
AcDbLine
 10
-4.508481698711446
 20
-4.27211901265759
 30
0.0
 11
-4.511185389170343
 21
-4.35187788119511
 31
0.0
  0
LINE
  5
2CF
330
1A
100
AcDbEntity
  8
1_TOP
  6
CONTINUOUS
 62
     7
100
AcDbLine
 10
3.322864044475913
 20
-4.339711274130067
 30
0.0
 11
3.313401127869756
 21
-4.364044488260153
 31
0.0
  0
LINE
  5
2D5
330
1A
100
AcDbEntity
  8
1_TOP
  6
CONTINUOUS
 62
     7
100
AcDbLine
 10
3.978508980758934
 20
-4.365396333489606
 30
0.0
 11
3.943361004793255
 21
-4.365396333489606
 31
0.0
  0
LINE
  5
2D6
330
1A
100
AcDbEntity
  8
1_TOP
  6
CONTINUOUS
 62
     7
100
AcDbLine
 10
-2.667162167214881
 20
-0.5437298698357822
 30
0.0
 11
-2.667162167214881
 21
-0.5302114175413442
 31
0.0
  0
LINE
  5
2D9
330
1A
100
AcDbEntity
  8
1_TOP
  6
CONTINUOUS
 62
     7
100
AcDbLine
 10
-4.704392927995305
 20
5.599054852782817
 30
0.0
 11
-4.723318761207599
 21
5.57742532911158
 31
0.0
  0
LINE
  5
2DE
330
1A
100
AcDbEntity
  8
1_TOP
  6
CONTINUOUS
 62
     7
100
AcDbLine
 10
4.01365695672462
 20
-4.365396333489606
 30
0.0
 11
3.960934992776129
 21
-4.365396333489606
 31
0.0
  0
LINE
  5
2DF
330
1A
100
AcDbEntity
  8
1_TOP
  6
CONTINUOUS
 62
     7
100
AcDbLine
 10
-0.6313895806502235
 20
-4.472192106616118
 30
0.0
 11
-0.6313895806502235
 21
-4.493821630287307
 31
0.0
  0
LINE
  5
2E5
330
1A
100
AcDbEntity
  8
1_TOP
  6
CONTINUOUS
 62
     7
100
AcDbLine
 10
3.978508980758934
 20
-4.365396333489606
 30
0.0
 11
3.986620052135659
 21
-4.365396333489606
 31
0.0
  0
LINE
  5
2E7
330
1A
100
AcDbEntity
  8
1_TOP
  6
CONTINUOUS
 62
     7
100
AcDbLine
 10
3.022754403538113
 20
3.788934090549862
 30
0.0
 11
3.021402558308684
 21
3.50369474713609
 31
0.0
  0
LINE
  5
2ED
330
1A
100
AcDbEntity
  8
1_TOP
  6
CONTINUOUS
 62
     7
100
AcDbLine
 10
3.978508980758934
 20
-4.365396333489606
 30
0.0
 11
4.032582789936938
 21
-4.365396333489606
 31
0.0
  0
LINE
  5
2F4
330
1A
100
AcDbEntity
  8
1_TOP
  6
CONTINUOUS
 62
     7
100
AcDbLine
 10
4.032582789936938
 20
-4.365396333489606
 30
0.0
 11
3.943361004793255
 21
-4.365396333489606
 31
0.0
  0
LINE
  5
2FA
330
1A
100
AcDbEntity
  8
1_TOP
  6
CONTINUOUS
 62
     7
100
AcDbLine
 10
3.951472076169975
 20
-4.365396333489606
 30
0.0
 11
3.978508980758934
 21
-4.365396333489606
 31
0.0
  0
LINE
  5
2FE
330
1A
100
AcDbEntity
  8
1_TOP
  6
CONTINUOUS
 62
     7
100
AcDbLine
 10
3.752750827440871
 20
-4.365396333489606
 30
0.0
 11
3.841972612584552
 21
-4.365396333489606
 31
0.0
  0
LINE
  5
304
330
1A
100
AcDbEntity
  8
1_TOP
  6
CONTINUOUS
 62
     7
100
AcDbLine
 10
-2.422584509670833
 20
-4.27211901265759
 30
0.0
 11
-2.603731770417072
 21
-4.27211901265759
 31
0.0
  0
LINE
  5
306
330
1A
100
AcDbEntity
  8
1_TOP
  6
CONTINUOUS
 62
     7
100
AcDbLine
 10
4.850449153753878
 20
-5.118374126292988
 30
0.0
 11
4.846393618065515
 21
-5.122429661981336
 31
0.0
  0
LINE
  5
309
330
1A
100
AcDbEntity
  8
1_TOP
  6
CONTINUOUS
 62
     7
100
AcDbLine
 10
-1.992591397719566
 20
-0.5667112387364579
 30
0.0
 11
-1.999350623866817
 21
-0.5586001673597377
 31
0.0
  0
LINE
  5
30B
330
1A
100
AcDbEntity
  8
1_TOP
  6
CONTINUOUS
 62
     7
100
AcDbLine
 10
4.874782367883982
 20
-4.382970321472449
 30
0.0
 11
3.431011662831909
 21
-4.382970321472449
 31
0.0
  0
LINE
  5
30F
330
1A
100
AcDbEntity
  8
1_TOP
  6
CONTINUOUS
 62
     7
100
AcDbLine
 10
3.429659817602481
 20
-4.395136928537492
 30
0.0
 11
3.341789877688217
 21
-4.395136928537492
 31
0.0
  0
LINE
  5
312
330
1A
100
AcDbEntity
  8
1_TOP
  6
CONTINUOUS
 62
     7
100
AcDbLine
 10
4.009601421036264
 20
-4.971022996282992
 30
0.0
 11
4.010953266265765
 21
-4.994004365183635
 31
0.0
  0
LINE
  5
315
330
1A
100
AcDbEntity
  8
1_TOP
  6
CONTINUOUS
 62
     7
100
AcDbLine
 10
3.9284907072693
 20
-4.971022996282992
 30
0.0
 11
3.943361004793255
 21
-4.697950259934191
 31
0.0
  0
LINE
  5
316
330
1A
100
AcDbEntity
  8
1_TOP
  6
CONTINUOUS
 62
     7
100
AcDbLine
 10
-2.678083258036792
 20
-4.531673296711896
 30
0.0
 11
-2.625361294088262
 21
-4.531673296711896
 31
0.0
  0
LINE
  5
31B
330
1A
100
AcDbEntity
  8
1_TOP
  6
CONTINUOUS
 62
     7
100
AcDbLine
 10
4.409747608953326
 20
-4.971022996282992
 30
0.0
 11
4.417858680330052
 21
-5.118374126292988
 31
0.0
  0
LINE
  5
31F
330
1A
100
AcDbEntity
  8
1_TOP
  6
CONTINUOUS
 62
     7
100
AcDbLine
 10
4.742301535397956
 20
-4.304563298164373
 30
0.0
 11
4.742301535397956
 21
-4.104490204205847
 31
0.0
  0
LINE
  5
320
330
1A
100
AcDbEntity
  8
1_TOP
  6
CONTINUOUS
 62
     7
100
AcDbLine
 10
3.020050713079249
 20
-0.6829699284691078
 30
0.0
 11
3.020050713079249
 21
-0.6748588570924607
 31
0.0
  0
LINE
  5
323
330
1A
100
AcDbEntity
  8
1_TOP
  6
CONTINUOUS
 62
     7
100
AcDbLine
 10
3.202549819054908
 20
-4.395136928537492
 30
0.0
 11
3.305290056493105
 21
-4.395136928537492
 31
0.0
  0
LINE
  5
32F
330
1A
100
AcDbEntity
  8
1_TOP
  6
CONTINUOUS
 62
     7
100
AcDbLine
 10
-1.153201839217731
 20
-4.27211901265759
 30
0.0
 11
-1.332997254734518
 21
-4.27211901265759
 31
0.0
  0
LINE
  5
33B
330
1A
100
AcDbEntity
  8
1_TOP
  6
CONTINUOUS
 62
     7
100
AcDbLine
 10
3.386400770260067
 20
-4.305915143393824
 30
0.0
 11
3.368826782277263
 21
-4.307266988623276
 31
0.0
  0
LINE
  5
34A
330
1A
100
AcDbEntity
  8
1_TOP
  6
CONTINUOUS
 62
     7
100
AcDbLine
 10
3.187679521530959
 20
5.499018305803551
 30
0.0
 11
3.184975831072105
 21
5.501721996262407
 31
0.0
  0
LINE
  5
34C
330
1A
100
AcDbEntity
  8
1_TOP
  6
CONTINUOUS
 62
     7
100
AcDbLine
 10
-3.968989123174765
 20
-0.5748223101131856
 30
0.0
 11
-4.502967988807327
 21
-0.5748223101131856
 31
0.0
  0
LINE
  5
354
330
1A
100
AcDbEntity
  8
1_TOP
  6
CONTINUOUS
 62
     7
100
AcDbLine
 10
-1.734388958894711
 20
4.598689382990148
 30
0.0
 11
-1.724926042288565
 21
4.591930156842936
 31
0.0
  0
LINE
  5
355
330
1A
100
AcDbEntity
  8
1_TOP
  6
CONTINUOUS
 62
     7
100
AcDbLine
 10
3.110624343452369
 20
2.754772490021006
 30
0.0
 11
3.110624343452369
 21
2.772346478003896
 31
0.0
  0
LINE
  5
359
330
1A
100
AcDbEntity
  8
1_TOP
  6
CONTINUOUS
 62
     7
100
AcDbLine
 10
-1.715463125682417
 20
4.218820873514816
 30
0.0
 11
-1.71816681614132
 21
4.208006111679242
 31
0.0
  0
LINE
  5
35F
330
1A
100
AcDbEntity
  8
1_TOP
  6
CONTINUOUS
 62
     7
100
AcDbLine
 10
-2.652291869690934
 20
4.556782180877242
 30
0.0
 11
-2.746921035752401
 21
4.525689740599919
 31
0.0
  0
LINE
  5
368
330
1A
100
AcDbEntity
  8
1_TOP
  6
CONTINUOUS
 62
     7
100
AcDbLine
 10
-2.692847226574419
 20
-0.5748223101131856
 30
0.0
 11
-2.69960645272167
 21
-0.5748223101131856
 31
0.0
  0
LINE
  5
370
330
1A
100
AcDbEntity
  8
1_TOP
  6
CONTINUOUS
 62
     7
100
AcDbLine
 10
-4.651777293033094
 20
-4.472192106616118
 30
0.0
 11
-4.667999435786487
 21
-4.472192106616118
 31
0.0
  0
LINE
  5
37D
330
1A
100
AcDbEntity
  8
1_TOP
  6
CONTINUOUS
 62
     7
100
AcDbLine
 10
3.057902379503798
 20
4.475671467110293
 30
0.0
 11
3.057902379503798
 21
4.467560395733565
 31
0.0
  0
LINE
  5
394
330
1A
100
AcDbEntity
  8
1_TOP
  6
CONTINUOUS
 62
     7
100
AcDbLine
 10
3.111976188681797
 20
3.083270880777275
 30
0.0
 11
3.110624343452369
 21
3.004863857469173
 31
0.0
  0
LINE
  5
39D
330
1A
100
AcDbEntity
  8
1_TOP
  6
CONTINUOUS
 62
     7
100
AcDbLine
 10
-4.651777293033094
 20
-4.472192106616118
 30
0.0
 11
-4.651777293033094
 21
-4.493821630287307
 31
0.0
  0
LINE
  5
39F
330
1A
100
AcDbEntity
  8
1_TOP
  6
CONTINUOUS
 62
     7
100
AcDbLine
 10
-1.368038901713896
 20
-0.5437298698357822
 30
0.0
 11
-1.368038901713896
 21
-0.5302114175413442
 31
0.0
  0
LINE
  5
3AD
330
1A
100
AcDbEntity
  8
1_TOP
  6
CONTINUOUS
 62
     7
100
AcDbLine
 10
-2.563176413533584
 20
-4.531673296711896
 30
0.0
 11
-2.526676592338447
 21
-4.531673296711896
 31
0.0
  0
LINE
  5
3B9
330
1A
100
AcDbEntity
  8
1_TOP
  6
CONTINUOUS
 62
     7
100
AcDbLine
 10
-1.335700945193422
 20
-4.35187788119511
 30
0.0
 11
-1.332997254734518
 21
-4.27211901265759
 31
0.0
  0
LINE
  5
3C4
330
1A
100
AcDbEntity
  8
1_TOP
  6
CONTINUOUS
 62
     7
100
AcDbLine
 10
-1.40994610382683
 20
-0.5694149291953213
 30
0.0
 11
-1.419409020432972
 21
-0.573470464883677
 31
0.0
  0
LINE
  5
3D5
330
1A
100
AcDbEntity
  8
1_TOP
  6
CONTINUOUS
 62
     7
100
AcDbLine
 10
3.113328033911304
 20
2.765587251856597
 30
0.0
 11
3.113328033911304
 21
2.772346478003896
 31
0.0
  0
LINE
  5
3D7
330
1A
100
AcDbEntity
  8
1_TOP
  6
CONTINUOUS
 62
     7
100
AcDbLine
 10
3.431011662831909
 20
-4.327544667065016
 30
0.0
 11
3.431011662831909
 21
-4.382970321472449
 31
0.0
  0
LINE
  5
3D8
330
1A
100
AcDbEntity
  8
1_TOP
  6
CONTINUOUS
 62
     7
100
AcDbLine
 10
-2.636069726937543
 20
-0.5558964769008743
 30
0.0
 11
-2.637421572166994
 21
-0.5450817150652996
 31
0.0
  0
LINE
  5
3DD
330
1A
100
AcDbEntity
  8
1_TOP
  6
CONTINUOUS
 62
     7
100
AcDbLine
 10
3.010587796473092
 20
-0.6613404047979332
 30
0.0
 11
3.010587796473092
 21
-0.6599885595685054
 31
0.0
  0
LINE
  5
3DE
330
1A
100
AcDbEntity
  8
1_TOP
  6
CONTINUOUS
 62
     7
100
AcDbLine
 10
3.026809939226476
 20
4.074173433963716
 30
0.0
 11
3.022754403538113
 21
3.788934090549862
 31
0.0
  0
LINE
  5
3E1
330
1A
100
AcDbEntity
  8
1_TOP
  6
CONTINUOUS
 62
     7
100
AcDbLine
 10
3.010587796473092
 20
-0.639710881126775
 30
0.0
 11
3.010587796473092
 21
-0.6451182620445659
 31
0.0
  0
LINE
  5
3E8
330
1A
100
AcDbEntity
  8
1_TOP
  6
CONTINUOUS
 62
     7
100
AcDbLine
 10
3.029513629685407
 20
-0.646470107273994
 30
0.0
 11
3.020050713079249
 21
-0.646470107273994
 31
0.0
  0
LINE
  5
3EB
330
1A
100
AcDbEntity
  8
1_TOP
  6
CONTINUOUS
 62
     7
100
AcDbLine
 10
3.110624343452369
 20
3.094085642612857
 30
0.0
 11
3.110624343452369
 21
3.09273379738335
 31
0.0
  0
LINE
  5
3F2
330
1A
100
AcDbEntity
  8
1_TOP
  6
CONTINUOUS
 62
     7
100
AcDbLine
 10
-4.563801024132559
 20
-0.776247249301155
 30
0.0
 11
-4.550282571838064
 21
-0.6613404047979332
 31
0.0
  0
LINE
  5
3F3
330
1A
100
AcDbEntity
  8
1_TOP
  6
CONTINUOUS
 62
     7
100
AcDbLine
 10
3.110624343452369
 20
3.076511654629983
 30
0.0
 11
3.110624343452369
 21
3.094085642612857
 31
0.0
  0
LINE
  5
3F9
330
1A
100
AcDbEntity
  8
1_TOP
  6
CONTINUOUS
 62
     7
100
AcDbLine
 10
-4.843632986628606
 20
3.619953436868724
 30
0.0
 11
-4.731429832584296
 21
3.619953436868724
 31
0.0
  0
LINE
  5
3FB
330
1A
100
AcDbEntity
  8
1_TOP
  6
CONTINUOUS
 62
     7
100
AcDbLine
 10
3.082235593633902
 20
-0.7059512973697748
 30
0.0
 11
3.082235593633902
 21
-0.7113586782875743
 31
0.0
  0
LINE
  5
403
330
1A
100
AcDbEntity
  8
1_TOP
  6
CONTINUOUS
 62
     7
100
AcDbLine
 10
-4.646263583128975
 20
5.730183840039407
 30
0.0
 11
-4.650319118817323
 21
5.616628840765627
 31
0.0
  0
LINE
  5
406
330
1A
100
AcDbEntity
  8
1_TOP
  6
CONTINUOUS
 62
     7
100
AcDbLine
 10
-1.985832171572323
 20
5.611221459847829
 30
0.0
 11
-3.320103413038998
 21
5.611221459847829
 31
0.0
  0
LINE
  5
40A
330
1A
100
AcDbEntity
  8
1_TOP
  6
CONTINUOUS
 62
     7
100
AcDbLine
 10
-0.7867454530506042
 20
-0.591044452866562
 30
0.0
 11
-0.7880972982800474
 21
-0.5964518337843599
 31
0.0
  0
LINE
  5
418
330
1A
100
AcDbEntity
  8
1_TOP
  6
CONTINUOUS
 62
     7
100
AcDbLine
 10
3.111976188681797
 20
2.843994275164696
 30
0.0
 11
3.113328033911304
 21
2.843994275164696
 31
0.0
  0
LINE
  5
41A
330
1A
100
AcDbEntity
  8
1_TOP
  6
CONTINUOUS
 62
     7
100
AcDbLine
 10
-2.770008733639356
 20
-4.531673296711896
 30
0.0
 11
-2.761897662262661
 21
-4.531673296711896
 31
0.0
  0
LINE
  5
420
330
1A
100
AcDbEntity
  8
1_TOP
  6
CONTINUOUS
 62
     7
100
AcDbLine
 10
-1.39777949676178
 20
-0.5437298698357822
 30
0.0
 11
-1.39777949676178
 21
-0.5302114175413442
 31
0.0
  0
LINE
  5
42F
330
1A
100
AcDbEntity
  8
1_TOP
  6
CONTINUOUS
 62
     7
100
AcDbLine
 10
3.021402558308684
 20
3.50369474713609
 30
0.0
 11
3.021402558308684
 21
-0.6315998097500404
 31
0.0
  0
LINE
  5
437
330
1A
100
AcDbEntity
  8
1_TOP
  6
CONTINUOUS
 62
     7
100
AcDbLine
 10
4.720672011726716
 20
4.770373727130222
 30
0.0
 11
4.824764094394346
 21
4.773077417589152
 31
0.0
  0
LINE
  5
443
330
1A
100
AcDbEntity
  8
1_TOP
  6
CONTINUOUS
 62
     7
100
AcDbLine
 10
-2.476658318848813
 20
-4.531673296711896
 30
0.0
 11
-2.468547247472118
 21
-4.531673296711896
 31
0.0
  0
LINE
  5
446
330
1A
100
AcDbEntity
  8
1_TOP
  6
CONTINUOUS
 62
     7
100
AcDbLine
 10
-2.007461695243513
 20
-0.5193966557057605
 30
0.0
 11
-2.004758004784617
 21
-0.523452191394052
 31
0.0
  0
LINE
  5
45E
330
1A
100
AcDbEntity
  8
1_TOP
  6
CONTINUOUS
 62
     7
100
AcDbLine
 10
-3.493245931394851
 20
-4.323489131376668
 30
0.0
 11
-3.493245931394851
 21
-4.299155917246581
 31
0.0
  0
LINE
  5
465
330
1A
100
AcDbEntity
  8
1_TOP
  6
CONTINUOUS
 62
     7
100
AcDbLine
 10
-2.792883773553687
 20
-0.6059147503905156
 30
0.0
 11
-3.933841147209079
 21
-0.6059147503905156
 31
0.0
  0
LINE
  5
479
330
1A
100
AcDbEntity
  8
1_TOP
  6
CONTINUOUS
 62
     7
100
AcDbLine
 10
-2.033146754603054
 20
-0.5437298698357822
 30
0.0
 11
-2.033146754603054
 21
-0.5477854055241469
 31
0.0
  0
LINE
  5
47F
330
1A
100
AcDbEntity
  8
1_TOP
  6
CONTINUOUS
 62
     7
100
AcDbLine
 10
-1.991239552490122
 20
5.776146577840676
 30
0.0
 11
-0.669134918088494
 21
5.781553958758467
 31
0.0
  0
LINE
  5
4A2
330
1A
100
AcDbEntity
  8
1_TOP
  6
CONTINUOUS
 62
     7
100
AcDbLine
 10
3.113328033911304
 20
2.842642429935261
 30
0.0
 11
3.113328033911304
 21
2.825068441952387
 31
0.0
  0
LINE
  5
4AB
330
1A
100
AcDbEntity
  8
1_TOP
  6
CONTINUOUS
 62
     7
100
AcDbLine
 10
-4.739540903960992
 20
5.884294196196673
 30
0.0
 11
-4.635448821293383
 21
5.781553958758467
 31
0.0
  0
LINE
  5
4B1
330
1A
100
AcDbEntity
  8
1_TOP
  6
CONTINUOUS
 62
     7
100
AcDbLine
 10
3.111976188681797
 20
2.843994275164696
 30
0.0
 11
3.111976188681797
 21
2.825068441952387
 31
0.0
  0
LINE
  5
4B3
330
1A
100
AcDbEntity
  8
1_TOP
  6
CONTINUOUS
 62
     7
100
AcDbLine
 10
-2.856526828324127
 20
-4.531673296711896
 30
0.0
 11
-2.82002700712899
 21
-4.531673296711896
 31
0.0
  0
LINE
  5
4B5
330
1A
100
AcDbEntity
  8
1_TOP
  6
CONTINUOUS
 62
     7
100
AcDbLine
 10
-1.366687056484441
 20
-0.5545446316714554
 30
0.0
 11
-1.368038901713896
 21
-0.5437298698357822
 31
0.0
  0
LINE
  5
4BC
330
1A
100
AcDbEntity
  8
1_TOP
  6
CONTINUOUS
 62
     7
100
AcDbLine
 10
-3.905452397390645
 20
-0.5531927864419448
 30
0.0
 11
-3.90815608784954
 21
-0.5437298698357822
 31
0.0
  0
LINE
  5
4BD
330
1A
100
AcDbEntity
  8
1_TOP
  6
CONTINUOUS
 62
     7
100
AcDbLine
 10
3.111976188681797
 20
2.834531358558535
 30
0.0
 11
3.111976188681797
 21
2.816957370575659
 31
0.0
  0
LINE
  5
4C3
330
1A
100
AcDbEntity
  8
1_TOP
  6
CONTINUOUS
 62
     7
100
AcDbLine
 10
4.720672011726716
 20
4.770373727130222
 30
0.0
 11
4.720672011726716
 21
4.324264801411884
 31
0.0
  0
LINE
  5
4C4
330
1A
100
AcDbEntity
  8
1_TOP
  6
CONTINUOUS
 62
     7
100
AcDbLine
 10
-2.003406159555165
 20
-0.5437298698357822
 30
0.0
 11
-2.003406159555165
 21
-0.5302114175413442
 31
0.0
  0
LINE
  5
4C8
330
1A
100
AcDbEntity
  8
1_TOP
  6
CONTINUOUS
 62
     7
100
AcDbLine
 10
-4.712610328358319
 20
-5.284651089515281
 30
0.0
 11
-4.792369196895839
 21
-5.284651089515281
 31
0.0
  0
LINE
  5
4C9
330
1A
100
AcDbEntity
  8
1_TOP
  6
CONTINUOUS
 62
     7
100
AcDbLine
 10
3.186327676301531
 20
5.416555746807087
 30
0.0
 11
3.187679521530959
 21
5.443592651396126
 31
0.0
  0
LINE
  5
4CD
330
1A
100
AcDbEntity
  8
1_TOP
  6
CONTINUOUS
 62
     7
100
AcDbLine
 10
-0.5218901170648072
 20
-4.516802999187951
 30
0.0
 11
-0.5313530336709529
 21
-4.500580856434559
 31
0.0
  0
LINE
  5
4CF
330
1A
100
AcDbEntity
  8
1_TOP
  6
CONTINUOUS
 62
     7
100
AcDbLine
 10
3.351252794294373
 20
5.666647114255261
 30
0.0
 11
3.349900949064952
 21
5.650424971501878
 31
0.0
  0
LINE
  5
4D4
330
1A
100
AcDbEntity
  8
1_TOP
  6
CONTINUOUS
 62
     7
100
AcDbLine
 10
3.276901306674644
 20
3.50369474713609
 30
0.0
 11
3.16334630740085
 21
3.50369474713609
 31
0.0
  0
LINE
  5
4D8
330
1A
100
AcDbEntity
  8
1_TOP
  6
CONTINUOUS
 62
     7
100
AcDbLine
 10
3.109272498222941
 20
-0.7721917136127905
 30
0.0
 11
3.109272498222941
 21
3.50369474713609
 31
0.0
  0
LINE
  5
4DA
330
1A
100
AcDbEntity
  8
1_TOP
  6
CONTINUOUS
 62
     7
100
AcDbLine
 10
3.057902379503798
 20
4.467560395733565
 30
0.0
 11
3.057902379503798
 21
4.45809747912741
 31
0.0
  0
LINE
  5
4DC
330
1A
100
AcDbEntity
  8
1_TOP
  6
CONTINUOUS
 62
     7
100
AcDbLine
 10
-4.513782750642926
 20
-0.5802296910309782
 30
0.0
 11
-4.509727214954579
 21
-0.5775260005720489
 31
0.0
  0
LINE
  5
4DD
330
1A
100
AcDbEntity
  8
1_TOP
  6
CONTINUOUS
 62
     7
100
AcDbLine
 10
-2.87410081630697
 20
-4.531673296711896
 30
0.0
 11
-2.837600995111831
 21
-4.531673296711896
 31
0.0
  0
LINE
  5
4E0
330
1A
100
AcDbEntity
  8
1_TOP
  6
CONTINUOUS
 62
     7
100
AcDbLine
 10
-2.526676592338447
 20
-4.531673296711896
 30
0.0
 11
-2.509102604355604
 21
-4.531673296711896
 31
0.0
  0
LINE
  5
4E2
330
1A
100
AcDbEntity
  8
1_TOP
  6
CONTINUOUS
 62
     7
100
AcDbLine
 10
4.824764094394346
 20
5.636906519207366
 30
0.0
 11
4.824764094394346
 21
5.504425686721342
 31
0.0
  0
LINE
  5
4E6
330
1A
100
AcDbEntity
  8
1_TOP
  6
CONTINUOUS
 62
     7
100
AcDbLine
 10
4.824764094394346
 20
-0.0827506465934978
 30
0.0
 11
4.720672011726716
 21
-0.0841024918230151
 31
0.0
  0
LINE
  5
4E8
330
1A
100
AcDbEntity
  8
1_TOP
  6
CONTINUOUS
 62
     7
100
AcDbLine
 10
3.111976188681797
 20
2.843994275164696
 30
0.0
 11
3.111976188681797
 21
2.834531358558535
 31
0.0
  0
LINE
  5
4E9
330
1A
100
AcDbEntity
  8
1_TOP
  6
CONTINUOUS
 62
     7
100
AcDbLine
 10
-3.935192992438532
 20
-0.5221003461646239
 30
0.0
 11
-3.931137456750183
 21
-0.5180448104762592
 31
0.0
  0
LINE
  5
4EA
330
1A
100
AcDbEntity
  8
1_TOP
  6
CONTINUOUS
 62
     7
100
AcDbLine
 10
3.029513629685407
 20
-0.6424145715856222
 30
0.0
 11
3.029513629685407
 21
-0.6370071906678384
 31
0.0
  0
LINE
  5
4ED
330
1A
100
AcDbEntity
  8
1_TOP
  6
CONTINUOUS
 62
     7
100
AcDbLine
 10
3.029513629685407
 20
-0.6856736189280444
 30
0.0
 11
3.029513629685407
 21
-0.6897291546164
 31
0.0
  0
LINE
  5
4EE
330
1A
100
AcDbEntity
  8
1_TOP
  6
CONTINUOUS
 62
     7
100
AcDbLine
 10
-2.771360578868808
 20
-4.531673296711896
 30
0.0
 11
-2.753786590885964
 21
-4.531673296711896
 31
0.0
  0
LINE
  5
4F1
330
1A
100
AcDbEntity
  8
1_TOP
  6
CONTINUOUS
 62
     7
100
AcDbLine
 10
3.055198689044944
 20
-0.646470107273994
 30
0.0
 11
3.055198689044944
 21
-0.6599885595685054
 31
0.0
  0
LINE
  5
4F3
330
1A
100
AcDbEntity
  8
1_TOP
  6
CONTINUOUS
 62
     7
100
AcDbLine
 10
-3.525583887915323
 20
4.190432123696433
 30
0.0
 11
-3.524232042685878
 21
4.600041228219575
 31
0.0
  0
LINE
  5
4F6
330
1A
100
AcDbEntity
  8
1_TOP
  6
CONTINUOUS
 62
     7
100
AcDbLine
 10
3.091698510240058
 20
-0.7208215948937302
 30
0.0
 11
3.091698510240058
 21
-0.7181179044347866
 31
0.0
  0
LINE
  5
4F9
330
1A
100
AcDbEntity
  8
1_TOP
  6
CONTINUOUS
 62
     7
100
AcDbLine
 10
-2.446917723800927
 20
-4.531673296711896
 30
0.0
 11
-2.445565878571476
 21
-4.531673296711896
 31
0.0
  0
LINE
  5
4FA
330
1A
100
AcDbEntity
  8
1_TOP
  6
CONTINUOUS
 62
     7
100
AcDbLine
 10
-1.715463125682417
 20
4.221524563973762
 30
0.0
 11
-1.71816681614132
 21
4.221524563973762
 31
0.0
  0
LINE
  5
4FC
330
1A
100
AcDbEntity
  8
1_TOP
  6
CONTINUOUS
 62
     7
100
AcDbLine
 10
3.091698510240058
 20
-0.6924328450752651
 30
0.0
 11
3.091698510240058
 21
-0.6910809998458351
 31
0.0
  0
LINE
  5
4FF
330
1A
100
AcDbEntity
  8
1_TOP
  6
CONTINUOUS
 62
     7
100
AcDbLine
 10
-3.585065078011103
 20
4.585170930695634
 30
0.0
 11
-3.57830585186386
 21
4.593282002072355
 31
0.0
  0
LINE
  5
500
330
1A
100
AcDbEntity
  8
1_TOP
  6
CONTINUOUS
 62
     7
100
AcDbLine
 10
3.082235593633902
 20
-0.6964883807636209
 30
0.0
 11
3.082235593633902
 21
-0.7018957616814117
 31
0.0
  0
LINE
  5
504
330
1A
100
AcDbEntity
  8
1_TOP
  6
CONTINUOUS
 62
     7
100
AcDbLine
 10
3.047087617668208
 20
-0.6910809998458351
 30
0.0
 11
3.080883748404467
 21
-0.6910809998458351
 31
0.0
  0
LINE
  5
507
330
1A
100
AcDbEntity
  8
1_TOP
  6
CONTINUOUS
 62
     7
100
AcDbLine
 10
-2.422584509670833
 20
-4.27211901265759
 30
0.0
 11
-2.423936354900285
 21
-4.299155917246581
 31
0.0
  0
LINE
  5
508
330
1A
100
AcDbEntity
  8
1_TOP
  6
CONTINUOUS
 62
     7
100
AcDbLine
 10
3.111976188681797
 20
3.09273379738335
 30
0.0
 11
3.111976188681797
 21
3.0846227260067
 31
0.0
  0
LINE
  5
509
330
1A
100
AcDbEntity
  8
1_TOP
  6
CONTINUOUS
 62
     7
100
AcDbLine
 10
3.044383927209351
 20
-0.6599885595685054
 30
0.0
 11
3.044383927209351
 21
-0.646470107273994
 31
0.0
  0
LINE
  5
511
330
1A
100
AcDbEntity
  8
1_TOP
  6
CONTINUOUS
 62
     7
100
AcDbLine
 10
3.020050713079249
 20
-0.6910809998458351
 30
0.0
 11
3.041680236750422
 21
-0.6910809998458351
 31
0.0
  0
LINE
  5
512
330
1A
100
AcDbEntity
  8
1_TOP
  6
CONTINUOUS
 62
     7
100
AcDbLine
 10
-2.85787867355358
 20
-4.323489131376668
 30
0.0
 11
-2.859230518783031
 21
-4.299155917246581
 31
0.0
  0
LINE
  5
515
330
1A
100
AcDbEntity
  8
1_TOP
  6
CONTINUOUS
 62
     7
100
AcDbLine
 10
3.020050713079249
 20
-0.6599885595685054
 30
0.0
 11
3.020050713079249
 21
-0.646470107273994
 31
0.0
  0
LINE
  5
518
330
1A
100
AcDbEntity
  8
1_TOP
  6
CONTINUOUS
 62
     7
100
AcDbLine
 10
-4.129965034465577
 20
-4.27211901265759
 30
0.0
 11
-4.128613189236125
 21
-4.299155917246581
 31
0.0
  0
LINE
  5
519
330
1A
100
AcDbEntity
  8
1_TOP
  6
CONTINUOUS
 62
     7
100
AcDbLine
 10
-2.686088000427176
 20
-0.5721186196542507
 30
0.0
 11
-2.692847226574419
 21
-0.5748223101131856
 31
0.0
  0
LINE
  5
520
330
1A
100
AcDbEntity
  8
1_TOP
  6
CONTINUOUS
 62
     7
100
AcDbLine
 10
-4.327334437965208
 20
-4.27211901265759
 30
0.0
 11
-4.328686283194659
 21
-4.299155917246581
 31
0.0
  0
LINE
  5
521
330
1A
100
AcDbEntity
  8
1_TOP
  6
CONTINUOUS
 62
     7
100
AcDbLine
 10
-0.507019819540866
 20
-4.54924728469474
 30
0.0
 11
-0.5056679743114172
 21
-4.561413891759783
 31
0.0
  0
LINE
  5
525
330
1A
100
AcDbEntity
  8
1_TOP
  6
CONTINUOUS
 62
     7
100
AcDbLine
 10
-0.4853902958696681
 20
-5.137299959505284
 30
0.0
 11
-0.5056679743114172
 21
-4.561413891759783
 31
0.0
  0
LINE
  5
52B
330
1A
100
AcDbEntity
  8
1_TOP
  6
CONTINUOUS
 62
     7
100
AcDbLine
 10
3.110624343452369
 20
3.030548916828712
 30
0.0
 11
3.110624343452369
 21
3.094085642612857
 31
0.0
  0
LINE
  5
52E
330
1A
100
AcDbEntity
  8
1_TOP
  6
CONTINUOUS
 62
     7
100
AcDbLine
 10
-1.968364512575791
 20
-4.27211901265759
 30
0.0
 11
-1.788569097059011
 21
-4.27211901265759
 31
0.0
  0
LINE
  5
533
330
1A
100
AcDbEntity
  8
1_TOP
  6
CONTINUOUS
 62
     7
100
AcDbLine
 10
-2.045419690654415
 20
-4.27211901265759
 30
0.0
 11
-2.041364154966067
 21
-4.35187788119511
 31
0.0
  0
LINE
  5
53A
330
1A
100
AcDbEntity
  8
1_TOP
  6
CONTINUOUS
 62
     7
100
AcDbLine
 10
-4.651777293033094
 20
-4.547895439465288
 30
0.0
 11
-4.539574138988784
 21
-4.547895439465288
 31
0.0
  0
LINE
  5
53B
330
1A
100
AcDbEntity
  8
1_TOP
  6
CONTINUOUS
 62
     7
100
AcDbLine
 10
-3.301177579826702
 20
-0.5261558818529795
 30
0.0
 11
-3.299825734597257
 21
-0.5207485009351958
 31
0.0
  0
LINE
  5
53D
330
1A
100
AcDbEntity
  8
1_TOP
  6
CONTINUOUS
 62
     7
100
AcDbLine
 10
-0.7435927346945337
 20
-4.561413891759783
 30
0.0
 11
-4.539574138988784
 21
-4.561413891759783
 31
0.0
  0
LINE
  5
53E
330
1A
100
AcDbEntity
  8
1_TOP
  6
CONTINUOUS
 62
     7
100
AcDbLine
 10
-3.274140675237711
 20
-0.523452191394052
 30
0.0
 11
-3.272788830008267
 21
-0.5288595723118358
 31
0.0
  0
LINE
  5
540
330
1A
100
AcDbEntity
  8
1_TOP
  6
CONTINUOUS
 62
     7
100
AcDbLine
 10
-4.792369196895839
 20
-5.271132637220786
 30
0.0
 11
-4.855905922679968
 21
-5.160281328405918
 31
0.0
  0
LINE
  5
542
330
1A
100
AcDbEntity
  8
1_TOP
  6
CONTINUOUS
 62
     7
100
AcDbLine
 10
-3.494597776624304
 20
-4.27211901265759
 30
0.0
 11
-3.693319025353377
 21
-4.27211901265759
 31
0.0
  0
LINE
  5
547
330
1A
100
AcDbEntity
  8
1_TOP
  6
CONTINUOUS
 62
     7
100
AcDbLine
 10
-4.508481698711446
 20
-4.27211901265759
 30
0.0
 11
-4.327334437965208
 21
-4.27211901265759
 31
0.0
  0
LINE
  5
54C
330
1A
100
AcDbEntity
  8
1_TOP
  6
CONTINUOUS
 62
     7
100
AcDbLine
 10
-3.875818131329069
 20
-4.35187788119511
 30
0.0
 11
-3.873114440870166
 21
-4.27211901265759
 31
0.0
  0
LINE
  5
54F
330
1A
100
AcDbEntity
  8
1_TOP
  6
CONTINUOUS
 62
     7
100
AcDbLine
 10
-0.3027848609076751
 20
-0.776247249301155
 30
0.0
 11
-0.4109324792636313
 21
-0.6680996309451524
 31
0.0
  0
LINE
  5
551
330
1A
100
AcDbEntity
  8
1_TOP
  6
CONTINUOUS
 62
     7
100
AcDbLine
 10
3.349900949064952
 20
-4.315378059999973
 30
0.0
 11
3.333678806311488
 21
-4.326192821835571
 31
0.0
  0
LINE
  5
553
330
1A
100
AcDbEntity
  8
1_TOP
  6
CONTINUOUS
 62
     7
100
AcDbLine
 10
3.110624343452369
 20
3.0183823097637
 30
0.0
 11
3.110624343452369
 21
3.022437845451976
 31
0.0
  0
LINE
  5
556
330
1A
100
AcDbEntity
  8
1_TOP
  6
CONTINUOUS
 62
     7
100
AcDbLine
 10
3.752750827440871
 20
-4.365396333489606
 30
0.0
 11
3.824398624601676
 21
-4.365396333489606
 31
0.0
  0
LINE
  5
564
330
1A
100
AcDbEntity
  8
1_TOP
  6
CONTINUOUS
 62
     7
100
AcDbLine
 10
3.96904606415278
 20
-4.365396333489606
 30
0.0
 11
3.978508980758934
 21
-4.365396333489606
 31
0.0
  0
LINE
  5
568
330
1A
100
AcDbEntity
  8
1_TOP
  6
CONTINUOUS
 62
     7
100
AcDbLine
 10
3.841972612584552
 20
-4.365396333489606
 30
0.0
 11
3.752750827440871
 21
-4.365396333489606
 31
0.0
  0
LINE
  5
570
330
1A
100
AcDbEntity
  8
1_TOP
  6
CONTINUOUS
 62
     7
100
AcDbLine
 10
3.111976188681797
 20
2.772346478003896
 30
0.0
 11
3.111976188681797
 21
2.77099463277439
 31
0.0
  0
LINE
  5
571
330
1A
100
AcDbEntity
  8
1_TOP
  6
CONTINUOUS
 62
     7
100
AcDbLine
 10
4.01365695672462
 20
-4.365396333489606
 30
0.0
 11
4.032582789936938
 21
-4.365396333489606
 31
0.0
  0
LINE
  5
577
330
1A
100
AcDbEntity
  8
1_TOP
  6
CONTINUOUS
 62
     7
100
AcDbLine
 10
-3.917619004455688
 20
-0.5166929652468328
 30
0.0
 11
-3.912211623537887
 21
-0.5193966557057605
 31
0.0
  0
LINE
  5
57A
330
1A
100
AcDbEntity
  8
1_TOP
  6
CONTINUOUS
 62
     7
100
AcDbLine
 10
3.986620052135659
 20
-4.365396333489606
 30
0.0
 11
3.978508980758934
 21
-4.365396333489606
 31
0.0
  0
LINE
  5
57E
330
1A
100
AcDbEntity
  8
1_TOP
  6
CONTINUOUS
 62
     7
100
AcDbLine
 10
-3.943304063815226
 20
-0.5613038578186725
 30
0.0
 11
-3.950063289962478
 21
-0.5694149291953213
 31
0.0
  0
LINE
  5
581
330
1A
100
AcDbEntity
  8
1_TOP
  6
CONTINUOUS
 62
     7
100
AcDbLine
 10
3.110624343452369
 20
2.772346478003896
 30
0.0
 11
3.110624343452369
 21
2.754772490021006
 31
0.0
  0
LINE
  5
587
330
1A
100
AcDbEntity
  8
1_TOP
  6
CONTINUOUS
 62
     7
100
AcDbLine
 10
4.689579571449387
 20
-4.104490204205847
 30
0.0
 11
4.659838976401498
 21
-4.132878954024288
 31
0.0
  0
LINE
  5
588
330
1A
100
AcDbEntity
  8
1_TOP
  6
CONTINUOUS
 62
     7
100
AcDbLine
 10
-3.589120613699452
 20
4.570300633171688
 30
0.0
 11
-3.586416923240555
 21
4.570300633171688
 31
0.0
  0
LINE
  5
58C
330
1A
100
AcDbEntity
  8
1_TOP
  6
CONTINUOUS
 62
     7
100
AcDbLine
 10
4.417858680330052
 20
-5.118374126292988
 30
0.0
 11
4.423266061247851
 21
-5.122429661981336
 31
0.0
  0
LINE
  5
58F
330
1A
100
AcDbEntity
  8
1_TOP
  6
CONTINUOUS
 62
     7
100
AcDbLine
 10
-1.977721100195627
 20
-0.5748223101131856
 30
0.0
 11
-1.987184016801774
 21
-0.5707667744248209
 31
0.0
  0
LINE
  5
591
330
1A
100
AcDbEntity
  8
1_TOP
  6
CONTINUOUS
 62
     7
100
AcDbLine
 10
3.111976188681797
 20
2.796679692133911
 30
0.0
 11
3.111976188681797
 21
2.754772490021006
 31
0.0
  0
LINE
  5
592
330
1A
100
AcDbEntity
  8
1_TOP
  6
CONTINUOUS
 62
     7
100
AcDbLine
 10
3.431011662831909
 20
-4.304563298164373
 30
0.0
 11
3.431011662831909
 21
-4.327544667065016
 31
0.0
  0
LINE
  5
593
330
1A
100
AcDbEntity
  8
1_TOP
  6
CONTINUOUS
 62
     7
100
AcDbLine
 10
-0.4109324792636313
 20
-0.6680996309451524
 30
0.0
 11
-0.462302597982715
 21
-0.6599885595685054
 31
0.0
  0
LINE
  5
594
330
1A
100
AcDbEntity
  8
1_TOP
  6
CONTINUOUS
 62
     7
100
AcDbLine
 10
-3.582361387552207
 20
4.201246885532015
 30
0.0
 11
-3.58776876847
 21
4.210709802138171
 31
0.0
  0
LINE
  5
597
330
1A
100
AcDbEntity
  8
1_TOP
  6
CONTINUOUS
 62
     7
100
AcDbLine
 10
3.431011662831909
 20
-4.382970321472449
 30
0.0
 11
3.429659817602481
 21
-4.395136928537492
 31
0.0
  0
LINE
  5
59B
330
1A
100
AcDbEntity
  8
1_TOP
  6
CONTINUOUS
 62
     7
100
AcDbLine
 10
4.855856534671668
 20
-4.971022996282992
 30
0.0
 11
4.876134213113402
 21
-4.395136928537492
 31
0.0
  0
LINE
  5
5A1
330
1A
100
AcDbEntity
  8
1_TOP
  6
CONTINUOUS
 62
     7
100
AcDbLine
 10
4.343507192710324
 20
-4.697950259934191
 30
0.0
 11
4.369192252069847
 21
-4.673617045804095
 31
0.0
  0
LINE
  5
5A8
330
1A
100
AcDbEntity
  8
1_TOP
  6
CONTINUOUS
 62
     7
100
AcDbLine
 10
-3.558028173422113
 20
4.190432123696433
 30
0.0
 11
-3.568842935257713
 21
4.19178396892586
 31
0.0
  0
LINE
  5
5A9
330
1A
100
AcDbEntity
  8
1_TOP
  6
CONTINUOUS
 62
     7
100
AcDbLine
 10
3.468863329256443
 20
-4.395136928537492
 30
0.0
 11
3.429659817602481
 21
-4.395136928537492
 31
0.0
  0
LINE
  5
5AE
330
1A
100
AcDbEntity
  8
1_TOP
  6
CONTINUOUS
 62
     7
100
AcDbLine
 10
3.274197616215786
 20
-4.18560091797282
 30
0.0
 11
3.307993746951958
 21
-4.18560091797282
 31
0.0
  0
LINE
  5
5C3
330
1A
100
AcDbEntity
  8
1_TOP
  6
CONTINUOUS
 62
     7
100
AcDbLine
 10
3.9284907072693
 20
-4.971022996282992
 30
0.0
 11
3.920379635892653
 21
-5.118374126292988
 31
0.0
  0
LINE
  5
5C4
330
1A
100
AcDbEntity
  8
1_TOP
  6
CONTINUOUS
 62
     7
100
AcDbLine
 10
-0.5042098000956528
 20
5.72342461389219
 30
0.0
 11
-0.4447286099998729
 21
5.657184197649098
 31
0.0
  0
LINE
  5
5DE
330
1A
100
AcDbEntity
  8
1_TOP
  6
CONTINUOUS
 62
     7
100
AcDbLine
 10
-1.749259256418658
 20
4.190432123696433
 30
0.0
 11
-1.746555565959754
 21
4.190432123696433
 31
0.0
  0
LINE
  5
5EF
330
1A
100
AcDbEntity
  8
1_TOP
  6
CONTINUOUS
 62
     7
100
AcDbLine
 10
-2.050720742585903
 20
-0.5721186196542507
 30
0.0
 11
-2.061535504421494
 21
-0.5748223101131856
 31
0.0
  0
LINE
  5
5F1
330
1A
100
AcDbEntity
  8
1_TOP
  6
CONTINUOUS
 62
     7
100
AcDbLine
 10
-3.345788472398536
 20
-0.6505256429623496
 30
0.0
 11
-1.958795266983333
 21
-0.6505256429623496
 31
0.0
  0
LINE
  5
5FD
330
1A
100
AcDbEntity
  8
1_TOP
  6
CONTINUOUS
 62
     7
100
AcDbLine
 10
-0.4109324792636313
 20
3.619953436868724
 30
0.0
 11
-0.462302597982715
 21
3.619953436868724
 31
0.0
  0
LINE
  5
607
330
1A
100
AcDbEntity
  8
1_TOP
  6
CONTINUOUS
 62
     7
100
AcDbLine
 10
-1.377501818320043
 20
-0.5166929652468328
 30
0.0
 11
-1.373446282631694
 21
-0.5193966557057605
 31
0.0
  0
LINE
  5
608
330
1A
100
AcDbEntity
  8
1_TOP
  6
CONTINUOUS
 62
     7
100
AcDbLine
 10
3.111976188681797
 20
3.094085642612857
 30
0.0
 11
3.111976188681797
 21
3.083270880777275
 31
0.0
  0
LINE
  5
612
330
1A
100
AcDbEntity
  8
1_TOP
  6
CONTINUOUS
 62
     7
100
AcDbLine
 10
-2.654995560149836
 20
-0.5153411200174048
 30
0.0
 11
-2.65094002446149
 21
-0.5153411200174048
 31
0.0
  0
LINE
  5
619
330
1A
100
AcDbEntity
  8
1_TOP
  6
CONTINUOUS
 62
     7
100
AcDbLine
 10
-1.347761223272147
 20
-0.573470464883677
 30
0.0
 11
-1.353168604189945
 21
-0.5707667744248209
 31
0.0
  0
LINE
  5
628
330
1A
100
AcDbEntity
  8
1_TOP
  6
CONTINUOUS
 62
     7
100
AcDbLine
 10
-0.5663946806503315
 20
5.884294196196673
 30
0.0
 11
-0.4339138481642724
 21
5.849146220230985
 31
0.0
  0
LINE
  5
62C
330
1A
100
AcDbEntity
  8
1_TOP
  6
CONTINUOUS
 62
     7
100
AcDbLine
 10
-3.491894086165401
 20
-4.35187788119511
 30
0.0
 11
-3.493245931394851
 21
-4.323489131376668
 31
0.0
  0
LINE
  5
632
330
1A
100
AcDbEntity
  8
1_TOP
  6
CONTINUOUS
 62
     7
100
AcDbLine
 10
3.110624343452369
 20
2.834531358558535
 30
0.0
 11
3.111976188681797
 21
2.843994275164696
 31
0.0
  0
LINE
  5
638
330
1A
100
AcDbEntity
  8
1_TOP
  6
CONTINUOUS
 62
     7
100
AcDbLine
 10
-3.302529425056154
 20
-0.5437298698357822
 30
0.0
 11
-3.302529425056154
 21
-0.5302114175413442
 31
0.0
  0
LINE
  5
63E
330
1A
100
AcDbEntity
  8
1_TOP
  6
CONTINUOUS
 62
     7
100
AcDbLine
 10
3.111976188681797
 20
2.799383382592847
 30
0.0
 11
3.110624343452369
 21
2.772346478003896
 31
0.0
  0
LINE
  5
643
330
1A
100
AcDbEntity
  8
1_TOP
  6
CONTINUOUS
 62
     7
100
AcDbLine
 10
-1.749259256418658
 20
4.190432123696433
 30
0.0
 11
-1.777648006237094
 21
4.190432123696433
 31
0.0
  0
LINE
  5
656
330
1A
100
AcDbEntity
  8
1_TOP
  6
CONTINUOUS
 62
     7
100
AcDbLine
 10
-2.020980147538009
 20
-0.5153411200174048
 30
0.0
 11
-2.015572766620211
 21
-0.5153411200174048
 31
0.0
  0
LINE
  5
662
330
1A
100
AcDbEntity
  8
1_TOP
  6
CONTINUOUS
 62
     7
100
AcDbLine
 10
-2.641477107855341
 20
-0.5207485009351958
 30
0.0
 11
-2.63877341739644
 21
-0.5248040366235534
 31
0.0
  0
LINE
  5
66C
330
1A
100
AcDbEntity
  8
1_TOP
  6
CONTINUOUS
 62
     7
100
AcDbLine
 10
-1.154553684447185
 20
-4.299155917246581
 30
0.0
 11
-0.954480590488659
 21
-4.299155917246581
 31
0.0
  0
LINE
  5
675
330
1A
100
AcDbEntity
  8
1_TOP
  6
CONTINUOUS
 62
     7
100
AcDbLine
 10
3.020050713079249
 20
-0.639710881126775
 30
0.0
 11
3.020050713079249
 21
-0.6451182620445659
 31
0.0
  0
LINE
  5
676
330
1A
100
AcDbEntity
  8
1_TOP
  6
CONTINUOUS
 62
     7
100
AcDbLine
 10
-2.625254965101944
 20
-0.5694149291953213
 30
0.0
 11
-2.630662346019742
 21
-0.5640075482775304
 31
0.0
  0
LINE
  5
67E
330
1A
100
AcDbEntity
  8
1_TOP
  6
CONTINUOUS
 62
     7
100
AcDbLine
 10
3.010587796473092
 20
-0.6329516549794665
 30
0.0
 11
3.010587796473092
 21
-0.6356553454384104
 31
0.0
  0
LINE
  5
681
330
1A
100
AcDbEntity
  8
1_TOP
  6
CONTINUOUS
 62
     7
100
AcDbLine
 10
-2.753786590885964
 20
-4.531673296711896
 30
0.0
 11
-2.770008733639356
 21
-4.531673296711896
 31
0.0
  0
LINE
  5
685
330
1A
100
AcDbEntity
  8
1_TOP
  6
CONTINUOUS
 62
     7
100
AcDbLine
 10
3.055198689044944
 20
-0.646470107273994
 30
0.0
 11
3.044383927209351
 21
-0.646470107273994
 31
0.0
  0
LINE
  5
686
330
1A
100
AcDbEntity
  8
1_TOP
  6
CONTINUOUS
 62
     7
100
AcDbLine
 10
-3.268733294319918
 20
-0.5586001673597377
 30
0.0
 11
-3.272788830008267
 21
-0.5477854055241469
 31
0.0
  0
LINE
  5
68D
330
1A
100
AcDbEntity
  8
1_TOP
  6
CONTINUOUS
 62
     7
100
AcDbLine
 10
-5.003150723703654
 20
0.0335080431391377
 30
0.0
 11
-4.996391497556404
 21
0.0321561979097078
 31
0.0
  0
LINE
  5
68E
330
1A
100
AcDbEntity
  8
1_TOP
  6
CONTINUOUS
 62
     7
100
AcDbLine
 10
-2.918711708878806
 20
-4.531673296711896
 30
0.0
 11
-2.971433672827341
 21
-4.531673296711896
 31
0.0
  0
LINE
  5
696
330
1A
100
AcDbEntity
  8
1_TOP
  6
CONTINUOUS
 62
     7
100
AcDbLine
 10
-3.87571180234275
 20
-0.5748223101131856
 30
0.0
 11
-3.877063647572203
 21
-0.5748223101131856
 31
0.0
  0
LINE
  5
69A
330
1A
100
AcDbEntity
  8
1_TOP
  6
CONTINUOUS
 62
     7
100
AcDbLine
 10
-4.731429832584296
 20
3.619953436868724
 30
0.0
 11
-4.731429832584296
 21
-0.6559330238801407
 31
0.0
  0
LINE
  5
69B
330
1A
100
AcDbEntity
  8
1_TOP
  6
CONTINUOUS
 62
     7
100
AcDbLine
 10
-4.505671679266231
 20
-0.5761741553426154
 30
0.0
 11
-4.502967988807327
 21
-0.5748223101131856
 31
0.0
  0
LINE
  5
69E
330
1A
100
AcDbEntity
  8
1_TOP
  6
CONTINUOUS
 62
     7
100
AcDbLine
 10
-4.849040367546406
 20
5.527407055621944
 30
0.0
 11
-4.736837213502094
 21
5.531462591310305
 31
0.0
  0
LINE
  5
6A2
330
1A
100
AcDbEntity
  8
1_TOP
  6
CONTINUOUS
 62
     7
100
AcDbLine
 10
-4.693578166159713
 20
5.774794732611256
 30
0.0
 11
-4.635448821293383
 21
5.781553958758467
 31
0.0
  0
LINE
  5
6A4
330
1A
100
AcDbEntity
  8
1_TOP
  6
CONTINUOUS
 62
     7
100
AcDbLine
 10
-4.7341335230432
 20
5.55174026975205
 30
0.0
 11
-4.736837213502094
 21
5.531462591310305
 31
0.0
  0
LINE
  5
6AB
330
1A
100
AcDbEntity
  8
1_TOP
  6
CONTINUOUS
 62
     7
100
AcDbLine
 10
-0.7556530127732635
 20
-0.6613404047979332
 30
0.0
 11
-4.550282571838064
 21
-0.6613404047979332
 31
0.0
  0
LINE
  5
6CB
330
1A
100
AcDbEntity
  8
1_TOP
  6
CONTINUOUS
 62
     7
100
AcDbLine
 10
-3.290362817991111
 20
-0.5153411200174048
 30
0.0
 11
-3.286307282302762
 21
-0.5153411200174048
 31
0.0
  0
LINE
  5
6D2
330
1A
100
AcDbEntity
  8
1_TOP
  6
CONTINUOUS
 62
     7
100
AcDbLine
 10
-2.652291869690934
 20
4.189080278466922
 30
0.0
 11
-3.558028173422113
 21
4.190432123696433
 31
0.0
  0
LINE
  5
6E4
330
1A
100
AcDbEntity
  8
1_TOP
  6
CONTINUOUS
 62
     7
100
AcDbLine
 10
3.110624343452369
 20
3.022437845451976
 30
0.0
 11
3.110624343452369
 21
3.00621570269861
 31
0.0
  0
LINE
  5
6F0
330
1A
100
AcDbEntity
  8
1_TOP
  6
CONTINUOUS
 62
     7
100
AcDbLine
 10
-3.253862996795973
 20
-0.5721186196542507
 30
0.0
 11
-3.26332591340212
 21
-0.5667112387364579
 31
0.0
  0
LINE
  5
703
330
1A
100
AcDbEntity
  8
1_TOP
  6
CONTINUOUS
 62
     7
100
AcDbLine
 10
-2.65094002446149
 20
-0.5153411200174048
 30
0.0
 11
-2.64553264354369
 21
-0.5166929652468328
 31
0.0
  0
LINE
  5
709
330
1A
100
AcDbEntity
  8
1_TOP
  6
CONTINUOUS
 62
     7
100
AcDbLine
 10
-3.893285790325593
 20
-0.5707667744248209
 30
0.0
 11
-3.901396861702288
 21
-0.5626557030481023
 31
0.0
  0
LINE
  5
713
330
1A
100
AcDbEntity
  8
1_TOP
  6
CONTINUOUS
 62
     7
100
AcDbLine
 10
-2.583454091975324
 20
-4.531673296711896
 30
0.0
 11
-2.628064984547159
 21
-4.531673296711896
 31
0.0
  0
LINE
  5
717
330
1A
100
AcDbEntity
  8
1_TOP
  6
CONTINUOUS
 62
     7
100
AcDbLine
 10
3.110624343452369
 20
3.094085642612857
 30
0.0
 11
3.110624343452369
 21
3.09273379738335
 31
0.0
  0
LINE
  5
722
330
1A
100
AcDbEntity
  8
1_TOP
  6
CONTINUOUS
 62
     7
100
AcDbLine
 10
3.110624343452369
 20
3.004863857469173
 30
0.0
 11
3.110624343452369
 21
3.0183823097637
 31
0.0
  0
LINE
  5
725
330
1A
100
AcDbEntity
  8
1_TOP
  6
CONTINUOUS
 62
     7
100
AcDbLine
 10
-4.635448821293383
 20
5.781553958758467
 30
0.0
 11
-3.314696032121196
 21
5.776146577840676
 31
0.0
  0
LINE
  5
73E
330
1A
100
AcDbEntity
  8
1_TOP
  6
CONTINUOUS
 62
     7
100
AcDbLine
 10
3.091698510240058
 20
-0.6910809998458351
 30
0.0
 11
3.080883748404467
 21
-0.6910809998458351
 31
0.0
  0
LINE
  5
74C
330
1A
100
AcDbEntity
  8
1_TOP
  6
CONTINUOUS
 62
     7
100
AcDbLine
 10
-1.781703541925448
 20
4.600041228219575
 30
0.0
 11
-1.780351696695997
 21
4.190432123696433
 31
0.0
  0
LINE
  5
752
330
1A
100
AcDbEntity
  8
1_TOP
  6
CONTINUOUS
 62
     7
100
AcDbLine
 10
3.111976188681797
 20
3.037308142975933
 30
0.0
 11
3.111976188681797
 21
3.094085642612857
 31
0.0
  0
LINE
  5
756
330
1A
100
AcDbEntity
  8
1_TOP
  6
CONTINUOUS
 62
     7
100
AcDbLine
 10
3.029513629685407
 20
-0.6599885595685054
 30
0.0
 11
3.020050713079249
 21
-0.6599885595685054
 31
0.0
  0
LINE
  5
759
330
1A
100
AcDbEntity
  8
1_TOP
  6
CONTINUOUS
 62
     7
100
AcDbLine
 10
-0.5745057520270251
 20
3.619953436868724
 30
0.0
 11
-1.958795266983333
 21
3.619953436868724
 31
0.0
  0
LINE
  5
762
330
1A
100
AcDbEntity
  8
1_TOP
  6
CONTINUOUS
 62
     7
100
AcDbLine
 10
4.720672011726716
 20
4.324264801411884
 30
0.0
 11
4.824764094394346
 21
4.322912956182449
 31
0.0
  0
LINE
  5
768
330
1A
100
AcDbEntity
  8
1_TOP
  6
CONTINUOUS
 62
     7
100
AcDbLine
 10
3.268790235297997
 20
5.659887888108035
 30
0.0
 11
3.290419758969155
 21
5.66123973333747
 31
0.0
  0
LINE
  5
76C
330
1A
100
AcDbEntity
  8
1_TOP
  6
CONTINUOUS
 62
     7
100
AcDbLine
 10
-0.513779045688112
 20
-4.538432522859142
 30
0.0
 11
-0.5178345813764578
 21
-4.527617761023551
 31
0.0
  0
LINE
  5
76D
330
1A
100
AcDbEntity
  8
1_TOP
  6
CONTINUOUS
 62
     7
100
AcDbLine
 10
3.352604639523808
 20
5.40168544928314
 30
0.0
 11
3.239049640250095
 21
5.411148365889295
 31
0.0
  0
LINE
  5
770
330
1A
100
AcDbEntity
  8
1_TOP
  6
CONTINUOUS
 62
     7
100
AcDbLine
 10
-3.558028173422113
 20
4.190432123696433
 30
0.0
 11
-3.556676328192661
 21
4.190432123696433
 31
0.0
  0
LINE
  5
771
330
1A
100
AcDbEntity
  8
1_TOP
  6
CONTINUOUS
 62
     7
100
AcDbLine
 10
3.109272498222941
 20
3.50369474713609
 30
0.0
 11
3.128198331435166
 21
4.460801169586337
 31
0.0
  0
LINE
  5
776
330
1A
100
AcDbEntity
  8
1_TOP
  6
CONTINUOUS
 62
     7
100
AcDbLine
 10
3.16334630740085
 20
-0.776247249301155
 30
0.0
 11
3.109272498222941
 21
-0.7721917136127905
 31
0.0
  0
LINE
  5
778
330
1A
100
AcDbEntity
  8
1_TOP
  6
CONTINUOUS
 62
     7
100
AcDbLine
 10
-3.305233115515058
 20
-0.5558964769008743
 30
0.0
 11
-3.310640496432849
 21
-0.5653593935070301
 31
0.0
  0
LINE
  5
779
330
1A
100
AcDbEntity
  8
1_TOP
  6
CONTINUOUS
 62
     7
100
AcDbLine
 10
-2.606435460875968
 20
-4.531673296711896
 30
0.0
 11
-2.625361294088262
 21
-4.531673296711896
 31
0.0
  0
LINE
  5
77A
330
1A
100
AcDbEntity
  8
1_TOP
  6
CONTINUOUS
 62
     7
100
AcDbLine
 10
3.057902379503798
 20
4.482430693257505
 30
0.0
 11
3.057902379503798
 21
4.475671467110293
 31
0.0
  0
LINE
  5
77E
330
1A
100
AcDbEntity
  8
1_TOP
  6
CONTINUOUS
 62
     7
100
AcDbLine
 10
-4.519190131560725
 20
-0.5883407624076325
 30
0.0
 11
-4.517838286331276
 21
-0.5842852267192607
 31
0.0
  0
LINE
  5
77F
330
1A
100
AcDbEntity
  8
1_TOP
  6
CONTINUOUS
 62
     7
100
AcDbLine
 10
3.04573577243878
 20
4.083636350569873
 30
0.0
 11
3.044383927209351
 21
4.07822896965208
 31
0.0
  0
LINE
  5
782
330
1A
100
AcDbEntity
  8
1_TOP
  6
CONTINUOUS
 62
     7
100
AcDbLine
 10
3.043032081979845
 20
-0.6599885595685054
 30
0.0
 11
3.043032081979845
 21
-0.6667477857157261
 31
0.0
  0
LINE
  5
784
330
1A
100
AcDbEntity
  8
1_TOP
  6
CONTINUOUS
 62
     7
100
AcDbLine
 10
4.824764094394346
 20
5.769387351693459
 30
0.0
 11
4.824764094394346
 21
5.734239375727771
 31
0.0
  0
LINE
  5
789
330
1A
100
AcDbEntity
  8
1_TOP
  6
CONTINUOUS
 62
     7
100
AcDbLine
 10
3.109272498222941
 20
3.50369474713609
 30
0.0
 11
3.043032081979845
 21
3.50369474713609
 31
0.0
  0
LINE
  5
78A
330
1A
100
AcDbEntity
  8
1_TOP
  6
CONTINUOUS
 62
     7
100
AcDbLine
 10
-0.7975602148861931
 20
-0.5761741553426154
 30
0.0
 11
-0.7935046791978447
 21
-0.5775260005720489
 31
0.0
  0
LINE
  5
78D
330
1A
100
AcDbEntity
  8
1_TOP
  6
CONTINUOUS
 62
     7
100
AcDbLine
 10
3.111976188681797
 20
3.09273379738335
 30
0.0
 11
3.111976188681797
 21
3.004863857469173
 31
0.0
  0
LINE
  5
78F
330
1A
100
AcDbEntity
  8
1_TOP
  6
CONTINUOUS
 62
     7
100
AcDbLine
 10
3.029513629685407
 20
-0.646470107273994
 30
0.0
 11
3.029513629685407
 21
-0.6424145715856222
 31
0.0
  0
LINE
  5
793
330
1A
100
AcDbEntity
  8
1_TOP
  6
CONTINUOUS
 62
     7
100
AcDbLine
 10
3.029513629685407
 20
-0.6680996309451524
 30
0.0
 11
3.029513629685407
 21
-0.6775625475513168
 31
0.0
  0
LINE
  5
797
330
1A
100
AcDbEntity
  8
1_TOP
  6
CONTINUOUS
 62
     7
100
AcDbLine
 10
3.055198689044944
 20
-0.6370071906678384
 30
0.0
 11
3.053846843815516
 21
-0.6343035002088947
 31
0.0
  0
LINE
  5
79B
330
1A
100
AcDbEntity
  8
1_TOP
  6
CONTINUOUS
 62
     7
100
AcDbLine
 10
3.056550534274363
 20
-0.6897291546164
 30
0.0
 11
3.056550534274363
 21
-0.6910809998458351
 31
0.0
  0
LINE
  5
79D
330
1A
100
AcDbEntity
  8
1_TOP
  6
CONTINUOUS
 62
     7
100
AcDbLine
 10
-3.528287578374226
 20
4.190432123696433
 30
0.0
 11
-3.556676328192661
 21
4.190432123696433
 31
0.0
  0
LINE
  5
79E
330
1A
100
AcDbEntity
  8
1_TOP
  6
CONTINUOUS
 62
     7
100
AcDbLine
 10
3.093050355469479
 20
-0.7005439164519838
 30
0.0
 11
3.091698510240058
 21
-0.6964883807636209
 31
0.0
  0
LINE
  5
7A0
330
1A
100
AcDbEntity
  8
1_TOP
  6
CONTINUOUS
 62
     7
100
AcDbLine
 10
-3.589120613699452
 20
4.570300633171688
 30
0.0
 11
-3.589120613699452
 21
4.57570801408947
 31
0.0
  0
LINE
  5
7A2
330
1A
100
AcDbEntity
  8
1_TOP
  6
CONTINUOUS
 62
     7
100
AcDbLine
 10
3.082235593633902
 20
-0.6910809998458351
 30
0.0
 11
3.082235593633902
 21
-0.6937846903046914
 31
0.0
  0
LINE
  5
7A3
330
1A
100
AcDbEntity
  8
1_TOP
  6
CONTINUOUS
 62
     7
100
AcDbLine
 10
-1.788569097059011
 20
-4.299155917246581
 30
0.0
 11
-1.588496003100478
 21
-4.299155917246581
 31
0.0
  0
LINE
  5
7A7
330
1A
100
AcDbEntity
  8
1_TOP
  6
CONTINUOUS
 62
     7
100
AcDbLine
 10
-2.425288200129728
 20
-4.323489131376668
 30
0.0
 11
-2.222511415712305
 21
-4.323489131376668
 31
0.0
  0
LINE
  5
7A8
330
1A
100
AcDbEntity
  8
1_TOP
  6
CONTINUOUS
 62
     7
100
AcDbLine
 10
3.082235593633902
 20
-0.7194697496642215
 30
0.0
 11
3.082235593633902
 21
-0.7208215948937302
 31
0.0
  0
LINE
  5
7AB
330
1A
100
AcDbEntity
  8
1_TOP
  6
CONTINUOUS
 62
     7
100
AcDbLine
 10
3.111976188681797
 20
2.834531358558535
 30
0.0
 11
3.111976188681797
 21
2.816957370575659
 31
0.0
  0
LINE
  5
7AC
330
1A
100
AcDbEntity
  8
1_TOP
  6
CONTINUOUS
 62
     7
100
AcDbLine
 10
3.04573577243878
 20
-0.6789143927807431
 30
0.0
 11
3.044383927209351
 21
-0.6694514761745804
 31
0.0
  0
LINE
  5
7B0
330
1A
100
AcDbEntity
  8
1_TOP
  6
CONTINUOUS
 62
     7
100
AcDbLine
 10
-1.589847848329933
 20
-4.27211901265759
 30
0.0
 11
-1.588496003100478
 21
-4.299155917246581
 31
0.0
  0
LINE
  5
7B2
330
1A
100
AcDbEntity
  8
1_TOP
  6
CONTINUOUS
 62
     7
100
AcDbLine
 10
3.044383927209351
 20
-0.6343035002088947
 30
0.0
 11
3.044383927209351
 21
-0.6383590358972647
 31
0.0
  0
LINE
  5
7B4
330
1A
100
AcDbEntity
  8
1_TOP
  6
CONTINUOUS
 62
     7
100
AcDbLine
 10
-2.85787867355358
 20
-4.323489131376668
 30
0.0
 11
-3.059303612741559
 21
-4.323489131376668
 31
0.0
  0
LINE
  5
7BA
330
1A
100
AcDbEntity
  8
1_TOP
  6
CONTINUOUS
 62
     7
100
AcDbLine
 10
-2.455028795177623
 20
-4.531673296711896
 30
0.0
 11
-2.437454807194779
 21
-4.531673296711896
 31
0.0
  0
LINE
  5
7BB
330
1A
100
AcDbEntity
  8
1_TOP
  6
CONTINUOUS
 62
     7
100
AcDbLine
 10
3.020050713079249
 20
-0.6748588570924607
 30
0.0
 11
3.020050713079249
 21
-0.6653959404862962
 31
0.0
  0
LINE
  5
7C3
330
1A
100
AcDbEntity
  8
1_TOP
  6
CONTINUOUS
 62
     7
100
AcDbLine
 10
-0.507019819540866
 20
-4.54924728469474
 30
0.0
 11
-0.5435196407359993
 21
-4.546543594235837
 31
0.0
  0
LINE
  5
7CC
330
1A
100
AcDbEntity
  8
1_TOP
  6
CONTINUOUS
 62
     7
100
AcDbLine
 10
3.110624343452369
 20
2.772346478003896
 30
0.0
 11
3.110624343452369
 21
2.843994275164696
 31
0.0
  0
LINE
  5
7CD
330
1A
100
AcDbEntity
  8
1_TOP
  6
CONTINUOUS
 62
     7
100
AcDbLine
 10
-2.423936354900285
 20
-4.299155917246581
 30
0.0
 11
-2.22386326094175
 21
-4.299155917246581
 31
0.0
  0
LINE
  5
7D0
330
1A
100
AcDbEntity
  8
1_TOP
  6
CONTINUOUS
 62
     7
100
AcDbLine
 10
-1.153201839217731
 20
-4.27211901265759
 30
0.0
 11
-0.9558324357181028
 21
-4.27211901265759
 31
0.0
  0
LINE
  5
7D7
330
1A
100
AcDbEntity
  8
1_TOP
  6
CONTINUOUS
 62
     7
100
AcDbLine
 10
-2.637421572166994
 20
-0.5288595723118358
 30
0.0
 11
-2.637421572166994
 21
-0.5302114175413442
 31
0.0
  0
LINE
  5
7DA
330
1A
100
AcDbEntity
  8
1_TOP
  6
CONTINUOUS
 62
     7
100
AcDbLine
 10
-2.971433672827341
 20
-4.531673296711896
 30
0.0
 11
-2.918711708878806
 21
-4.531673296711896
 31
0.0
  0
LINE
  5
7E7
330
1A
100
AcDbEntity
  8
1_TOP
  6
CONTINUOUS
 62
     7
100
AcDbLine
 10
-4.796424732584188
 20
-5.137299959505284
 30
0.0
 11
-4.792369196895839
 21
-5.284651089515281
 31
0.0
  0
LINE
  5
7ED
330
1A
100
AcDbEntity
  8
1_TOP
  6
CONTINUOUS
 62
     7
100
AcDbLine
 10
-3.493245931394851
 20
-4.299155917246581
 30
0.0
 11
-3.693319025353377
 21
-4.299155917246581
 31
0.0
  0
LINE
  5
7F1
330
1A
100
AcDbEntity
  8
1_TOP
  6
CONTINUOUS
 62
     7
100
AcDbLine
 10
-5.003150723703654
 20
0.0335080431391377
 30
0.0
 11
-5.003150723703654
 21
4.437819800685671
 31
0.0
  0
LINE
  5
7F4
330
1A
100
AcDbEntity
  8
1_TOP
  6
CONTINUOUS
 62
     7
100
AcDbLine
 10
-3.314802361107518
 20
-4.27211901265759
 30
0.0
 11
-3.494597776624304
 21
-4.27211901265759
 31
0.0
  0
LINE
  5
7FA
330
1A
100
AcDbEntity
  8
1_TOP
  6
CONTINUOUS
 62
     7
100
AcDbLine
 10
-3.237747183028892
 20
-4.27211901265759
 30
0.0
 11
-3.240450873487796
 21
-4.35187788119511
 31
0.0
  0
LINE
  5
7FE
330
1A
100
AcDbEntity
  8
1_TOP
  6
CONTINUOUS
 62
     7
100
AcDbLine
 10
-2.746921035752401
 20
4.264783611316087
 30
0.0
 11
-2.652291869690934
 21
4.235043016268193
 31
0.0
  0
LINE
  5
801
330
1A
100
AcDbEntity
  8
1_TOP
  6
CONTINUOUS
 62
     7
100
AcDbLine
 10
3.752750827440871
 20
-4.365396333489606
 30
0.0
 11
3.760861898817604
 21
-4.365396333489606
 31
0.0
  0
LINE
  5
802
330
1A
100
AcDbEntity
  8
1_TOP
  6
CONTINUOUS
 62
     7
100
AcDbLine
 10
-1.153201839217731
 20
-4.27211901265759
 30
0.0
 11
-1.154553684447185
 21
-4.299155917246581
 31
0.0
  0
LINE
  5
808
330
1A
100
AcDbEntity
  8
1_TOP
  6
CONTINUOUS
 62
     7
100
AcDbLine
 10
3.951472076169975
 20
-4.365396333489606
 30
0.0
 11
3.96904606415278
 21
-4.365396333489606
 31
0.0
  0
LINE
  5
80D
330
1A
100
AcDbEntity
  8
1_TOP
  6
CONTINUOUS
 62
     7
100
AcDbLine
 10
3.943361004793255
 20
-4.365396333489606
 30
0.0
 11
3.951472076169975
 21
-4.365396333489606
 31
0.0
  0
LINE
  5
80F
330
1A
100
AcDbEntity
  8
1_TOP
  6
CONTINUOUS
 62
     7
100
AcDbLine
 10
-1.399131341991231
 20
-0.5518409412125188
 30
0.0
 11
-1.403186877679581
 21
-0.5613038578186725
 31
0.0
  0
LINE
  5
814
330
1A
100
AcDbEntity
  8
1_TOP
  6
CONTINUOUS
 62
     7
100
AcDbLine
 10
3.841972612584552
 20
-4.365396333489606
 30
0.0
 11
3.824398624601676
 21
-4.365396333489606
 31
0.0
  0
LINE
  5
818
330
1A
100
AcDbEntity
  8
1_TOP
  6
CONTINUOUS
 62
     7
100
AcDbLine
 10
3.752750827440871
 20
-4.365396333489606
 30
0.0
 11
3.841972612584552
 21
-4.365396333489606
 31
0.0
  0
LINE
  5
81B
330
1A
100
AcDbEntity
  8
1_TOP
  6
CONTINUOUS
 62
     7
100
AcDbLine
 10
4.824764094394346
 20
5.678813721320353
 30
0.0
 11
4.44489558491902
 21
5.651776816731313
 31
0.0
  0
LINE
  5
822
330
1A
100
AcDbEntity
  8
1_TOP
  6
CONTINUOUS
 62
     7
100
AcDbLine
 10
4.032582789936938
 20
-4.365396333489606
 30
0.0
 11
4.023119873330784
 21
-4.365396333489606
 31
0.0
  0
LINE
  5
828
330
1A
100
AcDbEntity
  8
1_TOP
  6
CONTINUOUS
 62
     7
100
AcDbLine
 10
-0.7435927346945337
 20
-4.472192106616118
 30
0.0
 11
-0.6313895806502235
 21
-4.472192106616118
 31
0.0
  0
LINE
  5
82D
330
1A
100
AcDbEntity
  8
1_TOP
  6
CONTINUOUS
 62
     7
100
AcDbLine
 10
4.626042845665241
 20
-4.245082108068601
 30
0.0
 11
4.6665982025488
 21
-4.245082108068601
 31
0.0
  0
LINE
  5
837
330
1A
100
AcDbEntity
  8
1_TOP
  6
CONTINUOUS
 62
     7
100
AcDbLine
 10
-1.780351696695997
 20
4.190432123696433
 30
0.0
 11
-1.777648006237094
 21
4.190432123696433
 31
0.0
  0
LINE
  5
838
330
1A
100
AcDbEntity
  8
1_TOP
  6
CONTINUOUS
 62
     7
100
AcDbLine
 10
3.431011662831909
 20
-4.382970321472449
 30
0.0
 11
3.343141722917644
 21
-4.380266631013545
 31
0.0
  0
LINE
  5
83B
330
1A
100
AcDbEntity
  8
1_TOP
  6
CONTINUOUS
 62
     7
100
AcDbLine
 10
4.850449153753878
 20
-4.327544667065016
 30
0.0
 11
4.874782367883982
 21
-4.380266631013545
 31
0.0
  0
LINE
  5
842
330
1A
100
AcDbEntity
  8
1_TOP
  6
CONTINUOUS
 62
     7
100
AcDbLine
 10
3.48914100769827
 20
-4.971022996282992
 30
0.0
 11
3.468863329256443
 21
-4.395136928537492
 31
0.0
  0
LINE
  5
845
330
1A
100
AcDbEntity
  8
1_TOP
  6
CONTINUOUS
 62
     7
100
AcDbLine
 10
4.017712492412984
 20
-5.107559364457389
 30
0.0
 11
4.010953266265765
 21
-4.994004365183635
 31
0.0
  0
LINE
  5
848
330
1A
100
AcDbEntity
  8
1_TOP
  6
CONTINUOUS
 62
     7
100
AcDbLine
 10
3.996082968741817
 20
-4.697950259934191
 30
0.0
 11
4.009601421036264
 21
-4.971022996282992
 31
0.0
  0
LINE
  5
84C
330
1A
100
AcDbEntity
  8
1_TOP
  6
CONTINUOUS
 62
     7
100
AcDbLine
 10
4.855856534671668
 20
-4.971022996282992
 30
0.0
 11
4.409747608953326
 21
-4.971022996282992
 31
0.0
  0
LINE
  5
851
330
1A
100
AcDbEntity
  8
1_TOP
  6
CONTINUOUS
 62
     7
100
AcDbLine
 10
-0.462302597982715
 20
3.619953436868724
 30
0.0
 11
-0.5745057520270251
 21
3.619953436868724
 31
0.0
  0
LINE
  5
852
330
1A
100
AcDbEntity
  8
1_TOP
  6
CONTINUOUS
 62
     7
100
AcDbLine
 10
3.27554946144521
 20
-4.230211810544652
 30
0.0
 11
3.307993746951958
 21
-4.230211810544652
 31
0.0
  0
LINE
  5
855
330
1A
100
AcDbEntity
  8
1_TOP
  6
CONTINUOUS
 62
     7
100
AcDbLine
 10
3.202549819054908
 20
-4.395136928537492
 30
0.0
 11
3.217420116578847
 21
-4.18560091797282
 31
0.0
  0
LINE
  5
857
330
1A
100
AcDbEntity
  8
1_TOP
  6
CONTINUOUS
 62
     7
100
AcDbLine
 10
-2.67797692905048
 20
-0.5667112387364579
 30
0.0
 11
-2.686088000427176
 21
-0.5721186196542507
 31
0.0
  0
LINE
  5
85C
330
1A
100
AcDbEntity
  8
1_TOP
  6
CONTINUOUS
 62
     7
100
AcDbLine
 10
-2.377973617098998
 20
-4.531673296711896
 30
0.0
 11
-2.432047426276982
 21
-4.531673296711896
 31
0.0
  0
LINE
  5
862
330
1A
100
AcDbEntity
  8
1_TOP
  6
CONTINUOUS
 62
     7
100
AcDbLine
 10
-0.669134918088494
 20
5.781553958758467
 30
0.0
 11
-0.581264978174271
 21
5.76668366123452
 31
0.0
  0
LINE
  5
866
330
1A
100
AcDbEntity
  8
1_TOP
  6
CONTINUOUS
 62
     7
100
AcDbLine
 10
-2.859230518783031
 20
-4.299155917246581
 30
0.0
 11
-3.059303612741559
 21
-4.299155917246581
 31
0.0
  0
LINE
  5
86D
330
1A
100
AcDbEntity
  8
1_TOP
  6
CONTINUOUS
 62
     7
100
AcDbLine
 10
-1.958795266983333
 20
3.619953436868724
 30
0.0
 11
-3.345788472398536
 21
3.619953436868724
 31
0.0
  0
LINE
  5
875
330
1A
100
AcDbEntity
  8
1_TOP
  6
CONTINUOUS
 62
     7
100
AcDbLine
 10
-4.723318761207599
 20
5.57742532911158
 30
0.0
 11
-4.7341335230432
 21
5.55174026975205
 31
0.0
  0
LINE
  5
879
330
1A
100
AcDbEntity
  8
1_TOP
  6
CONTINUOUS
 62
     7
100
AcDbLine
 10
-1.716814970911868
 20
4.573004323630625
 30
0.0
 11
-1.716814970911868
 21
4.570300633171688
 31
0.0
  0
LINE
  5
87A
330
1A
100
AcDbEntity
  8
1_TOP
  6
CONTINUOUS
 62
     7
100
AcDbLine
 10
-1.747907411189206
 20
4.60139307344909
 30
0.0
 11
-2.652291869690934
 21
4.60139307344909
 31
0.0
  0
LINE
  5
894
330
1A
100
AcDbEntity
  8
1_TOP
  6
CONTINUOUS
 62
     7
100
AcDbLine
 10
-3.059303612741559
 20
-4.323489131376668
 30
0.0
 11
-3.059303612741559
 21
-4.299155917246581
 31
0.0
  0
LINE
  5
895
330
1A
100
AcDbEntity
  8
1_TOP
  6
CONTINUOUS
 62
     7
100
AcDbLine
 10
3.055198689044944
 20
-0.6599885595685054
 30
0.0
 11
3.044383927209351
 21
-0.6599885595685054
 31
0.0
  0
LINE
  5
899
330
1A
100
AcDbEntity
  8
1_TOP
  6
CONTINUOUS
 62
     7
100
AcDbLine
 10
-2.806402225848183
 20
4.445930872062398
 30
0.0
 11
-2.806402225848183
 21
4.345894325083133
 31
0.0
  0
LINE
  5
8A4
330
1A
100
AcDbEntity
  8
1_TOP
  6
CONTINUOUS
 62
     7
100
AcDbLine
 10
3.110624343452369
 20
3.09273379738335
 30
0.0
 11
3.110624343452369
 21
3.022437845451976
 31
0.0
  0
LINE
  5
8A7
330
1A
100
AcDbEntity
  8
1_TOP
  6
CONTINUOUS
 62
     7
100
AcDbLine
 10
-4.68016604285153
 20
-4.472192106616118
 30
0.0
 11
-4.699091876063825
 21
-4.472192106616118
 31
0.0
  0
LINE
  5
8A9
330
1A
100
AcDbEntity
  8
1_TOP
  6
CONTINUOUS
 62
     7
100
AcDbLine
 10
-2.922767244567154
 20
-4.531673296711896
 30
0.0
 11
-2.903841411354865
 21
-4.531673296711896
 31
0.0
  0
LINE
  5
8B1
330
1A
100
AcDbEntity
  8
1_TOP
  6
CONTINUOUS
 62
     7
100
AcDbLine
 10
-5.003150723703654
 20
-0.776247249301155
 30
0.0
 11
-4.895003105347692
 21
-0.6680996309451524
 31
0.0
  0
LINE
  5
8B7
330
1A
100
AcDbEntity
  8
1_TOP
  6
CONTINUOUS
 62
     7
100
AcDbLine
 10
3.044383927209351
 20
-0.6437664168150575
 30
0.0
 11
3.044383927209351
 21
-0.646470107273994
 31
0.0
  0
LINE
  5
8C6
330
1A
100
AcDbEntity
  8
1_TOP
  6
CONTINUOUS
 62
     7
100
AcDbLine
 10
3.110624343452369
 20
3.021086000222549
 30
0.0
 11
3.110624343452369
 21
3.094085642612857
 31
0.0
  0
LINE
  5
8CB
330
1A
100
AcDbEntity
  8
1_TOP
  6
CONTINUOUS
 62
     7
100
AcDbLine
 10
3.110624343452369
 20
3.021086000222549
 30
0.0
 11
3.110624343452369
 21
3.094085642612857
 31
0.0
  0
LINE
  5
8D0
330
1A
100
AcDbEntity
  8
1_TOP
  6
CONTINUOUS
 62
     7
100
AcDbLine
 10
-1.361279675566642
 20
-0.5640075482775304
 30
0.0
 11
-1.366687056484441
 21
-0.5545446316714554
 31
0.0
  0
LINE
  5
8D9
330
1A
100
AcDbEntity
  8
1_TOP
  6
CONTINUOUS
 62
     7
100
AcDbLine
 10
3.305290056493105
 20
-4.395136928537492
 30
0.0
 11
3.306641901722531
 21
-4.380266631013545
 31
0.0
  0
LINE
  5
8DB
330
1A
100
AcDbEntity
  8
1_TOP
  6
CONTINUOUS
 62
     7
100
AcDbLine
 10
-2.029091218914706
 20
-0.5207485009351958
 30
0.0
 11
-2.026387528455809
 21
-0.5180448104762592
 31
0.0
  0
LINE
  5
8E2
330
1A
100
AcDbEntity
  8
1_TOP
  6
CONTINUOUS
 62
     7
100
AcDbLine
 10
3.018698867849828
 20
-0.6599885595685054
 30
0.0
 11
3.018698867849828
 21
-0.646470107273994
 31
0.0
  0
LINE
  5
8F0
330
1A
100
AcDbEntity
  8
1_TOP
  6
CONTINUOUS
 62
     7
100
AcDbLine
 10
3.018698867849828
 20
-0.6329516549794665
 30
0.0
 11
3.018698867849828
 21
-0.6356553454384104
 31
0.0
  0
LINE
  5
8F1
330
1A
100
AcDbEntity
  8
1_TOP
  6
CONTINUOUS
 62
     7
100
AcDbLine
 10
-2.606329131889655
 20
-0.5748223101131856
 30
0.0
 11
-2.615792048495795
 21
-0.573470464883677
 31
0.0
  0
LINE
  5
8F4
330
1A
100
AcDbEntity
  8
1_TOP
  6
CONTINUOUS
 62
     7
100
AcDbLine
 10
3.010587796473092
 20
-0.6897291546164
 30
0.0
 11
3.010587796473092
 21
-0.6843217736985359
 31
0.0
  0
LINE
  5
8FC
330
1A
100
AcDbEntity
  8
1_TOP
  6
CONTINUOUS
 62
     7
100
AcDbLine
 10
-4.996391497556404
 20
4.886632416862944
 30
0.0
 11
-5.003150723703654
 21
4.887984262092365
 31
0.0
  0
LINE
  5
8FE
330
1A
100
AcDbEntity
  8
1_TOP
  6
CONTINUOUS
 62
     7
100
AcDbLine
 10
-0.3095440870549164
 20
0.0321561979097078
 30
0.0
 11
-0.3095440870549164
 21
-0.4153045730381298
 31
0.0
  0
LINE
  5
908
330
1A
100
AcDbEntity
  8
1_TOP
  6
CONTINUOUS
 62
     7
100
AcDbLine
 10
-4.731429832584296
 20
-0.6559330238801407
 30
0.0
 11
-4.843632986628606
 21
-0.6599885595685054
 31
0.0
  0
LINE
  5
909
330
1A
100
AcDbEntity
  8
1_TOP
  6
CONTINUOUS
 62
     7
100
AcDbLine
 10
-1.368038901713896
 20
-0.5275077270824076
 30
0.0
 11
-1.368038901713896
 21
-0.5302114175413442
 31
0.0
  0
LINE
  5
90C
330
1A
100
AcDbEntity
  8
1_TOP
  6
CONTINUOUS
 62
     7
100
AcDbLine
 10
-4.732781677813748
 20
4.577059859318987
 30
0.0
 11
-4.731429832584296
 21
3.619953436868724
 31
0.0
  0
LINE
  5
915
330
1A
100
AcDbEntity
  8
1_TOP
  6
CONTINUOUS
 62
     7
100
AcDbLine
 10
-4.842281141399162
 20
5.682869257008628
 30
0.0
 11
-4.77604072515613
 21
5.742350447104418
 31
0.0
  0
LINE
  5
919
330
1A
100
AcDbEntity
  8
1_TOP
  6
CONTINUOUS
 62
     7
100
AcDbLine
 10
-0.6596720014823447
 20
5.730183840039407
 30
0.0
 11
-0.654264620564544
 21
5.616628840765627
 31
0.0
  0
LINE
  5
91E
330
1A
100
AcDbEntity
  8
1_TOP
  6
CONTINUOUS
 62
     7
100
AcDbLine
 10
-0.7948565244273003
 20
-0.603211059931579
 30
0.0
 11
-0.798912060115649
 21
-0.6045629051610804
 31
0.0
  0
LINE
  5
91F
330
1A
100
AcDbEntity
  8
1_TOP
  6
CONTINUOUS
 62
     7
100
AcDbLine
 10
-2.652291869690934
 20
4.60139307344909
 30
0.0
 11
-3.558028173422113
 21
4.60139307344909
 31
0.0
  0
LINE
  5
927
330
1A
100
AcDbEntity
  8
1_TOP
  6
CONTINUOUS
 62
     7
100
AcDbLine
 10
3.043032081979845
 20
3.50369474713609
 30
0.0
 11
3.021402558308684
 21
3.50369474713609
 31
0.0
  0
LINE
  5
92F
330
1A
100
AcDbEntity
  8
1_TOP
  6
CONTINUOUS
 62
     7
100
AcDbLine
 10
-2.011517230931863
 20
-0.5166929652468328
 30
0.0
 11
-2.007461695243513
 21
-0.5193966557057605
 31
0.0
  0
LINE
  5
94B
330
1A
100
AcDbEntity
  8
1_TOP
  6
CONTINUOUS
 62
     7
100
AcDbLine
 10
-1.795221994219943
 20
-0.6059147503905156
 30
0.0
 11
-2.792883773553687
 21
-0.6059147503905156
 31
0.0
  0
LINE
  5
955
330
1A
100
AcDbEntity
  8
1_TOP
  6
CONTINUOUS
 62
     7
100
AcDbLine
 10
3.499955769533847
 20
-5.122429661981336
 30
0.0
 11
3.494548388616052
 21
-5.118374126292988
 31
0.0
  0
LINE
  5
965
330
1A
100
AcDbEntity
  8
1_TOP
  6
CONTINUOUS
 62
     7
100
AcDbLine
 10
-3.241696389730929
 20
-0.5748223101131856
 30
0.0
 11
-3.248455615878173
 21
-0.5748223101131856
 31
0.0
  0
LINE
  5
982
330
1A
100
AcDbEntity
  8
1_TOP
  6
CONTINUOUS
 62
     7
100
AcDbLine
 10
-5.003150723703654
 20
4.887984262092365
 30
0.0
 11
-5.003150723703654
 21
5.620684376453983
 31
0.0
  0
LINE
  5
98D
330
1A
100
AcDbEntity
  8
1_TOP
  6
CONTINUOUS
 62
     7
100
AcDbLine
 10
-0.5880242043215203
 20
5.585536400488297
 30
0.0
 11
-0.6083018827632612
 21
5.603110388471182
 31
0.0
  0
LINE
  5
99A
330
1A
100
AcDbEntity
  8
1_TOP
  6
CONTINUOUS
 62
     7
100
AcDbLine
 10
-3.302529425056154
 20
-0.5450817150652996
 30
0.0
 11
-3.305233115515058
 21
-0.5558964769008743
 31
0.0
  0
LINE
  5
9A7
330
1A
100
AcDbEntity
  8
1_TOP
  6
CONTINUOUS
 62
     7
100
AcDbLine
 10
3.113328033911304
 20
2.754772490021006
 30
0.0
 11
3.111976188681797
 21
2.754772490021006
 31
0.0
  0
LINE
  5
9AA
330
1A
100
AcDbEntity
  8
1_TOP
  6
CONTINUOUS
 62
     7
100
AcDbLine
 10
-3.58776876847
 20
4.221524563973762
 30
0.0
 11
-3.589120613699452
 21
4.221524563973762
 31
0.0
  0
LINE
  5
9AB
330
1A
100
AcDbEntity
  8
1_TOP
  6
CONTINUOUS
 62
     7
100
AcDbLine
 10
-2.499533358763139
 20
4.345894325083133
 30
0.0
 11
-2.499533358763139
 21
4.445930872062398
 31
0.0
  0
LINE
  5
9AC
330
1A
100
AcDbEntity
  8
1_TOP
  6
CONTINUOUS
 62
     7
100
AcDbLine
 10
3.111976188681797
 20
3.094085642612857
 30
0.0
 11
3.111976188681797
 21
3.09273379738335
 31
0.0
  0
LINE
  5
9B1
330
1A
100
AcDbEntity
  8
1_TOP
  6
CONTINUOUS
 62
     7
100
AcDbLine
 10
3.111976188681797
 20
3.0846227260067
 30
0.0
 11
3.111976188681797
 21
3.05758582141767
 31
0.0
  0
LINE
  5
9B9
330
1A
100
AcDbEntity
  8
1_TOP
  6
CONTINUOUS
 62
     7
100
AcDbLine
 10
3.111976188681797
 20
2.754772490021006
 30
0.0
 11
3.113328033911304
 21
2.754772490021006
 31
0.0
  0
LINE
  5
9BD
330
1A
100
AcDbEntity
  8
1_TOP
  6
CONTINUOUS
 62
     7
100
AcDbLine
 10
3.110624343452369
 20
2.843994275164696
 30
0.0
 11
3.110624343452369
 21
2.842642429935261
 31
0.0
  0
LINE
  5
9C0
330
1A
100
AcDbEntity
  8
1_TOP
  6
CONTINUOUS
 62
     7
100
AcDbLine
 10
3.110624343452369
 20
3.004863857469173
 30
0.0
 11
3.110624343452369
 21
3.022437845451976
 31
0.0
  0
LINE
  5
9C4
330
1A
100
AcDbEntity
  8
1_TOP
  6
CONTINUOUS
 62
     7
100
AcDbLine
 10
4.720672011726716
 20
-0.0841024918230151
 30
0.0
 11
4.720672011726716
 21
-0.5315632627707723
 31
0.0
  0
LINE
  5
9CA
330
1A
100
AcDbEntity
  8
1_TOP
  6
CONTINUOUS
 62
     7
100
AcDbLine
 10
3.351252794294373
 20
5.666647114255261
 30
0.0
 11
3.237697795020594
 21
5.613925150306764
 31
0.0
  0
LINE
  5
9CB
330
1A
100
AcDbEntity
  8
1_TOP
  6
CONTINUOUS
 62
     7
100
AcDbLine
 10
-2.031794909373608
 20
-0.5248040366235534
 30
0.0
 11
-2.029091218914706
 21
-0.5207485009351958
 31
0.0
  0
LINE
  5
9CE
330
1A
100
AcDbEntity
  8
1_TOP
  6
CONTINUOUS
 62
     7
100
AcDbLine
 10
3.189031366760466
 20
5.488203543967967
 30
0.0
 11
3.187679521530959
 21
5.499018305803551
 31
0.0
  0
LINE
  5
9D2
330
1A
100
AcDbEntity
  8
1_TOP
  6
CONTINUOUS
 62
     7
100
AcDbLine
 10
-4.508375369725126
 20
-0.6045629051610804
 30
0.0
 11
-4.512430905413474
 21
-0.6018592147021527
 31
0.0
  0
LINE
  5
9D3
330
1A
100
AcDbEntity
  8
1_TOP
  6
CONTINUOUS
 62
     7
100
AcDbLine
 10
-0.5502788668832519
 20
-4.481655023222264
 30
0.0
 11
-0.5583899382599471
 21
-4.477599487533916
 31
0.0
  0
LINE
  5
9D4
330
1A
100
AcDbEntity
  8
1_TOP
  6
CONTINUOUS
 62
     7
100
AcDbLine
 10
3.349900949064952
 20
5.540925507916457
 30
0.0
 11
3.351252794294373
 21
5.459814794149508
 31
0.0
  0
LINE
  5
9D7
330
1A
100
AcDbEntity
  8
1_TOP
  6
CONTINUOUS
 62
     7
100
AcDbLine
 10
3.295827139886948
 20
4.454041943439046
 30
0.0
 11
3.276901306674644
 21
3.50369474713609
 31
0.0
  0
LINE
  5
9D9
330
1A
100
AcDbEntity
  8
1_TOP
  6
CONTINUOUS
 62
     7
100
AcDbLine
 10
-4.758573066159605
 20
-4.507340082581802
 30
0.0
 11
-4.770739673224649
 21
-4.531673296711896
 31
0.0
  0
LINE
  5
9DB
330
1A
100
AcDbEntity
  8
1_TOP
  6
CONTINUOUS
 62
     7
100
AcDbLine
 10
3.04573577243878
 20
4.102562183782175
 30
0.0
 11
3.04573577243878
 21
4.093099267176027
 31
0.0
  0
LINE
  5
9DE
330
1A
100
AcDbEntity
  8
1_TOP
  6
CONTINUOUS
 62
     7
100
AcDbLine
 10
-2.311733200855973
 20
-4.531673296711896
 30
0.0
 11
-2.383380998016798
 21
-4.531673296711896
 31
0.0
  0
LINE
  5
9DF
330
1A
100
AcDbEntity
  8
1_TOP
  6
CONTINUOUS
 62
     7
100
AcDbLine
 10
3.044383927209351
 20
4.074173433963716
 30
0.0
 11
3.032217320144268
 21
4.074173433963716
 31
0.0
  0
LINE
  5
9E3
330
1A
100
AcDbEntity
  8
1_TOP
  6
CONTINUOUS
 62
     7
100
AcDbLine
 10
4.824764094394346
 20
5.769387351693459
 30
0.0
 11
3.351252794294373
 21
5.666647114255261
 31
0.0
  0
LINE
  5
9E6
330
1A
100
AcDbEntity
  8
1_TOP
  6
CONTINUOUS
 62
     7
100
AcDbLine
 10
3.021402558308684
 20
-0.7654324874655734
 30
0.0
 11
3.043032081979845
 21
-0.7667843326949995
 31
0.0
  0
LINE
  5
9E8
330
1A
100
AcDbEntity
  8
1_TOP
  6
CONTINUOUS
 62
     7
100
AcDbLine
 10
3.110624343452369
 20
2.754772490021006
 30
0.0
 11
3.110624343452369
 21
2.768290942315532
 31
0.0
  0
LINE
  5
9E9
330
1A
100
AcDbEntity
  8
1_TOP
  6
CONTINUOUS
 62
     7
100
AcDbLine
 10
-3.921674540144034
 20
-0.5153411200174048
 30
0.0
 11
-3.917619004455688
 21
-0.5166929652468328
 31
0.0
  0
LINE
  5
9EA
330
1A
100
AcDbEntity
  8
1_TOP
  6
CONTINUOUS
 62
     7
100
AcDbLine
 10
3.029513629685407
 20
-0.646470107273994
 30
0.0
 11
3.029513629685407
 21
-0.6599885595685054
 31
0.0
  0
LINE
  5
9EE
330
1A
100
AcDbEntity
  8
1_TOP
  6
CONTINUOUS
 62
     7
100
AcDbLine
 10
-1.386964734926189
 20
-0.5166929652468328
 30
0.0
 11
-1.382909199237841
 21
-0.5153411200174048
 31
0.0
  0
LINE
  5
9F3
330
1A
100
AcDbEntity
  8
1_TOP
  6
CONTINUOUS
 62
     7
100
AcDbLine
 10
3.055198689044944
 20
-0.6775625475513168
 30
0.0
 11
3.055198689044944
 21
-0.6856736189280444
 31
0.0
  0
LINE
  5
9F5
330
1A
100
AcDbEntity
  8
1_TOP
  6
CONTINUOUS
 62
     7
100
AcDbLine
 10
-3.333621865333491
 20
-0.5748223101131856
 30
0.0
 11
-3.87571180234275
 21
-0.5748223101131856
 31
0.0
  0
LINE
  5
9F6
330
1A
100
AcDbEntity
  8
1_TOP
  6
CONTINUOUS
 62
     7
100
AcDbLine
 10
-3.586416923240555
 20
4.570300633171688
 30
0.0
 11
-3.58776876847
 21
4.221524563973762
 31
0.0
  0
LINE
  5
9F7
330
1A
100
AcDbEntity
  8
1_TOP
  6
CONTINUOUS
 62
     7
100
AcDbLine
 10
3.093050355469479
 20
-0.7100068330581393
 30
0.0
 11
3.093050355469479
 21
-0.7045994521402679
 31
0.0
  0
LINE
  5
9FA
330
1A
100
AcDbEntity
  8
1_TOP
  6
CONTINUOUS
 62
     7
100
AcDbLine
 10
-1.71816681614132
 20
4.570300633171688
 30
0.0
 11
-1.716814970911868
 21
4.570300633171688
 31
0.0
  0
LINE
  5
9FB
330
1A
100
AcDbEntity
  8
1_TOP
  6
CONTINUOUS
 62
     7
100
AcDbLine
 10
3.025458093997049
 20
-0.7208215948937302
 30
0.0
 11
3.013291486932037
 21
-0.7208215948937302
 31
0.0
  0
LINE
  5
9FD
330
1A
100
AcDbEntity
  8
1_TOP
  6
CONTINUOUS
 62
     7
100
AcDbLine
 10
-2.775416114557156
 20
-4.531673296711896
 30
0.0
 11
-2.705120162625782
 21
-4.531673296711896
 31
0.0
  0
LINE
  5
9FE
330
1A
100
AcDbEntity
  8
1_TOP
  6
CONTINUOUS
 62
     7
100
AcDbLine
 10
3.082235593633902
 20
-0.7113586782875743
 30
0.0
 11
3.082235593633902
 21
-0.7154142139759374
 31
0.0
  0
LINE
  5
A01
330
1A
100
AcDbEntity
  8
1_TOP
  6
CONTINUOUS
 62
     7
100
AcDbLine
 10
3.04573577243878
 20
-0.6897291546164
 30
0.0
 11
3.04573577243878
 21
-0.6856736189280444
 31
0.0
  0
LINE
  5
A03
330
1A
100
AcDbEntity
  8
1_TOP
  6
CONTINUOUS
 62
     7
100
AcDbLine
 10
-1.789920942288457
 20
-4.323489131376668
 30
0.0
 11
-1.788569097059011
 21
-4.299155917246581
 31
0.0
  0
LINE
  5
A07
330
1A
100
AcDbEntity
  8
1_TOP
  6
CONTINUOUS
 62
     7
100
AcDbLine
 10
-4.127261344006681
 20
-4.35187788119511
 30
0.0
 11
-4.127261344006681
 21
-4.323489131376668
 31
0.0
  0
LINE
  5
A08
330
1A
100
AcDbEntity
  8
1_TOP
  6
CONTINUOUS
 62
     7
100
AcDbLine
 10
3.020050713079249
 20
-0.6870254641574708
 30
0.0
 11
3.020050713079249
 21
-0.6829699284691078
 31
0.0
  0
LINE
  5
A09
330
1A
100
AcDbEntity
  8
1_TOP
  6
CONTINUOUS
 62
     7
100
AcDbLine
 10
-3.494597776624304
 20
-4.27211901265759
 30
0.0
 11
-3.493245931394851
 21
-4.299155917246581
 31
0.0
  0
LINE
  5
A0E
330
1A
100
AcDbEntity
  8
1_TOP
  6
CONTINUOUS
 62
     7
100
AcDbLine
 10
3.111976188681797
 20
2.780457549380543
 30
0.0
 11
3.111976188681797
 21
2.825068441952387
 31
0.0
  0
LINE
  5
A0F
330
1A
100
AcDbEntity
  8
1_TOP
  6
CONTINUOUS
 62
     7
100
AcDbLine
 10
-0.6313895806502235
 20
-4.493821630287307
 30
0.0
 11
-0.6313895806502235
 21
-4.547895439465288
 31
0.0
  0
LINE
  5
A16
330
1A
100
AcDbEntity
  8
1_TOP
  6
CONTINUOUS
 62
     7
100
AcDbLine
 10
3.111976188681797
 20
3.049474750041023
 30
0.0
 11
3.113328033911304
 21
3.049474750041023
 31
0.0
  0
LINE
  5
A19
330
1A
100
AcDbEntity
  8
1_TOP
  6
CONTINUOUS
 62
     7
100
AcDbLine
 10
3.110624343452369
 20
2.762883561397741
 30
0.0
 11
3.110624343452369
 21
2.775050168462755
 31
0.0
  0
LINE
  5
A1A
330
1A
100
AcDbEntity
  8
1_TOP
  6
CONTINUOUS
 62
     7
100
AcDbLine
 10
-0.3027848609076751
 20
-0.776247249301155
 30
0.0
 11
-0.7407827152493196
 21
-0.776247249301155
 31
0.0
  0
LINE
  5
A21
330
1A
100
AcDbEntity
  8
1_TOP
  6
CONTINUOUS
 62
     7
100
AcDbLine
 10
-4.776147054142448
 20
-4.54924728469474
 30
0.0
 11
-4.777498899371892
 21
-4.561413891759783
 31
0.0
  0
LINE
  5
A25
330
1A
100
AcDbEntity
  8
1_TOP
  6
CONTINUOUS
 62
     7
100
AcDbLine
 10
-4.699091876063825
 20
-4.912893651416663
 30
0.0
 11
-4.550388900824375
 21
-4.561413891759783
 31
0.0
  0
LINE
  5
A2C
330
1A
100
AcDbEntity
  8
1_TOP
  6
CONTINUOUS
 62
     7
100
AcDbLine
 10
-4.129965034465577
 20
-4.27211901265759
 30
0.0
 11
-4.327334437965208
 21
-4.27211901265759
 31
0.0
  0
LINE
  5
A2F
330
1A
100
AcDbEntity
  8
1_TOP
  6
CONTINUOUS
 62
     7
100
AcDbLine
 10
-2.859230518783031
 20
-4.27211901265759
 30
0.0
 11
-2.679435103266243
 21
-4.27211901265759
 31
0.0
  0
LINE
  5
A34
330
1A
100
AcDbEntity
  8
1_TOP
  6
CONTINUOUS
 62
     7
100
AcDbLine
 10
3.431011662831909
 20
-4.304563298164373
 30
0.0
 11
3.40397475824295
 21
-4.304563298164373
 31
0.0
  0
LINE
  5
A37
330
1A
100
AcDbEntity
  8
1_TOP
  6
CONTINUOUS
 62
     7
100
AcDbLine
 10
-3.937896682897427
 20
-0.5518409412125188
 30
0.0
 11
-3.943304063815226
 21
-0.5613038578186725
 31
0.0
  0
LINE
  5
A39
330
1A
100
AcDbEntity
  8
1_TOP
  6
CONTINUOUS
 62
     7
100
AcDbLine
 10
3.313401127869756
 20
-4.364044488260153
 30
0.0
 11
3.312049282640322
 21
-4.380266631013545
 31
0.0
  0
LINE
  5
A3D
330
1A
100
AcDbEntity
  8
1_TOP
  6
CONTINUOUS
 62
     7
100
AcDbLine
 10
3.978508980758934
 20
-4.365396333489606
 30
0.0
 11
3.943361004793255
 21
-4.365396333489606
 31
0.0
  0
LINE
  5
A44
330
1A
100
AcDbEntity
  8
1_TOP
  6
CONTINUOUS
 62
     7
100
AcDbLine
 10
-4.870669891217596
 20
5.849146220230985
 30
0.0
 11
-4.739540903960992
 21
5.884294196196673
 31
0.0
  0
LINE
  5
A47
330
1A
100
AcDbEntity
  8
1_TOP
  6
CONTINUOUS
 62
     7
100
AcDbLine
 10
-3.574250316175512
 20
4.194487659384714
 30
0.0
 11
-3.582361387552207
 21
4.201246885532015
 31
0.0
  0
LINE
  5
A4C
330
1A
100
AcDbEntity
  8
1_TOP
  6
CONTINUOUS
 62
     7
100
AcDbLine
 10
4.032582789936938
 20
-4.365396333489606
 30
0.0
 11
3.986620052135659
 21
-4.365396333489606
 31
0.0
  0
LINE
  5
A4D
330
1A
100
AcDbEntity
  8
1_TOP
  6
CONTINUOUS
 62
     7
100
AcDbLine
 10
-2.455028795177623
 20
-4.531673296711896
 30
0.0
 11
-2.437454807194779
 21
-4.531673296711896
 31
0.0
  0
LINE
  5
A4F
330
1A
100
AcDbEntity
  8
1_TOP
  6
CONTINUOUS
 62
     7
100
AcDbLine
 10
3.943361004793255
 20
-4.365396333489606
 30
0.0
 11
3.960934992776129
 21
-4.365396333489606
 31
0.0
  0
LINE
  5
A56
330
1A
100
AcDbEntity
  8
1_TOP
  6
CONTINUOUS
 62
     7
100
AcDbLine
 10
3.96904606415278
 20
-4.365396333489606
 30
0.0
 11
3.978508980758934
 21
-4.365396333489606
 31
0.0
  0
LINE
  5
A58
330
1A
100
AcDbEntity
  8
1_TOP
  6
CONTINUOUS
 62
     7
100
AcDbLine
 10
4.626042845665241
 20
-4.224804429626853
 30
0.0
 11
4.626042845665241
 21
-4.245082108068601
 31
0.0
  0
LINE
  5
A5F
330
1A
100
AcDbEntity
  8
1_TOP
  6
CONTINUOUS
 62
     7
100
AcDbLine
 10
-1.999350623866817
 20
-0.5586001673597377
 30
0.0
 11
-2.002054314325714
 21
-0.5491372507535748
 31
0.0
  0
LINE
  5
A60
330
1A
100
AcDbEntity
  8
1_TOP
  6
CONTINUOUS
 62
     7
100
AcDbLine
 10
4.874782367883982
 20
-4.380266631013545
 30
0.0
 11
4.874782367883982
 21
-4.382970321472449
 31
0.0
  0
LINE
  5
A66
330
1A
100
AcDbEntity
  8
1_TOP
  6
CONTINUOUS
 62
     7
100
AcDbLine
 10
4.32728504995694
 20
-4.994004365183635
 30
0.0
 11
4.010953266265765
 21
-4.994004365183635
 31
0.0
  0
LINE
  5
A68
330
1A
100
AcDbEntity
  8
1_TOP
  6
CONTINUOUS
 62
     7
100
AcDbLine
 10
3.943361004793255
 20
-4.697950259934191
 30
0.0
 11
3.96904606415278
 21
-4.673617045804095
 31
0.0
  0
LINE
  5
A6B
330
1A
100
AcDbEntity
  8
1_TOP
  6
CONTINUOUS
 62
     7
100
AcDbLine
 10
4.409747608953326
 20
-4.971022996282992
 30
0.0
 11
4.396229156658885
 21
-4.697950259934191
 31
0.0
  0
LINE
  5
A6E
330
1A
100
AcDbEntity
  8
1_TOP
  6
CONTINUOUS
 62
     7
100
AcDbLine
 10
4.692283261908324
 20
-4.104490204205847
 30
0.0
 11
4.659838976401498
 21
-4.288341155410981
 31
0.0
  0
LINE
  5
A70
330
1A
100
AcDbEntity
  8
1_TOP
  6
CONTINUOUS
 62
     7
100
AcDbLine
 10
3.386400770260067
 20
-4.304563298164373
 30
0.0
 11
3.276901306674644
 21
-4.304563298164373
 31
0.0
  0
LINE
  5
A72
330
1A
100
AcDbEntity
  8
1_TOP
  6
CONTINUOUS
 62
     7
100
AcDbLine
 10
-2.668514012444331
 20
-0.5477854055241469
 30
0.0
 11
-2.671217702903229
 21
-0.5586001673597377
 31
0.0
  0
LINE
  5
A86
330
1A
100
AcDbEntity
  8
1_TOP
  6
CONTINUOUS
 62
     7
100
AcDbLine
 10
-0.5583899382599471
 20
-4.477599487533916
 30
0.0
 11
-0.5759639262427872
 21
-4.473543951845568
 31
0.0
  0
LINE
  5
A8D
330
1A
100
AcDbEntity
  8
1_TOP
  6
CONTINUOUS
 62
     7
100
AcDbLine
 10
-0.7407827152493196
 20
-0.776247249301155
 30
0.0
 11
-0.7556530127732635
 21
-0.6613404047979332
 31
0.0
  0
LINE
  5
A91
330
1A
100
AcDbEntity
  8
1_TOP
  6
CONTINUOUS
 62
     7
100
AcDbLine
 10
-1.724926042288565
 20
4.591930156842936
 30
0.0
 11
-1.719518661370763
 21
4.583819085466199
 31
0.0
  0
LINE
  5
A94
330
1A
100
AcDbEntity
  8
1_TOP
  6
CONTINUOUS
 62
     7
100
AcDbLine
 10
-1.71816681614132
 20
4.208006111679242
 30
0.0
 11
-1.724926042288565
 21
4.199895040302505
 31
0.0
  0
LINE
  5
AA0
330
1A
100
AcDbEntity
  8
1_TOP
  6
CONTINUOUS
 62
     7
100
AcDbLine
 10
-1.336946461436557
 20
-0.5748223101131856
 30
0.0
 11
-1.347761223272147
 21
-0.573470464883677
 31
0.0
  0
LINE
  5
AAC
330
1A
100
AcDbEntity
  8
1_TOP
  6
CONTINUOUS
 62
     7
100
AcDbLine
 10
3.111976188681797
 20
2.808846299199001
 30
0.0
 11
3.111976188681797
 21
2.843994275164696
 31
0.0
  0
LINE
  5
ABF
330
1A
100
AcDbEntity
  8
1_TOP
  6
CONTINUOUS
 62
     7
100
AcDbLine
 10
4.824764094394346
 20
5.769387351693459
 30
0.0
 11
4.409747608953326
 21
5.739646756645564
 31
0.0
  0
LINE
  5
AC7
330
1A
100
AcDbEntity
  8
1_TOP
  6
CONTINUOUS
 62
     7
100
AcDbLine
 10
-1.39777949676178
 20
-0.5302114175413442
 30
0.0
 11
-1.39777949676178
 21
-0.5261558818529795
 31
0.0
  0
LINE
  5
ACB
330
1A
100
AcDbEntity
  8
1_TOP
  6
CONTINUOUS
 62
     7
100
AcDbLine
 10
3.111976188681797
 20
2.754772490021006
 30
0.0
 11
3.110624343452369
 21
2.762883561397741
 31
0.0
  0
LINE
  5
ACD
330
1A
100
AcDbEntity
  8
1_TOP
  6
CONTINUOUS
 62
     7
100
AcDbLine
 10
3.111976188681797
 20
2.843994275164696
 30
0.0
 11
3.111976188681797
 21
2.842642429935261
 31
0.0
  0
LINE
  5
AE6
330
1A
100
AcDbEntity
  8
1_TOP
  6
CONTINUOUS
 62
     7
100
AcDbLine
 10
-1.419409020432972
 20
-0.573470464883677
 30
0.0
 11
-1.428871937039118
 21
-0.5748223101131856
 31
0.0
  0
LINE
  5
AF4
330
1A
100
AcDbEntity
  8
1_TOP
  6
CONTINUOUS
 62
     7
100
AcDbLine
 10
-4.770739673224649
 20
-4.531673296711896
 30
0.0
 11
-4.774795208912996
 21
-4.547895439465288
 31
0.0
  0
LINE
  5
AF6
330
1A
100
AcDbEntity
  8
1_TOP
  6
CONTINUOUS
 62
     7
100
AcDbLine
 10
3.01734702262032
 20
-0.6910809998458351
 30
0.0
 11
3.010587796473092
 21
-0.6910809998458351
 31
0.0
  0
LINE
  5
AF7
330
1A
100
AcDbEntity
  8
1_TOP
  6
CONTINUOUS
 62
     7
100
AcDbLine
 10
-2.637421572166994
 20
-0.5450817150652996
 30
0.0
 11
-2.637421572166994
 21
-0.5437298698357822
 31
0.0
  0
LINE
  5
AFB
330
1A
100
AcDbEntity
  8
1_TOP
  6
CONTINUOUS
 62
     7
100
AcDbLine
 10
3.010587796473092
 20
-0.6599885595685054
 30
0.0
 11
3.010587796473092
 21
-0.646470107273994
 31
0.0
  0
LINE
  5
B01
330
1A
100
AcDbEntity
  8
1_TOP
  6
CONTINUOUS
 62
     7
100
AcDbLine
 10
3.010587796473092
 20
-0.6451182620445659
 30
0.0
 11
3.010587796473092
 21
-0.646470107273994
 31
0.0
  0
LINE
  5
B04
330
1A
100
AcDbEntity
  8
1_TOP
  6
CONTINUOUS
 62
     7
100
AcDbLine
 10
3.018698867849828
 20
-0.6599885595685054
 30
0.0
 11
3.010587796473092
 21
-0.6599885595685054
 31
0.0
  0
LINE
  5
B06
330
1A
100
AcDbEntity
  8
1_TOP
  6
CONTINUOUS
 62
     7
100
AcDbLine
 10
-4.996391497556404
 20
4.439171645915099
 30
0.0
 11
-5.003150723703654
 21
4.437819800685671
 31
0.0
  0
LINE
  5
B0A
330
1A
100
AcDbEntity
  8
1_TOP
  6
CONTINUOUS
 62
     7
100
AcDbLine
 10
-4.563801024132559
 20
-0.776247249301155
 30
0.0
 11
-5.003150723703654
 21
-0.776247249301155
 31
0.0
  0
LINE
  5
B0D
330
1A
100
AcDbEntity
  8
1_TOP
  6
CONTINUOUS
 62
     7
100
AcDbLine
 10
-4.895003105347692
 20
-0.6680996309451524
 30
0.0
 11
-4.895003105347692
 21
3.619953436868724
 31
0.0
  0
LINE
  5
B13
330
1A
100
AcDbEntity
  8
1_TOP
  6
CONTINUOUS
 62
     7
100
AcDbLine
 10
-4.650319118817323
 20
5.616628840765627
 30
0.0
 11
-4.678707868635767
 21
5.612573305077265
 31
0.0
  0
LINE
  5
B15
330
1A
100
AcDbEntity
  8
1_TOP
  6
CONTINUOUS
 62
     7
100
AcDbLine
 10
-4.900410486265491
 20
5.517944139015862
 30
0.0
 11
-4.885540188741545
 21
5.604462233700617
 31
0.0
  0
LINE
  5
B19
330
1A
100
AcDbEntity
  8
1_TOP
  6
CONTINUOUS
 62
     7
100
AcDbLine
 10
-3.320103413038998
 20
5.611221459847829
 30
0.0
 11
-4.650319118817323
 21
5.616628840765627
 31
0.0
  0
LINE
  5
B1B
330
1A
100
AcDbEntity
  8
1_TOP
  6
CONTINUOUS
 62
     7
100
AcDbLine
 10
-0.7880972982800474
 20
-0.5964518337843599
 30
0.0
 11
-0.7908009887389519
 21
-0.6005073694727246
 31
0.0
  0
LINE
  5
B60
330
1A
100
AcDbEntity
  8
1_TOP
  6
CONTINUOUS
 62
     7
100
AcDbLine
 10
-2.63877341739644
 20
-0.5248040366235534
 30
0.0
 11
-2.637421572166994
 21
-0.5288595723118358
 31
0.0
  0
LINE
  5
B6F
330
1A
100
AcDbEntity
  8
1_TOP
  6
CONTINUOUS
 62
     7
100
AcDbLine
 10
-2.033146754603054
 20
-0.5477854055241469
 30
0.0
 11
-2.035850445061957
 21
-0.5586001673597377
 31
0.0
  0
LINE
  5
B77
330
1A
100
AcDbEntity
  8
1_TOP
  6
CONTINUOUS
 62
     7
100
AcDbLine
 10
-0.5690983711092244
 20
5.531462591310305
 30
0.0
 11
-0.5745057520270251
 21
5.559851341128767
 31
0.0
  0
LINE
  5
B7C
330
1A
100
AcDbEntity
  8
1_TOP
  6
CONTINUOUS
 62
     7
100
AcDbLine
 10
3.010587796473092
 20
-0.6924328450752651
 30
0.0
 11
3.010587796473092
 21
-0.723525285352586
 31
0.0
  0
LINE
  5
B86
330
1A
100
AcDbEntity
  8
1_TOP
  6
CONTINUOUS
 62
     7
100
AcDbLine
 10
-0.3027848609076751
 20
5.620684376453983
 30
0.0
 11
-0.4055250983458397
 21
5.517944139015862
 31
0.0
  0
LINE
  5
B94
330
1A
100
AcDbEntity
  8
1_TOP
  6
CONTINUOUS
 62
     7
100
AcDbLine
 10
-2.652291869690934
 20
4.235043016268193
 30
0.0
 11
-2.557662703629466
 21
4.264783611316087
 31
0.0
  0
LINE
  5
B9A
330
1A
100
AcDbEntity
  8
1_TOP
  6
CONTINUOUS
 62
     7
100
AcDbLine
 10
3.110624343452369
 20
2.754772490021006
 30
0.0
 11
3.111976188681797
 21
2.754772490021006
 31
0.0
  0
LINE
  5
B9F
330
1A
100
AcDbEntity
  8
1_TOP
  6
CONTINUOUS
 62
     7
100
AcDbLine
 10
3.111976188681797
 20
2.826420287181814
 30
0.0
 11
3.111976188681797
 21
2.843994275164696
 31
0.0
  0
LINE
  5
BA7
330
1A
100
AcDbEntity
  8
1_TOP
  6
CONTINUOUS
 62
     7
100
AcDbLine
 10
3.110624343452369
 20
3.022437845451976
 30
0.0
 11
3.110624343452369
 21
3.030548916828712
 31
0.0
  0
LINE
  5
BAC
330
1A
100
AcDbEntity
  8
1_TOP
  6
CONTINUOUS
 62
     7
100
AcDbLine
 10
3.184975831072105
 20
5.501721996262407
 30
0.0
 11
3.122790950517372
 21
5.496314615344615
 31
0.0
  0
LINE
  5
BB1
330
1A
100
AcDbEntity
  8
1_TOP
  6
CONTINUOUS
 62
     7
100
AcDbLine
 10
3.111976188681797
 20
3.05758582141767
 30
0.0
 11
3.111976188681797
 21
3.049474750041023
 31
0.0
  0
LINE
  5
BB2
330
1A
100
AcDbEntity
  8
1_TOP
  6
CONTINUOUS
 62
     7
100
AcDbLine
 10
-0.5313530336709529
 20
-4.500580856434559
 30
0.0
 11
-0.5435196407359993
 21
-4.487062404140064
 31
0.0
  0
LINE
  5
BB4
330
1A
100
AcDbEntity
  8
1_TOP
  6
CONTINUOUS
 62
     7
100
AcDbLine
 10
3.349900949064952
 20
5.650424971501878
 30
0.0
 11
3.349900949064952
 21
5.607165924159475
 31
0.0
  0
LINE
  5
BB8
330
1A
100
AcDbEntity
  8
1_TOP
  6
CONTINUOUS
 62
     7
100
AcDbLine
 10
-0.9517769000297535
 20
-4.35187788119511
 30
0.0
 11
-0.9531287452592067
 21
-4.323489131376668
 31
0.0
  0
LINE
  5
BBB
330
1A
100
AcDbEntity
  8
1_TOP
  6
CONTINUOUS
 62
     7
100
AcDbLine
 10
3.057902379503798
 20
4.454041943439046
 30
0.0
 11
3.051143153356579
 21
4.279653908840034
 31
0.0
  0
LINE
  5
BBF
330
1A
100
AcDbEntity
  8
1_TOP
  6
CONTINUOUS
 62
     7
100
AcDbLine
 10
3.057902379503798
 20
4.45809747912741
 30
0.0
 11
3.057902379503798
 21
4.454041943439046
 31
0.0
  0
LINE
  5
BC1
330
1A
100
AcDbEntity
  8
1_TOP
  6
CONTINUOUS
 62
     7
100
AcDbLine
 10
-2.901137720895961
 20
-4.531673296711896
 30
0.0
 11
-2.918711708878806
 21
-4.531673296711896
 31
0.0
  0
LINE
  5
BC3
330
1A
100
AcDbEntity
  8
1_TOP
  6
CONTINUOUS
 62
     7
100
AcDbLine
 10
3.057902379503798
 20
4.485134383716369
 30
0.0
 11
3.044383927209351
 21
4.486486228945869
 31
0.0
  0
LINE
  5
BC7
330
1A
100
AcDbEntity
  8
1_TOP
  6
CONTINUOUS
 62
     7
100
AcDbLine
 10
4.824764094394346
 20
4.773077417589152
 30
0.0
 11
4.824764094394346
 21
5.504425686721342
 31
0.0
  0
LINE
  5
BCB
330
1A
100
AcDbEntity
  8
1_TOP
  6
CONTINUOUS
 62
     7
100
AcDbLine
 10
4.824764094394346
 20
-0.5329151080002075
 30
0.0
 11
4.824764094394346
 21
-0.8925059390337978
 31
0.0
  0
LINE
  5
BCD
330
1A
100
AcDbEntity
  8
1_TOP
  6
CONTINUOUS
 62
     7
100
AcDbLine
 10
-3.931137456750183
 20
-0.5180448104762592
 30
0.0
 11
-3.927081921061835
 21
-0.5166929652468328
 31
0.0
  0
LINE
  5
BCF
330
1A
100
AcDbEntity
  8
1_TOP
  6
CONTINUOUS
 62
     7
100
AcDbLine
 10
3.029513629685407
 20
-0.6370071906678384
 30
0.0
 11
3.029513629685407
 21
-0.6343035002088947
 31
0.0
  0
LINE
  5
BD1
330
1A
100
AcDbEntity
  8
1_TOP
  6
CONTINUOUS
 62
     7
100
AcDbLine
 10
-1.395075806302886
 20
-0.5221003461646239
 30
0.0
 11
-1.392372115843981
 21
-0.5180448104762592
 31
0.0
  0
LINE
  5
BD2
330
1A
100
AcDbEntity
  8
1_TOP
  6
CONTINUOUS
 62
     7
100
AcDbLine
 10
-2.45908433086597
 20
-4.531673296711896
 30
0.0
 11
-2.476658318848813
 21
-4.531673296711896
 31
0.0
  0
LINE
  5
BD7
330
1A
100
AcDbEntity
  8
1_TOP
  6
CONTINUOUS
 62
     7
100
AcDbLine
 10
-2.852471292635779
 20
-4.531673296711896
 30
0.0
 11
-2.870045280618623
 21
-4.531673296711896
 31
0.0
  0
LINE
  5
BD9
330
1A
100
AcDbEntity
  8
1_TOP
  6
CONTINUOUS
 62
     7
100
AcDbLine
 10
3.055198689044944
 20
-0.6599885595685054
 30
0.0
 11
3.055198689044944
 21
-0.6680996309451524
 31
0.0
  0
LINE
  5
BDC
330
1A
100
AcDbEntity
  8
1_TOP
  6
CONTINUOUS
 62
     7
100
AcDbLine
 10
-3.526935733144774
 20
4.60139307344909
 30
0.0
 11
-3.524232042685878
 21
4.600041228219575
 31
0.0
  0
LINE
  5
BDD
330
1A
100
AcDbEntity
  8
1_TOP
  6
CONTINUOUS
 62
     7
100
AcDbLine
 10
3.091698510240058
 20
-0.7181179044347866
 30
0.0
 11
3.091698510240058
 21
-0.7154142139759374
 31
0.0
  0
LINE
  5
BE1
330
1A
100
AcDbEntity
  8
1_TOP
  6
CONTINUOUS
 62
     7
100
AcDbLine
 10
-1.716814970911868
 20
4.570300633171688
 30
0.0
 11
-1.716814970911868
 21
4.395912598572755
 31
0.0
  0
LINE
  5
BE3
330
1A
100
AcDbEntity
  8
1_TOP
  6
CONTINUOUS
 62
     7
100
AcDbLine
 10
-3.57830585186386
 20
4.593282002072355
 30
0.0
 11
-3.570194780487156
 21
4.598689382990148
 31
0.0
  0
LINE
  5
BE4
330
1A
100
AcDbEntity
  8
1_TOP
  6
CONTINUOUS
 62
     7
100
AcDbLine
 10
3.082235593633902
 20
-0.7018957616814117
 30
0.0
 11
3.082235593633902
 21
-0.7059512973697748
 31
0.0
  0
LINE
  5
BE7
330
1A
100
AcDbEntity
  8
1_TOP
  6
CONTINUOUS
 62
     7
100
AcDbLine
 10
3.110624343452369
 20
2.775050168462755
 30
0.0
 11
3.110624343452369
 21
2.799383382592847
 31
0.0
  0
LINE
  5
BE8
330
1A
100
AcDbEntity
  8
1_TOP
  6
CONTINUOUS
 62
     7
100
AcDbLine
 10
3.047087617668208
 20
-0.6910809998458351
 30
0.0
 11
3.04573577243878
 21
-0.6910809998458351
 31
0.0
  0
LINE
  5
BEB
330
1A
100
AcDbEntity
  8
1_TOP
  6
CONTINUOUS
 62
     7
100
AcDbLine
 10
-4.731536161570615
 20
-4.481655023222264
 30
0.0
 11
-4.74505461386511
 21
-4.492469785057854
 31
0.0
  0
LINE
  5
BEC
330
1A
100
AcDbEntity
  8
1_TOP
  6
CONTINUOUS
 62
     7
100
AcDbLine
 10
3.110624343452369
 20
2.754772490021006
 30
0.0
 11
3.110624343452369
 21
2.780457549380543
 31
0.0
  0
LINE
  5
BF0
330
1A
100
AcDbEntity
  8
1_TOP
  6
CONTINUOUS
 62
     7
100
AcDbLine
 10
3.043032081979845
 20
-0.6599885595685054
 30
0.0
 11
3.043032081979845
 21
-0.646470107273994
 31
0.0
  0
LINE
  5
BF8
330
1A
100
AcDbEntity
  8
1_TOP
  6
CONTINUOUS
 62
     7
100
AcDbLine
 10
-4.127261344006681
 20
-4.323489131376668
 30
0.0
 11
-4.128613189236125
 21
-4.299155917246581
 31
0.0
  0
LINE
  5
BFF
330
1A
100
AcDbEntity
  8
1_TOP
  6
CONTINUOUS
 62
     7
100
AcDbLine
 10
-0.6313895806502235
 20
-4.561413891759783
 30
0.0
 11
-0.6313895806502235
 21
-4.547895439465288
 31
0.0
  0
LINE
  5
C02
330
1A
100
AcDbEntity
  8
1_TOP
  6
CONTINUOUS
 62
     7
100
AcDbLine
 10
3.110624343452369
 20
2.799383382592847
 30
0.0
 11
3.111976188681797
 21
2.807494453969584
 31
0.0
  0
LINE
  5
C03
330
1A
100
AcDbEntity
  8
1_TOP
  6
CONTINUOUS
 62
     7
100
AcDbLine
 10
-0.4259091057738953
 20
-5.137299959505284
 30
0.0
 11
-0.4259091057738953
 21
-5.160281328405918
 31
0.0
  0
LINE
  5
C07
330
1A
100
AcDbEntity
  8
1_TOP
  6
CONTINUOUS
 62
     7
100
AcDbLine
 10
3.113328033911304
 20
3.004863857469173
 30
0.0
 11
3.113328033911304
 21
3.021086000222549
 31
0.0
  0
LINE
  5
C0B
330
1A
100
AcDbEntity
  8
1_TOP
  6
CONTINUOUS
 62
     7
100
AcDbLine
 10
-1.968364512575791
 20
-4.27211901265759
 30
0.0
 11
-1.971068203034695
 21
-4.35187788119511
 31
0.0
  0
LINE
  5
C0E
330
1A
100
AcDbEntity
  8
1_TOP
  6
CONTINUOUS
 62
     7
100
AcDbLine
 10
-4.786961815978041
 20
-5.290058470433073
 30
0.0
 11
-4.792369196895839
 21
-5.284651089515281
 31
0.0
  0
LINE
  5
C12
330
1A
100
AcDbEntity
  8
1_TOP
  6
CONTINUOUS
 62
     7
100
AcDbLine
 10
-4.776147054142448
 20
-4.54924728469474
 30
0.0
 11
-4.739647232947312
 21
-4.546543594235837
 31
0.0
  0
LINE
  5
C16
330
1A
100
AcDbEntity
  8
1_TOP
  6
CONTINUOUS
 62
     7
100
AcDbLine
 10
-4.651777293033094
 20
-4.561413891759783
 30
0.0
 11
-4.539574138988784
 21
-4.561413891759783
 31
0.0
  0
LINE
  5
C17
330
1A
100
AcDbEntity
  8
1_TOP
  6
CONTINUOUS
 62
     7
100
AcDbLine
 10
-3.272788830008267
 20
-0.5288595723118358
 30
0.0
 11
-3.272788830008267
 21
-0.5302114175413442
 31
0.0
  0
LINE
  5
C1B
330
1A
100
AcDbEntity
  8
1_TOP
  6
CONTINUOUS
 62
     7
100
AcDbLine
 10
-4.796424732584188
 20
-5.137299959505284
 30
0.0
 11
-4.85725776790942
 21
-5.137299959505284
 31
0.0
  0
LINE
  5
C20
330
1A
100
AcDbEntity
  8
1_TOP
  6
CONTINUOUS
 62
     7
100
AcDbLine
 10
-4.128613189236125
 20
-4.299155917246581
 30
0.0
 11
-4.328686283194659
 21
-4.299155917246581
 31
0.0
  0
LINE
  5
C21
330
1A
100
AcDbEntity
  8
1_TOP
  6
CONTINUOUS
 62
     7
100
AcDbLine
 10
3.010587796473092
 20
-0.6802662380102516
 30
0.0
 11
3.010587796473092
 21
-0.670803321404089
 31
0.0
  0
LINE
  5
C29
330
1A
100
AcDbEntity
  8
1_TOP
  6
CONTINUOUS
 62
     7
100
AcDbLine
 10
3.333678806311488
 20
-4.326192821835571
 30
0.0
 11
3.322864044475913
 21
-4.339711274130067
 31
0.0
  0
LINE
  5
C31
330
1A
100
AcDbEntity
  8
1_TOP
  6
CONTINUOUS
 62
     7
100
AcDbLine
 10
-3.946114083260442
 20
-4.35187788119511
 30
0.0
 11
-3.948817773719337
 21
-4.27211901265759
 31
0.0
  0
LINE
  5
C38
330
1A
100
AcDbEntity
  8
1_TOP
  6
CONTINUOUS
 62
     7
100
AcDbLine
 10
4.032582789936938
 20
-4.365396333489606
 30
0.0
 11
3.943361004793255
 21
-4.365396333489606
 31
0.0
  0
LINE
  5
C3D
330
1A
100
AcDbEntity
  8
1_TOP
  6
CONTINUOUS
 62
     7
100
AcDbLine
 10
-0.9531287452592067
 20
-4.323489131376668
 30
0.0
 11
-0.954480590488659
 21
-4.299155917246581
 31
0.0
  0
LINE
  5
C42
330
1A
100
AcDbEntity
  8
1_TOP
  6
CONTINUOUS
 62
     7
100
AcDbLine
 10
4.032582789936938
 20
-4.365396333489606
 30
0.0
 11
3.943361004793255
 21
-4.365396333489606
 31
0.0
  0
LINE
  5
C43
330
1A
100
AcDbEntity
  8
1_TOP
  6
CONTINUOUS
 62
     7
100
AcDbLine
 10
-1.746555565959754
 20
4.190432123696433
 30
0.0
 11
-2.652291869690934
 21
4.189080278466922
 31
0.0
  0
LINE
  5
C45
330
1A
100
AcDbEntity
  8
1_TOP
  6
CONTINUOUS
 62
     7
100
AcDbLine
 10
4.032582789936938
 20
-4.365396333489606
 30
0.0
 11
3.943361004793255
 21
-4.365396333489606
 31
0.0
  0
LINE
  5
C4A
330
1A
100
AcDbEntity
  8
1_TOP
  6
CONTINUOUS
 62
     7
100
AcDbLine
 10
3.824398624601676
 20
-4.365396333489606
 30
0.0
 11
3.841972612584552
 21
-4.365396333489606
 31
0.0
  0
LINE
  5
C4B
330
1A
100
AcDbEntity
  8
1_TOP
  6
CONTINUOUS
 62
     7
100
AcDbLine
 10
3.111976188681797
 20
2.807494453969584
 30
0.0
 11
3.111976188681797
 21
2.796679692133911
 31
0.0
  0
LINE
  5
C4D
330
1A
100
AcDbEntity
  8
1_TOP
  6
CONTINUOUS
 62
     7
100
AcDbLine
 10
4.658487131172064
 20
-4.157212168154376
 30
0.0
 11
4.659838976401498
 21
-4.132878954024288
 31
0.0
  0
LINE
  5
C51
330
1A
100
AcDbEntity
  8
1_TOP
  6
CONTINUOUS
 62
     7
100
AcDbLine
 10
4.846393618065515
 20
-5.122429661981336
 30
0.0
 11
4.423266061247851
 21
-5.122429661981336
 31
0.0
  0
LINE
  5
C53
330
1A
100
AcDbEntity
  8
1_TOP
  6
CONTINUOUS
 62
     7
100
AcDbLine
 10
-1.987184016801774
 20
-0.5707667744248209
 30
0.0
 11
-1.992591397719566
 21
-0.5667112387364579
 31
0.0
  0
LINE
  5
C5A
330
1A
100
AcDbEntity
  8
1_TOP
  6
CONTINUOUS
 62
     7
100
AcDbLine
 10
4.009601421036264
 20
-4.971022996282992
 30
0.0
 11
4.328636895186376
 21
-4.971022996282992
 31
0.0
  0
LINE
  5
C60
330
1A
100
AcDbEntity
  8
1_TOP
  6
CONTINUOUS
 62
     7
100
AcDbLine
 10
4.369192252069847
 20
-4.673617045804095
 30
0.0
 11
4.396229156658885
 21
-4.697950259934191
 31
0.0
  0
LINE
  5
C63
330
1A
100
AcDbEntity
  8
1_TOP
  6
CONTINUOUS
 62
     7
100
AcDbLine
 10
4.742301535397956
 20
-4.104490204205847
 30
0.0
 11
4.692283261908324
 21
-4.104490204205847
 31
0.0
  0
LINE
  5
C65
330
1A
100
AcDbEntity
  8
1_TOP
  6
CONTINUOUS
 62
     7
100
AcDbLine
 10
3.276901306674644
 20
-4.304563298164373
 30
0.0
 11
3.274197616215786
 21
-4.18560091797282
 31
0.0
  0
LINE
  5
C78
330
1A
100
AcDbEntity
  8
1_TOP
  6
CONTINUOUS
 62
     7
100
AcDbLine
 10
4.417858680330052
 20
-5.118374126292988
 30
0.0
 11
4.850449153753878
 21
-5.118374126292988
 31
0.0
  0
LINE
  5
C7B
330
1A
100
AcDbEntity
  8
1_TOP
  6
CONTINUOUS
 62
     7
100
AcDbLine
 10
-2.655101889136149
 20
-4.531673296711896
 30
0.0
 11
-2.725397841067522
 21
-4.531673296711896
 31
0.0
  0
LINE
  5
C7E
330
1A
100
AcDbEntity
  8
1_TOP
  6
CONTINUOUS
 62
     7
100
AcDbLine
 10
-3.909507933078991
 20
-0.523452191394052
 30
0.0
 11
-3.90815608784954
 21
-0.5275077270824076
 31
0.0
  0
LINE
  5
C83
330
1A
100
AcDbEntity
  8
1_TOP
  6
CONTINUOUS
 62
     7
100
AcDbLine
 10
-3.959526206568626
 20
-0.573470464883677
 30
0.0
 11
-3.968989123174765
 21
-0.5748223101131856
 31
0.0
  0
LINE
  5
C88
330
1A
100
AcDbEntity
  8
1_TOP
  6
CONTINUOUS
 62
     7
100
AcDbLine
 10
-1.74385187550086
 20
4.60139307344909
 30
0.0
 11
-1.734388958894711
 21
4.598689382990148
 31
0.0
  0
LINE
  5
C8B
330
1A
100
AcDbEntity
  8
1_TOP
  6
CONTINUOUS
 62
     7
100
AcDbLine
 10
-1.715463125682417
 20
4.221524563973762
 30
0.0
 11
-1.715463125682417
 21
4.218820873514816
 31
0.0
  0
LINE
  5
CAD
330
1A
100
AcDbEntity
  8
1_TOP
  6
CONTINUOUS
 62
     7
100
AcDbLine
 10
3.824398624601676
 20
-4.365396333489606
 30
0.0
 11
3.770324815423761
 21
-4.365396333489606
 31
0.0
  0
LINE
  5
CC5
330
1A
100
AcDbEntity
  8
1_TOP
  6
CONTINUOUS
 62
     7
100
AcDbLine
 10
-4.70720294744052
 20
-4.473543951845568
 30
0.0
 11
-4.715314018817215
 21
-4.474895797075012
 31
0.0
  0
LINE
  5
CCB
330
1A
100
AcDbEntity
  8
1_TOP
  6
CONTINUOUS
 62
     7
100
AcDbLine
 10
-2.660402941067629
 20
-0.5180448104762592
 30
0.0
 11
-2.654995560149836
 21
-0.5153411200174048
 31
0.0
  0
LINE
  5
CD1
330
1A
100
AcDbEntity
  8
1_TOP
  6
CONTINUOUS
 62
     7
100
AcDbLine
 10
3.113328033911304
 20
2.754772490021006
 30
0.0
 11
3.113328033911304
 21
2.765587251856597
 31
0.0
  0
LINE
  5
CD6
330
1A
100
AcDbEntity
  8
1_TOP
  6
CONTINUOUS
 62
     7
100
AcDbLine
 10
3.113328033911304
 20
2.772346478003896
 30
0.0
 11
3.113328033911304
 21
2.754772490021006
 31
0.0
  0
LINE
  5
CDC
330
1A
100
AcDbEntity
  8
1_TOP
  6
CONTINUOUS
 62
     7
100
AcDbLine
 10
-2.064239194880392
 20
-0.5748223101131856
 30
0.0
 11
-2.606329131889655
 21
-0.5748223101131856
 31
0.0
  0
LINE
  5
CE4
330
1A
100
AcDbEntity
  8
1_TOP
  6
CONTINUOUS
 62
     7
100
AcDbLine
 10
-2.761897662262661
 20
-4.531673296711896
 30
0.0
 11
-2.770008733639356
 21
-4.531673296711896
 31
0.0
  0
LINE
  5
CEE
330
1A
100
AcDbEntity
  8
1_TOP
  6
CONTINUOUS
 62
     7
100
AcDbLine
 10
-2.015572766620211
 20
-0.5153411200174048
 30
0.0
 11
-2.011517230931863
 21
-0.5166929652468328
 31
0.0
  0
LINE
  5
CF1
330
1A
100
AcDbEntity
  8
1_TOP
  6
CONTINUOUS
 62
     7
100
AcDbLine
 10
-1.403186877679581
 20
-0.5613038578186725
 30
0.0
 11
-1.40994610382683
 21
-0.5694149291953213
 31
0.0
  0
LINE
  5
CF6
330
1A
100
AcDbEntity
  8
1_TOP
  6
CONTINUOUS
 62
     7
100
AcDbLine
 10
-1.369390746943346
 20
-0.523452191394052
 30
0.0
 11
-1.368038901713896
 21
-0.5275077270824076
 31
0.0
  0
LINE
  5
CF9
330
1A
100
AcDbEntity
  8
1_TOP
  6
CONTINUOUS
 62
     7
100
AcDbLine
 10
4.824764094394346
 20
5.769387351693459
 30
0.0
 11
4.824764094394346
 21
5.734239375727771
 31
0.0
  0
LINE
  5
D01
330
1A
100
AcDbEntity
  8
1_TOP
  6
CONTINUOUS
 62
     7
100
AcDbLine
 10
3.341789877688217
 20
-4.395136928537492
 30
0.0
 11
3.305290056493105
 21
-4.395136928537492
 31
0.0
  0
LINE
  5
D05
330
1A
100
AcDbEntity
  8
1_TOP
  6
CONTINUOUS
 62
     7
100
AcDbLine
 10
3.020050713079249
 20
-0.6451182620445659
 30
0.0
 11
3.020050713079249
 21
-0.646470107273994
 31
0.0
  0
LINE
  5
D09
330
1A
100
AcDbEntity
  8
1_TOP
  6
CONTINUOUS
 62
     7
100
AcDbLine
 10
3.010587796473092
 20
-0.670803321404089
 30
0.0
 11
3.010587796473092
 21
-0.6613404047979332
 31
0.0
  0
LINE
  5
D0D
330
1A
100
AcDbEntity
  8
1_TOP
  6
CONTINUOUS
 62
     7
100
AcDbLine
 10
3.010587796473092
 20
-0.6356553454384104
 30
0.0
 11
3.010587796473092
 21
-0.639710881126775
 31
0.0
  0
LINE
  5
D19
330
1A
100
AcDbEntity
  8
1_TOP
  6
CONTINUOUS
 62
     7
100
AcDbLine
 10
-4.895003105347692
 20
3.619953436868724
 30
0.0
 11
-4.843632986628606
 21
3.619953436868724
 31
0.0
  0
LINE
  5
D1D
330
1A
100
AcDbEntity
  8
1_TOP
  6
CONTINUOUS
 62
     7
100
AcDbLine
 10
-4.895003105347692
 20
3.619953436868724
 30
0.0
 11
-4.896354950577135
 21
4.568948787942253
 31
0.0
  0
LINE
  5
D20
330
1A
100
AcDbEntity
  8
1_TOP
  6
CONTINUOUS
 62
     7
100
AcDbLine
 10
-4.635448821293383
 20
5.781553958758467
 30
0.0
 11
-4.646263583128975
 21
5.730183840039407
 31
0.0
  0
LINE
  5
D24
330
1A
100
AcDbEntity
  8
1_TOP
  6
CONTINUOUS
 62
     7
100
AcDbLine
 10
-0.654264620564544
 20
5.616628840765627
 30
0.0
 11
-1.985832171572323
 21
5.611221459847829
 31
0.0
  0
LINE
  5
D25
330
1A
100
AcDbEntity
  8
1_TOP
  6
CONTINUOUS
 62
     7
100
AcDbLine
 10
-0.744944579923978
 20
-4.35187788119511
 30
0.0
 11
-4.538222293759333
 21
-4.35187788119511
 31
0.0
  0
LINE
  5
D29
330
1A
100
AcDbEntity
  8
1_TOP
  6
CONTINUOUS
 62
     7
100
AcDbLine
 10
-0.7880972982800474
 20
-0.5856370719487691
 30
0.0
 11
-0.7867454530506042
 21
-0.591044452866562
 31
0.0
  0
LINE
  5
D4A
330
1A
100
AcDbEntity
  8
1_TOP
  6
CONTINUOUS
 62
     7
100
AcDbLine
 10
-2.664458476755986
 20
-0.5207485009351958
 30
0.0
 11
-2.660402941067629
 21
-0.5180448104762592
 31
0.0
  0
LINE
  5
D5C
330
1A
100
AcDbEntity
  8
1_TOP
  6
CONTINUOUS
 62
     7
100
AcDbLine
 10
-3.589120613699452
 20
4.395912598572755
 30
0.0
 11
-3.589120613699452
 21
4.221524563973762
 31
0.0
  0
LINE
  5
D66
330
1A
100
AcDbEntity
  8
1_TOP
  6
CONTINUOUS
 62
     7
100
AcDbLine
 10
-3.26332591340212
 20
-0.5667112387364579
 30
0.0
 11
-3.268733294319918
 21
-0.5586001673597377
 31
0.0
  0
LINE
  5
D73
330
1A
100
AcDbEntity
  8
1_TOP
  6
CONTINUOUS
 62
     7
100
AcDbLine
 10
-0.3027848609076751
 20
-0.4166564182675668
 30
0.0
 11
-0.3027848609076751
 21
-0.776247249301155
 31
0.0
  0
LINE
  5
D74
330
1A
100
AcDbEntity
  8
1_TOP
  6
CONTINUOUS
 62
     7
100
AcDbLine
 10
-2.64553264354369
 20
-0.5166929652468328
 30
0.0
 11
-2.641477107855341
 21
-0.5207485009351958
 31
0.0
  0
LINE
  5
D85
330
1A
100
AcDbEntity
  8
1_TOP
  6
CONTINUOUS
 62
     7
100
AcDbLine
 10
-1.742500030271408
 20
4.190432123696433
 30
0.0
 11
-1.746555565959754
 21
4.190432123696433
 31
0.0
  0
LINE
  5
D8A
330
1A
100
AcDbEntity
  8
1_TOP
  6
CONTINUOUS
 62
     7
100
AcDbLine
 10
-2.033146754603054
 20
-0.5437298698357822
 30
0.0
 11
-2.033146754603054
 21
-0.5302114175413442
 31
0.0
  0
LINE
  5
D91
330
1A
100
AcDbEntity
  8
1_TOP
  6
CONTINUOUS
 62
     7
100
AcDbLine
 10
-3.314696032121196
 20
5.776146577840676
 30
0.0
 11
-1.991239552490122
 21
5.776146577840676
 31
0.0
  0
LINE
  5
DAE
330
1A
100
AcDbEntity
  8
1_TOP
  6
CONTINUOUS
 62
     7
100
AcDbLine
 10
3.113328033911304
 20
2.843994275164696
 30
0.0
 11
3.113328033911304
 21
2.842642429935261
 31
0.0
  0
LINE
  5
DB2
330
1A
100
AcDbEntity
  8
1_TOP
  6
CONTINUOUS
 62
     7
100
AcDbLine
 10
-3.568842935257713
 20
4.19178396892586
 30
0.0
 11
-3.574250316175512
 21
4.194487659384714
 31
0.0
  0
LINE
  5
DB3
330
1A
100
AcDbEntity
  8
1_TOP
  6
CONTINUOUS
 62
     7
100
AcDbLine
 10
3.111976188681797
 20
2.754772490021006
 30
0.0
 11
3.111976188681797
 21
2.772346478003896
 31
0.0
  0
LINE
  5
DB8
330
1A
100
AcDbEntity
  8
1_TOP
  6
CONTINUOUS
 62
     7
100
AcDbLine
 10
3.053846843815516
 20
-0.6315998097500404
 30
0.0
 11
3.044383927209351
 21
-0.6315998097500404
 31
0.0
  0
LINE
  5
DC2
330
1A
100
AcDbEntity
  8
1_TOP
  6
CONTINUOUS
 62
     7
100
AcDbLine
 10
3.111976188681797
 20
2.77099463277439
 30
0.0
 11
3.111976188681797
 21
2.754772490021006
 31
0.0
  0
LINE
  5
DC8
330
1A
100
AcDbEntity
  8
1_TOP
  6
CONTINUOUS
 62
     7
100
AcDbLine
 10
-2.002054314325714
 20
-0.5491372507535748
 30
0.0
 11
-2.003406159555165
 21
-0.5437298698357822
 31
0.0
  0
LINE
  5
DCC
330
1A
100
AcDbEntity
  8
1_TOP
  6
CONTINUOUS
 62
     7
100
AcDbLine
 10
3.290419758969155
 20
5.66123973333747
 30
0.0
 11
3.351252794294373
 21
5.666647114255261
 31
0.0
  0
LINE
  5
DD0
330
1A
100
AcDbEntity
  8
1_TOP
  6
CONTINUOUS
 62
     7
100
AcDbLine
 10
-0.5178345813764578
 20
-4.527617761023551
 30
0.0
 11
-0.5218901170648072
 21
-4.516802999187951
 31
0.0
  0
LINE
  5
DD4
330
1A
100
AcDbEntity
  8
1_TOP
  6
CONTINUOUS
 62
     7
100
AcDbLine
 10
-3.328214484415692
 20
-0.5748223101131856
 30
0.0
 11
-3.333621865333491
 21
-0.5748223101131856
 31
0.0
  0
LINE
  5
DD5
330
1A
100
AcDbEntity
  8
1_TOP
  6
CONTINUOUS
 62
     7
100
AcDbLine
 10
3.128198331435166
 20
4.460801169586337
 30
0.0
 11
3.186327676301531
 21
5.416555746807087
 31
0.0
  0
LINE
  5
DD9
330
1A
100
AcDbEntity
  8
1_TOP
  6
CONTINUOUS
 62
     7
100
AcDbLine
 10
-0.4853902958696681
 20
-5.137299959505284
 30
0.0
 11
-0.4259091057738953
 21
-5.137299959505284
 31
0.0
  0
LINE
  5
DDA
330
1A
100
AcDbEntity
  8
1_TOP
  6
CONTINUOUS
 62
     7
100
AcDbLine
 10
3.276901306674644
 20
3.50369474713609
 30
0.0
 11
3.276901306674644
 21
-0.7843583206777951
 31
0.0
  0
LINE
  5
DDD
330
1A
100
AcDbEntity
  8
1_TOP
  6
CONTINUOUS
 62
     7
100
AcDbLine
 10
-4.517838286331276
 20
-0.5842852267192607
 30
0.0
 11
-4.513782750642926
 21
-0.5802296910309782
 31
0.0
  0
LINE
  5
DDE
330
1A
100
AcDbEntity
  8
1_TOP
  6
CONTINUOUS
 62
     7
100
AcDbLine
 10
3.044383927209351
 20
4.07822896965208
 30
0.0
 11
3.044383927209351
 21
4.074173433963716
 31
0.0
  0
LINE
  5
DE1
330
1A
100
AcDbEntity
  8
1_TOP
  6
CONTINUOUS
 62
     7
100
AcDbLine
 10
4.824764094394346
 20
5.734239375727771
 30
0.0
 11
4.824764094394346
 21
5.636906519207366
 31
0.0
  0
LINE
  5
DE7
330
1A
100
AcDbEntity
  8
1_TOP
  6
CONTINUOUS
 62
     7
100
AcDbLine
 10
3.187679521530959
 20
5.443592651396126
 30
0.0
 11
3.189031366760466
 21
5.469277710755656
 31
0.0
  0
LINE
  5
DEA
330
1A
100
AcDbEntity
  8
1_TOP
  6
CONTINUOUS
 62
     7
100
AcDbLine
 10
3.111976188681797
 20
2.807494453969584
 30
0.0
 11
3.111976188681797
 21
2.808846299199001
 31
0.0
  0
LINE
  5
DEB
330
1A
100
AcDbEntity
  8
1_TOP
  6
CONTINUOUS
 62
     7
100
AcDbLine
 10
-2.824082542817336
 20
-4.531673296711896
 30
0.0
 11
-2.771360578868808
 21
-4.531673296711896
 31
0.0
  0
LINE
  5
DEC
330
1A
100
AcDbEntity
  8
1_TOP
  6
CONTINUOUS
 62
     7
100
AcDbLine
 10
3.029513629685407
 20
-0.6775625475513168
 30
0.0
 11
3.029513629685407
 21
-0.6856736189280444
 31
0.0
  0
LINE
  5
DF1
330
1A
100
AcDbEntity
  8
1_TOP
  6
CONTINUOUS
 62
     7
100
AcDbLine
 10
3.053846843815516
 20
-0.6343035002088947
 30
0.0
 11
3.053846843815516
 21
-0.6315998097500404
 31
0.0
  0
LINE
  5
DF6
330
1A
100
AcDbEntity
  8
1_TOP
  6
CONTINUOUS
 62
     7
100
AcDbLine
 10
-3.555324482963216
 20
4.60139307344909
 30
0.0
 11
-3.526935733144774
 21
4.60139307344909
 31
0.0
  0
LINE
  5
DF7
330
1A
100
AcDbEntity
  8
1_TOP
  6
CONTINUOUS
 62
     7
100
AcDbLine
 10
3.091698510240058
 20
-0.6964883807636209
 30
0.0
 11
3.091698510240058
 21
-0.6924328450752651
 31
0.0
  0
LINE
  5
DF8
330
1A
100
AcDbEntity
  8
1_TOP
  6
CONTINUOUS
 62
     7
100
AcDbLine
 10
-3.589120613699452
 20
4.57570801408947
 30
0.0
 11
-3.585065078011103
 21
4.585170930695634
 31
0.0
  0
LINE
  5
DF9
330
1A
100
AcDbEntity
  8
1_TOP
  6
CONTINUOUS
 62
     7
100
AcDbLine
 10
3.082235593633902
 20
-0.6937846903046914
 30
0.0
 11
3.082235593633902
 21
-0.6964883807636209
 31
0.0
  0
LINE
  5
DFB
330
1A
100
AcDbEntity
  8
1_TOP
  6
CONTINUOUS
 62
     7
100
AcDbLine
 10
-2.425288200129728
 20
-4.35187788119511
 30
0.0
 11
-2.425288200129728
 21
-4.323489131376668
 31
0.0
  0
LINE
  5
DFD
330
1A
100
AcDbEntity
  8
1_TOP
  6
CONTINUOUS
 62
     7
100
AcDbLine
 10
3.082235593633902
 20
-0.7208215948937302
 30
0.0
 11
3.080883748404467
 21
-0.7208215948937302
 31
0.0
  0
LINE
  5
E01
330
1A
100
AcDbEntity
  8
1_TOP
  6
CONTINUOUS
 62
     7
100
AcDbLine
 10
-2.425288200129728
 20
-4.323489131376668
 30
0.0
 11
-2.423936354900285
 21
-4.299155917246581
 31
0.0
  0
LINE
  5
E02
330
1A
100
AcDbEntity
  8
1_TOP
  6
CONTINUOUS
 62
     7
100
AcDbLine
 10
3.111976188681797
 20
3.094085642612857
 30
0.0
 11
3.111976188681797
 21
3.09273379738335
 31
0.0
  0
LINE
  5
E03
330
1A
100
AcDbEntity
  8
1_TOP
  6
CONTINUOUS
 62
     7
100
AcDbLine
 10
3.044383927209351
 20
-0.6694514761745804
 30
0.0
 11
3.044383927209351
 21
-0.6599885595685054
 31
0.0
  0
LINE
  5
E05
330
1A
100
AcDbEntity
  8
1_TOP
  6
CONTINUOUS
 62
     7
100
AcDbLine
 10
-1.588496003100478
 20
-4.323489131376668
 30
0.0
 11
-1.588496003100478
 21
-4.299155917246581
 31
0.0
  0
LINE
  5
E07
330
1A
100
AcDbEntity
  8
1_TOP
  6
CONTINUOUS
 62
     7
100
AcDbLine
 10
3.044383927209351
 20
-0.6383590358972647
 30
0.0
 11
3.044383927209351
 21
-0.6437664168150575
 31
0.0
  0
LINE
  5
E09
330
1A
100
AcDbEntity
  8
1_TOP
  6
CONTINUOUS
 62
     7
100
AcDbLine
 10
3.752750827440871
 20
-4.365396333489606
 30
0.0
 11
3.841972612584552
 21
-4.365396333489606
 31
0.0
  0
LINE
  5
E0A
330
1A
100
AcDbEntity
  8
1_TOP
  6
CONTINUOUS
 62
     7
100
AcDbLine
 10
3.041680236750422
 20
-0.6897291546164
 30
0.0
 11
3.041680236750422
 21
-0.6910809998458351
 31
0.0
  0
LINE
  5
E0C
330
1A
100
AcDbEntity
  8
1_TOP
  6
CONTINUOUS
 62
     7
100
AcDbLine
 10
-2.859230518783031
 20
-4.27211901265759
 30
0.0
 11
-2.859230518783031
 21
-4.299155917246581
 31
0.0
  0
LINE
  5
E0E
330
1A
100
AcDbEntity
  8
1_TOP
  6
CONTINUOUS
 62
     7
100
AcDbLine
 10
3.020050713079249
 20
-0.6653959404862962
 30
0.0
 11
3.020050713079249
 21
-0.6599885595685054
 31
0.0
  0
LINE
  5
E14
330
1A
100
AcDbEntity
  8
1_TOP
  6
CONTINUOUS
 62
     7
100
AcDbLine
 10
-0.4962050577052679
 20
-5.290058470433073
 30
0.0
 11
-0.565149164407198
 21
-5.290058470433073
 31
0.0
  0
LINE
  5
E1D
330
1A
100
AcDbEntity
  8
1_TOP
  6
CONTINUOUS
 62
     7
100
AcDbLine
 10
-0.4853902958696681
 20
-5.137299959505284
 30
0.0
 11
-0.4907976767874676
 21
-5.284651089515281
 31
0.0
  0
LINE
  5
E20
330
1A
100
AcDbEntity
  8
1_TOP
  6
CONTINUOUS
 62
     7
100
AcDbLine
 10
3.110624343452369
 20
3.022437845451976
 30
0.0
 11
3.110624343452369
 21
3.030548916828712
 31
0.0
  0
LINE
  5
E21
330
1A
100
AcDbEntity
  8
1_TOP
  6
CONTINUOUS
 62
     7
100
AcDbLine
 10
-2.422584509670833
 20
-4.27211901265759
 30
0.0
 11
-2.225215106171201
 21
-4.27211901265759
 31
0.0
  0
LINE
  5
E25
330
1A
100
AcDbEntity
  8
1_TOP
  6
CONTINUOUS
 62
     7
100
AcDbLine
 10
-2.422584509670833
 20
-4.27211901265759
 30
0.0
 11
-2.225215106171201
 21
-4.27211901265759
 31
0.0
  0
LINE
  5
E26
330
1A
100
AcDbEntity
  8
1_TOP
  6
CONTINUOUS
 62
     7
100
AcDbLine
 10
-3.937896682897427
 20
-0.5437298698357822
 30
0.0
 11
-3.937896682897427
 21
-0.5518409412125188
 31
0.0
  0
LINE
  5
E2B
330
1A
100
AcDbEntity
  8
1_TOP
  6
CONTINUOUS
 62
     7
100
AcDbLine
 10
-2.606435460875968
 20
-4.35187788119511
 30
0.0
 11
-2.603731770417072
 21
-4.27211901265759
 31
0.0
  0
LINE
  5
E32
330
1A
100
AcDbEntity
  8
1_TOP
  6
CONTINUOUS
 62
     7
100
AcDbLine
 10
-4.651777293033094
 20
-4.493821630287307
 30
0.0
 11
-4.651777293033094
 21
-4.547895439465288
 31
0.0
  0
LINE
  5
E33
330
1A
100
AcDbEntity
  8
1_TOP
  6
CONTINUOUS
 62
     7
100
AcDbLine
 10
-4.96800274773796
 20
5.753165208940091
 30
0.0
 11
-4.870669891217596
 21
5.849146220230985
 31
0.0
  0
LINE
  5
E36
330
1A
100
AcDbEntity
  8
1_TOP
  6
CONTINUOUS
 62
     7
100
AcDbLine
 10
-0.3095440870549164
 20
4.886632416862944
 30
0.0
 11
-0.3027848609076751
 21
4.887984262092365
 31
0.0
  0
LINE
  5
E38
330
1A
100
AcDbEntity
  8
1_TOP
  6
CONTINUOUS
 62
     7
100
AcDbLine
 10
-4.651777293033094
 20
-4.561413891759783
 30
0.0
 11
-4.651777293033094
 21
-4.547895439465288
 31
0.0
  0
LINE
  5
E39
330
1A
100
AcDbEntity
  8
1_TOP
  6
CONTINUOUS
 62
     7
100
AcDbLine
 10
-3.276844365696615
 20
-0.5193966557057605
 30
0.0
 11
-3.274140675237711
 21
-0.523452191394052
 31
0.0
  0
LINE
  5
E3C
330
1A
100
AcDbEntity
  8
1_TOP
  6
CONTINUOUS
 62
     7
100
AcDbLine
 10
-0.6083018827632612
 20
5.603110388471182
 30
0.0
 11
-0.6339869421228084
 21
5.615276995536192
 31
0.0
  0
LINE
  5
E3F
330
1A
100
AcDbEntity
  8
1_TOP
  6
CONTINUOUS
 62
     7
100
AcDbLine
 10
-3.494597776624304
 20
-4.27211901265759
 30
0.0
 11
-3.693319025353377
 21
-4.27211901265759
 31
0.0
  0
LINE
  5
E44
330
1A
100
AcDbEntity
  8
1_TOP
  6
CONTINUOUS
 62
     7
100
AcDbLine
 10
3.066013450880528
 20
4.990724499530496
 30
0.0
 11
3.040328391520987
 21
4.486486228945869
 31
0.0
  0
LINE
  5
E47
330
1A
100
AcDbEntity
  8
1_TOP
  6
CONTINUOUS
 62
     7
100
AcDbLine
 10
-3.693319025353377
 20
-4.27211901265759
 30
0.0
 11
-3.873114440870166
 21
-4.27211901265759
 31
0.0
  0
LINE
  5
E4C
330
1A
100
AcDbEntity
  8
1_TOP
  6
CONTINUOUS
 62
     7
100
AcDbLine
 10
-3.314802361107518
 20
-4.27211901265759
 30
0.0
 11
-3.31209867064862
 21
-4.35187788119511
 31
0.0
  0
LINE
  5
E4F
330
1A
100
AcDbEntity
  8
1_TOP
  6
CONTINUOUS
 62
     7
100
AcDbLine
 10
3.368826782277263
 20
-4.307266988623276
 30
0.0
 11
3.349900949064952
 21
-4.315378059999973
 31
0.0
  0
LINE
  5
E52
330
1A
100
AcDbEntity
  8
1_TOP
  6
CONTINUOUS
 62
     7
100
AcDbLine
 10
3.978508980758934
 20
-4.365396333489606
 30
0.0
 11
4.032582789936938
 21
-4.365396333489606
 31
0.0
  0
LINE
  5
E5F
330
1A
100
AcDbEntity
  8
1_TOP
  6
CONTINUOUS
 62
     7
100
AcDbLine
 10
-2.026387528455809
 20
-0.5180448104762592
 30
0.0
 11
-2.020980147538009
 21
-0.5153411200174048
 31
0.0
  0
LINE
  5
E60
330
1A
100
AcDbEntity
  8
1_TOP
  6
CONTINUOUS
 62
     7
100
AcDbLine
 10
3.841972612584552
 20
-4.365396333489606
 30
0.0
 11
3.824398624601676
 21
-4.365396333489606
 31
0.0
  0
LINE
  5
E64
330
1A
100
AcDbEntity
  8
1_TOP
  6
CONTINUOUS
 62
     7
100
AcDbLine
 10
3.841972612584552
 20
-4.365396333489606
 30
0.0
 11
3.752750827440871
 21
-4.365396333489606
 31
0.0
  0
LINE
  5
E68
330
1A
100
AcDbEntity
  8
1_TOP
  6
CONTINUOUS
 62
     7
100
AcDbLine
 10
3.824398624601676
 20
-4.365396333489606
 30
0.0
 11
3.752750827440871
 21
-4.365396333489606
 31
0.0
  0
LINE
  5
E6E
330
1A
100
AcDbEntity
  8
1_TOP
  6
CONTINUOUS
 62
     7
100
AcDbLine
 10
4.023119873330784
 20
-4.365396333489606
 30
0.0
 11
3.986620052135659
 21
-4.365396333489606
 31
0.0
  0
LINE
  5
E78
330
1A
100
AcDbEntity
  8
1_TOP
  6
CONTINUOUS
 62
     7
100
AcDbLine
 10
3.760861898817604
 20
-4.365396333489606
 30
0.0
 11
3.78925064863599
 21
-4.365396333489606
 31
0.0
  0
LINE
  5
E7B
330
1A
100
AcDbEntity
  8
1_TOP
  6
CONTINUOUS
 62
     7
100
AcDbLine
 10
-2.667162167214881
 20
-0.5437298698357822
 30
0.0
 11
-2.668514012444331
 21
-0.5477854055241469
 31
0.0
  0
LINE
  5
E7C
330
1A
100
AcDbEntity
  8
1_TOP
  6
CONTINUOUS
 62
     7
100
AcDbLine
 10
4.692283261908324
 20
-4.104490204205847
 30
0.0
 11
4.689579571449387
 21
-4.104490204205847
 31
0.0
  0
LINE
  5
E81
330
1A
100
AcDbEntity
  8
1_TOP
  6
CONTINUOUS
 62
     7
100
AcDbLine
 10
3.916324100204295
 20
-5.122429661981336
 30
0.0
 11
3.499955769533847
 21
-5.122429661981336
 31
0.0
  0
LINE
  5
E84
330
1A
100
AcDbEntity
  8
1_TOP
  6
CONTINUOUS
 62
     7
100
AcDbLine
 10
3.343141722917644
 20
-4.380266631013545
 30
0.0
 11
3.306641901722531
 21
-4.380266631013545
 31
0.0
  0
LINE
  5
E86
330
1A
100
AcDbEntity
  8
1_TOP
  6
CONTINUOUS
 62
     7
100
AcDbLine
 10
-0.4095806340341872
 20
4.568948787942253
 30
0.0
 11
-0.4109324792636313
 21
3.619953436868724
 31
0.0
  0
LINE
  5
E87
330
1A
100
AcDbEntity
  8
1_TOP
  6
CONTINUOUS
 62
     7
100
AcDbLine
 10
-0.3379328368733627
 20
5.753165208940091
 30
0.0
 11
-0.3027848609076751
 21
5.620684376453983
 31
0.0
  0
LINE
  5
E8A
330
1A
100
AcDbEntity
  8
1_TOP
  6
CONTINUOUS
 62
     7
100
AcDbLine
 10
3.431011662831909
 20
-4.304563298164373
 30
0.0
 11
4.795023499346443
 21
-4.304563298164373
 31
0.0
  0
LINE
  5
E8D
330
1A
100
AcDbEntity
  8
1_TOP
  6
CONTINUOUS
 62
     7
100
AcDbLine
 10
4.855856534671668
 20
-4.971022996282992
 30
0.0
 11
4.850449153753878
 21
-5.118374126292988
 31
0.0
  0
LINE
  5
E92
330
1A
100
AcDbEntity
  8
1_TOP
  6
CONTINUOUS
 62
     7
100
AcDbLine
 10
4.017712492412984
 20
-5.107559364457389
 30
0.0
 11
4.321877669039158
 21
-5.107559364457389
 31
0.0
  0
LINE
  5
E96
330
1A
100
AcDbEntity
  8
1_TOP
  6
CONTINUOUS
 62
     7
100
AcDbLine
 10
4.328636895186376
 20
-4.971022996282992
 30
0.0
 11
4.343507192710324
 21
-4.697950259934191
 31
0.0
  0
LINE
  5
E98
330
1A
100
AcDbEntity
  8
1_TOP
  6
CONTINUOUS
 62
     7
100
AcDbLine
 10
4.876134213113402
 20
-4.395136928537492
 30
0.0
 11
4.874782367883982
 21
-4.382970321472449
 31
0.0
  0
LINE
  5
E9C
330
1A
100
AcDbEntity
  8
1_TOP
  6
CONTINUOUS
 62
     7
100
AcDbLine
 10
3.307993746951958
 20
-4.230211810544652
 30
0.0
 11
3.307993746951958
 21
-4.18560091797282
 31
0.0
  0
LINE
  5
E9D
330
1A
100
AcDbEntity
  8
1_TOP
  6
CONTINUOUS
 62
     7
100
AcDbLine
 10
-0.5435196407359993
 20
-4.546543594235837
 30
0.0
 11
-0.6313895806502235
 21
-4.547895439465288
 31
0.0
  0
LINE
  5
EA7
330
1A
100
AcDbEntity
  8
1_TOP
  6
CONTINUOUS
 62
     7
100
AcDbLine
 10
-2.003406159555165
 20
-0.5288595723118358
 30
0.0
 11
-2.003406159555165
 21
-0.5302114175413442
 31
0.0
  0
LINE
  5
EAB
330
1A
100
AcDbEntity
  8
1_TOP
  6
CONTINUOUS
 62
     7
100
AcDbLine
 10
-3.310640496432849
 20
-0.5653593935070301
 30
0.0
 11
-3.318751567809552
 21
-0.5707667744248209
 31
0.0
  0
LINE
  5
EAD
330
1A
100
AcDbEntity
  8
1_TOP
  6
CONTINUOUS
 62
     7
100
AcDbLine
 10
-0.581264978174271
 20
5.76668366123452
 30
0.0
 11
-0.5042098000956528
 21
5.72342461389219
 31
0.0
  0
LINE
  5
EBF
330
1A
100
AcDbEntity
  8
1_TOP
  6
CONTINUOUS
 62
     7
100
AcDbLine
 10
-1.747907411189206
 20
4.60139307344909
 30
0.0
 11
-1.749259256418658
 21
4.60139307344909
 31
0.0
  0
LINE
  5
EC3
330
1A
100
AcDbEntity
  8
1_TOP
  6
CONTINUOUS
 62
     7
100
AcDbLine
 10
-3.280899901384962
 20
-0.5166929652468328
 30
0.0
 11
-3.276844365696615
 21
-0.5193966557057605
 31
0.0
  0
LINE
  5
EC5
330
1A
100
AcDbEntity
  8
1_TOP
  6
CONTINUOUS
 62
     7
100
AcDbLine
 10
-1.781703541925448
 20
4.600041228219575
 30
0.0
 11
-3.524232042685878
 21
4.600041228219575
 31
0.0
  0
LINE
  5
ECC
330
1A
100
AcDbEntity
  8
1_TOP
  6
CONTINUOUS
 62
     7
100
AcDbLine
 10
-2.557662703629466
 20
4.525689740599919
 30
0.0
 11
-2.652291869690934
 21
4.556782180877242
 31
0.0
  0
LINE
  5
ECF
330
1A
100
AcDbEntity
  8
1_TOP
  6
CONTINUOUS
 62
     7
100
AcDbLine
 10
3.110624343452369
 20
2.835883203787961
 30
0.0
 11
3.110624343452369
 21
2.843994275164696
 31
0.0
  0
LINE
  5
ED8
330
1A
100
AcDbEntity
  8
1_TOP
  6
CONTINUOUS
 62
     7
100
AcDbLine
 10
-3.937896682897427
 20
-0.5437298698357822
 30
0.0
 11
-3.937896682897427
 21
-0.5302114175413442
 31
0.0
  0
LINE
  5
EDF
330
1A
100
AcDbEntity
  8
1_TOP
  6
CONTINUOUS
 62
     7
100
AcDbLine
 10
4.40028469234717
 20
5.761276280316736
 30
0.0
 11
4.450302965836802
 21
5.635554673977932
 31
0.0
  0
LINE
  5
EE4
330
1A
100
AcDbEntity
  8
1_TOP
  6
CONTINUOUS
 62
     7
100
AcDbLine
 10
3.113328033911304
 20
2.780457549380543
 30
0.0
 11
3.113328033911304
 21
2.825068441952387
 31
0.0
  0
LINE
  5
EEC
330
1A
100
AcDbEntity
  8
1_TOP
  6
CONTINUOUS
 62
     7
100
AcDbLine
 10
-0.4055250983458397
 20
5.517944139015862
 30
0.0
 11
-0.4095806340341872
 21
4.568948787942253
 31
0.0
  0
LINE
  5
EEE
330
1A
100
AcDbEntity
  8
1_TOP
  6
CONTINUOUS
 62
     7
100
AcDbLine
 10
-0.5759639262427872
 20
-4.473543951845568
 30
0.0
 11
-0.5962416046845363
 21
-4.472192106616118
 31
0.0
  0
LINE
  5
EF9
330
1A
100
AcDbEntity
  8
1_TOP
  6
CONTINUOUS
 62
     7
100
AcDbLine
 10
-2.478010164078265
 20
-4.531673296711896
 30
0.0
 11
-2.45908433086597
 21
-4.531673296711896
 31
0.0
  0
LINE
  5
EFA
330
1A
100
AcDbEntity
  8
1_TOP
  6
CONTINUOUS
 62
     7
100
AcDbLine
 10
-2.377973617098998
 20
-4.531673296711896
 30
0.0
 11
-2.360399629116156
 21
-4.531673296711896
 31
0.0
  0
LINE
  5
EFB
330
1A
100
AcDbEntity
  8
1_TOP
  6
CONTINUOUS
 62
     7
100
AcDbLine
 10
-0.8016157505745425
 20
-0.6059147503905156
 30
0.0
 11
-1.795221994219943
 21
-0.6059147503905156
 31
0.0
  0
LINE
  5
F04
330
1A
100
AcDbEntity
  8
1_TOP
  6
CONTINUOUS
 62
     7
100
AcDbLine
 10
-2.824082542817336
 20
-4.531673296711896
 30
0.0
 11
-2.770008733639356
 21
-4.531673296711896
 31
0.0
  0
LINE
  5
F08
330
1A
100
AcDbEntity
  8
1_TOP
  6
CONTINUOUS
 62
     7
100
AcDbLine
 10
-3.937896682897427
 20
-0.5302114175413442
 30
0.0
 11
-3.936544837667983
 21
-0.5261558818529795
 31
0.0
  0
LINE
  5
F0C
330
1A
100
AcDbEntity
  8
1_TOP
  6
CONTINUOUS
 62
     7
100
AcDbLine
 10
-2.529380282797343
 20
-4.531673296711896
 30
0.0
 11
-2.478010164078265
 21
-4.531673296711896
 31
0.0
  0
LINE
  5
F10
330
1A
100
AcDbEntity
  8
1_TOP
  6
CONTINUOUS
 62
     7
100
AcDbLine
 10
-1.71816681614132
 20
4.221524563973762
 30
0.0
 11
-1.749259256418658
 21
4.190432123696433
 31
0.0
  0
LINE
  5
F15
330
1A
100
AcDbEntity
  8
1_TOP
  6
CONTINUOUS
 62
     7
100
AcDbLine
 10
3.113328033911304
 20
3.094085642612857
 30
0.0
 11
3.111976188681797
 21
3.094085642612857
 31
0.0
  0
LINE
  5
F17
330
1A
100
AcDbEntity
  8
1_TOP
  6
CONTINUOUS
 62
     7
100
AcDbLine
 10
3.111976188681797
 20
2.816957370575659
 30
0.0
 11
3.111976188681797
 21
2.799383382592847
 31
0.0
  0
LINE
  5
F1B
330
1A
100
AcDbEntity
  8
1_TOP
  6
CONTINUOUS
 62
     7
100
AcDbLine
 10
3.113328033911304
 20
2.825068441952387
 30
0.0
 11
3.113328033911304
 21
2.843994275164696
 31
0.0
  0
LINE
  5
F21
330
1A
100
AcDbEntity
  8
1_TOP
  6
CONTINUOUS
 62
     7
100
AcDbLine
 10
-1.155905529676636
 20
-4.35187788119511
 30
0.0
 11
-1.154553684447185
 21
-4.323489131376668
 31
0.0
  0
LINE
  5
F2A
330
1A
100
AcDbEntity
  8
1_TOP
  6
CONTINUOUS
 62
     7
100
AcDbLine
 10
3.043032081979845
 20
-0.6843217736985359
 30
0.0
 11
3.041680236750422
 21
-0.6897291546164
 31
0.0
  0
LINE
  5
F2C
330
1A
100
AcDbEntity
  8
1_TOP
  6
CONTINUOUS
 62
     7
100
AcDbLine
 10
-4.330038128424102
 20
-4.35187788119511
 30
0.0
 11
-4.330038128424102
 21
-4.323489131376668
 31
0.0
  0
LINE
  5
F35
330
1A
100
AcDbEntity
  8
1_TOP
  6
CONTINUOUS
 62
     7
100
AcDbLine
 10
-0.4962050577052679
 20
-5.290058470433073
 30
0.0
 11
-0.4907976767874676
 21
-5.284651089515281
 31
0.0
  0
LINE
  5
F3B
330
1A
100
AcDbEntity
  8
1_TOP
  6
CONTINUOUS
 62
     7
100
AcDbLine
 10
-0.5840749976194842
 20
-4.912893651416663
 30
0.0
 11
-0.7327779728589317
 21
-4.561413891759783
 31
0.0
  0
LINE
  5
F3E
330
1A
100
AcDbEntity
  8
1_TOP
  6
CONTINUOUS
 62
     7
100
AcDbLine
 10
-2.615792048495795
 20
-0.573470464883677
 30
0.0
 11
-2.625254965101944
 21
-0.5694149291953213
 31
0.0
  0
LINE
  5
F41
330
1A
100
AcDbEntity
  8
1_TOP
  6
CONTINUOUS
 62
     7
100
AcDbLine
 10
3.010587796473092
 20
-0.6843217736985359
 30
0.0
 11
3.010587796473092
 21
-0.6802662380102516
 31
0.0
  0
LINE
  5
F44
330
1A
100
AcDbEntity
  8
1_TOP
  6
CONTINUOUS
 62
     7
100
AcDbLine
 10
3.010587796473092
 20
-0.6315998097500404
 30
0.0
 11
3.010587796473092
 21
-0.6329516549794665
 31
0.0
  0
LINE
  5
F48
330
1A
100
AcDbEntity
  8
1_TOP
  6
CONTINUOUS
 62
     7
100
AcDbLine
 10
-0.5840749976194842
 20
-4.912893651416663
 30
0.0
 11
-0.570556545324989
 21
-5.284651089515281
 31
0.0
  0
LINE
  5
F4D
330
1A
100
AcDbEntity
  8
1_TOP
  6
CONTINUOUS
 62
     7
100
AcDbLine
 10
-0.3027848609076751
 20
-0.4166564182675668
 30
0.0
 11
-0.3095440870549164
 21
-0.4153045730381298
 31
0.0
  0
LINE
  5
F4F
330
1A
100
AcDbEntity
  8
1_TOP
  6
CONTINUOUS
 62
     7
100
AcDbLine
 10
-0.7435927346945337
 20
-4.561413891759783
 30
0.0
 11
-0.744944579923978
 21
-4.35187788119511
 31
0.0
  0
LINE
  5
F53
330
1A
100
AcDbEntity
  8
1_TOP
  6
CONTINUOUS
 62
     7
100
AcDbLine
 10
-0.3095440870549164
 20
4.439171645915099
 30
0.0
 11
-0.3027848609076751
 21
4.437819800685671
 31
0.0
  0
LINE
  5
F55
330
1A
100
AcDbEntity
  8
1_TOP
  6
CONTINUOUS
 62
     7
100
AcDbLine
 10
-4.740999078176762
 20
-4.561413891759783
 30
0.0
 11
-4.651777293033094
 21
-4.561413891759783
 31
0.0
  0
LINE
  5
F59
330
1A
100
AcDbEntity
  8
1_TOP
  6
CONTINUOUS
 62
     7
100
AcDbLine
 10
-4.843632986628606
 20
-0.6599885595685054
 30
0.0
 11
-4.895003105347692
 21
-0.6680996309451524
 31
0.0
  0
LINE
  5
F5D
330
1A
100
AcDbEntity
  8
1_TOP
  6
CONTINUOUS
 62
     7
100
AcDbLine
 10
-4.509727214954579
 20
-0.5775260005720489
 30
0.0
 11
-4.505671679266231
 21
-0.5761741553426154
 31
0.0
  0
LINE
  5
F5E
330
1A
100
AcDbEntity
  8
1_TOP
  6
CONTINUOUS
 62
     7
100
AcDbLine
 10
-4.85725776790942
 20
-5.137299959505284
 30
0.0
 11
-4.855905922679968
 21
-5.160281328405918
 31
0.0
  0
LINE
  5
F61
330
1A
100
AcDbEntity
  8
1_TOP
  6
CONTINUOUS
 62
     7
100
AcDbLine
 10
-4.900410486265491
 20
5.517944139015862
 30
0.0
 11
-4.849040367546406
 21
5.527407055621944
 31
0.0
  0
LINE
  5
F6B
330
1A
100
AcDbEntity
  8
1_TOP
  6
CONTINUOUS
 62
     7
100
AcDbLine
 10
-4.77604072515613
 20
5.742350447104418
 30
0.0
 11
-4.693578166159713
 21
5.774794732611256
 31
0.0
  0
LINE
  5
F73
330
1A
100
AcDbEntity
  8
1_TOP
  6
CONTINUOUS
 62
     7
100
AcDbLine
 10
-0.798912060115649
 20
-0.6045629051610804
 30
0.0
 11
-0.8016157505745425
 21
-0.6059147503905156
 31
0.0
  0
LINE
  5
F77
330
1A
100
AcDbEntity
  8
1_TOP
  6
CONTINUOUS
 62
     7
100
AcDbLine
 10
-3.877063647572203
 20
-0.5748223101131856
 30
0.0
 11
-3.8878784094078
 21
-0.573470464883677
 31
0.0
  0
LINE
  5
F8D
330
1A
100
AcDbEntity
  8
1_TOP
  6
CONTINUOUS
 62
     7
100
AcDbLine
 10
4.023119873330784
 20
-4.365396333489606
 30
0.0
 11
3.986620052135659
 21
-4.365396333489606
 31
0.0
  0
LINE
  5
FA5
330
1A
100
AcDbEntity
  8
1_TOP
  6
CONTINUOUS
 62
     7
100
AcDbLine
 10
-1.39777949676178
 20
-0.5437298698357822
 30
0.0
 11
-1.399131341991231
 21
-0.5518409412125188
 31
0.0
  0
LINE
  5
FB4
330
1A
100
AcDbEntity
  8
1_TOP
  6
CONTINUOUS
 62
     7
100
AcDbLine
 10
3.021402558308684
 20
-0.7208215948937302
 30
0.0
 11
3.021402558308684
 21
-0.7654324874655734
 31
0.0
  0
LINE
  5
FBF
330
1A
100
AcDbEntity
  8
1_TOP
  6
CONTINUOUS
 62
     7
100
AcDbLine
 10
-0.5663946806503315
 20
5.884294196196673
 30
0.0
 11
-0.669134918088494
 21
5.781553958758467
 31
0.0
  0
LINE
  5
FC1
330
1A
100
AcDbEntity
  8
1_TOP
  6
CONTINUOUS
 62
     7
100
AcDbLine
 10
-5.003150723703654
 20
5.620684376453983
 30
0.0
 11
-4.900410486265491
 21
5.517944139015862
 31
0.0
  0
LINE
  5
FCA
330
1A
100
AcDbEntity
  8
1_TOP
  6
CONTINUOUS
 62
     7
100
AcDbLine
 10
3.111976188681797
 20
2.816957370575659
 30
0.0
 11
3.111976188681797
 21
2.807494453969584
 31
0.0
  0
LINE
  5
FCE
330
1A
100
AcDbEntity
  8
1_TOP
  6
CONTINUOUS
 62
     7
100
AcDbLine
 10
-2.004758004784617
 20
-0.523452191394052
 30
0.0
 11
-2.003406159555165
 21
-0.5288595723118358
 31
0.0
  0
LINE
  5
FE2
330
1A
100
AcDbEntity
  8
1_TOP
  6
CONTINUOUS
 62
     7
100
AcDbLine
 10
-0.6313895806502235
 20
-4.561413891759783
 30
0.0
 11
-0.7435927346945337
 21
-4.561413891759783
 31
0.0
  0
LINE
  5
FE8
330
1A
100
AcDbEntity
  8
1_TOP
  6
CONTINUOUS
 62
     7
100
AcDbLine
 10
-3.933841147209079
 20
-0.6059147503905156
 30
0.0
 11
-4.502967988807327
 21
-0.6059147503905156
 31
0.0
  0
LINE
  5
FF3
330
1A
100
AcDbEntity
  8
1_TOP
  6
CONTINUOUS
 62
     7
100
AcDbLine
 10
3.111976188681797
 20
3.09273379738335
 30
0.0
 11
3.111976188681797
 21
3.004863857469173
 31
0.0
  0
LINE
  5
FF6
330
1A
100
AcDbEntity
  8
1_TOP
  6
CONTINUOUS
 62
     7
100
AcDbLine
 10
-1.781703541925448
 20
4.600041228219575
 30
0.0
 11
-1.778999851466545
 21
4.60139307344909
 31
0.0
  0
LINE
  5
FFF
330
1A
100
AcDbEntity
  8
1_TOP
  6
CONTINUOUS
 62
     7
100
AcDbLine
 10
3.111976188681797
 20
3.004863857469173
 30
0.0
 11
3.111976188681797
 21
3.037308142975933
 31
0.0
  0
LINE
  5
1001
330
1A
100
AcDbEntity
  8
1_TOP
  6
CONTINUOUS
 62
     7
100
AcDbLine
 10
-3.90815608784954
 20
-0.5275077270824076
 30
0.0
 11
-3.90815608784954
 21
-0.5302114175413442
 31
0.0
  0
LINE
  5
1004
330
1A
100
AcDbEntity
  8
1_TOP
  6
CONTINUOUS
 62
     7
100
AcDbLine
 10
3.110624343452369
 20
2.842642429935261
 30
0.0
 11
3.110624343452369
 21
2.754772490021006
 31
0.0
  0
LINE
  5
1009
330
1A
100
AcDbEntity
  8
1_TOP
  6
CONTINUOUS
 62
     7
100
AcDbLine
 10
3.113328033911304
 20
2.772346478003896
 30
0.0
 11
3.113328033911304
 21
2.780457549380543
 31
0.0
  0
LINE
  5
100D
330
1A
100
AcDbEntity
  8
1_TOP
  6
CONTINUOUS
 62
     7
100
AcDbLine
 10
4.824764094394346
 20
-0.5329151080002075
 30
0.0
 11
4.720672011726716
 21
-0.5315632627707723
 31
0.0
  0
LINE
  5
1012
330
1A
100
AcDbEntity
  8
1_TOP
  6
CONTINUOUS
 62
     7
100
AcDbLine
 10
3.237697795020594
 20
5.613925150306764
 30
0.0
 11
3.184975831072105
 21
5.501721996262407
 31
0.0
  0
LINE
  5
1015
330
1A
100
AcDbEntity
  8
1_TOP
  6
CONTINUOUS
 62
     7
100
AcDbLine
 10
-0.5124272004586606
 20
-4.547895439465288
 30
0.0
 11
-0.513779045688112
 21
-4.538432522859142
 31
0.0
  0
LINE
  5
1017
330
1A
100
AcDbEntity
  8
1_TOP
  6
CONTINUOUS
 62
     7
100
AcDbLine
 10
-4.512430905413474
 20
-0.6018592147021527
 30
0.0
 11
-4.516486441101823
 21
-0.5991555242432161
 31
0.0
  0
LINE
  5
101A
330
1A
100
AcDbEntity
  8
1_TOP
  6
CONTINUOUS
 62
     7
100
AcDbLine
 10
3.351252794294373
 20
5.459814794149508
 30
0.0
 11
3.352604639523808
 21
5.40168544928314
 31
0.0
  0
LINE
  5
101E
330
1A
100
AcDbEntity
  8
1_TOP
  6
CONTINUOUS
 62
     7
100
AcDbLine
 10
-4.699091876063825
 20
-4.472192106616118
 30
0.0
 11
-4.70720294744052
 21
-4.473543951845568
 31
0.0
  0
LINE
  5
101F
330
1A
100
AcDbEntity
  8
1_TOP
  6
CONTINUOUS
 62
     7
100
AcDbLine
 10
3.276901306674644
 20
-0.7843583206777951
 30
0.0
 11
3.16334630740085
 21
-0.776247249301155
 31
0.0
  0
LINE
  5
1021
330
1A
100
AcDbEntity
  8
1_TOP
  6
CONTINUOUS
 62
     7
100
AcDbLine
 10
-3.060655457971008
 20
-4.35187788119511
 30
0.0
 11
-3.059303612741559
 21
-4.323489131376668
 31
0.0
  0
LINE
  5
1024
330
1A
100
AcDbEntity
  8
1_TOP
  6
CONTINUOUS
 62
     7
100
AcDbLine
 10
3.04573577243878
 20
4.093099267176027
 30
0.0
 11
3.04573577243878
 21
4.083636350569873
 31
0.0
  0
LINE
  5
1028
330
1A
100
AcDbEntity
  8
1_TOP
  6
CONTINUOUS
 62
     7
100
AcDbLine
 10
3.032217320144268
 20
4.074173433963716
 30
0.0
 11
3.026809939226476
 21
4.074173433963716
 31
0.0
  0
LINE
  5
102B
330
1A
100
AcDbEntity
  8
1_TOP
  6
CONTINUOUS
 62
     7
100
AcDbLine
 10
-2.529380282797343
 20
-4.531673296711896
 30
0.0
 11
-2.476658318848813
 21
-4.531673296711896
 31
0.0
  0
LINE
  5
102D
330
1A
100
AcDbEntity
  8
1_TOP
  6
CONTINUOUS
 62
     7
100
AcDbLine
 10
4.824764094394346
 20
5.504425686721342
 30
0.0
 11
3.352604639523808
 21
5.40168544928314
 31
0.0
  0
LINE
  5
1030
330
1A
100
AcDbEntity
  8
1_TOP
  6
CONTINUOUS
 62
     7
100
AcDbLine
 10
3.111976188681797
 20
3.094085642612857
 30
0.0
 11
3.111976188681797
 21
3.09273379738335
 31
0.0
  0
LINE
  5
1031
330
1A
100
AcDbEntity
  8
1_TOP
  6
CONTINUOUS
 62
     7
100
AcDbLine
 10
-2.476658318848813
 20
-4.531673296711896
 30
0.0
 11
-2.529380282797343
 21
-4.531673296711896
 31
0.0
  0
LINE
  5
1032
330
1A
100
AcDbEntity
  8
1_TOP
  6
CONTINUOUS
 62
     7
100
AcDbLine
 10
3.043032081979845
 20
-0.7667843326949995
 30
0.0
 11
3.109272498222941
 21
-0.7721917136127905
 31
0.0
  0
LINE
  5
1036
330
1A
100
AcDbEntity
  8
1_TOP
  6
CONTINUOUS
 62
     7
100
AcDbLine
 10
-0.4109324792636313
 20
5.574721638652715
 30
0.0
 11
-0.4055250983458397
 21
5.517944139015862
 31
0.0
  0
LINE
  5
1039
330
1A
100
AcDbEntity
  8
1_TOP
  6
CONTINUOUS
 62
     7
100
AcDbLine
 10
-2.360399629116156
 20
-4.531673296711896
 30
0.0
 11
-2.377973617098998
 21
-4.531673296711896
 31
0.0
  0
LINE
  5
103A
330
1A
100
AcDbEntity
  8
1_TOP
  6
CONTINUOUS
 62
     7
100
AcDbLine
 10
3.029513629685407
 20
-0.6599885595685054
 30
0.0
 11
3.029513629685407
 21
-0.6680996309451524
 31
0.0
  0
LINE
  5
103D
330
1A
100
AcDbEntity
  8
1_TOP
  6
CONTINUOUS
 62
     7
100
AcDbLine
 10
-1.382909199237841
 20
-0.5153411200174048
 30
0.0
 11
-1.377501818320043
 21
-0.5166929652468328
 31
0.0
  0
LINE
  5
103E
330
1A
100
AcDbEntity
  8
1_TOP
  6
CONTINUOUS
 62
     7
100
AcDbLine
 10
-2.868693435389171
 20
-4.531673296711896
 30
0.0
 11
-2.851119447406328
 21
-4.531673296711896
 31
0.0
  0
LINE
  5
103F
330
1A
100
AcDbEntity
  8
1_TOP
  6
CONTINUOUS
 62
     7
100
AcDbLine
 10
3.055198689044944
 20
-0.6424145715856222
 30
0.0
 11
3.055198689044944
 21
-0.6370071906678384
 31
0.0
  0
LINE
  5
1045
330
1A
100
AcDbEntity
  8
1_TOP
  6
CONTINUOUS
 62
     7
100
AcDbLine
 10
3.055198689044944
 20
-0.6856736189280444
 30
0.0
 11
3.056550534274363
 21
-0.6897291546164
 31
0.0
  0
LINE
  5
1048
330
1A
100
AcDbEntity
  8
1_TOP
  6
CONTINUOUS
 62
     7
100
AcDbLine
 10
3.093050355469479
 20
-0.7045994521402679
 30
0.0
 11
3.093050355469479
 21
-0.7005439164519838
 31
0.0
  0
LINE
  5
104C
330
1A
100
AcDbEntity
  8
1_TOP
  6
CONTINUOUS
 62
     7
100
AcDbLine
 10
-2.468547247472118
 20
-4.531673296711896
 30
0.0
 11
-2.476658318848813
 21
-4.531673296711896
 31
0.0
  0
LINE
  5
104D
330
1A
100
AcDbEntity
  8
1_TOP
  6
CONTINUOUS
 62
     7
100
AcDbLine
 10
-3.555324482963216
 20
4.60139307344909
 30
0.0
 11
-3.558028173422113
 21
4.60139307344909
 31
0.0
  0
LINE
  5
104F
330
1A
100
AcDbEntity
  8
1_TOP
  6
CONTINUOUS
 62
     7
100
AcDbLine
 10
3.080883748404467
 20
-0.6910809998458351
 30
0.0
 11
3.082235593633902
 21
-0.6910809998458351
 31
0.0
  0
LINE
  5
1051
330
1A
100
AcDbEntity
  8
1_TOP
  6
CONTINUOUS
 62
     7
100
AcDbLine
 10
-2.222511415712305
 20
-4.35187788119511
 30
0.0
 11
-2.222511415712305
 21
-4.323489131376668
 31
0.0
  0
LINE
  5
1053
330
1A
100
AcDbEntity
  8
1_TOP
  6
CONTINUOUS
 62
     7
100
AcDbLine
 10
3.082235593633902
 20
-0.7154142139759374
 30
0.0
 11
3.082235593633902
 21
-0.7194697496642215
 31
0.0
  0
LINE
  5
1055
330
1A
100
AcDbEntity
  8
1_TOP
  6
CONTINUOUS
 62
     7
100
AcDbLine
 10
-1.154553684447185
 20
-4.323489131376668
 30
0.0
 11
-0.9531287452592067
 21
-4.323489131376668
 31
0.0
  0
LINE
  5
1057
330
1A
100
AcDbEntity
  8
1_TOP
  6
CONTINUOUS
 62
     7
100
AcDbLine
 10
3.04573577243878
 20
-0.6856736189280444
 30
0.0
 11
3.04573577243878
 21
-0.6789143927807431
 31
0.0
  0
LINE
  5
1059
330
1A
100
AcDbEntity
  8
1_TOP
  6
CONTINUOUS
 62
     7
100
AcDbLine
 10
-1.788569097059011
 20
-4.27211901265759
 30
0.0
 11
-1.788569097059011
 21
-4.299155917246581
 31
0.0
  0
LINE
  5
105A
330
1A
100
AcDbEntity
  8
1_TOP
  6
CONTINUOUS
 62
     7
100
AcDbLine
 10
3.044383927209351
 20
-0.6315998097500404
 30
0.0
 11
3.044383927209351
 21
-0.6343035002088947
 31
0.0
  0
LINE
  5
105E
330
1A
100
AcDbEntity
  8
1_TOP
  6
CONTINUOUS
 62
     7
100
AcDbLine
 10
3.043032081979845
 20
-0.6775625475513168
 30
0.0
 11
3.043032081979845
 21
-0.6843217736985359
 31
0.0
  0
LINE
  5
105F
330
1A
100
AcDbEntity
  8
1_TOP
  6
CONTINUOUS
 62
     7
100
AcDbLine
 10
-4.715314018817215
 20
-4.474895797075012
 30
0.0
 11
-4.723425090193919
 21
-4.477599487533916
 31
0.0
  0
LINE
  5
1061
330
1A
100
AcDbEntity
  8
1_TOP
  6
CONTINUOUS
 62
     7
100
AcDbLine
 10
-4.127261344006681
 20
-4.323489131376668
 30
0.0
 11
-4.330038128424102
 21
-4.323489131376668
 31
0.0
  0
LINE
  5
106A
330
1A
100
AcDbEntity
  8
1_TOP
  6
CONTINUOUS
 62
     7
100
AcDbLine
 10
-0.570556545324989
 20
-5.284651089515281
 30
0.0
 11
-0.565149164407198
 21
-5.290058470433073
 31
0.0
  0
LINE
  5
1070
330
1A
100
AcDbEntity
  8
1_TOP
  6
CONTINUOUS
 62
     7
100
AcDbLine
 10
-4.739647232947312
 20
-4.546543594235837
 30
0.0
 11
-4.651777293033094
 21
-4.547895439465288
 31
0.0
  0
LINE
  5
1071
330
1A
100
AcDbEntity
  8
1_TOP
  6
CONTINUOUS
 62
     7
100
AcDbLine
 10
-3.29577019890891
 20
-0.5180448104762592
 30
0.0
 11
-3.290362817991111
 21
-0.5153411200174048
 31
0.0
  0
LINE
  5
108A
330
1A
100
AcDbEntity
  8
1_TOP
  6
CONTINUOUS
 62
     7
100
AcDbLine
 10
-3.8878784094078
 20
-0.573470464883677
 30
0.0
 11
-3.893285790325593
 21
-0.5707667744248209
 31
0.0
  0
LINE
  5
108D
330
1A
100
AcDbEntity
  8
1_TOP
  6
CONTINUOUS
 62
     7
100
AcDbLine
 10
3.916324100204295
 20
-5.122429661981336
 30
0.0
 11
3.920379635892653
 21
-5.118374126292988
 31
0.0
  0
LINE
  5
1091
330
1A
100
AcDbEntity
  8
1_TOP
  6
CONTINUOUS
 62
     7
100
AcDbLine
 10
-2.499533358763139
 20
4.445930872062398
 30
0.0
 11
-2.557662703629466
 21
4.525689740599919
 31
0.0
  0
LINE
  5
1092
330
1A
100
AcDbEntity
  8
1_TOP
  6
CONTINUOUS
 62
     7
100
AcDbLine
 10
-0.4109324792636313
 20
3.619953436868724
 30
0.0
 11
-0.4109324792636313
 21
-0.6680996309451524
 31
0.0
  0
LINE
  5
10A9
330
1A
100
AcDbEntity
  8
1_TOP
  6
CONTINUOUS
 62
     7
100
AcDbLine
 10
3.018698867849828
 20
-0.6356553454384104
 30
0.0
 11
3.020050713079249
 21
-0.639710881126775
 31
0.0
  0
LINE
  5
10AB
330
1A
100
AcDbEntity
  8
1_TOP
  6
CONTINUOUS
 62
     7
100
AcDbLine
 10
-2.667162167214881
 20
-0.5302114175413442
 30
0.0
 11
-2.667162167214881
 21
-0.5248040366235534
 31
0.0
  0
LINE
  5
10B7
330
1A
100
AcDbEntity
  8
1_TOP
  6
CONTINUOUS
 62
     7
100
AcDbLine
 10
-4.517838286331276
 20
-0.5937481433254233
 30
0.0
 11
-4.519190131560725
 21
-0.5883407624076325
 31
0.0
  0
LINE
  5
10BC
330
1A
100
AcDbEntity
  8
1_TOP
  6
CONTINUOUS
 62
     7
100
AcDbLine
 10
-0.8016157505745425
 20
-0.5748223101131856
 30
0.0
 11
-0.7975602148861931
 21
-0.5761741553426154
 31
0.0
  0
LINE
  5
10C6
330
1A
100
AcDbEntity
  8
1_TOP
  6
CONTINUOUS
 62
     7
100
AcDbLine
 10
3.16334630740085
 20
3.50369474713609
 30
0.0
 11
3.109272498222941
 21
3.50369474713609
 31
0.0
  0
LINE
  5
10CA
330
1A
100
AcDbEntity
  8
1_TOP
  6
CONTINUOUS
 62
     7
100
AcDbLine
 10
-4.723425090193919
 20
-4.477599487533916
 30
0.0
 11
-4.731536161570615
 21
-4.481655023222264
 31
0.0
  0
LINE
  5
10D2
330
1A
100
AcDbEntity
  8
1_TOP
  6
CONTINUOUS
 62
     7
100
AcDbLine
 10
-2.837600995111831
 20
-4.531673296711896
 30
0.0
 11
-2.802453019146147
 21
-4.531673296711896
 31
0.0
  0
LINE
  5
10D5
330
1A
100
AcDbEntity
  8
1_TOP
  6
CONTINUOUS
 62
     7
100
AcDbLine
 10
-3.248455615878173
 20
-0.5748223101131856
 30
0.0
 11
-3.253862996795973
 21
-0.5721186196542507
 31
0.0
  0
LINE
  5
10D9
330
1A
100
AcDbEntity
  8
1_TOP
  6
CONTINUOUS
 62
     7
100
AcDbLine
 10
-2.628064984547159
 20
-4.531673296711896
 30
0.0
 11
-2.556417187386334
 21
-4.531673296711896
 31
0.0
  0
LINE
  5
10DC
330
1A
100
AcDbEntity
  8
1_TOP
  6
CONTINUOUS
 62
     7
100
AcDbLine
 10
-2.225215106171201
 20
-4.27211901265759
 30
0.0
 11
-2.22386326094175
 21
-4.299155917246581
 31
0.0
  0
LINE
  5
10E0
330
1A
100
AcDbEntity
  8
1_TOP
  6
CONTINUOUS
 62
     7
100
AcDbLine
 10
-3.493245931394851
 20
-4.323489131376668
 30
0.0
 11
-3.69467087058283
 21
-4.323489131376668
 31
0.0
  0
LINE
  5
10E4
330
1A
100
AcDbEntity
  8
1_TOP
  6
CONTINUOUS
 62
     7
100
AcDbLine
 10
3.018698867849828
 20
-0.6315998097500404
 30
0.0
 11
3.009235951243675
 21
-0.6315998097500404
 31
0.0
  0
LINE
  5
10EF
330
1A
100
AcDbEntity
  8
1_TOP
  6
CONTINUOUS
 62
     7
100
AcDbLine
 10
-4.516486441101823
 20
-0.5991555242432161
 30
0.0
 11
-4.517838286331276
 21
-0.5937481433254233
 31
0.0
  0
LINE
  5
10F1
330
1A
100
AcDbEntity
  8
1_TOP
  6
CONTINUOUS
 62
     7
100
AcDbLine
 10
-1.788569097059011
 20
-4.27211901265759
 30
0.0
 11
-1.589847848329933
 21
-4.27211901265759
 31
0.0
  0
LINE
  5
10F9
330
1A
100
AcDbEntity
  8
1_TOP
  6
CONTINUOUS
 62
     7
100
AcDbLine
 10
-2.918711708878806
 20
-4.531673296711896
 30
0.0
 11
-2.901137720895961
 21
-4.531673296711896
 31
0.0
  0
LINE
  5
10FE
330
1A
100
AcDbEntity
  8
1_TOP
  6
CONTINUOUS
 62
     7
100
AcDbLine
 10
-4.129965034465577
 20
-4.27211901265759
 30
0.0
 11
-3.948817773719337
 21
-4.27211901265759
 31
0.0
  0
LINE
  5
1108
330
1A
100
AcDbEntity
  8
1_TOP
  6
CONTINUOUS
 62
     7
100
AcDbLine
 10
-0.5731539067975728
 20
4.577059859318987
 30
0.0
 11
-0.5690983711092244
 21
5.531462591310305
 31
0.0
  0
LINE
  5
1109
330
1A
100
AcDbEntity
  8
1_TOP
  6
CONTINUOUS
 62
     7
100
AcDbLine
 10
-0.3027848609076751
 20
0.0335080431391377
 30
0.0
 11
-0.3027848609076751
 21
4.437819800685671
 31
0.0
  0
LINE
  5
1116
330
1A
100
AcDbEntity
  8
1_TOP
  6
CONTINUOUS
 62
     7
100
AcDbLine
 10
3.057902379503798
 20
4.485134383716369
 30
0.0
 11
3.057902379503798
 21
4.482430693257505
 31
0.0
  0
LINE
  5
1123
330
1A
100
AcDbEntity
  8
1_TOP
  6
CONTINUOUS
 62
     7
100
AcDbLine
 10
3.110624343452369
 20
2.768290942315532
 30
0.0
 11
3.110624343452369
 21
2.843994275164696
 31
0.0
  0
LINE
  5
1127
330
1A
100
AcDbEntity
  8
1_TOP
  6
CONTINUOUS
 62
     7
100
AcDbLine
 10
-0.462302597982715
 20
-0.6599885595685054
 30
0.0
 11
-0.5745057520270251
 21
-0.6559330238801407
 31
0.0
  0
LINE
  5
1129
330
1A
100
AcDbEntity
  8
1_TOP
  6
CONTINUOUS
 62
     7
100
AcDbLine
 10
-3.556676328192661
 20
4.190432123696433
 30
0.0
 11
-3.58776876847
 21
4.221524563973762
 31
0.0
  0
LINE
  5
1134
330
1A
100
AcDbEntity
  8
1_TOP
  6
CONTINUOUS
 62
     7
100
AcDbLine
 10
-2.856526828324127
 20
-4.35187788119511
 30
0.0
 11
-2.85787867355358
 21
-4.323489131376668
 31
0.0
  0
LINE
  5
1143
330
1A
100
AcDbEntity
  8
1_TOP
  6
CONTINUOUS
 62
     7
100
AcDbLine
 10
-1.153201839217731
 20
-4.27211901265759
 30
0.0
 11
-0.9558324357181028
 21
-4.27211901265759
 31
0.0
  0
LINE
  5
1146
330
1A
100
AcDbEntity
  8
1_TOP
  6
CONTINUOUS
 62
     7
100
AcDbLine
 10
-2.045419690654415
 20
-4.27211901265759
 30
0.0
 11
-2.225215106171201
 21
-4.27211901265759
 31
0.0
  0
LINE
  5
114B
330
1A
100
AcDbEntity
  8
1_TOP
  6
CONTINUOUS
 62
     7
100
AcDbLine
 10
-0.5745057520270251
 20
3.619953436868724
 30
0.0
 11
-0.5731539067975728
 21
4.577059859318987
 31
0.0
  0
LINE
  5
114D
330
1A
100
AcDbEntity
  8
1_TOP
  6
CONTINUOUS
 62
     7
100
AcDbLine
 10
-4.539574138988784
 20
-4.472192106616118
 30
0.0
 11
-4.651777293033094
 21
-4.472192106616118
 31
0.0
  0
LINE
  5
115E
330
1A
100
AcDbEntity
  8
1_TOP
  6
CONTINUOUS
 62
     7
100
AcDbLine
 10
-2.859230518783031
 20
-4.27211901265759
 30
0.0
 11
-3.057951767512106
 21
-4.27211901265759
 31
0.0
  0
LINE
  5
1164
330
1A
100
AcDbEntity
  8
1_TOP
  6
CONTINUOUS
 62
     7
100
AcDbLine
 10
-2.676731412807341
 20
-4.35187788119511
 30
0.0
 11
-2.679435103266243
 21
-4.27211901265759
 31
0.0
  0
LINE
  5
1165
330
1A
100
AcDbEntity
  8
1_TOP
  6
CONTINUOUS
 62
     7
100
AcDbLine
 10
3.111976188681797
 20
2.825068441952387
 30
0.0
 11
3.111976188681797
 21
2.826420287181814
 31
0.0
  0
LINE
  5
1169
330
1A
100
AcDbEntity
  8
1_TOP
  6
CONTINUOUS
 62
     7
100
AcDbLine
 10
3.40397475824295
 20
-4.304563298164373
 30
0.0
 11
3.386400770260067
 21
-4.305915143393824
 31
0.0
  0
LINE
  5
1185
330
1A
100
AcDbEntity
  8
1_TOP
  6
CONTINUOUS
 62
     7
100
AcDbLine
 10
-3.693319025353377
 20
-4.27211901265759
 30
0.0
 11
-3.693319025353377
 21
-4.299155917246581
 31
0.0
  0
LINE
  5
118F
330
1A
100
AcDbEntity
  8
1_TOP
  6
CONTINUOUS
 62
     7
100
AcDbLine
 10
4.32728504995694
 20
-4.994004365183635
 30
0.0
 11
4.328636895186376
 21
-4.971022996282992
 31
0.0
  0
LINE
  5
119A
330
1A
100
AcDbEntity
  8
1_TOP
  6
CONTINUOUS
 62
     7
100
AcDbLine
 10
3.217420116578847
 20
-4.18560091797282
 30
0.0
 11
3.274197616215786
 21
-4.18560091797282
 31
0.0
  0
LINE
  5
119F
330
1A
100
AcDbEntity
  8
1_TOP
  6
CONTINUOUS
 62
     7
100
AcDbLine
 10
3.110624343452369
 20
3.075159809400553
 30
0.0
 11
3.110624343452369
 21
3.076511654629983
 31
0.0
  0
LINE
  5
11A2
330
1A
100
AcDbEntity
  8
1_TOP
  6
CONTINUOUS
 62
     7
100
AcDbLine
 10
-0.570556545324989
 20
-5.284651089515281
 30
0.0
 11
-0.4907976767874676
 21
-5.284651089515281
 31
0.0
  0
LINE
  5
11AC
330
1A
100
AcDbEntity
  8
1_TOP
  6
CONTINUOUS
 62
     7
100
AcDbLine
 10
-3.559380018651566
 20
4.60139307344909
 30
0.0
 11
-3.558028173422113
 21
4.60139307344909
 31
0.0
  0
LINE
  5
11AE
330
1A
100
AcDbEntity
  8
1_TOP
  6
CONTINUOUS
 62
     7
100
AcDbLine
 10
-4.712610328358319
 20
-5.284651089515281
 30
0.0
 11
-4.716665864046666
 21
-5.290058470433073
 31
0.0
  0
LINE
  5
11AF
330
1A
100
AcDbEntity
  8
1_TOP
  6
CONTINUOUS
 62
     7
100
AcDbLine
 10
-5.003150723703654
 20
-0.4166564182675668
 30
0.0
 11
-4.996391497556404
 21
-0.4153045730381298
 31
0.0
  0
LINE
  5
11B3
330
1A
100
AcDbEntity
  8
1_TOP
  6
CONTINUOUS
 62
     7
100
AcDbLine
 10
-0.3095440870549164
 20
4.886632416862944
 30
0.0
 11
-0.3095440870549164
 21
4.439171645915099
 31
0.0
  0
LINE
  5
11BA
330
1A
100
AcDbEntity
  8
1_TOP
  6
CONTINUOUS
 62
     7
100
AcDbLine
 10
-3.272788830008267
 20
-0.5477854055241469
 30
0.0
 11
-3.272788830008267
 21
-0.5437298698357822
 31
0.0
  0
LINE
  5
11BF
330
1A
100
AcDbEntity
  8
1_TOP
  6
CONTINUOUS
 62
     7
100
AcDbLine
 10
-0.3027848609076751
 20
4.887984262092365
 30
0.0
 11
-0.3027848609076751
 21
5.620684376453983
 31
0.0
  0
LINE
  5
11C6
330
1A
100
AcDbEntity
  8
1_TOP
  6
CONTINUOUS
 62
     7
100
AcDbLine
 10
3.986620052135659
 20
-4.365396333489606
 30
0.0
 11
3.978508980758934
 21
-4.365396333489606
 31
0.0
  0
LINE
  5
11C7
330
1A
100
AcDbEntity
  8
1_TOP
  6
CONTINUOUS
 62
     7
100
AcDbLine
 10
-2.870045280618623
 20
-4.531673296711896
 30
0.0
 11
-2.903841411354865
 21
-4.531673296711896
 31
0.0
  0
LINE
  5
11C9
330
1A
100
AcDbEntity
  8
1_TOP
  6
CONTINUOUS
 62
     7
100
AcDbLine
 10
3.029513629685407
 20
-0.6315998097500404
 30
0.0
 11
3.018698867849828
 21
-0.6315998097500404
 31
0.0
  0
LINE
  5
11CC
330
1A
100
AcDbEntity
  8
1_TOP
  6
CONTINUOUS
 62
     7
100
AcDbLine
 10
3.752750827440871
 20
-4.365396333489606
 30
0.0
 11
3.841972612584552
 21
-4.365396333489606
 31
0.0
  0
LINE
  5
11CF
330
1A
100
AcDbEntity
  8
1_TOP
  6
CONTINUOUS
 62
     7
100
AcDbLine
 10
-2.360399629116156
 20
-4.531673296711896
 30
0.0
 11
-2.377973617098998
 21
-4.531673296711896
 31
0.0
  0
LINE
  5
11D8
330
1A
100
AcDbEntity
  8
1_TOP
  6
CONTINUOUS
 62
     7
100
AcDbLine
 10
4.32728504995694
 20
-4.994004365183635
 30
0.0
 11
4.321877669039158
 21
-5.107559364457389
 31
0.0
  0
LINE
  5
11D9
330
1A
100
AcDbEntity
  8
1_TOP
  6
CONTINUOUS
 62
     7
100
AcDbLine
 10
4.824764094394346
 20
5.734239375727771
 30
0.0
 11
4.824764094394346
 21
5.636906519207366
 31
0.0
  0
LINE
  5
11DC
330
1A
100
AcDbEntity
  8
1_TOP
  6
CONTINUOUS
 62
     7
100
AcDbLine
 10
3.110624343452369
 20
3.09273379738335
 30
0.0
 11
3.110624343452369
 21
3.004863857469173
 31
0.0
  0
LINE
  5
11E1
330
1A
100
AcDbEntity
  8
1_TOP
  6
CONTINUOUS
 62
     7
100
AcDbLine
 10
-2.042609671209201
 20
-0.5667112387364579
 30
0.0
 11
-2.050720742585903
 21
-0.5721186196542507
 31
0.0
  0
LINE
  5
11E4
330
1A
100
AcDbEntity
  8
1_TOP
  6
CONTINUOUS
 62
     7
100
AcDbLine
 10
3.110624343452369
 20
3.09273379738335
 30
0.0
 11
3.110624343452369
 21
3.004863857469173
 31
0.0
  0
LINE
  5
11EE
330
1A
100
AcDbEntity
  8
1_TOP
  6
CONTINUOUS
 62
     7
100
AcDbLine
 10
-2.637421572166994
 20
-0.5437298698357822
 30
0.0
 11
-2.637421572166994
 21
-0.5302114175413442
 31
0.0
  0
LINE
  5
11F4
330
1A
100
AcDbEntity
  8
1_TOP
  6
CONTINUOUS
 62
     7
100
AcDbLine
 10
-4.786961815978041
 20
-5.290058470433073
 30
0.0
 11
-4.716665864046666
 21
-5.290058470433073
 31
0.0
  0
LINE
  5
1206
330
1A
100
AcDbEntity
  8
1_TOP
  6
CONTINUOUS
 62
     7
100
AcDbLine
 10
3.78925064863599
 20
-4.365396333489606
 30
0.0
 11
3.797361720012711
 21
-4.365396333489606
 31
0.0
  0
LINE
  5
1209
330
1A
100
AcDbEntity
  8
1_TOP
  6
CONTINUOUS
 62
     7
100
AcDbLine
 10
-3.302529425056154
 20
-0.5302114175413442
 30
0.0
 11
-3.301177579826702
 21
-0.5261558818529795
 31
0.0
  0
LINE
  5
1213
330
1A
100
AcDbEntity
  8
1_TOP
  6
CONTINUOUS
 62
     7
100
AcDbLine
 10
3.841972612584552
 20
-4.365396333489606
 30
0.0
 11
3.752750827440871
 21
-4.365396333489606
 31
0.0
  0
LINE
  5
121F
330
1A
100
AcDbEntity
  8
1_TOP
  6
CONTINUOUS
 62
     7
100
AcDbLine
 10
-2.746921035752401
 20
4.525689740599919
 30
0.0
 11
-2.806402225848183
 21
4.445930872062398
 31
0.0
  0
LINE
  5
1226
330
1A
100
AcDbEntity
  8
1_TOP
  6
CONTINUOUS
 62
     7
100
AcDbLine
 10
-3.302529425056154
 20
-0.5437298698357822
 30
0.0
 11
-3.302529425056154
 21
-0.5450817150652996
 31
0.0
  0
LINE
  5
1228
330
1A
100
AcDbEntity
  8
1_TOP
  6
CONTINUOUS
 62
     7
100
AcDbLine
 10
-0.7746851749718729
 20
-4.27211901265759
 30
0.0
 11
-0.7719814845129687
 21
-4.35187788119511
 31
0.0
  0
LINE
  5
122E
330
1A
100
AcDbEntity
  8
1_TOP
  6
CONTINUOUS
 62
     7
100
AcDbLine
 10
-4.796424732584188
 20
-5.137299959505284
 30
0.0
 11
-4.777498899371892
 21
-4.561413891759783
 31
0.0
  0
LINE
  5
1236
330
1A
100
AcDbEntity
  8
1_TOP
  6
CONTINUOUS
 62
     7
100
AcDbLine
 10
-2.579398556286978
 20
-4.531673296711896
 30
0.0
 11
-2.563176413533584
 21
-4.531673296711896
 31
0.0
  0
LINE
  5
123C
330
1A
100
AcDbEntity
  8
1_TOP
  6
CONTINUOUS
 62
     7
100
AcDbLine
 10
-3.345788472398536
 20
3.619953436868724
 30
0.0
 11
-4.731429832584296
 21
3.619953436868724
 31
0.0
  0
LINE
  5
1247
330
1A
100
AcDbEntity
  8
1_TOP
  6
CONTINUOUS
 62
     7
100
AcDbLine
 10
-4.330038128424102
 20
-4.323489131376668
 30
0.0
 11
-4.328686283194659
 21
-4.299155917246581
 31
0.0
  0
LINE
  5
1249
330
1A
100
AcDbEntity
  8
1_TOP
  6
CONTINUOUS
 62
     7
100
AcDbLine
 10
-0.6111119022084744
 20
-4.472192106616118
 30
0.0
 11
-0.6313895806502235
 21
-4.472192106616118
 31
0.0
  0
LINE
  5
1251
330
1A
100
AcDbEntity
  8
1_TOP
  6
CONTINUOUS
 62
     7
100
AcDbLine
 10
-1.407348742354246
 20
-4.35187788119511
 30
0.0
 11
-1.410052432813142
 21
-4.27211901265759
 31
0.0
  0
LINE
  5
1258
330
1A
100
AcDbEntity
  8
1_TOP
  6
CONTINUOUS
 62
     7
100
AcDbLine
 10
-0.6339869421228084
 20
5.615276995536192
 30
0.0
 11
-0.654264620564544
 21
5.616628840765627
 31
0.0
  0
LINE
  5
1259
330
1A
100
AcDbEntity
  8
1_TOP
  6
CONTINUOUS
 62
     7
100
AcDbLine
 10
-0.5962416046845363
 20
-4.472192106616118
 30
0.0
 11
-0.6111119022084744
 21
-4.472192106616118
 31
0.0
  0
LINE
  5
125E
330
1A
100
AcDbEntity
  8
1_TOP
  6
CONTINUOUS
 62
     7
100
AcDbLine
 10
3.951472076169975
 20
-4.365396333489606
 30
0.0
 11
3.96904606415278
 21
-4.365396333489606
 31
0.0
  0
LINE
  5
1263
330
1A
100
AcDbEntity
  8
1_TOP
  6
CONTINUOUS
 62
     7
100
AcDbLine
 10
-4.996391497556404
 20
0.0321561979097078
 30
0.0
 11
-4.996391497556404
 21
-0.4153045730381298
 31
0.0
  0
LINE
  5
1267
330
1A
100
AcDbEntity
  8
1_TOP
  6
CONTINUOUS
 62
     7
100
AcDbLine
 10
-0.5745057520270251
 20
-0.6559330238801407
 30
0.0
 11
-0.5745057520270251
 21
3.619953436868724
 31
0.0
  0
LINE
  5
126D
330
1A
100
AcDbEntity
  8
1_TOP
  6
CONTINUOUS
 62
     7
100
AcDbLine
 10
-2.625361294088262
 20
-4.531673296711896
 30
0.0
 11
-2.678083258036792
 21
-4.531673296711896
 31
0.0
  0
LINE
  5
1270
330
1A
100
AcDbEntity
  8
1_TOP
  6
CONTINUOUS
 62
     7
100
AcDbLine
 10
-4.777498899371892
 20
-4.561413891759783
 30
0.0
 11
-4.740999078176762
 21
-4.561413891759783
 31
0.0
  0
LINE
  5
1274
330
1A
100
AcDbEntity
  8
1_TOP
  6
CONTINUOUS
 62
     7
100
AcDbLine
 10
-2.903841411354865
 20
-4.531673296711896
 30
0.0
 11
-2.868693435389171
 21
-4.531673296711896
 31
0.0
  0
LINE
  5
127D
330
1A
100
AcDbEntity
  8
1_TOP
  6
CONTINUOUS
 62
     7
100
AcDbLine
 10
-1.587144157871028
 20
-4.35187788119511
 30
0.0
 11
-1.588496003100478
 21
-4.323489131376668
 31
0.0
  0
LINE
  5
127F
330
1A
100
AcDbEntity
  8
1_TOP
  6
CONTINUOUS
 62
     7
100
AcDbLine
 10
-1.749259256418658
 20
4.60139307344909
 30
0.0
 11
-1.71816681614132
 21
4.570300633171688
 31
0.0
  0
LINE
  5
1281
330
1A
100
AcDbEntity
  8
1_TOP
  6
CONTINUOUS
 62
     7
100
AcDbLine
 10
-1.154553684447185
 20
-4.323489131376668
 30
0.0
 11
-1.154553684447185
 21
-4.299155917246581
 31
0.0
  0
LINE
  5
1283
330
1A
100
AcDbEntity
  8
1_TOP
  6
CONTINUOUS
 62
     7
100
AcDbLine
 10
-3.936544837667983
 20
-0.5261558818529795
 30
0.0
 11
-3.935192992438532
 21
-0.5221003461646239
 31
0.0
  0
CIRCLE
  5
1286
330
1A
100
AcDbEntity
  8
1_TOP
  6
CONTINUOUS
 62
     7
100
AcDbCircle
 10
-2.652291869690934
 20
4.395912598572755
 30
0.0
 40
0.0770551780786226
  0
CIRCLE
  5
1287
330
1A
100
AcDbEntity
  8
1_TOP
  6
CONTINUOUS
 62
     7
100
AcDbCircle
 10
-2.652291869690934
 20
4.395912598572755
 30
0.0
 40
0.1446474395510936
  0
ARC
  5
1288
330
1A
100
AcDbEntity
  8
1_TOP
  6
CONTINUOUS
 62
     7
100
AcDbCircle
 10
3.282308687592436
 20
5.480092472591238
 30
0.0
 40
0.1797954155167847
100
AcDbArc
 50
93.90049374237122
 51
175.6676860168175
  0
ENDSEC
  0
SECTION
  2
OBJECTS
  0
DICTIONARY
  5
C
330
0
100
AcDbDictionary
  3
ACAD_GROUP
350
D
  3
ACAD_LAYOUT
350
12B1
  3
ACAD_MLINESTYLE
350
E
  3
ACAD_PLOTSETTINGS
350
12B2
1001
ACAD
1000
TREAT_AS_HARD
1070
     0
  0
DICTIONARY
  5
12E2
330
1A
100
AcDbDictionary
  3
ACAD_LAYOUTSELFREF
350
134C
1001
ACAD
1000
TREAT_AS_HARD
1070
     1
  0
DICTIONARY
  5
12E0
330
17
100
AcDbDictionary
  3
ACAD_LAYOUTSELFREF
350
134B
1001
ACAD
1000
TREAT_AS_HARD
1070
     1
  0
DICTIONARY
  5
D
102
{ACAD_REACTORS
330
C
102
}
330
C
100
AcDbDictionary
1001
ACAD
1000
TREAT_AS_HARD
1070
     0
  0
DICTIONARY
  5
12B1
102
{ACAD_REACTORS
330
C
102
}
330
C
100
AcDbDictionary
1001
ACAD
1000
TREAT_AS_HARD
1070
     0
  0
DICTIONARY
  5
E
102
{ACAD_REACTORS
330
C
102
}
330
C
100
AcDbDictionary
  3
STANDARD
350
13
1001
ACAD
1000
TREAT_AS_HARD
1070
     0
  0
DICTIONARY
  5
12B2
102
{ACAD_REACTORS
330
C
102
}
330
C
100
AcDbDictionary
1001
ACAD
1000
TREAT_AS_HARD
1070
     0
  0
XRECORD
  5
134C
102
{ACAD_REACTORS
330
12E2
102
}
330
12E2
100
AcDbXrecord
340
1A
  0
XRECORD
  5
134B
102
{ACAD_REACTORS
330
12E0
102
}
330
12E0
100
AcDbXrecord
340
17
  0
MLINESTYLE
  5
13
102
{ACAD_REACTORS
330
E
102
}
330
E
100
AcDbMlineStyle
  2
STANDARD
 70
     0
  3

 62
     0
 51
90.0
 52
90.0
 71
     2
 49
0.5
 62
   256
  6
BYLAYER
 49
-0.5
 62
   256
  6
BYLAYER
  0
ENDSEC
  0
EOF
