  0
SECTION
  2
HEADER
  9
$ACADVER
  1
AC1014
  9
$ACADMAINTVER
 70
     9
  9
$DWGCODEPAGE
  3
ANSI_1252
  9
$INSBASE
 10
0.0
 20
0.0
 30
0.0
  9
$EXTMIN
 10
-0.4224242889583394
 20
0.8367462377491712
 30
-0.0015258207003583
  9
$EXTMAX
 10
7.503295921142324
 20
11.21264650790561
 30
0.0000000349246037
  9
$LIMMIN
 10
0.0
 20
0.0
  9
$LIMMAX
 10
12.0
 20
9.0
  9
$ORTHOMODE
 70
     0
  9
$REGENMODE
 70
     1
  9
$FILLMODE
 70
     1
  9
$QTEXTMODE
 70
     0
  9
$MIRRTEXT
 70
     1
  9
$DRAGMODE
 70
     2
  9
$LTSCALE
 40
1.0
  9
$OSMODE
 70
    37
  9
$ATTMODE
 70
     1
  9
$TEXTSIZE
 40
0.2
  9
$TRACEWID
 40
0.05
  9
$TEXTSTYLE
  7
STANDARD
  9
$CLAYER
  8
0
  9
$CELTYPE
  6
BYLAYER
  9
$CECOLOR
 62
   256
  9
$CELTSCALE
 40
1.0
  9
$DELOBJ
 70
     1
  9
$DISPSILH
 70
     0
  9
$DIMSCALE
 40
1.0
  9
$DIMASZ
 40
0.18
  9
$DIMEXO
 40
0.0625
  9
$DIMDLI
 40
0.38
  9
$DIMRND
 40
0.0
  9
$DIMDLE
 40
0.0
  9
$DIMEXE
 40
0.18
  9
$DIMTP
 40
0.0
  9
$DIMTM
 40
0.0
  9
$DIMTXT
 40
0.18
  9
$DIMCEN
 40
0.09
  9
$DIMTSZ
 40
0.0
  9
$DIMTOL
 70
     0
  9
$DIMLIM
 70
     0
  9
$DIMTIH
 70
     1
  9
$DIMTOH
 70
     1
  9
$DIMSE1
 70
     0
  9
$DIMSE2
 70
     0
  9
$DIMTAD
 70
     0
  9
$DIMZIN
 70
     0
  9
$DIMBLK
  1

  9
$DIMASO
 70
     1
  9
$DIMSHO
 70
     1
  9
$DIMPOST
  1

  9
$DIMAPOST
  1

  9
$DIMALT
 70
     0
  9
$DIMALTD
 70
     2
  9
$DIMALTF
 40
25.4
  9
$DIMLFAC
 40
1.0
  9
$DIMTOFL
 70
     0
  9
$DIMTVP
 40
0.0
  9
$DIMTIX
 70
     0
  9
$DIMSOXD
 70
     0
  9
$DIMSAH
 70
     0
  9
$DIMBLK1
  1

  9
$DIMBLK2
  1

  9
$DIMSTYLE
  2
STANDARD
  9
$DIMCLRD
 70
     0
  9
$DIMCLRE
 70
     0
  9
$DIMCLRT
 70
     0
  9
$DIMTFAC
 40
1.0
  9
$DIMGAP
 40
0.09
  9
$DIMJUST
 70
     0
  9
$DIMSD1
 70
     0
  9
$DIMSD2
 70
     0
  9
$DIMTOLJ
 70
     1
  9
$DIMTZIN
 70
     0
  9
$DIMALTZ
 70
     0
  9
$DIMALTTZ
 70
     0
  9
$DIMFIT
 70
     5
  9
$DIMUPT
 70
     0
  9
$DIMUNIT
 70
     2
  9
$DIMDEC
 70
     4
  9
$DIMTDEC
 70
     4
  9
$DIMALTU
 70
     2
  9
$DIMALTTD
 70
     2
  9
$DIMTXSTY
  7
STANDARD
  9
$DIMAUNIT
 70
     0
  9
$LUNITS
 70
     2
  9
$LUPREC
 70
     4
  9
$SKETCHINC
 40
0.1
  9
$FILLETRAD
 40
0.0
  9
$AUNITS
 70
     0
  9
$AUPREC
 70
     0
  9
$MENU
  1
acad
  9
$ELEVATION
 40
0.0
  9
$PELEVATION
 40
0.0
  9
$THICKNESS
 40
0.0
  9
$LIMCHECK
 70
     0
  9
$BLIPMODE
 70
     0
  9
$CHAMFERA
 40
0.0
  9
$CHAMFERB
 40
0.0
  9
$CHAMFERC
 40
0.0
  9
$CHAMFERD
 40
0.0
  9
$SKPOLY
 70
     0
  9
$TDCREATE
 40
2452391.607048611
  9
$TDUPDATE
 40
2452391.640726805
  9
$TDINDWG
 40
0.0034743866
  9
$TDUSRTIMER
 40
0.0034743866
  9
$USRTIMER
 70
     1
  9
$ANGBASE
 50
0.0
  9
$ANGDIR
 70
     0
  9
$PDMODE
 70
     0
  9
$PDSIZE
 40
0.0
  9
$PLINEWID
 40
0.0
  9
$COORDS
 70
     2
  9
$SPLFRAME
 70
     0
  9
$SPLINETYPE
 70
     6
  9
$SPLINESEGS
 70
     8
  9
$ATTDIA
 70
     0
  9
$ATTREQ
 70
     1
  9
$HANDLING
 70
-16383
  9
$HANDSEED
  5
2DD9
  9
$SURFTAB1
 70
     6
  9
$SURFTAB2
 70
     6
  9
$SURFTYPE
 70
     6
  9
$SURFU
 70
     6
  9
$SURFV
 70
     6
  9
$UCSNAME
  2

  9
$UCSORG
 10
0.0
 20
0.0
 30
0.0
  9
$UCSXDIR
 10
1.0
 20
0.0
 30
0.0
  9
$UCSYDIR
 10
0.0
 20
1.0
 30
0.0
  9
$PUCSNAME
  2

  9
$PUCSORG
 10
0.0
 20
0.0
 30
0.0
  9
$PUCSXDIR
 10
1.0
 20
0.0
 30
0.0
  9
$PUCSYDIR
 10
0.0
 20
1.0
 30
0.0
  9
$USERI1
 70
     0
  9
$USERI2
 70
     0
  9
$USERI3
 70
     0
  9
$USERI4
 70
     0
  9
$USERI5
 70
     0
  9
$USERR1
 40
0.0
  9
$USERR2
 40
0.0
  9
$USERR3
 40
0.0
  9
$USERR4
 40
0.0
  9
$USERR5
 40
0.0
  9
$WORLDVIEW
 70
     1
  9
$SHADEDGE
 70
     3
  9
$SHADEDIF
 70
    70
  9
$TILEMODE
 70
     1
  9
$MAXACTVP
 70
    16
  9
$PINSBASE
 10
0.0
 20
0.0
 30
0.0
  9
$PLIMCHECK
 70
     0
  9
$PEXTMIN
 10
1.000000000000000E+20
 20
1.000000000000000E+20
 30
1.000000000000000E+20
  9
$PEXTMAX
 10
-1.000000000000000E+20
 20
-1.000000000000000E+20
 30
-1.000000000000000E+20
  9
$PLIMMIN
 10
0.0
 20
0.0
  9
$PLIMMAX
 10
12.0
 20
9.0
  9
$UNITMODE
 70
     0
  9
$VISRETAIN
 70
     0
  9
$PLINEGEN
 70
     0
  9
$PSLTSCALE
 70
     1
  9
$TREEDEPTH
 70
  3020
  9
$PICKSTYLE
 70
     0
  9
$CMLSTYLE
  2
STANDARD
  9
$CMLJUST
 70
     0
  9
$CMLSCALE
 40
1.0
  9
$PROXYGRAPHICS
 70
     1
  9
$MEASUREMENT
 70
     0
  0
ENDSEC
  0
SECTION
  2
CLASSES
  0
CLASS
  1
ACDBDICTIONARYWDFLT
  2
AcDbDictionaryWithDefault
  3
AutoCAD 2000
 90
        0
280
     0
281
     0
  0
CLASS
  1
ACDBPLACEHOLDER
  2
AcDbPlaceHolder
  3
AutoCAD 2000
 90
        0
280
     0
281
     0
  0
CLASS
  1
LAYOUT
  2
AcDbLayout
  3
AutoCAD 2000
 90
        0
280
     0
281
     0
  0
CLASS
  1
LONG_TRANSACTION
  2
AcDbLongTransaction
  3
AutoCAD 2000
 90
        0
280
     0
281
     0
  0
CLASS
  1
LWPOLYLINE
  2
AcDbPolyline
  3
AutoCAD 2000
 90
        0
280
     0
281
     1
  0
CLASS
  1
HATCH
  2
AcDbHatch
  3
AutoCAD 2000
 90
        0
280
     0
281
     1
  0
CLASS
  1
XRECORD
  2
AcDbXrecord
  3
AutoCAD 2000
 90
        0
280
     0
281
     0
  0
ENDSEC
  0
SECTION
  2
TABLES
  0
TABLE
  2
VPORT
  5
8
330
0
100
AcDbSymbolTable
 70
     3
  0
VPORT
  5
2DB3
330
8
100
AcDbSymbolTableRecord
100
AcDbViewportTableRecord
  2
*ACTIVE
 70
     0
 10
0.0
 20
0.0
 11
1.0
 21
1.0
 12
3.540435816091993
 22
6.024696372827393
 13
0.0
 23
0.0
 14
1.0
 24
1.0
 15
0.0
 25
0.0
 16
0.0
 26
0.0
 36
1.0
 17
0.0
 27
0.0
 37
0.0
 40
10.46758716503264
 41
1.656342182890855
 42
50.0
 43
0.0
 44
0.0
 50
0.0
 51
0.0
 71
     0
 72
   100
 73
     1
 74
     1
 75
     0
 76
     0
 77
     0
 78
     0
  0
ENDTAB
  0
TABLE
  2
LTYPE
  5
5
330
0
100
AcDbSymbolTable
 70
    25
  0
LTYPE
  5
13
330
5
100
AcDbSymbolTableRecord
100
AcDbLinetypeTableRecord
  2
BYBLOCK
 70
     0
  3

 72
    65
 73
     0
 40
0.0
  0
LTYPE
  5
14
330
5
100
AcDbSymbolTableRecord
100
AcDbLinetypeTableRecord
  2
BYLAYER
 70
     0
  3

 72
    65
 73
     0
 40
0.0
  0
LTYPE
  5
15
330
5
100
AcDbSymbolTableRecord
100
AcDbLinetypeTableRecord
  2
CONTINUOUS
 70
     0
  3
Solid line
 72
    65
 73
     0
 40
0.0
  0
LTYPE
  5
22
330
5
100
AcDbSymbolTableRecord
100
AcDbLinetypeTableRecord
  2
BORDER
 70
     0
  3
__ __ . __ __ . __ __ . __ __ . __ __ . __ __ .
 72
    65
 73
     6
 40
1.75
 49
0.5
 74
     0
 49
-0.25
 74
     0
 49
0.5
 74
     0
 49
-0.25
 74
     0
 49
0.5
 74
     0
 49
-0.25
 74
     0
  0
LTYPE
  5
23
330
5
100
AcDbSymbolTableRecord
100
AcDbLinetypeTableRecord
  2
BORDER2
 70
     0
  3
__.__.__.__.__.__.__.__.__.__.__.__.__.__.__.__
 72
    65
 73
     6
 40
0.875
 49
0.25
 74
     0
 49
-0.125
 74
     0
 49
0.25
 74
     0
 49
-0.125
 74
     0
 49
0.25
 74
     0
 49
-0.125
 74
     0
  0
LTYPE
  5
24
330
5
100
AcDbSymbolTableRecord
100
AcDbLinetypeTableRecord
  2
BORDERX2
 70
     0
  3
____  ____  .  ____  ____  .  
 72
    65
 73
     6
 40
3.5
 49
1.0
 74
     0
 49
-0.5
 74
     0
 49
1.0
 74
     0
 49
-0.5
 74
     0
 49
1.0
 74
     0
 49
-0.5
 74
     0
  0
LTYPE
  5
25
330
5
100
AcDbSymbolTableRecord
100
AcDbLinetypeTableRecord
  2
CENTER
 70
     0
  3
____ _ ____ _ ____ _ ____ _ ____ _ ____ _ ____
 72
    65
 73
     4
 40
2.0
 49
1.25
 74
     0
 49
-0.25
 74
     0
 49
0.25
 74
     0
 49
-0.25
 74
     0
  0
LTYPE
  5
26
330
5
100
AcDbSymbolTableRecord
100
AcDbLinetypeTableRecord
  2
CENTER2
 70
     0
  3
____ _ ____ _ ____ _ ____ _ ____ _ ____ _ ____
 72
    65
 73
     4
 40
1.125
 49
0.75
 74
     0
 49
-0.125
 74
     0
 49
0.125
 74
     0
 49
-0.125
 74
     0
  0
LTYPE
  5
27
330
5
100
AcDbSymbolTableRecord
100
AcDbLinetypeTableRecord
  2
CENTERX2
 70
     0
  3
________  __  ________  __  ________  __  
 72
    65
 73
     4
 40
4.0
 49
2.5
 74
     0
 49
-0.5
 74
     0
 49
0.5
 74
     0
 49
-0.5
 74
     0
  0
LTYPE
  5
28
330
5
100
AcDbSymbolTableRecord
100
AcDbLinetypeTableRecord
  2
DASHDOT
 70
     0
  3
__ . __ . __ . __ . __ . __ . __ . 
 72
    65
 73
     4
 40
1.0
 49
0.5
 74
     0
 49
-0.25
 74
     0
 49
0.0
 74
     0
 49
-0.25
 74
     0
  0
LTYPE
  5
29
330
5
100
AcDbSymbolTableRecord
100
AcDbLinetypeTableRecord
  2
DASHDOT2
 70
     0
  3
_._._._._._._._._._._._._._._._.
 72
    65
 73
     4
 40
0.5
 49
0.25
 74
     0
 49
-0.125
 74
     0
 49
0.0
 74
     0
 49
-0.125
 74
     0
  0
LTYPE
  5
2A
330
5
100
AcDbSymbolTableRecord
100
AcDbLinetypeTableRecord
  2
DASHDOTX2
 70
     0
  3
____  .  ____  .  ____  .  ____  .  
 72
    65
 73
     4
 40
2.0
 49
1.0
 74
     0
 49
-0.5
 74
     0
 49
0.0
 74
     0
 49
-0.5
 74
     0
  0
LTYPE
  5
2B
330
5
100
AcDbSymbolTableRecord
100
AcDbLinetypeTableRecord
  2
DASHED
 70
     0
  3
__ __ __ __ __ __ __ __ __ __ __ __ 
 72
    65
 73
     2
 40
0.75
 49
0.5
 74
     0
 49
-0.25
 74
     0
  0
LTYPE
  5
2C
330
5
100
AcDbSymbolTableRecord
100
AcDbLinetypeTableRecord
  2
DASHED2
 70
     0
  3
_ _ _ _ _ _ _ _ _ _ _ _ _ _ _ _ _ _ 
 72
    65
 73
     2
 40
0.375
 49
0.25
 74
     0
 49
-0.125
 74
     0
  0
LTYPE
  5
2D
330
5
100
AcDbSymbolTableRecord
100
AcDbLinetypeTableRecord
  2
DASHEDX2
 70
     0
  3
____  ____  ____  ____  ____  ____  
 72
    65
 73
     2
 40
1.5
 49
1.0
 74
     0
 49
-0.5
 74
     0
  0
LTYPE
  5
2E
330
5
100
AcDbSymbolTableRecord
100
AcDbLinetypeTableRecord
  2
DIVIDE
 70
     0
  3
____ . . ____ . . ____ . . ____ . . 
 72
    65
 73
     6
 40
1.25
 49
0.5
 74
     0
 49
-0.25
 74
     0
 49
0.0
 74
     0
 49
-0.25
 74
     0
 49
0.0
 74
     0
 49
-0.25
 74
     0
  0
LTYPE
  5
2F
330
5
100
AcDbSymbolTableRecord
100
AcDbLinetypeTableRecord
  2
DIVIDE2
 70
     0
  3
__..__..__..__..__..__..__..__..__..
 72
    65
 73
     6
 40
0.625
 49
0.25
 74
     0
 49
-0.125
 74
     0
 49
0.0
 74
     0
 49
-0.125
 74
     0
 49
0.0
 74
     0
 49
-0.125
 74
     0
  0
LTYPE
  5
30
330
5
100
AcDbSymbolTableRecord
100
AcDbLinetypeTableRecord
  2
DIVIDEX2
 70
     0
  3
________  .  .  ________  .  .  ________  .  . 
 72
    65
 73
     6
 40
2.5
 49
1.0
 74
     0
 49
-0.5
 74
     0
 49
0.0
 74
     0
 49
-0.5
 74
     0
 49
0.0
 74
     0
 49
-0.5
 74
     0
  0
LTYPE
  5
31
330
5
100
AcDbSymbolTableRecord
100
AcDbLinetypeTableRecord
  2
DOT
 70
     0
  3
. . . . . . . . . . . . . . . . . . 
 72
    65
 73
     2
 40
0.25
 49
0.0
 74
     0
 49
-0.25
 74
     0
  0
LTYPE
  5
32
330
5
100
AcDbSymbolTableRecord
100
AcDbLinetypeTableRecord
  2
DOT2
 70
     0
  3
....................................
 72
    65
 73
     2
 40
0.125
 49
0.0
 74
     0
 49
-0.125
 74
     0
  0
LTYPE
  5
33
330
5
100
AcDbSymbolTableRecord
100
AcDbLinetypeTableRecord
  2
DOTX2
 70
     0
  3
.  .  .  .  .  .  .  .  .  .  .  .  .  
 72
    65
 73
     2
 40
0.5
 49
0.0
 74
     0
 49
-0.5
 74
     0
  0
LTYPE
  5
34
330
5
100
AcDbSymbolTableRecord
100
AcDbLinetypeTableRecord
  2
HIDDEN
 70
     0
  3
__ __ __ __ __ __ __ __ __ __ __ __ 
 72
    65
 73
     2
 40
0.375
 49
0.25
 74
     0
 49
-0.125
 74
     0
  0
LTYPE
  5
35
330
5
100
AcDbSymbolTableRecord
100
AcDbLinetypeTableRecord
  2
HIDDEN2
 70
     0
  3
_ _ _ _ _ _ _ _ _ _ _ _ _ _ _ _ _ _ 
 72
    65
 73
     2
 40
0.1875
 49
0.125
 74
     0
 49
-0.0625
 74
     0
  0
LTYPE
  5
36
330
5
100
AcDbSymbolTableRecord
100
AcDbLinetypeTableRecord
  2
HIDDENX2
 70
     0
  3
____ ____ ____ ____ ____ ____ ____ 
 72
    65
 73
     2
 40
0.75
 49
0.5
 74
     0
 49
-0.25
 74
     0
  0
LTYPE
  5
37
330
5
100
AcDbSymbolTableRecord
100
AcDbLinetypeTableRecord
  2
PHANTOM
 70
     0
  3
______  __  __  ______  __  __  
 72
    65
 73
     6
 40
2.5
 49
1.25
 74
     0
 49
-0.25
 74
     0
 49
0.25
 74
     0
 49
-0.25
 74
     0
 49
0.25
 74
     0
 49
-0.25
 74
     0
  0
LTYPE
  5
38
330
5
100
AcDbSymbolTableRecord
100
AcDbLinetypeTableRecord
  2
PHANTOM2
 70
     0
  3
___ _ _ ___ _ _ ___ _ _ ___ _ _ 
 72
    65
 73
     6
 40
1.25
 49
0.625
 74
     0
 49
-0.125
 74
     0
 49
0.125
 74
     0
 49
-0.125
 74
     0
 49
0.125
 74
     0
 49
-0.125
 74
     0
  0
LTYPE
  5
39
330
5
100
AcDbSymbolTableRecord
100
AcDbLinetypeTableRecord
  2
PHANTOMX2
 70
     0
  3
___ _ _ ___ _ _ ___ _ _ ___ _ _ 
 72
    65
 73
     6
 40
5.0
 49
2.5
 74
     0
 49
-0.5
 74
     0
 49
0.5
 74
     0
 49
-0.5
 74
     0
 49
0.5
 74
     0
 49
-0.5
 74
     0
  0
ENDTAB
  0
TABLE
  2
LAYER
  5
2
330
0
100
AcDbSymbolTable
 70
   256
  0
LAYER
  5
10
330
2
100
AcDbSymbolTableRecord
100
AcDbLayerTableRecord
  2
0
 70
     0
 62
     7
  6
CONTINUOUS
  0
LAYER
  5
3A
330
2
100
AcDbSymbolTableRecord
100
AcDbLayerTableRecord
  2
1
 70
     0
 62
     1
  6
CONTINUOUS
  0
LAYER
  5
3B
330
2
100
AcDbSymbolTableRecord
100
AcDbLayerTableRecord
  2
2
 70
     0
 62
     2
  6
CONTINUOUS
  0
LAYER
  5
3C
330
2
100
AcDbSymbolTableRecord
100
AcDbLayerTableRecord
  2
3
 70
     0
 62
     3
  6
CONTINUOUS
  0
LAYER
  5
3D
330
2
100
AcDbSymbolTableRecord
100
AcDbLayerTableRecord
  2
4
 70
     0
 62
     4
  6
CONTINUOUS
  0
LAYER
  5
3E
330
2
100
AcDbSymbolTableRecord
100
AcDbLayerTableRecord
  2
5
 70
     0
 62
     5
  6
CONTINUOUS
  0
LAYER
  5
3F
330
2
100
AcDbSymbolTableRecord
100
AcDbLayerTableRecord
  2
6
 70
     0
 62
     6
  6
CONTINUOUS
  0
LAYER
  5
40
330
2
100
AcDbSymbolTableRecord
100
AcDbLayerTableRecord
  2
7
 70
     0
 62
     7
  6
CONTINUOUS
  0
LAYER
  5
41
330
2
100
AcDbSymbolTableRecord
100
AcDbLayerTableRecord
  2
8
 70
     0
 62
     8
  6
CONTINUOUS
  0
LAYER
  5
42
330
2
100
AcDbSymbolTableRecord
100
AcDbLayerTableRecord
  2
9
 70
     0
 62
     9
  6
CONTINUOUS
  0
LAYER
  5
43
330
2
100
AcDbSymbolTableRecord
100
AcDbLayerTableRecord
  2
10
 70
     0
 62
    10
  6
CONTINUOUS
  0
LAYER
  5
44
330
2
100
AcDbSymbolTableRecord
100
AcDbLayerTableRecord
  2
11
 70
     0
 62
    11
  6
CONTINUOUS
  0
LAYER
  5
45
330
2
100
AcDbSymbolTableRecord
100
AcDbLayerTableRecord
  2
12
 70
     0
 62
    12
  6
CONTINUOUS
  0
LAYER
  5
46
330
2
100
AcDbSymbolTableRecord
100
AcDbLayerTableRecord
  2
13
 70
     0
 62
    13
  6
CONTINUOUS
  0
LAYER
  5
47
330
2
100
AcDbSymbolTableRecord
100
AcDbLayerTableRecord
  2
14
 70
     0
 62
    14
  6
CONTINUOUS
  0
LAYER
  5
48
330
2
100
AcDbSymbolTableRecord
100
AcDbLayerTableRecord
  2
15
 70
     0
 62
    15
  6
CONTINUOUS
  0
LAYER
  5
49
330
2
100
AcDbSymbolTableRecord
100
AcDbLayerTableRecord
  2
16
 70
     0
 62
    16
  6
CONTINUOUS
  0
LAYER
  5
4A
330
2
100
AcDbSymbolTableRecord
100
AcDbLayerTableRecord
  2
17
 70
     0
 62
    17
  6
CONTINUOUS
  0
LAYER
  5
4B
330
2
100
AcDbSymbolTableRecord
100
AcDbLayerTableRecord
  2
18
 70
     0
 62
    18
  6
CONTINUOUS
  0
LAYER
  5
4C
330
2
100
AcDbSymbolTableRecord
100
AcDbLayerTableRecord
  2
19
 70
     0
 62
    19
  6
CONTINUOUS
  0
LAYER
  5
4D
330
2
100
AcDbSymbolTableRecord
100
AcDbLayerTableRecord
  2
20
 70
     0
 62
    20
  6
CONTINUOUS
  0
LAYER
  5
4E
330
2
100
AcDbSymbolTableRecord
100
AcDbLayerTableRecord
  2
21
 70
     0
 62
    21
  6
CONTINUOUS
  0
LAYER
  5
4F
330
2
100
AcDbSymbolTableRecord
100
AcDbLayerTableRecord
  2
22
 70
     0
 62
    22
  6
CONTINUOUS
  0
LAYER
  5
50
330
2
100
AcDbSymbolTableRecord
100
AcDbLayerTableRecord
  2
23
 70
     0
 62
    23
  6
CONTINUOUS
  0
LAYER
  5
51
330
2
100
AcDbSymbolTableRecord
100
AcDbLayerTableRecord
  2
24
 70
     0
 62
    24
  6
CONTINUOUS
  0
LAYER
  5
52
330
2
100
AcDbSymbolTableRecord
100
AcDbLayerTableRecord
  2
25
 70
     0
 62
    25
  6
CONTINUOUS
  0
LAYER
  5
53
330
2
100
AcDbSymbolTableRecord
100
AcDbLayerTableRecord
  2
26
 70
     0
 62
    26
  6
CONTINUOUS
  0
LAYER
  5
54
330
2
100
AcDbSymbolTableRecord
100
AcDbLayerTableRecord
  2
27
 70
     0
 62
    27
  6
CONTINUOUS
  0
LAYER
  5
55
330
2
100
AcDbSymbolTableRecord
100
AcDbLayerTableRecord
  2
28
 70
     0
 62
    28
  6
CONTINUOUS
  0
LAYER
  5
56
330
2
100
AcDbSymbolTableRecord
100
AcDbLayerTableRecord
  2
29
 70
     0
 62
    29
  6
CONTINUOUS
  0
LAYER
  5
57
330
2
100
AcDbSymbolTableRecord
100
AcDbLayerTableRecord
  2
30
 70
     0
 62
    30
  6
CONTINUOUS
  0
LAYER
  5
58
330
2
100
AcDbSymbolTableRecord
100
AcDbLayerTableRecord
  2
31
 70
     0
 62
    31
  6
CONTINUOUS
  0
LAYER
  5
59
330
2
100
AcDbSymbolTableRecord
100
AcDbLayerTableRecord
  2
32
 70
     0
 62
    32
  6
CONTINUOUS
  0
LAYER
  5
5A
330
2
100
AcDbSymbolTableRecord
100
AcDbLayerTableRecord
  2
33
 70
     0
 62
    33
  6
CONTINUOUS
  0
LAYER
  5
5B
330
2
100
AcDbSymbolTableRecord
100
AcDbLayerTableRecord
  2
34
 70
     0
 62
    34
  6
CONTINUOUS
  0
LAYER
  5
5C
330
2
100
AcDbSymbolTableRecord
100
AcDbLayerTableRecord
  2
35
 70
     0
 62
    35
  6
CONTINUOUS
  0
LAYER
  5
5D
330
2
100
AcDbSymbolTableRecord
100
AcDbLayerTableRecord
  2
36
 70
     0
 62
    36
  6
CONTINUOUS
  0
LAYER
  5
5E
330
2
100
AcDbSymbolTableRecord
100
AcDbLayerTableRecord
  2
37
 70
     0
 62
    37
  6
CONTINUOUS
  0
LAYER
  5
5F
330
2
100
AcDbSymbolTableRecord
100
AcDbLayerTableRecord
  2
38
 70
     0
 62
    38
  6
CONTINUOUS
  0
LAYER
  5
60
330
2
100
AcDbSymbolTableRecord
100
AcDbLayerTableRecord
  2
39
 70
     0
 62
    39
  6
CONTINUOUS
  0
LAYER
  5
61
330
2
100
AcDbSymbolTableRecord
100
AcDbLayerTableRecord
  2
40
 70
     0
 62
    40
  6
CONTINUOUS
  0
LAYER
  5
62
330
2
100
AcDbSymbolTableRecord
100
AcDbLayerTableRecord
  2
41
 70
     0
 62
    41
  6
CONTINUOUS
  0
LAYER
  5
63
330
2
100
AcDbSymbolTableRecord
100
AcDbLayerTableRecord
  2
42
 70
     0
 62
    42
  6
CONTINUOUS
  0
LAYER
  5
64
330
2
100
AcDbSymbolTableRecord
100
AcDbLayerTableRecord
  2
43
 70
     0
 62
    43
  6
CONTINUOUS
  0
LAYER
  5
65
330
2
100
AcDbSymbolTableRecord
100
AcDbLayerTableRecord
  2
44
 70
     0
 62
    44
  6
CONTINUOUS
  0
LAYER
  5
66
330
2
100
AcDbSymbolTableRecord
100
AcDbLayerTableRecord
  2
45
 70
     0
 62
    45
  6
CONTINUOUS
  0
LAYER
  5
67
330
2
100
AcDbSymbolTableRecord
100
AcDbLayerTableRecord
  2
46
 70
     0
 62
    46
  6
CONTINUOUS
  0
LAYER
  5
68
330
2
100
AcDbSymbolTableRecord
100
AcDbLayerTableRecord
  2
47
 70
     0
 62
    47
  6
CONTINUOUS
  0
LAYER
  5
69
330
2
100
AcDbSymbolTableRecord
100
AcDbLayerTableRecord
  2
48
 70
     0
 62
    48
  6
CONTINUOUS
  0
LAYER
  5
6A
330
2
100
AcDbSymbolTableRecord
100
AcDbLayerTableRecord
  2
49
 70
     0
 62
    49
  6
CONTINUOUS
  0
LAYER
  5
6B
330
2
100
AcDbSymbolTableRecord
100
AcDbLayerTableRecord
  2
50
 70
     0
 62
    50
  6
CONTINUOUS
  0
LAYER
  5
6C
330
2
100
AcDbSymbolTableRecord
100
AcDbLayerTableRecord
  2
51
 70
     0
 62
    51
  6
CONTINUOUS
  0
LAYER
  5
6D
330
2
100
AcDbSymbolTableRecord
100
AcDbLayerTableRecord
  2
52
 70
     0
 62
    52
  6
CONTINUOUS
  0
LAYER
  5
6E
330
2
100
AcDbSymbolTableRecord
100
AcDbLayerTableRecord
  2
53
 70
     0
 62
    53
  6
CONTINUOUS
  0
LAYER
  5
6F
330
2
100
AcDbSymbolTableRecord
100
AcDbLayerTableRecord
  2
54
 70
     0
 62
    54
  6
CONTINUOUS
  0
LAYER
  5
70
330
2
100
AcDbSymbolTableRecord
100
AcDbLayerTableRecord
  2
55
 70
     0
 62
    55
  6
CONTINUOUS
  0
LAYER
  5
71
330
2
100
AcDbSymbolTableRecord
100
AcDbLayerTableRecord
  2
56
 70
     0
 62
    56
  6
CONTINUOUS
  0
LAYER
  5
72
330
2
100
AcDbSymbolTableRecord
100
AcDbLayerTableRecord
  2
57
 70
     0
 62
    57
  6
CONTINUOUS
  0
LAYER
  5
73
330
2
100
AcDbSymbolTableRecord
100
AcDbLayerTableRecord
  2
58
 70
     0
 62
    58
  6
CONTINUOUS
  0
LAYER
  5
74
330
2
100
AcDbSymbolTableRecord
100
AcDbLayerTableRecord
  2
59
 70
     0
 62
    59
  6
CONTINUOUS
  0
LAYER
  5
75
330
2
100
AcDbSymbolTableRecord
100
AcDbLayerTableRecord
  2
60
 70
     0
 62
    60
  6
CONTINUOUS
  0
LAYER
  5
76
330
2
100
AcDbSymbolTableRecord
100
AcDbLayerTableRecord
  2
61
 70
     0
 62
    61
  6
CONTINUOUS
  0
LAYER
  5
77
330
2
100
AcDbSymbolTableRecord
100
AcDbLayerTableRecord
  2
62
 70
     0
 62
    62
  6
CONTINUOUS
  0
LAYER
  5
78
330
2
100
AcDbSymbolTableRecord
100
AcDbLayerTableRecord
  2
63
 70
     0
 62
    63
  6
CONTINUOUS
  0
LAYER
  5
79
330
2
100
AcDbSymbolTableRecord
100
AcDbLayerTableRecord
  2
64
 70
     0
 62
    64
  6
CONTINUOUS
  0
LAYER
  5
7A
330
2
100
AcDbSymbolTableRecord
100
AcDbLayerTableRecord
  2
65
 70
     0
 62
    65
  6
CONTINUOUS
  0
LAYER
  5
7B
330
2
100
AcDbSymbolTableRecord
100
AcDbLayerTableRecord
  2
66
 70
     0
 62
    66
  6
CONTINUOUS
  0
LAYER
  5
7C
330
2
100
AcDbSymbolTableRecord
100
AcDbLayerTableRecord
  2
67
 70
     0
 62
    67
  6
CONTINUOUS
  0
LAYER
  5
7D
330
2
100
AcDbSymbolTableRecord
100
AcDbLayerTableRecord
  2
68
 70
     0
 62
    68
  6
CONTINUOUS
  0
LAYER
  5
7E
330
2
100
AcDbSymbolTableRecord
100
AcDbLayerTableRecord
  2
69
 70
     0
 62
    69
  6
CONTINUOUS
  0
LAYER
  5
7F
330
2
100
AcDbSymbolTableRecord
100
AcDbLayerTableRecord
  2
70
 70
     0
 62
    70
  6
CONTINUOUS
  0
LAYER
  5
80
330
2
100
AcDbSymbolTableRecord
100
AcDbLayerTableRecord
  2
71
 70
     0
 62
    71
  6
CONTINUOUS
  0
LAYER
  5
81
330
2
100
AcDbSymbolTableRecord
100
AcDbLayerTableRecord
  2
72
 70
     0
 62
    72
  6
CONTINUOUS
  0
LAYER
  5
82
330
2
100
AcDbSymbolTableRecord
100
AcDbLayerTableRecord
  2
73
 70
     0
 62
    73
  6
CONTINUOUS
  0
LAYER
  5
83
330
2
100
AcDbSymbolTableRecord
100
AcDbLayerTableRecord
  2
74
 70
     0
 62
    74
  6
CONTINUOUS
  0
LAYER
  5
84
330
2
100
AcDbSymbolTableRecord
100
AcDbLayerTableRecord
  2
75
 70
     0
 62
    75
  6
CONTINUOUS
  0
LAYER
  5
85
330
2
100
AcDbSymbolTableRecord
100
AcDbLayerTableRecord
  2
76
 70
     0
 62
    76
  6
CONTINUOUS
  0
LAYER
  5
86
330
2
100
AcDbSymbolTableRecord
100
AcDbLayerTableRecord
  2
77
 70
     0
 62
    77
  6
CONTINUOUS
  0
LAYER
  5
87
330
2
100
AcDbSymbolTableRecord
100
AcDbLayerTableRecord
  2
78
 70
     0
 62
    78
  6
CONTINUOUS
  0
LAYER
  5
88
330
2
100
AcDbSymbolTableRecord
100
AcDbLayerTableRecord
  2
79
 70
     0
 62
    79
  6
CONTINUOUS
  0
LAYER
  5
89
330
2
100
AcDbSymbolTableRecord
100
AcDbLayerTableRecord
  2
80
 70
     0
 62
    80
  6
CONTINUOUS
  0
LAYER
  5
8A
330
2
100
AcDbSymbolTableRecord
100
AcDbLayerTableRecord
  2
81
 70
     0
 62
    81
  6
CONTINUOUS
  0
LAYER
  5
8B
330
2
100
AcDbSymbolTableRecord
100
AcDbLayerTableRecord
  2
82
 70
     0
 62
    82
  6
CONTINUOUS
  0
LAYER
  5
8C
330
2
100
AcDbSymbolTableRecord
100
AcDbLayerTableRecord
  2
83
 70
     0
 62
    83
  6
CONTINUOUS
  0
LAYER
  5
8D
330
2
100
AcDbSymbolTableRecord
100
AcDbLayerTableRecord
  2
84
 70
     0
 62
    84
  6
CONTINUOUS
  0
LAYER
  5
8E
330
2
100
AcDbSymbolTableRecord
100
AcDbLayerTableRecord
  2
85
 70
     0
 62
    85
  6
CONTINUOUS
  0
LAYER
  5
8F
330
2
100
AcDbSymbolTableRecord
100
AcDbLayerTableRecord
  2
86
 70
     0
 62
    86
  6
CONTINUOUS
  0
LAYER
  5
90
330
2
100
AcDbSymbolTableRecord
100
AcDbLayerTableRecord
  2
87
 70
     0
 62
    87
  6
CONTINUOUS
  0
LAYER
  5
91
330
2
100
AcDbSymbolTableRecord
100
AcDbLayerTableRecord
  2
88
 70
     0
 62
    88
  6
CONTINUOUS
  0
LAYER
  5
92
330
2
100
AcDbSymbolTableRecord
100
AcDbLayerTableRecord
  2
89
 70
     0
 62
    89
  6
CONTINUOUS
  0
LAYER
  5
93
330
2
100
AcDbSymbolTableRecord
100
AcDbLayerTableRecord
  2
90
 70
     0
 62
    90
  6
CONTINUOUS
  0
LAYER
  5
94
330
2
100
AcDbSymbolTableRecord
100
AcDbLayerTableRecord
  2
91
 70
     0
 62
    91
  6
CONTINUOUS
  0
LAYER
  5
95
330
2
100
AcDbSymbolTableRecord
100
AcDbLayerTableRecord
  2
92
 70
     0
 62
    92
  6
CONTINUOUS
  0
LAYER
  5
96
330
2
100
AcDbSymbolTableRecord
100
AcDbLayerTableRecord
  2
93
 70
     0
 62
    93
  6
CONTINUOUS
  0
LAYER
  5
97
330
2
100
AcDbSymbolTableRecord
100
AcDbLayerTableRecord
  2
94
 70
     0
 62
    94
  6
CONTINUOUS
  0
LAYER
  5
98
330
2
100
AcDbSymbolTableRecord
100
AcDbLayerTableRecord
  2
95
 70
     0
 62
    95
  6
CONTINUOUS
  0
LAYER
  5
99
330
2
100
AcDbSymbolTableRecord
100
AcDbLayerTableRecord
  2
96
 70
     0
 62
    96
  6
CONTINUOUS
  0
LAYER
  5
9A
330
2
100
AcDbSymbolTableRecord
100
AcDbLayerTableRecord
  2
97
 70
     0
 62
    97
  6
CONTINUOUS
  0
LAYER
  5
9B
330
2
100
AcDbSymbolTableRecord
100
AcDbLayerTableRecord
  2
98
 70
     0
 62
    98
  6
CONTINUOUS
  0
LAYER
  5
9C
330
2
100
AcDbSymbolTableRecord
100
AcDbLayerTableRecord
  2
99
 70
     0
 62
    99
  6
CONTINUOUS
  0
LAYER
  5
9D
330
2
100
AcDbSymbolTableRecord
100
AcDbLayerTableRecord
  2
100
 70
     0
 62
   100
  6
CONTINUOUS
  0
LAYER
  5
9E
330
2
100
AcDbSymbolTableRecord
100
AcDbLayerTableRecord
  2
101
 70
     0
 62
   101
  6
CONTINUOUS
  0
LAYER
  5
9F
330
2
100
AcDbSymbolTableRecord
100
AcDbLayerTableRecord
  2
102
 70
     0
 62
   102
  6
CONTINUOUS
  0
LAYER
  5
A0
330
2
100
AcDbSymbolTableRecord
100
AcDbLayerTableRecord
  2
103
 70
     0
 62
   103
  6
CONTINUOUS
  0
LAYER
  5
A1
330
2
100
AcDbSymbolTableRecord
100
AcDbLayerTableRecord
  2
104
 70
     0
 62
   104
  6
CONTINUOUS
  0
LAYER
  5
A2
330
2
100
AcDbSymbolTableRecord
100
AcDbLayerTableRecord
  2
105
 70
     0
 62
   105
  6
CONTINUOUS
  0
LAYER
  5
A3
330
2
100
AcDbSymbolTableRecord
100
AcDbLayerTableRecord
  2
106
 70
     0
 62
   106
  6
CONTINUOUS
  0
LAYER
  5
A4
330
2
100
AcDbSymbolTableRecord
100
AcDbLayerTableRecord
  2
107
 70
     0
 62
   107
  6
CONTINUOUS
  0
LAYER
  5
A5
330
2
100
AcDbSymbolTableRecord
100
AcDbLayerTableRecord
  2
108
 70
     0
 62
   108
  6
CONTINUOUS
  0
LAYER
  5
A6
330
2
100
AcDbSymbolTableRecord
100
AcDbLayerTableRecord
  2
109
 70
     0
 62
   109
  6
CONTINUOUS
  0
LAYER
  5
A7
330
2
100
AcDbSymbolTableRecord
100
AcDbLayerTableRecord
  2
110
 70
     0
 62
   110
  6
CONTINUOUS
  0
LAYER
  5
A8
330
2
100
AcDbSymbolTableRecord
100
AcDbLayerTableRecord
  2
111
 70
     0
 62
   111
  6
CONTINUOUS
  0
LAYER
  5
A9
330
2
100
AcDbSymbolTableRecord
100
AcDbLayerTableRecord
  2
112
 70
     0
 62
   112
  6
CONTINUOUS
  0
LAYER
  5
AA
330
2
100
AcDbSymbolTableRecord
100
AcDbLayerTableRecord
  2
113
 70
     0
 62
   113
  6
CONTINUOUS
  0
LAYER
  5
AB
330
2
100
AcDbSymbolTableRecord
100
AcDbLayerTableRecord
  2
114
 70
     0
 62
   114
  6
CONTINUOUS
  0
LAYER
  5
AC
330
2
100
AcDbSymbolTableRecord
100
AcDbLayerTableRecord
  2
115
 70
     0
 62
   115
  6
CONTINUOUS
  0
LAYER
  5
AD
330
2
100
AcDbSymbolTableRecord
100
AcDbLayerTableRecord
  2
116
 70
     0
 62
   116
  6
CONTINUOUS
  0
LAYER
  5
AE
330
2
100
AcDbSymbolTableRecord
100
AcDbLayerTableRecord
  2
117
 70
     0
 62
   117
  6
CONTINUOUS
  0
LAYER
  5
AF
330
2
100
AcDbSymbolTableRecord
100
AcDbLayerTableRecord
  2
118
 70
     0
 62
   118
  6
CONTINUOUS
  0
LAYER
  5
B0
330
2
100
AcDbSymbolTableRecord
100
AcDbLayerTableRecord
  2
119
 70
     0
 62
   119
  6
CONTINUOUS
  0
LAYER
  5
B1
330
2
100
AcDbSymbolTableRecord
100
AcDbLayerTableRecord
  2
120
 70
     0
 62
   120
  6
CONTINUOUS
  0
LAYER
  5
B2
330
2
100
AcDbSymbolTableRecord
100
AcDbLayerTableRecord
  2
121
 70
     0
 62
   121
  6
CONTINUOUS
  0
LAYER
  5
B3
330
2
100
AcDbSymbolTableRecord
100
AcDbLayerTableRecord
  2
122
 70
     0
 62
   122
  6
CONTINUOUS
  0
LAYER
  5
B4
330
2
100
AcDbSymbolTableRecord
100
AcDbLayerTableRecord
  2
123
 70
     0
 62
   123
  6
CONTINUOUS
  0
LAYER
  5
B5
330
2
100
AcDbSymbolTableRecord
100
AcDbLayerTableRecord
  2
124
 70
     0
 62
   124
  6
CONTINUOUS
  0
LAYER
  5
B6
330
2
100
AcDbSymbolTableRecord
100
AcDbLayerTableRecord
  2
125
 70
     0
 62
   125
  6
CONTINUOUS
  0
LAYER
  5
B7
330
2
100
AcDbSymbolTableRecord
100
AcDbLayerTableRecord
  2
126
 70
     0
 62
   126
  6
CONTINUOUS
  0
LAYER
  5
B8
330
2
100
AcDbSymbolTableRecord
100
AcDbLayerTableRecord
  2
127
 70
     0
 62
   127
  6
CONTINUOUS
  0
LAYER
  5
B9
330
2
100
AcDbSymbolTableRecord
100
AcDbLayerTableRecord
  2
128
 70
     0
 62
   128
  6
CONTINUOUS
  0
LAYER
  5
BA
330
2
100
AcDbSymbolTableRecord
100
AcDbLayerTableRecord
  2
129
 70
     0
 62
   129
  6
CONTINUOUS
  0
LAYER
  5
BB
330
2
100
AcDbSymbolTableRecord
100
AcDbLayerTableRecord
  2
130
 70
     0
 62
   130
  6
CONTINUOUS
  0
LAYER
  5
BC
330
2
100
AcDbSymbolTableRecord
100
AcDbLayerTableRecord
  2
131
 70
     0
 62
   131
  6
CONTINUOUS
  0
LAYER
  5
BD
330
2
100
AcDbSymbolTableRecord
100
AcDbLayerTableRecord
  2
132
 70
     0
 62
   132
  6
CONTINUOUS
  0
LAYER
  5
BE
330
2
100
AcDbSymbolTableRecord
100
AcDbLayerTableRecord
  2
133
 70
     0
 62
   133
  6
CONTINUOUS
  0
LAYER
  5
BF
330
2
100
AcDbSymbolTableRecord
100
AcDbLayerTableRecord
  2
134
 70
     0
 62
   134
  6
CONTINUOUS
  0
LAYER
  5
C0
330
2
100
AcDbSymbolTableRecord
100
AcDbLayerTableRecord
  2
135
 70
     0
 62
   135
  6
CONTINUOUS
  0
LAYER
  5
C1
330
2
100
AcDbSymbolTableRecord
100
AcDbLayerTableRecord
  2
136
 70
     0
 62
   136
  6
CONTINUOUS
  0
LAYER
  5
C2
330
2
100
AcDbSymbolTableRecord
100
AcDbLayerTableRecord
  2
137
 70
     0
 62
   137
  6
CONTINUOUS
  0
LAYER
  5
C3
330
2
100
AcDbSymbolTableRecord
100
AcDbLayerTableRecord
  2
138
 70
     0
 62
   138
  6
CONTINUOUS
  0
LAYER
  5
C4
330
2
100
AcDbSymbolTableRecord
100
AcDbLayerTableRecord
  2
139
 70
     0
 62
   139
  6
CONTINUOUS
  0
LAYER
  5
C5
330
2
100
AcDbSymbolTableRecord
100
AcDbLayerTableRecord
  2
140
 70
     0
 62
   140
  6
CONTINUOUS
  0
LAYER
  5
C6
330
2
100
AcDbSymbolTableRecord
100
AcDbLayerTableRecord
  2
141
 70
     0
 62
   141
  6
CONTINUOUS
  0
LAYER
  5
C7
330
2
100
AcDbSymbolTableRecord
100
AcDbLayerTableRecord
  2
142
 70
     0
 62
   142
  6
CONTINUOUS
  0
LAYER
  5
C8
330
2
100
AcDbSymbolTableRecord
100
AcDbLayerTableRecord
  2
143
 70
     0
 62
   143
  6
CONTINUOUS
  0
LAYER
  5
C9
330
2
100
AcDbSymbolTableRecord
100
AcDbLayerTableRecord
  2
144
 70
     0
 62
   144
  6
CONTINUOUS
  0
LAYER
  5
CA
330
2
100
AcDbSymbolTableRecord
100
AcDbLayerTableRecord
  2
145
 70
     0
 62
   145
  6
CONTINUOUS
  0
LAYER
  5
CB
330
2
100
AcDbSymbolTableRecord
100
AcDbLayerTableRecord
  2
146
 70
     0
 62
   146
  6
CONTINUOUS
  0
LAYER
  5
CC
330
2
100
AcDbSymbolTableRecord
100
AcDbLayerTableRecord
  2
147
 70
     0
 62
   147
  6
CONTINUOUS
  0
LAYER
  5
CD
330
2
100
AcDbSymbolTableRecord
100
AcDbLayerTableRecord
  2
148
 70
     0
 62
   148
  6
CONTINUOUS
  0
LAYER
  5
CE
330
2
100
AcDbSymbolTableRecord
100
AcDbLayerTableRecord
  2
149
 70
     0
 62
   149
  6
CONTINUOUS
  0
LAYER
  5
CF
330
2
100
AcDbSymbolTableRecord
100
AcDbLayerTableRecord
  2
150
 70
     0
 62
   150
  6
CONTINUOUS
  0
LAYER
  5
D0
330
2
100
AcDbSymbolTableRecord
100
AcDbLayerTableRecord
  2
151
 70
     0
 62
   151
  6
CONTINUOUS
  0
LAYER
  5
D1
330
2
100
AcDbSymbolTableRecord
100
AcDbLayerTableRecord
  2
152
 70
     0
 62
   152
  6
CONTINUOUS
  0
LAYER
  5
D2
330
2
100
AcDbSymbolTableRecord
100
AcDbLayerTableRecord
  2
153
 70
     0
 62
   153
  6
CONTINUOUS
  0
LAYER
  5
D3
330
2
100
AcDbSymbolTableRecord
100
AcDbLayerTableRecord
  2
154
 70
     0
 62
   154
  6
CONTINUOUS
  0
LAYER
  5
D4
330
2
100
AcDbSymbolTableRecord
100
AcDbLayerTableRecord
  2
155
 70
     0
 62
   155
  6
CONTINUOUS
  0
LAYER
  5
D5
330
2
100
AcDbSymbolTableRecord
100
AcDbLayerTableRecord
  2
156
 70
     0
 62
   156
  6
CONTINUOUS
  0
LAYER
  5
D6
330
2
100
AcDbSymbolTableRecord
100
AcDbLayerTableRecord
  2
157
 70
     0
 62
   157
  6
CONTINUOUS
  0
LAYER
  5
D7
330
2
100
AcDbSymbolTableRecord
100
AcDbLayerTableRecord
  2
158
 70
     0
 62
   158
  6
CONTINUOUS
  0
LAYER
  5
D8
330
2
100
AcDbSymbolTableRecord
100
AcDbLayerTableRecord
  2
159
 70
     0
 62
   159
  6
CONTINUOUS
  0
LAYER
  5
D9
330
2
100
AcDbSymbolTableRecord
100
AcDbLayerTableRecord
  2
160
 70
     0
 62
   160
  6
CONTINUOUS
  0
LAYER
  5
DA
330
2
100
AcDbSymbolTableRecord
100
AcDbLayerTableRecord
  2
161
 70
     0
 62
   161
  6
CONTINUOUS
  0
LAYER
  5
DB
330
2
100
AcDbSymbolTableRecord
100
AcDbLayerTableRecord
  2
162
 70
     0
 62
   162
  6
CONTINUOUS
  0
LAYER
  5
DC
330
2
100
AcDbSymbolTableRecord
100
AcDbLayerTableRecord
  2
163
 70
     0
 62
   163
  6
CONTINUOUS
  0
LAYER
  5
DD
330
2
100
AcDbSymbolTableRecord
100
AcDbLayerTableRecord
  2
164
 70
     0
 62
   164
  6
CONTINUOUS
  0
LAYER
  5
DE
330
2
100
AcDbSymbolTableRecord
100
AcDbLayerTableRecord
  2
165
 70
     0
 62
   165
  6
CONTINUOUS
  0
LAYER
  5
DF
330
2
100
AcDbSymbolTableRecord
100
AcDbLayerTableRecord
  2
166
 70
     0
 62
   166
  6
CONTINUOUS
  0
LAYER
  5
E0
330
2
100
AcDbSymbolTableRecord
100
AcDbLayerTableRecord
  2
167
 70
     0
 62
   167
  6
CONTINUOUS
  0
LAYER
  5
E1
330
2
100
AcDbSymbolTableRecord
100
AcDbLayerTableRecord
  2
168
 70
     0
 62
   168
  6
CONTINUOUS
  0
LAYER
  5
E2
330
2
100
AcDbSymbolTableRecord
100
AcDbLayerTableRecord
  2
169
 70
     0
 62
   169
  6
CONTINUOUS
  0
LAYER
  5
E3
330
2
100
AcDbSymbolTableRecord
100
AcDbLayerTableRecord
  2
170
 70
     0
 62
   170
  6
CONTINUOUS
  0
LAYER
  5
E4
330
2
100
AcDbSymbolTableRecord
100
AcDbLayerTableRecord
  2
171
 70
     0
 62
   171
  6
CONTINUOUS
  0
LAYER
  5
E5
330
2
100
AcDbSymbolTableRecord
100
AcDbLayerTableRecord
  2
172
 70
     0
 62
   172
  6
CONTINUOUS
  0
LAYER
  5
E6
330
2
100
AcDbSymbolTableRecord
100
AcDbLayerTableRecord
  2
173
 70
     0
 62
   173
  6
CONTINUOUS
  0
LAYER
  5
E7
330
2
100
AcDbSymbolTableRecord
100
AcDbLayerTableRecord
  2
174
 70
     0
 62
   174
  6
CONTINUOUS
  0
LAYER
  5
E8
330
2
100
AcDbSymbolTableRecord
100
AcDbLayerTableRecord
  2
175
 70
     0
 62
   175
  6
CONTINUOUS
  0
LAYER
  5
E9
330
2
100
AcDbSymbolTableRecord
100
AcDbLayerTableRecord
  2
176
 70
     0
 62
   176
  6
CONTINUOUS
  0
LAYER
  5
EA
330
2
100
AcDbSymbolTableRecord
100
AcDbLayerTableRecord
  2
177
 70
     0
 62
   177
  6
CONTINUOUS
  0
LAYER
  5
EB
330
2
100
AcDbSymbolTableRecord
100
AcDbLayerTableRecord
  2
178
 70
     0
 62
   178
  6
CONTINUOUS
  0
LAYER
  5
EC
330
2
100
AcDbSymbolTableRecord
100
AcDbLayerTableRecord
  2
179
 70
     0
 62
   179
  6
CONTINUOUS
  0
LAYER
  5
ED
330
2
100
AcDbSymbolTableRecord
100
AcDbLayerTableRecord
  2
180
 70
     0
 62
   180
  6
CONTINUOUS
  0
LAYER
  5
EE
330
2
100
AcDbSymbolTableRecord
100
AcDbLayerTableRecord
  2
181
 70
     0
 62
   181
  6
CONTINUOUS
  0
LAYER
  5
EF
330
2
100
AcDbSymbolTableRecord
100
AcDbLayerTableRecord
  2
182
 70
     0
 62
   182
  6
CONTINUOUS
  0
LAYER
  5
F0
330
2
100
AcDbSymbolTableRecord
100
AcDbLayerTableRecord
  2
183
 70
     0
 62
   183
  6
CONTINUOUS
  0
LAYER
  5
F1
330
2
100
AcDbSymbolTableRecord
100
AcDbLayerTableRecord
  2
184
 70
     0
 62
   184
  6
CONTINUOUS
  0
LAYER
  5
F2
330
2
100
AcDbSymbolTableRecord
100
AcDbLayerTableRecord
  2
185
 70
     0
 62
   185
  6
CONTINUOUS
  0
LAYER
  5
F3
330
2
100
AcDbSymbolTableRecord
100
AcDbLayerTableRecord
  2
186
 70
     0
 62
   186
  6
CONTINUOUS
  0
LAYER
  5
F4
330
2
100
AcDbSymbolTableRecord
100
AcDbLayerTableRecord
  2
187
 70
     0
 62
   187
  6
CONTINUOUS
  0
LAYER
  5
F5
330
2
100
AcDbSymbolTableRecord
100
AcDbLayerTableRecord
  2
188
 70
     0
 62
   188
  6
CONTINUOUS
  0
LAYER
  5
F6
330
2
100
AcDbSymbolTableRecord
100
AcDbLayerTableRecord
  2
189
 70
     0
 62
   189
  6
CONTINUOUS
  0
LAYER
  5
F7
330
2
100
AcDbSymbolTableRecord
100
AcDbLayerTableRecord
  2
190
 70
     0
 62
   190
  6
CONTINUOUS
  0
LAYER
  5
F8
330
2
100
AcDbSymbolTableRecord
100
AcDbLayerTableRecord
  2
191
 70
     0
 62
   191
  6
CONTINUOUS
  0
LAYER
  5
F9
330
2
100
AcDbSymbolTableRecord
100
AcDbLayerTableRecord
  2
192
 70
     0
 62
   192
  6
CONTINUOUS
  0
LAYER
  5
FA
330
2
100
AcDbSymbolTableRecord
100
AcDbLayerTableRecord
  2
193
 70
     0
 62
   193
  6
CONTINUOUS
  0
LAYER
  5
FB
330
2
100
AcDbSymbolTableRecord
100
AcDbLayerTableRecord
  2
194
 70
     0
 62
   194
  6
CONTINUOUS
  0
LAYER
  5
FC
330
2
100
AcDbSymbolTableRecord
100
AcDbLayerTableRecord
  2
195
 70
     0
 62
   195
  6
CONTINUOUS
  0
LAYER
  5
FD
330
2
100
AcDbSymbolTableRecord
100
AcDbLayerTableRecord
  2
196
 70
     0
 62
   196
  6
CONTINUOUS
  0
LAYER
  5
FE
330
2
100
AcDbSymbolTableRecord
100
AcDbLayerTableRecord
  2
197
 70
     0
 62
   197
  6
CONTINUOUS
  0
LAYER
  5
FF
330
2
100
AcDbSymbolTableRecord
100
AcDbLayerTableRecord
  2
198
 70
     0
 62
   198
  6
CONTINUOUS
  0
LAYER
  5
100
330
2
100
AcDbSymbolTableRecord
100
AcDbLayerTableRecord
  2
199
 70
     0
 62
   199
  6
CONTINUOUS
  0
LAYER
  5
101
330
2
100
AcDbSymbolTableRecord
100
AcDbLayerTableRecord
  2
200
 70
     0
 62
   200
  6
CONTINUOUS
  0
LAYER
  5
102
330
2
100
AcDbSymbolTableRecord
100
AcDbLayerTableRecord
  2
201
 70
     0
 62
   201
  6
CONTINUOUS
  0
LAYER
  5
103
330
2
100
AcDbSymbolTableRecord
100
AcDbLayerTableRecord
  2
202
 70
     0
 62
   202
  6
CONTINUOUS
  0
LAYER
  5
104
330
2
100
AcDbSymbolTableRecord
100
AcDbLayerTableRecord
  2
203
 70
     0
 62
   203
  6
CONTINUOUS
  0
LAYER
  5
105
330
2
100
AcDbSymbolTableRecord
100
AcDbLayerTableRecord
  2
204
 70
     0
 62
   204
  6
CONTINUOUS
  0
LAYER
  5
106
330
2
100
AcDbSymbolTableRecord
100
AcDbLayerTableRecord
  2
205
 70
     0
 62
   205
  6
CONTINUOUS
  0
LAYER
  5
107
330
2
100
AcDbSymbolTableRecord
100
AcDbLayerTableRecord
  2
206
 70
     0
 62
   206
  6
CONTINUOUS
  0
LAYER
  5
108
330
2
100
AcDbSymbolTableRecord
100
AcDbLayerTableRecord
  2
207
 70
     0
 62
   207
  6
CONTINUOUS
  0
LAYER
  5
109
330
2
100
AcDbSymbolTableRecord
100
AcDbLayerTableRecord
  2
208
 70
     0
 62
   208
  6
CONTINUOUS
  0
LAYER
  5
10A
330
2
100
AcDbSymbolTableRecord
100
AcDbLayerTableRecord
  2
209
 70
     0
 62
   209
  6
CONTINUOUS
  0
LAYER
  5
10B
330
2
100
AcDbSymbolTableRecord
100
AcDbLayerTableRecord
  2
210
 70
     0
 62
   210
  6
CONTINUOUS
  0
LAYER
  5
10C
330
2
100
AcDbSymbolTableRecord
100
AcDbLayerTableRecord
  2
211
 70
     0
 62
   211
  6
CONTINUOUS
  0
LAYER
  5
10D
330
2
100
AcDbSymbolTableRecord
100
AcDbLayerTableRecord
  2
212
 70
     0
 62
   212
  6
CONTINUOUS
  0
LAYER
  5
10E
330
2
100
AcDbSymbolTableRecord
100
AcDbLayerTableRecord
  2
213
 70
     0
 62
   213
  6
CONTINUOUS
  0
LAYER
  5
10F
330
2
100
AcDbSymbolTableRecord
100
AcDbLayerTableRecord
  2
214
 70
     0
 62
   214
  6
CONTINUOUS
  0
LAYER
  5
110
330
2
100
AcDbSymbolTableRecord
100
AcDbLayerTableRecord
  2
215
 70
     0
 62
   215
  6
CONTINUOUS
  0
LAYER
  5
111
330
2
100
AcDbSymbolTableRecord
100
AcDbLayerTableRecord
  2
216
 70
     0
 62
   216
  6
CONTINUOUS
  0
LAYER
  5
112
330
2
100
AcDbSymbolTableRecord
100
AcDbLayerTableRecord
  2
217
 70
     0
 62
   217
  6
CONTINUOUS
  0
LAYER
  5
113
330
2
100
AcDbSymbolTableRecord
100
AcDbLayerTableRecord
  2
218
 70
     0
 62
   218
  6
CONTINUOUS
  0
LAYER
  5
114
330
2
100
AcDbSymbolTableRecord
100
AcDbLayerTableRecord
  2
219
 70
     0
 62
   219
  6
CONTINUOUS
  0
LAYER
  5
115
330
2
100
AcDbSymbolTableRecord
100
AcDbLayerTableRecord
  2
220
 70
     0
 62
   220
  6
CONTINUOUS
  0
LAYER
  5
116
330
2
100
AcDbSymbolTableRecord
100
AcDbLayerTableRecord
  2
221
 70
     0
 62
   221
  6
CONTINUOUS
  0
LAYER
  5
117
330
2
100
AcDbSymbolTableRecord
100
AcDbLayerTableRecord
  2
222
 70
     0
 62
   222
  6
CONTINUOUS
  0
LAYER
  5
118
330
2
100
AcDbSymbolTableRecord
100
AcDbLayerTableRecord
  2
223
 70
     0
 62
   223
  6
CONTINUOUS
  0
LAYER
  5
119
330
2
100
AcDbSymbolTableRecord
100
AcDbLayerTableRecord
  2
224
 70
     0
 62
   224
  6
CONTINUOUS
  0
LAYER
  5
11A
330
2
100
AcDbSymbolTableRecord
100
AcDbLayerTableRecord
  2
225
 70
     0
 62
   225
  6
CONTINUOUS
  0
LAYER
  5
11B
330
2
100
AcDbSymbolTableRecord
100
AcDbLayerTableRecord
  2
226
 70
     0
 62
   226
  6
CONTINUOUS
  0
LAYER
  5
11C
330
2
100
AcDbSymbolTableRecord
100
AcDbLayerTableRecord
  2
227
 70
     0
 62
   227
  6
CONTINUOUS
  0
LAYER
  5
11D
330
2
100
AcDbSymbolTableRecord
100
AcDbLayerTableRecord
  2
228
 70
     0
 62
   228
  6
CONTINUOUS
  0
LAYER
  5
11E
330
2
100
AcDbSymbolTableRecord
100
AcDbLayerTableRecord
  2
229
 70
     0
 62
   229
  6
CONTINUOUS
  0
LAYER
  5
11F
330
2
100
AcDbSymbolTableRecord
100
AcDbLayerTableRecord
  2
230
 70
     0
 62
   230
  6
CONTINUOUS
  0
LAYER
  5
120
330
2
100
AcDbSymbolTableRecord
100
AcDbLayerTableRecord
  2
231
 70
     0
 62
   231
  6
CONTINUOUS
  0
LAYER
  5
121
330
2
100
AcDbSymbolTableRecord
100
AcDbLayerTableRecord
  2
232
 70
     0
 62
   232
  6
CONTINUOUS
  0
LAYER
  5
122
330
2
100
AcDbSymbolTableRecord
100
AcDbLayerTableRecord
  2
233
 70
     0
 62
   233
  6
CONTINUOUS
  0
LAYER
  5
123
330
2
100
AcDbSymbolTableRecord
100
AcDbLayerTableRecord
  2
234
 70
     0
 62
   234
  6
CONTINUOUS
  0
LAYER
  5
124
330
2
100
AcDbSymbolTableRecord
100
AcDbLayerTableRecord
  2
235
 70
     0
 62
   235
  6
CONTINUOUS
  0
LAYER
  5
125
330
2
100
AcDbSymbolTableRecord
100
AcDbLayerTableRecord
  2
236
 70
     0
 62
   236
  6
CONTINUOUS
  0
LAYER
  5
126
330
2
100
AcDbSymbolTableRecord
100
AcDbLayerTableRecord
  2
237
 70
     0
 62
   237
  6
CONTINUOUS
  0
LAYER
  5
127
330
2
100
AcDbSymbolTableRecord
100
AcDbLayerTableRecord
  2
238
 70
     0
 62
   238
  6
CONTINUOUS
  0
LAYER
  5
128
330
2
100
AcDbSymbolTableRecord
100
AcDbLayerTableRecord
  2
239
 70
     0
 62
   239
  6
CONTINUOUS
  0
LAYER
  5
129
330
2
100
AcDbSymbolTableRecord
100
AcDbLayerTableRecord
  2
240
 70
     0
 62
   240
  6
CONTINUOUS
  0
LAYER
  5
12A
330
2
100
AcDbSymbolTableRecord
100
AcDbLayerTableRecord
  2
241
 70
     0
 62
   241
  6
CONTINUOUS
  0
LAYER
  5
12B
330
2
100
AcDbSymbolTableRecord
100
AcDbLayerTableRecord
  2
242
 70
     0
 62
   242
  6
CONTINUOUS
  0
LAYER
  5
12C
330
2
100
AcDbSymbolTableRecord
100
AcDbLayerTableRecord
  2
243
 70
     0
 62
   243
  6
CONTINUOUS
  0
LAYER
  5
12D
330
2
100
AcDbSymbolTableRecord
100
AcDbLayerTableRecord
  2
244
 70
     0
 62
   244
  6
CONTINUOUS
  0
LAYER
  5
12E
330
2
100
AcDbSymbolTableRecord
100
AcDbLayerTableRecord
  2
245
 70
     0
 62
   245
  6
CONTINUOUS
  0
LAYER
  5
12F
330
2
100
AcDbSymbolTableRecord
100
AcDbLayerTableRecord
  2
246
 70
     0
 62
   246
  6
CONTINUOUS
  0
LAYER
  5
130
330
2
100
AcDbSymbolTableRecord
100
AcDbLayerTableRecord
  2
247
 70
     0
 62
   247
  6
CONTINUOUS
  0
LAYER
  5
131
330
2
100
AcDbSymbolTableRecord
100
AcDbLayerTableRecord
  2
248
 70
     0
 62
   248
  6
CONTINUOUS
  0
LAYER
  5
132
330
2
100
AcDbSymbolTableRecord
100
AcDbLayerTableRecord
  2
249
 70
     0
 62
   249
  6
CONTINUOUS
  0
LAYER
  5
133
330
2
100
AcDbSymbolTableRecord
100
AcDbLayerTableRecord
  2
250
 70
     0
 62
   250
  6
CONTINUOUS
  0
LAYER
  5
134
330
2
100
AcDbSymbolTableRecord
100
AcDbLayerTableRecord
  2
251
 70
     0
 62
   251
  6
CONTINUOUS
  0
LAYER
  5
135
330
2
100
AcDbSymbolTableRecord
100
AcDbLayerTableRecord
  2
252
 70
     0
 62
   252
  6
CONTINUOUS
  0
LAYER
  5
136
330
2
100
AcDbSymbolTableRecord
100
AcDbLayerTableRecord
  2
253
 70
     0
 62
   253
  6
CONTINUOUS
  0
LAYER
  5
137
330
2
100
AcDbSymbolTableRecord
100
AcDbLayerTableRecord
  2
254
 70
     0
 62
   254
  6
CONTINUOUS
  0
LAYER
  5
138
330
2
100
AcDbSymbolTableRecord
100
AcDbLayerTableRecord
  2
255
 70
     0
 62
   255
  6
CONTINUOUS
  0
ENDTAB
  0
TABLE
  2
STYLE
  5
3
330
0
100
AcDbSymbolTable
 70
     1
  0
STYLE
  5
11
330
3
100
AcDbSymbolTableRecord
100
AcDbTextStyleTableRecord
  2
STANDARD
 70
     0
 40
0.0
 41
1.0
 50
0.0
 71
     0
 42
0.2
  3
monotxt
  4

  0
ENDTAB
  0
TABLE
  2
VIEW
  5
6
330
0
100
AcDbSymbolTable
 70
     0
  0
ENDTAB
  0
TABLE
  2
UCS
  5
7
330
0
100
AcDbSymbolTable
 70
     0
  0
ENDTAB
  0
TABLE
  2
APPID
  5
9
330
0
100
AcDbSymbolTable
 70
     1
  0
APPID
  5
12
330
9
100
AcDbSymbolTableRecord
100
AcDbRegAppTableRecord
  2
ACAD
 70
     0
  0
ENDTAB
  0
TABLE
  2
DIMSTYLE
  5
A
330
0
100
AcDbSymbolTable
 70
     1
  0
DIMSTYLE
105
2A94
330
A
100
AcDbSymbolTableRecord
100
AcDbDimStyleTableRecord
  2
STANDARD
 70
     0
  3

  4

  5

  6

  7

 40
1.0
 41
0.18
 42
0.0625
 43
0.38
 44
0.18
 45
0.0
 46
0.0
 47
0.0
 48
0.0
140
0.18
141
0.09
142
0.0
143
25.4
144
1.0
145
0.0
146
1.0
147
0.09
 71
     0
 72
     0
 73
     1
 74
     1
 75
     0
 76
     0
 77
     0
 78
     0
170
     0
171
     2
172
     0
173
     0
174
     0
175
     0
176
     0
177
     0
178
     0
270
     2
271
     4
272
     4
273
     2
274
     2
340
11
275
     0
280
     0
281
     0
282
     0
283
     1
284
     0
285
     0
286
     0
287
     3
288
     0
  0
ENDTAB
  0
TABLE
  2
BLOCK_RECORD
  5
1
330
0
100
AcDbSymbolTable
 70
     0
  0
BLOCK_RECORD
  5
1E
102
{ACAD_XDICTIONARY
360
2DD7
102
}
330
1
100
AcDbSymbolTableRecord
100
AcDbBlockTableRecord
  2
*MODEL_SPACE
  0
BLOCK_RECORD
  5
1A
102
{ACAD_XDICTIONARY
360
2DD5
102
}
330
1
100
AcDbSymbolTableRecord
100
AcDbBlockTableRecord
  2
*PAPER_SPACE
  0
ENDTAB
  0
ENDSEC
  0
SECTION
  2
BLOCKS
  0
BLOCK
  5
13B
330
1E
100
AcDbEntity
  8
0
100
AcDbBlockBegin
  2
*MODEL_SPACE
 70
     0
 10
0.0
 20
0.0
 30
0.0
  3
*MODEL_SPACE
  1

  0
ENDBLK
  5
13C
330
1E
100
AcDbEntity
  8
0
100
AcDbBlockEnd
  0
BLOCK
  5
139
330
1A
100
AcDbEntity
 67
     1
  8
0
100
AcDbBlockBegin
  2
*PAPER_SPACE
 70
     0
 10
0.0
 20
0.0
 30
0.0
  3
*PAPER_SPACE
  1

  0
ENDBLK
  5
13A
330
1A
100
AcDbEntity
 67
     1
  8
0
100
AcDbBlockEnd
  0
ENDSEC
  0
SECTION
  2
ENTITIES
  0
LINE
  5
2078
330
1E
100
AcDbEntity
  8
7
100
AcDbLine
 10
5.532515634609253
 20
11.21244129023129
 30
0.0
 11
4.100588123540354
 21
11.21244129023129
 31
0.0
  0
LINE
  5
207E
330
1E
100
AcDbEntity
  8
7
100
AcDbLine
 10
5.660454175117126
 20
9.519715985050199
 30
0.0
 11
4.041539566382874
 21
9.519715985050199
 31
0.0
  0
LINE
  5
2084
330
1E
100
AcDbEntity
  8
7
100
AcDbLine
 10
1.266257379981299
 20
8.09024883052953
 30
0.0
 11
1.266257379981299
 21
8.16159917042815
 31
0.0
  0
LINE
  5
2085
330
1E
100
AcDbEntity
  8
7
100
AcDbLine
 10
1.266257379981299
 20
9.51233491540551
 30
0.0
 11
1.266257379981299
 21
9.551700620177165
 31
0.0
  0
LINE
  5
2086
330
1E
100
AcDbEntity
  8
7
100
AcDbLine
 10
5.815456637655512
 20
9.551700620177165
 30
0.0
 11
5.815456637655512
 21
9.51233491540551
 31
0.0
  0
LINE
  5
2087
330
1E
100
AcDbEntity
  8
7
100
AcDbLine
 10
5.815456637655512
 20
8.16159917042815
 30
0.0
 11
5.815456637655512
 21
8.09024883052953
 31
0.0
  0
LINE
  5
2088
330
1E
100
AcDbEntity
  8
7
100
AcDbLine
 10
1.266257379981299
 20
8.112392039463586
 30
0.0
 11
1.421259842519685
 21
8.112392039463586
 31
0.0
  0
LINE
  5
2089
330
1E
100
AcDbEntity
  8
7
100
AcDbLine
 10
5.660454175117126
 20
8.112392039463586
 30
0.0
 11
5.815456637655512
 21
8.112392039463586
 31
0.0
  0
LINE
  5
208A
330
1E
100
AcDbEntity
  8
7
100
AcDbLine
 10
5.83267913349311
 20
8.050883125757877
 30
0.0
 11
5.660454175117126
 21
8.050883125757877
 31
0.0
  0
LINE
  5
208B
330
1E
100
AcDbEntity
  8
7
100
AcDbLine
 10
1.421259842519685
 20
8.050883125757877
 30
0.0
 11
5.660454175117126
 21
8.050883125757877
 31
0.0
  0
LINE
  5
208C
330
1E
100
AcDbEntity
  8
7
100
AcDbLine
 10
1.421259842519685
 20
8.050883125757877
 30
0.0
 11
1.251495240691929
 21
8.050883125757877
 31
0.0
  0
LINE
  5
2092
330
1E
100
AcDbEntity
  8
7
100
AcDbLine
 10
7.003808850449804
 20
8.141916318042323
 30
0.0
 11
7.003808850449804
 21
8.14929738768701
 31
0.0
  0
LINE
  5
2093
330
1E
100
AcDbEntity
  8
7
100
AcDbLine
 10
7.001348493901576
 20
8.14929738768701
 30
0.0
 11
7.003808850449804
 21
8.14929738768701
 31
0.0
  0
LINE
  5
2094
330
1E
100
AcDbEntity
  8
7
100
AcDbLine
 10
0.0828258802834645
 20
8.14929738768701
 30
0.0
 11
0.0803655237352361
 21
8.14929738768701
 31
0.0
  0
LINE
  5
2095
330
1E
100
AcDbEntity
  8
7
100
AcDbLine
 10
0.0803655237352361
 20
8.141916318042323
 30
0.0
 11
0.0803655237352361
 21
8.14929738768701
 31
0.0
  0
LINE
  5
20A7
330
1E
100
AcDbEntity
  8
7
100
AcDbLine
 10
5.660454175117126
 20
8.141916318042323
 30
0.0
 11
1.421259842519685
 21
8.141916318042323
 31
0.0
  0
LINE
  5
20A8
330
1E
100
AcDbEntity
  8
7
100
AcDbLine
 10
5.660454175117126
 20
8.141916318042323
 30
0.0
 11
5.660454175117126
 21
9.519715985050199
 31
0.0
  0
LINE
  5
20A9
330
1E
100
AcDbEntity
  8
7
100
AcDbLine
 10
1.421259842519685
 20
8.141916318042323
 30
0.0
 11
1.421259842519685
 21
9.519715985050199
 31
0.0
  0
LINE
  5
20AA
330
1E
100
AcDbEntity
  8
7
100
AcDbLine
 10
4.041539566382874
 20
9.472969210633857
 30
0.0
 11
4.041539566382874
 21
9.519715985050199
 31
0.0
  0
LINE
  5
20B0
330
1E
100
AcDbEntity
  8
7
100
AcDbLine
 10
3.101683364959646
 20
9.411460296928149
 30
0.0
 11
3.982491009225394
 21
9.411460296928149
 31
0.0
  0
LINE
  5
20B6
330
1E
100
AcDbEntity
  8
7
100
AcDbLine
 10
3.042634807802166
 20
9.519715985050199
 30
0.0
 11
3.042634807802166
 21
9.472969210633857
 31
0.0
  0
LINE
  5
20B7
330
1E
100
AcDbEntity
  8
7
100
AcDbLine
 10
3.042634807802166
 20
9.519715985050199
 30
0.0
 11
1.421259842519685
 21
9.519715985050199
 31
0.0
  0
LINE
  5
20B8
330
1E
100
AcDbEntity
  8
7
100
AcDbLine
 10
7.003808850449804
 20
9.51233491540551
 30
0.0
 11
7.003808850449804
 21
9.519715985050199
 31
0.0
  0
LINE
  5
20B9
330
1E
100
AcDbEntity
  8
7
100
AcDbLine
 10
7.003808850449804
 20
8.14929738768701
 30
0.0
 11
7.003808850449804
 21
9.51233491540551
 31
0.0
  0
LINE
  5
20C9
330
1E
100
AcDbEntity
  8
7
100
AcDbLine
 10
5.660454175117126
 20
9.549240263628936
 30
0.0
 11
1.421259842519685
 21
9.549240263628936
 31
0.0
  0
LINE
  5
20CA
330
1E
100
AcDbEntity
  8
7
100
AcDbLine
 10
7.033333129028545
 20
9.549240263628936
 30
0.0
 11
7.033333129028545
 21
9.613209533882876
 31
0.0
  0
LINE
  5
20D0
330
1E
100
AcDbEntity
  8
7
100
AcDbLine
 10
7.001348493901576
 20
9.51233491540551
 30
0.0
 11
7.003808850449804
 21
9.51233491540551
 31
0.0
  0
LINE
  5
20DB
330
1E
100
AcDbEntity
  8
7
100
AcDbLine
 10
7.033333129028545
 20
9.613209533882876
 30
0.0
 11
7.41222803745571
 21
9.613209533882876
 31
0.0
  0
LINE
  5
20E1
330
1E
100
AcDbEntity
  8
7
100
AcDbLine
 10
0.0828258802834645
 20
9.51233491540551
 30
0.0
 11
0.0803655237352361
 21
9.51233491540551
 31
0.0
  0
LINE
  5
20E7
330
1E
100
AcDbEntity
  8
7
100
AcDbLine
 10
0.0483808886082677
 20
9.613209533882876
 30
0.0
 11
0.0483808886082677
 21
9.549240263628936
 31
0.0
  0
LINE
  5
20ED
330
1E
100
AcDbEntity
  8
7
100
AcDbLine
 10
0.0483808886082677
 20
9.549240263628936
 30
0.0
 11
-0.3280536632706692
 21
9.549240263628936
 31
0.0
  0
LINE
  5
20FA
330
1E
100
AcDbEntity
  8
7
100
AcDbLine
 10
5.660454175117126
 20
9.642733812461614
 30
0.0
 11
1.421259842519685
 21
9.642733812461614
 31
0.0
  0
LINE
  5
20FB
330
1E
100
AcDbEntity
  8
7
100
AcDbLine
 10
5.660454175117126
 20
9.642733812461614
 30
0.0
 11
5.660454175117126
 21
11.08204239317519
 31
0.0
  0
LINE
  5
20FC
330
1E
100
AcDbEntity
  8
7
100
AcDbLine
 10
1.421259842519685
 20
9.642733812461614
 30
0.0
 11
1.421259842519685
 21
11.08204239317519
 31
0.0
  0
LINE
  5
20FD
330
1E
100
AcDbEntity
  8
7
100
AcDbLine
 10
2.981125894096456
 20
11.21244129023129
 30
0.0
 11
1.551658739575787
 21
11.21244129023129
 31
0.0
  0
LINE
  5
20FE
330
1E
100
AcDbEntity
  8
7
100
AcDbLine
 10
1.551658739575787
 20
11.20998093368307
 30
0.0
 11
1.50245160861122
 21
11.20013950749016
 31
0.0
  0
LINE
  5
2111
330
1E
100
AcDbEntity
  8
7
100
AcDbLine
 10
4.041539566382874
 20
11.12140809794685
 30
0.0
 11
4.041539566382874
 21
11.15339273307381
 31
0.0
  0
LINE
  5
2117
330
1E
100
AcDbEntity
  8
7
100
AcDbLine
 10
3.101683364959646
 20
11.06235954078937
 30
0.0
 11
3.982491009225394
 21
11.06235954078937
 31
0.0
  0
LINE
  5
211D
330
1E
100
AcDbEntity
  8
7
100
AcDbLine
 10
3.042634807802166
 20
11.15339273307381
 30
0.0
 11
3.042634807802166
 21
11.12140809794685
 31
0.0
  0
LINE
  5
2123
330
1E
100
AcDbEntity
  8
7
100
AcDbLine
 10
3.982491009225394
 20
10.87291208657578
 30
0.0
 11
3.101683364959646
 21
10.87291208657578
 31
0.0
  0
LINE
  5
212C
330
1E
100
AcDbEntity
  8
7
100
AcDbLine
 10
3.101683364959646
 20
10.7523546157126
 30
0.0
 11
3.982491009225394
 21
10.7523546157126
 31
0.0
  0
LINE
  5
2135
330
1E
100
AcDbEntity
  8
7
100
AcDbLine
 10
3.982491009225394
 20
10.47187396921456
 30
0.0
 11
3.101683364959646
 21
10.47187396921456
 31
0.0
  0
LINE
  5
213D
330
1E
100
AcDbEntity
  8
7
100
AcDbLine
 10
4.01693600090059
 20
10.45957218647342
 30
0.0
 11
3.982491009225394
 21
10.47187396921456
 31
0.0
  0
LINE
  5
213E
330
1E
100
AcDbEntity
  8
7
100
AcDbLine
 10
3.101683364959646
 20
10.35131649835137
 30
0.0
 11
3.982491009225394
 21
10.35131649835137
 31
0.0
  0
LINE
  5
2147
330
1E
100
AcDbEntity
  8
7
100
AcDbLine
 10
3.982491009225394
 20
10.07329620840157
 30
0.0
 11
3.101683364959646
 21
10.07329620840157
 31
0.0
  0
LINE
  5
2150
330
1E
100
AcDbEntity
  8
7
100
AcDbLine
 10
3.101683364959646
 20
9.952738737538386
 30
0.0
 11
3.982491009225394
 21
9.952738737538386
 31
0.0
  0
LINE
  5
215F
330
1E
100
AcDbEntity
  8
7
100
AcDbLine
 10
7.503261229740158
 20
9.642733812461614
 30
0.0
 11
7.44175231603445
 21
9.642733812461614
 31
0.0
  0
LINE
  5
216A
330
1E
100
AcDbEntity
  8
7
100
AcDbLine
 10
7.44175231603445
 20
9.642733812461614
 30
0.0
 11
7.44175231603445
 21
11.08204239317519
 31
0.0
  0
LINE
  5
2171
330
1E
100
AcDbEntity
  8
7
100
AcDbLine
 10
7.503261229740158
 20
11.13124952413976
 30
0.0
 11
7.503261229740158
 21
11.08204239317519
 31
0.0
  0
LINE
  5
217F
330
1E
100
AcDbEntity
  8
7
100
AcDbLine
 10
-0.3575779418494096
 20
9.642733812461614
 30
0.0
 11
-0.4215472121033466
 21
9.642733812461614
 31
0.0
  0
LINE
  5
219A
330
1E
100
AcDbEntity
  8
7
100
AcDbLine
 10
-0.4215472121033466
 20
11.21244129023129
 30
0.0
 11
-0.3575779418494096
 21
11.21244129023129
 31
0.0
  0
LINE
  5
21B8
330
1E
100
AcDbEntity
  8
7
100
AcDbLine
 10
7.001348493901576
 20
8.14929738768701
 30
0.0
 11
7.001348493901576
 21
8.09024883052953
 31
0.0
  0
LINE
  5
21D4
330
1E
100
AcDbEntity
  8
7
100
AcDbLine
 10
7.001348493901576
 20
9.551700620177165
 30
0.0
 11
7.001348493901576
 21
9.51233491540551
 31
0.0
  0
LINE
  5
21EF
330
1E
100
AcDbEntity
  8
7
100
AcDbLine
 10
5.815456637655512
 20
9.51233491540551
 30
0.0
 11
5.815456637655512
 21
8.16159917042815
 31
0.0
  0
LINE
  5
21F0
330
1E
100
AcDbEntity
  8
7
100
AcDbLine
 10
1.266257379981299
 20
9.551700620177165
 30
0.0
 11
1.263797023433071
 21
9.571383472562992
 31
0.0
  0
LINE
  5
220D
330
1E
100
AcDbEntity
  8
7
100
AcDbLine
 10
0.0828258802834645
 20
9.51233491540551
 30
0.0
 11
0.0828258802834645
 21
9.551700620177165
 31
0.0
  0
LINE
  5
221A
330
1E
100
AcDbEntity
  8
7
100
AcDbLine
 10
0.0828258802834645
 20
9.500033132664372
 30
0.0
 11
0.0828258802834645
 21
9.51233491540551
 31
0.0
  0
LINE
  5
2227
330
1E
100
AcDbEntity
  8
7
100
AcDbLine
 10
0.0828258802834645
 20
8.09024883052953
 30
0.0
 11
0.0828258802834645
 21
8.14929738768701
 31
0.0
  0
LINE
  5
2242
330
1E
100
AcDbEntity
  8
7
100
AcDbLine
 10
1.266257379981299
 20
8.16159917042815
 30
0.0
 11
1.266257379981299
 21
9.51233491540551
 31
0.0
  0
LINE
  5
2253
330
1E
100
AcDbEntity
  8
7
100
AcDbLine
 10
5.731804515015749
 20
9.51233491540551
 30
0.0
 11
5.721963088822835
 21
9.51233491540551
 31
0.0
  0
LINE
  5
225A
330
1E
100
AcDbEntity
  8
7
100
AcDbLine
 10
5.704740592985237
 20
9.51233491540551
 30
0.0
 11
5.660454175117126
 21
9.51233491540551
 31
0.0
  0
LINE
  5
2272
330
1E
100
AcDbEntity
  8
7
100
AcDbLine
 10
1.379433781199803
 20
8.16159917042815
 30
0.0
 11
1.421259842519685
 21
8.16159917042815
 31
0.0
  0
LINE
  5
2273
330
1E
100
AcDbEntity
  8
7
100
AcDbLine
 10
4.041539566382874
 20
1.336570105642716
 30
0.0
 11
4.041539566382874
 21
1.326728679449803
 31
0.0
  0
LINE
  5
2289
330
1E
100
AcDbEntity
  8
7
100
AcDbLine
 10
1.266257379981299
 20
1.400539375896653
 30
0.0
 11
1.266257379981299
 21
1.336570105642716
 31
0.0
  0
LINE
  5
228A
330
1E
100
AcDbEntity
  8
7
100
AcDbLine
 10
1.266257379981299
 20
4.963135657731298
 30
0.0
 11
1.266257379981299
 21
4.899166387477362
 31
0.0
  0
LINE
  5
228B
330
1E
100
AcDbEntity
  8
7
100
AcDbLine
 10
5.815456637655512
 20
4.899166387477362
 30
0.0
 11
5.815456637655512
 21
4.963135657731298
 31
0.0
  0
LINE
  5
228C
330
1E
100
AcDbEntity
  8
7
100
AcDbLine
 10
5.815456637655512
 20
1.336570105642716
 30
0.0
 11
5.815456637655512
 21
1.400539375896653
 31
0.0
  0
LINE
  5
22C2
330
1E
100
AcDbEntity
  8
7
100
AcDbLine
 10
5.837599846589567
 20
2.246902028487203
 30
0.0
 11
5.790853072173229
 21
2.256743454680119
 31
0.0
  0
LINE
  5
22FF
330
1E
100
AcDbEntity
  8
7
100
AcDbLine
 10
1.421259842519685
 20
1.430063654475393
 30
0.0
 11
1.421259842519685
 21
1.52355720330807
 31
0.0
  0
LINE
  5
2300
330
1E
100
AcDbEntity
  8
7
100
AcDbLine
 10
5.660454175117126
 20
1.430063654475393
 30
0.0
 11
1.421259842519685
 21
1.430063654475393
 31
0.0
  0
LINE
  5
2301
330
1E
100
AcDbEntity
  8
7
100
AcDbLine
 10
5.660454175117126
 20
1.52355720330807
 30
0.0
 11
5.660454175117126
 21
1.430063654475393
 31
0.0
  0
LINE
  5
2302
330
1E
100
AcDbEntity
  8
7
100
AcDbLine
 10
5.660454175117126
 20
1.52355720330807
 30
0.0
 11
6.661819290246064
 21
2.524922318437007
 31
0.0
  0
LINE
  5
2303
330
1E
100
AcDbEntity
  8
7
100
AcDbLine
 10
6.910315301617126
 20
2.524922318437007
 30
0.0
 11
6.661819290246064
 21
2.524922318437007
 31
0.0
  0
LINE
  5
2304
330
1E
100
AcDbEntity
  8
7
100
AcDbLine
 10
6.910315301617126
 20
3.77478344493701
 30
0.0
 11
6.910315301617126
 21
2.524922318437007
 31
0.0
  0
LINE
  5
2305
330
1E
100
AcDbEntity
  8
7
100
AcDbLine
 10
6.661819290246064
 20
3.77478344493701
 30
0.0
 11
6.910315301617126
 21
3.77478344493701
 31
0.0
  0
LINE
  5
2306
330
1E
100
AcDbEntity
  8
7
100
AcDbLine
 10
6.661819290246064
 20
3.77478344493701
 30
0.0
 11
5.660454175117126
 21
4.773688203517718
 31
0.0
  0
LINE
  5
2307
330
1E
100
AcDbEntity
  8
7
100
AcDbLine
 10
5.660454175117126
 20
4.869642108898624
 30
0.0
 11
5.660454175117126
 21
4.773688203517718
 31
0.0
  0
LINE
  5
2308
330
1E
100
AcDbEntity
  8
7
100
AcDbLine
 10
1.421259842519685
 20
4.869642108898624
 30
0.0
 11
5.660454175117126
 21
4.869642108898624
 31
0.0
  0
LINE
  5
2309
330
1E
100
AcDbEntity
  8
7
100
AcDbLine
 10
1.421259842519685
 20
4.773688203517718
 30
0.0
 11
1.421259842519685
 21
4.869642108898624
 31
0.0
  0
LINE
  5
230A
330
1E
100
AcDbEntity
  8
7
100
AcDbLine
 10
1.421259842519685
 20
4.773688203517718
 30
0.0
 11
0.4223550839389763
 21
3.77478344493701
 31
0.0
  0
LINE
  5
230B
330
1E
100
AcDbEntity
  8
7
100
AcDbLine
 10
0.171398716019685
 20
3.77478344493701
 30
0.0
 11
0.4223550839389763
 21
3.77478344493701
 31
0.0
  0
LINE
  5
230C
330
1E
100
AcDbEntity
  8
7
100
AcDbLine
 10
0.171398716019685
 20
2.524922318437007
 30
0.0
 11
0.171398716019685
 21
3.77478344493701
 31
0.0
  0
LINE
  5
230D
330
1E
100
AcDbEntity
  8
7
100
AcDbLine
 10
0.4223550839389763
 20
2.524922318437007
 30
0.0
 11
0.171398716019685
 21
2.524922318437007
 31
0.0
  0
LINE
  5
230E
330
1E
100
AcDbEntity
  8
7
100
AcDbLine
 10
0.4223550839389763
 20
2.524922318437007
 30
0.0
 11
1.421259842519685
 21
1.52355720330807
 31
0.0
  0
LINE
  5
2333
330
1E
100
AcDbEntity
  8
7
100
AcDbLine
 10
1.421259842519685
 20
1.336570105642716
 30
0.0
 11
5.660454175117126
 21
1.336570105642716
 31
0.0
  0
LINE
  5
2341
330
1E
100
AcDbEntity
  8
7
100
AcDbLine
 10
7.003808850449804
 20
2.524922318437007
 30
0.0
 11
7.003808850449804
 21
3.77478344493701
 31
0.0
  0
LINE
  5
2342
330
1E
100
AcDbEntity
  8
7
100
AcDbLine
 10
0.0803655237352361
 20
3.77478344493701
 30
0.0
 11
0.0803655237352361
 21
2.524922318437007
 31
0.0
  0
LINE
  5
234B
330
1E
100
AcDbEntity
  8
7
100
AcDbLine
 10
5.660454175117126
 20
1.307045827063976
 30
0.0
 11
5.660454175117126
 21
0.9306112751850399
 31
0.0
  0
LINE
  5
234C
330
1E
100
AcDbEntity
  8
7
100
AcDbLine
 10
1.421259842519685
 20
1.307045827063976
 30
0.0
 11
1.421259842519685
 21
0.9306112751850399
 31
0.0
  0
LINE
  5
234D
330
1E
100
AcDbEntity
  8
7
100
AcDbLine
 10
4.041539566382874
 20
1.260299052647637
 30
0.0
 11
4.041539566382874
 21
1.307045827063976
 31
0.0
  0
LINE
  5
2353
330
1E
100
AcDbEntity
  8
7
100
AcDbLine
 10
3.101683364959646
 20
1.198790138941929
 30
0.0
 11
3.982491009225394
 21
1.198790138941929
 31
0.0
  0
LINE
  5
2354
330
1E
100
AcDbEntity
  8
7
100
AcDbLine
 10
3.042634807802166
 20
1.260299052647637
 30
0.0
 11
3.059857303639764
 21
1.218472991327756
 31
0.0
  0
LINE
  5
2355
330
1E
100
AcDbEntity
  8
7
100
AcDbLine
 10
3.059857303639764
 20
1.218472991327756
 30
0.0
 11
3.101683364959646
 21
1.201250495490157
 31
0.0
  0
LINE
  5
2356
330
1E
100
AcDbEntity
  8
7
100
AcDbLine
 10
3.042634807802166
 20
1.307045827063976
 30
0.0
 11
3.042634807802166
 21
1.260299052647637
 31
0.0
  0
LINE
  5
2357
330
1E
100
AcDbEntity
  8
7
100
AcDbLine
 10
1.421259842519685
 20
0.9306112751850399
 30
0.0
 11
5.660454175117126
 21
0.9306112751850399
 31
0.0
  0
LINE
  5
2367
330
1E
100
AcDbEntity
  8
7
100
AcDbLine
 10
5.660454175117126
 20
4.992659936310039
 30
0.0
 11
5.660454175117126
 21
5.369094488188975
 31
0.0
  0
LINE
  5
2368
330
1E
100
AcDbEntity
  8
7
100
AcDbLine
 10
4.041539566382874
 20
4.992659936310039
 30
0.0
 11
4.041539566382874
 21
5.039406710726376
 31
0.0
  0
LINE
  5
2369
330
1E
100
AcDbEntity
  8
7
100
AcDbLine
 10
5.660454175117126
 20
5.369094488188975
 30
0.0
 11
1.421259842519685
 21
5.369094488188975
 31
0.0
  0
LINE
  5
236A
330
1E
100
AcDbEntity
  8
7
100
AcDbLine
 10
3.042634807802166
 20
5.039406710726376
 30
0.0
 11
3.042634807802166
 21
4.992659936310039
 31
0.0
  0
LINE
  5
2370
330
1E
100
AcDbEntity
  8
7
100
AcDbLine
 10
3.982491009225394
 20
5.098455267883856
 30
0.0
 11
3.101683364959646
 21
5.098455267883856
 31
0.0
  0
LINE
  5
23A4
330
1E
100
AcDbEntity
  8
7
100
AcDbLine
 10
5.660454175117126
 20
5.462588037021654
 30
0.0
 11
1.421259842519685
 21
5.462588037021654
 31
0.0
  0
LINE
  5
23B0
330
1E
100
AcDbEntity
  8
7
100
AcDbLine
 10
5.660454175117126
 20
0.8494195090935034
 30
0.0
 11
5.660454175117126
 21
0.8371177263523623
 31
0.0
  0
LINE
  5
23B1
330
1E
100
AcDbEntity
  8
7
100
AcDbLine
 10
1.421259842519685
 20
0.8371177263523623
 30
0.0
 11
5.660454175117126
 21
0.8371177263523623
 31
0.0
  0
LINE
  5
23BE
330
1E
100
AcDbEntity
  8
7
100
AcDbLine
 10
7.503261229740158
 20
2.524922318437007
 30
0.0
 11
7.503261229740158
 21
3.77478344493701
 31
0.0
  0
LINE
  5
23CB
330
1E
100
AcDbEntity
  8
7
100
AcDbLine
 10
-0.4215472121033466
 20
3.77478344493701
 30
0.0
 11
-0.4215472121033466
 21
2.524922318437007
 31
0.0
  0
LINE
  5
24DA
330
1E
100
AcDbEntity
  8
7
100
AcDbLine
 10
0.0902069499281495
 20
2.374840568995079
 30
0.0
 11
0.1221915850551181
 21
2.212457036812007
 31
0.0
  0
LINE
  5
24ED
330
1E
100
AcDbEntity
  8
7
100
AcDbLine
 10
0.0828258802834645
 20
2.426508056507874
 30
0.0
 11
0.0828258802834645
 21
2.433889126152559
 31
0.0
  0
LINE
  5
2527
330
1E
100
AcDbEntity
  8
7
100
AcDbLine
 10
6.937379223647639
 20
2.433889126152559
 30
0.0
 11
7.001348493901576
 21
2.433889126152559
 31
0.0
  0
LINE
  5
2528
330
1E
100
AcDbEntity
  8
7
100
AcDbLine
 10
7.001348493901576
 20
3.863356280673228
 30
0.0
 11
6.937379223647639
 21
3.863356280673228
 31
0.0
  0
LINE
  5
2529
330
1E
100
AcDbEntity
  8
7
100
AcDbLine
 10
0.1467951505374017
 20
3.863356280673228
 30
0.0
 11
0.0828258802834645
 21
3.863356280673228
 31
0.0
  0
LINE
  5
252A
330
1E
100
AcDbEntity
  8
7
100
AcDbLine
 10
0.0828258802834645
 20
2.433889126152559
 30
0.0
 11
0.1467951505374017
 21
2.433889126152559
 31
0.0
  0
LINE
  5
252B
330
1E
100
AcDbEntity
  8
7
100
AcDbLine
 10
6.993967424256891
 20
2.374840568995079
 30
0.0
 11
6.932458510551181
 21
2.374840568995079
 31
0.0
  0
LINE
  5
252C
330
1E
100
AcDbEntity
  8
7
100
AcDbLine
 10
5.87696555136122
 20
1.400539375896653
 30
0.0
 11
5.87696555136122
 21
1.339030462190944
 31
0.0
  0
LINE
  5
252D
330
1E
100
AcDbEntity
  8
7
100
AcDbLine
 10
5.87696555136122
 20
4.960675301183069
 30
0.0
 11
5.87696555136122
 21
4.896706030929133
 31
0.0
  0
LINE
  5
252E
330
1E
100
AcDbEntity
  8
7
100
AcDbLine
 10
6.932458510551181
 20
3.924865194378936
 30
0.0
 11
6.993967424256891
 21
3.924865194378936
 31
0.0
  0
LINE
  5
252F
330
1E
100
AcDbEntity
  8
7
100
AcDbLine
 10
1.207208822823819
 20
4.896706030929133
 30
0.0
 11
1.207208822823819
 21
4.960675301183069
 31
0.0
  0
LINE
  5
2530
330
1E
100
AcDbEntity
  8
7
100
AcDbLine
 10
0.0877465933799211
 20
3.924865194378936
 30
0.0
 11
0.1517158636338582
 21
3.924865194378936
 31
0.0
  0
LINE
  5
2531
330
1E
100
AcDbEntity
  8
7
100
AcDbLine
 10
0.1517158636338582
 20
2.374840568995079
 30
0.0
 11
0.0877465933799211
 21
2.374840568995079
 31
0.0
  0
LINE
  5
2532
330
1E
100
AcDbEntity
  8
7
100
AcDbLine
 10
1.207208822823819
 20
1.339030462190944
 30
0.0
 11
1.207208822823819
 21
1.400539375896653
 31
0.0
  0
LINE
  5
2538
330
1E
100
AcDbEntity
  8
7
100
AcDbLine
 10
5.788392715625001
 20
1.417761871734252
 30
0.0
 11
5.731804515015749
 21
1.39069794970374
 31
0.0
  0
LINE
  5
2539
330
1E
100
AcDbEntity
  8
7
100
AcDbLine
 10
5.731804515015749
 20
1.39069794970374
 30
0.0
 11
5.766249506690946
 21
1.353792601480314
 31
0.0
  0
LINE
  5
253A
330
1E
100
AcDbEntity
  8
7
100
AcDbLine
 10
5.766249506690946
 20
1.353792601480314
 30
0.0
 11
5.815456637655512
 21
1.339030462190944
 31
0.0
  0
LINE
  5
2540
330
1E
100
AcDbEntity
  8
7
100
AcDbLine
 10
5.704740592985237
 20
1.469429359247047
 30
0.0
 11
5.704740592985237
 21
1.407920445541339
 31
0.0
  0
LINE
  5
2546
330
1E
100
AcDbEntity
  8
7
100
AcDbLine
 10
5.704740592985237
 20
1.469429359247047
 30
0.0
 11
5.660454175117126
 21
1.469429359247047
 31
0.0
  0
LINE
  5
2547
330
1E
100
AcDbEntity
  8
7
100
AcDbLine
 10
5.704740592985237
 20
1.407920445541339
 30
0.0
 11
5.660454175117126
 21
1.407920445541339
 31
0.0
  0
LINE
  5
254D
330
1E
100
AcDbEntity
  8
7
100
AcDbLine
 10
5.731804515015749
 20
4.909007813670277
 30
0.0
 11
5.788392715625001
 21
4.881943891639762
 31
0.0
  0
LINE
  5
2558
330
1E
100
AcDbEntity
  8
7
100
AcDbLine
 10
5.704740592985237
 20
4.891785317832678
 30
0.0
 11
5.704740592985237
 21
4.827816047578738
 31
0.0
  0
LINE
  5
255E
330
1E
100
AcDbEntity
  8
7
100
AcDbLine
 10
5.704740592985237
 20
4.891785317832678
 30
0.0
 11
5.660454175117126
 21
4.891785317832678
 31
0.0
  0
LINE
  5
255F
330
1E
100
AcDbEntity
  8
7
100
AcDbLine
 10
5.704740592985237
 20
4.827816047578738
 30
0.0
 11
5.660454175117126
 21
4.827816047578738
 31
0.0
  0
LINE
  5
2565
330
1E
100
AcDbEntity
  8
7
100
AcDbLine
 10
1.293321302011811
 20
4.881943891639762
 30
0.0
 11
1.352369859169291
 21
4.909007813670277
 31
0.0
  0
LINE
  5
2570
330
1E
100
AcDbEntity
  8
7
100
AcDbLine
 10
1.379433781199803
 20
4.827816047578738
 30
0.0
 11
1.379433781199803
 21
4.891785317832678
 31
0.0
  0
LINE
  5
2576
330
1E
100
AcDbEntity
  8
7
100
AcDbLine
 10
1.379433781199803
 20
4.827816047578738
 30
0.0
 11
1.421259842519685
 21
4.827816047578738
 31
0.0
  0
LINE
  5
2577
330
1E
100
AcDbEntity
  8
7
100
AcDbLine
 10
1.379433781199803
 20
4.891785317832678
 30
0.0
 11
1.421259842519685
 21
4.891785317832678
 31
0.0
  0
LINE
  5
257D
330
1E
100
AcDbEntity
  8
7
100
AcDbLine
 10
1.352369859169291
 20
1.39069794970374
 30
0.0
 11
1.293321302011811
 21
1.417761871734252
 31
0.0
  0
LINE
  5
2588
330
1E
100
AcDbEntity
  8
7
100
AcDbLine
 10
1.379433781199803
 20
1.407920445541339
 30
0.0
 11
1.379433781199803
 21
1.469429359247047
 31
0.0
  0
LINE
  5
258E
330
1E
100
AcDbEntity
  8
7
100
AcDbLine
 10
1.379433781199803
 20
1.407920445541339
 30
0.0
 11
1.421259842519685
 21
1.407920445541339
 31
0.0
  0
LINE
  5
258F
330
1E
100
AcDbEntity
  8
7
100
AcDbLine
 10
1.379433781199803
 20
1.469429359247047
 30
0.0
 11
1.421259842519685
 21
1.469429359247047
 31
0.0
  0
LINE
  5
2A97
330
1E
100
AcDbEntity
  8
7
100
AcDbLine
 10
0.0483808886082677
 20
3.77478344493701
 30
0.0
 11
-0.3280536632706692
 21
3.77478344493701
 31
0.0
  0
LINE
  5
2A98
330
1E
100
AcDbEntity
  8
7
100
AcDbLine
 10
-0.3280536632706692
 20
3.77478344493701
 30
0.0
 11
-0.3280536632706692
 21
2.524922318437007
 31
0.0
  0
LINE
  5
2A99
330
1E
100
AcDbEntity
  8
7
100
AcDbLine
 10
0.0803655237352361
 20
3.77478344493701
 30
0.0
 11
0.0705240975423227
 21
3.77478344493701
 31
0.0
  0
LINE
  5
2A9A
330
1E
100
AcDbEntity
  8
7
100
AcDbLine
 10
0.0705240975423227
 20
3.77478344493701
 30
0.0
 11
0.0483808886082677
 21
3.77478344493701
 31
0.0
  0
LINE
  5
2A9B
330
1E
100
AcDbEntity
  8
7
100
AcDbLine
 10
0.0483808886082677
 20
3.77478344493701
 30
0.0
 11
0.0483808886082677
 21
2.524922318437007
 31
0.0
  0
LINE
  5
2A9C
330
1E
100
AcDbEntity
  8
7
100
AcDbLine
 10
0.0483808886082677
 20
2.524922318437007
 30
0.0
 11
-0.3280536632706692
 21
2.524922318437007
 31
0.0
  0
LINE
  5
2A9D
330
1E
100
AcDbEntity
  8
7
100
AcDbLine
 10
7.033333129028545
 20
2.524922318437007
 30
0.0
 11
7.41222803745571
 21
2.524922318437007
 31
0.0
  0
LINE
  5
2A9E
330
1E
100
AcDbEntity
  8
7
100
AcDbLine
 10
7.41222803745571
 20
2.524922318437007
 30
0.0
 11
7.41222803745571
 21
3.77478344493701
 31
0.0
  0
LINE
  5
2A9F
330
1E
100
AcDbEntity
  8
7
100
AcDbLine
 10
7.003808850449804
 20
2.524922318437007
 30
0.0
 11
7.013650276642717
 21
2.524922318437007
 31
0.0
  0
LINE
  5
2AA0
330
1E
100
AcDbEntity
  8
7
100
AcDbLine
 10
7.013650276642717
 20
2.524922318437007
 30
0.0
 11
7.033333129028545
 21
2.524922318437007
 31
0.0
  0
LINE
  5
2AA1
330
1E
100
AcDbEntity
  8
7
100
AcDbLine
 10
7.033333129028545
 20
2.524922318437007
 30
0.0
 11
7.033333129028545
 21
3.77478344493701
 31
0.0
  0
LINE
  5
2AA2
330
1E
100
AcDbEntity
  8
7
100
AcDbLine
 10
7.033333129028545
 20
3.77478344493701
 30
0.0
 11
7.41222803745571
 21
3.77478344493701
 31
0.0
  0
LINE
  5
2AA3
330
1E
100
AcDbEntity
  8
7
100
AcDbLine
 10
1.207208822823819
 20
3.083423254884841
 30
0.0
 11
1.244114171047244
 21
3.051438619757876
 31
0.0
  0
LINE
  5
2AA4
330
1E
100
AcDbEntity
  8
7
100
AcDbLine
 10
1.244114171047244
 20
3.051438619757876
 30
0.0
 11
1.290860945463582
 21
3.04159719356496
 31
0.0
  0
LINE
  5
2AA5
330
1E
100
AcDbEntity
  8
7
100
AcDbLine
 10
1.290860945463582
 20
3.04159719356496
 30
0.0
 11
1.337607719879921
 21
3.051438619757876
 31
0.0
  0
LINE
  5
2AA6
330
1E
100
AcDbEntity
  8
7
100
AcDbLine
 10
1.337607719879921
 20
3.051438619757876
 30
0.0
 11
1.374513068103346
 21
3.083423254884841
 31
0.0
  0
LINE
  5
2AA7
330
1E
100
AcDbEntity
  8
7
100
AcDbLine
 10
1.374513068103346
 20
3.083423254884841
 30
0.0
 11
1.396656277037401
 21
3.125249316204723
 31
0.0
  0
LINE
  5
2AA8
330
1E
100
AcDbEntity
  8
7
100
AcDbLine
 10
1.396656277037401
 20
3.125249316204723
 30
0.0
 11
1.396656277037401
 21
3.174456447169292
 31
0.0
  0
LINE
  5
2AA9
330
1E
100
AcDbEntity
  8
7
100
AcDbLine
 10
1.396656277037401
 20
3.174456447169292
 30
0.0
 11
1.374513068103346
 21
3.216282508489173
 31
0.0
  0
LINE
  5
2AAA
330
1E
100
AcDbEntity
  8
7
100
AcDbLine
 10
1.374513068103346
 20
3.216282508489173
 30
0.0
 11
1.337607719879921
 21
3.248267143616143
 31
0.0
  0
LINE
  5
2AAB
330
1E
100
AcDbEntity
  8
7
100
AcDbLine
 10
1.337607719879921
 20
3.248267143616143
 30
0.0
 11
1.290860945463582
 21
3.258108569809055
 31
0.0
  0
LINE
  5
2AAC
330
1E
100
AcDbEntity
  8
7
100
AcDbLine
 10
1.290860945463582
 20
3.258108569809055
 30
0.0
 11
1.244114171047244
 21
3.248267143616143
 31
0.0
  0
LINE
  5
2AAD
330
1E
100
AcDbEntity
  8
7
100
AcDbLine
 10
1.244114171047244
 20
3.248267143616143
 30
0.0
 11
1.207208822823819
 21
3.216282508489173
 31
0.0
  0
LINE
  5
2AAE
330
1E
100
AcDbEntity
  8
7
100
AcDbLine
 10
1.207208822823819
 20
3.216282508489173
 30
0.0
 11
1.185065613889764
 21
3.174456447169292
 31
0.0
  0
LINE
  5
2AAF
330
1E
100
AcDbEntity
  8
7
100
AcDbLine
 10
1.185065613889764
 20
3.174456447169292
 30
0.0
 11
1.185065613889764
 21
3.125249316204723
 31
0.0
  0
LINE
  5
2AB0
330
1E
100
AcDbEntity
  8
7
100
AcDbLine
 10
1.185065613889764
 20
3.125249316204723
 30
0.0
 11
1.207208822823819
 21
3.083423254884841
 31
0.0
  0
LINE
  5
2AB1
330
1E
100
AcDbEntity
  8
7
100
AcDbLine
 10
5.837599846589567
 20
3.051438619757876
 30
0.0
 11
5.874505194812993
 21
3.083423254884841
 31
0.0
  0
LINE
  5
2AB2
330
1E
100
AcDbEntity
  8
7
100
AcDbLine
 10
5.874505194812993
 20
3.083423254884841
 30
0.0
 11
5.896648403747048
 21
3.125249316204723
 31
0.0
  0
LINE
  5
2AB3
330
1E
100
AcDbEntity
  8
7
100
AcDbLine
 10
5.896648403747048
 20
3.125249316204723
 30
0.0
 11
5.896648403747048
 21
3.174456447169292
 31
0.0
  0
LINE
  5
2AB4
330
1E
100
AcDbEntity
  8
7
100
AcDbLine
 10
5.896648403747048
 20
3.174456447169292
 30
0.0
 11
5.874505194812993
 21
3.216282508489173
 31
0.0
  0
LINE
  5
2AB5
330
1E
100
AcDbEntity
  8
7
100
AcDbLine
 10
5.874505194812993
 20
3.216282508489173
 30
0.0
 11
5.837599846589567
 21
3.248267143616143
 31
0.0
  0
LINE
  5
2AB6
330
1E
100
AcDbEntity
  8
7
100
AcDbLine
 10
5.837599846589567
 20
3.248267143616143
 30
0.0
 11
5.790853072173229
 21
3.258108569809055
 31
0.0
  0
LINE
  5
2AB7
330
1E
100
AcDbEntity
  8
7
100
AcDbLine
 10
5.790853072173229
 20
3.258108569809055
 30
0.0
 11
5.74410629775689
 21
3.248267143616143
 31
0.0
  0
LINE
  5
2AB8
330
1E
100
AcDbEntity
  8
7
100
AcDbLine
 10
5.74410629775689
 20
3.248267143616143
 30
0.0
 11
5.707200949533464
 21
3.216282508489173
 31
0.0
  0
LINE
  5
2AB9
330
1E
100
AcDbEntity
  8
7
100
AcDbLine
 10
5.707200949533464
 20
3.216282508489173
 30
0.0
 11
5.685057740599409
 21
3.174456447169292
 31
0.0
  0
LINE
  5
2ABA
330
1E
100
AcDbEntity
  8
7
100
AcDbLine
 10
5.685057740599409
 20
3.174456447169292
 30
0.0
 11
5.685057740599409
 21
3.125249316204723
 31
0.0
  0
LINE
  5
2ABB
330
1E
100
AcDbEntity
  8
7
100
AcDbLine
 10
5.685057740599409
 20
3.125249316204723
 30
0.0
 11
5.707200949533464
 21
3.083423254884841
 31
0.0
  0
LINE
  5
2ABC
330
1E
100
AcDbEntity
  8
7
100
AcDbLine
 10
5.707200949533464
 20
3.083423254884841
 30
0.0
 11
5.74410629775689
 21
3.051438619757876
 31
0.0
  0
LINE
  5
2ABD
330
1E
100
AcDbEntity
  8
7
100
AcDbLine
 10
5.74410629775689
 20
3.051438619757876
 30
0.0
 11
5.790853072173229
 21
3.04159719356496
 31
0.0
  0
LINE
  5
2ABE
330
1E
100
AcDbEntity
  8
7
100
AcDbLine
 10
5.790853072173229
 20
3.04159719356496
 30
0.0
 11
5.837599846589567
 21
3.051438619757876
 31
0.0
  0
LINE
  5
2ABF
330
1E
100
AcDbEntity
  8
7
100
AcDbLine
 10
0.3067183261722441
 20
1.939357459958661
 30
0.0
 11
0.3977515184566929
 21
1.811418919450787
 31
0.0
  0
LINE
  5
2AC0
330
1E
100
AcDbEntity
  8
7
100
AcDbLine
 10
0.3977515184566929
 20
1.811418919450787
 30
0.0
 11
0.5035468500305117
 21
1.698242518232283
 31
0.0
  0
LINE
  5
2AC1
330
1E
100
AcDbEntity
  8
7
100
AcDbLine
 10
0.5035468500305117
 20
1.698242518232283
 30
0.0
 11
0.624104320893701
 21
1.602288612851377
 31
0.0
  0
LINE
  5
2AC2
330
1E
100
AcDbEntity
  8
7
100
AcDbLine
 10
0.624104320893701
 20
1.602288612851377
 30
0.0
 11
0.7594239310462597
 21
1.521096846759843
 31
0.0
  0
LINE
  5
2AC3
330
1E
100
AcDbEntity
  8
7
100
AcDbLine
 10
0.7594239310462597
 20
1.521096846759843
 30
0.0
 11
0.9021246108435041
 21
1.462048289602362
 31
0.0
  0
LINE
  5
2AC4
330
1E
100
AcDbEntity
  8
7
100
AcDbLine
 10
0.9021246108435041
 20
1.462048289602362
 30
0.0
 11
1.052206360285433
 21
1.42022222828248
 31
0.0
  0
LINE
  5
2AC5
330
1E
100
AcDbEntity
  8
7
100
AcDbLine
 10
1.052206360285433
 20
1.42022222828248
 30
0.0
 11
1.207208822823819
 21
1.402999732444882
 31
0.0
  0
LINE
  5
2AC6
330
1E
100
AcDbEntity
  8
7
100
AcDbLine
 10
0.1221915850551181
 20
2.212457036812007
 30
0.0
 11
0.1763194291161418
 21
2.057454574273623
 31
0.0
  0
LINE
  5
2AC7
330
1E
100
AcDbEntity
  8
7
100
AcDbLine
 10
0.1763194291161418
 20
2.057454574273623
 30
0.0
 11
0.2525904821112204
 21
1.909833181379921
 31
0.0
  0
LINE
  5
2AC8
330
1E
100
AcDbEntity
  8
7
100
AcDbLine
 10
0.2525904821112204
 20
1.909833181379921
 30
0.0
 11
0.3460840309438977
 21
1.774513571227362
 31
0.0
  0
LINE
  5
2AC9
330
1E
100
AcDbEntity
  8
7
100
AcDbLine
 10
0.3460840309438977
 20
1.774513571227362
 30
0.0
 11
0.4592604321624015
 21
1.653956100364173
 31
0.0
  0
LINE
  5
2ACA
330
1E
100
AcDbEntity
  8
7
100
AcDbLine
 10
0.4592604321624015
 20
1.653956100364173
 30
0.0
 11
0.5896593292185042
 21
1.550621125338583
 31
0.0
  0
LINE
  5
2ACB
330
1E
100
AcDbEntity
  8
7
100
AcDbLine
 10
0.5896593292185042
 20
1.550621125338583
 30
0.0
 11
0.7298996524675197
 21
1.466969002698819
 31
0.0
  0
LINE
  5
2ACC
330
1E
100
AcDbEntity
  8
7
100
AcDbLine
 10
0.7298996524675197
 20
1.466969002698819
 30
0.0
 11
0.8824417584576774
 21
1.402999732444882
 31
0.0
  0
LINE
  5
2ACD
330
1E
100
AcDbEntity
  8
7
100
AcDbLine
 10
0.8824417584576774
 20
1.402999732444882
 30
0.0
 11
1.042364934092519
 21
1.361173671124999
 31
0.0
  0
LINE
  5
2ACE
330
1E
100
AcDbEntity
  8
7
100
AcDbLine
 10
1.042364934092519
 20
1.361173671124999
 30
0.0
 11
1.207208822823819
 21
1.341490818739173
 31
0.0
  0
LINE
  5
2ACF
330
1E
100
AcDbEntity
  8
7
100
AcDbLine
 10
-0.3280536632706692
 20
2.524922318437007
 30
0.0
 11
-0.374800437687008
 21
2.524922318437007
 31
0.0
  0
LINE
  5
2AD0
330
1E
100
AcDbEntity
  8
7
100
AcDbLine
 10
-0.374800437687008
 20
2.524922318437007
 30
0.0
 11
-0.4092454293622048
 21
2.524922318437007
 31
0.0
  0
LINE
  5
2AD1
330
1E
100
AcDbEntity
  8
7
100
AcDbLine
 10
-0.4092454293622048
 20
2.524922318437007
 30
0.0
 11
-0.4215472121033466
 21
2.524922318437007
 31
0.0
  0
LINE
  5
2AD2
330
1E
100
AcDbEntity
  8
7
100
AcDbLine
 10
0.1517158636338582
 20
2.374840568995079
 30
0.0
 11
0.1837004987608268
 21
2.22229846300492
 31
0.0
  0
LINE
  5
2AD3
330
1E
100
AcDbEntity
  8
7
100
AcDbLine
 10
0.1837004987608268
 20
2.22229846300492
 30
0.0
 11
0.235367986273622
 21
2.07713742665945
 31
0.0
  0
LINE
  5
2AD4
330
1E
100
AcDbEntity
  8
7
100
AcDbLine
 10
0.235367986273622
 20
2.07713742665945
 30
0.0
 11
0.3067183261722441
 21
1.939357459958661
 31
0.0
  0
LINE
  5
2AD5
330
1E
100
AcDbEntity
  8
7
100
AcDbLine
 10
0.1418744374409451
 20
2.488016970213584
 30
0.0
 11
0.1418744374409451
 21
2.480635900568896
 31
0.0
  0
LINE
  5
2AD6
330
1E
100
AcDbEntity
  8
7
100
AcDbLine
 10
0.1418744374409451
 20
2.480635900568896
 30
0.0
 11
0.1443347939891733
 21
2.463413404731299
 31
0.0
  0
LINE
  5
2AD7
330
1E
100
AcDbEntity
  8
7
100
AcDbLine
 10
0.1443347939891733
 20
2.463413404731299
 30
0.0
 11
0.1443347939891733
 21
2.451111621990158
 31
0.0
  0
LINE
  5
2AD8
330
1E
100
AcDbEntity
  8
7
100
AcDbLine
 10
0.1443347939891733
 20
2.451111621990158
 30
0.0
 11
0.1443347939891733
 21
2.441270195797243
 31
0.0
  0
LINE
  5
2AD9
330
1E
100
AcDbEntity
  8
7
100
AcDbLine
 10
0.1443347939891733
 20
2.441270195797243
 30
0.0
 11
0.1467951505374017
 21
2.436349482700787
 31
0.0
  0
LINE
  5
2ADA
330
1E
100
AcDbEntity
  8
7
100
AcDbLine
 10
0.1467951505374017
 20
2.436349482700787
 30
0.0
 11
0.1467951505374017
 21
2.433889126152559
 31
0.0
  0
LINE
  5
2ADB
330
1E
100
AcDbEntity
  8
7
100
AcDbLine
 10
0.1467951505374017
 20
2.433889126152559
 30
0.0
 11
0.1467951505374017
 21
2.431428769604331
 31
0.0
  0
LINE
  5
2ADC
330
1E
100
AcDbEntity
  8
7
100
AcDbLine
 10
0.1467951505374017
 20
2.431428769604331
 30
0.0
 11
0.1467951505374017
 21
2.421587343411416
 31
0.0
  0
LINE
  5
2ADD
330
1E
100
AcDbEntity
  8
7
100
AcDbLine
 10
0.1467951505374017
 20
2.421587343411416
 30
0.0
 11
0.1492555070856301
 21
2.406825204122047
 31
0.0
  0
LINE
  5
2ADE
330
1E
100
AcDbEntity
  8
7
100
AcDbLine
 10
0.1492555070856301
 20
2.406825204122047
 30
0.0
 11
0.1517158636338582
 21
2.38714235173622
 31
0.0
  0
LINE
  5
2ADF
330
1E
100
AcDbEntity
  8
7
100
AcDbLine
 10
0.1517158636338582
 20
2.38714235173622
 30
0.0
 11
0.1517158636338582
 21
2.374840568995079
 31
0.0
  0
LINE
  5
2AE0
330
1E
100
AcDbEntity
  8
7
100
AcDbLine
 10
0.1418744374409451
 20
2.524922318437007
 30
0.0
 11
0.1418744374409451
 21
2.52246196188878
 31
0.0
  0
LINE
  5
2AE1
330
1E
100
AcDbEntity
  8
7
100
AcDbLine
 10
0.1418744374409451
 20
2.52246196188878
 30
0.0
 11
0.1418744374409451
 21
2.515080892244094
 31
0.0
  0
LINE
  5
2AE2
330
1E
100
AcDbEntity
  8
7
100
AcDbLine
 10
0.1418744374409451
 20
2.515080892244094
 30
0.0
 11
0.1418744374409451
 21
2.502779109502953
 31
0.0
  0
LINE
  5
2AE3
330
1E
100
AcDbEntity
  8
7
100
AcDbLine
 10
0.1418744374409451
 20
2.502779109502953
 30
0.0
 11
0.1418744374409451
 21
2.488016970213584
 31
0.0
  0
LINE
  5
2AE4
330
1E
100
AcDbEntity
  8
7
100
AcDbLine
 10
0.0803655237352361
 20
2.524922318437007
 30
0.0
 11
0.0803655237352361
 21
2.52246196188878
 31
0.0
  0
LINE
  5
2AE5
330
1E
100
AcDbEntity
  8
7
100
AcDbLine
 10
0.0803655237352361
 20
2.52246196188878
 30
0.0
 11
0.0803655237352361
 21
2.515080892244094
 31
0.0
  0
LINE
  5
2AE6
330
1E
100
AcDbEntity
  8
7
100
AcDbLine
 10
0.0803655237352361
 20
2.515080892244094
 30
0.0
 11
0.0803655237352361
 21
2.502779109502953
 31
0.0
  0
LINE
  5
2AE7
330
1E
100
AcDbEntity
  8
7
100
AcDbLine
 10
0.0803655237352361
 20
2.502779109502953
 30
0.0
 11
0.0803655237352361
 21
2.488016970213584
 31
0.0
  0
LINE
  5
2AE8
330
1E
100
AcDbEntity
  8
7
100
AcDbLine
 10
0.0803655237352361
 20
2.488016970213584
 30
0.0
 11
0.0803655237352361
 21
2.480635900568896
 31
0.0
  0
LINE
  5
2AE9
330
1E
100
AcDbEntity
  8
7
100
AcDbLine
 10
0.0803655237352361
 20
2.480635900568896
 30
0.0
 11
0.0803655237352361
 21
2.463413404731299
 31
0.0
  0
LINE
  5
2AEA
330
1E
100
AcDbEntity
  8
7
100
AcDbLine
 10
0.0803655237352361
 20
2.463413404731299
 30
0.0
 11
0.0803655237352361
 21
2.451111621990158
 31
0.0
  0
LINE
  5
2AEB
330
1E
100
AcDbEntity
  8
7
100
AcDbLine
 10
0.0803655237352361
 20
2.451111621990158
 30
0.0
 11
0.0828258802834645
 21
2.441270195797243
 31
0.0
  0
LINE
  5
2AEC
330
1E
100
AcDbEntity
  8
7
100
AcDbLine
 10
0.0828258802834645
 20
2.441270195797243
 30
0.0
 11
0.0828258802834645
 21
2.436349482700787
 31
0.0
  0
LINE
  5
2AED
330
1E
100
AcDbEntity
  8
7
100
AcDbLine
 10
0.0828258802834645
 20
2.436349482700787
 30
0.0
 11
0.0828258802834645
 21
2.433889126152559
 31
0.0
  0
LINE
  5
2AEE
330
1E
100
AcDbEntity
  8
7
100
AcDbLine
 10
0.0877465933799211
 20
2.374840568995079
 30
0.0
 11
0.0852862368316929
 21
2.394523421380906
 31
0.0
  0
LINE
  5
2AEF
330
1E
100
AcDbEntity
  8
7
100
AcDbLine
 10
0.0852862368316929
 20
2.394523421380906
 30
0.0
 11
0.0852862368316929
 21
2.411745917218504
 31
0.0
  0
LINE
  5
2AF0
330
1E
100
AcDbEntity
  8
7
100
AcDbLine
 10
0.0852862368316929
 20
2.411745917218504
 30
0.0
 11
0.0828258802834645
 21
2.426508056507874
 31
0.0
  0
LINE
  5
2AF1
330
1E
100
AcDbEntity
  8
7
100
AcDbLine
 10
0.0803655237352361
 20
2.524922318437007
 30
0.0
 11
0.0705240975423227
 21
2.524922318437007
 31
0.0
  0
LINE
  5
2AF2
330
1E
100
AcDbEntity
  8
7
100
AcDbLine
 10
0.0705240975423227
 20
2.524922318437007
 30
0.0
 11
0.0483808886082677
 21
2.524922318437007
 31
0.0
  0
LINE
  5
2AF3
330
1E
100
AcDbEntity
  8
7
100
AcDbLine
 10
0.171398716019685
 20
2.524922318437007
 30
0.0
 11
0.1246519416033462
 21
2.524922318437007
 31
0.0
  0
LINE
  5
2AF4
330
1E
100
AcDbEntity
  8
7
100
AcDbLine
 10
0.1246519416033462
 20
2.524922318437007
 30
0.0
 11
0.0926673064763779
 21
2.524922318437007
 31
0.0
  0
LINE
  5
2AF5
330
1E
100
AcDbEntity
  8
7
100
AcDbLine
 10
0.0926673064763779
 20
2.524922318437007
 30
0.0
 11
0.0803655237352361
 21
2.524922318437007
 31
0.0
  0
LINE
  5
2AF6
330
1E
100
AcDbEntity
  8
7
100
AcDbLine
 10
1.379433781199803
 20
1.469429359247047
 30
0.0
 11
1.330226650235236
 21
1.454667219957677
 31
0.0
  0
LINE
  5
2AF7
330
1E
100
AcDbEntity
  8
7
100
AcDbLine
 10
1.330226650235236
 20
1.454667219957677
 30
0.0
 11
1.295781658560039
 21
1.417761871734252
 31
0.0
  0
LINE
  5
2AF8
330
1E
100
AcDbEntity
  8
7
100
AcDbLine
 10
1.421259842519685
 20
1.336570105642716
 30
0.0
 11
1.421259842519685
 21
1.326728679449803
 31
0.0
  0
LINE
  5
2AF9
330
1E
100
AcDbEntity
  8
7
100
AcDbLine
 10
1.421259842519685
 20
1.326728679449803
 30
0.0
 11
1.421259842519685
 21
1.307045827063976
 31
0.0
  0
LINE
  5
2AFA
330
1E
100
AcDbEntity
  8
7
100
AcDbLine
 10
1.421259842519685
 20
1.307045827063976
 30
0.0
 11
3.042634807802166
 21
1.307045827063976
 31
0.0
  0
LINE
  5
2AFB
330
1E
100
AcDbEntity
  8
7
100
AcDbLine
 10
3.042634807802166
 20
1.307045827063976
 30
0.0
 11
3.042634807802166
 21
1.326728679449803
 31
0.0
  0
LINE
  5
2AFC
330
1E
100
AcDbEntity
  8
7
100
AcDbLine
 10
3.042634807802166
 20
1.326728679449803
 30
0.0
 11
3.042634807802166
 21
1.336570105642716
 31
0.0
  0
LINE
  5
2AFD
330
1E
100
AcDbEntity
  8
7
100
AcDbLine
 10
1.421259842519685
 20
0.9306112751850399
 30
0.0
 11
1.421259842519685
 21
0.8838645007687002
 31
0.0
  0
LINE
  5
2AFE
330
1E
100
AcDbEntity
  8
7
100
AcDbLine
 10
1.421259842519685
 20
0.8838645007687002
 30
0.0
 11
1.421259842519685
 21
0.8494195090935034
 31
0.0
  0
LINE
  5
2AFF
330
1E
100
AcDbEntity
  8
7
100
AcDbLine
 10
1.421259842519685
 20
0.8494195090935034
 30
0.0
 11
1.421259842519685
 21
0.8371177263523623
 31
0.0
  0
LINE
  5
2B00
330
1E
100
AcDbEntity
  8
7
100
AcDbLine
 10
1.379433781199803
 20
1.407920445541339
 30
0.0
 11
1.364671641910432
 21
1.402999732444882
 31
0.0
  0
LINE
  5
2B01
330
1E
100
AcDbEntity
  8
7
100
AcDbLine
 10
1.364671641910432
 20
1.402999732444882
 30
0.0
 11
1.352369859169291
 21
1.39069794970374
 31
0.0
  0
LINE
  5
2B02
330
1E
100
AcDbEntity
  8
7
100
AcDbLine
 10
1.266257379981299
 20
1.400539375896653
 30
0.0
 11
1.281019519270669
 21
1.40546008899311
 31
0.0
  0
LINE
  5
2B03
330
1E
100
AcDbEntity
  8
7
100
AcDbLine
 10
1.281019519270669
 20
1.40546008899311
 30
0.0
 11
1.293321302011811
 21
1.417761871734252
 31
0.0
  0
LINE
  5
2B04
330
1E
100
AcDbEntity
  8
7
100
AcDbLine
 10
1.266257379981299
 20
1.339030462190944
 30
0.0
 11
1.315464510945866
 21
1.353792601480314
 31
0.0
  0
LINE
  5
2B05
330
1E
100
AcDbEntity
  8
7
100
AcDbLine
 10
1.315464510945866
 20
1.353792601480314
 30
0.0
 11
1.349909502621063
 21
1.39069794970374
 31
0.0
  0
LINE
  5
2B06
330
1E
100
AcDbEntity
  8
7
100
AcDbLine
 10
1.207208822823819
 20
1.400539375896653
 30
0.0
 11
1.226891675209645
 21
1.400539375896653
 31
0.0
  0
LINE
  5
2B07
330
1E
100
AcDbEntity
  8
7
100
AcDbLine
 10
1.226891675209645
 20
1.400539375896653
 30
0.0
 11
1.244114171047244
 21
1.400539375896653
 31
0.0
  0
LINE
  5
2B08
330
1E
100
AcDbEntity
  8
7
100
AcDbLine
 10
1.244114171047244
 20
1.400539375896653
 30
0.0
 11
1.258876310336614
 21
1.400539375896653
 31
0.0
  0
LINE
  5
2B09
330
1E
100
AcDbEntity
  8
7
100
AcDbLine
 10
1.258876310336614
 20
1.400539375896653
 30
0.0
 11
1.266257379981299
 21
1.400539375896653
 31
0.0
  0
LINE
  5
2B0A
330
1E
100
AcDbEntity
  8
7
100
AcDbLine
 10
1.266257379981299
 20
1.336570105642716
 30
0.0
 11
1.263797023433071
 21
1.336570105642716
 31
0.0
  0
LINE
  5
2B0B
330
1E
100
AcDbEntity
  8
7
100
AcDbLine
 10
1.263797023433071
 20
1.336570105642716
 30
0.0
 11
1.253955597240157
 21
1.336570105642716
 31
0.0
  0
LINE
  5
2B0C
330
1E
100
AcDbEntity
  8
7
100
AcDbLine
 10
1.253955597240157
 20
1.336570105642716
 30
0.0
 11
1.239193457950787
 21
1.336570105642716
 31
0.0
  0
LINE
  5
2B0D
330
1E
100
AcDbEntity
  8
7
100
AcDbLine
 10
1.239193457950787
 20
1.336570105642716
 30
0.0
 11
1.21951060556496
 21
1.336570105642716
 31
0.0
  0
LINE
  5
2B0E
330
1E
100
AcDbEntity
  8
7
100
AcDbLine
 10
1.21951060556496
 20
1.336570105642716
 30
0.0
 11
1.207208822823819
 21
1.339030462190944
 31
0.0
  0
LINE
  5
2B0F
330
1E
100
AcDbEntity
  8
7
100
AcDbLine
 10
1.421259842519685
 20
1.430063654475393
 30
0.0
 11
1.421259842519685
 21
1.383316880059055
 31
0.0
  0
LINE
  5
2B10
330
1E
100
AcDbEntity
  8
7
100
AcDbLine
 10
1.421259842519685
 20
1.383316880059055
 30
0.0
 11
1.421259842519685
 21
1.348871888383857
 31
0.0
  0
LINE
  5
2B11
330
1E
100
AcDbEntity
  8
7
100
AcDbLine
 10
1.421259842519685
 20
1.348871888383857
 30
0.0
 11
1.421259842519685
 21
1.336570105642716
 31
0.0
  0
LINE
  5
2B12
330
1E
100
AcDbEntity
  8
7
100
AcDbLine
 10
1.290860945463582
 20
2.256743454680119
 30
0.0
 11
1.244114171047244
 21
2.246902028487203
 31
0.0
  0
LINE
  5
2B13
330
1E
100
AcDbEntity
  8
7
100
AcDbLine
 10
1.244114171047244
 20
2.246902028487203
 30
0.0
 11
1.207208822823819
 21
2.214917393360237
 31
0.0
  0
LINE
  5
2B14
330
1E
100
AcDbEntity
  8
7
100
AcDbLine
 10
1.207208822823819
 20
2.214917393360237
 30
0.0
 11
1.185065613889764
 21
2.173091332040354
 31
0.0
  0
LINE
  5
2B15
330
1E
100
AcDbEntity
  8
7
100
AcDbLine
 10
1.185065613889764
 20
2.173091332040354
 30
0.0
 11
1.185065613889764
 21
2.123884201075787
 31
0.0
  0
LINE
  5
2B16
330
1E
100
AcDbEntity
  8
7
100
AcDbLine
 10
1.185065613889764
 20
2.123884201075787
 30
0.0
 11
1.207208822823819
 21
2.082058139755905
 31
0.0
  0
LINE
  5
2B17
330
1E
100
AcDbEntity
  8
7
100
AcDbLine
 10
1.207208822823819
 20
2.082058139755905
 30
0.0
 11
1.244114171047244
 21
2.050073504628935
 31
0.0
  0
LINE
  5
2B18
330
1E
100
AcDbEntity
  8
7
100
AcDbLine
 10
1.244114171047244
 20
2.050073504628935
 30
0.0
 11
1.290860945463582
 21
2.040232078436024
 31
0.0
  0
LINE
  5
2B19
330
1E
100
AcDbEntity
  8
7
100
AcDbLine
 10
1.290860945463582
 20
2.040232078436024
 30
0.0
 11
1.337607719879921
 21
2.050073504628935
 31
0.0
  0
LINE
  5
2B1A
330
1E
100
AcDbEntity
  8
7
100
AcDbLine
 10
1.337607719879921
 20
2.050073504628935
 30
0.0
 11
1.374513068103346
 21
2.082058139755905
 31
0.0
  0
LINE
  5
2B1B
330
1E
100
AcDbEntity
  8
7
100
AcDbLine
 10
1.374513068103346
 20
2.082058139755905
 30
0.0
 11
1.396656277037401
 21
2.123884201075787
 31
0.0
  0
LINE
  5
2B1C
330
1E
100
AcDbEntity
  8
7
100
AcDbLine
 10
1.396656277037401
 20
2.123884201075787
 30
0.0
 11
1.396656277037401
 21
2.173091332040354
 31
0.0
  0
LINE
  5
2B1D
330
1E
100
AcDbEntity
  8
7
100
AcDbLine
 10
1.396656277037401
 20
2.173091332040354
 30
0.0
 11
1.374513068103346
 21
2.214917393360237
 31
0.0
  0
LINE
  5
2B1E
330
1E
100
AcDbEntity
  8
7
100
AcDbLine
 10
1.374513068103346
 20
2.214917393360237
 30
0.0
 11
1.337607719879921
 21
2.246902028487203
 31
0.0
  0
LINE
  5
2B1F
330
1E
100
AcDbEntity
  8
7
100
AcDbLine
 10
1.337607719879921
 20
2.246902028487203
 30
0.0
 11
1.290860945463582
 21
2.256743454680119
 31
0.0
  0
LINE
  5
2B20
330
1E
100
AcDbEntity
  8
7
100
AcDbLine
 10
5.815456637655512
 20
1.400539375896653
 30
0.0
 11
5.820377350751969
 21
1.400539375896653
 31
0.0
  0
LINE
  5
2B21
330
1E
100
AcDbEntity
  8
7
100
AcDbLine
 10
5.820377350751969
 20
1.400539375896653
 30
0.0
 11
5.830218776944882
 21
1.400539375896653
 31
0.0
  0
LINE
  5
2B22
330
1E
100
AcDbEntity
  8
7
100
AcDbLine
 10
5.830218776944882
 20
1.400539375896653
 30
0.0
 11
5.844980916234253
 21
1.400539375896653
 31
0.0
  0
LINE
  5
2B23
330
1E
100
AcDbEntity
  8
7
100
AcDbLine
 10
5.844980916234253
 20
1.400539375896653
 30
0.0
 11
5.862203412071851
 21
1.400539375896653
 31
0.0
  0
LINE
  5
2B24
330
1E
100
AcDbEntity
  8
7
100
AcDbLine
 10
5.862203412071851
 20
1.400539375896653
 30
0.0
 11
5.87696555136122
 21
1.400539375896653
 31
0.0
  0
LINE
  5
2B25
330
1E
100
AcDbEntity
  8
7
100
AcDbLine
 10
5.87696555136122
 20
1.339030462190944
 30
0.0
 11
5.857282698975394
 21
1.336570105642716
 31
0.0
  0
LINE
  5
2B26
330
1E
100
AcDbEntity
  8
7
100
AcDbLine
 10
5.857282698975394
 20
1.336570105642716
 30
0.0
 11
5.840060203137796
 21
1.336570105642716
 31
0.0
  0
LINE
  5
2B27
330
1E
100
AcDbEntity
  8
7
100
AcDbLine
 10
5.840060203137796
 20
1.336570105642716
 30
0.0
 11
5.825298063848426
 21
1.336570105642716
 31
0.0
  0
LINE
  5
2B28
330
1E
100
AcDbEntity
  8
7
100
AcDbLine
 10
5.825298063848426
 20
1.336570105642716
 30
0.0
 11
5.81791699420374
 21
1.336570105642716
 31
0.0
  0
LINE
  5
2B29
330
1E
100
AcDbEntity
  8
7
100
AcDbLine
 10
5.81791699420374
 20
1.336570105642716
 30
0.0
 11
5.815456637655512
 21
1.336570105642716
 31
0.0
  0
LINE
  5
2B2A
330
1E
100
AcDbEntity
  8
7
100
AcDbLine
 10
5.790853072173229
 20
2.256743454680119
 30
0.0
 11
5.74410629775689
 21
2.246902028487203
 31
0.0
  0
LINE
  5
2B2B
330
1E
100
AcDbEntity
  8
7
100
AcDbLine
 10
5.74410629775689
 20
2.246902028487203
 30
0.0
 11
5.707200949533464
 21
2.214917393360237
 31
0.0
  0
LINE
  5
2B2C
330
1E
100
AcDbEntity
  8
7
100
AcDbLine
 10
5.707200949533464
 20
2.214917393360237
 30
0.0
 11
5.685057740599409
 21
2.173091332040354
 31
0.0
  0
LINE
  5
2B2D
330
1E
100
AcDbEntity
  8
7
100
AcDbLine
 10
5.685057740599409
 20
2.173091332040354
 30
0.0
 11
5.685057740599409
 21
2.123884201075787
 31
0.0
  0
LINE
  5
2B2E
330
1E
100
AcDbEntity
  8
7
100
AcDbLine
 10
5.685057740599409
 20
2.123884201075787
 30
0.0
 11
5.707200949533464
 21
2.082058139755905
 31
0.0
  0
LINE
  5
2B2F
330
1E
100
AcDbEntity
  8
7
100
AcDbLine
 10
5.707200949533464
 20
2.082058139755905
 30
0.0
 11
5.74410629775689
 21
2.050073504628935
 31
0.0
  0
LINE
  5
2B30
330
1E
100
AcDbEntity
  8
7
100
AcDbLine
 10
5.74410629775689
 20
2.050073504628935
 30
0.0
 11
5.790853072173229
 21
2.040232078436024
 31
0.0
  0
LINE
  5
2B31
330
1E
100
AcDbEntity
  8
7
100
AcDbLine
 10
5.790853072173229
 20
2.040232078436024
 30
0.0
 11
5.837599846589567
 21
2.050073504628935
 31
0.0
  0
LINE
  5
2B32
330
1E
100
AcDbEntity
  8
7
100
AcDbLine
 10
5.837599846589567
 20
2.050073504628935
 30
0.0
 11
5.874505194812993
 21
2.082058139755905
 31
0.0
  0
LINE
  5
2B33
330
1E
100
AcDbEntity
  8
7
100
AcDbLine
 10
5.874505194812993
 20
2.082058139755905
 30
0.0
 11
5.896648403747048
 21
2.123884201075787
 31
0.0
  0
LINE
  5
2B34
330
1E
100
AcDbEntity
  8
7
100
AcDbLine
 10
5.896648403747048
 20
2.123884201075787
 30
0.0
 11
5.896648403747048
 21
2.173091332040354
 31
0.0
  0
LINE
  5
2B35
330
1E
100
AcDbEntity
  8
7
100
AcDbLine
 10
5.896648403747048
 20
2.173091332040354
 30
0.0
 11
5.874505194812993
 21
2.214917393360237
 31
0.0
  0
LINE
  5
2B36
330
1E
100
AcDbEntity
  8
7
100
AcDbLine
 10
5.874505194812993
 20
2.214917393360237
 30
0.0
 11
5.837599846589567
 21
2.246902028487203
 31
0.0
  0
LINE
  5
2B37
330
1E
100
AcDbEntity
  8
7
100
AcDbLine
 10
5.788392715625001
 20
1.417761871734252
 30
0.0
 11
5.753947723949804
 21
1.454667219957677
 31
0.0
  0
LINE
  5
2B38
330
1E
100
AcDbEntity
  8
7
100
AcDbLine
 10
5.753947723949804
 20
1.454667219957677
 30
0.0
 11
5.704740592985237
 21
1.469429359247047
 31
0.0
  0
LINE
  5
2B39
330
1E
100
AcDbEntity
  8
7
100
AcDbLine
 10
4.041539566382874
 20
1.326728679449803
 30
0.0
 11
4.041539566382874
 21
1.307045827063976
 31
0.0
  0
LINE
  5
2B3A
330
1E
100
AcDbEntity
  8
7
100
AcDbLine
 10
4.041539566382874
 20
1.307045827063976
 30
0.0
 11
5.660454175117126
 21
1.307045827063976
 31
0.0
  0
LINE
  5
2B3B
330
1E
100
AcDbEntity
  8
7
100
AcDbLine
 10
3.982491009225394
 20
1.201250495490157
 30
0.0
 11
4.024317070545276
 21
1.218472991327756
 31
0.0
  0
LINE
  5
2B3C
330
1E
100
AcDbEntity
  8
7
100
AcDbLine
 10
4.024317070545276
 20
1.218472991327756
 30
0.0
 11
4.041539566382874
 21
1.260299052647637
 31
0.0
  0
LINE
  5
2B3D
330
1E
100
AcDbEntity
  8
7
100
AcDbLine
 10
5.660454175117126
 20
0.9306112751850399
 30
0.0
 11
5.660454175117126
 21
0.8838645007687002
 31
0.0
  0
LINE
  5
2B3E
330
1E
100
AcDbEntity
  8
7
100
AcDbLine
 10
5.660454175117126
 20
0.8838645007687002
 30
0.0
 11
5.660454175117126
 21
0.8494195090935034
 31
0.0
  0
LINE
  5
2B3F
330
1E
100
AcDbEntity
  8
7
100
AcDbLine
 10
5.731804515015749
 20
1.39069794970374
 30
0.0
 11
5.719502732274607
 21
1.402999732444882
 31
0.0
  0
LINE
  5
2B40
330
1E
100
AcDbEntity
  8
7
100
AcDbLine
 10
5.719502732274607
 20
1.402999732444882
 30
0.0
 11
5.704740592985237
 21
1.407920445541339
 31
0.0
  0
LINE
  5
2B41
330
1E
100
AcDbEntity
  8
7
100
AcDbLine
 10
5.788392715625001
 20
1.417761871734252
 30
0.0
 11
5.800694498366143
 21
1.40546008899311
 31
0.0
  0
LINE
  5
2B42
330
1E
100
AcDbEntity
  8
7
100
AcDbLine
 10
5.800694498366143
 20
1.40546008899311
 30
0.0
 11
5.815456637655512
 21
1.400539375896653
 31
0.0
  0
LINE
  5
2B43
330
1E
100
AcDbEntity
  8
7
100
AcDbLine
 10
5.660454175117126
 20
1.430063654475393
 30
0.0
 11
5.660454175117126
 21
1.383316880059055
 31
0.0
  0
LINE
  5
2B44
330
1E
100
AcDbEntity
  8
7
100
AcDbLine
 10
5.660454175117126
 20
1.383316880059055
 30
0.0
 11
5.660454175117126
 21
1.348871888383857
 31
0.0
  0
LINE
  5
2B45
330
1E
100
AcDbEntity
  8
7
100
AcDbLine
 10
5.660454175117126
 20
1.348871888383857
 30
0.0
 11
5.660454175117126
 21
1.336570105642716
 31
0.0
  0
LINE
  5
2B46
330
1E
100
AcDbEntity
  8
7
100
AcDbLine
 10
5.660454175117126
 20
1.336570105642716
 30
0.0
 11
5.660454175117126
 21
1.326728679449803
 31
0.0
  0
LINE
  5
2B47
330
1E
100
AcDbEntity
  8
7
100
AcDbLine
 10
5.660454175117126
 20
1.326728679449803
 30
0.0
 11
5.660454175117126
 21
1.307045827063976
 31
0.0
  0
LINE
  5
2B48
330
1E
100
AcDbEntity
  8
7
100
AcDbLine
 10
5.874505194812993
 20
1.402999732444882
 30
0.0
 11
6.029507657351378
 21
1.42022222828248
 31
0.0
  0
LINE
  5
2B49
330
1E
100
AcDbEntity
  8
7
100
AcDbLine
 10
6.029507657351378
 20
1.42022222828248
 30
0.0
 11
6.179589406793307
 21
1.462048289602362
 31
0.0
  0
LINE
  5
2B4A
330
1E
100
AcDbEntity
  8
7
100
AcDbLine
 10
6.179589406793307
 20
1.462048289602362
 30
0.0
 11
6.322290086590551
 21
1.521096846759843
 31
0.0
  0
LINE
  5
2B4B
330
1E
100
AcDbEntity
  8
7
100
AcDbLine
 10
6.322290086590551
 20
1.521096846759843
 30
0.0
 11
6.457609696743111
 21
1.602288612851377
 31
0.0
  0
LINE
  5
2B4C
330
1E
100
AcDbEntity
  8
7
100
AcDbLine
 10
6.457609696743111
 20
1.602288612851377
 30
0.0
 11
6.5781671676063
 21
1.698242518232283
 31
0.0
  0
LINE
  5
2B4D
330
1E
100
AcDbEntity
  8
7
100
AcDbLine
 10
6.5781671676063
 20
1.698242518232283
 30
0.0
 11
6.683962499180118
 21
1.811418919450787
 31
0.0
  0
LINE
  5
2B4E
330
1E
100
AcDbEntity
  8
7
100
AcDbLine
 10
6.683962499180118
 20
1.811418919450787
 30
0.0
 11
6.774995691464567
 21
1.939357459958661
 31
0.0
  0
LINE
  5
2B4F
330
1E
100
AcDbEntity
  8
7
100
AcDbLine
 10
6.774995691464567
 20
1.939357459958661
 30
0.0
 11
6.84634603136319
 21
2.07713742665945
 31
0.0
  0
LINE
  5
2B50
330
1E
100
AcDbEntity
  8
7
100
AcDbLine
 10
6.84634603136319
 20
2.07713742665945
 30
0.0
 11
6.898013518875985
 21
2.22229846300492
 31
0.0
  0
LINE
  5
2B51
330
1E
100
AcDbEntity
  8
7
100
AcDbLine
 10
6.898013518875985
 20
2.22229846300492
 30
0.0
 11
6.929998154002952
 21
2.374840568995079
 31
0.0
  0
LINE
  5
2B52
330
1E
100
AcDbEntity
  8
7
100
AcDbLine
 10
5.874505194812993
 20
1.341490818739173
 30
0.0
 11
6.039349083544292
 21
1.361173671124999
 31
0.0
  0
LINE
  5
2B53
330
1E
100
AcDbEntity
  8
7
100
AcDbLine
 10
6.039349083544292
 20
1.361173671124999
 30
0.0
 11
6.199272259179134
 21
1.402999732444882
 31
0.0
  0
LINE
  5
2B54
330
1E
100
AcDbEntity
  8
7
100
AcDbLine
 10
6.199272259179134
 20
1.402999732444882
 30
0.0
 11
6.351814365169293
 21
1.466969002698819
 31
0.0
  0
LINE
  5
2B55
330
1E
100
AcDbEntity
  8
7
100
AcDbLine
 10
6.351814365169293
 20
1.466969002698819
 30
0.0
 11
6.492054688418306
 21
1.550621125338583
 31
0.0
  0
LINE
  5
2B56
330
1E
100
AcDbEntity
  8
7
100
AcDbLine
 10
6.492054688418306
 20
1.550621125338583
 30
0.0
 11
6.622453585474411
 21
1.653956100364173
 31
0.0
  0
LINE
  5
2B57
330
1E
100
AcDbEntity
  8
7
100
AcDbLine
 10
6.622453585474411
 20
1.653956100364173
 30
0.0
 11
6.735629986692913
 21
1.774513571227362
 31
0.0
  0
LINE
  5
2B58
330
1E
100
AcDbEntity
  8
7
100
AcDbLine
 10
6.735629986692913
 20
1.774513571227362
 30
0.0
 11
6.829123535525591
 21
1.909833181379921
 31
0.0
  0
LINE
  5
2B59
330
1E
100
AcDbEntity
  8
7
100
AcDbLine
 10
6.829123535525591
 20
1.909833181379921
 30
0.0
 11
6.90539458852067
 21
2.057454574273623
 31
0.0
  0
LINE
  5
2B5A
330
1E
100
AcDbEntity
  8
7
100
AcDbLine
 10
6.90539458852067
 20
2.057454574273623
 30
0.0
 11
6.959522432581692
 21
2.212457036812007
 31
0.0
  0
LINE
  5
2B5B
330
1E
100
AcDbEntity
  8
7
100
AcDbLine
 10
6.959522432581692
 20
2.212457036812007
 30
0.0
 11
6.991507067708663
 21
2.374840568995079
 31
0.0
  0
LINE
  5
2B5C
330
1E
100
AcDbEntity
  8
7
100
AcDbLine
 10
7.001348493901576
 20
2.433889126152559
 30
0.0
 11
7.001348493901576
 21
2.436349482700787
 31
0.0
  0
LINE
  5
2B5D
330
1E
100
AcDbEntity
  8
7
100
AcDbLine
 10
7.001348493901576
 20
2.436349482700787
 30
0.0
 11
7.001348493901576
 21
2.441270195797243
 31
0.0
  0
LINE
  5
2B5E
330
1E
100
AcDbEntity
  8
7
100
AcDbLine
 10
7.001348493901576
 20
2.441270195797243
 30
0.0
 11
7.001348493901576
 21
2.44865126544193
 31
0.0
  0
LINE
  5
2B5F
330
1E
100
AcDbEntity
  8
7
100
AcDbLine
 10
7.001348493901576
 20
2.44865126544193
 30
0.0
 11
7.003808850449804
 21
2.463413404731299
 31
0.0
  0
LINE
  5
2B60
330
1E
100
AcDbEntity
  8
7
100
AcDbLine
 10
7.003808850449804
 20
2.463413404731299
 30
0.0
 11
7.003808850449804
 21
2.478175544020668
 31
0.0
  0
LINE
  5
2B61
330
1E
100
AcDbEntity
  8
7
100
AcDbLine
 10
7.003808850449804
 20
2.478175544020668
 30
0.0
 11
7.003808850449804
 21
2.492937683310039
 31
0.0
  0
LINE
  5
2B62
330
1E
100
AcDbEntity
  8
7
100
AcDbLine
 10
7.003808850449804
 20
2.492937683310039
 30
0.0
 11
7.003808850449804
 21
2.505239466051181
 31
0.0
  0
LINE
  5
2B63
330
1E
100
AcDbEntity
  8
7
100
AcDbLine
 10
7.003808850449804
 20
2.505239466051181
 30
0.0
 11
7.003808850449804
 21
2.517541248792322
 31
0.0
  0
LINE
  5
2B64
330
1E
100
AcDbEntity
  8
7
100
AcDbLine
 10
7.003808850449804
 20
2.517541248792322
 30
0.0
 11
7.003808850449804
 21
2.52246196188878
 31
0.0
  0
LINE
  5
2B65
330
1E
100
AcDbEntity
  8
7
100
AcDbLine
 10
7.003808850449804
 20
2.52246196188878
 30
0.0
 11
7.003808850449804
 21
2.524922318437007
 31
0.0
  0
LINE
  5
2B66
330
1E
100
AcDbEntity
  8
7
100
AcDbLine
 10
6.998888137353346
 20
2.421587343411416
 30
0.0
 11
6.998888137353346
 21
2.406825204122047
 31
0.0
  0
LINE
  5
2B67
330
1E
100
AcDbEntity
  8
7
100
AcDbLine
 10
6.998888137353346
 20
2.406825204122047
 30
0.0
 11
6.996427780805118
 21
2.38714235173622
 31
0.0
  0
LINE
  5
2B68
330
1E
100
AcDbEntity
  8
7
100
AcDbLine
 10
6.996427780805118
 20
2.38714235173622
 30
0.0
 11
6.993967424256891
 21
2.374840568995079
 31
0.0
  0
LINE
  5
2B69
330
1E
100
AcDbEntity
  8
7
100
AcDbLine
 10
7.001348493901576
 20
2.433889126152559
 30
0.0
 11
7.001348493901576
 21
2.431428769604331
 31
0.0
  0
LINE
  5
2B6A
330
1E
100
AcDbEntity
  8
7
100
AcDbLine
 10
7.001348493901576
 20
2.431428769604331
 30
0.0
 11
6.998888137353346
 21
2.421587343411416
 31
0.0
  0
LINE
  5
2B6B
330
1E
100
AcDbEntity
  8
7
100
AcDbLine
 10
6.932458510551181
 20
2.374840568995079
 30
0.0
 11
6.93491886709941
 21
2.394523421380906
 31
0.0
  0
LINE
  5
2B6C
330
1E
100
AcDbEntity
  8
7
100
AcDbLine
 10
6.93491886709941
 20
2.394523421380906
 30
0.0
 11
6.93491886709941
 21
2.411745917218504
 31
0.0
  0
LINE
  5
2B6D
330
1E
100
AcDbEntity
  8
7
100
AcDbLine
 10
6.93491886709941
 20
2.411745917218504
 30
0.0
 11
6.937379223647639
 21
2.426508056507874
 31
0.0
  0
LINE
  5
2B6E
330
1E
100
AcDbEntity
  8
7
100
AcDbLine
 10
6.937379223647639
 20
2.426508056507874
 30
0.0
 11
6.937379223647639
 21
2.433889126152559
 31
0.0
  0
LINE
  5
2B6F
330
1E
100
AcDbEntity
  8
7
100
AcDbLine
 10
6.937379223647639
 20
2.433889126152559
 30
0.0
 11
6.937379223647639
 21
2.438809839249015
 31
0.0
  0
LINE
  5
2B70
330
1E
100
AcDbEntity
  8
7
100
AcDbLine
 10
6.937379223647639
 20
2.438809839249015
 30
0.0
 11
6.939839580195866
 21
2.44865126544193
 31
0.0
  0
LINE
  5
2B71
330
1E
100
AcDbEntity
  8
7
100
AcDbLine
 10
6.939839580195866
 20
2.44865126544193
 30
0.0
 11
6.939839580195866
 21
2.460953048183069
 31
0.0
  0
LINE
  5
2B72
330
1E
100
AcDbEntity
  8
7
100
AcDbLine
 10
6.939839580195866
 20
2.460953048183069
 30
0.0
 11
6.939839580195866
 21
2.47571518747244
 31
0.0
  0
LINE
  5
2B73
330
1E
100
AcDbEntity
  8
7
100
AcDbLine
 10
6.939839580195866
 20
2.47571518747244
 30
0.0
 11
6.939839580195866
 21
2.490477326761812
 31
0.0
  0
LINE
  5
2B74
330
1E
100
AcDbEntity
  8
7
100
AcDbLine
 10
6.939839580195866
 20
2.490477326761812
 30
0.0
 11
6.942299936744094
 21
2.502779109502953
 31
0.0
  0
LINE
  5
2B75
330
1E
100
AcDbEntity
  8
7
100
AcDbLine
 10
6.942299936744094
 20
2.502779109502953
 30
0.0
 11
6.942299936744094
 21
2.515080892244094
 31
0.0
  0
LINE
  5
2B76
330
1E
100
AcDbEntity
  8
7
100
AcDbLine
 10
6.942299936744094
 20
2.515080892244094
 30
0.0
 11
6.942299936744094
 21
2.52246196188878
 31
0.0
  0
LINE
  5
2B77
330
1E
100
AcDbEntity
  8
7
100
AcDbLine
 10
6.942299936744094
 20
2.52246196188878
 30
0.0
 11
6.942299936744094
 21
2.524922318437007
 31
0.0
  0
LINE
  5
2B78
330
1E
100
AcDbEntity
  8
7
100
AcDbLine
 10
6.910315301617126
 20
2.524922318437007
 30
0.0
 11
6.957062076033465
 21
2.524922318437007
 31
0.0
  0
LINE
  5
2B79
330
1E
100
AcDbEntity
  8
7
100
AcDbLine
 10
6.957062076033465
 20
2.524922318437007
 30
0.0
 11
6.991507067708663
 21
2.524922318437007
 31
0.0
  0
LINE
  5
2B7A
330
1E
100
AcDbEntity
  8
7
100
AcDbLine
 10
6.991507067708663
 20
2.524922318437007
 30
0.0
 11
7.003808850449804
 21
2.524922318437007
 31
0.0
  0
LINE
  5
2B7B
330
1E
100
AcDbEntity
  8
7
100
AcDbLine
 10
7.41222803745571
 20
2.524922318437007
 30
0.0
 11
7.458974811872047
 21
2.524922318437007
 31
0.0
  0
LINE
  5
2B7C
330
1E
100
AcDbEntity
  8
7
100
AcDbLine
 10
7.458974811872047
 20
2.524922318437007
 30
0.0
 11
7.490959446999017
 21
2.524922318437007
 31
0.0
  0
LINE
  5
2B7D
330
1E
100
AcDbEntity
  8
7
100
AcDbLine
 10
7.490959446999017
 20
2.524922318437007
 30
0.0
 11
7.503261229740158
 21
2.524922318437007
 31
0.0
  0
LINE
  5
2B81
330
1E
100
AcDbEntity
  8
7
100
AcDbLine
 10
-0.4215472121033466
 20
9.642733812461614
 30
0.0
 11
-0.4215472121033466
 21
11.08204239317519
 31
0.0
  0
LINE
  5
2B82
330
1E
100
AcDbEntity
  8
7
100
AcDbLine
 10
-0.4215472121033466
 20
11.08204239317519
 30
0.0
 11
-0.4215472121033466
 21
11.13124952413976
 31
0.0
  0
LINE
  5
2B83
330
1E
100
AcDbEntity
  8
7
100
AcDbLine
 10
-0.4215472121033466
 20
11.13124952413976
 30
0.0
 11
-0.4215472121033466
 21
11.17307558545964
 31
0.0
  0
LINE
  5
2B84
330
1E
100
AcDbEntity
  8
7
100
AcDbLine
 10
-0.4215472121033466
 20
11.17307558545964
 30
0.0
 11
-0.4215472121033466
 21
11.20259986403838
 31
0.0
  0
LINE
  5
2B85
330
1E
100
AcDbEntity
  8
7
100
AcDbLine
 10
-0.4215472121033466
 20
11.20259986403838
 30
0.0
 11
-0.4215472121033466
 21
11.21244129023129
 31
0.0
  0
LINE
  5
2B86
330
1E
100
AcDbEntity
  8
7
100
AcDbLine
 10
-0.3575779418494096
 20
9.642733812461614
 30
0.0
 11
-0.3575779418494096
 21
11.08204239317519
 31
0.0
  0
LINE
  5
2B87
330
1E
100
AcDbEntity
  8
7
100
AcDbLine
 10
-0.3575779418494096
 20
11.08204239317519
 30
0.0
 11
-0.4215472121033466
 21
11.08204239317519
 31
0.0
  0
LINE
  5
2B8E
330
1E
100
AcDbEntity
  8
7
100
AcDbLine
 10
1.207208822823819
 20
4.896706030929133
 30
0.0
 11
1.052206360285433
 21
4.879483535091535
 31
0.0
  0
LINE
  5
2B8F
330
1E
100
AcDbEntity
  8
7
100
AcDbLine
 10
1.052206360285433
 20
4.879483535091535
 30
0.0
 11
0.9021246108435041
 21
4.837657473771654
 31
0.0
  0
LINE
  5
2B90
330
1E
100
AcDbEntity
  8
7
100
AcDbLine
 10
0.9021246108435041
 20
4.837657473771654
 30
0.0
 11
0.7594239310462597
 21
4.778608916614174
 31
0.0
  0
LINE
  5
2B91
330
1E
100
AcDbEntity
  8
7
100
AcDbLine
 10
0.7594239310462597
 20
4.778608916614174
 30
0.0
 11
0.624104320893701
 21
4.697417150522639
 31
0.0
  0
LINE
  5
2B92
330
1E
100
AcDbEntity
  8
7
100
AcDbLine
 10
0.624104320893701
 20
4.697417150522639
 30
0.0
 11
0.5035468500305117
 21
4.601463245141733
 31
0.0
  0
LINE
  5
2B93
330
1E
100
AcDbEntity
  8
7
100
AcDbLine
 10
0.5035468500305117
 20
4.601463245141733
 30
0.0
 11
0.3977515184566929
 21
4.488286843923228
 31
0.0
  0
LINE
  5
2B94
330
1E
100
AcDbEntity
  8
7
100
AcDbLine
 10
1.207208822823819
 20
4.958214944634842
 30
0.0
 11
1.042364934092519
 21
4.938532092249015
 31
0.0
  0
LINE
  5
2B95
330
1E
100
AcDbEntity
  8
7
100
AcDbLine
 10
1.042364934092519
 20
4.938532092249015
 30
0.0
 11
0.8824417584576774
 21
4.896706030929133
 31
0.0
  0
LINE
  5
2B96
330
1E
100
AcDbEntity
  8
7
100
AcDbLine
 10
0.8824417584576774
 20
4.896706030929133
 30
0.0
 11
0.7298996524675197
 21
4.832736760675198
 31
0.0
  0
LINE
  5
2B97
330
1E
100
AcDbEntity
  8
7
100
AcDbLine
 10
0.7298996524675197
 20
4.832736760675198
 30
0.0
 11
0.5896593292185042
 21
4.749084638035431
 31
0.0
  0
LINE
  5
2B98
330
1E
100
AcDbEntity
  8
7
100
AcDbLine
 10
-0.3280536632706692
 20
3.77478344493701
 30
0.0
 11
-0.374800437687008
 21
3.77478344493701
 31
0.0
  0
LINE
  5
2B99
330
1E
100
AcDbEntity
  8
7
100
AcDbLine
 10
-0.374800437687008
 20
3.77478344493701
 30
0.0
 11
-0.4092454293622048
 21
3.77478344493701
 31
0.0
  0
LINE
  5
2B9A
330
1E
100
AcDbEntity
  8
7
100
AcDbLine
 10
-0.4092454293622048
 20
3.77478344493701
 30
0.0
 11
-0.4215472121033466
 21
3.77478344493701
 31
0.0
  0
LINE
  5
2B9B
330
1E
100
AcDbEntity
  8
7
100
AcDbLine
 10
0.3977515184566929
 20
4.488286843923228
 30
0.0
 11
0.3067183261722441
 21
4.360348303415356
 31
0.0
  0
LINE
  5
2B9C
330
1E
100
AcDbEntity
  8
7
100
AcDbLine
 10
0.3067183261722441
 20
4.360348303415356
 30
0.0
 11
0.235367986273622
 21
4.222568336714569
 31
0.0
  0
LINE
  5
2B9D
330
1E
100
AcDbEntity
  8
7
100
AcDbLine
 10
0.235367986273622
 20
4.222568336714569
 30
0.0
 11
0.1837004987608268
 21
4.077407300369094
 31
0.0
  0
LINE
  5
2B9E
330
1E
100
AcDbEntity
  8
7
100
AcDbLine
 10
0.1837004987608268
 20
4.077407300369094
 30
0.0
 11
0.1517158636338582
 21
3.924865194378936
 31
0.0
  0
LINE
  5
2B9F
330
1E
100
AcDbEntity
  8
7
100
AcDbLine
 10
0.5896593292185042
 20
4.749084638035431
 30
0.0
 11
0.4592604321624015
 21
4.645749663009842
 31
0.0
  0
LINE
  5
2BA0
330
1E
100
AcDbEntity
  8
7
100
AcDbLine
 10
0.4592604321624015
 20
4.645749663009842
 30
0.0
 11
0.3460840309438977
 21
4.525192192146653
 31
0.0
  0
LINE
  5
2BA1
330
1E
100
AcDbEntity
  8
7
100
AcDbLine
 10
0.3460840309438977
 20
4.525192192146653
 30
0.0
 11
0.2525904821112204
 21
4.389872581994094
 31
0.0
  0
LINE
  5
2BA2
330
1E
100
AcDbEntity
  8
7
100
AcDbLine
 10
0.2525904821112204
 20
4.389872581994094
 30
0.0
 11
0.1763194291161418
 21
4.242251189100396
 31
0.0
  0
LINE
  5
2BA3
330
1E
100
AcDbEntity
  8
7
100
AcDbLine
 10
0.1763194291161418
 20
4.242251189100396
 30
0.0
 11
0.1221915850551181
 21
4.08724872656201
 31
0.0
  0
LINE
  5
2BA4
330
1E
100
AcDbEntity
  8
7
100
AcDbLine
 10
0.1221915850551181
 20
4.08724872656201
 30
0.0
 11
0.0902069499281495
 21
3.924865194378936
 31
0.0
  0
LINE
  5
2BA5
330
1E
100
AcDbEntity
  8
7
100
AcDbLine
 10
0.1443347939891733
 20
3.843673428287401
 30
0.0
 11
0.1443347939891733
 21
3.82891128899803
 31
0.0
  0
LINE
  5
2BA6
330
1E
100
AcDbEntity
  8
7
100
AcDbLine
 10
0.1443347939891733
 20
3.82891128899803
 30
0.0
 11
0.1418744374409451
 21
3.819069862805119
 31
0.0
  0
LINE
  5
2BA7
330
1E
100
AcDbEntity
  8
7
100
AcDbLine
 10
0.1418744374409451
 20
3.819069862805119
 30
0.0
 11
0.1418744374409451
 21
3.804307723515748
 31
0.0
  0
LINE
  5
2BA8
330
1E
100
AcDbEntity
  8
7
100
AcDbLine
 10
0.1418744374409451
 20
3.804307723515748
 30
0.0
 11
0.1418744374409451
 21
3.792005940774604
 31
0.0
  0
LINE
  5
2BA9
330
1E
100
AcDbEntity
  8
7
100
AcDbLine
 10
0.1418744374409451
 20
3.792005940774604
 30
0.0
 11
0.1418744374409451
 21
3.782164514581693
 31
0.0
  0
LINE
  5
2BAA
330
1E
100
AcDbEntity
  8
7
100
AcDbLine
 10
0.1418744374409451
 20
3.782164514581693
 30
0.0
 11
0.1418744374409451
 21
3.77478344493701
 31
0.0
  0
LINE
  5
2BAB
330
1E
100
AcDbEntity
  8
7
100
AcDbLine
 10
0.1517158636338582
 20
3.924865194378936
 30
0.0
 11
0.1492555070856301
 21
3.905182341993109
 31
0.0
  0
LINE
  5
2BAC
330
1E
100
AcDbEntity
  8
7
100
AcDbLine
 10
0.1492555070856301
 20
3.905182341993109
 30
0.0
 11
0.1467951505374017
 21
3.885499489607282
 31
0.0
  0
LINE
  5
2BAD
330
1E
100
AcDbEntity
  8
7
100
AcDbLine
 10
0.1467951505374017
 20
3.885499489607282
 30
0.0
 11
0.1467951505374017
 21
3.873197706866143
 31
0.0
  0
LINE
  5
2BAE
330
1E
100
AcDbEntity
  8
7
100
AcDbLine
 10
0.1467951505374017
 20
3.873197706866143
 30
0.0
 11
0.1467951505374017
 21
3.865816637221455
 31
0.0
  0
LINE
  5
2BAF
330
1E
100
AcDbEntity
  8
7
100
AcDbLine
 10
0.1467951505374017
 20
3.865816637221455
 30
0.0
 11
0.1467951505374017
 21
3.863356280673228
 31
0.0
  0
LINE
  5
2BB0
330
1E
100
AcDbEntity
  8
7
100
AcDbLine
 10
0.1467951505374017
 20
3.863356280673228
 30
0.0
 11
0.1467951505374017
 21
3.860895924125
 31
0.0
  0
LINE
  5
2BB1
330
1E
100
AcDbEntity
  8
7
100
AcDbLine
 10
0.1467951505374017
 20
3.860895924125
 30
0.0
 11
0.1443347939891733
 21
3.853514854480317
 31
0.0
  0
LINE
  5
2BB2
330
1E
100
AcDbEntity
  8
7
100
AcDbLine
 10
0.1443347939891733
 20
3.853514854480317
 30
0.0
 11
0.1443347939891733
 21
3.843673428287401
 31
0.0
  0
LINE
  5
2BB3
330
1E
100
AcDbEntity
  8
7
100
AcDbLine
 10
0.0828258802834645
 20
3.863356280673228
 30
0.0
 11
0.0828258802834645
 21
3.868276993769683
 31
0.0
  0
LINE
  5
2BB4
330
1E
100
AcDbEntity
  8
7
100
AcDbLine
 10
0.0828258802834645
 20
3.868276993769683
 30
0.0
 11
0.0828258802834645
 21
3.878118419962599
 31
0.0
  0
LINE
  5
2BB5
330
1E
100
AcDbEntity
  8
7
100
AcDbLine
 10
0.0828258802834645
 20
3.878118419962599
 30
0.0
 11
0.0852862368316929
 21
3.89288055925197
 31
0.0
  0
LINE
  5
2BB6
330
1E
100
AcDbEntity
  8
7
100
AcDbLine
 10
0.0852862368316929
 20
3.89288055925197
 30
0.0
 11
0.0877465933799211
 21
3.910103055089569
 31
0.0
  0
LINE
  5
2BB7
330
1E
100
AcDbEntity
  8
7
100
AcDbLine
 10
0.0877465933799211
 20
3.910103055089569
 30
0.0
 11
0.0877465933799211
 21
3.924865194378936
 31
0.0
  0
LINE
  5
2BB8
330
1E
100
AcDbEntity
  8
7
100
AcDbLine
 10
0.0803655237352361
 20
3.792005940774604
 30
0.0
 11
0.0803655237352361
 21
3.782164514581693
 31
0.0
  0
LINE
  5
2BB9
330
1E
100
AcDbEntity
  8
7
100
AcDbLine
 10
0.0803655237352361
 20
3.782164514581693
 30
0.0
 11
0.0803655237352361
 21
3.77478344493701
 31
0.0
  0
LINE
  5
2BBA
330
1E
100
AcDbEntity
  8
7
100
AcDbLine
 10
0.0828258802834645
 20
3.863356280673228
 30
0.0
 11
0.0828258802834645
 21
3.860895924125
 31
0.0
  0
LINE
  5
2BBB
330
1E
100
AcDbEntity
  8
7
100
AcDbLine
 10
0.0828258802834645
 20
3.860895924125
 30
0.0
 11
0.0828258802834645
 21
3.853514854480317
 31
0.0
  0
LINE
  5
2BBC
330
1E
100
AcDbEntity
  8
7
100
AcDbLine
 10
0.0828258802834645
 20
3.853514854480317
 30
0.0
 11
0.0803655237352361
 21
3.843673428287401
 31
0.0
  0
LINE
  5
2BBD
330
1E
100
AcDbEntity
  8
7
100
AcDbLine
 10
0.0803655237352361
 20
3.843673428287401
 30
0.0
 11
0.0803655237352361
 21
3.82891128899803
 31
0.0
  0
LINE
  5
2BBE
330
1E
100
AcDbEntity
  8
7
100
AcDbLine
 10
0.0803655237352361
 20
3.82891128899803
 30
0.0
 11
0.0803655237352361
 21
3.819069862805119
 31
0.0
  0
LINE
  5
2BBF
330
1E
100
AcDbEntity
  8
7
100
AcDbLine
 10
0.0803655237352361
 20
3.819069862805119
 30
0.0
 11
0.0803655237352361
 21
3.804307723515748
 31
0.0
  0
LINE
  5
2BC0
330
1E
100
AcDbEntity
  8
7
100
AcDbLine
 10
0.0803655237352361
 20
3.804307723515748
 30
0.0
 11
0.0803655237352361
 21
3.792005940774604
 31
0.0
  0
LINE
  5
2BC1
330
1E
100
AcDbEntity
  8
7
100
AcDbLine
 10
0.171398716019685
 20
3.77478344493701
 30
0.0
 11
0.1246519416033462
 21
3.77478344493701
 31
0.0
  0
LINE
  5
2BC2
330
1E
100
AcDbEntity
  8
7
100
AcDbLine
 10
0.1246519416033462
 20
3.77478344493701
 30
0.0
 11
0.0926673064763779
 21
3.77478344493701
 31
0.0
  0
LINE
  5
2BC3
330
1E
100
AcDbEntity
  8
7
100
AcDbLine
 10
0.0926673064763779
 20
3.77478344493701
 30
0.0
 11
0.0803655237352361
 21
3.77478344493701
 31
0.0
  0
LINE
  5
2BC4
330
1E
100
AcDbEntity
  8
7
100
AcDbLine
 10
1.349909502621063
 20
4.909007813670277
 30
0.0
 11
1.315464510945866
 21
4.945913161893702
 31
0.0
  0
LINE
  5
2BC5
330
1E
100
AcDbEntity
  8
7
100
AcDbLine
 10
1.315464510945866
 20
4.945913161893702
 30
0.0
 11
1.266257379981299
 21
4.960675301183069
 31
0.0
  0
LINE
  5
2BC6
330
1E
100
AcDbEntity
  8
7
100
AcDbLine
 10
1.207208822823819
 20
4.960675301183069
 30
0.0
 11
1.226891675209645
 21
4.960675301183069
 31
0.0
  0
LINE
  5
2BC7
330
1E
100
AcDbEntity
  8
7
100
AcDbLine
 10
1.226891675209645
 20
4.960675301183069
 30
0.0
 11
1.244114171047244
 21
4.963135657731298
 31
0.0
  0
LINE
  5
2BC8
330
1E
100
AcDbEntity
  8
7
100
AcDbLine
 10
1.244114171047244
 20
4.963135657731298
 30
0.0
 11
1.258876310336614
 21
4.963135657731298
 31
0.0
  0
LINE
  5
2BC9
330
1E
100
AcDbEntity
  8
7
100
AcDbLine
 10
1.258876310336614
 20
4.963135657731298
 30
0.0
 11
1.266257379981299
 21
4.963135657731298
 31
0.0
  0
LINE
  5
2BCA
330
1E
100
AcDbEntity
  8
7
100
AcDbLine
 10
1.421259842519685
 20
4.869642108898624
 30
0.0
 11
1.421259842519685
 21
4.916388883314961
 31
0.0
  0
LINE
  5
2BCB
330
1E
100
AcDbEntity
  8
7
100
AcDbLine
 10
1.421259842519685
 20
4.916388883314961
 30
0.0
 11
1.421259842519685
 21
4.950833874990158
 31
0.0
  0
LINE
  5
2BCC
330
1E
100
AcDbEntity
  8
7
100
AcDbLine
 10
1.421259842519685
 20
4.950833874990158
 30
0.0
 11
1.421259842519685
 21
4.963135657731298
 31
0.0
  0
LINE
  5
2BCD
330
1E
100
AcDbEntity
  8
7
100
AcDbLine
 10
1.207208822823819
 20
4.215187267069882
 30
0.0
 11
1.185065613889764
 21
4.17336120575
 31
0.0
  0
LINE
  5
2BCE
330
1E
100
AcDbEntity
  8
7
100
AcDbLine
 10
1.185065613889764
 20
4.17336120575
 30
0.0
 11
1.185065613889764
 21
4.124154074785431
 31
0.0
  0
LINE
  5
2BCF
330
1E
100
AcDbEntity
  8
7
100
AcDbLine
 10
1.185065613889764
 20
4.124154074785431
 30
0.0
 11
1.207208822823819
 21
4.082328013465549
 31
0.0
  0
LINE
  5
2BD0
330
1E
100
AcDbEntity
  8
7
100
AcDbLine
 10
1.207208822823819
 20
4.082328013465549
 30
0.0
 11
1.244114171047244
 21
4.050343378338584
 31
0.0
  0
LINE
  5
2BD1
330
1E
100
AcDbEntity
  8
7
100
AcDbLine
 10
1.244114171047244
 20
4.050343378338584
 30
0.0
 11
1.290860945463582
 21
4.040501952145668
 31
0.0
  0
LINE
  5
2BD2
330
1E
100
AcDbEntity
  8
7
100
AcDbLine
 10
1.290860945463582
 20
4.040501952145668
 30
0.0
 11
1.337607719879921
 21
4.050343378338584
 31
0.0
  0
LINE
  5
2BD3
330
1E
100
AcDbEntity
  8
7
100
AcDbLine
 10
1.337607719879921
 20
4.050343378338584
 30
0.0
 11
1.374513068103346
 21
4.082328013465549
 31
0.0
  0
LINE
  5
2BD4
330
1E
100
AcDbEntity
  8
7
100
AcDbLine
 10
1.374513068103346
 20
4.082328013465549
 30
0.0
 11
1.396656277037401
 21
4.124154074785431
 31
0.0
  0
LINE
  5
2BD5
330
1E
100
AcDbEntity
  8
7
100
AcDbLine
 10
1.396656277037401
 20
4.124154074785431
 30
0.0
 11
1.396656277037401
 21
4.17336120575
 31
0.0
  0
LINE
  5
2BD6
330
1E
100
AcDbEntity
  8
7
100
AcDbLine
 10
1.396656277037401
 20
4.17336120575
 30
0.0
 11
1.374513068103346
 21
4.215187267069882
 31
0.0
  0
LINE
  5
2BD7
330
1E
100
AcDbEntity
  8
7
100
AcDbLine
 10
1.374513068103346
 20
4.215187267069882
 30
0.0
 11
1.337607719879921
 21
4.247171902196852
 31
0.0
  0
LINE
  5
2BD8
330
1E
100
AcDbEntity
  8
7
100
AcDbLine
 10
1.337607719879921
 20
4.247171902196852
 30
0.0
 11
1.290860945463582
 21
4.257013328389763
 31
0.0
  0
LINE
  5
2BD9
330
1E
100
AcDbEntity
  8
7
100
AcDbLine
 10
1.290860945463582
 20
4.257013328389763
 30
0.0
 11
1.244114171047244
 21
4.247171902196852
 31
0.0
  0
LINE
  5
2BDA
330
1E
100
AcDbEntity
  8
7
100
AcDbLine
 10
1.244114171047244
 20
4.247171902196852
 30
0.0
 11
1.207208822823819
 21
4.215187267069882
 31
0.0
  0
LINE
  5
2BDB
330
1E
100
AcDbEntity
  8
7
100
AcDbLine
 10
1.352369859169291
 20
4.909007813670277
 30
0.0
 11
1.364671641910432
 21
4.896706030929133
 31
0.0
  0
LINE
  5
2BDC
330
1E
100
AcDbEntity
  8
7
100
AcDbLine
 10
1.364671641910432
 20
4.896706030929133
 30
0.0
 11
1.379433781199803
 21
4.891785317832678
 31
0.0
  0
LINE
  5
2BDD
330
1E
100
AcDbEntity
  8
7
100
AcDbLine
 10
1.295781658560039
 20
4.881943891639762
 30
0.0
 11
1.330226650235236
 21
4.845038543416337
 31
0.0
  0
LINE
  5
2BDE
330
1E
100
AcDbEntity
  8
7
100
AcDbLine
 10
1.330226650235236
 20
4.845038543416337
 30
0.0
 11
1.379433781199803
 21
4.83027640412697
 31
0.0
  0
LINE
  5
2BDF
330
1E
100
AcDbEntity
  8
7
100
AcDbLine
 10
1.293321302011811
 20
4.881943891639762
 30
0.0
 11
1.281019519270669
 21
4.894245674380906
 31
0.0
  0
LINE
  5
2BE0
330
1E
100
AcDbEntity
  8
7
100
AcDbLine
 10
1.281019519270669
 20
4.894245674380906
 30
0.0
 11
1.266257379981299
 21
4.899166387477362
 31
0.0
  0
LINE
  5
2BE1
330
1E
100
AcDbEntity
  8
7
100
AcDbLine
 10
1.266257379981299
 20
4.899166387477362
 30
0.0
 11
1.263797023433071
 21
4.899166387477362
 31
0.0
  0
LINE
  5
2BE2
330
1E
100
AcDbEntity
  8
7
100
AcDbLine
 10
1.263797023433071
 20
4.899166387477362
 30
0.0
 11
1.253955597240157
 21
4.899166387477362
 31
0.0
  0
LINE
  5
2BE3
330
1E
100
AcDbEntity
  8
7
100
AcDbLine
 10
1.253955597240157
 20
4.899166387477362
 30
0.0
 11
1.239193457950787
 21
4.899166387477362
 31
0.0
  0
LINE
  5
2BE4
330
1E
100
AcDbEntity
  8
7
100
AcDbLine
 10
1.239193457950787
 20
4.899166387477362
 30
0.0
 11
1.21951060556496
 21
4.899166387477362
 31
0.0
  0
LINE
  5
2BE5
330
1E
100
AcDbEntity
  8
7
100
AcDbLine
 10
1.21951060556496
 20
4.899166387477362
 30
0.0
 11
1.207208822823819
 21
4.896706030929133
 31
0.0
  0
LINE
  5
2BE6
330
1E
100
AcDbEntity
  8
7
100
AcDbLine
 10
3.042634807802166
 20
4.992659936310039
 30
0.0
 11
1.421259842519685
 21
4.992659936310039
 31
0.0
  0
LINE
  5
2BE7
330
1E
100
AcDbEntity
  8
7
100
AcDbLine
 10
1.421259842519685
 20
4.992659936310039
 30
0.0
 11
1.421259842519685
 21
5.369094488188975
 31
0.0
  0
LINE
  5
2BE8
330
1E
100
AcDbEntity
  8
7
100
AcDbLine
 10
1.421259842519685
 20
5.369094488188975
 30
0.0
 11
1.421259842519685
 21
5.415841262605317
 31
0.0
  0
LINE
  5
2BE9
330
1E
100
AcDbEntity
  8
7
100
AcDbLine
 10
1.421259842519685
 20
5.415841262605317
 30
0.0
 11
1.421259842519685
 21
5.45028625428051
 31
0.0
  0
LINE
  5
2BEA
330
1E
100
AcDbEntity
  8
7
100
AcDbLine
 10
1.421259842519685
 20
5.45028625428051
 30
0.0
 11
1.421259842519685
 21
5.462588037021654
 31
0.0
  0
LINE
  5
2BEB
330
1E
100
AcDbEntity
  8
7
100
AcDbLine
 10
1.421259842519685
 20
4.963135657731298
 30
0.0
 11
1.421259842519685
 21
4.970516727375985
 31
0.0
  0
LINE
  5
2BEC
330
1E
100
AcDbEntity
  8
7
100
AcDbLine
 10
1.421259842519685
 20
4.970516727375985
 30
0.0
 11
1.421259842519685
 21
4.992659936310039
 31
0.0
  0
LINE
  5
2BED
330
1E
100
AcDbEntity
  8
7
100
AcDbLine
 10
3.101683364959646
 20
5.098455267883856
 30
0.0
 11
3.059857303639764
 21
5.081232772046258
 31
0.0
  0
LINE
  5
2BEE
330
1E
100
AcDbEntity
  8
7
100
AcDbLine
 10
3.059857303639764
 20
5.081232772046258
 30
0.0
 11
3.042634807802166
 21
5.039406710726376
 31
0.0
  0
LINE
  5
2BEF
330
1E
100
AcDbEntity
  8
7
100
AcDbLine
 10
3.042634807802166
 20
4.963135657731298
 30
0.0
 11
3.042634807802166
 21
4.970516727375985
 31
0.0
  0
LINE
  5
2BF0
330
1E
100
AcDbEntity
  8
7
100
AcDbLine
 10
3.042634807802166
 20
4.970516727375985
 30
0.0
 11
3.042634807802166
 21
4.992659936310039
 31
0.0
  0
LINE
  5
2BFB
330
1E
100
AcDbEntity
  8
7
100
AcDbLine
 10
0.0828258802834645
 20
8.053343482306104
 30
0.0
 11
0.0852862368316929
 21
8.038581343016733
 31
0.0
  0
LINE
  5
2BFC
330
1E
100
AcDbEntity
  8
7
100
AcDbLine
 10
0.0852862368316929
 20
8.038581343016733
 30
0.0
 11
0.0877465933799211
 21
8.03120027337205
 31
0.0
  0
LINE
  5
2BFD
330
1E
100
AcDbEntity
  8
7
100
AcDbLine
 10
0.0877465933799211
 20
8.03120027337205
 30
0.0
 11
0.0877465933799211
 21
8.028739916823818
 31
0.0
  0
LINE
  5
2BFE
330
1E
100
AcDbEntity
  8
7
100
AcDbLine
 10
0.0877465933799211
 20
8.028739916823818
 30
0.0
 11
0.1197312285068897
 21
8.028739916823818
 31
0.0
  0
LINE
  5
2BFF
330
1E
100
AcDbEntity
  8
7
100
AcDbLine
 10
0.1197312285068897
 20
8.028739916823818
 30
0.0
 11
0.1763194291161418
 21
8.028739916823818
 31
0.0
  0
LINE
  5
2C00
330
1E
100
AcDbEntity
  8
7
100
AcDbLine
 10
0.1763194291161418
 20
8.028739916823818
 30
0.0
 11
0.250130125562992
 21
8.028739916823818
 31
0.0
  0
LINE
  5
2C01
330
1E
100
AcDbEntity
  8
7
100
AcDbLine
 10
0.250130125562992
 20
8.028739916823818
 30
0.0
 11
0.3460840309438977
 21
8.028739916823818
 31
0.0
  0
LINE
  5
2C02
330
1E
100
AcDbEntity
  8
7
100
AcDbLine
 10
0.3460840309438977
 20
8.028739916823818
 30
0.0
 11
0.4592604321624015
 21
8.028739916823818
 31
0.0
  0
LINE
  5
2C03
330
1E
100
AcDbEntity
  8
7
100
AcDbLine
 10
0.4592604321624015
 20
8.028739916823818
 30
0.0
 11
0.5896593292185042
 21
8.028739916823818
 31
0.0
  0
LINE
  5
2C04
330
1E
100
AcDbEntity
  8
7
100
AcDbLine
 10
0.5896593292185042
 20
8.028739916823818
 30
0.0
 11
0.7298996524675197
 21
8.028739916823818
 31
0.0
  0
LINE
  5
2C05
330
1E
100
AcDbEntity
  8
7
100
AcDbLine
 10
0.7298996524675197
 20
8.028739916823818
 30
0.0
 11
0.8824417584576774
 21
8.028739916823818
 31
0.0
  0
LINE
  5
2C06
330
1E
100
AcDbEntity
  8
7
100
AcDbLine
 10
0.8824417584576774
 20
8.028739916823818
 30
0.0
 11
1.042364934092519
 21
8.028739916823818
 31
0.0
  0
LINE
  5
2C07
330
1E
100
AcDbEntity
  8
7
100
AcDbLine
 10
1.042364934092519
 20
8.028739916823818
 30
0.0
 11
1.207208822823819
 21
8.028739916823818
 31
0.0
  0
LINE
  5
2C08
330
1E
100
AcDbEntity
  8
7
100
AcDbLine
 10
1.207208822823819
 20
8.028739916823818
 30
0.0
 11
1.226891675209645
 21
8.033660629920277
 31
0.0
  0
LINE
  5
2C09
330
1E
100
AcDbEntity
  8
7
100
AcDbLine
 10
1.226891675209645
 20
8.033660629920277
 30
0.0
 11
1.244114171047244
 21
8.043502056113188
 31
0.0
  0
LINE
  5
2C0A
330
1E
100
AcDbEntity
  8
7
100
AcDbLine
 10
1.244114171047244
 20
8.043502056113188
 30
0.0
 11
1.258876310336614
 21
8.058264195402561
 31
0.0
  0
LINE
  5
2C0B
330
1E
100
AcDbEntity
  8
7
100
AcDbLine
 10
1.258876310336614
 20
8.058264195402561
 30
0.0
 11
1.266257379981299
 21
8.075486691240158
 31
0.0
  0
LINE
  5
2C0C
330
1E
100
AcDbEntity
  8
7
100
AcDbLine
 10
1.266257379981299
 20
8.075486691240158
 30
0.0
 11
1.266257379981299
 21
8.09024883052953
 31
0.0
  0
LINE
  5
2C0D
330
1E
100
AcDbEntity
  8
7
100
AcDbLine
 10
0.0877465933799211
 20
9.613209533882876
 30
0.0
 11
0.1197312285068897
 21
9.613209533882876
 31
0.0
  0
LINE
  5
2C0E
330
1E
100
AcDbEntity
  8
7
100
AcDbLine
 10
0.1197312285068897
 20
9.613209533882876
 30
0.0
 11
0.1763194291161418
 21
9.613209533882876
 31
0.0
  0
LINE
  5
2C0F
330
1E
100
AcDbEntity
  8
7
100
AcDbLine
 10
0.1763194291161418
 20
9.613209533882876
 30
0.0
 11
0.250130125562992
 21
9.613209533882876
 31
0.0
  0
LINE
  5
2C10
330
1E
100
AcDbEntity
  8
7
100
AcDbLine
 10
0.250130125562992
 20
9.613209533882876
 30
0.0
 11
0.3460840309438977
 21
9.613209533882876
 31
0.0
  0
LINE
  5
2C11
330
1E
100
AcDbEntity
  8
7
100
AcDbLine
 10
0.3460840309438977
 20
9.613209533882876
 30
0.0
 11
0.4592604321624015
 21
9.613209533882876
 31
0.0
  0
LINE
  5
2C12
330
1E
100
AcDbEntity
  8
7
100
AcDbLine
 10
0.4592604321624015
 20
9.613209533882876
 30
0.0
 11
0.5896593292185042
 21
9.613209533882876
 31
0.0
  0
LINE
  5
2C13
330
1E
100
AcDbEntity
  8
7
100
AcDbLine
 10
0.5896593292185042
 20
9.613209533882876
 30
0.0
 11
0.7298996524675197
 21
9.613209533882876
 31
0.0
  0
LINE
  5
2C14
330
1E
100
AcDbEntity
  8
7
100
AcDbLine
 10
0.7298996524675197
 20
9.613209533882876
 30
0.0
 11
0.8824417584576774
 21
9.613209533882876
 31
0.0
  0
LINE
  5
2C15
330
1E
100
AcDbEntity
  8
7
100
AcDbLine
 10
0.8824417584576774
 20
9.613209533882876
 30
0.0
 11
1.042364934092519
 21
9.613209533882876
 31
0.0
  0
LINE
  5
2C16
330
1E
100
AcDbEntity
  8
7
100
AcDbLine
 10
1.042364934092519
 20
9.613209533882876
 30
0.0
 11
1.207208822823819
 21
9.613209533882876
 31
0.0
  0
LINE
  5
2C17
330
1E
100
AcDbEntity
  8
7
100
AcDbLine
 10
0.0803655237352361
 20
8.14929738768701
 30
0.0
 11
0.0803655237352361
 21
9.51233491540551
 31
0.0
  0
LINE
  5
2C18
330
1E
100
AcDbEntity
  8
7
100
AcDbLine
 10
0.0803655237352361
 20
9.51233491540551
 30
0.0
 11
0.0803655237352361
 21
9.519715985050199
 31
0.0
  0
LINE
  5
2C19
330
1E
100
AcDbEntity
  8
7
100
AcDbLine
 10
0.0828258802834645
 20
8.09024883052953
 30
0.0
 11
0.0828258802834645
 21
8.070565978143703
 31
0.0
  0
LINE
  5
2C1A
330
1E
100
AcDbEntity
  8
7
100
AcDbLine
 10
0.0828258802834645
 20
8.070565978143703
 30
0.0
 11
0.0828258802834645
 21
8.053343482306104
 31
0.0
  0
LINE
  5
2C1B
330
1E
100
AcDbEntity
  8
7
100
AcDbLine
 10
0.0828258802834645
 20
8.14929738768701
 30
0.0
 11
0.0828258802834645
 21
8.164059526976377
 31
0.0
  0
LINE
  5
2C1C
330
1E
100
AcDbEntity
  8
7
100
AcDbLine
 10
0.0828258802834645
 20
8.164059526976377
 30
0.0
 11
0.0828258802834645
 21
8.178821666265747
 31
0.0
  0
LINE
  5
2C1D
330
1E
100
AcDbEntity
  8
7
100
AcDbLine
 10
0.0828258802834645
 20
8.178821666265747
 30
0.0
 11
0.0803655237352361
 21
8.188663092458664
 31
0.0
  0
LINE
  5
2C1E
330
1E
100
AcDbEntity
  8
7
100
AcDbLine
 10
0.0803655237352361
 20
8.188663092458664
 30
0.0
 11
0.0803655237352361
 21
8.193583805555119
 31
0.0
  0
LINE
  5
2C1F
330
1E
100
AcDbEntity
  8
7
100
AcDbLine
 10
0.0803655237352361
 20
8.193583805555119
 30
0.0
 11
0.0803655237352361
 21
8.191123449006891
 31
0.0
  0
LINE
  5
2C20
330
1E
100
AcDbEntity
  8
7
100
AcDbLine
 10
0.0803655237352361
 20
8.191123449006891
 30
0.0
 11
0.0803655237352361
 21
8.183742379362204
 31
0.0
  0
LINE
  5
2C21
330
1E
100
AcDbEntity
  8
7
100
AcDbLine
 10
0.0803655237352361
 20
8.183742379362204
 30
0.0
 11
0.0803655237352361
 21
8.173900953169292
 31
0.0
  0
LINE
  5
2C22
330
1E
100
AcDbEntity
  8
7
100
AcDbLine
 10
0.0803655237352361
 20
8.173900953169292
 30
0.0
 11
0.0803655237352361
 21
8.159138813879922
 31
0.0
  0
LINE
  5
2C23
330
1E
100
AcDbEntity
  8
7
100
AcDbLine
 10
0.0803655237352361
 20
8.159138813879922
 30
0.0
 11
0.0803655237352361
 21
8.14929738768701
 31
0.0
  0
LINE
  5
2C24
330
1E
100
AcDbEntity
  8
7
100
AcDbLine
 10
0.0803655237352361
 20
8.141916318042323
 30
0.0
 11
0.0803655237352361
 21
8.129614535301183
 31
0.0
  0
LINE
  5
2C25
330
1E
100
AcDbEntity
  8
7
100
AcDbLine
 10
0.0803655237352361
 20
8.129614535301183
 30
0.0
 11
0.0828258802834645
 21
8.117312752560041
 31
0.0
  0
LINE
  5
2C26
330
1E
100
AcDbEntity
  8
7
100
AcDbLine
 10
0.0483808886082677
 20
9.613209533882876
 30
0.0
 11
-0.3280536632706692
 21
9.613209533882876
 31
0.0
  0
LINE
  5
2C27
330
1E
100
AcDbEntity
  8
7
100
AcDbLine
 10
-0.3280536632706692
 20
9.613209533882876
 30
0.0
 11
-0.3280536632706692
 21
9.549240263628936
 31
0.0
  0
LINE
  5
2C28
330
1E
100
AcDbEntity
  8
7
100
AcDbLine
 10
-0.4190868555551182
 20
9.642733812461614
 30
0.0
 11
-0.4067850728139766
 21
9.598447394593506
 31
0.0
  0
LINE
  5
2C29
330
1E
100
AcDbEntity
  8
7
100
AcDbLine
 10
-0.4067850728139766
 20
9.598447394593506
 30
0.0
 11
-0.374800437687008
 21
9.564002402918308
 31
0.0
  0
LINE
  5
2C2A
330
1E
100
AcDbEntity
  8
7
100
AcDbLine
 10
-0.374800437687008
 20
9.564002402918308
 30
0.0
 11
-0.3280536632706692
 21
9.551700620177165
 31
0.0
  0
LINE
  5
2C2B
330
1E
100
AcDbEntity
  8
7
100
AcDbLine
 10
-0.3575779418494096
 20
9.642733812461614
 30
0.0
 11
-0.3477365156564962
 21
9.623050960075786
 31
0.0
  0
LINE
  5
2C2C
330
1E
100
AcDbEntity
  8
7
100
AcDbLine
 10
-0.3477365156564962
 20
9.623050960075786
 30
0.0
 11
-0.3280536632706692
 21
9.613209533882876
 31
0.0
  0
LINE
  5
2C2D
330
1E
100
AcDbEntity
  8
7
100
AcDbLine
 10
0.0803655237352361
 20
9.51233491540551
 30
0.0
 11
0.0803655237352361
 21
9.504953845760827
 31
0.0
  0
LINE
  5
2C2E
330
1E
100
AcDbEntity
  8
7
100
AcDbLine
 10
0.0803655237352361
 20
9.504953845760827
 30
0.0
 11
0.0803655237352361
 21
9.490191706471456
 31
0.0
  0
LINE
  5
2C2F
330
1E
100
AcDbEntity
  8
7
100
AcDbLine
 10
0.0803655237352361
 20
9.490191706471456
 30
0.0
 11
0.0803655237352361
 21
9.477889923730316
 31
0.0
  0
LINE
  5
2C30
330
1E
100
AcDbEntity
  8
7
100
AcDbLine
 10
0.0803655237352361
 20
9.477889923730316
 30
0.0
 11
0.0803655237352361
 21
9.470508854085629
 31
0.0
  0
LINE
  5
2C31
330
1E
100
AcDbEntity
  8
7
100
AcDbLine
 10
0.0803655237352361
 20
9.470508854085629
 30
0.0
 11
0.0803655237352361
 21
9.468048497537402
 31
0.0
  0
LINE
  5
2C32
330
1E
100
AcDbEntity
  8
7
100
AcDbLine
 10
0.0803655237352361
 20
9.468048497537402
 30
0.0
 11
0.0803655237352361
 21
9.470508854085629
 31
0.0
  0
LINE
  5
2C33
330
1E
100
AcDbEntity
  8
7
100
AcDbLine
 10
0.0803655237352361
 20
9.470508854085629
 30
0.0
 11
0.0803655237352361
 21
9.475429567182086
 31
0.0
  0
LINE
  5
2C34
330
1E
100
AcDbEntity
  8
7
100
AcDbLine
 10
0.0803655237352361
 20
9.475429567182086
 30
0.0
 11
0.0828258802834645
 21
9.48773134992323
 31
0.0
  0
LINE
  5
2C35
330
1E
100
AcDbEntity
  8
7
100
AcDbLine
 10
0.0828258802834645
 20
9.48773134992323
 30
0.0
 11
0.0828258802834645
 21
9.500033132664372
 31
0.0
  0
LINE
  5
2C36
330
1E
100
AcDbEntity
  8
7
100
AcDbLine
 10
0.0877465933799211
 20
9.613209533882876
 30
0.0
 11
0.0852862368316929
 21
9.608288820786416
 31
0.0
  0
LINE
  5
2C37
330
1E
100
AcDbEntity
  8
7
100
AcDbLine
 10
0.0852862368316929
 20
9.608288820786416
 30
0.0
 11
0.0852862368316929
 21
9.598447394593506
 31
0.0
  0
LINE
  5
2C38
330
1E
100
AcDbEntity
  8
7
100
AcDbLine
 10
0.0852862368316929
 20
9.598447394593506
 30
0.0
 11
0.0828258802834645
 21
9.583685255304136
 31
0.0
  0
LINE
  5
2C39
330
1E
100
AcDbEntity
  8
7
100
AcDbLine
 10
0.0828258802834645
 20
9.583685255304136
 30
0.0
 11
0.0828258802834645
 21
9.566462759466535
 31
0.0
  0
LINE
  5
2C3A
330
1E
100
AcDbEntity
  8
7
100
AcDbLine
 10
0.0828258802834645
 20
9.566462759466535
 30
0.0
 11
0.0828258802834645
 21
9.551700620177165
 31
0.0
  0
LINE
  5
2C3B
330
1E
100
AcDbEntity
  8
7
100
AcDbLine
 10
0.0852862368316929
 20
9.603368107689961
 30
0.0
 11
0.0656033844458661
 21
9.608288820786416
 31
0.0
  0
LINE
  5
2C3C
330
1E
100
AcDbEntity
  8
7
100
AcDbLine
 10
0.0656033844458661
 20
9.608288820786416
 30
0.0
 11
0.0483808886082677
 21
9.610749177334644
 31
0.0
  0
LINE
  5
2C3D
330
1E
100
AcDbEntity
  8
7
100
AcDbLine
 10
0.0779051671870079
 20
9.519715985050199
 30
0.0
 11
0.0680637409940945
 21
9.539398837436024
 31
0.0
  0
LINE
  5
2C3E
330
1E
100
AcDbEntity
  8
7
100
AcDbLine
 10
0.0680637409940945
 20
9.539398837436024
 30
0.0
 11
0.0483808886082677
 21
9.549240263628936
 31
0.0
  0
LINE
  5
2C3F
330
1E
100
AcDbEntity
  8
7
100
AcDbLine
 10
1.352369859169291
 20
8.16159917042815
 30
0.0
 11
1.362211285362204
 21
8.16159917042815
 31
0.0
  0
LINE
  5
2C40
330
1E
100
AcDbEntity
  8
7
100
AcDbLine
 10
1.362211285362204
 20
8.16159917042815
 30
0.0
 11
1.379433781199803
 21
8.16159917042815
 31
0.0
  0
LINE
  5
2C41
330
1E
100
AcDbEntity
  8
7
100
AcDbLine
 10
1.379433781199803
 20
8.16159917042815
 30
0.0
 11
1.379433781199803
 21
9.51233491540551
 31
0.0
  0
LINE
  5
2C42
330
1E
100
AcDbEntity
  8
7
100
AcDbLine
 10
1.379433781199803
 20
9.51233491540551
 30
0.0
 11
1.421259842519685
 21
9.51233491540551
 31
0.0
  0
LINE
  5
2C43
330
1E
100
AcDbEntity
  8
7
100
AcDbLine
 10
1.352369859169291
 20
8.16159917042815
 30
0.0
 11
1.352369859169291
 21
9.51233491540551
 31
0.0
  0
LINE
  5
2C44
330
1E
100
AcDbEntity
  8
7
100
AcDbLine
 10
1.352369859169291
 20
9.51233491540551
 30
0.0
 11
1.362211285362204
 21
9.51233491540551
 31
0.0
  0
LINE
  5
2C45
330
1E
100
AcDbEntity
  8
7
100
AcDbLine
 10
1.362211285362204
 20
9.51233491540551
 30
0.0
 11
1.379433781199803
 21
9.51233491540551
 31
0.0
  0
LINE
  5
2C46
330
1E
100
AcDbEntity
  8
7
100
AcDbLine
 10
1.266257379981299
 20
8.16159917042815
 30
0.0
 11
1.317924867494094
 21
8.16159917042815
 31
0.0
  0
LINE
  5
2C47
330
1E
100
AcDbEntity
  8
7
100
AcDbLine
 10
1.317924867494094
 20
8.16159917042815
 30
0.0
 11
1.352369859169291
 21
8.16159917042815
 31
0.0
  0
LINE
  5
2C48
330
1E
100
AcDbEntity
  8
7
100
AcDbLine
 10
1.421259842519685
 20
8.050883125757877
 30
0.0
 11
1.421259842519685
 21
8.063184908499016
 31
0.0
  0
LINE
  5
2C49
330
1E
100
AcDbEntity
  8
7
100
AcDbLine
 10
1.421259842519685
 20
8.063184908499016
 30
0.0
 11
1.421259842519685
 21
8.095169543625985
 31
0.0
  0
LINE
  5
2C4A
330
1E
100
AcDbEntity
  8
7
100
AcDbLine
 10
1.421259842519685
 20
8.095169543625985
 30
0.0
 11
1.421259842519685
 21
8.141916318042323
 31
0.0
  0
LINE
  5
2C4B
330
1E
100
AcDbEntity
  8
7
100
AcDbLine
 10
1.266257379981299
 20
9.51233491540551
 30
0.0
 11
1.317924867494094
 21
9.51233491540551
 31
0.0
  0
LINE
  5
2C4C
330
1E
100
AcDbEntity
  8
7
100
AcDbLine
 10
1.317924867494094
 20
9.51233491540551
 30
0.0
 11
1.352369859169291
 21
9.51233491540551
 31
0.0
  0
LINE
  5
2C4D
330
1E
100
AcDbEntity
  8
7
100
AcDbLine
 10
1.263797023433071
 20
9.571383472562992
 30
0.0
 11
1.253955597240157
 21
9.591066324948817
 31
0.0
  0
LINE
  5
2C4E
330
1E
100
AcDbEntity
  8
7
100
AcDbLine
 10
1.253955597240157
 20
9.591066324948817
 30
0.0
 11
1.239193457950787
 21
9.603368107689961
 31
0.0
  0
LINE
  5
2C4F
330
1E
100
AcDbEntity
  8
7
100
AcDbLine
 10
1.239193457950787
 20
9.603368107689961
 30
0.0
 11
1.21951060556496
 21
9.610749177334644
 31
0.0
  0
LINE
  5
2C50
330
1E
100
AcDbEntity
  8
7
100
AcDbLine
 10
1.21951060556496
 20
9.610749177334644
 30
0.0
 11
1.207208822823819
 21
9.613209533882876
 31
0.0
  0
LINE
  5
2C51
330
1E
100
AcDbEntity
  8
7
100
AcDbLine
 10
1.421259842519685
 20
9.549240263628936
 30
0.0
 11
1.421259842519685
 21
9.56154204637008
 31
0.0
  0
LINE
  5
2C52
330
1E
100
AcDbEntity
  8
7
100
AcDbLine
 10
1.421259842519685
 20
9.56154204637008
 30
0.0
 11
1.421259842519685
 21
9.595987038045278
 31
0.0
  0
LINE
  5
2C53
330
1E
100
AcDbEntity
  8
7
100
AcDbLine
 10
1.421259842519685
 20
9.595987038045278
 30
0.0
 11
1.421259842519685
 21
9.642733812461614
 31
0.0
  0
LINE
  5
2C54
330
1E
100
AcDbEntity
  8
7
100
AcDbLine
 10
1.421259842519685
 20
9.519715985050199
 30
0.0
 11
1.421259842519685
 21
9.541859193984253
 31
0.0
  0
LINE
  5
2C55
330
1E
100
AcDbEntity
  8
7
100
AcDbLine
 10
1.421259842519685
 20
9.541859193984253
 30
0.0
 11
1.421259842519685
 21
9.549240263628936
 31
0.0
  0
LINE
  5
2C56
330
1E
100
AcDbEntity
  8
7
100
AcDbLine
 10
3.042634807802166
 20
9.519715985050199
 30
0.0
 11
3.042634807802166
 21
9.541859193984253
 31
0.0
  0
LINE
  5
2C57
330
1E
100
AcDbEntity
  8
7
100
AcDbLine
 10
3.042634807802166
 20
9.541859193984253
 30
0.0
 11
3.042634807802166
 21
9.549240263628936
 31
0.0
  0
LINE
  5
2C58
330
1E
100
AcDbEntity
  8
7
100
AcDbLine
 10
3.042634807802166
 20
9.472969210633857
 30
0.0
 11
3.059857303639764
 21
9.431143149313976
 31
0.0
  0
LINE
  5
2C59
330
1E
100
AcDbEntity
  8
7
100
AcDbLine
 10
3.059857303639764
 20
9.431143149313976
 30
0.0
 11
3.101683364959646
 21
9.413920653476377
 31
0.0
  0
LINE
  5
2C5A
330
1E
100
AcDbEntity
  8
7
100
AcDbLine
 10
3.101683364959646
 20
10.07083585185334
 30
0.0
 11
3.067238373284449
 21
10.0585340691122
 31
0.0
  0
LINE
  5
2C5B
330
1E
100
AcDbEntity
  8
7
100
AcDbLine
 10
3.067238373284449
 20
10.0585340691122
 30
0.0
 11
3.045095164350393
 21
10.02900979053346
 31
0.0
  0
LINE
  5
2C5C
330
1E
100
AcDbEntity
  8
7
100
AcDbLine
 10
3.045095164350393
 20
10.02900979053346
 30
0.0
 11
3.045095164350393
 21
9.994564798858268
 31
0.0
  0
LINE
  5
2C5D
330
1E
100
AcDbEntity
  8
7
100
AcDbLine
 10
3.045095164350393
 20
9.994564798858268
 30
0.0
 11
3.067238373284449
 21
9.965040520279529
 31
0.0
  0
LINE
  5
2C5E
330
1E
100
AcDbEntity
  8
7
100
AcDbLine
 10
3.067238373284449
 20
9.965040520279529
 30
0.0
 11
3.101683364959646
 21
9.952738737538386
 31
0.0
  0
LINE
  5
2C5F
330
1E
100
AcDbEntity
  8
7
100
AcDbLine
 10
-0.3575779418494096
 20
11.21244129023129
 30
0.0
 11
-0.3575779418494096
 21
11.20259986403838
 31
0.0
  0
LINE
  5
2C60
330
1E
100
AcDbEntity
  8
7
100
AcDbLine
 10
-0.3575779418494096
 20
11.20259986403838
 30
0.0
 11
-0.3575779418494096
 21
11.17307558545964
 31
0.0
  0
LINE
  5
2C61
330
1E
100
AcDbEntity
  8
7
100
AcDbLine
 10
-0.3575779418494096
 20
11.17307558545964
 30
0.0
 11
-0.3575779418494096
 21
11.13124952413976
 31
0.0
  0
LINE
  5
2C62
330
1E
100
AcDbEntity
  8
7
100
AcDbLine
 10
-0.3575779418494096
 20
11.13124952413976
 30
0.0
 11
-0.3575779418494096
 21
11.08204239317519
 31
0.0
  0
LINE
  5
2C63
330
1E
100
AcDbEntity
  8
7
100
AcDbLine
 10
1.50245160861122
 20
11.20013950749016
 30
0.0
 11
1.460625547291338
 21
11.17307558545964
 31
0.0
  0
LINE
  5
2C64
330
1E
100
AcDbEntity
  8
7
100
AcDbLine
 10
1.460625547291338
 20
11.17307558545964
 30
0.0
 11
1.433561625260826
 21
11.13124952413976
 31
0.0
  0
LINE
  5
2C65
330
1E
100
AcDbEntity
  8
7
100
AcDbLine
 10
1.433561625260826
 20
11.13124952413976
 30
0.0
 11
1.423720199067913
 21
11.08204239317519
 31
0.0
  0
LINE
  5
2C66
330
1E
100
AcDbEntity
  8
7
100
AcDbLine
 10
3.042634807802166
 20
11.12140809794685
 30
0.0
 11
3.059857303639764
 21
11.07958203662697
 31
0.0
  0
LINE
  5
2C67
330
1E
100
AcDbEntity
  8
7
100
AcDbLine
 10
3.059857303639764
 20
11.07958203662697
 30
0.0
 11
3.101683364959646
 21
11.06235954078937
 31
0.0
  0
LINE
  5
2C68
330
1E
100
AcDbEntity
  8
7
100
AcDbLine
 10
3.101683364959646
 20
10.47187396921456
 30
0.0
 11
3.067238373284449
 21
10.45957218647342
 31
0.0
  0
LINE
  5
2C69
330
1E
100
AcDbEntity
  8
7
100
AcDbLine
 10
3.067238373284449
 20
10.45957218647342
 30
0.0
 11
3.045095164350393
 21
10.43004790789468
 31
0.0
  0
LINE
  5
2C6A
330
1E
100
AcDbEntity
  8
7
100
AcDbLine
 10
3.045095164350393
 20
10.43004790789468
 30
0.0
 11
3.045095164350393
 21
10.39560291621949
 31
0.0
  0
LINE
  5
2C6B
330
1E
100
AcDbEntity
  8
7
100
AcDbLine
 10
3.045095164350393
 20
10.39560291621949
 30
0.0
 11
3.067238373284449
 21
10.36607863764074
 31
0.0
  0
LINE
  5
2C6C
330
1E
100
AcDbEntity
  8
7
100
AcDbLine
 10
3.067238373284449
 20
10.36607863764074
 30
0.0
 11
3.101683364959646
 21
10.3537768548996
 31
0.0
  0
LINE
  5
2C6D
330
1E
100
AcDbEntity
  8
7
100
AcDbLine
 10
3.101683364959646
 20
10.87045173002756
 30
0.0
 11
3.067238373284449
 21
10.85814994728641
 31
0.0
  0
LINE
  5
2C6E
330
1E
100
AcDbEntity
  8
7
100
AcDbLine
 10
3.067238373284449
 20
10.85814994728641
 30
0.0
 11
3.045095164350393
 21
10.82862566870768
 31
0.0
  0
LINE
  5
2C6F
330
1E
100
AcDbEntity
  8
7
100
AcDbLine
 10
3.045095164350393
 20
10.82862566870768
 30
0.0
 11
3.045095164350393
 21
10.79418067703248
 31
0.0
  0
LINE
  5
2C70
330
1E
100
AcDbEntity
  8
7
100
AcDbLine
 10
3.045095164350393
 20
10.79418067703248
 30
0.0
 11
3.067238373284449
 21
10.76465639845373
 31
0.0
  0
LINE
  5
2C71
330
1E
100
AcDbEntity
  8
7
100
AcDbLine
 10
3.067238373284449
 20
10.76465639845373
 30
0.0
 11
3.101683364959646
 21
10.7523546157126
 31
0.0
  0
LINE
  5
2C72
330
1E
100
AcDbEntity
  8
7
100
AcDbLine
 10
3.040174451253936
 20
11.15339273307381
 30
0.0
 11
3.022951955416338
 21
11.1952187943937
 31
0.0
  0
LINE
  5
2C73
330
1E
100
AcDbEntity
  8
7
100
AcDbLine
 10
3.022951955416338
 20
11.1952187943937
 30
0.0
 11
2.981125894096456
 21
11.21244129023129
 31
0.0
  0
LINE
  5
2C74
330
1E
100
AcDbEntity
  8
7
100
AcDbLine
 10
7.503261229740158
 20
9.642733812461614
 30
0.0
 11
7.503261229740158
 21
11.08204239317519
 31
0.0
  0
LINE
  5
2C75
330
1E
100
AcDbEntity
  8
7
100
AcDbLine
 10
7.503261229740158
 20
11.08204239317519
 30
0.0
 11
7.44175231603445
 21
11.08204239317519
 31
0.0
  0
LINE
  5
2C8E
330
1E
100
AcDbEntity
  8
7
100
AcDbLine
 10
5.87696555136122
 20
4.896706030929133
 30
0.0
 11
5.857282698975394
 21
4.899166387477362
 31
0.0
  0
LINE
  5
2C8F
330
1E
100
AcDbEntity
  8
7
100
AcDbLine
 10
5.857282698975394
 20
4.899166387477362
 30
0.0
 11
5.840060203137796
 21
4.899166387477362
 31
0.0
  0
LINE
  5
2C90
330
1E
100
AcDbEntity
  8
7
100
AcDbLine
 10
5.840060203137796
 20
4.899166387477362
 30
0.0
 11
5.825298063848426
 21
4.899166387477362
 31
0.0
  0
LINE
  5
2C91
330
1E
100
AcDbEntity
  8
7
100
AcDbLine
 10
5.825298063848426
 20
4.899166387477362
 30
0.0
 11
5.81791699420374
 21
4.899166387477362
 31
0.0
  0
LINE
  5
2C92
330
1E
100
AcDbEntity
  8
7
100
AcDbLine
 10
5.81791699420374
 20
4.899166387477362
 30
0.0
 11
5.815456637655512
 21
4.899166387477362
 31
0.0
  0
LINE
  5
2C93
330
1E
100
AcDbEntity
  8
7
100
AcDbLine
 10
5.815456637655512
 20
4.963135657731298
 30
0.0
 11
5.820377350751969
 21
4.963135657731298
 31
0.0
  0
LINE
  5
2C94
330
1E
100
AcDbEntity
  8
7
100
AcDbLine
 10
5.820377350751969
 20
4.963135657731298
 30
0.0
 11
5.830218776944882
 21
4.963135657731298
 31
0.0
  0
LINE
  5
2C95
330
1E
100
AcDbEntity
  8
7
100
AcDbLine
 10
5.830218776944882
 20
4.963135657731298
 30
0.0
 11
5.844980916234253
 21
4.960675301183069
 31
0.0
  0
LINE
  5
2C96
330
1E
100
AcDbEntity
  8
7
100
AcDbLine
 10
5.844980916234253
 20
4.960675301183069
 30
0.0
 11
5.862203412071851
 21
4.960675301183069
 31
0.0
  0
LINE
  5
2C97
330
1E
100
AcDbEntity
  8
7
100
AcDbLine
 10
5.862203412071851
 20
4.960675301183069
 30
0.0
 11
5.87696555136122
 21
4.960675301183069
 31
0.0
  0
LINE
  5
2C98
330
1E
100
AcDbEntity
  8
7
100
AcDbLine
 10
5.896648403747048
 20
4.17336120575
 30
0.0
 11
5.874505194812993
 21
4.215187267069882
 31
0.0
  0
LINE
  5
2C99
330
1E
100
AcDbEntity
  8
7
100
AcDbLine
 10
5.874505194812993
 20
4.215187267069882
 30
0.0
 11
5.837599846589567
 21
4.247171902196852
 31
0.0
  0
LINE
  5
2C9A
330
1E
100
AcDbEntity
  8
7
100
AcDbLine
 10
5.837599846589567
 20
4.247171902196852
 30
0.0
 11
5.790853072173229
 21
4.257013328389763
 31
0.0
  0
LINE
  5
2C9B
330
1E
100
AcDbEntity
  8
7
100
AcDbLine
 10
5.790853072173229
 20
4.257013328389763
 30
0.0
 11
5.74410629775689
 21
4.247171902196852
 31
0.0
  0
LINE
  5
2C9C
330
1E
100
AcDbEntity
  8
7
100
AcDbLine
 10
5.74410629775689
 20
4.247171902196852
 30
0.0
 11
5.707200949533464
 21
4.215187267069882
 31
0.0
  0
LINE
  5
2C9D
330
1E
100
AcDbEntity
  8
7
100
AcDbLine
 10
5.707200949533464
 20
4.215187267069882
 30
0.0
 11
5.685057740599409
 21
4.17336120575
 31
0.0
  0
LINE
  5
2C9E
330
1E
100
AcDbEntity
  8
7
100
AcDbLine
 10
5.685057740599409
 20
4.17336120575
 30
0.0
 11
5.685057740599409
 21
4.124154074785431
 31
0.0
  0
LINE
  5
2C9F
330
1E
100
AcDbEntity
  8
7
100
AcDbLine
 10
5.685057740599409
 20
4.124154074785431
 30
0.0
 11
5.707200949533464
 21
4.082328013465549
 31
0.0
  0
LINE
  5
2CA0
330
1E
100
AcDbEntity
  8
7
100
AcDbLine
 10
5.707200949533464
 20
4.082328013465549
 30
0.0
 11
5.74410629775689
 21
4.050343378338584
 31
0.0
  0
LINE
  5
2CA1
330
1E
100
AcDbEntity
  8
7
100
AcDbLine
 10
5.74410629775689
 20
4.050343378338584
 30
0.0
 11
5.790853072173229
 21
4.040501952145668
 31
0.0
  0
LINE
  5
2CA2
330
1E
100
AcDbEntity
  8
7
100
AcDbLine
 10
5.790853072173229
 20
4.040501952145668
 30
0.0
 11
5.837599846589567
 21
4.050343378338584
 31
0.0
  0
LINE
  5
2CA3
330
1E
100
AcDbEntity
  8
7
100
AcDbLine
 10
5.837599846589567
 20
4.050343378338584
 30
0.0
 11
5.874505194812993
 21
4.082328013465549
 31
0.0
  0
LINE
  5
2CA4
330
1E
100
AcDbEntity
  8
7
100
AcDbLine
 10
5.874505194812993
 20
4.082328013465549
 30
0.0
 11
5.896648403747048
 21
4.124154074785431
 31
0.0
  0
LINE
  5
2CA5
330
1E
100
AcDbEntity
  8
7
100
AcDbLine
 10
5.896648403747048
 20
4.124154074785431
 30
0.0
 11
5.896648403747048
 21
4.17336120575
 31
0.0
  0
LINE
  5
2CA6
330
1E
100
AcDbEntity
  8
7
100
AcDbLine
 10
5.815456637655512
 20
4.960675301183069
 30
0.0
 11
5.766249506690946
 21
4.945913161893702
 31
0.0
  0
LINE
  5
2CA7
330
1E
100
AcDbEntity
  8
7
100
AcDbLine
 10
5.766249506690946
 20
4.945913161893702
 30
0.0
 11
5.731804515015749
 21
4.909007813670277
 31
0.0
  0
LINE
  5
2CA8
330
1E
100
AcDbEntity
  8
7
100
AcDbLine
 10
5.660454175117126
 20
4.869642108898624
 30
0.0
 11
5.660454175117126
 21
4.916388883314961
 31
0.0
  0
LINE
  5
2CA9
330
1E
100
AcDbEntity
  8
7
100
AcDbLine
 10
5.660454175117126
 20
4.916388883314961
 30
0.0
 11
5.660454175117126
 21
4.950833874990158
 31
0.0
  0
LINE
  5
2CAA
330
1E
100
AcDbEntity
  8
7
100
AcDbLine
 10
5.660454175117126
 20
4.950833874990158
 30
0.0
 11
5.660454175117126
 21
4.963135657731298
 31
0.0
  0
LINE
  5
2CAB
330
1E
100
AcDbEntity
  8
7
100
AcDbLine
 10
5.704740592985237
 20
4.83027640412697
 30
0.0
 11
5.753947723949804
 21
4.845038543416337
 31
0.0
  0
LINE
  5
2CAC
330
1E
100
AcDbEntity
  8
7
100
AcDbLine
 10
5.753947723949804
 20
4.845038543416337
 30
0.0
 11
5.788392715625001
 21
4.881943891639762
 31
0.0
  0
LINE
  5
2CAD
330
1E
100
AcDbEntity
  8
7
100
AcDbLine
 10
5.704740592985237
 20
4.891785317832678
 30
0.0
 11
5.719502732274607
 21
4.896706030929133
 31
0.0
  0
LINE
  5
2CAE
330
1E
100
AcDbEntity
  8
7
100
AcDbLine
 10
5.719502732274607
 20
4.896706030929133
 30
0.0
 11
5.731804515015749
 21
4.909007813670277
 31
0.0
  0
LINE
  5
2CAF
330
1E
100
AcDbEntity
  8
7
100
AcDbLine
 10
5.815456637655512
 20
4.899166387477362
 30
0.0
 11
5.800694498366143
 21
4.894245674380906
 31
0.0
  0
LINE
  5
2CB0
330
1E
100
AcDbEntity
  8
7
100
AcDbLine
 10
5.800694498366143
 20
4.894245674380906
 30
0.0
 11
5.788392715625001
 21
4.881943891639762
 31
0.0
  0
LINE
  5
2CB1
330
1E
100
AcDbEntity
  8
7
100
AcDbLine
 10
5.660454175117126
 20
4.992659936310039
 30
0.0
 11
4.041539566382874
 21
4.992659936310039
 31
0.0
  0
LINE
  5
2CB2
330
1E
100
AcDbEntity
  8
7
100
AcDbLine
 10
4.041539566382874
 20
4.992659936310039
 30
0.0
 11
4.041539566382874
 21
4.970516727375985
 31
0.0
  0
LINE
  5
2CB3
330
1E
100
AcDbEntity
  8
7
100
AcDbLine
 10
4.041539566382874
 20
4.970516727375985
 30
0.0
 11
4.041539566382874
 21
4.963135657731298
 31
0.0
  0
LINE
  5
2CB4
330
1E
100
AcDbEntity
  8
7
100
AcDbLine
 10
4.041539566382874
 20
5.039406710726376
 30
0.0
 11
4.024317070545276
 21
5.081232772046258
 31
0.0
  0
LINE
  5
2CB5
330
1E
100
AcDbEntity
  8
7
100
AcDbLine
 10
4.024317070545276
 20
5.081232772046258
 30
0.0
 11
3.982491009225394
 21
5.098455267883856
 31
0.0
  0
LINE
  5
2CC8
330
1E
100
AcDbEntity
  8
7
100
AcDbLine
 10
5.660454175117126
 20
5.369094488188975
 30
0.0
 11
5.660454175117126
 21
5.415841262605317
 31
0.0
  0
LINE
  5
2CC9
330
1E
100
AcDbEntity
  8
7
100
AcDbLine
 10
5.660454175117126
 20
5.415841262605317
 30
0.0
 11
5.660454175117126
 21
5.45028625428051
 31
0.0
  0
LINE
  5
2CCA
330
1E
100
AcDbEntity
  8
7
100
AcDbLine
 10
5.660454175117126
 20
5.45028625428051
 30
0.0
 11
5.660454175117126
 21
5.462588037021654
 31
0.0
  0
LINE
  5
2CCB
330
1E
100
AcDbEntity
  8
7
100
AcDbLine
 10
5.660454175117126
 20
4.963135657731298
 30
0.0
 11
5.660454175117126
 21
4.970516727375985
 31
0.0
  0
LINE
  5
2CCC
330
1E
100
AcDbEntity
  8
7
100
AcDbLine
 10
5.660454175117126
 20
4.970516727375985
 30
0.0
 11
5.660454175117126
 21
4.992659936310039
 31
0.0
  0
LINE
  5
2CCD
330
1E
100
AcDbEntity
  8
7
100
AcDbLine
 10
6.492054688418306
 20
4.749084638035431
 30
0.0
 11
6.351814365169293
 21
4.832736760675198
 31
0.0
  0
LINE
  5
2CCE
330
1E
100
AcDbEntity
  8
7
100
AcDbLine
 10
6.351814365169293
 20
4.832736760675198
 30
0.0
 11
6.199272259179134
 21
4.896706030929133
 31
0.0
  0
LINE
  5
2CCF
330
1E
100
AcDbEntity
  8
7
100
AcDbLine
 10
6.199272259179134
 20
4.896706030929133
 30
0.0
 11
6.039349083544292
 21
4.938532092249015
 31
0.0
  0
LINE
  5
2CD0
330
1E
100
AcDbEntity
  8
7
100
AcDbLine
 10
6.039349083544292
 20
4.938532092249015
 30
0.0
 11
5.874505194812993
 21
4.958214944634842
 31
0.0
  0
LINE
  5
2CD1
330
1E
100
AcDbEntity
  8
7
100
AcDbLine
 10
7.003808850449804
 20
3.801847366967519
 30
0.0
 11
7.003808850449804
 21
3.816609506256891
 31
0.0
  0
LINE
  5
2CD2
330
1E
100
AcDbEntity
  8
7
100
AcDbLine
 10
7.003808850449804
 20
3.816609506256891
 30
0.0
 11
7.003808850449804
 21
3.831371645546258
 31
0.0
  0
LINE
  5
2CD3
330
1E
100
AcDbEntity
  8
7
100
AcDbLine
 10
7.003808850449804
 20
3.831371645546258
 30
0.0
 11
7.001348493901576
 21
3.846133784835629
 31
0.0
  0
LINE
  5
2CD4
330
1E
100
AcDbEntity
  8
7
100
AcDbLine
 10
7.001348493901576
 20
3.846133784835629
 30
0.0
 11
7.001348493901576
 21
3.855975211028544
 31
0.0
  0
LINE
  5
2CD5
330
1E
100
AcDbEntity
  8
7
100
AcDbLine
 10
7.001348493901576
 20
3.855975211028544
 30
0.0
 11
7.001348493901576
 21
3.863356280673228
 31
0.0
  0
LINE
  5
2CD6
330
1E
100
AcDbEntity
  8
7
100
AcDbLine
 10
7.003808850449804
 20
3.77478344493701
 30
0.0
 11
7.003808850449804
 21
3.779704158033465
 31
0.0
  0
LINE
  5
2CD7
330
1E
100
AcDbEntity
  8
7
100
AcDbLine
 10
7.003808850449804
 20
3.779704158033465
 30
0.0
 11
7.003808850449804
 21
3.789545584226376
 31
0.0
  0
LINE
  5
2CD8
330
1E
100
AcDbEntity
  8
7
100
AcDbLine
 10
7.003808850449804
 20
3.789545584226376
 30
0.0
 11
7.003808850449804
 21
3.801847366967519
 31
0.0
  0
LINE
  5
2CD9
330
1E
100
AcDbEntity
  8
7
100
AcDbLine
 10
6.993967424256891
 20
3.924865194378936
 30
0.0
 11
6.996427780805118
 21
3.905182341993109
 31
0.0
  0
LINE
  5
2CDA
330
1E
100
AcDbEntity
  8
7
100
AcDbLine
 10
6.996427780805118
 20
3.905182341993109
 30
0.0
 11
6.998888137353346
 21
3.885499489607282
 31
0.0
  0
LINE
  5
2CDB
330
1E
100
AcDbEntity
  8
7
100
AcDbLine
 10
6.998888137353346
 20
3.885499489607282
 30
0.0
 11
7.001348493901576
 21
3.873197706866143
 31
0.0
  0
LINE
  5
2CDC
330
1E
100
AcDbEntity
  8
7
100
AcDbLine
 10
7.001348493901576
 20
3.873197706866143
 30
0.0
 11
7.001348493901576
 21
3.865816637221455
 31
0.0
  0
LINE
  5
2CDD
330
1E
100
AcDbEntity
  8
7
100
AcDbLine
 10
7.001348493901576
 20
3.865816637221455
 30
0.0
 11
7.001348493901576
 21
3.863356280673228
 31
0.0
  0
LINE
  5
2CDE
330
1E
100
AcDbEntity
  8
7
100
AcDbLine
 10
7.003808850449804
 20
3.77478344493701
 30
0.0
 11
7.013650276642717
 21
3.77478344493701
 31
0.0
  0
LINE
  5
2CDF
330
1E
100
AcDbEntity
  8
7
100
AcDbLine
 10
7.013650276642717
 20
3.77478344493701
 30
0.0
 11
7.033333129028545
 21
3.77478344493701
 31
0.0
  0
LINE
  5
2CE0
330
1E
100
AcDbEntity
  8
7
100
AcDbLine
 10
6.929998154002952
 20
3.924865194378936
 30
0.0
 11
6.898013518875985
 21
4.077407300369094
 31
0.0
  0
LINE
  5
2CE1
330
1E
100
AcDbEntity
  8
7
100
AcDbLine
 10
6.898013518875985
 20
4.077407300369094
 30
0.0
 11
6.84634603136319
 21
4.222568336714569
 31
0.0
  0
LINE
  5
2CE2
330
1E
100
AcDbEntity
  8
7
100
AcDbLine
 10
6.84634603136319
 20
4.222568336714569
 30
0.0
 11
6.774995691464567
 21
4.360348303415356
 31
0.0
  0
LINE
  5
2CE3
330
1E
100
AcDbEntity
  8
7
100
AcDbLine
 10
6.774995691464567
 20
4.360348303415356
 30
0.0
 11
6.683962499180118
 21
4.488286843923228
 31
0.0
  0
LINE
  5
2CE4
330
1E
100
AcDbEntity
  8
7
100
AcDbLine
 10
6.683962499180118
 20
4.488286843923228
 30
0.0
 11
6.5781671676063
 21
4.601463245141733
 31
0.0
  0
LINE
  5
2CE5
330
1E
100
AcDbEntity
  8
7
100
AcDbLine
 10
6.5781671676063
 20
4.601463245141733
 30
0.0
 11
6.457609696743111
 21
4.697417150522639
 31
0.0
  0
LINE
  5
2CE6
330
1E
100
AcDbEntity
  8
7
100
AcDbLine
 10
6.457609696743111
 20
4.697417150522639
 30
0.0
 11
6.322290086590551
 21
4.778608916614174
 31
0.0
  0
LINE
  5
2CE7
330
1E
100
AcDbEntity
  8
7
100
AcDbLine
 10
6.991507067708663
 20
3.924865194378936
 30
0.0
 11
6.959522432581692
 21
4.08724872656201
 31
0.0
  0
LINE
  5
2CE8
330
1E
100
AcDbEntity
  8
7
100
AcDbLine
 10
6.959522432581692
 20
4.08724872656201
 30
0.0
 11
6.90539458852067
 21
4.242251189100396
 31
0.0
  0
LINE
  5
2CE9
330
1E
100
AcDbEntity
  8
7
100
AcDbLine
 10
6.90539458852067
 20
4.242251189100396
 30
0.0
 11
6.829123535525591
 21
4.389872581994094
 31
0.0
  0
LINE
  5
2CEA
330
1E
100
AcDbEntity
  8
7
100
AcDbLine
 10
6.829123535525591
 20
4.389872581994094
 30
0.0
 11
6.735629986692913
 21
4.525192192146653
 31
0.0
  0
LINE
  5
2CEB
330
1E
100
AcDbEntity
  8
7
100
AcDbLine
 10
6.735629986692913
 20
4.525192192146653
 30
0.0
 11
6.622453585474411
 21
4.645749663009842
 31
0.0
  0
LINE
  5
2CEC
330
1E
100
AcDbEntity
  8
7
100
AcDbLine
 10
6.622453585474411
 20
4.645749663009842
 30
0.0
 11
6.492054688418306
 21
4.749084638035431
 31
0.0
  0
LINE
  5
2CED
330
1E
100
AcDbEntity
  8
7
100
AcDbLine
 10
6.939839580195866
 20
3.814149149708663
 30
0.0
 11
6.939839580195866
 21
3.82891128899803
 31
0.0
  0
LINE
  5
2CEE
330
1E
100
AcDbEntity
  8
7
100
AcDbLine
 10
6.939839580195866
 20
3.82891128899803
 30
0.0
 11
6.939839580195866
 21
3.843673428287401
 31
0.0
  0
LINE
  5
2CEF
330
1E
100
AcDbEntity
  8
7
100
AcDbLine
 10
6.939839580195866
 20
3.843673428287401
 30
0.0
 11
6.937379223647639
 21
3.853514854480317
 31
0.0
  0
LINE
  5
2CF0
330
1E
100
AcDbEntity
  8
7
100
AcDbLine
 10
6.937379223647639
 20
3.853514854480317
 30
0.0
 11
6.937379223647639
 21
3.860895924125
 31
0.0
  0
LINE
  5
2CF1
330
1E
100
AcDbEntity
  8
7
100
AcDbLine
 10
6.937379223647639
 20
3.860895924125
 30
0.0
 11
6.937379223647639
 21
3.863356280673228
 31
0.0
  0
LINE
  5
2CF2
330
1E
100
AcDbEntity
  8
7
100
AcDbLine
 10
6.937379223647639
 20
3.863356280673228
 30
0.0
 11
6.937379223647639
 21
3.868276993769683
 31
0.0
  0
LINE
  5
2CF3
330
1E
100
AcDbEntity
  8
7
100
AcDbLine
 10
6.937379223647639
 20
3.868276993769683
 30
0.0
 11
6.937379223647639
 21
3.878118419962599
 31
0.0
  0
LINE
  5
2CF4
330
1E
100
AcDbEntity
  8
7
100
AcDbLine
 10
6.937379223647639
 20
3.878118419962599
 30
0.0
 11
6.93491886709941
 21
3.89288055925197
 31
0.0
  0
LINE
  5
2CF5
330
1E
100
AcDbEntity
  8
7
100
AcDbLine
 10
6.93491886709941
 20
3.89288055925197
 30
0.0
 11
6.932458510551181
 21
3.910103055089569
 31
0.0
  0
LINE
  5
2CF6
330
1E
100
AcDbEntity
  8
7
100
AcDbLine
 10
6.932458510551181
 20
3.910103055089569
 30
0.0
 11
6.932458510551181
 21
3.924865194378936
 31
0.0
  0
LINE
  5
2CF7
330
1E
100
AcDbEntity
  8
7
100
AcDbLine
 10
6.942299936744094
 20
3.77478344493701
 30
0.0
 11
6.942299936744094
 21
3.779704158033465
 31
0.0
  0
LINE
  5
2CF8
330
1E
100
AcDbEntity
  8
7
100
AcDbLine
 10
6.942299936744094
 20
3.779704158033465
 30
0.0
 11
6.942299936744094
 21
3.787085227678149
 31
0.0
  0
LINE
  5
2CF9
330
1E
100
AcDbEntity
  8
7
100
AcDbLine
 10
6.942299936744094
 20
3.787085227678149
 30
0.0
 11
6.942299936744094
 21
3.799387010419292
 31
0.0
  0
LINE
  5
2CFA
330
1E
100
AcDbEntity
  8
7
100
AcDbLine
 10
6.942299936744094
 20
3.799387010419292
 30
0.0
 11
6.939839580195866
 21
3.814149149708663
 31
0.0
  0
LINE
  5
2CFB
330
1E
100
AcDbEntity
  8
7
100
AcDbLine
 10
6.910315301617126
 20
3.77478344493701
 30
0.0
 11
6.957062076033465
 21
3.77478344493701
 31
0.0
  0
LINE
  5
2CFC
330
1E
100
AcDbEntity
  8
7
100
AcDbLine
 10
6.957062076033465
 20
3.77478344493701
 30
0.0
 11
6.991507067708663
 21
3.77478344493701
 31
0.0
  0
LINE
  5
2CFD
330
1E
100
AcDbEntity
  8
7
100
AcDbLine
 10
6.991507067708663
 20
3.77478344493701
 30
0.0
 11
7.003808850449804
 21
3.77478344493701
 31
0.0
  0
LINE
  5
2CFE
330
1E
100
AcDbEntity
  8
7
100
AcDbLine
 10
6.322290086590551
 20
4.778608916614174
 30
0.0
 11
6.179589406793307
 21
4.837657473771654
 31
0.0
  0
LINE
  5
2CFF
330
1E
100
AcDbEntity
  8
7
100
AcDbLine
 10
6.179589406793307
 20
4.837657473771654
 30
0.0
 11
6.029507657351378
 21
4.879483535091535
 31
0.0
  0
LINE
  5
2D00
330
1E
100
AcDbEntity
  8
7
100
AcDbLine
 10
6.029507657351378
 20
4.879483535091535
 30
0.0
 11
5.874505194812993
 21
4.896706030929133
 31
0.0
  0
LINE
  5
2D01
330
1E
100
AcDbEntity
  8
7
100
AcDbLine
 10
7.41222803745571
 20
3.77478344493701
 30
0.0
 11
7.458974811872047
 21
3.77478344493701
 31
0.0
  0
LINE
  5
2D02
330
1E
100
AcDbEntity
  8
7
100
AcDbLine
 10
7.458974811872047
 20
3.77478344493701
 30
0.0
 11
7.490959446999017
 21
3.77478344493701
 31
0.0
  0
LINE
  5
2D03
330
1E
100
AcDbEntity
  8
7
100
AcDbLine
 10
7.490959446999017
 20
3.77478344493701
 30
0.0
 11
7.503261229740158
 21
3.77478344493701
 31
0.0
  0
LINE
  5
2D04
330
1E
100
AcDbEntity
  8
7
100
AcDbLine
 10
6.624913942022638
 20
9.613209533882876
 30
0.0
 11
6.494515044966536
 21
9.613209533882876
 31
0.0
  0
LINE
  5
2D05
330
1E
100
AcDbEntity
  8
7
100
AcDbLine
 10
6.494515044966536
 20
9.613209533882876
 30
0.0
 11
6.35427472171752
 21
9.613209533882876
 31
0.0
  0
LINE
  5
2D06
330
1E
100
AcDbEntity
  8
7
100
AcDbLine
 10
6.35427472171752
 20
9.613209533882876
 30
0.0
 11
6.201732615727363
 21
9.613209533882876
 31
0.0
  0
LINE
  5
2D07
330
1E
100
AcDbEntity
  8
7
100
AcDbLine
 10
6.201732615727363
 20
9.613209533882876
 30
0.0
 11
6.04180944009252
 21
9.613209533882876
 31
0.0
  0
LINE
  5
2D08
330
1E
100
AcDbEntity
  8
7
100
AcDbLine
 10
6.04180944009252
 20
9.613209533882876
 30
0.0
 11
5.87696555136122
 21
9.613209533882876
 31
0.0
  0
LINE
  5
2D09
330
1E
100
AcDbEntity
  8
7
100
AcDbLine
 10
5.87696555136122
 20
9.613209533882876
 30
0.0
 11
5.857282698975394
 21
9.608288820786416
 31
0.0
  0
LINE
  5
2D0A
330
1E
100
AcDbEntity
  8
7
100
AcDbLine
 10
5.857282698975394
 20
9.608288820786416
 30
0.0
 11
5.840060203137796
 21
9.598447394593506
 31
0.0
  0
LINE
  5
2D0B
330
1E
100
AcDbEntity
  8
7
100
AcDbLine
 10
5.840060203137796
 20
9.598447394593506
 30
0.0
 11
5.825298063848426
 21
9.583685255304136
 31
0.0
  0
LINE
  5
2D0C
330
1E
100
AcDbEntity
  8
7
100
AcDbLine
 10
5.825298063848426
 20
9.583685255304136
 30
0.0
 11
5.81791699420374
 21
9.566462759466535
 31
0.0
  0
LINE
  5
2D0D
330
1E
100
AcDbEntity
  8
7
100
AcDbLine
 10
5.81791699420374
 20
9.566462759466535
 30
0.0
 11
5.815456637655512
 21
9.551700620177165
 31
0.0
  0
LINE
  5
2D0E
330
1E
100
AcDbEntity
  8
7
100
AcDbLine
 10
5.815456637655512
 20
8.09024883052953
 30
0.0
 11
5.820377350751969
 21
8.070565978143703
 31
0.0
  0
LINE
  5
2D0F
330
1E
100
AcDbEntity
  8
7
100
AcDbLine
 10
5.820377350751969
 20
8.070565978143703
 30
0.0
 11
5.830218776944882
 21
8.053343482306104
 31
0.0
  0
LINE
  5
2D10
330
1E
100
AcDbEntity
  8
7
100
AcDbLine
 10
5.830218776944882
 20
8.053343482306104
 30
0.0
 11
5.844980916234253
 21
8.038581343016733
 31
0.0
  0
LINE
  5
2D11
330
1E
100
AcDbEntity
  8
7
100
AcDbLine
 10
5.844980916234253
 20
8.038581343016733
 30
0.0
 11
5.862203412071851
 21
8.03120027337205
 31
0.0
  0
LINE
  5
2D12
330
1E
100
AcDbEntity
  8
7
100
AcDbLine
 10
5.862203412071851
 20
8.03120027337205
 30
0.0
 11
5.87696555136122
 21
8.028739916823818
 31
0.0
  0
LINE
  5
2D13
330
1E
100
AcDbEntity
  8
7
100
AcDbLine
 10
5.721963088822835
 20
9.51233491540551
 30
0.0
 11
5.704740592985237
 21
9.51233491540551
 31
0.0
  0
LINE
  5
2D14
330
1E
100
AcDbEntity
  8
7
100
AcDbLine
 10
5.704740592985237
 20
9.51233491540551
 30
0.0
 11
5.704740592985237
 21
8.16159917042815
 31
0.0
  0
LINE
  5
2D15
330
1E
100
AcDbEntity
  8
7
100
AcDbLine
 10
5.704740592985237
 20
8.16159917042815
 30
0.0
 11
5.660454175117126
 21
8.16159917042815
 31
0.0
  0
LINE
  5
2D16
330
1E
100
AcDbEntity
  8
7
100
AcDbLine
 10
5.731804515015749
 20
9.51233491540551
 30
0.0
 11
5.731804515015749
 21
8.16159917042815
 31
0.0
  0
LINE
  5
2D17
330
1E
100
AcDbEntity
  8
7
100
AcDbLine
 10
5.731804515015749
 20
8.16159917042815
 30
0.0
 11
5.721963088822835
 21
8.16159917042815
 31
0.0
  0
LINE
  5
2D18
330
1E
100
AcDbEntity
  8
7
100
AcDbLine
 10
5.721963088822835
 20
8.16159917042815
 30
0.0
 11
5.704740592985237
 21
8.16159917042815
 31
0.0
  0
LINE
  5
2D19
330
1E
100
AcDbEntity
  8
7
100
AcDbLine
 10
5.815456637655512
 20
8.16159917042815
 30
0.0
 11
5.766249506690946
 21
8.16159917042815
 31
0.0
  0
LINE
  5
2D1A
330
1E
100
AcDbEntity
  8
7
100
AcDbLine
 10
5.766249506690946
 20
8.16159917042815
 30
0.0
 11
5.731804515015749
 21
8.16159917042815
 31
0.0
  0
LINE
  5
2D1B
330
1E
100
AcDbEntity
  8
7
100
AcDbLine
 10
5.660454175117126
 20
8.050883125757877
 30
0.0
 11
5.660454175117126
 21
8.063184908499016
 31
0.0
  0
LINE
  5
2D1C
330
1E
100
AcDbEntity
  8
7
100
AcDbLine
 10
5.660454175117126
 20
8.063184908499016
 30
0.0
 11
5.660454175117126
 21
8.095169543625985
 31
0.0
  0
LINE
  5
2D1D
330
1E
100
AcDbEntity
  8
7
100
AcDbLine
 10
5.660454175117126
 20
8.095169543625985
 30
0.0
 11
5.660454175117126
 21
8.141916318042323
 31
0.0
  0
LINE
  5
2D1E
330
1E
100
AcDbEntity
  8
7
100
AcDbLine
 10
3.982491009225394
 20
9.413920653476377
 30
0.0
 11
4.024317070545276
 21
9.431143149313976
 31
0.0
  0
LINE
  5
2D1F
330
1E
100
AcDbEntity
  8
7
100
AcDbLine
 10
4.024317070545276
 20
9.431143149313976
 30
0.0
 11
4.041539566382874
 21
9.472969210633857
 31
0.0
  0
LINE
  5
2D20
330
1E
100
AcDbEntity
  8
7
100
AcDbLine
 10
4.041539566382874
 20
9.549240263628936
 30
0.0
 11
4.041539566382874
 21
9.541859193984253
 31
0.0
  0
LINE
  5
2D21
330
1E
100
AcDbEntity
  8
7
100
AcDbLine
 10
4.041539566382874
 20
9.541859193984253
 30
0.0
 11
4.041539566382874
 21
9.519715985050199
 31
0.0
  0
LINE
  5
2D22
330
1E
100
AcDbEntity
  8
7
100
AcDbLine
 10
3.982491009225394
 20
9.952738737538386
 30
0.0
 11
4.01693600090059
 21
9.965040520279529
 31
0.0
  0
LINE
  5
2D23
330
1E
100
AcDbEntity
  8
7
100
AcDbLine
 10
4.01693600090059
 20
9.965040520279529
 30
0.0
 11
4.039079209834646
 21
9.994564798858268
 31
0.0
  0
LINE
  5
2D24
330
1E
100
AcDbEntity
  8
7
100
AcDbLine
 10
4.039079209834646
 20
9.994564798858268
 30
0.0
 11
4.039079209834646
 21
10.02900979053346
 31
0.0
  0
LINE
  5
2D25
330
1E
100
AcDbEntity
  8
7
100
AcDbLine
 10
4.039079209834646
 20
10.02900979053346
 30
0.0
 11
4.01693600090059
 21
10.0585340691122
 31
0.0
  0
LINE
  5
2D26
330
1E
100
AcDbEntity
  8
7
100
AcDbLine
 10
4.01693600090059
 20
10.0585340691122
 30
0.0
 11
3.982491009225394
 21
10.07083585185334
 31
0.0
  0
LINE
  5
2D27
330
1E
100
AcDbEntity
  8
7
100
AcDbLine
 10
5.815456637655512
 20
9.51233491540551
 30
0.0
 11
5.766249506690946
 21
9.51233491540551
 31
0.0
  0
LINE
  5
2D28
330
1E
100
AcDbEntity
  8
7
100
AcDbLine
 10
5.766249506690946
 20
9.51233491540551
 30
0.0
 11
5.731804515015749
 21
9.51233491540551
 31
0.0
  0
LINE
  5
2D29
330
1E
100
AcDbEntity
  8
7
100
AcDbLine
 10
5.660454175117126
 20
9.549240263628936
 30
0.0
 11
5.660454175117126
 21
9.56154204637008
 31
0.0
  0
LINE
  5
2D2A
330
1E
100
AcDbEntity
  8
7
100
AcDbLine
 10
5.660454175117126
 20
9.56154204637008
 30
0.0
 11
5.660454175117126
 21
9.595987038045278
 31
0.0
  0
LINE
  5
2D2B
330
1E
100
AcDbEntity
  8
7
100
AcDbLine
 10
5.660454175117126
 20
9.595987038045278
 30
0.0
 11
5.660454175117126
 21
9.642733812461614
 31
0.0
  0
LINE
  5
2D2C
330
1E
100
AcDbEntity
  8
7
100
AcDbLine
 10
5.660454175117126
 20
9.519715985050199
 30
0.0
 11
5.660454175117126
 21
9.541859193984253
 31
0.0
  0
LINE
  5
2D2D
330
1E
100
AcDbEntity
  8
7
100
AcDbLine
 10
5.660454175117126
 20
9.541859193984253
 30
0.0
 11
5.660454175117126
 21
9.549240263628936
 31
0.0
  0
LINE
  5
2D2E
330
1E
100
AcDbEntity
  8
7
100
AcDbLine
 10
7.003808850449804
 20
8.14929738768701
 30
0.0
 11
7.003808850449804
 21
8.156678457331693
 31
0.0
  0
LINE
  5
2D2F
330
1E
100
AcDbEntity
  8
7
100
AcDbLine
 10
7.003808850449804
 20
8.156678457331693
 30
0.0
 11
7.003808850449804
 21
8.171440596621064
 31
0.0
  0
LINE
  5
2D30
330
1E
100
AcDbEntity
  8
7
100
AcDbLine
 10
7.003808850449804
 20
8.171440596621064
 30
0.0
 11
7.003808850449804
 21
8.183742379362204
 31
0.0
  0
LINE
  5
2D31
330
1E
100
AcDbEntity
  8
7
100
AcDbLine
 10
7.003808850449804
 20
8.183742379362204
 30
0.0
 11
7.003808850449804
 21
8.191123449006891
 31
0.0
  0
LINE
  5
2D32
330
1E
100
AcDbEntity
  8
7
100
AcDbLine
 10
7.003808850449804
 20
8.191123449006891
 30
0.0
 11
7.003808850449804
 21
8.193583805555119
 31
0.0
  0
LINE
  5
2D33
330
1E
100
AcDbEntity
  8
7
100
AcDbLine
 10
7.003808850449804
 20
8.193583805555119
 30
0.0
 11
7.001348493901576
 21
8.186202735910431
 31
0.0
  0
LINE
  5
2D34
330
1E
100
AcDbEntity
  8
7
100
AcDbLine
 10
7.001348493901576
 20
8.186202735910431
 30
0.0
 11
7.001348493901576
 21
8.173900953169292
 31
0.0
  0
LINE
  5
2D35
330
1E
100
AcDbEntity
  8
7
100
AcDbLine
 10
7.001348493901576
 20
8.173900953169292
 30
0.0
 11
7.001348493901576
 21
8.16159917042815
 31
0.0
  0
LINE
  5
2D36
330
1E
100
AcDbEntity
  8
7
100
AcDbLine
 10
7.001348493901576
 20
8.16159917042815
 30
0.0
 11
7.001348493901576
 21
8.14929738768701
 31
0.0
  0
LINE
  5
2D37
330
1E
100
AcDbEntity
  8
7
100
AcDbLine
 10
6.993967424256891
 20
8.028739916823818
 30
0.0
 11
6.996427780805118
 21
8.033660629920277
 31
0.0
  0
LINE
  5
2D38
330
1E
100
AcDbEntity
  8
7
100
AcDbLine
 10
6.996427780805118
 20
8.033660629920277
 30
0.0
 11
6.998888137353346
 21
8.043502056113188
 31
0.0
  0
LINE
  5
2D39
330
1E
100
AcDbEntity
  8
7
100
AcDbLine
 10
6.998888137353346
 20
8.043502056113188
 30
0.0
 11
7.001348493901576
 21
8.058264195402561
 31
0.0
  0
LINE
  5
2D3A
330
1E
100
AcDbEntity
  8
7
100
AcDbLine
 10
7.001348493901576
 20
8.058264195402561
 30
0.0
 11
7.001348493901576
 21
8.077947047788386
 31
0.0
  0
LINE
  5
2D3B
330
1E
100
AcDbEntity
  8
7
100
AcDbLine
 10
7.001348493901576
 20
8.077947047788386
 30
0.0
 11
7.001348493901576
 21
8.09024883052953
 31
0.0
  0
LINE
  5
2D3C
330
1E
100
AcDbEntity
  8
7
100
AcDbLine
 10
6.998888137353346
 20
8.117312752560041
 30
0.0
 11
7.001348493901576
 21
8.129614535301183
 31
0.0
  0
LINE
  5
2D3D
330
1E
100
AcDbEntity
  8
7
100
AcDbLine
 10
7.001348493901576
 20
8.129614535301183
 30
0.0
 11
7.001348493901576
 21
8.141916318042323
 31
0.0
  0
LINE
  5
2D3E
330
1E
100
AcDbEntity
  8
7
100
AcDbLine
 10
6.993967424256891
 20
8.028739916823818
 30
0.0
 11
6.961982789129921
 21
8.028739916823818
 31
0.0
  0
LINE
  5
2D3F
330
1E
100
AcDbEntity
  8
7
100
AcDbLine
 10
6.961982789129921
 20
8.028739916823818
 30
0.0
 11
6.907854945068899
 21
8.028739916823818
 31
0.0
  0
LINE
  5
2D40
330
1E
100
AcDbEntity
  8
7
100
AcDbLine
 10
6.907854945068899
 20
8.028739916823818
 30
0.0
 11
6.831583892073819
 21
8.028739916823818
 31
0.0
  0
LINE
  5
2D41
330
1E
100
AcDbEntity
  8
7
100
AcDbLine
 10
6.831583892073819
 20
8.028739916823818
 30
0.0
 11
6.738090343241143
 21
8.028739916823818
 31
0.0
  0
LINE
  5
2D42
330
1E
100
AcDbEntity
  8
7
100
AcDbLine
 10
6.738090343241143
 20
8.028739916823818
 30
0.0
 11
6.624913942022638
 21
8.028739916823818
 31
0.0
  0
LINE
  5
2D43
330
1E
100
AcDbEntity
  8
7
100
AcDbLine
 10
6.624913942022638
 20
8.028739916823818
 30
0.0
 11
6.494515044966536
 21
8.028739916823818
 31
0.0
  0
LINE
  5
2D44
330
1E
100
AcDbEntity
  8
7
100
AcDbLine
 10
6.494515044966536
 20
8.028739916823818
 30
0.0
 11
6.35427472171752
 21
8.028739916823818
 31
0.0
  0
LINE
  5
2D45
330
1E
100
AcDbEntity
  8
7
100
AcDbLine
 10
6.35427472171752
 20
8.028739916823818
 30
0.0
 11
6.201732615727363
 21
8.028739916823818
 31
0.0
  0
LINE
  5
2D46
330
1E
100
AcDbEntity
  8
7
100
AcDbLine
 10
6.201732615727363
 20
8.028739916823818
 30
0.0
 11
6.04180944009252
 21
8.028739916823818
 31
0.0
  0
LINE
  5
2D47
330
1E
100
AcDbEntity
  8
7
100
AcDbLine
 10
6.04180944009252
 20
8.028739916823818
 30
0.0
 11
5.87696555136122
 21
8.028739916823818
 31
0.0
  0
LINE
  5
2D48
330
1E
100
AcDbEntity
  8
7
100
AcDbLine
 10
7.001348493901576
 20
9.551700620177165
 30
0.0
 11
7.001348493901576
 21
9.571383472562992
 31
0.0
  0
LINE
  5
2D49
330
1E
100
AcDbEntity
  8
7
100
AcDbLine
 10
7.001348493901576
 20
9.571383472562992
 30
0.0
 11
6.998888137353346
 21
9.591066324948817
 31
0.0
  0
LINE
  5
2D4A
330
1E
100
AcDbEntity
  8
7
100
AcDbLine
 10
6.998888137353346
 20
9.591066324948817
 30
0.0
 11
6.998888137353346
 21
9.603368107689961
 31
0.0
  0
LINE
  5
2D4B
330
1E
100
AcDbEntity
  8
7
100
AcDbLine
 10
6.998888137353346
 20
9.603368107689961
 30
0.0
 11
6.996427780805118
 21
9.610749177334644
 31
0.0
  0
LINE
  5
2D4C
330
1E
100
AcDbEntity
  8
7
100
AcDbLine
 10
6.996427780805118
 20
9.610749177334644
 30
0.0
 11
6.993967424256891
 21
9.613209533882876
 31
0.0
  0
LINE
  5
2D4D
330
1E
100
AcDbEntity
  8
7
100
AcDbLine
 10
6.993967424256891
 20
9.613209533882876
 30
0.0
 11
6.961982789129921
 21
9.613209533882876
 31
0.0
  0
LINE
  5
2D4E
330
1E
100
AcDbEntity
  8
7
100
AcDbLine
 10
6.961982789129921
 20
9.613209533882876
 30
0.0
 11
6.907854945068899
 21
9.613209533882876
 31
0.0
  0
LINE
  5
2D4F
330
1E
100
AcDbEntity
  8
7
100
AcDbLine
 10
6.907854945068899
 20
9.613209533882876
 30
0.0
 11
6.831583892073819
 21
9.613209533882876
 31
0.0
  0
LINE
  5
2D50
330
1E
100
AcDbEntity
  8
7
100
AcDbLine
 10
6.831583892073819
 20
9.613209533882876
 30
0.0
 11
6.738090343241143
 21
9.613209533882876
 31
0.0
  0
LINE
  5
2D51
330
1E
100
AcDbEntity
  8
7
100
AcDbLine
 10
6.738090343241143
 20
9.613209533882876
 30
0.0
 11
6.624913942022638
 21
9.613209533882876
 31
0.0
  0
LINE
  5
2D52
330
1E
100
AcDbEntity
  8
7
100
AcDbLine
 10
7.003808850449804
 20
9.470508854085629
 30
0.0
 11
7.003808850449804
 21
9.477889923730316
 31
0.0
  0
LINE
  5
2D53
330
1E
100
AcDbEntity
  8
7
100
AcDbLine
 10
7.003808850449804
 20
9.477889923730316
 30
0.0
 11
7.003808850449804
 21
9.48773134992323
 31
0.0
  0
LINE
  5
2D54
330
1E
100
AcDbEntity
  8
7
100
AcDbLine
 10
7.003808850449804
 20
9.48773134992323
 30
0.0
 11
7.003808850449804
 21
9.5024934892126
 31
0.0
  0
LINE
  5
2D55
330
1E
100
AcDbEntity
  8
7
100
AcDbLine
 10
7.003808850449804
 20
9.5024934892126
 30
0.0
 11
7.003808850449804
 21
9.51233491540551
 31
0.0
  0
LINE
  5
2D56
330
1E
100
AcDbEntity
  8
7
100
AcDbLine
 10
7.001348493901576
 20
9.51233491540551
 30
0.0
 11
7.001348493901576
 21
9.497572776116143
 31
0.0
  0
LINE
  5
2D57
330
1E
100
AcDbEntity
  8
7
100
AcDbLine
 10
7.001348493901576
 20
9.497572776116143
 30
0.0
 11
7.001348493901576
 21
9.485270993374999
 31
0.0
  0
LINE
  5
2D58
330
1E
100
AcDbEntity
  8
7
100
AcDbLine
 10
7.001348493901576
 20
9.485270993374999
 30
0.0
 11
7.001348493901576
 21
9.475429567182086
 31
0.0
  0
LINE
  5
2D59
330
1E
100
AcDbEntity
  8
7
100
AcDbLine
 10
7.001348493901576
 20
9.475429567182086
 30
0.0
 11
7.003808850449804
 21
9.468048497537402
 31
0.0
  0
LINE
  5
2D5A
330
1E
100
AcDbEntity
  8
7
100
AcDbLine
 10
7.003808850449804
 20
9.468048497537402
 30
0.0
 11
7.003808850449804
 21
9.470508854085629
 31
0.0
  0
LINE
  5
2D5B
330
1E
100
AcDbEntity
  8
7
100
AcDbLine
 10
7.033333129028545
 20
9.549240263628936
 30
0.0
 11
7.013650276642717
 21
9.539398837436024
 31
0.0
  0
LINE
  5
2D5C
330
1E
100
AcDbEntity
  8
7
100
AcDbLine
 10
7.013650276642717
 20
9.539398837436024
 30
0.0
 11
7.003808850449804
 21
9.519715985050199
 31
0.0
  0
LINE
  5
2D5D
330
1E
100
AcDbEntity
  8
7
100
AcDbLine
 10
7.033333129028545
 20
9.610749177334644
 30
0.0
 11
7.016110633190945
 21
9.608288820786416
 31
0.0
  0
LINE
  5
2D5E
330
1E
100
AcDbEntity
  8
7
100
AcDbLine
 10
7.016110633190945
 20
9.608288820786416
 30
0.0
 11
6.996427780805118
 21
9.603368107689961
 31
0.0
  0
LINE
  5
2D5F
330
1E
100
AcDbEntity
  8
7
100
AcDbLine
 10
7.033333129028545
 20
9.549240263628936
 30
0.0
 11
7.41222803745571
 21
9.549240263628936
 31
0.0
  0
LINE
  5
2D60
330
1E
100
AcDbEntity
  8
7
100
AcDbLine
 10
7.41222803745571
 20
9.549240263628936
 30
0.0
 11
7.41222803745571
 21
9.613209533882876
 31
0.0
  0
LINE
  5
2D61
330
1E
100
AcDbEntity
  8
7
100
AcDbLine
 10
7.41222803745571
 20
9.613209533882876
 30
0.0
 11
7.431910889841537
 21
9.623050960075786
 31
0.0
  0
LINE
  5
2D62
330
1E
100
AcDbEntity
  8
7
100
AcDbLine
 10
7.431910889841537
 20
9.623050960075786
 30
0.0
 11
7.44175231603445
 21
9.642733812461614
 31
0.0
  0
LINE
  5
2D63
330
1E
100
AcDbEntity
  8
7
100
AcDbLine
 10
7.41222803745571
 20
9.551700620177165
 30
0.0
 11
7.456514455323819
 21
9.564002402918308
 31
0.0
  0
LINE
  5
2D64
330
1E
100
AcDbEntity
  8
7
100
AcDbLine
 10
7.456514455323819
 20
9.564002402918308
 30
0.0
 11
7.490959446999017
 21
9.595987038045278
 31
0.0
  0
LINE
  5
2D65
330
1E
100
AcDbEntity
  8
7
100
AcDbLine
 10
7.490959446999017
 20
9.595987038045278
 30
0.0
 11
7.503261229740158
 21
9.642733812461614
 31
0.0
  0
LINE
  5
2D66
330
1E
100
AcDbEntity
  8
7
100
AcDbLine
 10
3.982491009225394
 20
11.06235954078937
 30
0.0
 11
4.024317070545276
 21
11.07958203662697
 31
0.0
  0
LINE
  5
2D67
330
1E
100
AcDbEntity
  8
7
100
AcDbLine
 10
4.024317070545276
 20
11.07958203662697
 30
0.0
 11
4.041539566382874
 21
11.12140809794685
 31
0.0
  0
LINE
  5
2D68
330
1E
100
AcDbEntity
  8
7
100
AcDbLine
 10
3.982491009225394
 20
10.3537768548996
 30
0.0
 11
4.01693600090059
 21
10.36607863764074
 31
0.0
  0
LINE
  5
2D69
330
1E
100
AcDbEntity
  8
7
100
AcDbLine
 10
4.01693600090059
 20
10.36607863764074
 30
0.0
 11
4.039079209834646
 21
10.39560291621949
 31
0.0
  0
LINE
  5
2D6A
330
1E
100
AcDbEntity
  8
7
100
AcDbLine
 10
4.039079209834646
 20
10.39560291621949
 30
0.0
 11
4.039079209834646
 21
10.43004790789468
 31
0.0
  0
LINE
  5
2D6B
330
1E
100
AcDbEntity
  8
7
100
AcDbLine
 10
4.039079209834646
 20
10.43004790789468
 30
0.0
 11
4.01693600090059
 21
10.45957218647342
 31
0.0
  0
LINE
  5
2D6C
330
1E
100
AcDbEntity
  8
7
100
AcDbLine
 10
3.982491009225394
 20
10.7523546157126
 30
0.0
 11
4.01693600090059
 21
10.76465639845373
 31
0.0
  0
LINE
  5
2D6D
330
1E
100
AcDbEntity
  8
7
100
AcDbLine
 10
4.01693600090059
 20
10.76465639845373
 30
0.0
 11
4.039079209834646
 21
10.79418067703248
 31
0.0
  0
LINE
  5
2D6E
330
1E
100
AcDbEntity
  8
7
100
AcDbLine
 10
4.039079209834646
 20
10.79418067703248
 30
0.0
 11
4.039079209834646
 21
10.82862566870768
 31
0.0
  0
LINE
  5
2D6F
330
1E
100
AcDbEntity
  8
7
100
AcDbLine
 10
4.039079209834646
 20
10.82862566870768
 30
0.0
 11
4.01693600090059
 21
10.85814994728641
 31
0.0
  0
LINE
  5
2D70
330
1E
100
AcDbEntity
  8
7
100
AcDbLine
 10
4.01693600090059
 20
10.85814994728641
 30
0.0
 11
3.982491009225394
 21
10.87045173002756
 31
0.0
  0
LINE
  5
2D71
330
1E
100
AcDbEntity
  8
7
100
AcDbLine
 10
4.100588123540354
 20
11.21244129023129
 30
0.0
 11
4.058762062220472
 21
11.1952187943937
 31
0.0
  0
LINE
  5
2D72
330
1E
100
AcDbEntity
  8
7
100
AcDbLine
 10
4.058762062220472
 20
11.1952187943937
 30
0.0
 11
4.041539566382874
 21
11.15339273307381
 31
0.0
  0
LINE
  5
2D73
330
1E
100
AcDbEntity
  8
7
100
AcDbLine
 10
5.660454175117126
 20
11.08204239317519
 30
0.0
 11
5.650612748924213
 21
11.13124952413976
 31
0.0
  0
LINE
  5
2D74
330
1E
100
AcDbEntity
  8
7
100
AcDbLine
 10
5.650612748924213
 20
11.13124952413976
 30
0.0
 11
5.623548826893701
 21
11.17307558545964
 31
0.0
  0
LINE
  5
2D75
330
1E
100
AcDbEntity
  8
7
100
AcDbLine
 10
5.623548826893701
 20
11.17307558545964
 30
0.0
 11
5.581722765573819
 21
11.20013950749016
 31
0.0
  0
LINE
  5
2D76
330
1E
100
AcDbEntity
  8
7
100
AcDbLine
 10
5.581722765573819
 20
11.20013950749016
 30
0.0
 11
5.532515634609253
 21
11.20998093368307
 31
0.0
  0
LINE
  5
2D77
330
1E
100
AcDbEntity
  8
7
100
AcDbLine
 10
7.44175231603445
 20
11.08204239317519
 30
0.0
 11
7.44175231603445
 21
11.13124952413976
 31
0.0
  0
LINE
  5
2D78
330
1E
100
AcDbEntity
  8
7
100
AcDbLine
 10
7.44175231603445
 20
11.13124952413976
 30
0.0
 11
7.44175231603445
 21
11.17307558545964
 31
0.0
  0
LINE
  5
2D79
330
1E
100
AcDbEntity
  8
7
100
AcDbLine
 10
7.44175231603445
 20
11.17307558545964
 30
0.0
 11
7.44175231603445
 21
11.20259986403838
 31
0.0
  0
LINE
  5
2D7A
330
1E
100
AcDbEntity
  8
7
100
AcDbLine
 10
7.44175231603445
 20
11.20259986403838
 30
0.0
 11
7.44175231603445
 21
11.21244129023129
 31
0.0
  0
LINE
  5
2D7B
330
1E
100
AcDbEntity
  8
7
100
AcDbLine
 10
7.44175231603445
 20
11.21244129023129
 30
0.0
 11
7.503261229740158
 21
11.21244129023129
 31
0.0
  0
LINE
  5
2D7C
330
1E
100
AcDbEntity
  8
7
100
AcDbLine
 10
7.503261229740158
 20
11.21244129023129
 30
0.0
 11
7.503261229740158
 21
11.20259986403838
 31
0.0
  0
LINE
  5
2D7D
330
1E
100
AcDbEntity
  8
7
100
AcDbLine
 10
7.503261229740158
 20
11.20259986403838
 30
0.0
 11
7.503261229740158
 21
11.17307558545964
 31
0.0
  0
LINE
  5
2D7E
330
1E
100
AcDbEntity
  8
7
100
AcDbLine
 10
7.503261229740158
 20
11.17307558545964
 30
0.0
 11
7.503261229740158
 21
11.13124952413976
 31
0.0
  0
ENDSEC
  0
SECTION
  2
OBJECTS
  0
DICTIONARY
  5
C
330
0
100
AcDbDictionary
  3
ACAD_GROUP
350
D
  3
ACAD_LAYOUT
350
19
  3
ACAD_MLINESTYLE
350
16
  3
ACAD_PLOTSETTINGS
350
18
  3
ACAD_PLOTSTYLENAME
350
E
  3
ACDBHEADERROUNDTRIPXREC
350
2DB4
  0
DICTIONARY
  5
2DD7
330
1E
100
AcDbDictionary
280
     1
  3
ACAD_LAYOUTSELFREF
360
2DD8
  0
DICTIONARY
  5
2DD5
330
1A
100
AcDbDictionary
280
     1
  3
ACAD_LAYOUTSELFREF
360
2DD6
  0
DICTIONARY
  5
D
102
{ACAD_REACTORS
330
C
102
}
330
C
100
AcDbDictionary
  0
DICTIONARY
  5
19
102
{ACAD_REACTORS
330
C
102
}
330
C
100
AcDbDictionary
  0
DICTIONARY
  5
16
102
{ACAD_REACTORS
330
C
102
}
330
C
100
AcDbDictionary
  3
STANDARD
350
17
  0
DICTIONARY
  5
18
102
{ACAD_REACTORS
330
C
102
}
330
C
100
AcDbDictionary
  0
ACDBDICTIONARYWDFLT
  5
E
102
{ACAD_REACTORS
330
C
102
}
330
C
100
AcDbDictionary
281
     1
  3
Normal
350
F
100
AcDbDictionaryWithDefault
340
F
  0
DICTIONARY
  5
2DB4
102
{ACAD_REACTORS
330
C
102
}
330
C
100
AcDbDictionary
  3
CEPSNTYPE
350
2DBE
  3
DIMSTYLEDATA
350
2DC2
  3
FINGERPRINTGUID
350
2DBF
  3
HYPERLINKBASE
350
2DB7
  3
INSUNITS
350
2DBD
  3
LAYOUTDICT
350
2DB9
  3
LWETCUNION
350
2DBC
  3
PLOTSETDICT
350
2DBA
  3
PLOTSTYLNAMDICT
350
2DBB
  3
PSVPSCALE
350
2DC1
  3
PUCSBASE
350
2DC5
  3
PUCSORGBACK
350
2DCB
  3
PUCSORGBOTTOM
350
2DC7
  3
PUCSORGFRONT
350
2DCA
  3
PUCSORGLEFT
350
2DC8
  3
PUCSORGRIGHT
350
2DC9
  3
PUCSORGTOP
350
2DC6
  3
PUCSORTHOREF
350
2DC3
  3
PUCSORTHOVIEW
350
2DC4
  3
STYLESHEET
350
2DB8
  3
TSTACKALIGN
350
2DB5
  3
TSTACKSIZE
350
2DB6
  3
UCSBASE
350
2DCE
  3
UCSORGBACK
350
2DD4
  3
UCSORGBOTTOM
350
2DD0
  3
UCSORGFRONT
350
2DD3
  3
UCSORGLEFT
350
2DD1
  3
UCSORGRIGHT
350
2DD2
  3
UCSORGTOP
350
2DCF
  3
UCSORTHOREF
350
2DCC
  3
UCSORTHOVIEW
350
2DCD
  3
VERSIONGUID
350
2DC0
  0
XRECORD
  5
2DD8
102
{ACAD_REACTORS
330
2DD7
102
}
330
2DD7
100
AcDbXrecord
340
1E
  0
XRECORD
  5
2DD6
102
{ACAD_REACTORS
330
2DD5
102
}
330
2DD5
100
AcDbXrecord
340
1A
  0
MLINESTYLE
  5
17
102
{ACAD_REACTORS
330
16
102
}
330
16
100
AcDbMlineStyle
  2
STANDARD
 70
     0
  3

 62
   256
 51
90.0
 52
90.0
 71
     2
 49
0.5
 62
   256
  6
BYLAYER
 49
-0.5
 62
   256
  6
BYLAYER
  0
ACDBPLACEHOLDER
  5
F
102
{ACAD_REACTORS
330
E
102
}
330
E
100
AcDbPlaceHolder
280
     0
  0
XRECORD
  5
2DBE
102
{ACAD_REACTORS
330
2DB4
102
}
330
2DB4
100
AcDbXrecord
 90
        0
  0
XRECORD
  5
2DC2
102
{ACAD_REACTORS
330
2DB4
102
}
330
2DB4
100
AcDbXrecord
1000
DSTYLE
1002
{
1070
   279
 70
     2
1002
}
  0
XRECORD
  5
2DBF
102
{ACAD_REACTORS
330
2DB4
102
}
330
2DB4
100
AcDbXrecord
  1
{018F1BD7-5944-11D6-B7CF-00B0D0207C23}
  0
XRECORD
  5
2DB7
102
{ACAD_REACTORS
330
2DB4
102
}
330
2DB4
100
AcDbXrecord
  1

  0
XRECORD
  5
2DBD
102
{ACAD_REACTORS
330
2DB4
102
}
330
2DB4
100
AcDbXrecord
 90
        0
  0
XRECORD
  5
2DB9
102
{ACAD_REACTORS
330
2DB4
102
}
330
2DB4
100
AcDbXrecord
340
19
  0
XRECORD
  5
2DBC
102
{ACAD_REACTORS
330
2DB4
102
}
330
2DB4
100
AcDbXrecord
 90
    14877
  0
XRECORD
  5
2DBA
102
{ACAD_REACTORS
330
2DB4
102
}
330
2DB4
100
AcDbXrecord
340
18
  0
XRECORD
  5
2DBB
102
{ACAD_REACTORS
330
2DB4
102
}
330
2DB4
100
AcDbXrecord
340
E
  0
XRECORD
  5
2DC1
102
{ACAD_REACTORS
330
2DB4
102
}
330
2DB4
100
AcDbXrecord
 40
0.0
  0
XRECORD
  5
2DC5
102
{ACAD_REACTORS
330
2DB4
102
}
330
2DB4
100
AcDbXrecord
340
0
  0
XRECORD
  5
2DCB
102
{ACAD_REACTORS
330
2DB4
102
}
330
2DB4
100
AcDbXrecord
 10
0.0
 20
0.0
 30
0.0
  0
XRECORD
  5
2DC7
102
{ACAD_REACTORS
330
2DB4
102
}
330
2DB4
100
AcDbXrecord
 10
0.0
 20
0.0
 30
0.0
  0
XRECORD
  5
2DCA
102
{ACAD_REACTORS
330
2DB4
102
}
330
2DB4
100
AcDbXrecord
 10
0.0
 20
0.0
 30
0.0
  0
XRECORD
  5
2DC8
102
{ACAD_REACTORS
330
2DB4
102
}
330
2DB4
100
AcDbXrecord
 10
0.0
 20
0.0
 30
0.0
  0
XRECORD
  5
2DC9
102
{ACAD_REACTORS
330
2DB4
102
}
330
2DB4
100
AcDbXrecord
 10
0.0
 20
0.0
 30
0.0
  0
XRECORD
  5
2DC6
102
{ACAD_REACTORS
330
2DB4
102
}
330
2DB4
100
AcDbXrecord
 10
0.0
 20
0.0
 30
0.0
  0
XRECORD
  5
2DC3
102
{ACAD_REACTORS
330
2DB4
102
}
330
2DB4
100
AcDbXrecord
340
0
  0
XRECORD
  5
2DC4
102
{ACAD_REACTORS
330
2DB4
102
}
330
2DB4
100
AcDbXrecord
 70
     0
  0
XRECORD
  5
2DB8
102
{ACAD_REACTORS
330
2DB4
102
}
330
2DB4
100
AcDbXrecord
  1

  0
XRECORD
  5
2DB5
102
{ACAD_REACTORS
330
2DB4
102
}
330
2DB4
100
AcDbXrecord
 90
        1
  0
XRECORD
  5
2DB6
102
{ACAD_REACTORS
330
2DB4
102
}
330
2DB4
100
AcDbXrecord
 90
       70
  0
XRECORD
  5
2DCE
102
{ACAD_REACTORS
330
2DB4
102
}
330
2DB4
100
AcDbXrecord
340
0
  0
XRECORD
  5
2DD4
102
{ACAD_REACTORS
330
2DB4
102
}
330
2DB4
100
AcDbXrecord
 10
0.0
 20
0.0
 30
0.0
  0
XRECORD
  5
2DD0
102
{ACAD_REACTORS
330
2DB4
102
}
330
2DB4
100
AcDbXrecord
 10
0.0
 20
0.0
 30
0.0
  0
XRECORD
  5
2DD3
102
{ACAD_REACTORS
330
2DB4
102
}
330
2DB4
100
AcDbXrecord
 10
0.0
 20
0.0
 30
0.0
  0
XRECORD
  5
2DD1
102
{ACAD_REACTORS
330
2DB4
102
}
330
2DB4
100
AcDbXrecord
 10
0.0
 20
0.0
 30
0.0
  0
XRECORD
  5
2DD2
102
{ACAD_REACTORS
330
2DB4
102
}
330
2DB4
100
AcDbXrecord
 10
0.0
 20
0.0
 30
0.0
  0
XRECORD
  5
2DCF
102
{ACAD_REACTORS
330
2DB4
102
}
330
2DB4
100
AcDbXrecord
 10
0.0
 20
0.0
 30
0.0
  0
XRECORD
  5
2DCC
102
{ACAD_REACTORS
330
2DB4
102
}
330
2DB4
100
AcDbXrecord
340
0
  0
XRECORD
  5
2DCD
102
{ACAD_REACTORS
330
2DB4
102
}
330
2DB4
100
AcDbXrecord
 70
     0
  0
XRECORD
  5
2DC0
102
{ACAD_REACTORS
330
2DB4
102
}
330
2DB4
100
AcDbXrecord
  1
{018F1BDA-5944-11D6-B7CF-00B0D0207C23}
  0
ENDSEC
  0
EOF
