  0
SECTION
  2
HEADER
  9
$ACADVER
  1
AC1012
  9
$DWGCODEPAGE
  3
ANSI_1252
  9
$INSBASE
 10
0.0
 20
0.0
 30
0.0
  9
$EXTMIN
 10
2.596069366899399
 20
3.95137026481257
 30
-0.0015258207003583
  9
$EXTMAX
 10
5.440612813272295
 20
7.074920673010545
 30
0.0000000349246037
  9
$LIMMIN
 10
0.0
 20
0.0
  9
$LIMMAX
 10
12.0
 20
9.0
  9
$ORTHOMODE
 70
     0
  9
$REGENMODE
 70
     1
  9
$FILLMODE
 70
     1
  9
$QTEXTMODE
 70
     0
  9
$MIRRTEXT
 70
     1
  9
$DRAGMODE
 70
     2
  9
$LTSCALE
 40
1.0
  9
$OSMODE
 70
   547
  9
$ATTMODE
 70
     1
  9
$TEXTSIZE
 40
0.2
  9
$TRACEWID
 40
0.05
  9
$TEXTSTYLE
  7
STANDARD
  9
$CLAYER
  8
0
  9
$CELTYPE
  6
BYLAYER
  9
$CECOLOR
 62
   256
  9
$CELTSCALE
 40
1.0
  9
$DELOBJ
 70
     1
  9
$DISPSILH
 70
     0
  9
$DIMSCALE
 40
1.0
  9
$DIMASZ
 40
0.18
  9
$DIMEXO
 40
0.0625
  9
$DIMDLI
 40
0.38
  9
$DIMRND
 40
0.0
  9
$DIMDLE
 40
0.0
  9
$DIMEXE
 40
0.18
  9
$DIMTP
 40
0.0
  9
$DIMTM
 40
0.0
  9
$DIMTXT
 40
0.18
  9
$DIMCEN
 40
0.09
  9
$DIMTSZ
 40
0.0
  9
$DIMTOL
 70
     0
  9
$DIMLIM
 70
     0
  9
$DIMTIH
 70
     1
  9
$DIMTOH
 70
     1
  9
$DIMSE1
 70
     0
  9
$DIMSE2
 70
     0
  9
$DIMTAD
 70
     0
  9
$DIMZIN
 70
     0
  9
$DIMBLK
  1

  9
$DIMASO
 70
     1
  9
$DIMSHO
 70
     1
  9
$DIMPOST
  1

  9
$DIMAPOST
  1

  9
$DIMALT
 70
     0
  9
$DIMALTD
 70
     2
  9
$DIMALTF
 40
25.4
  9
$DIMLFAC
 40
1.0
  9
$DIMTOFL
 70
     0
  9
$DIMTVP
 40
0.0
  9
$DIMTIX
 70
     0
  9
$DIMSOXD
 70
     0
  9
$DIMSAH
 70
     0
  9
$DIMBLK1
  1

  9
$DIMBLK2
  1

  9
$DIMSTYLE
  2
STANDARD
  9
$DIMCLRD
 70
     0
  9
$DIMCLRE
 70
     0
  9
$DIMCLRT
 70
     0
  9
$DIMTFAC
 40
1.0
  9
$DIMGAP
 40
0.09
  9
$DIMJUST
 70
     0
  9
$DIMSD1
 70
     0
  9
$DIMSD2
 70
     0
  9
$DIMTOLJ
 70
     1
  9
$DIMTZIN
 70
     0
  9
$DIMALTZ
 70
     0
  9
$DIMALTTZ
 70
     0
  9
$DIMFIT
 70
     5
  9
$DIMUPT
 70
     0
  9
$DIMUNIT
 70
     2
  9
$DIMDEC
 70
     4
  9
$DIMTDEC
 70
     4
  9
$DIMALTU
 70
     2
  9
$DIMALTTD
 70
     2
  9
$DIMTXSTY
  7
STANDARD
  9
$DIMAUNIT
 70
     0
  9
$LUNITS
 70
     2
  9
$LUPREC
 70
     4
  9
$SKETCHINC
 40
0.1
  9
$FILLETRAD
 40
0.0
  9
$AUNITS
 70
     0
  9
$AUPREC
 70
     0
  9
$MENU
  1
acad
  9
$ELEVATION
 40
0.0
  9
$PELEVATION
 40
0.0
  9
$THICKNESS
 40
0.0
  9
$LIMCHECK
 70
     0
  9
$BLIPMODE
 70
     0
  9
$CHAMFERA
 40
0.0
  9
$CHAMFERB
 40
0.0
  9
$CHAMFERC
 40
0.0
  9
$CHAMFERD
 40
0.0
  9
$SKPOLY
 70
     0
  9
$TDCREATE
 40
2454019.484861111
  9
$TDUPDATE
 40
2454019.524913853
  9
$TDINDWG
 40
0.0006118056
  9
$TDUSRTIMER
 40
0.0006118056
  9
$USRTIMER
 70
     1
  9
$ANGBASE
 50
0.0
  9
$ANGDIR
 70
     0
  9
$PDMODE
 70
     0
  9
$PDSIZE
 40
0.0
  9
$PLINEWID
 40
0.0
  9
$COORDS
 70
     1
  9
$SPLFRAME
 70
     0
  9
$SPLINETYPE
 70
     6
  9
$SPLINESEGS
 70
     8
  9
$ATTDIA
 70
     0
  9
$ATTREQ
 70
     1
  9
$HANDLING
 70
  4097
  9
$HANDSEED
  5
2A4B
  9
$SURFTAB1
 70
     6
  9
$SURFTAB2
 70
     6
  9
$SURFTYPE
 70
     6
  9
$SURFU
 70
     6
  9
$SURFV
 70
     6
  9
$UCSNAME
  2

  9
$UCSORG
 10
0.0
 20
0.0
 30
0.0
  9
$UCSXDIR
 10
1.0
 20
0.0
 30
0.0
  9
$UCSYDIR
 10
0.0
 20
1.0
 30
0.0
  9
$PUCSNAME
  2

  9
$PUCSORG
 10
0.0
 20
0.0
 30
0.0
  9
$PUCSXDIR
 10
1.0
 20
0.0
 30
0.0
  9
$PUCSYDIR
 10
0.0
 20
1.0
 30
0.0
  9
$USERI1
 70
     0
  9
$USERI2
 70
     0
  9
$USERI3
 70
     0
  9
$USERI4
 70
     0
  9
$USERI5
 70
     0
  9
$USERR1
 40
0.0
  9
$USERR2
 40
0.0
  9
$USERR3
 40
0.0
  9
$USERR4
 40
0.0
  9
$USERR5
 40
0.0
  9
$WORLDVIEW
 70
     1
  9
$SHADEDGE
 70
     3
  9
$SHADEDIF
 70
    70
  9
$TILEMODE
 70
     1
  9
$MAXACTVP
 70
    16
  9
$PINSBASE
 10
0.0
 20
0.0
 30
0.0
  9
$PLIMCHECK
 70
     0
  9
$PEXTMIN
 10
1.000000000000000E+20
 20
1.000000000000000E+20
 30
1.000000000000000E+20
  9
$PEXTMAX
 10
-1.000000000000000E+20
 20
-1.000000000000000E+20
 30
-1.000000000000000E+20
  9
$PLIMMIN
 10
0.0
 20
0.0
  9
$PLIMMAX
 10
12.0
 20
9.0
  9
$UNITMODE
 70
     0
  9
$VISRETAIN
 70
     0
  9
$PLINEGEN
 70
     0
  9
$PSLTSCALE
 70
     1
  9
$TREEDEPTH
 70
  3020
  9
$PICKSTYLE
 70
     1
  9
$CMLSTYLE
  2
STANDARD
  9
$CMLJUST
 70
     0
  9
$CMLSCALE
 40
1.0
  9
$SAVEIMAGES
 70
     1
  0
ENDSEC
  0
SECTION
  2
CLASSES
  0
CLASS
  1
ACDBDICTIONARYWDFLT
  2
AcDbDictionaryWithDefault
  3
AutoCAD 2000
 90
    32768
280
     0
281
     0
  0
CLASS
  1
ACDBPLACEHOLDER
  2
AcDbPlaceHolder
  3
AutoCAD 2000
 90
    32768
280
     0
281
     0
  0
CLASS
  1
LAYOUT
  2
AcDbLayout
  3
AutoCAD 2000
 90
    32768
280
     0
281
     0
  0
CLASS
  1
LONG_TRANSACTION
  2
AcDbLongTransaction
  3
AutoCAD 2000
 90
    32768
280
     0
281
     0
  0
CLASS
  1
LWPOLYLINE
  2
AcDbPolyline
  3
AutoCAD 2000
 90
    32768
280
     0
281
     1
  0
CLASS
  1
HATCH
  2
AcDbHatch
  3
AutoCAD 2000
 90
    32768
280
     0
281
     1
  0
CLASS
  1
XRECORD
  2
AcDbXrecord
  3
AutoCAD 2000
 90
    32768
280
     0
281
     0
  0
ENDSEC
  0
SECTION
  2
TABLES
  0
TABLE
  2
VPORT
  5
8
330
0
100
AcDbSymbolTable
 70
     5
  0
VPORT
  5
297B
330
8
100
AcDbSymbolTableRecord
100
AcDbViewportTableRecord
  2
*ACTIVE
 70
     0
 10
0.0
 20
0.0
 11
1.0
 21
1.0
 12
4.018341090085847
 22
5.513145468911558
 13
0.0
 23
0.0
 14
1.0
 24
1.0
 15
0.0
 25
0.0
 16
0.0
 26
0.0
 36
1.0
 17
0.0
 27
0.0
 37
0.0
 40
3.158450412758845
 41
1.740671641791044
 42
50.0
 43
0.0
 44
0.0
 50
0.0
 51
0.0
 71
     0
 72
   100
 73
     1
 74
     1
 75
     0
 76
     0
 77
     0
 78
     0
  0
ENDTAB
  0
TABLE
  2
LTYPE
  5
5
330
0
100
AcDbSymbolTable
 70
    25
  0
LTYPE
  5
13
330
5
100
AcDbSymbolTableRecord
100
AcDbLinetypeTableRecord
  2
BYBLOCK
 70
     0
  3

 72
    65
 73
     0
 40
0.0
  0
LTYPE
  5
14
330
5
100
AcDbSymbolTableRecord
100
AcDbLinetypeTableRecord
  2
BYLAYER
 70
     0
  3

 72
    65
 73
     0
 40
0.0
  0
LTYPE
  5
15
330
5
100
AcDbSymbolTableRecord
100
AcDbLinetypeTableRecord
  2
CONTINUOUS
 70
     0
  3
Solid line
 72
    65
 73
     0
 40
0.0
  0
LTYPE
  5
22
330
5
100
AcDbSymbolTableRecord
100
AcDbLinetypeTableRecord
  2
BORDER
 70
     0
  3
__ __ . __ __ . __ __ . __ __ . __ __ . __ __ .
 72
    65
 73
     6
 40
1.75
 49
0.5
 74
     0
 49
-0.25
 74
     0
 49
0.5
 74
     0
 49
-0.25
 74
     0
 49
0.5
 74
     0
 49
-0.25
 74
     0
  0
LTYPE
  5
23
330
5
100
AcDbSymbolTableRecord
100
AcDbLinetypeTableRecord
  2
BORDER2
 70
     0
  3
__.__.__.__.__.__.__.__.
 72
    65
 73
     6
 40
0.875
 49
0.25
 74
     0
 49
-0.125
 74
     0
 49
0.25
 74
     0
 49
-0.125
 74
     0
 49
0.25
 74
     0
 49
-0.125
 74
     0
  0
LTYPE
  5
24
330
5
100
AcDbSymbolTableRecord
100
AcDbLinetypeTableRecord
  2
BORDERX2
 70
     0
  3
____  ____  .  
 72
    65
 73
     6
 40
3.5
 49
1.0
 74
     0
 49
-0.5
 74
     0
 49
1.0
 74
     0
 49
-0.5
 74
     0
 49
1.0
 74
     0
 49
-0.5
 74
     0
  0
LTYPE
  5
25
330
5
100
AcDbSymbolTableRecord
100
AcDbLinetypeTableRecord
  2
CENTER
 70
     0
  3
____ _ ____ _ ____ _ 
 72
    65
 73
     4
 40
2.0
 49
1.25
 74
     0
 49
-0.25
 74
     0
 49
0.25
 74
     0
 49
-0.25
 74
     0
  0
LTYPE
  5
26
330
5
100
AcDbSymbolTableRecord
100
AcDbLinetypeTableRecord
  2
CENTER2
 70
     0
  3
____ _ ____ _ ____ _ 
 72
    65
 73
     4
 40
1.125
 49
0.75
 74
     0
 49
-0.125
 74
     0
 49
0.125
 74
     0
 49
-0.125
 74
     0
  0
LTYPE
  5
27
330
5
100
AcDbSymbolTableRecord
100
AcDbLinetypeTableRecord
  2
CENTERX2
 70
     0
  3
________  __  
 72
    65
 73
     4
 40
4.0
 49
2.5
 74
     0
 49
-0.5
 74
     0
 49
0.5
 74
     0
 49
-0.5
 74
     0
  0
LTYPE
  5
28
330
5
100
AcDbSymbolTableRecord
100
AcDbLinetypeTableRecord
  2
DASHDOT
 70
     0
  3
__ . __ . __ . __ . 
 72
    65
 73
     4
 40
1.0
 49
0.5
 74
     0
 49
-0.25
 74
     0
 49
0.0
 74
     0
 49
-0.25
 74
     0
  0
LTYPE
  5
29
330
5
100
AcDbSymbolTableRecord
100
AcDbLinetypeTableRecord
  2
DASHDOT2
 70
     0
  3
_._._._._._._._._.
 72
    65
 73
     4
 40
0.5
 49
0.25
 74
     0
 49
-0.125
 74
     0
 49
0.0
 74
     0
 49
-0.125
 74
     0
  0
LTYPE
  5
2A
330
5
100
AcDbSymbolTableRecord
100
AcDbLinetypeTableRecord
  2
DASHDOTX2
 70
     0
  3
____  .  ____  .  
 72
    65
 73
     4
 40
2.0
 49
1.0
 74
     0
 49
-0.5
 74
     0
 49
0.0
 74
     0
 49
-0.5
 74
     0
  0
LTYPE
  5
2B
330
5
100
AcDbSymbolTableRecord
100
AcDbLinetypeTableRecord
  2
DASHED
 70
     0
  3
__ __ __ __ __ __ __ 
 72
    65
 73
     2
 40
0.75
 49
0.5
 74
     0
 49
-0.25
 74
     0
  0
LTYPE
  5
2C
330
5
100
AcDbSymbolTableRecord
100
AcDbLinetypeTableRecord
  2
DASHED2
 70
     0
  3
_ _ _ _ _ _ _ _ _ _ 
 72
    65
 73
     2
 40
0.375
 49
0.25
 74
     0
 49
-0.125
 74
     0
  0
LTYPE
  5
2D
330
5
100
AcDbSymbolTableRecord
100
AcDbLinetypeTableRecord
  2
DASHEDX2
 70
     0
  3
____  ____  ____  
 72
    65
 73
     2
 40
1.5
 49
1.0
 74
     0
 49
-0.5
 74
     0
  0
LTYPE
  5
2E
330
5
100
AcDbSymbolTableRecord
100
AcDbLinetypeTableRecord
  2
DIVIDE
 70
     0
  3
____ . . ____ . . 
 72
    65
 73
     6
 40
1.25
 49
0.5
 74
     0
 49
-0.25
 74
     0
 49
0.0
 74
     0
 49
-0.25
 74
     0
 49
0.0
 74
     0
 49
-0.25
 74
     0
  0
LTYPE
  5
2F
330
5
100
AcDbSymbolTableRecord
100
AcDbLinetypeTableRecord
  2
DIVIDE2
 70
     0
  3
__..__..__..__..__..
 72
    65
 73
     6
 40
0.625
 49
0.25
 74
     0
 49
-0.125
 74
     0
 49
0.0
 74
     0
 49
-0.125
 74
     0
 49
0.0
 74
     0
 49
-0.125
 74
     0
  0
LTYPE
  5
30
330
5
100
AcDbSymbolTableRecord
100
AcDbLinetypeTableRecord
  2
DIVIDEX2
 70
     0
  3
________  .  .  
 72
    65
 73
     6
 40
2.5
 49
1.0
 74
     0
 49
-0.5
 74
     0
 49
0.0
 74
     0
 49
-0.5
 74
     0
 49
0.0
 74
     0
 49
-0.5
 74
     0
  0
LTYPE
  5
31
330
5
100
AcDbSymbolTableRecord
100
AcDbLinetypeTableRecord
  2
DOT
 70
     0
  3
. . . . . . . . . 
 72
    65
 73
     2
 40
0.25
 49
0.0
 74
     0
 49
-0.25
 74
     0
  0
LTYPE
  5
32
330
5
100
AcDbSymbolTableRecord
100
AcDbLinetypeTableRecord
  2
DOT2
 70
     0
  3
..................
 72
    65
 73
     2
 40
0.125
 49
0.0
 74
     0
 49
-0.125
 74
     0
  0
LTYPE
  5
33
330
5
100
AcDbSymbolTableRecord
100
AcDbLinetypeTableRecord
  2
DOTX2
 70
     0
  3
.  .  .  .  .  .  
 72
    65
 73
     2
 40
0.5
 49
0.0
 74
     0
 49
-0.5
 74
     0
  0
LTYPE
  5
34
330
5
100
AcDbSymbolTableRecord
100
AcDbLinetypeTableRecord
  2
HIDDEN
 70
     0
  3
__ __ __ __ __ __ 
 72
    65
 73
     2
 40
0.375
 49
0.25
 74
     0
 49
-0.125
 74
     0
  0
LTYPE
  5
35
330
5
100
AcDbSymbolTableRecord
100
AcDbLinetypeTableRecord
  2
HIDDEN2
 70
     0
  3
_ _ _ _ _ _ _ _ _ 
 72
    65
 73
     2
 40
0.1875
 49
0.125
 74
     0
 49
-0.0625
 74
     0
  0
LTYPE
  5
36
330
5
100
AcDbSymbolTableRecord
100
AcDbLinetypeTableRecord
  2
HIDDENX2
 70
     0
  3
____ ____ ____ ____ 
 72
    65
 73
     2
 40
0.75
 49
0.5
 74
     0
 49
-0.25
 74
     0
  0
LTYPE
  5
37
330
5
100
AcDbSymbolTableRecord
100
AcDbLinetypeTableRecord
  2
PHANTOM
 70
     0
  3
______  __  __  
 72
    65
 73
     6
 40
2.5
 49
1.25
 74
     0
 49
-0.25
 74
     0
 49
0.25
 74
     0
 49
-0.25
 74
     0
 49
0.25
 74
     0
 49
-0.25
 74
     0
  0
LTYPE
  5
38
330
5
100
AcDbSymbolTableRecord
100
AcDbLinetypeTableRecord
  2
PHANTOM2
 70
     0
  3
___ _ _ ___ _ _ 
 72
    65
 73
     6
 40
1.25
 49
0.625
 74
     0
 49
-0.125
 74
     0
 49
0.125
 74
     0
 49
-0.125
 74
     0
 49
0.125
 74
     0
 49
-0.125
 74
     0
  0
LTYPE
  5
39
330
5
100
AcDbSymbolTableRecord
100
AcDbLinetypeTableRecord
  2
PHANTOMX2
 70
     0
  3
___ _ _ ___ _ _ 
 72
    65
 73
     6
 40
5.0
 49
2.5
 74
     0
 49
-0.5
 74
     0
 49
0.5
 74
     0
 49
-0.5
 74
     0
 49
0.5
 74
     0
 49
-0.5
 74
     0
  0
ENDTAB
  0
TABLE
  2
LAYER
  5
2
330
0
100
AcDbSymbolTable
 70
   257
  0
LAYER
  5
10
330
2
100
AcDbSymbolTableRecord
100
AcDbLayerTableRecord
  2
0
 70
     0
 62
     7
  6
CONTINUOUS
  0
LAYER
  5
3A
330
2
100
AcDbSymbolTableRecord
100
AcDbLayerTableRecord
  2
1
 70
     0
 62
     1
  6
CONTINUOUS
  0
LAYER
  5
3B
330
2
100
AcDbSymbolTableRecord
100
AcDbLayerTableRecord
  2
2
 70
     0
 62
     2
  6
CONTINUOUS
  0
LAYER
  5
3C
330
2
100
AcDbSymbolTableRecord
100
AcDbLayerTableRecord
  2
3
 70
     0
 62
     3
  6
CONTINUOUS
  0
LAYER
  5
3D
330
2
100
AcDbSymbolTableRecord
100
AcDbLayerTableRecord
  2
4
 70
     0
 62
     4
  6
CONTINUOUS
  0
LAYER
  5
3E
330
2
100
AcDbSymbolTableRecord
100
AcDbLayerTableRecord
  2
5
 70
     0
 62
     5
  6
CONTINUOUS
  0
LAYER
  5
3F
330
2
100
AcDbSymbolTableRecord
100
AcDbLayerTableRecord
  2
6
 70
     0
 62
     6
  6
CONTINUOUS
  0
LAYER
  5
40
330
2
100
AcDbSymbolTableRecord
100
AcDbLayerTableRecord
  2
7
 70
     0
 62
     7
  6
CONTINUOUS
  0
LAYER
  5
41
330
2
100
AcDbSymbolTableRecord
100
AcDbLayerTableRecord
  2
8
 70
     0
 62
     8
  6
CONTINUOUS
  0
LAYER
  5
42
330
2
100
AcDbSymbolTableRecord
100
AcDbLayerTableRecord
  2
9
 70
     0
 62
     9
  6
CONTINUOUS
  0
LAYER
  5
43
330
2
100
AcDbSymbolTableRecord
100
AcDbLayerTableRecord
  2
10
 70
     0
 62
    10
  6
CONTINUOUS
  0
LAYER
  5
44
330
2
100
AcDbSymbolTableRecord
100
AcDbLayerTableRecord
  2
11
 70
     0
 62
    11
  6
CONTINUOUS
  0
LAYER
  5
45
330
2
100
AcDbSymbolTableRecord
100
AcDbLayerTableRecord
  2
12
 70
     0
 62
    12
  6
CONTINUOUS
  0
LAYER
  5
46
330
2
100
AcDbSymbolTableRecord
100
AcDbLayerTableRecord
  2
13
 70
     0
 62
    13
  6
CONTINUOUS
  0
LAYER
  5
47
330
2
100
AcDbSymbolTableRecord
100
AcDbLayerTableRecord
  2
14
 70
     0
 62
    14
  6
CONTINUOUS
  0
LAYER
  5
48
330
2
100
AcDbSymbolTableRecord
100
AcDbLayerTableRecord
  2
15
 70
     0
 62
    15
  6
CONTINUOUS
  0
LAYER
  5
49
330
2
100
AcDbSymbolTableRecord
100
AcDbLayerTableRecord
  2
16
 70
     0
 62
    16
  6
CONTINUOUS
  0
LAYER
  5
4A
330
2
100
AcDbSymbolTableRecord
100
AcDbLayerTableRecord
  2
17
 70
     0
 62
    17
  6
CONTINUOUS
  0
LAYER
  5
4B
330
2
100
AcDbSymbolTableRecord
100
AcDbLayerTableRecord
  2
18
 70
     0
 62
    18
  6
CONTINUOUS
  0
LAYER
  5
4C
330
2
100
AcDbSymbolTableRecord
100
AcDbLayerTableRecord
  2
19
 70
     0
 62
    19
  6
CONTINUOUS
  0
LAYER
  5
4D
330
2
100
AcDbSymbolTableRecord
100
AcDbLayerTableRecord
  2
20
 70
     0
 62
    20
  6
CONTINUOUS
  0
LAYER
  5
4E
330
2
100
AcDbSymbolTableRecord
100
AcDbLayerTableRecord
  2
21
 70
     0
 62
    21
  6
CONTINUOUS
  0
LAYER
  5
4F
330
2
100
AcDbSymbolTableRecord
100
AcDbLayerTableRecord
  2
22
 70
     0
 62
    22
  6
CONTINUOUS
  0
LAYER
  5
50
330
2
100
AcDbSymbolTableRecord
100
AcDbLayerTableRecord
  2
23
 70
     0
 62
    23
  6
CONTINUOUS
  0
LAYER
  5
51
330
2
100
AcDbSymbolTableRecord
100
AcDbLayerTableRecord
  2
24
 70
     0
 62
    24
  6
CONTINUOUS
  0
LAYER
  5
52
330
2
100
AcDbSymbolTableRecord
100
AcDbLayerTableRecord
  2
25
 70
     0
 62
    25
  6
CONTINUOUS
  0
LAYER
  5
53
330
2
100
AcDbSymbolTableRecord
100
AcDbLayerTableRecord
  2
26
 70
     0
 62
    26
  6
CONTINUOUS
  0
LAYER
  5
54
330
2
100
AcDbSymbolTableRecord
100
AcDbLayerTableRecord
  2
27
 70
     0
 62
    27
  6
CONTINUOUS
  0
LAYER
  5
55
330
2
100
AcDbSymbolTableRecord
100
AcDbLayerTableRecord
  2
28
 70
     0
 62
    28
  6
CONTINUOUS
  0
LAYER
  5
56
330
2
100
AcDbSymbolTableRecord
100
AcDbLayerTableRecord
  2
29
 70
     0
 62
    29
  6
CONTINUOUS
  0
LAYER
  5
57
330
2
100
AcDbSymbolTableRecord
100
AcDbLayerTableRecord
  2
30
 70
     0
 62
    30
  6
CONTINUOUS
  0
LAYER
  5
58
330
2
100
AcDbSymbolTableRecord
100
AcDbLayerTableRecord
  2
31
 70
     0
 62
    31
  6
CONTINUOUS
  0
LAYER
  5
59
330
2
100
AcDbSymbolTableRecord
100
AcDbLayerTableRecord
  2
32
 70
     0
 62
    32
  6
CONTINUOUS
  0
LAYER
  5
5A
330
2
100
AcDbSymbolTableRecord
100
AcDbLayerTableRecord
  2
33
 70
     0
 62
    33
  6
CONTINUOUS
  0
LAYER
  5
5B
330
2
100
AcDbSymbolTableRecord
100
AcDbLayerTableRecord
  2
34
 70
     0
 62
    34
  6
CONTINUOUS
  0
LAYER
  5
5C
330
2
100
AcDbSymbolTableRecord
100
AcDbLayerTableRecord
  2
35
 70
     0
 62
    35
  6
CONTINUOUS
  0
LAYER
  5
5D
330
2
100
AcDbSymbolTableRecord
100
AcDbLayerTableRecord
  2
36
 70
     0
 62
    36
  6
CONTINUOUS
  0
LAYER
  5
5E
330
2
100
AcDbSymbolTableRecord
100
AcDbLayerTableRecord
  2
37
 70
     0
 62
    37
  6
CONTINUOUS
  0
LAYER
  5
5F
330
2
100
AcDbSymbolTableRecord
100
AcDbLayerTableRecord
  2
38
 70
     0
 62
    38
  6
CONTINUOUS
  0
LAYER
  5
60
330
2
100
AcDbSymbolTableRecord
100
AcDbLayerTableRecord
  2
39
 70
     0
 62
    39
  6
CONTINUOUS
  0
LAYER
  5
61
330
2
100
AcDbSymbolTableRecord
100
AcDbLayerTableRecord
  2
40
 70
     0
 62
    40
  6
CONTINUOUS
  0
LAYER
  5
62
330
2
100
AcDbSymbolTableRecord
100
AcDbLayerTableRecord
  2
41
 70
     0
 62
    41
  6
CONTINUOUS
  0
LAYER
  5
63
330
2
100
AcDbSymbolTableRecord
100
AcDbLayerTableRecord
  2
42
 70
     0
 62
    42
  6
CONTINUOUS
  0
LAYER
  5
64
330
2
100
AcDbSymbolTableRecord
100
AcDbLayerTableRecord
  2
43
 70
     0
 62
    43
  6
CONTINUOUS
  0
LAYER
  5
65
330
2
100
AcDbSymbolTableRecord
100
AcDbLayerTableRecord
  2
44
 70
     0
 62
    44
  6
CONTINUOUS
  0
LAYER
  5
66
330
2
100
AcDbSymbolTableRecord
100
AcDbLayerTableRecord
  2
45
 70
     0
 62
    45
  6
CONTINUOUS
  0
LAYER
  5
67
330
2
100
AcDbSymbolTableRecord
100
AcDbLayerTableRecord
  2
46
 70
     0
 62
    46
  6
CONTINUOUS
  0
LAYER
  5
68
330
2
100
AcDbSymbolTableRecord
100
AcDbLayerTableRecord
  2
47
 70
     0
 62
    47
  6
CONTINUOUS
  0
LAYER
  5
69
330
2
100
AcDbSymbolTableRecord
100
AcDbLayerTableRecord
  2
48
 70
     0
 62
    48
  6
CONTINUOUS
  0
LAYER
  5
6A
330
2
100
AcDbSymbolTableRecord
100
AcDbLayerTableRecord
  2
49
 70
     0
 62
    49
  6
CONTINUOUS
  0
LAYER
  5
6B
330
2
100
AcDbSymbolTableRecord
100
AcDbLayerTableRecord
  2
50
 70
     0
 62
    50
  6
CONTINUOUS
  0
LAYER
  5
6C
330
2
100
AcDbSymbolTableRecord
100
AcDbLayerTableRecord
  2
51
 70
     0
 62
    51
  6
CONTINUOUS
  0
LAYER
  5
6D
330
2
100
AcDbSymbolTableRecord
100
AcDbLayerTableRecord
  2
52
 70
     0
 62
    52
  6
CONTINUOUS
  0
LAYER
  5
6E
330
2
100
AcDbSymbolTableRecord
100
AcDbLayerTableRecord
  2
53
 70
     0
 62
    53
  6
CONTINUOUS
  0
LAYER
  5
6F
330
2
100
AcDbSymbolTableRecord
100
AcDbLayerTableRecord
  2
54
 70
     0
 62
    54
  6
CONTINUOUS
  0
LAYER
  5
70
330
2
100
AcDbSymbolTableRecord
100
AcDbLayerTableRecord
  2
55
 70
     0
 62
    55
  6
CONTINUOUS
  0
LAYER
  5
71
330
2
100
AcDbSymbolTableRecord
100
AcDbLayerTableRecord
  2
56
 70
     0
 62
    56
  6
CONTINUOUS
  0
LAYER
  5
72
330
2
100
AcDbSymbolTableRecord
100
AcDbLayerTableRecord
  2
57
 70
     0
 62
    57
  6
CONTINUOUS
  0
LAYER
  5
73
330
2
100
AcDbSymbolTableRecord
100
AcDbLayerTableRecord
  2
58
 70
     0
 62
    58
  6
CONTINUOUS
  0
LAYER
  5
74
330
2
100
AcDbSymbolTableRecord
100
AcDbLayerTableRecord
  2
59
 70
     0
 62
    59
  6
CONTINUOUS
  0
LAYER
  5
75
330
2
100
AcDbSymbolTableRecord
100
AcDbLayerTableRecord
  2
60
 70
     0
 62
    60
  6
CONTINUOUS
  0
LAYER
  5
76
330
2
100
AcDbSymbolTableRecord
100
AcDbLayerTableRecord
  2
61
 70
     0
 62
    61
  6
CONTINUOUS
  0
LAYER
  5
77
330
2
100
AcDbSymbolTableRecord
100
AcDbLayerTableRecord
  2
62
 70
     0
 62
    62
  6
CONTINUOUS
  0
LAYER
  5
78
330
2
100
AcDbSymbolTableRecord
100
AcDbLayerTableRecord
  2
63
 70
     0
 62
    63
  6
CONTINUOUS
  0
LAYER
  5
79
330
2
100
AcDbSymbolTableRecord
100
AcDbLayerTableRecord
  2
64
 70
     0
 62
    64
  6
CONTINUOUS
  0
LAYER
  5
7A
330
2
100
AcDbSymbolTableRecord
100
AcDbLayerTableRecord
  2
65
 70
     0
 62
    65
  6
CONTINUOUS
  0
LAYER
  5
7B
330
2
100
AcDbSymbolTableRecord
100
AcDbLayerTableRecord
  2
66
 70
     0
 62
    66
  6
CONTINUOUS
  0
LAYER
  5
7C
330
2
100
AcDbSymbolTableRecord
100
AcDbLayerTableRecord
  2
67
 70
     0
 62
    67
  6
CONTINUOUS
  0
LAYER
  5
7D
330
2
100
AcDbSymbolTableRecord
100
AcDbLayerTableRecord
  2
68
 70
     0
 62
    68
  6
CONTINUOUS
  0
LAYER
  5
7E
330
2
100
AcDbSymbolTableRecord
100
AcDbLayerTableRecord
  2
69
 70
     0
 62
    69
  6
CONTINUOUS
  0
LAYER
  5
7F
330
2
100
AcDbSymbolTableRecord
100
AcDbLayerTableRecord
  2
70
 70
     0
 62
    70
  6
CONTINUOUS
  0
LAYER
  5
80
330
2
100
AcDbSymbolTableRecord
100
AcDbLayerTableRecord
  2
71
 70
     0
 62
    71
  6
CONTINUOUS
  0
LAYER
  5
81
330
2
100
AcDbSymbolTableRecord
100
AcDbLayerTableRecord
  2
72
 70
     0
 62
    72
  6
CONTINUOUS
  0
LAYER
  5
82
330
2
100
AcDbSymbolTableRecord
100
AcDbLayerTableRecord
  2
73
 70
     0
 62
    73
  6
CONTINUOUS
  0
LAYER
  5
83
330
2
100
AcDbSymbolTableRecord
100
AcDbLayerTableRecord
  2
74
 70
     0
 62
    74
  6
CONTINUOUS
  0
LAYER
  5
84
330
2
100
AcDbSymbolTableRecord
100
AcDbLayerTableRecord
  2
75
 70
     0
 62
    75
  6
CONTINUOUS
  0
LAYER
  5
85
330
2
100
AcDbSymbolTableRecord
100
AcDbLayerTableRecord
  2
76
 70
     0
 62
    76
  6
CONTINUOUS
  0
LAYER
  5
86
330
2
100
AcDbSymbolTableRecord
100
AcDbLayerTableRecord
  2
77
 70
     0
 62
    77
  6
CONTINUOUS
  0
LAYER
  5
87
330
2
100
AcDbSymbolTableRecord
100
AcDbLayerTableRecord
  2
78
 70
     0
 62
    78
  6
CONTINUOUS
  0
LAYER
  5
88
330
2
100
AcDbSymbolTableRecord
100
AcDbLayerTableRecord
  2
79
 70
     0
 62
    79
  6
CONTINUOUS
  0
LAYER
  5
89
330
2
100
AcDbSymbolTableRecord
100
AcDbLayerTableRecord
  2
80
 70
     0
 62
    80
  6
CONTINUOUS
  0
LAYER
  5
8A
330
2
100
AcDbSymbolTableRecord
100
AcDbLayerTableRecord
  2
81
 70
     0
 62
    81
  6
CONTINUOUS
  0
LAYER
  5
8B
330
2
100
AcDbSymbolTableRecord
100
AcDbLayerTableRecord
  2
82
 70
     0
 62
    82
  6
CONTINUOUS
  0
LAYER
  5
8C
330
2
100
AcDbSymbolTableRecord
100
AcDbLayerTableRecord
  2
83
 70
     0
 62
    83
  6
CONTINUOUS
  0
LAYER
  5
8D
330
2
100
AcDbSymbolTableRecord
100
AcDbLayerTableRecord
  2
84
 70
     0
 62
    84
  6
CONTINUOUS
  0
LAYER
  5
8E
330
2
100
AcDbSymbolTableRecord
100
AcDbLayerTableRecord
  2
85
 70
     0
 62
    85
  6
CONTINUOUS
  0
LAYER
  5
8F
330
2
100
AcDbSymbolTableRecord
100
AcDbLayerTableRecord
  2
86
 70
     0
 62
    86
  6
CONTINUOUS
  0
LAYER
  5
90
330
2
100
AcDbSymbolTableRecord
100
AcDbLayerTableRecord
  2
87
 70
     0
 62
    87
  6
CONTINUOUS
  0
LAYER
  5
91
330
2
100
AcDbSymbolTableRecord
100
AcDbLayerTableRecord
  2
88
 70
     0
 62
    88
  6
CONTINUOUS
  0
LAYER
  5
92
330
2
100
AcDbSymbolTableRecord
100
AcDbLayerTableRecord
  2
89
 70
     0
 62
    89
  6
CONTINUOUS
  0
LAYER
  5
93
330
2
100
AcDbSymbolTableRecord
100
AcDbLayerTableRecord
  2
90
 70
     0
 62
    90
  6
CONTINUOUS
  0
LAYER
  5
94
330
2
100
AcDbSymbolTableRecord
100
AcDbLayerTableRecord
  2
91
 70
     0
 62
    91
  6
CONTINUOUS
  0
LAYER
  5
95
330
2
100
AcDbSymbolTableRecord
100
AcDbLayerTableRecord
  2
92
 70
     0
 62
    92
  6
CONTINUOUS
  0
LAYER
  5
96
330
2
100
AcDbSymbolTableRecord
100
AcDbLayerTableRecord
  2
93
 70
     0
 62
    93
  6
CONTINUOUS
  0
LAYER
  5
97
330
2
100
AcDbSymbolTableRecord
100
AcDbLayerTableRecord
  2
94
 70
     0
 62
    94
  6
CONTINUOUS
  0
LAYER
  5
98
330
2
100
AcDbSymbolTableRecord
100
AcDbLayerTableRecord
  2
95
 70
     0
 62
    95
  6
CONTINUOUS
  0
LAYER
  5
99
330
2
100
AcDbSymbolTableRecord
100
AcDbLayerTableRecord
  2
96
 70
     0
 62
    96
  6
CONTINUOUS
  0
LAYER
  5
9A
330
2
100
AcDbSymbolTableRecord
100
AcDbLayerTableRecord
  2
97
 70
     0
 62
    97
  6
CONTINUOUS
  0
LAYER
  5
9B
330
2
100
AcDbSymbolTableRecord
100
AcDbLayerTableRecord
  2
98
 70
     0
 62
    98
  6
CONTINUOUS
  0
LAYER
  5
9C
330
2
100
AcDbSymbolTableRecord
100
AcDbLayerTableRecord
  2
99
 70
     0
 62
    99
  6
CONTINUOUS
  0
LAYER
  5
9D
330
2
100
AcDbSymbolTableRecord
100
AcDbLayerTableRecord
  2
100
 70
     0
 62
   100
  6
CONTINUOUS
  0
LAYER
  5
9E
330
2
100
AcDbSymbolTableRecord
100
AcDbLayerTableRecord
  2
101
 70
     0
 62
   101
  6
CONTINUOUS
  0
LAYER
  5
9F
330
2
100
AcDbSymbolTableRecord
100
AcDbLayerTableRecord
  2
102
 70
     0
 62
   102
  6
CONTINUOUS
  0
LAYER
  5
A0
330
2
100
AcDbSymbolTableRecord
100
AcDbLayerTableRecord
  2
103
 70
     0
 62
   103
  6
CONTINUOUS
  0
LAYER
  5
A1
330
2
100
AcDbSymbolTableRecord
100
AcDbLayerTableRecord
  2
104
 70
     0
 62
   104
  6
CONTINUOUS
  0
LAYER
  5
A2
330
2
100
AcDbSymbolTableRecord
100
AcDbLayerTableRecord
  2
105
 70
     0
 62
   105
  6
CONTINUOUS
  0
LAYER
  5
A3
330
2
100
AcDbSymbolTableRecord
100
AcDbLayerTableRecord
  2
106
 70
     0
 62
   106
  6
CONTINUOUS
  0
LAYER
  5
A4
330
2
100
AcDbSymbolTableRecord
100
AcDbLayerTableRecord
  2
107
 70
     0
 62
   107
  6
CONTINUOUS
  0
LAYER
  5
A5
330
2
100
AcDbSymbolTableRecord
100
AcDbLayerTableRecord
  2
108
 70
     0
 62
   108
  6
CONTINUOUS
  0
LAYER
  5
A6
330
2
100
AcDbSymbolTableRecord
100
AcDbLayerTableRecord
  2
109
 70
     0
 62
   109
  6
CONTINUOUS
  0
LAYER
  5
A7
330
2
100
AcDbSymbolTableRecord
100
AcDbLayerTableRecord
  2
110
 70
     0
 62
   110
  6
CONTINUOUS
  0
LAYER
  5
A8
330
2
100
AcDbSymbolTableRecord
100
AcDbLayerTableRecord
  2
111
 70
     0
 62
   111
  6
CONTINUOUS
  0
LAYER
  5
A9
330
2
100
AcDbSymbolTableRecord
100
AcDbLayerTableRecord
  2
112
 70
     0
 62
   112
  6
CONTINUOUS
  0
LAYER
  5
AA
330
2
100
AcDbSymbolTableRecord
100
AcDbLayerTableRecord
  2
113
 70
     0
 62
   113
  6
CONTINUOUS
  0
LAYER
  5
AB
330
2
100
AcDbSymbolTableRecord
100
AcDbLayerTableRecord
  2
114
 70
     0
 62
   114
  6
CONTINUOUS
  0
LAYER
  5
AC
330
2
100
AcDbSymbolTableRecord
100
AcDbLayerTableRecord
  2
115
 70
     0
 62
   115
  6
CONTINUOUS
  0
LAYER
  5
AD
330
2
100
AcDbSymbolTableRecord
100
AcDbLayerTableRecord
  2
116
 70
     0
 62
   116
  6
CONTINUOUS
  0
LAYER
  5
AE
330
2
100
AcDbSymbolTableRecord
100
AcDbLayerTableRecord
  2
117
 70
     0
 62
   117
  6
CONTINUOUS
  0
LAYER
  5
AF
330
2
100
AcDbSymbolTableRecord
100
AcDbLayerTableRecord
  2
118
 70
     0
 62
   118
  6
CONTINUOUS
  0
LAYER
  5
B0
330
2
100
AcDbSymbolTableRecord
100
AcDbLayerTableRecord
  2
119
 70
     0
 62
   119
  6
CONTINUOUS
  0
LAYER
  5
B1
330
2
100
AcDbSymbolTableRecord
100
AcDbLayerTableRecord
  2
120
 70
     0
 62
   120
  6
CONTINUOUS
  0
LAYER
  5
B2
330
2
100
AcDbSymbolTableRecord
100
AcDbLayerTableRecord
  2
121
 70
     0
 62
   121
  6
CONTINUOUS
  0
LAYER
  5
B3
330
2
100
AcDbSymbolTableRecord
100
AcDbLayerTableRecord
  2
122
 70
     0
 62
   122
  6
CONTINUOUS
  0
LAYER
  5
B4
330
2
100
AcDbSymbolTableRecord
100
AcDbLayerTableRecord
  2
123
 70
     0
 62
   123
  6
CONTINUOUS
  0
LAYER
  5
B5
330
2
100
AcDbSymbolTableRecord
100
AcDbLayerTableRecord
  2
124
 70
     0
 62
   124
  6
CONTINUOUS
  0
LAYER
  5
B6
330
2
100
AcDbSymbolTableRecord
100
AcDbLayerTableRecord
  2
125
 70
     0
 62
   125
  6
CONTINUOUS
  0
LAYER
  5
B7
330
2
100
AcDbSymbolTableRecord
100
AcDbLayerTableRecord
  2
126
 70
     0
 62
   126
  6
CONTINUOUS
  0
LAYER
  5
B8
330
2
100
AcDbSymbolTableRecord
100
AcDbLayerTableRecord
  2
127
 70
     0
 62
   127
  6
CONTINUOUS
  0
LAYER
  5
B9
330
2
100
AcDbSymbolTableRecord
100
AcDbLayerTableRecord
  2
128
 70
     0
 62
   128
  6
CONTINUOUS
  0
LAYER
  5
BA
330
2
100
AcDbSymbolTableRecord
100
AcDbLayerTableRecord
  2
129
 70
     0
 62
   129
  6
CONTINUOUS
  0
LAYER
  5
BB
330
2
100
AcDbSymbolTableRecord
100
AcDbLayerTableRecord
  2
130
 70
     0
 62
   130
  6
CONTINUOUS
  0
LAYER
  5
BC
330
2
100
AcDbSymbolTableRecord
100
AcDbLayerTableRecord
  2
131
 70
     0
 62
   131
  6
CONTINUOUS
  0
LAYER
  5
BD
330
2
100
AcDbSymbolTableRecord
100
AcDbLayerTableRecord
  2
132
 70
     0
 62
   132
  6
CONTINUOUS
  0
LAYER
  5
BE
330
2
100
AcDbSymbolTableRecord
100
AcDbLayerTableRecord
  2
133
 70
     0
 62
   133
  6
CONTINUOUS
  0
LAYER
  5
BF
330
2
100
AcDbSymbolTableRecord
100
AcDbLayerTableRecord
  2
134
 70
     0
 62
   134
  6
CONTINUOUS
  0
LAYER
  5
C0
330
2
100
AcDbSymbolTableRecord
100
AcDbLayerTableRecord
  2
135
 70
     0
 62
   135
  6
CONTINUOUS
  0
LAYER
  5
C1
330
2
100
AcDbSymbolTableRecord
100
AcDbLayerTableRecord
  2
136
 70
     0
 62
   136
  6
CONTINUOUS
  0
LAYER
  5
C2
330
2
100
AcDbSymbolTableRecord
100
AcDbLayerTableRecord
  2
137
 70
     0
 62
   137
  6
CONTINUOUS
  0
LAYER
  5
C3
330
2
100
AcDbSymbolTableRecord
100
AcDbLayerTableRecord
  2
138
 70
     0
 62
   138
  6
CONTINUOUS
  0
LAYER
  5
C4
330
2
100
AcDbSymbolTableRecord
100
AcDbLayerTableRecord
  2
139
 70
     0
 62
   139
  6
CONTINUOUS
  0
LAYER
  5
C5
330
2
100
AcDbSymbolTableRecord
100
AcDbLayerTableRecord
  2
140
 70
     0
 62
   140
  6
CONTINUOUS
  0
LAYER
  5
C6
330
2
100
AcDbSymbolTableRecord
100
AcDbLayerTableRecord
  2
141
 70
     0
 62
   141
  6
CONTINUOUS
  0
LAYER
  5
C7
330
2
100
AcDbSymbolTableRecord
100
AcDbLayerTableRecord
  2
142
 70
     0
 62
   142
  6
CONTINUOUS
  0
LAYER
  5
C8
330
2
100
AcDbSymbolTableRecord
100
AcDbLayerTableRecord
  2
143
 70
     0
 62
   143
  6
CONTINUOUS
  0
LAYER
  5
C9
330
2
100
AcDbSymbolTableRecord
100
AcDbLayerTableRecord
  2
144
 70
     0
 62
   144
  6
CONTINUOUS
  0
LAYER
  5
CA
330
2
100
AcDbSymbolTableRecord
100
AcDbLayerTableRecord
  2
145
 70
     0
 62
   145
  6
CONTINUOUS
  0
LAYER
  5
CB
330
2
100
AcDbSymbolTableRecord
100
AcDbLayerTableRecord
  2
146
 70
     0
 62
   146
  6
CONTINUOUS
  0
LAYER
  5
CC
330
2
100
AcDbSymbolTableRecord
100
AcDbLayerTableRecord
  2
147
 70
     0
 62
   147
  6
CONTINUOUS
  0
LAYER
  5
CD
330
2
100
AcDbSymbolTableRecord
100
AcDbLayerTableRecord
  2
148
 70
     0
 62
   148
  6
CONTINUOUS
  0
LAYER
  5
CE
330
2
100
AcDbSymbolTableRecord
100
AcDbLayerTableRecord
  2
149
 70
     0
 62
   149
  6
CONTINUOUS
  0
LAYER
  5
CF
330
2
100
AcDbSymbolTableRecord
100
AcDbLayerTableRecord
  2
150
 70
     0
 62
   150
  6
CONTINUOUS
  0
LAYER
  5
D0
330
2
100
AcDbSymbolTableRecord
100
AcDbLayerTableRecord
  2
151
 70
     0
 62
   151
  6
CONTINUOUS
  0
LAYER
  5
D1
330
2
100
AcDbSymbolTableRecord
100
AcDbLayerTableRecord
  2
152
 70
     0
 62
   152
  6
CONTINUOUS
  0
LAYER
  5
D2
330
2
100
AcDbSymbolTableRecord
100
AcDbLayerTableRecord
  2
153
 70
     0
 62
   153
  6
CONTINUOUS
  0
LAYER
  5
D3
330
2
100
AcDbSymbolTableRecord
100
AcDbLayerTableRecord
  2
154
 70
     0
 62
   154
  6
CONTINUOUS
  0
LAYER
  5
D4
330
2
100
AcDbSymbolTableRecord
100
AcDbLayerTableRecord
  2
155
 70
     0
 62
   155
  6
CONTINUOUS
  0
LAYER
  5
D5
330
2
100
AcDbSymbolTableRecord
100
AcDbLayerTableRecord
  2
156
 70
     0
 62
   156
  6
CONTINUOUS
  0
LAYER
  5
D6
330
2
100
AcDbSymbolTableRecord
100
AcDbLayerTableRecord
  2
157
 70
     0
 62
   157
  6
CONTINUOUS
  0
LAYER
  5
D7
330
2
100
AcDbSymbolTableRecord
100
AcDbLayerTableRecord
  2
158
 70
     0
 62
   158
  6
CONTINUOUS
  0
LAYER
  5
D8
330
2
100
AcDbSymbolTableRecord
100
AcDbLayerTableRecord
  2
159
 70
     0
 62
   159
  6
CONTINUOUS
  0
LAYER
  5
D9
330
2
100
AcDbSymbolTableRecord
100
AcDbLayerTableRecord
  2
160
 70
     0
 62
   160
  6
CONTINUOUS
  0
LAYER
  5
DA
330
2
100
AcDbSymbolTableRecord
100
AcDbLayerTableRecord
  2
161
 70
     0
 62
   161
  6
CONTINUOUS
  0
LAYER
  5
DB
330
2
100
AcDbSymbolTableRecord
100
AcDbLayerTableRecord
  2
162
 70
     0
 62
   162
  6
CONTINUOUS
  0
LAYER
  5
DC
330
2
100
AcDbSymbolTableRecord
100
AcDbLayerTableRecord
  2
163
 70
     0
 62
   163
  6
CONTINUOUS
  0
LAYER
  5
DD
330
2
100
AcDbSymbolTableRecord
100
AcDbLayerTableRecord
  2
164
 70
     0
 62
   164
  6
CONTINUOUS
  0
LAYER
  5
DE
330
2
100
AcDbSymbolTableRecord
100
AcDbLayerTableRecord
  2
165
 70
     0
 62
   165
  6
CONTINUOUS
  0
LAYER
  5
DF
330
2
100
AcDbSymbolTableRecord
100
AcDbLayerTableRecord
  2
166
 70
     0
 62
   166
  6
CONTINUOUS
  0
LAYER
  5
E0
330
2
100
AcDbSymbolTableRecord
100
AcDbLayerTableRecord
  2
167
 70
     0
 62
   167
  6
CONTINUOUS
  0
LAYER
  5
E1
330
2
100
AcDbSymbolTableRecord
100
AcDbLayerTableRecord
  2
168
 70
     0
 62
   168
  6
CONTINUOUS
  0
LAYER
  5
E2
330
2
100
AcDbSymbolTableRecord
100
AcDbLayerTableRecord
  2
169
 70
     0
 62
   169
  6
CONTINUOUS
  0
LAYER
  5
E3
330
2
100
AcDbSymbolTableRecord
100
AcDbLayerTableRecord
  2
170
 70
     0
 62
   170
  6
CONTINUOUS
  0
LAYER
  5
E4
330
2
100
AcDbSymbolTableRecord
100
AcDbLayerTableRecord
  2
171
 70
     0
 62
   171
  6
CONTINUOUS
  0
LAYER
  5
E5
330
2
100
AcDbSymbolTableRecord
100
AcDbLayerTableRecord
  2
172
 70
     0
 62
   172
  6
CONTINUOUS
  0
LAYER
  5
E6
330
2
100
AcDbSymbolTableRecord
100
AcDbLayerTableRecord
  2
173
 70
     0
 62
   173
  6
CONTINUOUS
  0
LAYER
  5
E7
330
2
100
AcDbSymbolTableRecord
100
AcDbLayerTableRecord
  2
174
 70
     0
 62
   174
  6
CONTINUOUS
  0
LAYER
  5
E8
330
2
100
AcDbSymbolTableRecord
100
AcDbLayerTableRecord
  2
175
 70
     0
 62
   175
  6
CONTINUOUS
  0
LAYER
  5
E9
330
2
100
AcDbSymbolTableRecord
100
AcDbLayerTableRecord
  2
176
 70
     0
 62
   176
  6
CONTINUOUS
  0
LAYER
  5
EA
330
2
100
AcDbSymbolTableRecord
100
AcDbLayerTableRecord
  2
177
 70
     0
 62
   177
  6
CONTINUOUS
  0
LAYER
  5
EB
330
2
100
AcDbSymbolTableRecord
100
AcDbLayerTableRecord
  2
178
 70
     0
 62
   178
  6
CONTINUOUS
  0
LAYER
  5
EC
330
2
100
AcDbSymbolTableRecord
100
AcDbLayerTableRecord
  2
179
 70
     0
 62
   179
  6
CONTINUOUS
  0
LAYER
  5
ED
330
2
100
AcDbSymbolTableRecord
100
AcDbLayerTableRecord
  2
180
 70
     0
 62
   180
  6
CONTINUOUS
  0
LAYER
  5
EE
330
2
100
AcDbSymbolTableRecord
100
AcDbLayerTableRecord
  2
181
 70
     0
 62
   181
  6
CONTINUOUS
  0
LAYER
  5
EF
330
2
100
AcDbSymbolTableRecord
100
AcDbLayerTableRecord
  2
182
 70
     0
 62
   182
  6
CONTINUOUS
  0
LAYER
  5
F0
330
2
100
AcDbSymbolTableRecord
100
AcDbLayerTableRecord
  2
183
 70
     0
 62
   183
  6
CONTINUOUS
  0
LAYER
  5
F1
330
2
100
AcDbSymbolTableRecord
100
AcDbLayerTableRecord
  2
184
 70
     0
 62
   184
  6
CONTINUOUS
  0
LAYER
  5
F2
330
2
100
AcDbSymbolTableRecord
100
AcDbLayerTableRecord
  2
185
 70
     0
 62
   185
  6
CONTINUOUS
  0
LAYER
  5
F3
330
2
100
AcDbSymbolTableRecord
100
AcDbLayerTableRecord
  2
186
 70
     0
 62
   186
  6
CONTINUOUS
  0
LAYER
  5
F4
330
2
100
AcDbSymbolTableRecord
100
AcDbLayerTableRecord
  2
187
 70
     0
 62
   187
  6
CONTINUOUS
  0
LAYER
  5
F5
330
2
100
AcDbSymbolTableRecord
100
AcDbLayerTableRecord
  2
188
 70
     0
 62
   188
  6
CONTINUOUS
  0
LAYER
  5
F6
330
2
100
AcDbSymbolTableRecord
100
AcDbLayerTableRecord
  2
189
 70
     0
 62
   189
  6
CONTINUOUS
  0
LAYER
  5
F7
330
2
100
AcDbSymbolTableRecord
100
AcDbLayerTableRecord
  2
190
 70
     0
 62
   190
  6
CONTINUOUS
  0
LAYER
  5
F8
330
2
100
AcDbSymbolTableRecord
100
AcDbLayerTableRecord
  2
191
 70
     0
 62
   191
  6
CONTINUOUS
  0
LAYER
  5
F9
330
2
100
AcDbSymbolTableRecord
100
AcDbLayerTableRecord
  2
192
 70
     0
 62
   192
  6
CONTINUOUS
  0
LAYER
  5
FA
330
2
100
AcDbSymbolTableRecord
100
AcDbLayerTableRecord
  2
193
 70
     0
 62
   193
  6
CONTINUOUS
  0
LAYER
  5
FB
330
2
100
AcDbSymbolTableRecord
100
AcDbLayerTableRecord
  2
194
 70
     0
 62
   194
  6
CONTINUOUS
  0
LAYER
  5
FC
330
2
100
AcDbSymbolTableRecord
100
AcDbLayerTableRecord
  2
195
 70
     0
 62
   195
  6
CONTINUOUS
  0
LAYER
  5
FD
330
2
100
AcDbSymbolTableRecord
100
AcDbLayerTableRecord
  2
196
 70
     0
 62
   196
  6
CONTINUOUS
  0
LAYER
  5
FE
330
2
100
AcDbSymbolTableRecord
100
AcDbLayerTableRecord
  2
197
 70
     0
 62
   197
  6
CONTINUOUS
  0
LAYER
  5
FF
330
2
100
AcDbSymbolTableRecord
100
AcDbLayerTableRecord
  2
198
 70
     0
 62
   198
  6
CONTINUOUS
  0
LAYER
  5
100
330
2
100
AcDbSymbolTableRecord
100
AcDbLayerTableRecord
  2
199
 70
     0
 62
   199
  6
CONTINUOUS
  0
LAYER
  5
101
330
2
100
AcDbSymbolTableRecord
100
AcDbLayerTableRecord
  2
200
 70
     0
 62
   200
  6
CONTINUOUS
  0
LAYER
  5
102
330
2
100
AcDbSymbolTableRecord
100
AcDbLayerTableRecord
  2
201
 70
     0
 62
   201
  6
CONTINUOUS
  0
LAYER
  5
103
330
2
100
AcDbSymbolTableRecord
100
AcDbLayerTableRecord
  2
202
 70
     0
 62
   202
  6
CONTINUOUS
  0
LAYER
  5
104
330
2
100
AcDbSymbolTableRecord
100
AcDbLayerTableRecord
  2
203
 70
     0
 62
   203
  6
CONTINUOUS
  0
LAYER
  5
105
330
2
100
AcDbSymbolTableRecord
100
AcDbLayerTableRecord
  2
204
 70
     0
 62
   204
  6
CONTINUOUS
  0
LAYER
  5
106
330
2
100
AcDbSymbolTableRecord
100
AcDbLayerTableRecord
  2
205
 70
     0
 62
   205
  6
CONTINUOUS
  0
LAYER
  5
107
330
2
100
AcDbSymbolTableRecord
100
AcDbLayerTableRecord
  2
206
 70
     0
 62
   206
  6
CONTINUOUS
  0
LAYER
  5
108
330
2
100
AcDbSymbolTableRecord
100
AcDbLayerTableRecord
  2
207
 70
     0
 62
   207
  6
CONTINUOUS
  0
LAYER
  5
109
330
2
100
AcDbSymbolTableRecord
100
AcDbLayerTableRecord
  2
208
 70
     0
 62
   208
  6
CONTINUOUS
  0
LAYER
  5
10A
330
2
100
AcDbSymbolTableRecord
100
AcDbLayerTableRecord
  2
209
 70
     0
 62
   209
  6
CONTINUOUS
  0
LAYER
  5
10B
330
2
100
AcDbSymbolTableRecord
100
AcDbLayerTableRecord
  2
210
 70
     0
 62
   210
  6
CONTINUOUS
  0
LAYER
  5
10C
330
2
100
AcDbSymbolTableRecord
100
AcDbLayerTableRecord
  2
211
 70
     0
 62
   211
  6
CONTINUOUS
  0
LAYER
  5
10D
330
2
100
AcDbSymbolTableRecord
100
AcDbLayerTableRecord
  2
212
 70
     0
 62
   212
  6
CONTINUOUS
  0
LAYER
  5
10E
330
2
100
AcDbSymbolTableRecord
100
AcDbLayerTableRecord
  2
213
 70
     0
 62
   213
  6
CONTINUOUS
  0
LAYER
  5
10F
330
2
100
AcDbSymbolTableRecord
100
AcDbLayerTableRecord
  2
214
 70
     0
 62
   214
  6
CONTINUOUS
  0
LAYER
  5
110
330
2
100
AcDbSymbolTableRecord
100
AcDbLayerTableRecord
  2
215
 70
     0
 62
   215
  6
CONTINUOUS
  0
LAYER
  5
111
330
2
100
AcDbSymbolTableRecord
100
AcDbLayerTableRecord
  2
216
 70
     0
 62
   216
  6
CONTINUOUS
  0
LAYER
  5
112
330
2
100
AcDbSymbolTableRecord
100
AcDbLayerTableRecord
  2
217
 70
     0
 62
   217
  6
CONTINUOUS
  0
LAYER
  5
113
330
2
100
AcDbSymbolTableRecord
100
AcDbLayerTableRecord
  2
218
 70
     0
 62
   218
  6
CONTINUOUS
  0
LAYER
  5
114
330
2
100
AcDbSymbolTableRecord
100
AcDbLayerTableRecord
  2
219
 70
     0
 62
   219
  6
CONTINUOUS
  0
LAYER
  5
115
330
2
100
AcDbSymbolTableRecord
100
AcDbLayerTableRecord
  2
220
 70
     0
 62
   220
  6
CONTINUOUS
  0
LAYER
  5
116
330
2
100
AcDbSymbolTableRecord
100
AcDbLayerTableRecord
  2
221
 70
     0
 62
   221
  6
CONTINUOUS
  0
LAYER
  5
117
330
2
100
AcDbSymbolTableRecord
100
AcDbLayerTableRecord
  2
222
 70
     0
 62
   222
  6
CONTINUOUS
  0
LAYER
  5
118
330
2
100
AcDbSymbolTableRecord
100
AcDbLayerTableRecord
  2
223
 70
     0
 62
   223
  6
CONTINUOUS
  0
LAYER
  5
119
330
2
100
AcDbSymbolTableRecord
100
AcDbLayerTableRecord
  2
224
 70
     0
 62
   224
  6
CONTINUOUS
  0
LAYER
  5
11A
330
2
100
AcDbSymbolTableRecord
100
AcDbLayerTableRecord
  2
225
 70
     0
 62
   225
  6
CONTINUOUS
  0
LAYER
  5
11B
330
2
100
AcDbSymbolTableRecord
100
AcDbLayerTableRecord
  2
226
 70
     0
 62
   226
  6
CONTINUOUS
  0
LAYER
  5
11C
330
2
100
AcDbSymbolTableRecord
100
AcDbLayerTableRecord
  2
227
 70
     0
 62
   227
  6
CONTINUOUS
  0
LAYER
  5
11D
330
2
100
AcDbSymbolTableRecord
100
AcDbLayerTableRecord
  2
228
 70
     0
 62
   228
  6
CONTINUOUS
  0
LAYER
  5
11E
330
2
100
AcDbSymbolTableRecord
100
AcDbLayerTableRecord
  2
229
 70
     0
 62
   229
  6
CONTINUOUS
  0
LAYER
  5
11F
330
2
100
AcDbSymbolTableRecord
100
AcDbLayerTableRecord
  2
230
 70
     0
 62
   230
  6
CONTINUOUS
  0
LAYER
  5
120
330
2
100
AcDbSymbolTableRecord
100
AcDbLayerTableRecord
  2
231
 70
     0
 62
   231
  6
CONTINUOUS
  0
LAYER
  5
121
330
2
100
AcDbSymbolTableRecord
100
AcDbLayerTableRecord
  2
232
 70
     0
 62
   232
  6
CONTINUOUS
  0
LAYER
  5
122
330
2
100
AcDbSymbolTableRecord
100
AcDbLayerTableRecord
  2
233
 70
     0
 62
   233
  6
CONTINUOUS
  0
LAYER
  5
123
330
2
100
AcDbSymbolTableRecord
100
AcDbLayerTableRecord
  2
234
 70
     0
 62
   234
  6
CONTINUOUS
  0
LAYER
  5
124
330
2
100
AcDbSymbolTableRecord
100
AcDbLayerTableRecord
  2
235
 70
     0
 62
   235
  6
CONTINUOUS
  0
LAYER
  5
125
330
2
100
AcDbSymbolTableRecord
100
AcDbLayerTableRecord
  2
236
 70
     0
 62
   236
  6
CONTINUOUS
  0
LAYER
  5
126
330
2
100
AcDbSymbolTableRecord
100
AcDbLayerTableRecord
  2
237
 70
     0
 62
   237
  6
CONTINUOUS
  0
LAYER
  5
127
330
2
100
AcDbSymbolTableRecord
100
AcDbLayerTableRecord
  2
238
 70
     0
 62
   238
  6
CONTINUOUS
  0
LAYER
  5
128
330
2
100
AcDbSymbolTableRecord
100
AcDbLayerTableRecord
  2
239
 70
     0
 62
   239
  6
CONTINUOUS
  0
LAYER
  5
129
330
2
100
AcDbSymbolTableRecord
100
AcDbLayerTableRecord
  2
240
 70
     0
 62
   240
  6
CONTINUOUS
  0
LAYER
  5
12A
330
2
100
AcDbSymbolTableRecord
100
AcDbLayerTableRecord
  2
241
 70
     0
 62
   241
  6
CONTINUOUS
  0
LAYER
  5
12B
330
2
100
AcDbSymbolTableRecord
100
AcDbLayerTableRecord
  2
242
 70
     0
 62
   242
  6
CONTINUOUS
  0
LAYER
  5
12C
330
2
100
AcDbSymbolTableRecord
100
AcDbLayerTableRecord
  2
243
 70
     0
 62
   243
  6
CONTINUOUS
  0
LAYER
  5
12D
330
2
100
AcDbSymbolTableRecord
100
AcDbLayerTableRecord
  2
244
 70
     0
 62
   244
  6
CONTINUOUS
  0
LAYER
  5
12E
330
2
100
AcDbSymbolTableRecord
100
AcDbLayerTableRecord
  2
245
 70
     0
 62
   245
  6
CONTINUOUS
  0
LAYER
  5
12F
330
2
100
AcDbSymbolTableRecord
100
AcDbLayerTableRecord
  2
246
 70
     0
 62
   246
  6
CONTINUOUS
  0
LAYER
  5
130
330
2
100
AcDbSymbolTableRecord
100
AcDbLayerTableRecord
  2
247
 70
     0
 62
   247
  6
CONTINUOUS
  0
LAYER
  5
131
330
2
100
AcDbSymbolTableRecord
100
AcDbLayerTableRecord
  2
248
 70
     0
 62
   248
  6
CONTINUOUS
  0
LAYER
  5
132
330
2
100
AcDbSymbolTableRecord
100
AcDbLayerTableRecord
  2
249
 70
     0
 62
   249
  6
CONTINUOUS
  0
LAYER
  5
133
330
2
100
AcDbSymbolTableRecord
100
AcDbLayerTableRecord
  2
250
 70
     0
 62
   250
  6
CONTINUOUS
  0
LAYER
  5
134
330
2
100
AcDbSymbolTableRecord
100
AcDbLayerTableRecord
  2
251
 70
     0
 62
   251
  6
CONTINUOUS
  0
LAYER
  5
135
330
2
100
AcDbSymbolTableRecord
100
AcDbLayerTableRecord
  2
252
 70
     0
 62
   252
  6
CONTINUOUS
  0
LAYER
  5
136
330
2
100
AcDbSymbolTableRecord
100
AcDbLayerTableRecord
  2
253
 70
     0
 62
   253
  6
CONTINUOUS
  0
LAYER
  5
137
330
2
100
AcDbSymbolTableRecord
100
AcDbLayerTableRecord
  2
254
 70
     0
 62
   254
  6
CONTINUOUS
  0
LAYER
  5
138
330
2
100
AcDbSymbolTableRecord
100
AcDbLayerTableRecord
  2
255
 70
     0
 62
   255
  6
CONTINUOUS
  0
LAYER
  5
296B
330
2
100
AcDbSymbolTableRecord
100
AcDbLayerTableRecord
  2
DEFPOINTS
 70
     0
 62
     7
  6
CONTINUOUS
  0
ENDTAB
  0
TABLE
  2
STYLE
  5
3
330
0
100
AcDbSymbolTable
 70
     1
  0
STYLE
  5
11
330
3
100
AcDbSymbolTableRecord
100
AcDbTextStyleTableRecord
  2
STANDARD
 70
     0
 40
0.0
 41
1.0
 50
0.0
 71
     0
 42
0.2
  3
txt
  4

  0
ENDTAB
  0
TABLE
  2
VIEW
  5
6
330
0
100
AcDbSymbolTable
 70
     0
  0
ENDTAB
  0
TABLE
  2
UCS
  5
7
330
0
100
AcDbSymbolTable
 70
     0
  0
ENDTAB
  0
TABLE
  2
APPID
  5
9
330
0
100
AcDbSymbolTable
 70
     1
  0
APPID
  5
12
330
9
100
AcDbSymbolTableRecord
100
AcDbRegAppTableRecord
  2
ACAD
 70
     0
  0
ENDTAB
  0
TABLE
  2
DIMSTYLE
  5
A
330
0
100
AcDbSymbolTable
 70
     1
  0
DIMSTYLE
105
2966
102
{ACAD_REACTORS
330
296A
102
}
330
A
100
AcDbSymbolTableRecord
100
AcDbDimStyleTableRecord
  2
STANDARD
 70
     0
  3

  4

  5

  6

  7

 40
1.0
 41
0.18
 42
0.0625
 43
0.38
 44
0.18
 45
0.0
 46
0.0
 47
0.0
 48
0.0
140
0.18
141
0.09
142
0.0
143
25.4
144
1.0
145
0.0
146
1.0
147
0.09
 71
     0
 72
     0
 73
     1
 74
     1
 75
     0
 76
     0
 77
     0
 78
     0
170
     0
171
     2
172
     0
173
     0
174
     0
175
     0
176
     0
177
     0
178
     0
270
     2
271
     4
272
     4
273
     2
274
     2
340
11
275
     0
280
     0
281
     0
282
     0
283
     1
284
     0
285
     0
286
     0
287
     3
288
     0
  0
ENDTAB
  0
TABLE
  2
BLOCK_RECORD
  5
1
330
0
100
AcDbSymbolTable
 70
     1
  0
BLOCK_RECORD
  5
1E
102
{ACAD_XDICTIONARY
360
297E
102
}
330
1
100
AcDbSymbolTableRecord
100
AcDbBlockTableRecord
  2
*MODEL_SPACE
  0
BLOCK_RECORD
  5
1A
102
{ACAD_XDICTIONARY
360
297C
102
}
330
1
100
AcDbSymbolTableRecord
100
AcDbBlockTableRecord
  2
*PAPER_SPACE
  0
BLOCK_RECORD
  5
296C
330
1
100
AcDbSymbolTableRecord
100
AcDbBlockTableRecord
  2
*D0
  0
ENDTAB
  0
ENDSEC
  0
SECTION
  2
BLOCKS
  0
BLOCK
  5
13B
330
1E
100
AcDbEntity
  8
0
100
AcDbBlockBegin
  2
*MODEL_SPACE
 70
     0
 10
0.0
 20
0.0
 30
0.0
  3
*MODEL_SPACE
  1

  0
ENDBLK
  5
13C
330
1E
100
AcDbEntity
  8
0
100
AcDbBlockEnd
  0
BLOCK
  5
139
330
1A
100
AcDbEntity
 67
     1
  8
0
100
AcDbBlockBegin
  2
*PAPER_SPACE
 70
     0
 10
0.0
 20
0.0
 30
0.0
  3
*PAPER_SPACE
  1

  0
ENDBLK
  5
13A
330
1A
100
AcDbEntity
 67
     1
  8
0
100
AcDbBlockEnd
  0
BLOCK
  5
2977
330
296C
100
AcDbEntity
  8
0
100
AcDbBlockBegin
  2
*D0
 70
     1
 10
0.0
 20
0.0
 30
0.0
  3
*D0
  1

  0
LINE
  5
296D
330
296C
100
AcDbEntity
  8
0
 62
     0
100
AcDbLine
 10
1.876476377952755
 20
7.074803149606299
 30
0.0
 11
1.299658371196962
 21
7.074803149606299
 31
0.0
  0
LINE
  5
296E
330
296C
100
AcDbEntity
  8
0
 62
     0
100
AcDbLine
 10
1.876476377952755
 20
5.658464566929133
 30
0.0
 11
1.299658371196961
 21
5.658464566929133
 31
0.0
  0
LINE
  5
296F
330
296C
100
AcDbEntity
  8
0
 62
     0
100
AcDbLine
 10
1.479658371196961
 20
6.894803149606299
 30
0.0
 11
1.479658371196961
 21
6.546633858267716
 31
0.0
  0
LINE
  5
2970
330
296C
100
AcDbEntity
  8
0
 62
     0
100
AcDbLine
 10
1.479658371196961
 20
5.838464566929133
 30
0.0
 11
1.479658371196961
 21
6.186633858267716
 31
0.0
  0
SOLID
  5
2971
330
296C
100
AcDbEntity
  8
0
 62
     0
100
AcDbTrace
 10
1.449658371196961
 20
6.894803149606299
 30
0.0
 11
1.509658371196962
 21
6.894803149606299
 31
0.0
 12
1.479658371196961
 22
7.074803149606299
 32
0.0
 13
1.479658371196961
 23
7.074803149606299
 33
0.0
  0
SOLID
  5
2972
330
296C
100
AcDbEntity
  8
0
 62
     0
100
AcDbTrace
 10
1.449658371196961
 20
5.838464566929133
 30
0.0
 11
1.509658371196961
 21
5.838464566929133
 31
0.0
 12
1.479658371196961
 22
5.658464566929133
 32
0.0
 13
1.479658371196961
 23
5.658464566929133
 33
0.0
  0
MTEXT
  5
2973
330
296C
100
AcDbEntity
  8
0
 62
     0
100
AcDbMText
 10
1.47965837119696
 20
6.366633858267716
 30
0.0
 40
0.18
 41
0.0
 71
     5
 72
     1
  1
\A1;1.4163
1001
ACAD
1000
MTEXTBEGIN
1070
    73
1070
     1
1070
    44
1040
1.0
1070
    74
1070
     0
1000
MTEXTEND
  0
POINT
  5
2974
330
296C
100
AcDbEntity
  8
DEFPOINTS
 62
     0
100
AcDbPoint
 10
1.938976377952755
 20
7.074803149606299
 30
0.0
  0
POINT
  5
2975
330
296C
100
AcDbEntity
  8
DEFPOINTS
 62
     0
100
AcDbPoint
 10
1.938976377952755
 20
5.658464566929133
 30
0.0
  0
POINT
  5
2976
330
296C
100
AcDbEntity
  8
DEFPOINTS
 62
     0
100
AcDbPoint
 10
1.479658371196961
 20
5.658464566929133
 30
0.0
  0
ENDBLK
  5
2978
330
296C
100
AcDbEntity
  8
0
100
AcDbBlockEnd
  0
ENDSEC
  0
SECTION
  2
ENTITIES
  0
LINE
  5
26CE
330
1E
100
AcDbEntity
  8
0
100
AcDbLine
 10
2.760826771653543
 20
7.060039370078739
 30
0.0
 11
2.760826771653543
 21
6.959645669291338
 31
0.0
  0
LINE
  5
26CF
330
1E
100
AcDbEntity
  8
0
100
AcDbLine
 10
3.075787401574803
 20
6.959645669291338
 30
0.0
 11
3.075787401574803
 21
7.060039370078739
 31
0.0
  0
LINE
  5
26D0
330
1E
100
AcDbEntity
  8
0
100
AcDbLine
 10
3.075787401574803
 20
7.060039370078739
 30
0.0
 11
3.06003937007874
 21
7.074803149606299
 31
0.0
  0
LINE
  5
26D1
330
1E
100
AcDbEntity
  8
0
100
AcDbLine
 10
2.775590551181102
 20
7.074803149606299
 30
0.0
 11
2.760826771653543
 21
7.060039370078739
 31
0.0
  0
LINE
  5
26D2
330
1E
100
AcDbEntity
  8
0
100
AcDbLine
 10
2.760826771653543
 20
5.674212598425197
 30
0.0
 11
2.775590551181102
 21
5.658464566929133
 31
0.0
  0
LINE
  5
26D3
330
1E
100
AcDbEntity
  8
0
100
AcDbLine
 10
3.06003937007874
 20
5.658464566929133
 30
0.0
 11
3.075787401574803
 21
5.674212598425197
 31
0.0
  0
LINE
  5
26D4
330
1E
100
AcDbEntity
  8
0
100
AcDbLine
 10
2.760826771653543
 20
6.174212598425197
 30
0.0
 11
2.760826771653543
 21
5.674212598425197
 31
0.0
  0
LINE
  5
26D5
330
1E
100
AcDbEntity
  8
0
100
AcDbLine
 10
3.075787401574803
 20
5.674212598425197
 30
0.0
 11
3.075787401574803
 21
6.174212598425197
 31
0.0
  0
POLYLINE
  5
26D6
330
1E
100
AcDbEntity
  8
0
100
AcDb2dPolyline
 66
     1
 10
0.0
 20
0.0
 30
0.0
  0
VERTEX
  5
2980
330
26D6
100
AcDbEntity
  8
0
100
AcDbVertex
100
AcDb2dVertex
 10
2.918307086614173
 20
7.060039370078739
 30
0.0
  0
VERTEX
  5
2981
330
26D6
100
AcDbEntity
  8
0
100
AcDbVertex
100
AcDb2dVertex
 10
2.876968503937007
 20
7.060039370078739
 30
0.0
  0
VERTEX
  5
2982
330
26D6
100
AcDbEntity
  8
0
100
AcDbVertex
100
AcDb2dVertex
 10
2.839566929133858
 20
7.060039370078739
 30
0.0
  0
VERTEX
  5
2983
330
26D6
100
AcDbEntity
  8
0
100
AcDbVertex
100
AcDb2dVertex
 10
2.807086614173228
 20
7.060039370078739
 30
0.0
  0
VERTEX
  5
2984
330
26D6
100
AcDbEntity
  8
0
100
AcDbVertex
100
AcDb2dVertex
 10
2.781496062992125
 20
7.060039370078739
 30
0.0
  0
VERTEX
  5
2985
330
26D6
100
AcDbEntity
  8
0
100
AcDbVertex
100
AcDb2dVertex
 10
2.765748031496062
 20
7.060039370078739
 30
0.0
  0
VERTEX
  5
2986
330
26D6
100
AcDbEntity
  8
0
100
AcDbVertex
100
AcDb2dVertex
 10
2.760826771653543
 20
7.060039370078739
 30
0.0
  0
SEQEND
  5
2987
330
26D6
100
AcDbEntity
  8
0
  0
POLYLINE
  5
26DF
330
1E
100
AcDbEntity
  8
0
100
AcDb2dPolyline
 66
     1
 10
0.0
 20
0.0
 30
0.0
  0
VERTEX
  5
2988
330
26DF
100
AcDbEntity
  8
0
100
AcDbVertex
100
AcDb2dVertex
 10
3.075787401574803
 20
7.060039370078739
 30
0.0
  0
VERTEX
  5
2989
330
26DF
100
AcDbEntity
  8
0
100
AcDbVertex
100
AcDb2dVertex
 10
3.069881889763779
 20
7.060039370078739
 30
0.0
  0
VERTEX
  5
298A
330
26DF
100
AcDbEntity
  8
0
100
AcDbVertex
100
AcDb2dVertex
 10
3.054133858267716
 20
7.060039370078739
 30
0.0
  0
VERTEX
  5
298B
330
26DF
100
AcDbEntity
  8
0
100
AcDbVertex
100
AcDb2dVertex
 10
3.029527559055118
 20
7.060039370078739
 30
0.0
  0
VERTEX
  5
298C
330
26DF
100
AcDbEntity
  8
0
100
AcDbVertex
100
AcDb2dVertex
 10
2.997047244094487
 20
7.060039370078739
 30
0.0
  0
VERTEX
  5
298D
330
26DF
100
AcDbEntity
  8
0
100
AcDbVertex
100
AcDb2dVertex
 10
2.958661417322834
 20
7.060039370078739
 30
0.0
  0
VERTEX
  5
298E
330
26DF
100
AcDbEntity
  8
0
100
AcDbVertex
100
AcDb2dVertex
 10
2.918307086614173
 20
7.060039370078739
 30
0.0
  0
SEQEND
  5
298F
330
26DF
100
AcDbEntity
  8
0
  0
POLYLINE
  5
26E8
330
1E
100
AcDbEntity
  8
0
100
AcDb2dPolyline
 66
     1
 10
0.0
 20
0.0
 30
0.0
  0
VERTEX
  5
2990
330
26E8
100
AcDbEntity
  8
0
100
AcDbVertex
100
AcDb2dVertex
 10
2.775590551181102
 20
7.074803149606299
 30
0.0
  0
VERTEX
  5
2991
330
26E8
100
AcDbEntity
  8
0
100
AcDbVertex
100
AcDb2dVertex
 10
2.779527559055118
 20
7.074803149606299
 30
0.0
  0
VERTEX
  5
2992
330
26E8
100
AcDbEntity
  8
0
100
AcDbVertex
100
AcDb2dVertex
 10
2.791338582677165
 20
7.074803149606299
 30
0.0
  0
VERTEX
  5
2993
330
26E8
100
AcDbEntity
  8
0
100
AcDbVertex
100
AcDb2dVertex
 10
2.811023622047244
 20
7.074803149606299
 30
0.0
  0
VERTEX
  5
2994
330
26E8
100
AcDbEntity
  8
0
100
AcDbVertex
100
AcDb2dVertex
 10
2.836614173228346
 20
7.074803149606299
 30
0.0
  0
VERTEX
  5
2995
330
26E8
100
AcDbEntity
  8
0
100
AcDbVertex
100
AcDb2dVertex
 10
2.867125984251968
 20
7.074803149606299
 30
0.0
  0
VERTEX
  5
2996
330
26E8
100
AcDbEntity
  8
0
100
AcDbVertex
100
AcDb2dVertex
 10
2.900590551181102
 20
7.074803149606299
 30
0.0
  0
VERTEX
  5
2997
330
26E8
100
AcDbEntity
  8
0
100
AcDbVertex
100
AcDb2dVertex
 10
2.93503937007874
 20
7.074803149606299
 30
0.0
  0
VERTEX
  5
2998
330
26E8
100
AcDbEntity
  8
0
100
AcDbVertex
100
AcDb2dVertex
 10
2.968503937007874
 20
7.074803149606299
 30
0.0
  0
VERTEX
  5
2999
330
26E8
100
AcDbEntity
  8
0
100
AcDbVertex
100
AcDb2dVertex
 10
2.999015748031495
 20
7.074803149606299
 30
0.0
  0
VERTEX
  5
299A
330
26E8
100
AcDbEntity
  8
0
100
AcDbVertex
100
AcDb2dVertex
 10
3.024606299212598
 20
7.074803149606299
 30
0.0
  0
VERTEX
  5
299B
330
26E8
100
AcDbEntity
  8
0
100
AcDbVertex
100
AcDb2dVertex
 10
3.044291338582677
 20
7.074803149606299
 30
0.0
  0
VERTEX
  5
299C
330
26E8
100
AcDbEntity
  8
0
100
AcDbVertex
100
AcDb2dVertex
 10
3.056102362204724
 20
7.074803149606299
 30
0.0
  0
VERTEX
  5
299D
330
26E8
100
AcDbEntity
  8
0
100
AcDbVertex
100
AcDb2dVertex
 10
3.06003937007874
 20
7.074803149606299
 30
0.0
  0
SEQEND
  5
299E
330
26E8
100
AcDbEntity
  8
0
  0
POLYLINE
  5
26F8
330
1E
100
AcDbEntity
  8
0
100
AcDb2dPolyline
 66
     1
 10
0.0
 20
0.0
 30
0.0
  0
VERTEX
  5
299F
330
26F8
100
AcDbEntity
  8
0
100
AcDbVertex
100
AcDb2dVertex
 10
2.918307086614173
 20
5.658464566929133
 30
0.0
  0
VERTEX
  5
29A0
330
26F8
100
AcDbEntity
  8
0
100
AcDbVertex
100
AcDb2dVertex
 10
2.880905511811023
 20
5.658464566929133
 30
0.0
  0
VERTEX
  5
29A1
330
26F8
100
AcDbEntity
  8
0
100
AcDbVertex
100
AcDb2dVertex
 10
2.846456692913385
 20
5.658464566929133
 30
0.0
  0
VERTEX
  5
29A2
330
26F8
100
AcDbEntity
  8
0
100
AcDbVertex
100
AcDb2dVertex
 10
2.816929133858267
 20
5.658464566929133
 30
0.0
  0
VERTEX
  5
29A3
330
26F8
100
AcDbEntity
  8
0
100
AcDbVertex
100
AcDb2dVertex
 10
2.794291338582677
 20
5.658464566929133
 30
0.0
  0
VERTEX
  5
29A4
330
26F8
100
AcDbEntity
  8
0
100
AcDbVertex
100
AcDb2dVertex
 10
2.780511811023622
 20
5.658464566929133
 30
0.0
  0
VERTEX
  5
29A5
330
26F8
100
AcDbEntity
  8
0
100
AcDbVertex
100
AcDb2dVertex
 10
2.775590551181102
 20
5.658464566929133
 30
0.0
  0
SEQEND
  5
29A6
330
26F8
100
AcDbEntity
  8
0
  0
POLYLINE
  5
2701
330
1E
100
AcDbEntity
  8
0
100
AcDb2dPolyline
 66
     1
 10
0.0
 20
0.0
 30
0.0
  0
VERTEX
  5
29A7
330
2701
100
AcDbEntity
  8
0
100
AcDbVertex
100
AcDb2dVertex
 10
3.06003937007874
 20
5.658464566929133
 30
0.0
  0
VERTEX
  5
29A8
330
2701
100
AcDbEntity
  8
0
100
AcDbVertex
100
AcDb2dVertex
 10
3.056102362204724
 20
5.658464566929133
 30
0.0
  0
VERTEX
  5
29A9
330
2701
100
AcDbEntity
  8
0
100
AcDbVertex
100
AcDb2dVertex
 10
3.041338582677165
 20
5.658464566929133
 30
0.0
  0
VERTEX
  5
29AA
330
2701
100
AcDbEntity
  8
0
100
AcDbVertex
100
AcDb2dVertex
 10
3.018700787401574
 20
5.658464566929133
 30
0.0
  0
VERTEX
  5
29AB
330
2701
100
AcDbEntity
  8
0
100
AcDbVertex
100
AcDb2dVertex
 10
2.989173228346456
 20
5.658464566929133
 30
0.0
  0
VERTEX
  5
29AC
330
2701
100
AcDbEntity
  8
0
100
AcDbVertex
100
AcDb2dVertex
 10
2.954724409448818
 20
5.658464566929133
 30
0.0
  0
VERTEX
  5
29AD
330
2701
100
AcDbEntity
  8
0
100
AcDbVertex
100
AcDb2dVertex
 10
2.918307086614173
 20
5.658464566929133
 30
0.0
  0
SEQEND
  5
29AE
330
2701
100
AcDbEntity
  8
0
  0
POLYLINE
  5
270A
330
1E
100
AcDbEntity
  8
0
100
AcDb2dPolyline
 66
     1
 10
0.0
 20
0.0
 30
0.0
  0
VERTEX
  5
29AF
330
270A
100
AcDbEntity
  8
0
100
AcDbVertex
100
AcDb2dVertex
 10
2.760826771653543
 20
5.674212598425197
 30
0.0
  0
VERTEX
  5
29B0
330
270A
100
AcDbEntity
  8
0
100
AcDbVertex
100
AcDb2dVertex
 10
2.764763779527558
 20
5.674212598425197
 30
0.0
  0
VERTEX
  5
29B1
330
270A
100
AcDbEntity
  8
0
100
AcDbVertex
100
AcDb2dVertex
 10
2.778543307086614
 20
5.674212598425197
 30
0.0
  0
VERTEX
  5
29B2
330
270A
100
AcDbEntity
  8
0
100
AcDbVertex
100
AcDb2dVertex
 10
2.8001968503937
 20
5.674212598425197
 30
0.0
  0
VERTEX
  5
29B3
330
270A
100
AcDbEntity
  8
0
100
AcDbVertex
100
AcDb2dVertex
 10
2.828740157480314
 20
5.674212598425197
 30
0.0
  0
VERTEX
  5
29B4
330
270A
100
AcDbEntity
  8
0
100
AcDbVertex
100
AcDb2dVertex
 10
2.862204724409448
 20
5.674212598425197
 30
0.0
  0
VERTEX
  5
29B5
330
270A
100
AcDbEntity
  8
0
100
AcDbVertex
100
AcDb2dVertex
 10
2.898622047244094
 20
5.674212598425197
 30
0.0
  0
VERTEX
  5
29B6
330
270A
100
AcDbEntity
  8
0
100
AcDbVertex
100
AcDb2dVertex
 10
2.937007874015748
 20
5.674212598425197
 30
0.0
  0
VERTEX
  5
29B7
330
270A
100
AcDbEntity
  8
0
100
AcDbVertex
100
AcDb2dVertex
 10
2.973425196850393
 20
5.674212598425197
 30
0.0
  0
VERTEX
  5
29B8
330
270A
100
AcDbEntity
  8
0
100
AcDbVertex
100
AcDb2dVertex
 10
3.007874015748031
 20
5.674212598425197
 30
0.0
  0
VERTEX
  5
29B9
330
270A
100
AcDbEntity
  8
0
100
AcDbVertex
100
AcDb2dVertex
 10
3.035433070866141
 20
5.674212598425197
 30
0.0
  0
VERTEX
  5
29BA
330
270A
100
AcDbEntity
  8
0
100
AcDbVertex
100
AcDb2dVertex
 10
3.057086614173228
 20
5.674212598425197
 30
0.0
  0
VERTEX
  5
29BB
330
270A
100
AcDbEntity
  8
0
100
AcDbVertex
100
AcDb2dVertex
 10
3.070866141732283
 20
5.674212598425197
 30
0.0
  0
VERTEX
  5
29BC
330
270A
100
AcDbEntity
  8
0
100
AcDbVertex
100
AcDb2dVertex
 10
3.075787401574803
 20
5.674212598425197
 30
0.0
  0
SEQEND
  5
29BD
330
270A
100
AcDbEntity
  8
0
  0
LINE
  5
271A
330
1E
100
AcDbEntity
  8
0
100
AcDbLine
 10
2.632874015748031
 20
6.174212598425197
 30
0.0
 11
2.629921259842519
 21
6.558070866141732
 31
0.0
  0
LINE
  5
271B
330
1E
100
AcDbEntity
  8
0
100
AcDbLine
 10
3.202755905511811
 20
6.174212598425197
 30
0.0
 11
3.206692913385826
 21
6.558070866141732
 31
0.0
  0
LINE
  5
271C
330
1E
100
AcDbEntity
  8
0
100
AcDbLine
 10
3.118110236220472
 20
6.639763779527559
 30
0.0
 11
3.239173228346456
 21
6.639763779527559
 31
0.0
  0
LINE
  5
271D
330
1E
100
AcDbEntity
  8
0
100
AcDbLine
 10
3.118110236220472
 20
6.639763779527559
 30
0.0
 11
3.112204724409448
 21
6.959645669291338
 31
0.0
  0
LINE
  5
271E
330
1E
100
AcDbEntity
  8
0
100
AcDbLine
 10
3.112204724409448
 20
6.959645669291338
 30
0.0
 11
2.723425196850393
 21
6.959645669291338
 31
0.0
  0
LINE
  5
271F
330
1E
100
AcDbEntity
  8
0
100
AcDbLine
 10
2.717519685039369
 20
6.639763779527559
 30
0.0
 11
2.723425196850393
 21
6.959645669291338
 31
0.0
  0
LINE
  5
2720
330
1E
100
AcDbEntity
  8
0
100
AcDbLine
 10
2.596456692913385
 20
6.639763779527559
 30
0.0
 11
2.717519685039369
 21
6.639763779527559
 31
0.0
  0
LINE
  5
2721
330
1E
100
AcDbEntity
  8
0
100
AcDbLine
 10
2.596456692913385
 20
6.639763779527559
 30
0.0
 11
2.597440944881889
 21
6.558070866141732
 31
0.0
  0
LINE
  5
2722
330
1E
100
AcDbEntity
  8
0
100
AcDbLine
 10
2.597440944881889
 20
6.558070866141732
 30
0.0
 11
2.629921259842519
 21
6.558070866141732
 31
0.0
  0
LINE
  5
2723
330
1E
100
AcDbEntity
  8
0
100
AcDbLine
 10
2.670275590551181
 20
6.558070866141732
 30
0.0
 11
2.629921259842519
 21
6.558070866141732
 31
0.0
  0
LINE
  5
2724
330
1E
100
AcDbEntity
  8
0
100
AcDbLine
 10
2.670275590551181
 20
6.558070866141732
 30
0.0
 11
2.673228346456693
 21
6.494094488188975
 31
0.0
  0
LINE
  5
2725
330
1E
100
AcDbEntity
  8
0
100
AcDbLine
 10
3.163385826771653
 20
6.494094488188975
 30
0.0
 11
3.165354330708661
 21
6.558070866141732
 31
0.0
  0
LINE
  5
2726
330
1E
100
AcDbEntity
  8
0
100
AcDbLine
 10
3.206692913385826
 20
6.558070866141732
 30
0.0
 11
3.165354330708661
 21
6.558070866141732
 31
0.0
  0
LINE
  5
2727
330
1E
100
AcDbEntity
  8
0
100
AcDbLine
 10
3.206692913385826
 20
6.558070866141732
 30
0.0
 11
3.238188976377952
 21
6.558070866141732
 31
0.0
  0
LINE
  5
2728
330
1E
100
AcDbEntity
  8
0
100
AcDbLine
 10
3.239173228346456
 20
6.639763779527559
 30
0.0
 11
3.238188976377952
 21
6.558070866141732
 31
0.0
  0
LINE
  5
2729
330
1E
100
AcDbEntity
  8
0
100
AcDbLine
 10
2.632874015748031
 20
6.174212598425197
 30
0.0
 11
3.202755905511811
 21
6.174212598425197
 31
0.0
  0
LINE
  5
272A
330
1E
100
AcDbEntity
  8
0
100
AcDbLine
 10
2.677165354330708
 20
6.381889763779527
 30
0.0
 11
3.159448818897637
 21
6.381889763779527
 31
0.0
  0
LINE
  5
272B
330
1E
100
AcDbEntity
  8
0
100
AcDbLine
 10
3.159448818897637
 20
6.381889763779527
 30
0.0
 11
3.163385826771653
 21
6.494094488188975
 31
0.0
  0
LINE
  5
272C
330
1E
100
AcDbEntity
  8
0
100
AcDbLine
 10
3.163385826771653
 20
6.494094488188975
 30
0.0
 11
2.673228346456693
 21
6.494094488188975
 31
0.0
  0
LINE
  5
272D
330
1E
100
AcDbEntity
  8
0
100
AcDbLine
 10
2.677165354330708
 20
6.381889763779527
 30
0.0
 11
2.673228346456693
 21
6.494094488188975
 31
0.0
  0
CIRCLE
  5
272E
330
1E
100
AcDbEntity
  8
0
100
AcDbCircle
 10
2.917814960629921
 20
4.409940944881889
 30
0.0
 40
0.2357288601575781
  0
CIRCLE
  5
272F
330
1E
100
AcDbEntity
  8
0
100
AcDbCircle
 10
2.917814960629921
 20
4.409940944881889
 30
0.0
 40
0.1422252608753088
  0
POLYLINE
  5
2730
330
1E
100
AcDbEntity
  8
0
100
AcDb2dPolyline
 66
     1
 10
0.0
 20
0.0
 30
0.0
  0
VERTEX
  5
29BE
330
2730
100
AcDbEntity
  8
0
100
AcDbVertex
100
AcDb2dVertex
 10
2.918307086614173
 20
4.338582677165354
 30
0.0
  0
VERTEX
  5
29BF
330
2730
100
AcDbEntity
  8
0
100
AcDbVertex
100
AcDb2dVertex
 10
2.893700787401574
 20
4.343503937007874
 30
0.0
  0
VERTEX
  5
29C0
330
2730
100
AcDbEntity
  8
0
100
AcDbVertex
100
AcDb2dVertex
 10
2.872047244094487
 20
4.355314960629921
 30
0.0
  0
VERTEX
  5
29C1
330
2730
100
AcDbEntity
  8
0
100
AcDbVertex
100
AcDb2dVertex
 10
2.856299212598425
 20
4.374015748031496
 30
0.0
  0
VERTEX
  5
29C2
330
2730
100
AcDbEntity
  8
0
100
AcDbVertex
100
AcDb2dVertex
 10
2.848425196850393
 20
4.39763779527559
 30
0.0
  0
VERTEX
  5
29C3
330
2730
100
AcDbEntity
  8
0
100
AcDbVertex
100
AcDb2dVertex
 10
2.848425196850393
 20
4.422244094488188
 30
0.0
  0
VERTEX
  5
29C4
330
2730
100
AcDbEntity
  8
0
100
AcDbVertex
100
AcDb2dVertex
 10
2.856299212598425
 20
4.445866141732283
 30
0.0
  0
VERTEX
  5
29C5
330
2730
100
AcDbEntity
  8
0
100
AcDbVertex
100
AcDb2dVertex
 10
2.872047244094487
 20
4.464566929133858
 30
0.0
  0
VERTEX
  5
29C6
330
2730
100
AcDbEntity
  8
0
100
AcDbVertex
100
AcDb2dVertex
 10
2.893700787401574
 20
4.476377952755905
 30
0.0
  0
VERTEX
  5
29C7
330
2730
100
AcDbEntity
  8
0
100
AcDbVertex
100
AcDb2dVertex
 10
2.918307086614173
 20
4.481299212598425
 30
0.0
  0
VERTEX
  5
29C8
330
2730
100
AcDbEntity
  8
0
100
AcDbVertex
100
AcDb2dVertex
 10
2.941929133858267
 20
4.476377952755905
 30
0.0
  0
VERTEX
  5
29C9
330
2730
100
AcDbEntity
  8
0
100
AcDbVertex
100
AcDb2dVertex
 10
2.963582677165354
 20
4.464566929133858
 30
0.0
  0
VERTEX
  5
29CA
330
2730
100
AcDbEntity
  8
0
100
AcDbVertex
100
AcDb2dVertex
 10
2.979330708661417
 20
4.445866141732283
 30
0.0
  0
VERTEX
  5
29CB
330
2730
100
AcDbEntity
  8
0
100
AcDbVertex
100
AcDb2dVertex
 10
2.988188976377952
 20
4.422244094488188
 30
0.0
  0
VERTEX
  5
29CC
330
2730
100
AcDbEntity
  8
0
100
AcDbVertex
100
AcDb2dVertex
 10
2.988188976377952
 20
4.39763779527559
 30
0.0
  0
VERTEX
  5
29CD
330
2730
100
AcDbEntity
  8
0
100
AcDbVertex
100
AcDb2dVertex
 10
2.979330708661417
 20
4.374015748031496
 30
0.0
  0
VERTEX
  5
29CE
330
2730
100
AcDbEntity
  8
0
100
AcDbVertex
100
AcDb2dVertex
 10
2.963582677165354
 20
4.355314960629921
 30
0.0
  0
VERTEX
  5
29CF
330
2730
100
AcDbEntity
  8
0
100
AcDbVertex
100
AcDb2dVertex
 10
2.941929133858267
 20
4.343503937007874
 30
0.0
  0
VERTEX
  5
29D0
330
2730
100
AcDbEntity
  8
0
100
AcDbVertex
100
AcDb2dVertex
 10
2.918307086614173
 20
4.338582677165354
 30
0.0
  0
SEQEND
  5
29D1
330
2730
100
AcDbEntity
  8
0
  0
CIRCLE
  5
2745
330
1E
100
AcDbEntity
  8
0
100
AcDbCircle
 10
2.917814960629921
 20
4.409448818897637
 30
0.0
 40
0.1564968367732071
  0
CIRCLE
  5
2746
330
1E
100
AcDbEntity
  8
0
100
AcDbCircle
 10
2.917814960629921
 20
4.409940944881889
 30
0.0
 40
0.2396658595929936
  0
LINE
  5
2747
330
1E
100
AcDbEntity
  8
0
100
AcDbLine
 10
3.203740157480314
 20
4.691929133858267
 30
0.0
 11
3.203740157480314
 21
4.150590551181101
 31
0.0
  0
LINE
  5
2748
330
1E
100
AcDbEntity
  8
0
100
AcDbLine
 10
2.631889763779527
 20
4.691929133858267
 30
0.0
 11
2.631889763779527
 21
4.150590551181101
 31
0.0
  0
LINE
  5
2749
330
1E
100
AcDbEntity
  8
0
100
AcDbLine
 10
2.632874015748031
 20
4.121062992125984
 30
0.0
 11
2.630905511811023
 21
3.994094488188976
 31
0.0
  0
LINE
  5
274A
330
1E
100
AcDbEntity
  8
0
100
AcDbLine
 10
2.632874015748031
 20
4.121062992125984
 30
0.0
 11
2.632874015748031
 21
4.121062992125984
 31
0.0
  0
LINE
  5
274B
330
1E
100
AcDbEntity
  8
0
100
AcDbLine
 10
2.632874015748031
 20
4.121062992125984
 30
0.0
 11
2.632874015748031
 21
4.756889763779527
 31
0.0
  0
LINE
  5
274C
330
1E
100
AcDbEntity
  8
0
100
AcDbLine
 10
2.632874015748031
 20
4.756889763779527
 30
0.0
 11
2.629921259842519
 21
4.763779527559054
 31
0.0
  0
LINE
  5
274D
330
1E
100
AcDbEntity
  8
0
100
AcDbLine
 10
2.629921259842519
 20
4.694881889763779
 30
0.0
 11
2.629921259842519
 21
4.763779527559054
 31
0.0
  0
LINE
  5
274E
330
1E
100
AcDbEntity
  8
0
100
AcDbLine
 10
2.628937007874015
 20
4.694881889763779
 30
0.0
 11
2.629921259842519
 21
4.694881889763779
 31
0.0
  0
LINE
  5
274F
330
1E
100
AcDbEntity
  8
0
100
AcDbLine
 10
2.628937007874015
 20
4.694881889763779
 30
0.0
 11
2.631889763779527
 21
4.691929133858267
 31
0.0
  0
LINE
  5
2750
330
1E
100
AcDbEntity
  8
0
100
AcDbLine
 10
2.631889763779527
 20
4.150590551181101
 30
0.0
 11
2.631889763779527
 21
4.146653543307086
 31
0.0
  0
LINE
  5
2751
330
1E
100
AcDbEntity
  8
0
100
AcDbLine
 10
2.631889763779527
 20
4.146653543307086
 30
0.0
 11
2.630905511811023
 21
4.063976377952755
 31
0.0
  0
LINE
  5
2752
330
1E
100
AcDbEntity
  8
0
100
AcDbLine
 10
2.630905511811023
 20
4.063976377952755
 30
0.0
 11
2.628937007874015
 21
4.062992125984251
 31
0.0
  0
LINE
  5
2753
330
1E
100
AcDbEntity
  8
0
100
AcDbLine
 10
2.628937007874015
 20
4.062007874015748
 30
0.0
 11
2.628937007874015
 21
4.062992125984251
 31
0.0
  0
LINE
  5
2754
330
1E
100
AcDbEntity
  8
0
100
AcDbLine
 10
2.628937007874015
 20
4.062007874015748
 30
0.0
 11
2.629921259842519
 21
4.028543307086613
 31
0.0
  0
LINE
  5
2755
330
1E
100
AcDbEntity
  8
0
100
AcDbLine
 10
2.629921259842519
 20
3.993110236220472
 30
0.0
 11
2.629921259842519
 21
4.028543307086613
 31
0.0
  0
LINE
  5
2756
330
1E
100
AcDbEntity
  8
0
100
AcDbLine
 10
2.630905511811023
 20
3.994094488188976
 30
0.0
 11
2.629921259842519
 21
3.993110236220472
 31
0.0
  0
LINE
  5
2757
330
1E
100
AcDbEntity
  8
0
100
AcDbLine
 10
3.202755905511811
 20
4.756889763779527
 30
0.0
 11
3.206692913385826
 21
4.763779527559054
 31
0.0
  0
LINE
  5
2758
330
1E
100
AcDbEntity
  8
0
100
AcDbLine
 10
3.202755905511811
 20
4.756889763779527
 30
0.0
 11
3.202755905511811
 21
4.121062992125984
 31
0.0
  0
LINE
  5
2759
330
1E
100
AcDbEntity
  8
0
100
AcDbLine
 10
3.202755905511811
 20
4.121062992125984
 30
0.0
 11
3.202755905511811
 21
4.121062992125984
 31
0.0
  0
LINE
  5
275A
330
1E
100
AcDbEntity
  8
0
100
AcDbLine
 10
3.202755905511811
 20
4.121062992125984
 30
0.0
 11
3.204724409448818
 21
3.994094488188976
 31
0.0
  0
LINE
  5
275B
330
1E
100
AcDbEntity
  8
0
100
AcDbLine
 10
3.204724409448818
 20
3.994094488188976
 30
0.0
 11
3.206692913385826
 21
3.993110236220472
 31
0.0
  0
LINE
  5
275C
330
1E
100
AcDbEntity
  8
0
100
AcDbLine
 10
3.206692913385826
 20
4.028543307086613
 30
0.0
 11
3.206692913385826
 21
3.993110236220472
 31
0.0
  0
LINE
  5
275D
330
1E
100
AcDbEntity
  8
0
100
AcDbLine
 10
3.206692913385826
 20
4.028543307086613
 30
0.0
 11
3.206692913385826
 21
4.062007874015748
 31
0.0
  0
LINE
  5
275E
330
1E
100
AcDbEntity
  8
0
100
AcDbLine
 10
3.206692913385826
 20
4.062007874015748
 30
0.0
 11
3.206692913385826
 21
4.062992125984251
 31
0.0
  0
LINE
  5
275F
330
1E
100
AcDbEntity
  8
0
100
AcDbLine
 10
3.204724409448818
 20
4.063976377952755
 30
0.0
 11
3.206692913385826
 21
4.062992125984251
 31
0.0
  0
LINE
  5
2760
330
1E
100
AcDbEntity
  8
0
100
AcDbLine
 10
3.204724409448818
 20
4.063976377952755
 30
0.0
 11
3.203740157480314
 21
4.146653543307086
 31
0.0
  0
LINE
  5
2761
330
1E
100
AcDbEntity
  8
0
100
AcDbLine
 10
3.203740157480314
 20
4.146653543307086
 30
0.0
 11
3.203740157480314
 21
4.150590551181101
 31
0.0
  0
LINE
  5
2762
330
1E
100
AcDbEntity
  8
0
100
AcDbLine
 10
3.203740157480314
 20
4.691929133858267
 30
0.0
 11
3.206692913385826
 21
4.694881889763779
 31
0.0
  0
LINE
  5
2763
330
1E
100
AcDbEntity
  8
0
100
AcDbLine
 10
3.206692913385826
 20
4.694881889763779
 30
0.0
 11
3.206692913385826
 21
4.694881889763779
 31
0.0
  0
LINE
  5
2764
330
1E
100
AcDbEntity
  8
0
100
AcDbLine
 10
3.206692913385826
 20
4.763779527559054
 30
0.0
 11
3.206692913385826
 21
4.694881889763779
 31
0.0
  0
LINE
  5
2765
330
1E
100
AcDbEntity
  8
0
100
AcDbLine
 10
2.596456692913385
 20
4.76279527559055
 30
0.0
 11
2.597440944881889
 21
4.763779527559054
 31
0.0
  0
LINE
  5
2766
330
1E
100
AcDbEntity
  8
0
100
AcDbLine
 10
2.597440944881889
 20
4.763779527559054
 30
0.0
 11
2.629921259842519
 21
4.763779527559054
 31
0.0
  0
LINE
  5
2767
330
1E
100
AcDbEntity
  8
0
100
AcDbLine
 10
2.670275590551181
 20
4.763779527559054
 30
0.0
 11
2.629921259842519
 21
4.763779527559054
 31
0.0
  0
LINE
  5
2768
330
1E
100
AcDbEntity
  8
0
100
AcDbLine
 10
2.670275590551181
 20
4.763779527559054
 30
0.0
 11
2.673228346456693
 21
4.763779527559054
 31
0.0
  0
LINE
  5
2769
330
1E
100
AcDbEntity
  8
0
100
AcDbLine
 10
3.163385826771653
 20
4.763779527559054
 30
0.0
 11
3.165354330708661
 21
4.763779527559054
 31
0.0
  0
LINE
  5
276A
330
1E
100
AcDbEntity
  8
0
100
AcDbLine
 10
3.206692913385826
 20
4.763779527559054
 30
0.0
 11
3.165354330708661
 21
4.763779527559054
 31
0.0
  0
LINE
  5
276B
330
1E
100
AcDbEntity
  8
0
100
AcDbLine
 10
3.206692913385826
 20
4.763779527559054
 30
0.0
 11
3.238188976377952
 21
4.763779527559054
 31
0.0
  0
LINE
  5
276C
330
1E
100
AcDbEntity
  8
0
100
AcDbLine
 10
3.239173228346456
 20
4.76279527559055
 30
0.0
 11
3.238188976377952
 21
4.763779527559054
 31
0.0
  0
LINE
  5
276D
330
1E
100
AcDbEntity
  8
0
100
AcDbLine
 10
3.238188976377952
 20
4.694881889763779
 30
0.0
 11
3.206692913385826
 21
4.694881889763779
 31
0.0
  0
LINE
  5
276E
330
1E
100
AcDbEntity
  8
0
100
AcDbLine
 10
3.238188976377952
 20
4.763779527559054
 30
0.0
 11
3.238188976377952
 21
4.694881889763779
 31
0.0
  0
LINE
  5
276F
330
1E
100
AcDbEntity
  8
0
100
AcDbLine
 10
3.238188976377952
 20
4.694881889763779
 30
0.0
 11
3.239173228346456
 21
4.694881889763779
 31
0.0
  0
LINE
  5
2770
330
1E
100
AcDbEntity
  8
0
100
AcDbLine
 10
3.206692913385826
 20
4.694881889763779
 30
0.0
 11
3.206692913385826
 21
4.694881889763779
 31
0.0
  0
LINE
  5
2771
330
1E
100
AcDbEntity
  8
0
100
AcDbLine
 10
3.206692913385826
 20
4.694881889763779
 30
0.0
 11
3.239173228346456
 21
4.694881889763779
 31
0.0
  0
LINE
  5
2772
330
1E
100
AcDbEntity
  8
0
100
AcDbLine
 10
2.597440944881889
 20
4.694881889763779
 30
0.0
 11
2.597440944881889
 21
4.763779527559054
 31
0.0
  0
LINE
  5
2773
330
1E
100
AcDbEntity
  8
0
100
AcDbLine
 10
2.629921259842519
 20
4.694881889763779
 30
0.0
 11
2.597440944881889
 21
4.694881889763779
 31
0.0
  0
LINE
  5
2774
330
1E
100
AcDbEntity
  8
0
100
AcDbLine
 10
2.632874015748031
 20
4.756889763779527
 30
0.0
 11
3.202755905511811
 21
4.756889763779527
 31
0.0
  0
LINE
  5
2775
330
1E
100
AcDbEntity
  8
0
100
AcDbLine
 10
3.165354330708661
 20
4.763779527559054
 30
0.0
 11
3.159448818897637
 21
4.760826771653543
 31
0.0
  0
LINE
  5
2776
330
1E
100
AcDbEntity
  8
0
100
AcDbLine
 10
2.677165354330708
 20
4.760826771653543
 30
0.0
 11
3.159448818897637
 21
4.760826771653543
 31
0.0
  0
LINE
  5
2777
330
1E
100
AcDbEntity
  8
0
100
AcDbLine
 10
2.670275590551181
 20
4.763779527559054
 30
0.0
 11
2.677165354330708
 21
4.760826771653543
 31
0.0
  0
LINE
  5
2778
330
1E
100
AcDbEntity
  8
0
100
AcDbLine
 10
3.163385826771653
 20
4.763779527559054
 30
0.0
 11
3.163385826771653
 21
4.808070866141732
 31
0.0
  0
LINE
  5
2779
330
1E
100
AcDbEntity
  8
0
100
AcDbLine
 10
3.159448818897637
 20
4.760826771653543
 30
0.0
 11
3.163385826771653
 21
4.808070866141732
 31
0.0
  0
LINE
  5
277A
330
1E
100
AcDbEntity
  8
0
100
AcDbLine
 10
3.163385826771653
 20
4.808070866141732
 30
0.0
 11
2.673228346456693
 21
4.808070866141732
 31
0.0
  0
LINE
  5
277B
330
1E
100
AcDbEntity
  8
0
100
AcDbLine
 10
2.677165354330708
 20
4.760826771653543
 30
0.0
 11
2.673228346456693
 21
4.808070866141732
 31
0.0
  0
LINE
  5
277C
330
1E
100
AcDbEntity
  8
0
100
AcDbLine
 10
2.673228346456693
 20
4.763779527559054
 30
0.0
 11
2.673228346456693
 21
4.808070866141732
 31
0.0
  0
LINE
  5
277D
330
1E
100
AcDbEntity
  8
0
100
AcDbLine
 10
2.596456692913385
 20
4.694881889763779
 30
0.0
 11
2.628937007874015
 21
4.694881889763779
 31
0.0
  0
LINE
  5
277E
330
1E
100
AcDbEntity
  8
0
100
AcDbLine
 10
2.628937007874015
 20
4.694881889763779
 30
0.0
 11
2.628937007874015
 21
4.694881889763779
 31
0.0
  0
LINE
  5
277F
330
1E
100
AcDbEntity
  8
0
100
AcDbLine
 10
2.597440944881889
 20
4.694881889763779
 30
0.0
 11
2.596456692913385
 21
4.694881889763779
 31
0.0
  0
LINE
  5
2780
330
1E
100
AcDbEntity
  8
0
100
AcDbLine
 10
3.239173228346456
 20
4.694881889763779
 30
0.0
 11
3.239173228346456
 21
4.76279527559055
 31
0.0
  0
LINE
  5
2781
330
1E
100
AcDbEntity
  8
0
100
AcDbLine
 10
2.596456692913385
 20
4.694881889763779
 30
0.0
 11
2.596456692913385
 21
4.76279527559055
 31
0.0
  0
LINE
  5
2782
330
1E
100
AcDbEntity
  8
0
100
AcDbLine
 10
2.596456692913385
 20
3.993110236220472
 30
0.0
 11
2.596456692913385
 21
4.062992125984251
 31
0.0
  0
LINE
  5
2783
330
1E
100
AcDbEntity
  8
0
100
AcDbLine
 10
2.597440944881889
 20
3.993110236220472
 30
0.0
 11
2.596456692913385
 21
3.993110236220472
 31
0.0
  0
LINE
  5
2784
330
1E
100
AcDbEntity
  8
0
100
AcDbLine
 10
2.597440944881889
 20
3.993110236220472
 30
0.0
 11
2.597440944881889
 21
4.028543307086613
 31
0.0
  0
LINE
  5
2785
330
1E
100
AcDbEntity
  8
0
100
AcDbLine
 10
2.597440944881889
 20
4.028543307086613
 30
0.0
 11
2.597440944881889
 21
4.062007874015748
 31
0.0
  0
LINE
  5
2786
330
1E
100
AcDbEntity
  8
0
100
AcDbLine
 10
2.597440944881889
 20
4.062007874015748
 30
0.0
 11
2.596456692913385
 21
4.062992125984251
 31
0.0
  0
LINE
  5
2787
330
1E
100
AcDbEntity
  8
0
100
AcDbLine
 10
2.628937007874015
 20
4.062992125984251
 30
0.0
 11
2.628937007874015
 21
4.062992125984251
 31
0.0
  0
LINE
  5
2788
330
1E
100
AcDbEntity
  8
0
100
AcDbLine
 10
2.596456692913385
 20
4.062992125984251
 30
0.0
 11
2.628937007874015
 21
4.062992125984251
 31
0.0
  0
LINE
  5
2789
330
1E
100
AcDbEntity
  8
0
100
AcDbLine
 10
3.206692913385826
 20
4.062992125984251
 30
0.0
 11
3.206692913385826
 21
4.062992125984251
 31
0.0
  0
LINE
  5
278A
330
1E
100
AcDbEntity
  8
0
100
AcDbLine
 10
3.239173228346456
 20
3.993110236220472
 30
0.0
 11
3.239173228346456
 21
4.062992125984251
 31
0.0
  0
LINE
  5
278B
330
1E
100
AcDbEntity
  8
0
100
AcDbLine
 10
3.206692913385826
 20
4.062992125984251
 30
0.0
 11
3.239173228346456
 21
4.062992125984251
 31
0.0
  0
LINE
  5
278C
330
1E
100
AcDbEntity
  8
0
100
AcDbLine
 10
3.238188976377952
 20
4.062007874015748
 30
0.0
 11
3.239173228346456
 21
4.062992125984251
 31
0.0
  0
LINE
  5
278D
330
1E
100
AcDbEntity
  8
0
100
AcDbLine
 10
3.238188976377952
 20
4.062007874015748
 30
0.0
 11
3.238188976377952
 21
4.028543307086613
 31
0.0
  0
LINE
  5
278E
330
1E
100
AcDbEntity
  8
0
100
AcDbLine
 10
3.238188976377952
 20
4.028543307086613
 30
0.0
 11
3.238188976377952
 21
3.993110236220472
 31
0.0
  0
LINE
  5
278F
330
1E
100
AcDbEntity
  8
0
100
AcDbLine
 10
3.239173228346456
 20
3.993110236220472
 30
0.0
 11
3.238188976377952
 21
3.993110236220472
 31
0.0
  0
LINE
  5
2790
330
1E
100
AcDbEntity
  8
0
100
AcDbLine
 10
3.238188976377952
 20
3.993110236220472
 30
0.0
 11
3.206692913385826
 21
3.993110236220472
 31
0.0
  0
LINE
  5
2791
330
1E
100
AcDbEntity
  8
0
100
AcDbLine
 10
3.165354330708661
 20
3.993110236220472
 30
0.0
 11
3.206692913385826
 21
3.993110236220472
 31
0.0
  0
LINE
  5
2792
330
1E
100
AcDbEntity
  8
0
100
AcDbLine
 10
3.163385826771653
 20
3.992125984251968
 30
0.0
 11
3.165354330708661
 21
3.993110236220472
 31
0.0
  0
LINE
  5
2793
330
1E
100
AcDbEntity
  8
0
100
AcDbLine
 10
2.673228346456693
 20
3.992125984251968
 30
0.0
 11
2.670275590551181
 21
3.993110236220472
 31
0.0
  0
LINE
  5
2794
330
1E
100
AcDbEntity
  8
0
100
AcDbLine
 10
2.629921259842519
 20
3.993110236220472
 30
0.0
 11
2.670275590551181
 21
3.993110236220472
 31
0.0
  0
LINE
  5
2795
330
1E
100
AcDbEntity
  8
0
100
AcDbLine
 10
2.597440944881889
 20
3.993110236220472
 30
0.0
 11
2.629921259842519
 21
3.993110236220472
 31
0.0
  0
LINE
  5
2796
330
1E
100
AcDbEntity
  8
0
100
AcDbLine
 10
3.160433070866141
 20
3.994094488188976
 30
0.0
 11
3.165354330708661
 21
3.993110236220472
 31
0.0
  0
LINE
  5
2797
330
1E
100
AcDbEntity
  8
0
100
AcDbLine
 10
3.163385826771653
 20
3.951771653543307
 30
0.0
 11
3.160433070866141
 21
3.994094488188976
 31
0.0
  0
LINE
  5
2798
330
1E
100
AcDbEntity
  8
0
100
AcDbLine
 10
3.163385826771653
 20
3.992125984251968
 30
0.0
 11
3.163385826771653
 21
3.951771653543307
 31
0.0
  0
LINE
  5
2799
330
1E
100
AcDbEntity
  8
0
100
AcDbLine
 10
2.673228346456693
 20
3.992125984251968
 30
0.0
 11
2.673228346456693
 21
3.951771653543307
 31
0.0
  0
LINE
  5
279A
330
1E
100
AcDbEntity
  8
0
100
AcDbLine
 10
3.163385826771653
 20
3.951771653543307
 30
0.0
 11
2.673228346456693
 21
3.951771653543307
 31
0.0
  0
LINE
  5
279B
330
1E
100
AcDbEntity
  8
0
100
AcDbLine
 10
2.673228346456693
 20
3.951771653543307
 30
0.0
 11
2.6751968503937
 21
3.994094488188976
 31
0.0
  0
LINE
  5
279C
330
1E
100
AcDbEntity
  8
0
100
AcDbLine
 10
2.6751968503937
 20
3.994094488188976
 30
0.0
 11
2.670275590551181
 21
3.993110236220472
 31
0.0
  0
LINE
  5
279D
330
1E
100
AcDbEntity
  8
0
100
AcDbLine
 10
2.6751968503937
 20
3.994094488188976
 30
0.0
 11
2.630905511811023
 21
3.994094488188976
 31
0.0
  0
LINE
  5
279E
330
1E
100
AcDbEntity
  8
0
100
AcDbLine
 10
2.597440944881889
 20
4.028543307086613
 30
0.0
 11
2.629921259842519
 21
4.028543307086613
 31
0.0
  0
LINE
  5
279F
330
1E
100
AcDbEntity
  8
0
100
AcDbLine
 10
2.597440944881889
 20
4.062007874015748
 30
0.0
 11
2.628937007874015
 21
4.062007874015748
 31
0.0
  0
LINE
  5
27A0
330
1E
100
AcDbEntity
  8
0
100
AcDbLine
 10
3.206692913385826
 20
4.062007874015748
 30
0.0
 11
3.238188976377952
 21
4.062007874015748
 31
0.0
  0
LINE
  5
27A1
330
1E
100
AcDbEntity
  8
0
100
AcDbLine
 10
3.206692913385826
 20
4.028543307086613
 30
0.0
 11
3.238188976377952
 21
4.028543307086613
 31
0.0
  0
LINE
  5
27A2
330
1E
100
AcDbEntity
  8
0
100
AcDbLine
 10
3.204724409448818
 20
3.994094488188976
 30
0.0
 11
3.160433070866141
 21
3.994094488188976
 31
0.0
  0
LINE
  5
27A3
330
1E
100
AcDbEntity
  8
0
100
AcDbLine
 10
3.202755905511811
 20
4.121062992125984
 30
0.0
 11
2.632874015748031
 21
4.121062992125984
 31
0.0
  0
CIRCLE
  5
27A4
330
1E
100
AcDbEntity
  8
0
100
AcDbCircle
 10
2.917814960629921
 20
4.409940944881889
 30
0.0
 40
0.2426186093492814
  0
LINE
  5
27A5
330
1E
100
AcDbEntity
  8
0
100
AcDbLine
 10
4.823818897637795
 20
4.633858267716535
 30
0.0
 11
4.799212598425197
 21
4.633858267716535
 31
0.0
  0
LINE
  5
27A6
330
1E
100
AcDbEntity
  8
0
100
AcDbLine
 10
4.799212598425197
 20
4.186023622047244
 30
0.0
 11
4.823818897637795
 21
4.186023622047244
 31
0.0
  0
LINE
  5
27A7
330
1E
100
AcDbEntity
  8
0
100
AcDbLine
 10
4.914370078740157
 20
4.59251968503937
 30
0.0
 11
4.823818897637795
 21
4.59251968503937
 31
0.0
  0
LINE
  5
27A8
330
1E
100
AcDbEntity
  8
0
100
AcDbLine
 10
4.823818897637795
 20
4.227362204724409
 30
0.0
 11
4.914370078740157
 21
4.227362204724409
 31
0.0
  0
LINE
  5
27A9
330
1E
100
AcDbEntity
  8
0
100
AcDbLine
 10
4.539370078740157
 20
4.567913385826771
 30
0.0
 11
4.039370078740157
 21
4.567913385826771
 31
0.0
  0
LINE
  5
27AA
330
1E
100
AcDbEntity
  8
0
100
AcDbLine
 10
4.039370078740157
 20
4.252952755905512
 30
0.0
 11
4.539370078740157
 21
4.252952755905512
 31
0.0
  0
LINE
  5
27AB
330
1E
100
AcDbEntity
  8
0
100
AcDbLine
 10
5.4251968503937
 20
4.252952755905512
 30
0.0
 11
5.43996062992126
 21
4.26771653543307
 31
0.0
  0
LINE
  5
27AC
330
1E
100
AcDbEntity
  8
0
100
AcDbLine
 10
5.43996062992126
 20
4.552165354330708
 30
0.0
 11
5.4251968503937
 21
4.567913385826771
 31
0.0
  0
LINE
  5
27AD
330
1E
100
AcDbEntity
  8
0
100
AcDbLine
 10
5.4251968503937
 20
4.567913385826771
 30
0.0
 11
4.914370078740157
 21
4.567913385826771
 31
0.0
  0
LINE
  5
27AE
330
1E
100
AcDbEntity
  8
0
100
AcDbLine
 10
4.914370078740157
 20
4.252952755905512
 30
0.0
 11
5.4251968503937
 21
4.252952755905512
 31
0.0
  0
LINE
  5
27AF
330
1E
100
AcDbEntity
  8
0
100
AcDbLine
 10
4.039370078740157
 20
4.567913385826771
 30
0.0
 11
4.023622047244094
 21
4.552165354330708
 31
0.0
  0
LINE
  5
27B0
330
1E
100
AcDbEntity
  8
0
100
AcDbLine
 10
4.023622047244094
 20
4.26771653543307
 30
0.0
 11
4.039370078740157
 21
4.252952755905512
 31
0.0
  0
POLYLINE
  5
27B1
330
1E
100
AcDbEntity
  8
0
100
AcDb2dPolyline
 66
     1
 10
0.0
 20
0.0
 30
0.0
  0
VERTEX
  5
29D2
330
27B1
100
AcDbEntity
  8
0
100
AcDbVertex
100
AcDb2dVertex
 10
5.4251968503937
 20
4.252952755905512
 30
0.0
  0
VERTEX
  5
29D3
330
27B1
100
AcDbEntity
  8
0
100
AcDbVertex
100
AcDb2dVertex
 10
5.4251968503937
 20
4.256889763779527
 30
0.0
  0
VERTEX
  5
29D4
330
27B1
100
AcDbEntity
  8
0
100
AcDbVertex
100
AcDb2dVertex
 10
5.4251968503937
 20
4.270669291338582
 30
0.0
  0
VERTEX
  5
29D5
330
27B1
100
AcDbEntity
  8
0
100
AcDbVertex
100
AcDb2dVertex
 10
5.4251968503937
 20
4.292322834645669
 30
0.0
  0
VERTEX
  5
29D6
330
27B1
100
AcDbEntity
  8
0
100
AcDbVertex
100
AcDb2dVertex
 10
5.4251968503937
 20
4.320866141732283
 30
0.0
  0
VERTEX
  5
29D7
330
27B1
100
AcDbEntity
  8
0
100
AcDbVertex
100
AcDb2dVertex
 10
5.4251968503937
 20
4.354330708661417
 30
0.0
  0
VERTEX
  5
29D8
330
27B1
100
AcDbEntity
  8
0
100
AcDbVertex
100
AcDb2dVertex
 10
5.4251968503937
 20
4.390748031496062
 30
0.0
  0
VERTEX
  5
29D9
330
27B1
100
AcDbEntity
  8
0
100
AcDbVertex
100
AcDb2dVertex
 10
5.4251968503937
 20
4.429133858267716
 30
0.0
  0
VERTEX
  5
29DA
330
27B1
100
AcDbEntity
  8
0
100
AcDbVertex
100
AcDb2dVertex
 10
5.4251968503937
 20
4.465551181102362
 30
0.0
  0
VERTEX
  5
29DB
330
27B1
100
AcDbEntity
  8
0
100
AcDbVertex
100
AcDb2dVertex
 10
5.4251968503937
 20
4.499015748031496
 30
0.0
  0
VERTEX
  5
29DC
330
27B1
100
AcDbEntity
  8
0
100
AcDbVertex
100
AcDb2dVertex
 10
5.4251968503937
 20
4.52755905511811
 30
0.0
  0
VERTEX
  5
29DD
330
27B1
100
AcDbEntity
  8
0
100
AcDbVertex
100
AcDb2dVertex
 10
5.4251968503937
 20
4.549212598425197
 30
0.0
  0
VERTEX
  5
29DE
330
27B1
100
AcDbEntity
  8
0
100
AcDbVertex
100
AcDb2dVertex
 10
5.4251968503937
 20
4.562992125984251
 30
0.0
  0
VERTEX
  5
29DF
330
27B1
100
AcDbEntity
  8
0
100
AcDbVertex
100
AcDb2dVertex
 10
5.4251968503937
 20
4.567913385826771
 30
0.0
  0
SEQEND
  5
29E0
330
27B1
100
AcDbEntity
  8
0
  0
POLYLINE
  5
27C1
330
1E
100
AcDbEntity
  8
0
100
AcDb2dPolyline
 66
     1
 10
0.0
 20
0.0
 30
0.0
  0
VERTEX
  5
29E1
330
27C1
100
AcDbEntity
  8
0
100
AcDbVertex
100
AcDb2dVertex
 10
5.43996062992126
 20
4.552165354330708
 30
0.0
  0
VERTEX
  5
29E2
330
27C1
100
AcDbEntity
  8
0
100
AcDbVertex
100
AcDb2dVertex
 10
5.43996062992126
 20
4.548228346456692
 30
0.0
  0
VERTEX
  5
29E3
330
27C1
100
AcDbEntity
  8
0
100
AcDbVertex
100
AcDb2dVertex
 10
5.43996062992126
 20
4.536417322834645
 30
0.0
  0
VERTEX
  5
29E4
330
27C1
100
AcDbEntity
  8
0
100
AcDbVertex
100
AcDb2dVertex
 10
5.43996062992126
 20
4.516732283464566
 30
0.0
  0
VERTEX
  5
29E5
330
27C1
100
AcDbEntity
  8
0
100
AcDbVertex
100
AcDb2dVertex
 10
5.43996062992126
 20
4.491141732283464
 30
0.0
  0
VERTEX
  5
29E6
330
27C1
100
AcDbEntity
  8
0
100
AcDbVertex
100
AcDb2dVertex
 10
5.43996062992126
 20
4.460629921259842
 30
0.0
  0
VERTEX
  5
29E7
330
27C1
100
AcDbEntity
  8
0
100
AcDbVertex
100
AcDb2dVertex
 10
5.43996062992126
 20
4.427165354330708
 30
0.0
  0
VERTEX
  5
29E8
330
27C1
100
AcDbEntity
  8
0
100
AcDbVertex
100
AcDb2dVertex
 10
5.43996062992126
 20
4.39271653543307
 30
0.0
  0
VERTEX
  5
29E9
330
27C1
100
AcDbEntity
  8
0
100
AcDbVertex
100
AcDb2dVertex
 10
5.43996062992126
 20
4.359251968503937
 30
0.0
  0
VERTEX
  5
29EA
330
27C1
100
AcDbEntity
  8
0
100
AcDbVertex
100
AcDb2dVertex
 10
5.43996062992126
 20
4.328740157480314
 30
0.0
  0
VERTEX
  5
29EB
330
27C1
100
AcDbEntity
  8
0
100
AcDbVertex
100
AcDb2dVertex
 10
5.43996062992126
 20
4.303149606299212
 30
0.0
  0
VERTEX
  5
29EC
330
27C1
100
AcDbEntity
  8
0
100
AcDbVertex
100
AcDb2dVertex
 10
5.43996062992126
 20
4.283464566929133
 30
0.0
  0
VERTEX
  5
29ED
330
27C1
100
AcDbEntity
  8
0
100
AcDbVertex
100
AcDb2dVertex
 10
5.43996062992126
 20
4.271653543307086
 30
0.0
  0
VERTEX
  5
29EE
330
27C1
100
AcDbEntity
  8
0
100
AcDbVertex
100
AcDb2dVertex
 10
5.43996062992126
 20
4.26771653543307
 30
0.0
  0
SEQEND
  5
29EF
330
27C1
100
AcDbEntity
  8
0
  0
POLYLINE
  5
27D1
330
1E
100
AcDbEntity
  8
0
100
AcDb2dPolyline
 66
     1
 10
0.0
 20
0.0
 30
0.0
  0
VERTEX
  5
29F0
330
27D1
100
AcDbEntity
  8
0
100
AcDbVertex
100
AcDb2dVertex
 10
4.023622047244094
 20
4.26771653543307
 30
0.0
  0
VERTEX
  5
29F1
330
27D1
100
AcDbEntity
  8
0
100
AcDbVertex
100
AcDb2dVertex
 10
4.023622047244094
 20
4.271653543307086
 30
0.0
  0
VERTEX
  5
29F2
330
27D1
100
AcDbEntity
  8
0
100
AcDbVertex
100
AcDb2dVertex
 10
4.023622047244094
 20
4.283464566929133
 30
0.0
  0
VERTEX
  5
29F3
330
27D1
100
AcDbEntity
  8
0
100
AcDbVertex
100
AcDb2dVertex
 10
4.023622047244094
 20
4.303149606299212
 30
0.0
  0
VERTEX
  5
29F4
330
27D1
100
AcDbEntity
  8
0
100
AcDbVertex
100
AcDb2dVertex
 10
4.023622047244094
 20
4.328740157480314
 30
0.0
  0
VERTEX
  5
29F5
330
27D1
100
AcDbEntity
  8
0
100
AcDbVertex
100
AcDb2dVertex
 10
4.023622047244094
 20
4.359251968503937
 30
0.0
  0
VERTEX
  5
29F6
330
27D1
100
AcDbEntity
  8
0
100
AcDbVertex
100
AcDb2dVertex
 10
4.023622047244094
 20
4.39271653543307
 30
0.0
  0
VERTEX
  5
29F7
330
27D1
100
AcDbEntity
  8
0
100
AcDbVertex
100
AcDb2dVertex
 10
4.023622047244094
 20
4.427165354330708
 30
0.0
  0
VERTEX
  5
29F8
330
27D1
100
AcDbEntity
  8
0
100
AcDbVertex
100
AcDb2dVertex
 10
4.023622047244094
 20
4.460629921259842
 30
0.0
  0
VERTEX
  5
29F9
330
27D1
100
AcDbEntity
  8
0
100
AcDbVertex
100
AcDb2dVertex
 10
4.023622047244094
 20
4.491141732283464
 30
0.0
  0
VERTEX
  5
29FA
330
27D1
100
AcDbEntity
  8
0
100
AcDbVertex
100
AcDb2dVertex
 10
4.023622047244094
 20
4.516732283464566
 30
0.0
  0
VERTEX
  5
29FB
330
27D1
100
AcDbEntity
  8
0
100
AcDbVertex
100
AcDb2dVertex
 10
4.023622047244094
 20
4.536417322834645
 30
0.0
  0
VERTEX
  5
29FC
330
27D1
100
AcDbEntity
  8
0
100
AcDbVertex
100
AcDb2dVertex
 10
4.023622047244094
 20
4.548228346456692
 30
0.0
  0
VERTEX
  5
29FD
330
27D1
100
AcDbEntity
  8
0
100
AcDbVertex
100
AcDb2dVertex
 10
4.023622047244094
 20
4.552165354330708
 30
0.0
  0
SEQEND
  5
29FE
330
27D1
100
AcDbEntity
  8
0
  0
POLYLINE
  5
27E1
330
1E
100
AcDbEntity
  8
0
100
AcDb2dPolyline
 66
     1
 10
0.0
 20
0.0
 30
0.0
  0
VERTEX
  5
29FF
330
27E1
100
AcDbEntity
  8
0
100
AcDbVertex
100
AcDb2dVertex
 10
4.039370078740157
 20
4.567913385826771
 30
0.0
  0
VERTEX
  5
2A00
330
27E1
100
AcDbEntity
  8
0
100
AcDbVertex
100
AcDb2dVertex
 10
4.039370078740157
 20
4.562992125984251
 30
0.0
  0
VERTEX
  5
2A01
330
27E1
100
AcDbEntity
  8
0
100
AcDbVertex
100
AcDb2dVertex
 10
4.039370078740157
 20
4.549212598425197
 30
0.0
  0
VERTEX
  5
2A02
330
27E1
100
AcDbEntity
  8
0
100
AcDbVertex
100
AcDb2dVertex
 10
4.039370078740157
 20
4.52755905511811
 30
0.0
  0
VERTEX
  5
2A03
330
27E1
100
AcDbEntity
  8
0
100
AcDbVertex
100
AcDb2dVertex
 10
4.039370078740157
 20
4.499015748031496
 30
0.0
  0
VERTEX
  5
2A04
330
27E1
100
AcDbEntity
  8
0
100
AcDbVertex
100
AcDb2dVertex
 10
4.039370078740157
 20
4.465551181102362
 30
0.0
  0
VERTEX
  5
2A05
330
27E1
100
AcDbEntity
  8
0
100
AcDbVertex
100
AcDb2dVertex
 10
4.039370078740157
 20
4.429133858267716
 30
0.0
  0
VERTEX
  5
2A06
330
27E1
100
AcDbEntity
  8
0
100
AcDbVertex
100
AcDb2dVertex
 10
4.039370078740157
 20
4.390748031496062
 30
0.0
  0
VERTEX
  5
2A07
330
27E1
100
AcDbEntity
  8
0
100
AcDbVertex
100
AcDb2dVertex
 10
4.039370078740157
 20
4.354330708661417
 30
0.0
  0
VERTEX
  5
2A08
330
27E1
100
AcDbEntity
  8
0
100
AcDbVertex
100
AcDb2dVertex
 10
4.039370078740157
 20
4.320866141732283
 30
0.0
  0
VERTEX
  5
2A09
330
27E1
100
AcDbEntity
  8
0
100
AcDbVertex
100
AcDb2dVertex
 10
4.039370078740157
 20
4.292322834645669
 30
0.0
  0
VERTEX
  5
2A0A
330
27E1
100
AcDbEntity
  8
0
100
AcDbVertex
100
AcDb2dVertex
 10
4.039370078740157
 20
4.270669291338582
 30
0.0
  0
VERTEX
  5
2A0B
330
27E1
100
AcDbEntity
  8
0
100
AcDbVertex
100
AcDb2dVertex
 10
4.039370078740157
 20
4.256889763779527
 30
0.0
  0
VERTEX
  5
2A0C
330
27E1
100
AcDbEntity
  8
0
100
AcDbVertex
100
AcDb2dVertex
 10
4.039370078740157
 20
4.252952755905512
 30
0.0
  0
SEQEND
  5
2A0D
330
27E1
100
AcDbEntity
  8
0
  0
POLYLINE
  5
27F1
330
1E
100
AcDbEntity
  8
0
100
AcDb2dPolyline
 66
     1
 10
0.0
 20
0.0
 30
0.0
  0
VERTEX
  5
2A0E
330
27F1
100
AcDbEntity
  8
0
100
AcDbVertex
100
AcDb2dVertex
 10
4.914370078740157
 20
4.227362204724409
 30
0.0
  0
VERTEX
  5
2A0F
330
27F1
100
AcDbEntity
  8
0
100
AcDbVertex
100
AcDb2dVertex
 10
4.914370078740157
 20
4.231299212598425
 30
0.0
  0
VERTEX
  5
2A10
330
27F1
100
AcDbEntity
  8
0
100
AcDbVertex
100
AcDb2dVertex
 10
4.914370078740157
 20
4.243110236220472
 30
0.0
  0
VERTEX
  5
2A11
330
27F1
100
AcDbEntity
  8
0
100
AcDbVertex
100
AcDb2dVertex
 10
4.914370078740157
 20
4.261811023622047
 30
0.0
  0
VERTEX
  5
2A12
330
27F1
100
AcDbEntity
  8
0
100
AcDbVertex
100
AcDb2dVertex
 10
4.914370078740157
 20
4.287401574803149
 30
0.0
  0
VERTEX
  5
2A13
330
27F1
100
AcDbEntity
  8
0
100
AcDbVertex
100
AcDb2dVertex
 10
4.914370078740157
 20
4.318897637795275
 30
0.0
  0
VERTEX
  5
2A14
330
27F1
100
AcDbEntity
  8
0
100
AcDbVertex
100
AcDb2dVertex
 10
4.914370078740157
 20
4.353346456692912
 30
0.0
  0
VERTEX
  5
2A15
330
27F1
100
AcDbEntity
  8
0
100
AcDbVertex
100
AcDb2dVertex
 10
4.914370078740157
 20
4.390748031496062
 30
0.0
  0
VERTEX
  5
2A16
330
27F1
100
AcDbEntity
  8
0
100
AcDbVertex
100
AcDb2dVertex
 10
4.914370078740157
 20
4.429133858267716
 30
0.0
  0
VERTEX
  5
2A17
330
27F1
100
AcDbEntity
  8
0
100
AcDbVertex
100
AcDb2dVertex
 10
4.914370078740157
 20
4.466535433070865
 30
0.0
  0
VERTEX
  5
2A18
330
27F1
100
AcDbEntity
  8
0
100
AcDbVertex
100
AcDb2dVertex
 10
4.914370078740157
 20
4.500984251968503
 30
0.0
  0
VERTEX
  5
2A19
330
27F1
100
AcDbEntity
  8
0
100
AcDbVertex
100
AcDb2dVertex
 10
4.914370078740157
 20
4.532480314960629
 30
0.0
  0
VERTEX
  5
2A1A
330
27F1
100
AcDbEntity
  8
0
100
AcDbVertex
100
AcDb2dVertex
 10
4.914370078740157
 20
4.558070866141732
 30
0.0
  0
VERTEX
  5
2A1B
330
27F1
100
AcDbEntity
  8
0
100
AcDbVertex
100
AcDb2dVertex
 10
4.914370078740157
 20
4.576771653543307
 30
0.0
  0
VERTEX
  5
2A1C
330
27F1
100
AcDbEntity
  8
0
100
AcDbVertex
100
AcDb2dVertex
 10
4.914370078740157
 20
4.588582677165354
 30
0.0
  0
VERTEX
  5
2A1D
330
27F1
100
AcDbEntity
  8
0
100
AcDbVertex
100
AcDb2dVertex
 10
4.914370078740157
 20
4.59251968503937
 30
0.0
  0
SEQEND
  5
2A1E
330
27F1
100
AcDbEntity
  8
0
  0
POLYLINE
  5
2803
330
1E
100
AcDbEntity
  8
0
100
AcDb2dPolyline
 66
     1
 10
0.0
 20
0.0
 30
0.0
  0
VERTEX
  5
2A1F
330
2803
100
AcDbEntity
  8
0
100
AcDbVertex
100
AcDb2dVertex
 10
4.823818897637795
 20
4.186023622047244
 30
0.0
  0
VERTEX
  5
2A20
330
2803
100
AcDbEntity
  8
0
100
AcDbVertex
100
AcDb2dVertex
 10
4.823818897637795
 20
4.18996062992126
 30
0.0
  0
VERTEX
  5
2A21
330
2803
100
AcDbEntity
  8
0
100
AcDbVertex
100
AcDb2dVertex
 10
4.823818897637795
 20
4.202755905511811
 30
0.0
  0
VERTEX
  5
2A22
330
2803
100
AcDbEntity
  8
0
100
AcDbVertex
100
AcDb2dVertex
 10
4.823818897637795
 20
4.223425196850393
 30
0.0
  0
VERTEX
  5
2A23
330
2803
100
AcDbEntity
  8
0
100
AcDbVertex
100
AcDb2dVertex
 10
4.823818897637795
 20
4.251968503937007
 30
0.0
  0
VERTEX
  5
2A24
330
2803
100
AcDbEntity
  8
0
100
AcDbVertex
100
AcDb2dVertex
 10
4.823818897637795
 20
4.285433070866141
 30
0.0
  0
VERTEX
  5
2A25
330
2803
100
AcDbEntity
  8
0
100
AcDbVertex
100
AcDb2dVertex
 10
4.823818897637795
 20
4.323818897637795
 30
0.0
  0
VERTEX
  5
2A26
330
2803
100
AcDbEntity
  8
0
100
AcDbVertex
100
AcDb2dVertex
 10
4.823818897637795
 20
4.366141732283464
 30
0.0
  0
VERTEX
  5
2A27
330
2803
100
AcDbEntity
  8
0
100
AcDbVertex
100
AcDb2dVertex
 10
4.823818897637795
 20
4.410433070866141
 30
0.0
  0
SEQEND
  5
2A28
330
2803
100
AcDbEntity
  8
0
  0
POLYLINE
  5
280E
330
1E
100
AcDbEntity
  8
0
100
AcDb2dPolyline
 66
     1
 10
0.0
 20
0.0
 30
0.0
  0
VERTEX
  5
2A29
330
280E
100
AcDbEntity
  8
0
100
AcDbVertex
100
AcDb2dVertex
 10
4.823818897637795
 20
4.410433070866141
 30
0.0
  0
VERTEX
  5
2A2A
330
280E
100
AcDbEntity
  8
0
100
AcDbVertex
100
AcDb2dVertex
 10
4.823818897637795
 20
4.453740157480314
 30
0.0
  0
VERTEX
  5
2A2B
330
280E
100
AcDbEntity
  8
0
100
AcDbVertex
100
AcDb2dVertex
 10
4.823818897637795
 20
4.496062992125984
 30
0.0
  0
VERTEX
  5
2A2C
330
280E
100
AcDbEntity
  8
0
100
AcDbVertex
100
AcDb2dVertex
 10
4.823818897637795
 20
4.534448818897637
 30
0.0
  0
VERTEX
  5
2A2D
330
280E
100
AcDbEntity
  8
0
100
AcDbVertex
100
AcDb2dVertex
 10
4.823818897637795
 20
4.567913385826771
 30
0.0
  0
VERTEX
  5
2A2E
330
280E
100
AcDbEntity
  8
0
100
AcDbVertex
100
AcDb2dVertex
 10
4.823818897637795
 20
4.596456692913386
 30
0.0
  0
VERTEX
  5
2A2F
330
280E
100
AcDbEntity
  8
0
100
AcDbVertex
100
AcDb2dVertex
 10
4.823818897637795
 20
4.617125984251968
 30
0.0
  0
VERTEX
  5
2A30
330
280E
100
AcDbEntity
  8
0
100
AcDbVertex
100
AcDb2dVertex
 10
4.823818897637795
 20
4.629921259842519
 30
0.0
  0
VERTEX
  5
2A31
330
280E
100
AcDbEntity
  8
0
100
AcDbVertex
100
AcDb2dVertex
 10
4.823818897637795
 20
4.633858267716535
 30
0.0
  0
SEQEND
  5
2A32
330
280E
100
AcDbEntity
  8
0
  0
POLYLINE
  5
2819
330
1E
100
AcDbEntity
  8
0
100
AcDb2dPolyline
 66
     1
 10
0.0
 20
0.0
 30
0.0
  0
VERTEX
  5
2A33
330
2819
100
AcDbEntity
  8
0
100
AcDbVertex
100
AcDb2dVertex
 10
4.636811023622047
 20
4.157480314960629
 30
0.0
  0
VERTEX
  5
2A34
330
2819
100
AcDbEntity
  8
0
100
AcDbVertex
100
AcDb2dVertex
 10
4.71751968503937
 20
4.159448818897637
 30
0.0
  0
VERTEX
  5
2A35
330
2819
100
AcDbEntity
  8
0
100
AcDbVertex
100
AcDb2dVertex
 10
4.799212598425197
 20
4.160433070866141
 30
0.0
  0
SEQEND
  5
2A36
330
2819
100
AcDbEntity
  8
0
  0
POLYLINE
  5
281E
330
1E
100
AcDbEntity
  8
0
100
AcDb2dPolyline
 66
     1
 10
0.0
 20
0.0
 30
0.0
  0
VERTEX
  5
2A37
330
281E
100
AcDbEntity
  8
0
100
AcDbVertex
100
AcDb2dVertex
 10
4.799212598425197
 20
4.160433070866141
 30
0.0
  0
VERTEX
  5
2A38
330
281E
100
AcDbEntity
  8
0
100
AcDbVertex
100
AcDb2dVertex
 10
4.799212598425197
 20
4.178149606299212
 30
0.0
  0
VERTEX
  5
2A39
330
281E
100
AcDbEntity
  8
0
100
AcDbVertex
100
AcDb2dVertex
 10
4.799212598425197
 20
4.203740157480314
 30
0.0
  0
VERTEX
  5
2A3A
330
281E
100
AcDbEntity
  8
0
100
AcDbVertex
100
AcDb2dVertex
 10
4.799212598425197
 20
4.23523622047244
 30
0.0
  0
VERTEX
  5
2A3B
330
281E
100
AcDbEntity
  8
0
100
AcDbVertex
100
AcDb2dVertex
 10
4.799212598425197
 20
4.273622047244094
 30
0.0
  0
VERTEX
  5
2A3C
330
281E
100
AcDbEntity
  8
0
100
AcDbVertex
100
AcDb2dVertex
 10
4.799212598425197
 20
4.316929133858267
 30
0.0
  0
VERTEX
  5
2A3D
330
281E
100
AcDbEntity
  8
0
100
AcDbVertex
100
AcDb2dVertex
 10
4.799212598425197
 20
4.362204724409449
 30
0.0
  0
VERTEX
  5
2A3E
330
281E
100
AcDbEntity
  8
0
100
AcDbVertex
100
AcDb2dVertex
 10
4.799212598425197
 20
4.410433070866141
 30
0.0
  0
VERTEX
  5
2A3F
330
281E
100
AcDbEntity
  8
0
100
AcDbVertex
100
AcDb2dVertex
 10
4.799212598425197
 20
4.45767716535433
 30
0.0
  0
VERTEX
  5
2A40
330
281E
100
AcDbEntity
  8
0
100
AcDbVertex
100
AcDb2dVertex
 10
4.799212598425197
 20
4.502952755905512
 30
0.0
  0
VERTEX
  5
2A41
330
281E
100
AcDbEntity
  8
0
100
AcDbVertex
100
AcDb2dVertex
 10
4.799212598425197
 20
4.546259842519685
 30
0.0
  0
VERTEX
  5
2A42
330
281E
100
AcDbEntity
  8
0
100
AcDbVertex
100
AcDb2dVertex
 10
4.799212598425197
 20
4.584645669291338
 30
0.0
  0
VERTEX
  5
2A43
330
281E
100
AcDbEntity
  8
0
100
AcDbVertex
100
AcDb2dVertex
 10
4.799212598425197
 20
4.616141732283464
 30
0.0
  0
VERTEX
  5
2A44
330
281E
100
AcDbEntity
  8
0
100
AcDbVertex
100
AcDb2dVertex
 10
4.799212598425197
 20
4.641732283464566
 30
0.0
  0
VERTEX
  5
2A45
330
281E
100
AcDbEntity
  8
0
100
AcDbVertex
100
AcDb2dVertex
 10
4.799212598425197
 20
4.659448818897637
 30
0.0
  0
SEQEND
  5
2A46
330
281E
100
AcDbEntity
  8
0
  0
POLYLINE
  5
282F
330
1E
100
AcDbEntity
  8
0
100
AcDb2dPolyline
 66
     1
 10
0.0
 20
0.0
 30
0.0
  0
VERTEX
  5
2A47
330
282F
100
AcDbEntity
  8
0
100
AcDbVertex
100
AcDb2dVertex
 10
4.636811023622047
 20
4.662401574803149
 30
0.0
  0
VERTEX
  5
2A48
330
282F
100
AcDbEntity
  8
0
100
AcDbVertex
100
AcDb2dVertex
 10
4.71751968503937
 20
4.660433070866141
 30
0.0
  0
VERTEX
  5
2A49
330
282F
100
AcDbEntity
  8
0
100
AcDbVertex
100
AcDb2dVertex
 10
4.799212598425197
 20
4.659448818897637
 30
0.0
  0
SEQEND
  5
2A4A
330
282F
100
AcDbEntity
  8
0
  0
LINE
  5
2834
330
1E
100
AcDbEntity
  8
0
100
AcDbLine
 10
4.636811023622047
 20
4.691929133858267
 30
0.0
 11
4.636811023622047
 21
4.150590551181101
 31
0.0
  0
LINE
  5
2835
330
1E
100
AcDbEntity
  8
0
100
AcDbLine
 10
4.539370078740157
 20
4.756889763779527
 30
0.0
 11
4.923228346456692
 21
4.763779527559054
 31
0.0
  0
LINE
  5
2836
330
1E
100
AcDbEntity
  8
0
100
AcDbLine
 10
4.539370078740157
 20
4.756889763779527
 30
0.0
 11
4.539370078740157
 21
4.121062992125984
 31
0.0
  0
LINE
  5
2837
330
1E
100
AcDbEntity
  8
0
100
AcDbLine
 10
4.539370078740157
 20
4.121062992125984
 30
0.0
 11
4.556102362204724
 21
4.121062992125984
 31
0.0
  0
LINE
  5
2838
330
1E
100
AcDbEntity
  8
0
100
AcDbLine
 10
4.556102362204724
 20
4.121062992125984
 30
0.0
 11
4.783464566929133
 21
3.994094488188976
 31
0.0
  0
LINE
  5
2839
330
1E
100
AcDbEntity
  8
0
100
AcDbLine
 10
4.783464566929133
 20
3.994094488188976
 30
0.0
 11
4.923228346456692
 21
3.993110236220472
 31
0.0
  0
LINE
  5
283A
330
1E
100
AcDbEntity
  8
0
100
AcDbLine
 10
4.787401574803149
 20
4.063976377952755
 30
0.0
 11
4.981299212598425
 21
4.062992125984251
 31
0.0
  0
LINE
  5
283B
330
1E
100
AcDbEntity
  8
0
100
AcDbLine
 10
4.787401574803149
 20
4.063976377952755
 30
0.0
 11
4.639763779527559
 21
4.146653543307086
 31
0.0
  0
LINE
  5
283C
330
1E
100
AcDbEntity
  8
0
100
AcDbLine
 10
4.639763779527559
 20
4.146653543307086
 30
0.0
 11
4.636811023622047
 21
4.150590551181101
 31
0.0
  0
LINE
  5
283D
330
1E
100
AcDbEntity
  8
0
100
AcDbLine
 10
4.636811023622047
 20
4.691929133858267
 30
0.0
 11
4.963582677165354
 21
4.694881889763779
 31
0.0
  0
LINE
  5
283E
330
1E
100
AcDbEntity
  8
0
100
AcDbLine
 10
5.004921259842519
 20
4.76279527559055
 30
0.0
 11
5.324803149606299
 21
4.759842519685038
 31
0.0
  0
LINE
  5
283F
330
1E
100
AcDbEntity
  8
0
100
AcDbLine
 10
4.859251968503937
 20
4.763779527559054
 30
0.0
 11
4.923228346456692
 21
4.763779527559054
 31
0.0
  0
LINE
  5
2840
330
1E
100
AcDbEntity
  8
0
100
AcDbLine
 10
5.004921259842519
 20
4.76279527559055
 30
0.0
 11
4.923228346456692
 21
4.763779527559054
 31
0.0
  0
LINE
  5
2841
330
1E
100
AcDbEntity
  8
0
100
AcDbLine
 10
4.923228346456692
 20
4.763779527559054
 30
0.0
 11
4.923228346456692
 21
4.694881889763779
 31
0.0
  0
LINE
  5
2842
330
1E
100
AcDbEntity
  8
0
100
AcDbLine
 10
4.923228346456692
 20
4.694881889763779
 30
0.0
 11
5.004921259842519
 21
4.694881889763779
 31
0.0
  0
LINE
  5
2843
330
1E
100
AcDbEntity
  8
0
100
AcDbLine
 10
4.859251968503937
 20
4.763779527559054
 30
0.0
 11
4.859251968503937
 21
4.808070866141732
 31
0.0
  0
LINE
  5
2844
330
1E
100
AcDbEntity
  8
0
100
AcDbLine
 10
4.747047244094487
 20
4.760826771653543
 30
0.0
 11
4.859251968503937
 21
4.808070866141732
 31
0.0
  0
LINE
  5
2845
330
1E
100
AcDbEntity
  8
0
100
AcDbLine
 10
5.004921259842519
 20
4.694881889763779
 30
0.0
 11
5.004921259842519
 21
4.76279527559055
 31
0.0
  0
LINE
  5
2846
330
1E
100
AcDbEntity
  8
0
100
AcDbLine
 10
5.004921259842519
 20
4.694881889763779
 30
0.0
 11
5.324803149606299
 21
4.697834645669291
 31
0.0
  0
LINE
  5
2847
330
1E
100
AcDbEntity
  8
0
100
AcDbLine
 10
5.324803149606299
 20
4.697834645669291
 30
0.0
 11
5.324803149606299
 21
4.759842519685038
 31
0.0
  0
LINE
  5
2848
330
1E
100
AcDbEntity
  8
0
100
AcDbLine
 10
5.324803149606299
 20
3.996062992125984
 30
0.0
 11
5.324803149606299
 21
4.060039370078739
 31
0.0
  0
LINE
  5
2849
330
1E
100
AcDbEntity
  8
0
100
AcDbLine
 10
5.004921259842519
 20
3.993110236220472
 30
0.0
 11
5.324803149606299
 21
3.996062992125984
 31
0.0
  0
LINE
  5
284A
330
1E
100
AcDbEntity
  8
0
100
AcDbLine
 10
5.004921259842519
 20
4.062007874015748
 30
0.0
 11
5.324803149606299
 21
4.060039370078739
 31
0.0
  0
LINE
  5
284B
330
1E
100
AcDbEntity
  8
0
100
AcDbLine
 10
5.004921259842519
 20
3.993110236220472
 30
0.0
 11
5.004921259842519
 21
4.062992125984251
 31
0.0
  0
LINE
  5
284C
330
1E
100
AcDbEntity
  8
0
100
AcDbLine
 10
4.95767716535433
 20
4.062007874015748
 30
0.0
 11
5.004921259842519
 21
4.062992125984251
 31
0.0
  0
LINE
  5
284D
330
1E
100
AcDbEntity
  8
0
100
AcDbLine
 10
4.95767716535433
 20
4.062007874015748
 30
0.0
 11
4.923228346456692
 21
4.028543307086613
 31
0.0
  0
LINE
  5
284E
330
1E
100
AcDbEntity
  8
0
100
AcDbLine
 10
4.923228346456692
 20
4.028543307086613
 30
0.0
 11
4.923228346456692
 21
3.993110236220472
 31
0.0
  0
LINE
  5
284F
330
1E
100
AcDbEntity
  8
0
100
AcDbLine
 10
5.004921259842519
 20
3.993110236220472
 30
0.0
 11
4.923228346456692
 21
3.993110236220472
 31
0.0
  0
LINE
  5
2850
330
1E
100
AcDbEntity
  8
0
100
AcDbLine
 10
4.859251968503937
 20
3.992125984251968
 30
0.0
 11
4.923228346456692
 21
3.993110236220472
 31
0.0
  0
LINE
  5
2851
330
1E
100
AcDbEntity
  8
0
100
AcDbLine
 10
4.859251968503937
 20
3.951771653543307
 30
0.0
 11
4.783464566929133
 21
3.994094488188976
 31
0.0
  0
LINE
  5
2852
330
1E
100
AcDbEntity
  8
0
100
AcDbLine
 10
4.859251968503937
 20
3.992125984251968
 30
0.0
 11
4.859251968503937
 21
3.951771653543307
 31
0.0
  0
ENDSEC
  0
SECTION
  2
OBJECTS
  0
DICTIONARY
  5
C
330
0
100
AcDbDictionary
  3
ACAD_GROUP
350
D
  3
ACAD_MLINESTYLE
350
16
  3
ACAD_PLOTSETTINGS
350
18
  3
ACAD_LAYOUT
350
19
1001
ACAD
1000
TREAT_AS_HARD
1070
     0
  0
DICTIONARY
  5
297E
330
1E
100
AcDbDictionary
  3
ACAD_LAYOUTSELFREF
350
297F
  0
DICTIONARY
  5
297C
330
1A
100
AcDbDictionary
  3
ACAD_LAYOUTSELFREF
350
297D
  0
DICTIONARY
  5
D
102
{ACAD_REACTORS
330
C
102
}
330
C
100
AcDbDictionary
1001
ACAD
1000
TREAT_AS_HARD
1070
     0
  0
DICTIONARY
  5
16
102
{ACAD_REACTORS
330
C
102
}
330
C
100
AcDbDictionary
  3
STANDARD
350
17
1001
ACAD
1000
TREAT_AS_HARD
1070
     0
  0
DICTIONARY
  5
18
102
{ACAD_REACTORS
330
C
102
}
330
C
100
AcDbDictionary
1001
ACAD
1000
TREAT_AS_HARD
1070
     0
  0
DICTIONARY
  5
19
102
{ACAD_REACTORS
330
C
102
}
330
C
100
AcDbDictionary
1001
ACAD
1000
TREAT_AS_HARD
1070
     0
  0
XRECORD
  5
297F
102
{ACAD_REACTORS
330
297E
102
}
330
297E
100
AcDbXrecord
340
1E
  0
XRECORD
  5
297D
102
{ACAD_REACTORS
330
297C
102
}
330
297C
100
AcDbXrecord
340
1A
  0
MLINESTYLE
  5
17
102
{ACAD_REACTORS
330
16
102
}
330
16
100
AcDbMlineStyle
  2
STANDARD
 70
     0
  3

 62
   256
 51
90.0
 52
90.0
 71
     2
 49
0.5
 62
   256
  6
BYLAYER
 49
-0.5
 62
   256
  6
BYLAYER
  0
ENDSEC
  0
EOF
