  0
SECTION
  2
HEADER
  9
$ACADVER
  1
AC1021
  9
$ACADMAINTVER
 70
     1
  9
$DWGCODEPAGE
  3
ANSI_1252
  9
$LASTSAVEDBY
  1
MDJR
  9
$INSBASE
 10
0.0
 20
0.0
 30
0.0
  9
$EXTMIN
 10
0.0
 20
0.0
 30
0.0
  9
$EXTMAX
 10
4.385826771653543
 20
3.318897637795275
 30
0.0
  9
$LIMMIN
 10
0.0
 20
0.0
  9
$LIMMAX
 10
12.0
 20
9.0
  9
$ORTHOMODE
 70
     0
  9
$REGENMODE
 70
     1
  9
$FILLMODE
 70
     1
  9
$QTEXTMODE
 70
     0
  9
$MIRRTEXT
 70
     1
  9
$LTSCALE
 40
1.0
  9
$ATTMODE
 70
     1
  9
$TEXTSIZE
 40
0.2
  9
$TRACEWID
 40
0.05
  9
$TEXTSTYLE
  7
Standard
  9
$CLAYER
  8
0
  9
$CELTYPE
  6
ByLayer
  9
$CECOLOR
 62
   256
  9
$CELTSCALE
 40
1.0
  9
$DISPSILH
 70
     0
  9
$DIMSCALE
 40
1.0
  9
$DIMASZ
 40
0.18
  9
$DIMEXO
 40
0.0625
  9
$DIMDLI
 40
0.38
  9
$DIMRND
 40
0.0
  9
$DIMDLE
 40
0.0
  9
$DIMEXE
 40
0.18
  9
$DIMTP
 40
0.0
  9
$DIMTM
 40
0.0
  9
$DIMTXT
 40
0.18
  9
$DIMCEN
 40
0.09
  9
$DIMTSZ
 40
0.0
  9
$DIMTOL
 70
     0
  9
$DIMLIM
 70
     0
  9
$DIMTIH
 70
     1
  9
$DIMTOH
 70
     1
  9
$DIMSE1
 70
     0
  9
$DIMSE2
 70
     0
  9
$DIMTAD
 70
     0
  9
$DIMZIN
 70
     0
  9
$DIMBLK
  1

  9
$DIMASO
 70
     1
  9
$DIMSHO
 70
     1
  9
$DIMPOST
  1

  9
$DIMAPOST
  1

  9
$DIMALT
 70
     0
  9
$DIMALTD
 70
     2
  9
$DIMALTF
 40
25.4
  9
$DIMLFAC
 40
1.0
  9
$DIMTOFL
 70
     0
  9
$DIMTVP
 40
0.0
  9
$DIMTIX
 70
     0
  9
$DIMSOXD
 70
     0
  9
$DIMSAH
 70
     0
  9
$DIMBLK1
  1

  9
$DIMBLK2
  1

  9
$DIMSTYLE
  2
Standard
  9
$DIMCLRD
 70
     0
  9
$DIMCLRE
 70
     0
  9
$DIMCLRT
 70
     0
  9
$DIMTFAC
 40
1.0
  9
$DIMGAP
 40
0.09
  9
$DIMJUST
 70
     0
  9
$DIMSD1
 70
     0
  9
$DIMSD2
 70
     0
  9
$DIMTOLJ
 70
     1
  9
$DIMTZIN
 70
     0
  9
$DIMALTZ
 70
     0
  9
$DIMALTTZ
 70
     0
  9
$DIMUPT
 70
     0
  9
$DIMDEC
 70
     4
  9
$DIMTDEC
 70
     4
  9
$DIMALTU
 70
     2
  9
$DIMALTTD
 70
     2
  9
$DIMTXSTY
  7
Standard
  9
$DIMAUNIT
 70
     0
  9
$DIMADEC
 70
     0
  9
$DIMALTRND
 40
0.0
  9
$DIMAZIN
 70
     0
  9
$DIMDSEP
 70
    46
  9
$DIMATFIT
 70
     3
  9
$DIMFRAC
 70
     0
  9
$DIMLDRBLK
  1

  9
$DIMLUNIT
 70
     2
  9
$DIMLWD
 70
    -2
  9
$DIMLWE
 70
    -2
  9
$DIMTMOVE
 70
     0
  9
$DIMFXL
 40
1.0
  9
$DIMFXLON
 70
     0
  9
$DIMJOGANG
 40
0.7853981633974483
  9
$DIMTFILL
 70
     0
  9
$DIMTFILLCLR
 70
     0
  9
$DIMARCSYM
 70
     0
  9
$DIMLTYPE
  6

  9
$DIMLTEX1
  6

  9
$DIMLTEX2
  6

  9
$LUNITS
 70
     2
  9
$LUPREC
 70
     4
  9
$SKETCHINC
 40
0.1
  9
$FILLETRAD
 40
0.5
  9
$AUNITS
 70
     0
  9
$AUPREC
 70
     0
  9
$MENU
  1
.
  9
$ELEVATION
 40
0.0
  9
$PELEVATION
 40
0.0
  9
$THICKNESS
 40
0.0
  9
$LIMCHECK
 70
     0
  9
$CHAMFERA
 40
0.5
  9
$CHAMFERB
 40
0.5
  9
$CHAMFERC
 40
1.0
  9
$CHAMFERD
 40
0.0
  9
$SKPOLY
 70
     0
  9
$TDCREATE
 40
2455096.649691759
  9
$TDUCREATE
 40
2455096.858025093
  9
$TDUPDATE
 40
2455096.654863171
  9
$TDUUPDATE
 40
2455096.863196505
  9
$TDINDWG
 40
0.0017822454
  9
$TDUSRTIMER
 40
0.0017822454
  9
$USRTIMER
 70
     1
  9
$ANGBASE
 50
0.0
  9
$ANGDIR
 70
     0
  9
$PDMODE
 70
     0
  9
$PDSIZE
 40
0.0
  9
$PLINEWID
 40
0.0
  9
$SPLFRAME
 70
     0
  9
$SPLINETYPE
 70
     6
  9
$SPLINESEGS
 70
     8
  9
$HANDSEED
  5
5CD
  9
$SURFTAB1
 70
     6
  9
$SURFTAB2
 70
     6
  9
$SURFTYPE
 70
     6
  9
$SURFU
 70
     6
  9
$SURFV
 70
     6
  9
$UCSBASE
  2

  9
$UCSNAME
  2

  9
$UCSORG
 10
0.0
 20
0.0
 30
0.0
  9
$UCSXDIR
 10
1.0
 20
0.0
 30
0.0
  9
$UCSYDIR
 10
0.0
 20
1.0
 30
0.0
  9
$UCSORTHOREF
  2

  9
$UCSORTHOVIEW
 70
     0
  9
$UCSORGTOP
 10
0.0
 20
0.0
 30
0.0
  9
$UCSORGBOTTOM
 10
0.0
 20
0.0
 30
0.0
  9
$UCSORGLEFT
 10
0.0
 20
0.0
 30
0.0
  9
$UCSORGRIGHT
 10
0.0
 20
0.0
 30
0.0
  9
$UCSORGFRONT
 10
0.0
 20
0.0
 30
0.0
  9
$UCSORGBACK
 10
0.0
 20
0.0
 30
0.0
  9
$PUCSBASE
  2

  9
$PUCSNAME
  2

  9
$PUCSORG
 10
0.0
 20
0.0
 30
0.0
  9
$PUCSXDIR
 10
1.0
 20
0.0
 30
0.0
  9
$PUCSYDIR
 10
0.0
 20
1.0
 30
0.0
  9
$PUCSORTHOREF
  2

  9
$PUCSORTHOVIEW
 70
     0
  9
$PUCSORGTOP
 10
0.0
 20
0.0
 30
0.0
  9
$PUCSORGBOTTOM
 10
0.0
 20
0.0
 30
0.0
  9
$PUCSORGLEFT
 10
0.0
 20
0.0
 30
0.0
  9
$PUCSORGRIGHT
 10
0.0
 20
0.0
 30
0.0
  9
$PUCSORGFRONT
 10
0.0
 20
0.0
 30
0.0
  9
$PUCSORGBACK
 10
0.0
 20
0.0
 30
0.0
  9
$USERI1
 70
     0
  9
$USERI2
 70
     0
  9
$USERI3
 70
     0
  9
$USERI4
 70
     0
  9
$USERI5
 70
     0
  9
$USERR1
 40
0.0
  9
$USERR2
 40
0.0
  9
$USERR3
 40
0.0
  9
$USERR4
 40
0.0
  9
$USERR5
 40
0.0
  9
$WORLDVIEW
 70
     1
  9
$SHADEDGE
 70
     3
  9
$SHADEDIF
 70
    70
  9
$TILEMODE
 70
     1
  9
$MAXACTVP
 70
    64
  9
$PINSBASE
 10
0.0
 20
0.0
 30
0.0
  9
$PLIMCHECK
 70
     0
  9
$PEXTMIN
 10
1.000000000000000E+20
 20
1.000000000000000E+20
 30
1.000000000000000E+20
  9
$PEXTMAX
 10
-1.000000000000000E+20
 20
-1.000000000000000E+20
 30
-1.000000000000000E+20
  9
$PLIMMIN
 10
0.0
 20
0.0
  9
$PLIMMAX
 10
12.0
 20
9.0
  9
$UNITMODE
 70
     0
  9
$VISRETAIN
 70
     1
  9
$PLINEGEN
 70
     0
  9
$PSLTSCALE
 70
     1
  9
$TREEDEPTH
 70
  3020
  9
$CMLSTYLE
  2
Standard
  9
$CMLJUST
 70
     0
  9
$CMLSCALE
 40
1.0
  9
$PROXYGRAPHICS
 70
     1
  9
$MEASUREMENT
 70
     0
  9
$CELWEIGHT
370
    -1
  9
$ENDCAPS
280
     0
  9
$JOINSTYLE
280
     0
  9
$LWDISPLAY
290
     0
  9
$INSUNITS
 70
     1
  9
$HYPERLINKBASE
  1

  9
$STYLESHEET
  1

  9
$XEDIT
290
     1
  9
$CEPSNTYPE
380
     0
  9
$PSTYLEMODE
290
     1
  9
$FINGERPRINTGUID
  2
{52F99695-824A-4031-9665-AEC0192ECA5B}
  9
$VERSIONGUID
  2
{BBBB9966-C92F-4DEA-A05E-840798E656BB}
  9
$EXTNAMES
290
     1
  9
$PSVPSCALE
 40
0.0
  9
$OLESTARTUP
290
     0
  9
$SORTENTS
280
   127
  9
$INDEXCTL
280
     0
  9
$HIDETEXT
280
     0
  9
$XCLIPFRAME
290
     0
  9
$HALOGAP
280
     0
  9
$OBSCOLOR
 70
   257
  9
$OBSLTYPE
280
     0
  9
$INTERSECTIONDISPLAY
280
     0
  9
$INTERSECTIONCOLOR
 70
   257
  9
$DIMASSOC
280
     1
  9
$PROJECTNAME
  1

  9
$CAMERADISPLAY
290
     0
  9
$LENSLENGTH
 40
50.0
  9
$CAMERAHEIGHT
 40
0.0
  9
$STEPSPERSEC
 40
2.0
  9
$STEPSIZE
 40
6.0
  9
$3DDWFPREC
 40
2.0
  9
$PSOLWIDTH
 40
0.25
  9
$PSOLHEIGHT
 40
4.0
  9
$LOFTANG1
 40
1.570796326794896
  9
$LOFTANG2
 40
1.570796326794896
  9
$LOFTMAG1
 40
0.0
  9
$LOFTMAG2
 40
0.0
  9
$LOFTPARAM
 70
     7
  9
$LOFTNORMALS
280
     1
  9
$LATITUDE
 40
37.795
  9
$LONGITUDE
 40
-122.394
  9
$NORTHDIRECTION
 40
0.0
  9
$TIMEZONE
 70
 -8000
  9
$LIGHTGLYPHDISPLAY
280
     1
  9
$TILEMODELIGHTSYNCH
280
     1
  9
$CMATERIAL
347
5C4
  9
$SOLIDHIST
280
     1
  9
$SHOWHIST
280
     1
  9
$DWFFRAME
280
     2
  9
$DGNFRAME
280
     0
  9
$REALWORLDSCALE
290
     1
  9
$INTERFERECOLOR
 62
     1
  9
$INTERFEREOBJVS
345
33
  9
$INTERFEREVPVS
346
30
  9
$CSHADOW
280
     0
  9
$SHADOWPLANELOCATION
 40
0.0
  0
ENDSEC
  0
SECTION
  2
CLASSES
  0
CLASS
  1
ACDBDICTIONARYWDFLT
  2
AcDbDictionaryWithDefault
  3
ObjectDBX Classes
 90
        0
 91
        1
280
     0
281
     0
  0
CLASS
  1
VISUALSTYLE
  2
AcDbVisualStyle
  3
ObjectDBX Classes
 90
     4095
 91
       16
280
     0
281
     0
  0
CLASS
  1
MATERIAL
  2
AcDbMaterial
  3
ObjectDBX Classes
 90
     1024
 91
        3
280
     0
281
     0
  0
CLASS
  1
TABLESTYLE
  2
AcDbTableStyle
  3
ObjectDBX Classes
 90
     4095
 91
        1
280
     0
281
     0
  0
CLASS
  1
DICTIONARYVAR
  2
AcDbDictionaryVar
  3
ObjectDBX Classes
 90
        0
 91
        1
280
     0
281
     0
  0
ENDSEC
  0
SECTION
  2
TABLES
  0
TABLE
  2
VPORT
  5
8
330
0
100
AcDbSymbolTable
 70
     1
  0
VPORT
  5
29
330
8
100
AcDbSymbolTableRecord
100
AcDbViewportTableRecord
  2
*Active
 70
     0
 10
0.0
 20
0.0
 11
1.0
 21
1.0
 12
0.5095071166524044
 22
-0.1071795738802925
 13
0.0
 23
0.0
 14
0.5
 24
0.5
 15
0.5
 25
0.5
 16
0.0
 26
0.0
 36
1.0
 17
2.192913385826772
 27
1.659448818897637
 37
0.0
 40
4.130036242400945
 41
1.996309963099631
 42
50.0
 43
0.0
 44
0.0
 50
0.0
 51
0.0
 71
     0
 72
   100
 73
     1
 74
     3
 75
     0
 76
     0
 77
     0
 78
     0
281
     0
 65
     1
110
0.0
120
0.0
130
0.0
111
1.0
121
0.0
131
0.0
112
0.0
122
1.0
132
0.0
 79
     0
146
0.0
348
2F
 60
     3
 61
     5
292
     1
282
     1
141
0.0
142
0.0
 63
   250
421
  3355443
  0
ENDTAB
  0
TABLE
  2
LTYPE
  5
5
330
0
100
AcDbSymbolTable
 70
    25
  0
LTYPE
  5
14
330
5
100
AcDbSymbolTableRecord
100
AcDbLinetypeTableRecord
  2
ByBlock
 70
     0
  3

 72
    65
 73
     0
 40
0.0
  0
LTYPE
  5
15
330
5
100
AcDbSymbolTableRecord
100
AcDbLinetypeTableRecord
  2
ByLayer
 70
     0
  3

 72
    65
 73
     0
 40
0.0
  0
LTYPE
  5
16
330
5
100
AcDbSymbolTableRecord
100
AcDbLinetypeTableRecord
  2
Continuous
 70
     0
  3
Solid line
 72
    65
 73
     0
 40
0.0
  0
LTYPE
  5
42
330
5
100
AcDbSymbolTableRecord
100
AcDbLinetypeTableRecord
  2
Dashed
 70
     0
  3
__ __ __ __ __ __ __ 
 72
    65
 73
     2
 40
0.75
 49
0.5
 74
     0
 49
-0.25
 74
     0
  0
LTYPE
  5
43
330
5
100
AcDbSymbolTableRecord
100
AcDbLinetypeTableRecord
  2
Dashed2
 70
     0
  3
_ _ _ _ _ _ _ _ _ _ 
 72
    65
 73
     2
 40
0.375
 49
0.25
 74
     0
 49
-0.125
 74
     0
  0
LTYPE
  5
44
330
5
100
AcDbSymbolTableRecord
100
AcDbLinetypeTableRecord
  2
DashedX2
 70
     0
  3
____  ____  ____  
 72
    65
 73
     2
 40
1.5
 49
1.0
 74
     0
 49
-0.5
 74
     0
  0
LTYPE
  5
45
330
5
100
AcDbSymbolTableRecord
100
AcDbLinetypeTableRecord
  2
Border
 70
     0
  3
__ __ . __ __ . __ __ . __ __ . __ __ . __ __ .
 72
    65
 73
     6
 40
1.75
 49
0.5
 74
     0
 49
-0.25
 74
     0
 49
0.5
 74
     0
 49
-0.25
 74
     0
 49
0.5
 74
     0
 49
-0.25
 74
     0
  0
LTYPE
  5
46
330
5
100
AcDbSymbolTableRecord
100
AcDbLinetypeTableRecord
  2
Border2
 70
     0
  3
__.__.__.__.__.__.__.__.
 72
    65
 73
     6
 40
0.875
 49
0.25
 74
     0
 49
-0.125
 74
     0
 49
0.25
 74
     0
 49
-0.125
 74
     0
 49
0.25
 74
     0
 49
-0.125
 74
     0
  0
LTYPE
  5
47
330
5
100
AcDbSymbolTableRecord
100
AcDbLinetypeTableRecord
  2
BORDERX2
 70
     0
  3
____  ____  .  
 72
    65
 73
     6
 40
3.5
 49
1.0
 74
     0
 49
-0.5
 74
     0
 49
1.0
 74
     0
 49
-0.5
 74
     0
 49
1.0
 74
     0
 49
-0.5
 74
     0
  0
LTYPE
  5
48
330
5
100
AcDbSymbolTableRecord
100
AcDbLinetypeTableRecord
  2
Center
 70
     0
  3
____ _ ____ _ ____ _ 
 72
    65
 73
     4
 40
2.0
 49
1.25
 74
     0
 49
-0.25
 74
     0
 49
0.25
 74
     0
 49
-0.25
 74
     0
  0
LTYPE
  5
49
330
5
100
AcDbSymbolTableRecord
100
AcDbLinetypeTableRecord
  2
Center2
 70
     0
  3
____ _ ____ _ ____ _ 
 72
    65
 73
     4
 40
1.125
 49
0.75
 74
     0
 49
-0.125
 74
     0
 49
0.125
 74
     0
 49
-0.125
 74
     0
  0
LTYPE
  5
4A
330
5
100
AcDbSymbolTableRecord
100
AcDbLinetypeTableRecord
  2
CenterX2
 70
     0
  3
________  __  
 72
    65
 73
     4
 40
4.0
 49
2.5
 74
     0
 49
-0.5
 74
     0
 49
0.5
 74
     0
 49
-0.5
 74
     0
  0
LTYPE
  5
4B
330
5
100
AcDbSymbolTableRecord
100
AcDbLinetypeTableRecord
  2
DashDot
 70
     0
  3
__ . __ . __ . __ . 
 72
    65
 73
     4
 40
1.0
 49
0.5
 74
     0
 49
-0.25
 74
     0
 49
0.0
 74
     0
 49
-0.25
 74
     0
  0
LTYPE
  5
4C
330
5
100
AcDbSymbolTableRecord
100
AcDbLinetypeTableRecord
  2
DashDot2
 70
     0
  3
_._._._._._._._._.
 72
    65
 73
     4
 40
0.5
 49
0.25
 74
     0
 49
-0.125
 74
     0
 49
0.0
 74
     0
 49
-0.125
 74
     0
  0
LTYPE
  5
4D
330
5
100
AcDbSymbolTableRecord
100
AcDbLinetypeTableRecord
  2
DashDotX2
 70
     0
  3
____  .  ____  .  
 72
    65
 73
     4
 40
2.0
 49
1.0
 74
     0
 49
-0.5
 74
     0
 49
0.0
 74
     0
 49
-0.5
 74
     0
  0
LTYPE
  5
4E
330
5
100
AcDbSymbolTableRecord
100
AcDbLinetypeTableRecord
  2
Divide
 70
     0
  3
____ . . ____ . . 
 72
    65
 73
     6
 40
1.25
 49
0.5
 74
     0
 49
-0.25
 74
     0
 49
0.0
 74
     0
 49
-0.25
 74
     0
 49
0.0
 74
     0
 49
-0.25
 74
     0
  0
LTYPE
  5
4F
330
5
100
AcDbSymbolTableRecord
100
AcDbLinetypeTableRecord
  2
Divide2
 70
     0
  3
__..__..__..__..__..
 72
    65
 73
     6
 40
0.625
 49
0.25
 74
     0
 49
-0.125
 74
     0
 49
0.0
 74
     0
 49
-0.125
 74
     0
 49
0.0
 74
     0
 49
-0.125
 74
     0
  0
LTYPE
  5
50
330
5
100
AcDbSymbolTableRecord
100
AcDbLinetypeTableRecord
  2
DivideX2
 70
     0
  3
________  .  .  
 72
    65
 73
     6
 40
2.5
 49
1.0
 74
     0
 49
-0.5
 74
     0
 49
0.0
 74
     0
 49
-0.5
 74
     0
 49
0.0
 74
     0
 49
-0.5
 74
     0
  0
LTYPE
  5
51
330
5
100
AcDbSymbolTableRecord
100
AcDbLinetypeTableRecord
  2
Dot
 70
     0
  3
. . . . . . . . . 
 72
    65
 73
     2
 40
0.25
 49
0.0
 74
     0
 49
-0.25
 74
     0
  0
LTYPE
  5
52
330
5
100
AcDbSymbolTableRecord
100
AcDbLinetypeTableRecord
  2
Dot2
 70
     0
  3
..................
 72
    65
 73
     2
 40
0.125
 49
0.0
 74
     0
 49
-0.125
 74
     0
  0
LTYPE
  5
53
330
5
100
AcDbSymbolTableRecord
100
AcDbLinetypeTableRecord
  2
DotX2
 70
     0
  3
.  .  .  .  .  .  
 72
    65
 73
     2
 40
0.5
 49
0.0
 74
     0
 49
-0.5
 74
     0
  0
LTYPE
  5
54
330
5
100
AcDbSymbolTableRecord
100
AcDbLinetypeTableRecord
  2
Hidden
 70
     0
  3
__ __ __ __ __ __ 
 72
    65
 73
     2
 40
0.375
 49
0.25
 74
     0
 49
-0.125
 74
     0
  0
LTYPE
  5
55
330
5
100
AcDbSymbolTableRecord
100
AcDbLinetypeTableRecord
  2
Hidden2
 70
     0
  3
_ _ _ _ _ _ _ _ _ 
 72
    65
 73
     2
 40
0.1875
 49
0.125
 74
     0
 49
-0.0625
 74
     0
  0
LTYPE
  5
56
330
5
100
AcDbSymbolTableRecord
100
AcDbLinetypeTableRecord
  2
HiddenX2
 70
     0
  3
____ ____ ____ ____ 
 72
    65
 73
     2
 40
0.75
 49
0.5
 74
     0
 49
-0.25
 74
     0
  0
LTYPE
  5
57
330
5
100
AcDbSymbolTableRecord
100
AcDbLinetypeTableRecord
  2
Phantom
 70
     0
  3
______  __  __  
 72
    65
 73
     6
 40
2.5
 49
1.25
 74
     0
 49
-0.25
 74
     0
 49
0.25
 74
     0
 49
-0.25
 74
     0
 49
0.25
 74
     0
 49
-0.25
 74
     0
  0
LTYPE
  5
58
330
5
100
AcDbSymbolTableRecord
100
AcDbLinetypeTableRecord
  2
Phantom2
 70
     0
  3
___ _ _ ___ _ _ 
 72
    65
 73
     6
 40
1.25
 49
0.625
 74
     0
 49
-0.125
 74
     0
 49
0.125
 74
     0
 49
-0.125
 74
     0
 49
0.125
 74
     0
 49
-0.125
 74
     0
  0
LTYPE
  5
59
330
5
100
AcDbSymbolTableRecord
100
AcDbLinetypeTableRecord
  2
PhantomX2
 70
     0
  3
___ _ _ ___ _ _ 
 72
    65
 73
     6
 40
5.0
 49
2.5
 74
     0
 49
-0.5
 74
     0
 49
0.5
 74
     0
 49
-0.5
 74
     0
 49
0.5
 74
     0
 49
-0.5
 74
     0
  0
ENDTAB
  0
TABLE
  2
LAYER
  5
2
330
0
100
AcDbSymbolTable
 70
     8
  0
LAYER
  5
10
330
2
100
AcDbSymbolTableRecord
100
AcDbLayerTableRecord
  2
0
 70
     0
 62
     7
  6
Continuous
370
    -3
390
F
347
5C6
  0
LAYER
  5
3B
330
2
100
AcDbSymbolTableRecord
100
AcDbLayerTableRecord
  2
1
 70
     0
 62
     7
  6
Continuous
370
    -3
390
F
347
5C6
  0
LAYER
  5
3C
330
2
100
AcDbSymbolTableRecord
100
AcDbLayerTableRecord
  2
2
 70
     0
 62
     7
  6
Continuous
370
    -3
390
F
347
5C6
  0
LAYER
  5
3D
330
2
100
AcDbSymbolTableRecord
100
AcDbLayerTableRecord
  2
3
 70
     0
 62
     7
  6
Continuous
370
    -3
390
F
347
5C6
  0
LAYER
  5
3E
330
2
100
AcDbSymbolTableRecord
100
AcDbLayerTableRecord
  2
4
 70
     0
 62
     7
  6
Continuous
370
    -3
390
F
347
5C6
  0
LAYER
  5
3F
330
2
100
AcDbSymbolTableRecord
100
AcDbLayerTableRecord
  2
5
 70
     0
 62
     7
  6
Continuous
370
    -3
390
F
347
5C6
  0
LAYER
  5
40
330
2
100
AcDbSymbolTableRecord
100
AcDbLayerTableRecord
  2
6
 70
     0
 62
     7
  6
Continuous
370
    -3
390
F
347
5C6
  0
LAYER
  5
41
330
2
100
AcDbSymbolTableRecord
100
AcDbLayerTableRecord
  2
7
 70
     0
 62
     7
  6
Continuous
370
    -3
390
F
347
5C6
  0
ENDTAB
  0
TABLE
  2
STYLE
  5
3
330
0
100
AcDbSymbolTable
 70
     1
  0
STYLE
  5
11
330
3
100
AcDbSymbolTableRecord
100
AcDbTextStyleTableRecord
  2
Standard
 70
     0
 40
0.0
 41
1.0
 50
0.0
 71
     0
 42
0.2
  3
txt
  4

  0
ENDTAB
  0
TABLE
  2
VIEW
  5
6
330
0
100
AcDbSymbolTable
 70
     0
  0
ENDTAB
  0
TABLE
  2
UCS
  5
7
330
0
100
AcDbSymbolTable
 70
     0
  0
ENDTAB
  0
TABLE
  2
APPID
  5
9
330
0
100
AcDbSymbolTable
 70
     1
  0
APPID
  5
12
330
9
100
AcDbSymbolTableRecord
100
AcDbRegAppTableRecord
  2
ACAD
 70
     0
  0
ENDTAB
  0
TABLE
  2
DIMSTYLE
  5
A
330
0
100
AcDbSymbolTable
 70
     1
100
AcDbDimStyleTable
 71
     0
  0
DIMSTYLE
105
27
330
A
100
AcDbSymbolTableRecord
100
AcDbDimStyleTableRecord
  2
Standard
 70
     0
340
11
  0
ENDTAB
  0
TABLE
  2
BLOCK_RECORD
  5
1
330
0
100
AcDbSymbolTable
 70
     1
  0
BLOCK_RECORD
  5
1F
330
1
100
AcDbSymbolTableRecord
100
AcDbBlockTableRecord
  2
*Model_Space
340
22
 70
     0
280
     1
281
     0
  0
BLOCK_RECORD
  5
1B
330
1
100
AcDbSymbolTableRecord
100
AcDbBlockTableRecord
  2
*Paper_Space
340
1E
 70
     0
280
     1
281
     0
  0
BLOCK_RECORD
  5
23
330
1
100
AcDbSymbolTableRecord
100
AcDbBlockTableRecord
  2
*Paper_Space0
340
26
 70
     0
280
     1
281
     0
  0
ENDTAB
  0
ENDSEC
  0
SECTION
  2
BLOCKS
  0
BLOCK
  5
20
330
1F
100
AcDbEntity
  8
0
100
AcDbBlockBegin
  2
*Model_Space
 70
     0
 10
0.0
 20
0.0
 30
0.0
  3
*Model_Space
  1

  0
ENDBLK
  5
21
330
1F
100
AcDbEntity
  8
0
100
AcDbBlockEnd
  0
BLOCK
  5
1C
330
1B
100
AcDbEntity
 67
     1
  8
0
100
AcDbBlockBegin
  2
*Paper_Space
 70
     0
 10
0.0
 20
0.0
 30
0.0
  3
*Paper_Space
  1

  0
ENDBLK
  5
1D
330
1B
100
AcDbEntity
 67
     1
  8
0
100
AcDbBlockEnd
  0
BLOCK
  5
24
330
23
100
AcDbEntity
 67
     1
  8
0
100
AcDbBlockBegin
  2
*Paper_Space0
 70
     0
 10
0.0
 20
0.0
 30
0.0
  3
*Paper_Space0
  1

  0
ENDBLK
  5
25
330
23
100
AcDbEntity
 67
     1
  8
0
100
AcDbBlockEnd
  0
ENDSEC
  0
SECTION
  2
ENTITIES
  0
LINE
  5
6A
330
1F
100
AcDbEntity
  8
1
100
AcDbLine
 10
1.308070866141732
 20
1.099409448818897
 30
0.0
 11
1.304133858267716
 21
1.104330708661417
 31
0.0
  0
LINE
  5
6B
330
1F
100
AcDbEntity
  8
1
100
AcDbLine
 10
1.336614173228346
 20
1.069881889763779
 30
0.0
 11
1.336614173228346
 21
1.067913385826771
 31
0.0
  0
LINE
  5
6C
330
1F
100
AcDbEntity
  8
1
100
AcDbLine
 10
0.9498031496062992
 20
1.102362204724409
 30
0.0
 11
0.9468503937007874
 21
1.099409448818897
 31
0.0
  0
POLYLINE
  5
6D
330
1F
100
AcDbEntity
  8
1
100
AcDb2dPolyline
 66
     1
 10
0.0
 20
0.0
 30
0.0
  0
VERTEX
  5
6E
330
6D
100
AcDbEntity
  8
1
100
AcDbVertex
100
AcDb2dVertex
 10
1.311023622047243
 20
1.083661417322834
 30
0.0
  0
VERTEX
  5
6F
330
6D
100
AcDbEntity
  8
1
100
AcDbVertex
100
AcDb2dVertex
 10
1.311023622047243
 20
1.085629921259842
 30
0.0
  0
VERTEX
  5
70
330
6D
100
AcDbEntity
  8
1
100
AcDbVertex
100
AcDb2dVertex
 10
1.311023622047243
 20
1.086614173228346
 30
0.0
  0
VERTEX
  5
71
330
6D
100
AcDbEntity
  8
1
100
AcDbVertex
100
AcDb2dVertex
 10
1.311023622047243
 20
1.088582677165354
 30
0.0
  0
VERTEX
  5
72
330
6D
100
AcDbEntity
  8
1
100
AcDbVertex
100
AcDb2dVertex
 10
1.311023622047243
 20
1.090551181102362
 30
0.0
  0
VERTEX
  5
73
330
6D
100
AcDbEntity
  8
1
100
AcDbVertex
100
AcDb2dVertex
 10
1.311023622047243
 20
1.09251968503937
 30
0.0
  0
VERTEX
  5
74
330
6D
100
AcDbEntity
  8
1
100
AcDbVertex
100
AcDb2dVertex
 10
1.311023622047243
 20
1.093503937007874
 30
0.0
  0
VERTEX
  5
75
330
6D
100
AcDbEntity
  8
1
100
AcDbVertex
100
AcDb2dVertex
 10
1.311023622047243
 20
1.094488188976377
 30
0.0
  0
VERTEX
  5
76
330
6D
100
AcDbEntity
  8
1
100
AcDbVertex
100
AcDb2dVertex
 10
1.311023622047243
 20
1.095472440944881
 30
0.0
  0
VERTEX
  5
77
330
6D
100
AcDbEntity
  8
1
100
AcDbVertex
100
AcDb2dVertex
 10
1.31003937007874
 20
1.095472440944881
 30
0.0
  0
VERTEX
  5
78
330
6D
100
AcDbEntity
  8
1
100
AcDbVertex
100
AcDb2dVertex
 10
1.31003937007874
 20
1.096456692913385
 30
0.0
  0
VERTEX
  5
79
330
6D
100
AcDbEntity
  8
1
100
AcDbVertex
100
AcDb2dVertex
 10
1.31003937007874
 20
1.097440944881889
 30
0.0
  0
SEQEND
  5
7A
330
6D
100
AcDbEntity
  8
1
  0
POLYLINE
  5
7B
330
1F
100
AcDbEntity
  8
1
100
AcDb2dPolyline
 66
     1
 10
0.0
 20
0.0
 30
0.0
  0
VERTEX
  5
7C
330
7B
100
AcDbEntity
  8
1
100
AcDbVertex
100
AcDb2dVertex
 10
0.9448818897637794
 20
1.096456692913385
 30
0.0
  0
VERTEX
  5
7D
330
7B
100
AcDbEntity
  8
1
100
AcDbVertex
100
AcDb2dVertex
 10
0.9448818897637794
 20
1.095472440944881
 30
0.0
  0
VERTEX
  5
7E
330
7B
100
AcDbEntity
  8
1
100
AcDbVertex
100
AcDb2dVertex
 10
0.9448818897637794
 20
1.094488188976377
 30
0.0
  0
VERTEX
  5
7F
330
7B
100
AcDbEntity
  8
1
100
AcDbVertex
100
AcDb2dVertex
 10
0.9448818897637794
 20
1.093503937007874
 30
0.0
  0
VERTEX
  5
80
330
7B
100
AcDbEntity
  8
1
100
AcDbVertex
100
AcDb2dVertex
 10
0.9448818897637794
 20
1.09251968503937
 30
0.0
  0
VERTEX
  5
81
330
7B
100
AcDbEntity
  8
1
100
AcDbVertex
100
AcDb2dVertex
 10
0.9438976377952755
 20
1.090551181102362
 30
0.0
  0
VERTEX
  5
82
330
7B
100
AcDbEntity
  8
1
100
AcDbVertex
100
AcDb2dVertex
 10
0.9438976377952755
 20
1.088582677165354
 30
0.0
  0
VERTEX
  5
83
330
7B
100
AcDbEntity
  8
1
100
AcDbVertex
100
AcDb2dVertex
 10
0.9438976377952755
 20
1.085629921259842
 30
0.0
  0
VERTEX
  5
84
330
7B
100
AcDbEntity
  8
1
100
AcDbVertex
100
AcDb2dVertex
 10
0.9438976377952755
 20
1.08267716535433
 30
0.0
  0
VERTEX
  5
85
330
7B
100
AcDbEntity
  8
1
100
AcDbVertex
100
AcDb2dVertex
 10
0.9438976377952755
 20
1.079724409448818
 30
0.0
  0
VERTEX
  5
86
330
7B
100
AcDbEntity
  8
1
100
AcDbVertex
100
AcDb2dVertex
 10
0.9438976377952755
 20
1.076771653543307
 30
0.0
  0
VERTEX
  5
87
330
7B
100
AcDbEntity
  8
1
100
AcDbVertex
100
AcDb2dVertex
 10
0.9438976377952755
 20
1.073818897637795
 30
0.0
  0
VERTEX
  5
88
330
7B
100
AcDbEntity
  8
1
100
AcDbVertex
100
AcDb2dVertex
 10
0.9438976377952755
 20
1.071850393700787
 30
0.0
  0
VERTEX
  5
89
330
7B
100
AcDbEntity
  8
1
100
AcDbVertex
100
AcDb2dVertex
 10
0.9438976377952755
 20
1.069881889763779
 30
0.0
  0
SEQEND
  5
8A
330
7B
100
AcDbEntity
  8
1
  0
POLYLINE
  5
8B
330
1F
100
AcDbEntity
  8
1
100
AcDb2dPolyline
 66
     1
 10
0.0
 20
0.0
 30
0.0
  0
VERTEX
  5
8C
330
8B
100
AcDbEntity
  8
1
100
AcDbVertex
100
AcDb2dVertex
 10
1.048228346456692
 20
0.9596456692913385
 30
0.0
  0
VERTEX
  5
8D
330
8B
100
AcDbEntity
  8
1
100
AcDbVertex
100
AcDb2dVertex
 10
1.032480314960629
 20
0.9527559055118109
 30
0.0
  0
VERTEX
  5
8E
330
8B
100
AcDbEntity
  8
1
100
AcDbVertex
100
AcDb2dVertex
 10
1.026574803149606
 20
0.937992125984252
 30
0.0
  0
SEQEND
  5
8F
330
8B
100
AcDbEntity
  8
1
  0
LINE
  5
90
330
1F
100
AcDbEntity
  8
1
100
AcDbLine
 10
1.026574803149606
 20
0.4163385826771654
 30
0.0
 11
1.026574803149606
 21
0.937992125984252
 31
0.0
  0
POLYLINE
  5
91
330
1F
100
AcDbEntity
  8
1
100
AcDb2dPolyline
 66
     1
 10
0.0
 20
0.0
 30
0.0
  0
VERTEX
  5
92
330
91
100
AcDbEntity
  8
1
100
AcDbVertex
100
AcDb2dVertex
 10
1.026574803149606
 20
0.4163385826771654
 30
0.0
  0
VERTEX
  5
93
330
91
100
AcDbEntity
  8
1
100
AcDbVertex
100
AcDb2dVertex
 10
1.032480314960629
 20
0.4015748031496063
 30
0.0
  0
VERTEX
  5
94
330
91
100
AcDbEntity
  8
1
100
AcDbVertex
100
AcDb2dVertex
 10
1.048228346456692
 20
0.3946850393700787
 30
0.0
  0
SEQEND
  5
95
330
91
100
AcDbEntity
  8
1
  0
LINE
  5
96
330
1F
100
AcDbEntity
  8
1
100
AcDbLine
 10
1.150590551181102
 20
0.3946850393700787
 30
0.0
 11
1.048228346456692
 21
0.3946850393700787
 31
0.0
  0
POLYLINE
  5
97
330
1F
100
AcDbEntity
  8
1
100
AcDb2dPolyline
 66
     1
 10
0.0
 20
0.0
 30
0.0
  0
VERTEX
  5
98
330
97
100
AcDbEntity
  8
1
100
AcDbVertex
100
AcDb2dVertex
 10
1.150590551181102
 20
0.3946850393700787
 30
0.0
  0
VERTEX
  5
99
330
97
100
AcDbEntity
  8
1
100
AcDbVertex
100
AcDb2dVertex
 10
1.163385826771653
 20
0.3986220472440945
 30
0.0
  0
VERTEX
  5
9A
330
97
100
AcDbEntity
  8
1
100
AcDbVertex
100
AcDb2dVertex
 10
1.171259842519684
 20
0.4104330708661418
 30
0.0
  0
SEQEND
  5
9B
330
97
100
AcDbEntity
  8
1
  0
LINE
  5
9C
330
1F
100
AcDbEntity
  8
1
100
AcDbLine
 10
1.176181102362204
 20
0.4271653543307087
 30
0.0
 11
1.171259842519684
 21
0.4104330708661418
 31
0.0
  0
POLYLINE
  5
9D
330
1F
100
AcDbEntity
  8
1
100
AcDb2dPolyline
 66
     1
 10
0.0
 20
0.0
 30
0.0
  0
VERTEX
  5
9E
330
9D
100
AcDbEntity
  8
1
100
AcDbVertex
100
AcDb2dVertex
 10
1.183070866141732
 20
0.437992125984252
 30
0.0
  0
VERTEX
  5
9F
330
9D
100
AcDbEntity
  8
1
100
AcDbVertex
100
AcDb2dVertex
 10
1.179133858267716
 20
0.4330708661417324
 30
0.0
  0
VERTEX
  5
A0
330
9D
100
AcDbEntity
  8
1
100
AcDbVertex
100
AcDb2dVertex
 10
1.176181102362204
 20
0.4271653543307087
 30
0.0
  0
SEQEND
  5
A1
330
9D
100
AcDbEntity
  8
1
  0
LINE
  5
A2
330
1F
100
AcDbEntity
  8
1
100
AcDbLine
 10
1.221456692913385
 20
0.4714566929133859
 30
0.0
 11
1.183070866141732
 21
0.437992125984252
 31
0.0
  0
POLYLINE
  5
A3
330
1F
100
AcDbEntity
  8
1
100
AcDb2dPolyline
 66
     1
 10
0.0
 20
0.0
 30
0.0
  0
VERTEX
  5
A4
330
A3
100
AcDbEntity
  8
1
100
AcDbVertex
100
AcDb2dVertex
 10
1.228346456692913
 20
0.4872047244094488
 30
0.0
  0
VERTEX
  5
A5
330
A3
100
AcDbEntity
  8
1
100
AcDbVertex
100
AcDb2dVertex
 10
1.227362204724409
 20
0.4783464566929134
 30
0.0
  0
VERTEX
  5
A6
330
A3
100
AcDbEntity
  8
1
100
AcDbVertex
100
AcDb2dVertex
 10
1.221456692913385
 20
0.4714566929133859
 30
0.0
  0
SEQEND
  5
A7
330
A3
100
AcDbEntity
  8
1
  0
LINE
  5
A8
330
1F
100
AcDbEntity
  8
1
100
AcDbLine
 10
1.228346456692913
 20
0.8661417322834646
 30
0.0
 11
1.228346456692913
 21
0.4872047244094488
 31
0.0
  0
POLYLINE
  5
A9
330
1F
100
AcDbEntity
  8
1
100
AcDb2dPolyline
 66
     1
 10
0.0
 20
0.0
 30
0.0
  0
VERTEX
  5
AA
330
A9
100
AcDbEntity
  8
1
100
AcDbVertex
100
AcDb2dVertex
 10
1.221456692913385
 20
0.8828740157480314
 30
0.0
  0
VERTEX
  5
AB
330
A9
100
AcDbEntity
  8
1
100
AcDbVertex
100
AcDb2dVertex
 10
1.227362204724409
 20
0.875
 30
0.0
  0
VERTEX
  5
AC
330
A9
100
AcDbEntity
  8
1
100
AcDbVertex
100
AcDb2dVertex
 10
1.228346456692913
 20
0.8661417322834646
 30
0.0
  0
SEQEND
  5
AD
330
A9
100
AcDbEntity
  8
1
  0
LINE
  5
AE
330
1F
100
AcDbEntity
  8
1
100
AcDbLine
 10
1.183070866141732
 20
0.9163385826771653
 30
0.0
 11
1.221456692913385
 21
0.8828740157480314
 31
0.0
  0
POLYLINE
  5
AF
330
1F
100
AcDbEntity
  8
1
100
AcDb2dPolyline
 66
     1
 10
0.0
 20
0.0
 30
0.0
  0
VERTEX
  5
B0
330
AF
100
AcDbEntity
  8
1
100
AcDbVertex
100
AcDb2dVertex
 10
1.176181102362204
 20
0.9271653543307087
 30
0.0
  0
VERTEX
  5
B1
330
AF
100
AcDbEntity
  8
1
100
AcDbVertex
100
AcDb2dVertex
 10
1.179133858267716
 20
0.921259842519685
 30
0.0
  0
VERTEX
  5
B2
330
AF
100
AcDbEntity
  8
1
100
AcDbVertex
100
AcDb2dVertex
 10
1.183070866141732
 20
0.9163385826771653
 30
0.0
  0
SEQEND
  5
B3
330
AF
100
AcDbEntity
  8
1
  0
LINE
  5
B4
330
1F
100
AcDbEntity
  8
1
100
AcDbLine
 10
1.171259842519684
 20
0.9438976377952755
 30
0.0
 11
1.176181102362204
 21
0.9271653543307087
 31
0.0
  0
POLYLINE
  5
B5
330
1F
100
AcDbEntity
  8
1
100
AcDb2dPolyline
 66
     1
 10
0.0
 20
0.0
 30
0.0
  0
VERTEX
  5
B6
330
B5
100
AcDbEntity
  8
1
100
AcDbVertex
100
AcDb2dVertex
 10
1.171259842519684
 20
0.9438976377952755
 30
0.0
  0
VERTEX
  5
B7
330
B5
100
AcDbEntity
  8
1
100
AcDbVertex
100
AcDb2dVertex
 10
1.163385826771653
 20
0.9547244094488188
 30
0.0
  0
VERTEX
  5
B8
330
B5
100
AcDbEntity
  8
1
100
AcDbVertex
100
AcDb2dVertex
 10
1.150590551181102
 20
0.9596456692913385
 30
0.0
  0
SEQEND
  5
B9
330
B5
100
AcDbEntity
  8
1
  0
LINE
  5
BA
330
1F
100
AcDbEntity
  8
1
100
AcDbLine
 10
1.048228346456692
 20
0.9596456692913385
 30
0.0
 11
1.150590551181102
 21
0.9596456692913385
 31
0.0
  0
LINE
  5
BB
330
1F
100
AcDbEntity
  8
1
100
AcDbLine
 10
1.025590551181102
 20
0.4163385826771654
 30
0.0
 11
1.025590551181102
 21
0.937992125984252
 31
0.0
  0
POLYLINE
  5
BC
330
1F
100
AcDbEntity
  8
1
100
AcDb2dPolyline
 66
     1
 10
0.0
 20
0.0
 30
0.0
  0
VERTEX
  5
BD
330
BC
100
AcDbEntity
  8
1
100
AcDbVertex
100
AcDb2dVertex
 10
1.025590551181102
 20
0.937992125984252
 30
0.0
  0
VERTEX
  5
BE
330
BC
100
AcDbEntity
  8
1
100
AcDbVertex
100
AcDb2dVertex
 10
1.032480314960629
 20
0.9527559055118109
 30
0.0
  0
VERTEX
  5
BF
330
BC
100
AcDbEntity
  8
1
100
AcDbVertex
100
AcDb2dVertex
 10
1.048228346456692
 20
0.9596456692913385
 30
0.0
  0
SEQEND
  5
C0
330
BC
100
AcDbEntity
  8
1
  0
LINE
  5
C1
330
1F
100
AcDbEntity
  8
1
100
AcDbLine
 10
1.048228346456692
 20
0.9596456692913385
 30
0.0
 11
1.150590551181102
 21
0.9596456692913385
 31
0.0
  0
POLYLINE
  5
C2
330
1F
100
AcDbEntity
  8
1
100
AcDb2dPolyline
 66
     1
 10
0.0
 20
0.0
 30
0.0
  0
VERTEX
  5
C3
330
C2
100
AcDbEntity
  8
1
100
AcDbVertex
100
AcDb2dVertex
 10
1.150590551181102
 20
0.9596456692913385
 30
0.0
  0
VERTEX
  5
C4
330
C2
100
AcDbEntity
  8
1
100
AcDbVertex
100
AcDb2dVertex
 10
1.163385826771653
 20
0.9557086614173227
 30
0.0
  0
VERTEX
  5
C5
330
C2
100
AcDbEntity
  8
1
100
AcDbVertex
100
AcDb2dVertex
 10
1.171259842519684
 20
0.9438976377952755
 30
0.0
  0
SEQEND
  5
C6
330
C2
100
AcDbEntity
  8
1
  0
LINE
  5
C7
330
1F
100
AcDbEntity
  8
1
100
AcDbLine
 10
1.171259842519684
 20
0.9438976377952755
 30
0.0
 11
1.176181102362204
 21
0.9271653543307087
 31
0.0
  0
POLYLINE
  5
C8
330
1F
100
AcDbEntity
  8
1
100
AcDb2dPolyline
 66
     1
 10
0.0
 20
0.0
 30
0.0
  0
VERTEX
  5
C9
330
C8
100
AcDbEntity
  8
1
100
AcDbVertex
100
AcDb2dVertex
 10
1.176181102362204
 20
0.9271653543307087
 30
0.0
  0
VERTEX
  5
CA
330
C8
100
AcDbEntity
  8
1
100
AcDbVertex
100
AcDb2dVertex
 10
1.179133858267716
 20
0.921259842519685
 30
0.0
  0
VERTEX
  5
CB
330
C8
100
AcDbEntity
  8
1
100
AcDbVertex
100
AcDb2dVertex
 10
1.183070866141732
 20
0.9163385826771653
 30
0.0
  0
SEQEND
  5
CC
330
C8
100
AcDbEntity
  8
1
  0
LINE
  5
CD
330
1F
100
AcDbEntity
  8
1
100
AcDbLine
 10
1.183070866141732
 20
0.9163385826771653
 30
0.0
 11
1.221456692913385
 21
0.8828740157480314
 31
0.0
  0
POLYLINE
  5
CE
330
1F
100
AcDbEntity
  8
1
100
AcDb2dPolyline
 66
     1
 10
0.0
 20
0.0
 30
0.0
  0
VERTEX
  5
CF
330
CE
100
AcDbEntity
  8
1
100
AcDbVertex
100
AcDb2dVertex
 10
1.221456692913385
 20
0.8828740157480314
 30
0.0
  0
VERTEX
  5
D0
330
CE
100
AcDbEntity
  8
1
100
AcDbVertex
100
AcDb2dVertex
 10
1.227362204724409
 20
0.8759842519685038
 30
0.0
  0
VERTEX
  5
D1
330
CE
100
AcDbEntity
  8
1
100
AcDbVertex
100
AcDb2dVertex
 10
1.229330708661417
 20
0.8661417322834646
 30
0.0
  0
SEQEND
  5
D2
330
CE
100
AcDbEntity
  8
1
  0
LINE
  5
D3
330
1F
100
AcDbEntity
  8
1
100
AcDbLine
 10
1.229330708661417
 20
0.8661417322834646
 30
0.0
 11
1.229330708661417
 21
0.4872047244094488
 31
0.0
  0
POLYLINE
  5
D4
330
1F
100
AcDbEntity
  8
1
100
AcDb2dPolyline
 66
     1
 10
0.0
 20
0.0
 30
0.0
  0
VERTEX
  5
D5
330
D4
100
AcDbEntity
  8
1
100
AcDbVertex
100
AcDb2dVertex
 10
1.229330708661417
 20
0.4872047244094488
 30
0.0
  0
VERTEX
  5
D6
330
D4
100
AcDbEntity
  8
1
100
AcDbVertex
100
AcDb2dVertex
 10
1.227362204724409
 20
0.4783464566929134
 30
0.0
  0
VERTEX
  5
D7
330
D4
100
AcDbEntity
  8
1
100
AcDbVertex
100
AcDb2dVertex
 10
1.221456692913385
 20
0.4714566929133859
 30
0.0
  0
SEQEND
  5
D8
330
D4
100
AcDbEntity
  8
1
  0
LINE
  5
D9
330
1F
100
AcDbEntity
  8
1
100
AcDbLine
 10
1.221456692913385
 20
0.4714566929133859
 30
0.0
 11
1.183070866141732
 21
0.4370078740157481
 31
0.0
  0
POLYLINE
  5
DA
330
1F
100
AcDbEntity
  8
1
100
AcDb2dPolyline
 66
     1
 10
0.0
 20
0.0
 30
0.0
  0
VERTEX
  5
DB
330
DA
100
AcDbEntity
  8
1
100
AcDbVertex
100
AcDb2dVertex
 10
1.183070866141732
 20
0.4370078740157481
 30
0.0
  0
VERTEX
  5
DC
330
DA
100
AcDbEntity
  8
1
100
AcDbVertex
100
AcDb2dVertex
 10
1.179133858267716
 20
0.4320866141732284
 30
0.0
  0
VERTEX
  5
DD
330
DA
100
AcDbEntity
  8
1
100
AcDbVertex
100
AcDb2dVertex
 10
1.176181102362204
 20
0.4271653543307087
 30
0.0
  0
SEQEND
  5
DE
330
DA
100
AcDbEntity
  8
1
  0
LINE
  5
DF
330
1F
100
AcDbEntity
  8
1
100
AcDbLine
 10
1.176181102362204
 20
0.4271653543307087
 30
0.0
 11
1.171259842519684
 21
0.4094488188976378
 31
0.0
  0
POLYLINE
  5
E0
330
1F
100
AcDbEntity
  8
1
100
AcDb2dPolyline
 66
     1
 10
0.0
 20
0.0
 30
0.0
  0
VERTEX
  5
E1
330
E0
100
AcDbEntity
  8
1
100
AcDbVertex
100
AcDb2dVertex
 10
1.171259842519684
 20
0.4094488188976378
 30
0.0
  0
VERTEX
  5
E2
330
E0
100
AcDbEntity
  8
1
100
AcDbVertex
100
AcDb2dVertex
 10
1.163385826771653
 20
0.3986220472440945
 30
0.0
  0
VERTEX
  5
E3
330
E0
100
AcDbEntity
  8
1
100
AcDbVertex
100
AcDb2dVertex
 10
1.150590551181102
 20
0.3946850393700787
 30
0.0
  0
SEQEND
  5
E4
330
E0
100
AcDbEntity
  8
1
  0
LINE
  5
E5
330
1F
100
AcDbEntity
  8
1
100
AcDbLine
 10
1.150590551181102
 20
0.3946850393700787
 30
0.0
 11
1.048228346456692
 21
0.3946850393700787
 31
0.0
  0
POLYLINE
  5
E6
330
1F
100
AcDbEntity
  8
1
100
AcDb2dPolyline
 66
     1
 10
0.0
 20
0.0
 30
0.0
  0
VERTEX
  5
E7
330
E6
100
AcDbEntity
  8
1
100
AcDbVertex
100
AcDb2dVertex
 10
1.048228346456692
 20
0.3946850393700787
 30
0.0
  0
VERTEX
  5
E8
330
E6
100
AcDbEntity
  8
1
100
AcDbVertex
100
AcDb2dVertex
 10
1.032480314960629
 20
0.4005905511811024
 30
0.0
  0
VERTEX
  5
E9
330
E6
100
AcDbEntity
  8
1
100
AcDbVertex
100
AcDb2dVertex
 10
1.025590551181102
 20
0.4163385826771654
 30
0.0
  0
SEQEND
  5
EA
330
E6
100
AcDbEntity
  8
1
  0
LINE
  5
EB
330
1F
100
AcDbEntity
  8
1
100
AcDbLine
 10
0.84251968503937
 20
0.9734251968503937
 30
0.0
 11
0.84251968503937
 21
0.3405511811023622
 31
0.0
  0
LINE
  5
EC
330
1F
100
AcDbEntity
  8
1
100
AcDbLine
 10
1.412401574803149
 20
0.3405511811023622
 30
0.0
 11
0.84251968503937
 21
0.3405511811023622
 31
0.0
  0
LINE
  5
ED
330
1F
100
AcDbEntity
  8
1
100
AcDbLine
 10
1.412401574803149
 20
0.9734251968503937
 30
0.0
 11
1.412401574803149
 21
0.3405511811023622
 31
0.0
  0
LINE
  5
EE
330
1F
100
AcDbEntity
  8
1
100
AcDbLine
 10
0.84251968503937
 20
0.9734251968503937
 30
0.0
 11
1.412401574803149
 21
0.9734251968503937
 31
0.0
  0
LINE
  5
EF
330
1F
100
AcDbEntity
  8
1
100
AcDbLine
 10
0.84251968503937
 20
0.3405511811023622
 30
0.0
 11
0.8395669291338581
 21
0.3336614173228347
 31
0.0
  0
LINE
  5
F0
330
1F
100
AcDbEntity
  8
1
100
AcDbLine
 10
0.8395669291338581
 20
0.3336614173228347
 30
0.0
 11
0.8061023622047244
 21
0.3336614173228347
 31
0.0
  0
LINE
  5
F1
330
1F
100
AcDbEntity
  8
1
100
AcDbLine
 10
0.8031496062992125
 20
0.3316929133858268
 30
0.0
 11
0.8061023622047244
 21
0.3336614173228347
 31
0.0
  0
LINE
  5
F2
330
1F
100
AcDbEntity
  8
1
100
AcDbLine
 10
0.8927165354330707
 20
0.3316929133858268
 30
0.0
 11
0.8031496062992125
 21
0.3316929133858268
 31
0.0
  0
LINE
  5
F3
330
1F
100
AcDbEntity
  8
1
100
AcDbLine
 10
0.8927165354330707
 20
0.3316929133858268
 30
0.0
 11
0.8956692913385825
 21
0.3346456692913386
 31
0.0
  0
LINE
  5
F4
330
1F
100
AcDbEntity
  8
1
100
AcDbLine
 10
0.8956692913385825
 20
0.3346456692913386
 30
0.0
 11
0.9005905511811022
 21
0.3366141732283465
 31
0.0
  0
LINE
  5
F5
330
1F
100
AcDbEntity
  8
1
100
AcDbLine
 10
0.9005905511811022
 20
0.3366141732283465
 30
0.0
 11
1.355314960629921
 21
0.3366141732283465
 31
0.0
  0
LINE
  5
F6
330
1F
100
AcDbEntity
  8
1
100
AcDbLine
 10
1.355314960629921
 20
0.3366141732283465
 30
0.0
 11
1.359251968503937
 21
0.3346456692913386
 31
0.0
  0
LINE
  5
F7
330
1F
100
AcDbEntity
  8
1
100
AcDbLine
 10
1.359251968503937
 20
0.3346456692913386
 30
0.0
 11
1.362204724409448
 21
0.3316929133858268
 31
0.0
  0
LINE
  5
F8
330
1F
100
AcDbEntity
  8
1
100
AcDbLine
 10
1.451771653543307
 20
0.3316929133858268
 30
0.0
 11
1.362204724409448
 21
0.3316929133858268
 31
0.0
  0
LINE
  5
F9
330
1F
100
AcDbEntity
  8
1
100
AcDbLine
 10
1.451771653543307
 20
0.3316929133858268
 30
0.0
 11
1.449803149606299
 21
0.3336614173228347
 31
0.0
  0
LINE
  5
FA
330
1F
100
AcDbEntity
  8
1
100
AcDbLine
 10
1.449803149606299
 20
0.3336614173228347
 30
0.0
 11
1.416338582677165
 21
0.3336614173228347
 31
0.0
  0
LINE
  5
FB
330
1F
100
AcDbEntity
  8
1
100
AcDbLine
 10
1.412401574803149
 20
0.3405511811023622
 30
0.0
 11
1.416338582677165
 21
0.3336614173228347
 31
0.0
  0
LINE
  5
FC
330
1F
100
AcDbEntity
  8
1
100
AcDbLine
 10
0.8366141732283464
 20
0.5305118110236221
 30
0.0
 11
0.8395669291338581
 21
0.5265748031496063
 31
0.0
  0
LINE
  5
FD
330
1F
100
AcDbEntity
  8
1
100
AcDbLine
 10
0.8395669291338581
 20
0.3336614173228347
 30
0.0
 11
0.8395669291338581
 21
0.5265748031496063
 31
0.0
  0
LINE
  5
FE
330
1F
100
AcDbEntity
  8
1
100
AcDbLine
 10
0.8415354330708661
 20
1.009842519685039
 30
0.0
 11
0.84251968503937
 21
0.9734251968503937
 31
0.0
  0
LINE
  5
FF
330
1F
100
AcDbEntity
  8
1
100
AcDbLine
 10
0.8415354330708661
 20
1.009842519685039
 30
0.0
 11
0.8395669291338581
 21
1.024606299212598
 31
0.0
  0
LINE
  5
100
330
1F
100
AcDbEntity
  8
1
100
AcDbLine
 10
0.8395669291338581
 20
1.024606299212598
 30
0.0
 11
0.8395669291338581
 21
1.084645669291338
 31
0.0
  0
LINE
  5
101
330
1F
100
AcDbEntity
  8
1
100
AcDbLine
 10
0.8395669291338581
 20
1.085629921259842
 30
0.0
 11
0.8395669291338581
 21
1.084645669291338
 31
0.0
  0
LINE
  5
102
330
1F
100
AcDbEntity
  8
1
100
AcDbLine
 10
0.8395669291338581
 20
0.9015748031496062
 30
0.0
 11
0.8395669291338581
 21
1.085629921259842
 31
0.0
  0
LINE
  5
103
330
1F
100
AcDbEntity
  8
1
100
AcDbLine
 10
0.8366141732283464
 20
0.8976377952755905
 30
0.0
 11
0.8395669291338581
 21
0.9015748031496062
 31
0.0
  0
LINE
  5
104
330
1F
100
AcDbEntity
  8
1
100
AcDbLine
 10
0.8366141732283464
 20
0.889763779527559
 30
0.0
 11
0.8366141732283464
 21
0.8976377952755905
 31
0.0
  0
LINE
  5
105
330
1F
100
AcDbEntity
  8
1
100
AcDbLine
 10
0.8366141732283464
 20
0.889763779527559
 30
0.0
 11
0.8356299212598424
 21
0.8828740157480314
 31
0.0
  0
LINE
  5
106
330
1F
100
AcDbEntity
  8
1
100
AcDbLine
 10
0.8366141732283464
 20
0.5374015748031497
 30
0.0
 11
0.8356299212598424
 21
0.5452755905511811
 31
0.0
  0
LINE
  5
107
330
1F
100
AcDbEntity
  8
1
100
AcDbLine
 10
0.8366141732283464
 20
0.5305118110236221
 30
0.0
 11
0.8366141732283464
 21
0.5374015748031497
 31
0.0
  0
LINE
  5
108
330
1F
100
AcDbEntity
  8
1
100
AcDbLine
 10
1.416338582677165
 20
0.3336614173228347
 30
0.0
 11
1.416338582677165
 21
0.5265748031496063
 31
0.0
  0
LINE
  5
109
330
1F
100
AcDbEntity
  8
1
100
AcDbLine
 10
1.418307086614173
 20
0.5305118110236221
 30
0.0
 11
1.416338582677165
 21
0.5265748031496063
 31
0.0
  0
LINE
  5
10A
330
1F
100
AcDbEntity
  8
1
100
AcDbLine
 10
1.418307086614173
 20
0.5374015748031497
 30
0.0
 11
1.418307086614173
 21
0.5305118110236221
 31
0.0
  0
LINE
  5
10B
330
1F
100
AcDbEntity
  8
1
100
AcDbLine
 10
1.418307086614173
 20
0.5374015748031497
 30
0.0
 11
1.419291338582677
 21
0.5452755905511811
 31
0.0
  0
LINE
  5
10C
330
1F
100
AcDbEntity
  8
1
100
AcDbLine
 10
1.418307086614173
 20
0.889763779527559
 30
0.0
 11
1.419291338582677
 21
0.8828740157480314
 31
0.0
  0
LINE
  5
10D
330
1F
100
AcDbEntity
  8
1
100
AcDbLine
 10
1.418307086614173
 20
0.8976377952755905
 30
0.0
 11
1.418307086614173
 21
0.889763779527559
 31
0.0
  0
LINE
  5
10E
330
1F
100
AcDbEntity
  8
1
100
AcDbLine
 10
1.418307086614173
 20
0.8976377952755905
 30
0.0
 11
1.416338582677165
 21
0.9015748031496062
 31
0.0
  0
LINE
  5
10F
330
1F
100
AcDbEntity
  8
1
100
AcDbLine
 10
1.416338582677165
 20
0.9015748031496062
 30
0.0
 11
1.416338582677165
 21
1.085629921259842
 31
0.0
  0
LINE
  5
110
330
1F
100
AcDbEntity
  8
1
100
AcDbLine
 10
1.415354330708661
 20
1.084645669291338
 30
0.0
 11
1.416338582677165
 21
1.085629921259842
 31
0.0
  0
LINE
  5
111
330
1F
100
AcDbEntity
  8
1
100
AcDbLine
 10
1.415354330708661
 20
1.084645669291338
 30
0.0
 11
1.415354330708661
 21
1.024606299212598
 31
0.0
  0
LINE
  5
112
330
1F
100
AcDbEntity
  8
1
100
AcDbLine
 10
1.415354330708661
 20
1.024606299212598
 30
0.0
 11
1.413385826771653
 21
1.009842519685039
 31
0.0
  0
LINE
  5
113
330
1F
100
AcDbEntity
  8
1
100
AcDbLine
 10
1.413385826771653
 20
1.009842519685039
 30
0.0
 11
1.412401574803149
 21
0.9734251968503937
 31
0.0
  0
LINE
  5
114
330
1F
100
AcDbEntity
  8
1
100
AcDbLine
 10
1.226377952755905
 20
1.030511811023621
 30
0.0
 11
1.33759842519685
 21
1.030511811023621
 31
0.0
  0
POLYLINE
  5
115
330
1F
100
AcDbEntity
  8
1
100
AcDb2dPolyline
 66
     1
 10
0.0
 20
0.0
 30
0.0
  0
VERTEX
  5
116
330
115
100
AcDbEntity
  8
1
100
AcDbVertex
100
AcDb2dVertex
 10
1.24015748031496
 20
1.016732283464566
 30
0.0
  0
VERTEX
  5
117
330
115
100
AcDbEntity
  8
1
100
AcDbVertex
100
AcDb2dVertex
 10
1.236220472440944
 20
1.020669291338582
 30
0.0
  0
VERTEX
  5
118
330
115
100
AcDbEntity
  8
1
100
AcDbVertex
100
AcDb2dVertex
 10
1.226377952755905
 20
1.030511811023621
 30
0.0
  0
SEQEND
  5
119
330
115
100
AcDbEntity
  8
1
  0
LINE
  5
11A
330
1F
100
AcDbEntity
  8
1
100
AcDbLine
 10
1.33759842519685
 20
1.016732283464566
 30
0.0
 11
1.24015748031496
 21
1.016732283464566
 31
0.0
  0
POLYLINE
  5
11B
330
1F
100
AcDbEntity
  8
1
100
AcDb2dPolyline
 66
     1
 10
0.0
 20
0.0
 30
0.0
  0
VERTEX
  5
11C
330
11B
100
AcDbEntity
  8
1
100
AcDbVertex
100
AcDb2dVertex
 10
1.33759842519685
 20
1.030511811023621
 30
0.0
  0
VERTEX
  5
11D
330
11B
100
AcDbEntity
  8
1
100
AcDbVertex
100
AcDb2dVertex
 10
1.33759842519685
 20
1.020669291338582
 30
0.0
  0
VERTEX
  5
11E
330
11B
100
AcDbEntity
  8
1
100
AcDbVertex
100
AcDb2dVertex
 10
1.33759842519685
 20
1.016732283464566
 30
0.0
  0
SEQEND
  5
11F
330
11B
100
AcDbEntity
  8
1
  0
LINE
  5
120
330
1F
100
AcDbEntity
  8
1
100
AcDbLine
 10
0.9970472440944881
 20
1.062007874015747
 30
0.0
 11
0.9498031496062992
 21
1.062007874015747
 31
0.0
  0
LINE
  5
121
330
1F
100
AcDbEntity
  8
1
100
AcDbLine
 10
1.001968503937007
 20
1.080708661417322
 30
0.0
 11
0.9970472440944881
 21
1.062007874015747
 31
0.0
  0
LINE
  5
122
330
1F
100
AcDbEntity
  8
1
100
AcDbLine
 10
0.9507874015748031
 20
1.080708661417322
 30
0.0
 11
1.001968503937007
 21
1.080708661417322
 31
0.0
  0
LINE
  5
123
330
1F
100
AcDbEntity
  8
1
100
AcDbLine
 10
0.9498031496062992
 20
1.062007874015747
 30
0.0
 11
0.9507874015748031
 21
1.080708661417322
 31
0.0
  0
LINE
  5
124
330
1F
100
AcDbEntity
  8
1
100
AcDbLine
 10
1.194881889763779
 20
1.080708661417322
 30
0.0
 11
1.187992125984251
 21
1.08759842519685
 31
0.0
  0
LINE
  5
125
330
1F
100
AcDbEntity
  8
1
100
AcDbLine
 10
1.194881889763779
 20
1.080708661417322
 30
0.0
 11
1.304133858267716
 21
1.080708661417322
 31
0.0
  0
LINE
  5
126
330
1F
100
AcDbEntity
  8
1
100
AcDbLine
 10
1.304133858267716
 20
1.08759842519685
 30
0.0
 11
1.304133858267716
 21
1.080708661417322
 31
0.0
  0
LINE
  5
127
330
1F
100
AcDbEntity
  8
1
100
AcDbLine
 10
1.304133858267716
 20
1.08759842519685
 30
0.0
 11
1.187992125984251
 21
1.08759842519685
 31
0.0
  0
LINE
  5
128
330
1F
100
AcDbEntity
  8
1
100
AcDbLine
 10
1.011811023622047
 20
1.089566929133858
 30
0.0
 11
1.18503937007874
 21
1.089566929133858
 31
0.0
  0
LINE
  5
129
330
1F
100
AcDbEntity
  8
1
100
AcDbLine
 10
1.18503937007874
 20
1.089566929133858
 30
0.0
 11
1.187992125984251
 21
1.08759842519685
 31
0.0
  0
LINE
  5
12A
330
1F
100
AcDbEntity
  8
1
100
AcDbLine
 10
1.30511811023622
 20
1.153543307086614
 30
0.0
 11
1.304133858267716
 21
1.08759842519685
 31
0.0
  0
LINE
  5
12B
330
1F
100
AcDbEntity
  8
1
100
AcDbLine
 10
0.9498031496062992
 20
1.153543307086614
 30
0.0
 11
1.30511811023622
 21
1.153543307086614
 31
0.0
  0
LINE
  5
12C
330
1F
100
AcDbEntity
  8
1
100
AcDbLine
 10
0.9507874015748031
 20
1.08759842519685
 30
0.0
 11
0.9498031496062992
 21
1.153543307086614
 31
0.0
  0
LINE
  5
12D
330
1F
100
AcDbEntity
  8
1
100
AcDbLine
 10
1.008858267716535
 20
1.08759842519685
 30
0.0
 11
0.9507874015748031
 21
1.08759842519685
 31
0.0
  0
LINE
  5
12E
330
1F
100
AcDbEntity
  8
1
100
AcDbLine
 10
1.011811023622047
 20
1.089566929133858
 30
0.0
 11
1.008858267716535
 21
1.08759842519685
 31
0.0
  0
LINE
  5
12F
330
1F
100
AcDbEntity
  8
1
100
AcDbLine
 10
1.359251968503937
 20
0.3346456692913386
 30
0.0
 11
1.354330708661417
 21
0.3297244094488189
 31
0.0
  0
LINE
  5
130
330
1F
100
AcDbEntity
  8
1
100
AcDbLine
 10
1.353346456692913
 20
0.3366141732283465
 30
0.0
 11
1.355314960629921
 21
0.3366141732283465
 31
0.0
  0
LINE
  5
131
330
1F
100
AcDbEntity
  8
1
100
AcDbLine
 10
1.350393700787401
 20
0.3316929133858268
 30
0.0
 11
1.353346456692913
 21
0.3366141732283465
 31
0.0
  0
LINE
  5
132
330
1F
100
AcDbEntity
  8
1
100
AcDbLine
 10
1.354330708661417
 20
0.3297244094488189
 30
0.0
 11
1.350393700787401
 21
0.3316929133858268
 31
0.0
  0
LINE
  5
133
330
1F
100
AcDbEntity
  8
1
100
AcDbLine
 10
0.9005905511811022
 20
0.3287401574803149
 30
0.0
 11
0.9005905511811022
 21
0.3297244094488189
 31
0.0
  0
LINE
  5
134
330
1F
100
AcDbEntity
  8
1
100
AcDbLine
 10
0.9005905511811022
 20
0.3297244094488189
 30
0.0
 11
0.8956692913385825
 21
0.3346456692913386
 31
0.0
  0
LINE
  5
135
330
1F
100
AcDbEntity
  8
1
100
AcDbLine
 10
0.8956692913385825
 20
0.3346456692913386
 30
0.0
 11
0.9005905511811022
 21
0.3297244094488189
 31
0.0
  0
LINE
  5
136
330
1F
100
AcDbEntity
  8
1
100
AcDbLine
 10
0.9005905511811022
 20
0.3287401574803149
 30
0.0
 11
0.9005905511811022
 21
0.3297244094488189
 31
0.0
  0
LINE
  5
137
330
1F
100
AcDbEntity
  8
1
100
AcDbLine
 10
1.354330708661417
 20
0.3287401574803149
 30
0.0
 11
1.354330708661417
 21
0.3297244094488189
 31
0.0
  0
LINE
  5
138
330
1F
100
AcDbEntity
  8
1
100
AcDbLine
 10
1.354330708661417
 20
0.3287401574803149
 30
0.0
 11
1.354330708661417
 21
0.3297244094488189
 31
0.0
  0
LINE
  5
139
330
1F
100
AcDbEntity
  8
1
100
AcDbLine
 10
1.354330708661417
 20
0.3297244094488189
 30
0.0
 11
1.359251968503937
 21
0.3346456692913386
 31
0.0
  0
LINE
  5
13A
330
1F
100
AcDbEntity
  8
1
100
AcDbLine
 10
0.8366141732283464
 20
0.5305118110236221
 30
0.0
 11
0.8061023622047244
 21
0.5305118110236221
 31
0.0
  0
LINE
  5
13B
330
1F
100
AcDbEntity
  8
1
100
AcDbLine
 10
1.449803149606299
 20
0.5305118110236221
 30
0.0
 11
1.418307086614173
 21
0.5305118110236221
 31
0.0
  0
LINE
  5
13C
330
1F
100
AcDbEntity
  8
1
100
AcDbLine
 10
0.8061023622047244
 20
0.8976377952755905
 30
0.0
 11
0.8366141732283464
 21
0.8976377952755905
 31
0.0
  0
LINE
  5
13D
330
1F
100
AcDbEntity
  8
1
100
AcDbLine
 10
1.418307086614173
 20
0.8976377952755905
 30
0.0
 11
1.449803149606299
 21
0.8976377952755905
 31
0.0
  0
LINE
  5
13E
330
1F
100
AcDbEntity
  8
1
100
AcDbLine
 10
1.228346456692913
 20
0.8661417322834646
 30
0.0
 11
1.229330708661417
 21
0.8661417322834646
 31
0.0
  0
LINE
  5
13F
330
1F
100
AcDbEntity
  8
1
100
AcDbLine
 10
1.228346456692913
 20
0.4872047244094488
 30
0.0
 11
1.229330708661417
 21
0.4872047244094488
 31
0.0
  0
LINE
  5
140
330
1F
100
AcDbEntity
  8
1
100
AcDbLine
 10
1.183070866141732
 20
0.437992125984252
 30
0.0
 11
1.183070866141732
 21
0.4370078740157481
 31
0.0
  0
LINE
  5
141
330
1F
100
AcDbEntity
  8
1
100
AcDbLine
 10
1.171259842519684
 20
0.4104330708661418
 30
0.0
 11
1.171259842519684
 21
0.4094488188976378
 31
0.0
  0
LINE
  5
142
330
1F
100
AcDbEntity
  8
1
100
AcDbLine
 10
1.025590551181102
 20
0.4163385826771654
 30
0.0
 11
1.026574803149606
 21
0.4163385826771654
 31
0.0
  0
LINE
  5
143
330
1F
100
AcDbEntity
  8
1
100
AcDbLine
 10
1.026574803149606
 20
0.937992125984252
 30
0.0
 11
1.025590551181102
 21
0.937992125984252
 31
0.0
  0
LINE
  5
144
330
1F
100
AcDbEntity
  8
1
100
AcDbLine
 10
0.8415354330708661
 20
1.009842519685039
 30
0.0
 11
1.413385826771653
 21
1.009842519685039
 31
0.0
  0
LINE
  5
145
330
1F
100
AcDbEntity
  8
1
100
AcDbLine
 10
0.9025590551181101
 20
0.2785433070866142
 30
0.0
 11
0.9005905511811022
 21
0.327755905511811
 31
0.0
  0
LINE
  5
146
330
1F
100
AcDbEntity
  8
1
100
AcDbLine
 10
0.9025590551181101
 20
0.2785433070866142
 30
0.0
 11
0.9045275590551181
 21
0.3316929133858268
 31
0.0
  0
LINE
  5
147
330
1F
100
AcDbEntity
  8
1
100
AcDbLine
 10
0.9045275590551181
 20
0.3316929133858268
 30
0.0
 11
0.9005905511811022
 21
0.3297244094488189
 31
0.0
  0
LINE
  5
148
330
1F
100
AcDbEntity
  8
1
100
AcDbLine
 10
0.9005905511811022
 20
0.327755905511811
 30
0.0
 11
0.9005905511811022
 21
0.3287401574803149
 31
0.0
  0
LINE
  5
149
330
1F
100
AcDbEntity
  8
1
100
AcDbLine
 10
1.354330708661417
 20
0.327755905511811
 30
0.0
 11
1.352362204724409
 21
0.2785433070866142
 31
0.0
  0
LINE
  5
14A
330
1F
100
AcDbEntity
  8
1
100
AcDbLine
 10
1.354330708661417
 20
0.3287401574803149
 30
0.0
 11
1.354330708661417
 21
0.327755905511811
 31
0.0
  0
LINE
  5
14B
330
1F
100
AcDbEntity
  8
1
100
AcDbLine
 10
1.352362204724409
 20
0.2785433070866142
 30
0.0
 11
1.350393700787401
 21
0.3316929133858268
 31
0.0
  0
LINE
  5
14C
330
1F
100
AcDbEntity
  8
1
100
AcDbLine
 10
0.9025590551181101
 20
0.2785433070866142
 30
0.0
 11
1.352362204724409
 21
0.2785433070866142
 31
0.0
  0
LINE
  5
14D
330
1F
100
AcDbEntity
  8
1
100
AcDbLine
 10
1.353346456692913
 20
0.3366141732283465
 30
0.0
 11
0.9025590551181101
 21
0.3366141732283465
 31
0.0
  0
LINE
  5
14E
330
1F
100
AcDbEntity
  8
1
100
AcDbLine
 10
0.9025590551181101
 20
0.3366141732283465
 30
0.0
 11
0.9045275590551181
 21
0.3316929133858268
 31
0.0
  0
LINE
  5
14F
330
1F
100
AcDbEntity
  8
1
100
AcDbLine
 10
0.8996062992125983
 20
0.3287401574803149
 30
0.0
 11
0.9005905511811022
 21
0.3287401574803149
 31
0.0
  0
POLYLINE
  5
150
330
1F
100
AcDbEntity
  8
1
100
AcDb2dPolyline
 66
     1
 10
0.0
 20
0.0
 30
0.0
  0
VERTEX
  5
151
330
150
100
AcDbEntity
  8
1
100
AcDbVertex
100
AcDb2dVertex
 10
0.8996062992125983
 20
0.3287401574803149
 30
0.0
  0
VERTEX
  5
152
330
150
100
AcDbEntity
  8
1
100
AcDbVertex
100
AcDb2dVertex
 10
0.8986220472440944
 20
0.3297244094488189
 30
0.0
  0
VERTEX
  5
153
330
150
100
AcDbEntity
  8
1
100
AcDbVertex
100
AcDb2dVertex
 10
0.8976377952755905
 20
0.3307086614173228
 30
0.0
  0
VERTEX
  5
154
330
150
100
AcDbEntity
  8
1
100
AcDbVertex
100
AcDb2dVertex
 10
0.8966535433070866
 20
0.3307086614173228
 30
0.0
  0
VERTEX
  5
155
330
150
100
AcDbEntity
  8
1
100
AcDbVertex
100
AcDb2dVertex
 10
0.8956692913385825
 20
0.3307086614173228
 30
0.0
  0
VERTEX
  5
156
330
150
100
AcDbEntity
  8
1
100
AcDbVertex
100
AcDb2dVertex
 10
0.8937007874015748
 20
0.3316929133858268
 30
0.0
  0
VERTEX
  5
157
330
150
100
AcDbEntity
  8
1
100
AcDbVertex
100
AcDb2dVertex
 10
0.8927165354330707
 20
0.3316929133858268
 30
0.0
  0
SEQEND
  5
158
330
150
100
AcDbEntity
  8
1
  0
POLYLINE
  5
159
330
1F
100
AcDbEntity
  8
1
100
AcDb2dPolyline
 66
     1
 10
0.0
 20
0.0
 30
0.0
  0
VERTEX
  5
15A
330
159
100
AcDbEntity
  8
1
100
AcDbVertex
100
AcDb2dVertex
 10
1.362204724409448
 20
0.3316929133858268
 30
0.0
  0
VERTEX
  5
15B
330
159
100
AcDbEntity
  8
1
100
AcDbVertex
100
AcDb2dVertex
 10
1.361220472440944
 20
0.3316929133858268
 30
0.0
  0
VERTEX
  5
15C
330
159
100
AcDbEntity
  8
1
100
AcDbVertex
100
AcDb2dVertex
 10
1.36023622047244
 20
0.3307086614173228
 30
0.0
  0
VERTEX
  5
15D
330
159
100
AcDbEntity
  8
1
100
AcDbVertex
100
AcDb2dVertex
 10
1.358267716535433
 20
0.3307086614173228
 30
0.0
  0
VERTEX
  5
15E
330
159
100
AcDbEntity
  8
1
100
AcDbVertex
100
AcDb2dVertex
 10
1.357283464566929
 20
0.3307086614173228
 30
0.0
  0
VERTEX
  5
15F
330
159
100
AcDbEntity
  8
1
100
AcDbVertex
100
AcDb2dVertex
 10
1.356299212598425
 20
0.3297244094488189
 30
0.0
  0
VERTEX
  5
160
330
159
100
AcDbEntity
  8
1
100
AcDbVertex
100
AcDb2dVertex
 10
1.355314960629921
 20
0.3287401574803149
 30
0.0
  0
SEQEND
  5
161
330
159
100
AcDbEntity
  8
1
  0
LINE
  5
162
330
1F
100
AcDbEntity
  8
1
100
AcDbLine
 10
1.355314960629921
 20
0.3287401574803149
 30
0.0
 11
1.354330708661417
 21
0.3287401574803149
 31
0.0
  0
LINE
  5
163
330
1F
100
AcDbEntity
  8
1
100
AcDbLine
 10
0.9005905511811022
 20
0.3297244094488189
 30
0.0
 11
0.8996062992125983
 21
0.3287401574803149
 31
0.0
  0
LINE
  5
164
330
1F
100
AcDbEntity
  8
1
100
AcDbLine
 10
1.355314960629921
 20
0.3287401574803149
 30
0.0
 11
1.354330708661417
 21
0.3297244094488189
 31
0.0
  0
LINE
  5
165
330
1F
100
AcDbEntity
  8
1
100
AcDbLine
 10
0.9005905511811022
 20
0.3366141732283465
 30
0.0
 11
0.9025590551181101
 21
0.3366141732283465
 31
0.0
  0
LINE
  5
166
330
1F
100
AcDbEntity
  8
1
100
AcDbLine
 10
1.225393700787401
 20
1.031496062992125
 30
0.0
 11
1.226377952755905
 21
1.030511811023621
 31
0.0
  0
LINE
  5
167
330
1F
100
AcDbEntity
  8
1
100
AcDbLine
 10
1.225393700787401
 20
1.031496062992125
 30
0.0
 11
1.229330708661417
 21
1.026574803149606
 31
0.0
  0
LINE
  5
168
330
1F
100
AcDbEntity
  8
1
100
AcDbLine
 10
1.229330708661417
 20
1.026574803149606
 30
0.0
 11
1.226377952755905
 21
1.025590551181102
 31
0.0
  0
LINE
  5
169
330
1F
100
AcDbEntity
  8
1
100
AcDbLine
 10
1.236220472440944
 20
1.014763779527559
 30
0.0
 11
1.226377952755905
 21
1.025590551181102
 31
0.0
  0
LINE
  5
16A
330
1F
100
AcDbEntity
  8
1
100
AcDbLine
 10
1.236220472440944
 20
1.014763779527559
 30
0.0
 11
1.24015748031496
 21
1.016732283464566
 31
0.0
  0
LINE
  5
16B
330
1F
100
AcDbEntity
  8
1
100
AcDbLine
 10
1.194881889763779
 20
1.080708661417322
 30
0.0
 11
1.199803149606299
 21
1.062007874015747
 31
0.0
  0
LINE
  5
16C
330
1F
100
AcDbEntity
  8
1
100
AcDbLine
 10
1.306102362204724
 20
1.062007874015747
 30
0.0
 11
1.199803149606299
 21
1.062007874015747
 31
0.0
  0
LINE
  5
16D
330
1F
100
AcDbEntity
  8
1
100
AcDbLine
 10
1.304133858267716
 20
1.080708661417322
 30
0.0
 11
1.306102362204724
 21
1.062007874015747
 31
0.0
  0
LINE
  5
16E
330
1F
100
AcDbEntity
  8
1
100
AcDbLine
 10
1.001968503937007
 20
1.080708661417322
 30
0.0
 11
1.008858267716535
 21
1.08759842519685
 31
0.0
  0
LINE
  5
16F
330
1F
100
AcDbEntity
  8
1
100
AcDbLine
 10
0.9507874015748031
 20
1.08759842519685
 30
0.0
 11
0.9507874015748031
 21
1.080708661417322
 31
0.0
  0
LINE
  5
170
330
1F
100
AcDbEntity
  8
1
100
AcDbLine
 10
1.298228346456692
 20
1.154527559055118
 30
0.0
 11
0.9566929133858266
 21
1.154527559055118
 31
0.0
  0
POLYLINE
  5
171
330
1F
100
AcDbEntity
  8
1
100
AcDb2dPolyline
 66
     1
 10
0.0
 20
0.0
 30
0.0
  0
VERTEX
  5
172
330
171
100
AcDbEntity
  8
1
100
AcDbVertex
100
AcDb2dVertex
 10
1.306102362204724
 20
1.153543307086614
 30
0.0
  0
VERTEX
  5
173
330
171
100
AcDbEntity
  8
1
100
AcDbVertex
100
AcDb2dVertex
 10
1.303149606299212
 20
1.154527559055118
 30
0.0
  0
VERTEX
  5
174
330
171
100
AcDbEntity
  8
1
100
AcDbVertex
100
AcDb2dVertex
 10
1.298228346456692
 20
1.154527559055118
 30
0.0
  0
SEQEND
  5
175
330
171
100
AcDbEntity
  8
1
  0
POLYLINE
  5
176
330
1F
100
AcDbEntity
  8
1
100
AcDb2dPolyline
 66
     1
 10
0.0
 20
0.0
 30
0.0
  0
VERTEX
  5
177
330
176
100
AcDbEntity
  8
1
100
AcDbVertex
100
AcDb2dVertex
 10
0.9566929133858266
 20
1.154527559055118
 30
0.0
  0
VERTEX
  5
178
330
176
100
AcDbEntity
  8
1
100
AcDbVertex
100
AcDb2dVertex
 10
0.951771653543307
 20
1.154527559055118
 30
0.0
  0
VERTEX
  5
179
330
176
100
AcDbEntity
  8
1
100
AcDbVertex
100
AcDb2dVertex
 10
0.9498031496062992
 20
1.153543307086614
 30
0.0
  0
SEQEND
  5
17A
330
176
100
AcDbEntity
  8
1
  0
LINE
  5
17B
330
1F
100
AcDbEntity
  8
1
100
AcDbLine
 10
1.30511811023622
 20
1.153543307086614
 30
0.0
 11
1.306102362204724
 21
1.153543307086614
 31
0.0
  0
LINE
  5
17C
330
1F
100
AcDbEntity
  8
1
100
AcDbLine
 10
0.9970472440944881
 20
1.062007874015747
 30
0.0
 11
1.007874015748031
 21
1.051181102362204
 31
0.0
  0
LINE
  5
17D
330
1F
100
AcDbEntity
  8
1
100
AcDbLine
 10
0.9498031496062992
 20
1.062007874015747
 30
0.0
 11
0.9468503937007874
 21
1.048228346456692
 31
0.0
  0
LINE
  5
17E
330
1F
100
AcDbEntity
  8
1
100
AcDbLine
 10
1.309055118110236
 20
1.048228346456692
 30
0.0
 11
0.9468503937007874
 21
1.048228346456692
 31
0.0
  0
LINE
  5
17F
330
1F
100
AcDbEntity
  8
1
100
AcDbLine
 10
1.306102362204724
 20
1.062007874015747
 30
0.0
 11
1.309055118110236
 21
1.048228346456692
 31
0.0
  0
LINE
  5
180
330
1F
100
AcDbEntity
  8
1
100
AcDbLine
 10
1.199803149606299
 20
1.062007874015747
 30
0.0
 11
1.188976377952755
 21
1.051181102362204
 31
0.0
  0
LINE
  5
181
330
1F
100
AcDbEntity
  8
1
100
AcDbLine
 10
1.188976377952755
 20
1.051181102362204
 30
0.0
 11
1.007874015748031
 21
1.051181102362204
 31
0.0
  0
LINE
  5
182
330
1F
100
AcDbEntity
  8
1
100
AcDbLine
 10
0.9448818897637794
 20
1.046259842519684
 30
0.0
 11
0.9468503937007874
 21
1.048228346456692
 31
0.0
  0
LINE
  5
183
330
1F
100
AcDbEntity
  8
1
100
AcDbLine
 10
0.9448818897637794
 20
1.046259842519684
 30
0.0
 11
1.31003937007874
 21
1.046259842519684
 31
0.0
  0
LINE
  5
184
330
1F
100
AcDbEntity
  8
1
100
AcDbLine
 10
1.309055118110236
 20
1.048228346456692
 30
0.0
 11
1.31003937007874
 21
1.046259842519684
 31
0.0
  0
LINE
  5
185
330
1F
100
AcDbEntity
  8
1
100
AcDbLine
 10
1.236220472440944
 20
1.014763779527559
 30
0.0
 11
1.197834645669291
 21
1.014763779527559
 31
0.0
  0
LINE
  5
186
330
1F
100
AcDbEntity
  8
1
100
AcDbLine
 10
1.187007874015747
 20
1.025590551181102
 30
0.0
 11
1.226377952755905
 21
1.025590551181102
 31
0.0
  0
LINE
  5
187
330
1F
100
AcDbEntity
  8
1
100
AcDbLine
 10
1.197834645669291
 20
1.014763779527559
 30
0.0
 11
1.187007874015747
 21
1.025590551181102
 31
0.0
  0
LINE
  5
188
330
1F
100
AcDbEntity
  8
1
100
AcDbLine
 10
1.229330708661417
 20
1.026574803149606
 30
0.0
 11
1.005905511811023
 21
1.026574803149606
 31
0.0
  0
LINE
  5
189
330
1F
100
AcDbEntity
  8
1
100
AcDbLine
 10
1.005905511811023
 20
1.026574803149606
 30
0.0
 11
1.012795275590551
 21
1.02263779527559
 31
0.0
  0
LINE
  5
18A
330
1F
100
AcDbEntity
  8
1
100
AcDbLine
 10
1.012795275590551
 20
1.02263779527559
 30
0.0
 11
1.183070866141732
 21
1.02263779527559
 31
0.0
  0
LINE
  5
18B
330
1F
100
AcDbEntity
  8
1
100
AcDbLine
 10
1.183070866141732
 20
1.02263779527559
 30
0.0
 11
1.187007874015747
 21
1.025590551181102
 31
0.0
  0
LINE
  5
18C
330
1F
100
AcDbEntity
  8
1
100
AcDbLine
 10
1.012795275590551
 20
1.02263779527559
 30
0.0
 11
1.001968503937007
 21
1.011811023622047
 31
0.0
  0
LINE
  5
18D
330
1F
100
AcDbEntity
  8
1
100
AcDbLine
 10
1.194881889763779
 20
1.011811023622047
 30
0.0
 11
1.001968503937007
 21
1.011811023622047
 31
0.0
  0
LINE
  5
18E
330
1F
100
AcDbEntity
  8
1
100
AcDbLine
 10
1.183070866141732
 20
1.02263779527559
 30
0.0
 11
1.194881889763779
 21
1.011811023622047
 31
0.0
  0
POLYLINE
  5
18F
330
1F
100
AcDbEntity
  8
1
100
AcDb2dPolyline
 66
     1
 10
0.0
 20
0.0
 30
0.0
  0
VERTEX
  5
190
330
18F
100
AcDbEntity
  8
1
100
AcDbVertex
100
AcDb2dVertex
 10
1.324803149606299
 20
1.057086614173228
 30
0.0
  0
VERTEX
  5
191
330
18F
100
AcDbEntity
  8
1
100
AcDbVertex
100
AcDb2dVertex
 10
1.329724409448818
 20
1.058070866141732
 30
0.0
  0
VERTEX
  5
192
330
18F
100
AcDbEntity
  8
1
100
AcDbVertex
100
AcDb2dVertex
 10
1.33267716535433
 20
1.061023622047243
 30
0.0
  0
VERTEX
  5
193
330
18F
100
AcDbEntity
  8
1
100
AcDbVertex
100
AcDb2dVertex
 10
1.335629921259842
 20
1.064960629921259
 30
0.0
  0
VERTEX
  5
194
330
18F
100
AcDbEntity
  8
1
100
AcDbVertex
100
AcDb2dVertex
 10
1.33759842519685
 20
1.069881889763779
 30
0.0
  0
VERTEX
  5
195
330
18F
100
AcDbEntity
  8
1
100
AcDbVertex
100
AcDb2dVertex
 10
1.33759842519685
 20
1.070866141732283
 30
0.0
  0
SEQEND
  5
196
330
18F
100
AcDbEntity
  8
1
  0
POLYLINE
  5
197
330
1F
100
AcDbEntity
  8
1
100
AcDb2dPolyline
 66
     1
 10
0.0
 20
0.0
 30
0.0
  0
VERTEX
  5
198
330
197
100
AcDbEntity
  8
1
100
AcDbVertex
100
AcDb2dVertex
 10
1.325787401574803
 20
1.042322834645669
 30
0.0
  0
VERTEX
  5
199
330
197
100
AcDbEntity
  8
1
100
AcDbVertex
100
AcDb2dVertex
 10
1.325787401574803
 20
1.043307086614173
 30
0.0
  0
VERTEX
  5
19A
330
197
100
AcDbEntity
  8
1
100
AcDbVertex
100
AcDb2dVertex
 10
1.325787401574803
 20
1.046259842519684
 30
0.0
  0
VERTEX
  5
19B
330
197
100
AcDbEntity
  8
1
100
AcDbVertex
100
AcDb2dVertex
 10
1.324803149606299
 20
1.0501968503937
 30
0.0
  0
VERTEX
  5
19C
330
197
100
AcDbEntity
  8
1
100
AcDbVertex
100
AcDb2dVertex
 10
1.324803149606299
 20
1.054133858267716
 30
0.0
  0
VERTEX
  5
19D
330
197
100
AcDbEntity
  8
1
100
AcDbVertex
100
AcDb2dVertex
 10
1.324803149606299
 20
1.056102362204724
 30
0.0
  0
VERTEX
  5
19E
330
197
100
AcDbEntity
  8
1
100
AcDbVertex
100
AcDb2dVertex
 10
1.324803149606299
 20
1.057086614173228
 30
0.0
  0
SEQEND
  5
19F
330
197
100
AcDbEntity
  8
1
  0
POLYLINE
  5
1A0
330
1F
100
AcDbEntity
  8
1
100
AcDb2dPolyline
 66
     1
 10
0.0
 20
0.0
 30
0.0
  0
VERTEX
  5
1A1
330
1A0
100
AcDbEntity
  8
1
100
AcDbVertex
100
AcDb2dVertex
 10
1.33759842519685
 20
1.046259842519684
 30
0.0
  0
VERTEX
  5
1A2
330
1A0
100
AcDbEntity
  8
1
100
AcDbVertex
100
AcDb2dVertex
 10
1.333661417322834
 20
1.044291338582677
 30
0.0
  0
VERTEX
  5
1A3
330
1A0
100
AcDbEntity
  8
1
100
AcDbVertex
100
AcDb2dVertex
 10
1.325787401574803
 20
1.042322834645669
 30
0.0
  0
SEQEND
  5
1A4
330
1A0
100
AcDbEntity
  8
1
  0
POLYLINE
  5
1A5
330
1F
100
AcDbEntity
  8
1
100
AcDb2dPolyline
 66
     1
 10
0.0
 20
0.0
 30
0.0
  0
VERTEX
  5
1A6
330
1A5
100
AcDbEntity
  8
1
100
AcDbVertex
100
AcDb2dVertex
 10
1.33759842519685
 20
1.070866141732283
 30
0.0
  0
VERTEX
  5
1A7
330
1A5
100
AcDbEntity
  8
1
100
AcDbVertex
100
AcDb2dVertex
 10
1.33759842519685
 20
1.062007874015747
 30
0.0
  0
VERTEX
  5
1A8
330
1A5
100
AcDbEntity
  8
1
100
AcDbVertex
100
AcDb2dVertex
 10
1.33759842519685
 20
1.053149606299212
 30
0.0
  0
VERTEX
  5
1A9
330
1A5
100
AcDbEntity
  8
1
100
AcDbVertex
100
AcDb2dVertex
 10
1.33759842519685
 20
1.046259842519684
 30
0.0
  0
SEQEND
  5
1AA
330
1A5
100
AcDbEntity
  8
1
  0
POLYLINE
  5
1AB
330
1F
100
AcDbEntity
  8
1
100
AcDb2dPolyline
 66
     1
 10
0.0
 20
0.0
 30
0.0
  0
VERTEX
  5
1AC
330
1AB
100
AcDbEntity
  8
1
100
AcDbVertex
100
AcDb2dVertex
 10
1.311023622047243
 20
1.070866141732283
 30
0.0
  0
VERTEX
  5
1AD
330
1AB
100
AcDbEntity
  8
1
100
AcDbVertex
100
AcDb2dVertex
 10
1.314960629921259
 20
1.061023622047243
 30
0.0
  0
VERTEX
  5
1AE
330
1AB
100
AcDbEntity
  8
1
100
AcDbVertex
100
AcDb2dVertex
 10
1.324803149606299
 20
1.057086614173228
 30
0.0
  0
SEQEND
  5
1AF
330
1AB
100
AcDbEntity
  8
1
  0
POLYLINE
  5
1B0
330
1F
100
AcDbEntity
  8
1
100
AcDb2dPolyline
 66
     1
 10
0.0
 20
0.0
 30
0.0
  0
VERTEX
  5
1B1
330
1B0
100
AcDbEntity
  8
1
100
AcDbVertex
100
AcDb2dVertex
 10
1.311023622047243
 20
1.070866141732283
 30
0.0
  0
VERTEX
  5
1B2
330
1B0
100
AcDbEntity
  8
1
100
AcDbVertex
100
AcDb2dVertex
 10
1.311023622047243
 20
1.065944881889763
 30
0.0
  0
VERTEX
  5
1B3
330
1B0
100
AcDbEntity
  8
1
100
AcDbVertex
100
AcDb2dVertex
 10
1.312992125984251
 20
1.059055118110236
 30
0.0
  0
VERTEX
  5
1B4
330
1B0
100
AcDbEntity
  8
1
100
AcDbVertex
100
AcDb2dVertex
 10
1.313976377952755
 20
1.052165354330708
 30
0.0
  0
VERTEX
  5
1B5
330
1B0
100
AcDbEntity
  8
1
100
AcDbVertex
100
AcDb2dVertex
 10
1.314960629921259
 20
1.049212598425196
 30
0.0
  0
VERTEX
  5
1B6
330
1B0
100
AcDbEntity
  8
1
100
AcDbVertex
100
AcDb2dVertex
 10
1.314960629921259
 20
1.044291338582677
 30
0.0
  0
SEQEND
  5
1B7
330
1B0
100
AcDbEntity
  8
1
  0
LINE
  5
1B8
330
1F
100
AcDbEntity
  8
1
100
AcDbLine
 10
1.325787401574803
 20
1.042322834645669
 30
0.0
 11
1.314960629921259
 21
1.044291338582677
 31
0.0
  0
LINE
  5
1B9
330
1F
100
AcDbEntity
  8
1
100
AcDbLine
 10
1.31003937007874
 20
1.046259842519684
 30
0.0
 11
1.31003937007874
 21
1.042322834645669
 31
0.0
  0
LINE
  5
1BA
330
1F
100
AcDbEntity
  8
1
100
AcDbLine
 10
1.31003937007874
 20
1.042322834645669
 30
0.0
 11
1.31003937007874
 21
1.044291338582677
 31
0.0
  0
POLYLINE
  5
1BB
330
1F
100
AcDbEntity
  8
1
100
AcDb2dPolyline
 66
     1
 10
0.0
 20
0.0
 30
0.0
  0
VERTEX
  5
1BC
330
1BB
100
AcDbEntity
  8
1
100
AcDbVertex
100
AcDb2dVertex
 10
1.31003937007874
 20
1.044291338582677
 30
0.0
  0
VERTEX
  5
1BD
330
1BB
100
AcDbEntity
  8
1
100
AcDbVertex
100
AcDb2dVertex
 10
1.31003937007874
 20
1.0501968503937
 30
0.0
  0
VERTEX
  5
1BE
330
1BB
100
AcDbEntity
  8
1
100
AcDbVertex
100
AcDb2dVertex
 10
1.31003937007874
 20
1.054133858267716
 30
0.0
  0
VERTEX
  5
1BF
330
1BB
100
AcDbEntity
  8
1
100
AcDbVertex
100
AcDb2dVertex
 10
1.31003937007874
 20
1.062007874015747
 30
0.0
  0
VERTEX
  5
1C0
330
1BB
100
AcDbEntity
  8
1
100
AcDbVertex
100
AcDb2dVertex
 10
1.31003937007874
 20
1.067913385826771
 30
0.0
  0
VERTEX
  5
1C1
330
1BB
100
AcDbEntity
  8
1
100
AcDbVertex
100
AcDb2dVertex
 10
1.311023622047243
 20
1.070866141732283
 30
0.0
  0
SEQEND
  5
1C2
330
1BB
100
AcDbEntity
  8
1
  0
LINE
  5
1C3
330
1F
100
AcDbEntity
  8
1
100
AcDbLine
 10
1.311023622047243
 20
1.070866141732283
 30
0.0
 11
1.311023622047243
 21
1.069881889763779
 31
0.0
  0
POLYLINE
  5
1C4
330
1F
100
AcDbEntity
  8
1
100
AcDb2dPolyline
 66
     1
 10
0.0
 20
0.0
 30
0.0
  0
VERTEX
  5
1C5
330
1C4
100
AcDbEntity
  8
1
100
AcDbVertex
100
AcDb2dVertex
 10
1.311023622047243
 20
1.069881889763779
 30
0.0
  0
VERTEX
  5
1C6
330
1C4
100
AcDbEntity
  8
1
100
AcDbVertex
100
AcDb2dVertex
 10
1.311023622047243
 20
1.08267716535433
 30
0.0
  0
VERTEX
  5
1C7
330
1C4
100
AcDbEntity
  8
1
100
AcDbVertex
100
AcDb2dVertex
 10
1.311023622047243
 20
1.091535433070866
 30
0.0
  0
VERTEX
  5
1C8
330
1C4
100
AcDbEntity
  8
1
100
AcDbVertex
100
AcDb2dVertex
 10
1.311023622047243
 20
1.094488188976377
 30
0.0
  0
SEQEND
  5
1C9
330
1C4
100
AcDbEntity
  8
1
  0
LINE
  5
1CA
330
1F
100
AcDbEntity
  8
1
100
AcDbLine
 10
1.311023622047243
 20
1.094488188976377
 30
0.0
 11
1.306102362204724
 21
1.099409448818897
 31
0.0
  0
POLYLINE
  5
1CB
330
1F
100
AcDbEntity
  8
1
100
AcDb2dPolyline
 66
     1
 10
0.0
 20
0.0
 30
0.0
  0
VERTEX
  5
1CC
330
1CB
100
AcDbEntity
  8
1
100
AcDbVertex
100
AcDb2dVertex
 10
1.306102362204724
 20
1.099409448818897
 30
0.0
  0
VERTEX
  5
1CD
330
1CB
100
AcDbEntity
  8
1
100
AcDbVertex
100
AcDb2dVertex
 10
1.306102362204724
 20
1.104330708661417
 30
0.0
  0
VERTEX
  5
1CE
330
1CB
100
AcDbEntity
  8
1
100
AcDbVertex
100
AcDb2dVertex
 10
1.306102362204724
 20
1.113188976377952
 30
0.0
  0
SEQEND
  5
1CF
330
1CB
100
AcDbEntity
  8
1
  0
LINE
  5
1D0
330
1F
100
AcDbEntity
  8
1
100
AcDbLine
 10
1.306102362204724
 20
1.113188976377952
 30
0.0
 11
1.306102362204724
 21
1.153543307086614
 31
0.0
  0
POLYLINE
  5
1D1
330
1F
100
AcDbEntity
  8
1
100
AcDb2dPolyline
 66
     1
 10
0.0
 20
0.0
 30
0.0
  0
VERTEX
  5
1D2
330
1D1
100
AcDbEntity
  8
1
100
AcDbVertex
100
AcDb2dVertex
 10
0.9399606299212598
 20
1.044291338582677
 30
0.0
  0
VERTEX
  5
1D3
330
1D1
100
AcDbEntity
  8
1
100
AcDbVertex
100
AcDb2dVertex
 10
0.936023622047244
 20
1.043307086614173
 30
0.0
  0
VERTEX
  5
1D4
330
1D1
100
AcDbEntity
  8
1
100
AcDbVertex
100
AcDb2dVertex
 10
0.9330708661417322
 20
1.042322834645669
 30
0.0
  0
SEQEND
  5
1D5
330
1D1
100
AcDbEntity
  8
1
  0
POLYLINE
  5
1D6
330
1F
100
AcDbEntity
  8
1
100
AcDb2dPolyline
 66
     1
 10
0.0
 20
0.0
 30
0.0
  0
VERTEX
  5
1D7
330
1D6
100
AcDbEntity
  8
1
100
AcDbVertex
100
AcDb2dVertex
 10
0.9399606299212598
 20
1.044291338582677
 30
0.0
  0
VERTEX
  5
1D8
330
1D6
100
AcDbEntity
  8
1
100
AcDbVertex
100
AcDb2dVertex
 10
0.9399606299212598
 20
1.045275590551181
 30
0.0
  0
VERTEX
  5
1D9
330
1D6
100
AcDbEntity
  8
1
100
AcDbVertex
100
AcDb2dVertex
 10
0.9409448818897637
 20
1.051181102362204
 30
0.0
  0
VERTEX
  5
1DA
330
1D6
100
AcDbEntity
  8
1
100
AcDbVertex
100
AcDb2dVertex
 10
0.9419291338582677
 20
1.05511811023622
 30
0.0
  0
VERTEX
  5
1DB
330
1D6
100
AcDbEntity
  8
1
100
AcDbVertex
100
AcDb2dVertex
 10
0.9448818897637794
 20
1.066929133858267
 30
0.0
  0
VERTEX
  5
1DC
330
1D6
100
AcDbEntity
  8
1
100
AcDbVertex
100
AcDb2dVertex
 10
0.9448818897637794
 20
1.070866141732283
 30
0.0
  0
SEQEND
  5
1DD
330
1D6
100
AcDbEntity
  8
1
  0
POLYLINE
  5
1DE
330
1F
100
AcDbEntity
  8
1
100
AcDb2dPolyline
 66
     1
 10
0.0
 20
0.0
 30
0.0
  0
VERTEX
  5
1DF
330
1DE
100
AcDbEntity
  8
1
100
AcDbVertex
100
AcDb2dVertex
 10
0.9320866141732283
 20
1.057086614173228
 30
0.0
  0
VERTEX
  5
1E0
330
1DE
100
AcDbEntity
  8
1
100
AcDbVertex
100
AcDb2dVertex
 10
0.9370078740157479
 20
1.058070866141732
 30
0.0
  0
VERTEX
  5
1E1
330
1DE
100
AcDbEntity
  8
1
100
AcDbVertex
100
AcDb2dVertex
 10
0.9409448818897637
 20
1.061023622047243
 30
0.0
  0
VERTEX
  5
1E2
330
1DE
100
AcDbEntity
  8
1
100
AcDbVertex
100
AcDb2dVertex
 10
0.9429133858267716
 20
1.064960629921259
 30
0.0
  0
VERTEX
  5
1E3
330
1DE
100
AcDbEntity
  8
1
100
AcDbVertex
100
AcDb2dVertex
 10
0.9448818897637794
 20
1.069881889763779
 30
0.0
  0
VERTEX
  5
1E4
330
1DE
100
AcDbEntity
  8
1
100
AcDbVertex
100
AcDb2dVertex
 10
0.9448818897637794
 20
1.070866141732283
 30
0.0
  0
SEQEND
  5
1E5
330
1DE
100
AcDbEntity
  8
1
  0
POLYLINE
  5
1E6
330
1F
100
AcDbEntity
  8
1
100
AcDb2dPolyline
 66
     1
 10
0.0
 20
0.0
 30
0.0
  0
VERTEX
  5
1E7
330
1E6
100
AcDbEntity
  8
1
100
AcDbVertex
100
AcDb2dVertex
 10
0.9330708661417322
 20
1.042322834645669
 30
0.0
  0
VERTEX
  5
1E8
330
1E6
100
AcDbEntity
  8
1
100
AcDbVertex
100
AcDb2dVertex
 10
0.9330708661417322
 20
1.043307086614173
 30
0.0
  0
VERTEX
  5
1E9
330
1E6
100
AcDbEntity
  8
1
100
AcDbVertex
100
AcDb2dVertex
 10
0.9330708661417322
 20
1.046259842519684
 30
0.0
  0
VERTEX
  5
1EA
330
1E6
100
AcDbEntity
  8
1
100
AcDbVertex
100
AcDb2dVertex
 10
0.9330708661417322
 20
1.0501968503937
 30
0.0
  0
VERTEX
  5
1EB
330
1E6
100
AcDbEntity
  8
1
100
AcDbVertex
100
AcDb2dVertex
 10
0.9320866141732283
 20
1.054133858267716
 30
0.0
  0
VERTEX
  5
1EC
330
1E6
100
AcDbEntity
  8
1
100
AcDbVertex
100
AcDb2dVertex
 10
0.9320866141732283
 20
1.056102362204724
 30
0.0
  0
VERTEX
  5
1ED
330
1E6
100
AcDbEntity
  8
1
100
AcDbVertex
100
AcDb2dVertex
 10
0.9320866141732283
 20
1.057086614173228
 30
0.0
  0
SEQEND
  5
1EE
330
1E6
100
AcDbEntity
  8
1
  0
POLYLINE
  5
1EF
330
1F
100
AcDbEntity
  8
1
100
AcDb2dPolyline
 66
     1
 10
0.0
 20
0.0
 30
0.0
  0
VERTEX
  5
1F0
330
1EF
100
AcDbEntity
  8
1
100
AcDbVertex
100
AcDb2dVertex
 10
0.9448818897637794
 20
1.070866141732283
 30
0.0
  0
VERTEX
  5
1F1
330
1EF
100
AcDbEntity
  8
1
100
AcDbVertex
100
AcDb2dVertex
 10
0.9448818897637794
 20
1.058070866141732
 30
0.0
  0
VERTEX
  5
1F2
330
1EF
100
AcDbEntity
  8
1
100
AcDbVertex
100
AcDb2dVertex
 10
0.9448818897637794
 20
1.053149606299212
 30
0.0
  0
VERTEX
  5
1F3
330
1EF
100
AcDbEntity
  8
1
100
AcDbVertex
100
AcDb2dVertex
 10
0.9448818897637794
 20
1.046259842519684
 30
0.0
  0
VERTEX
  5
1F4
330
1EF
100
AcDbEntity
  8
1
100
AcDbVertex
100
AcDb2dVertex
 10
0.9448818897637794
 20
1.044291338582677
 30
0.0
  0
SEQEND
  5
1F5
330
1EF
100
AcDbEntity
  8
1
  0
LINE
  5
1F6
330
1F
100
AcDbEntity
  8
1
100
AcDbLine
 10
0.9448818897637794
 20
1.044291338582677
 30
0.0
 11
0.9448818897637794
 21
1.042322834645669
 31
0.0
  0
LINE
  5
1F7
330
1F
100
AcDbEntity
  8
1
100
AcDbLine
 10
0.9448818897637794
 20
1.042322834645669
 30
0.0
 11
0.9448818897637794
 21
1.046259842519684
 31
0.0
  0
LINE
  5
1F8
330
1F
100
AcDbEntity
  8
1
100
AcDbLine
 10
0.9498031496062992
 20
1.153543307086614
 30
0.0
 11
0.9498031496062992
 21
1.113188976377952
 31
0.0
  0
POLYLINE
  5
1F9
330
1F
100
AcDbEntity
  8
1
100
AcDb2dPolyline
 66
     1
 10
0.0
 20
0.0
 30
0.0
  0
VERTEX
  5
1FA
330
1F9
100
AcDbEntity
  8
1
100
AcDbVertex
100
AcDb2dVertex
 10
0.9498031496062992
 20
1.113188976377952
 30
0.0
  0
VERTEX
  5
1FB
330
1F9
100
AcDbEntity
  8
1
100
AcDbVertex
100
AcDb2dVertex
 10
0.9498031496062992
 20
1.103346456692913
 30
0.0
  0
VERTEX
  5
1FC
330
1F9
100
AcDbEntity
  8
1
100
AcDbVertex
100
AcDb2dVertex
 10
0.9498031496062992
 20
1.099409448818897
 30
0.0
  0
SEQEND
  5
1FD
330
1F9
100
AcDbEntity
  8
1
  0
LINE
  5
1FE
330
1F
100
AcDbEntity
  8
1
100
AcDbLine
 10
0.9498031496062992
 20
1.099409448818897
 30
0.0
 11
0.9448818897637794
 21
1.094488188976377
 31
0.0
  0
POLYLINE
  5
1FF
330
1F
100
AcDbEntity
  8
1
100
AcDb2dPolyline
 66
     1
 10
0.0
 20
0.0
 30
0.0
  0
VERTEX
  5
200
330
1FF
100
AcDbEntity
  8
1
100
AcDbVertex
100
AcDb2dVertex
 10
0.9448818897637794
 20
1.094488188976377
 30
0.0
  0
VERTEX
  5
201
330
1FF
100
AcDbEntity
  8
1
100
AcDbVertex
100
AcDb2dVertex
 10
0.9438976377952755
 20
1.091535433070866
 30
0.0
  0
VERTEX
  5
202
330
1FF
100
AcDbEntity
  8
1
100
AcDbVertex
100
AcDb2dVertex
 10
0.9438976377952755
 20
1.08267716535433
 30
0.0
  0
VERTEX
  5
203
330
1FF
100
AcDbEntity
  8
1
100
AcDbVertex
100
AcDb2dVertex
 10
0.9438976377952755
 20
1.069881889763779
 30
0.0
  0
SEQEND
  5
204
330
1FF
100
AcDbEntity
  8
1
  0
POLYLINE
  5
205
330
1F
100
AcDbEntity
  8
1
100
AcDb2dPolyline
 66
     1
 10
0.0
 20
0.0
 30
0.0
  0
VERTEX
  5
206
330
205
100
AcDbEntity
  8
1
100
AcDbVertex
100
AcDb2dVertex
 10
0.9438976377952755
 20
1.069881889763779
 30
0.0
  0
VERTEX
  5
207
330
205
100
AcDbEntity
  8
1
100
AcDbVertex
100
AcDb2dVertex
 10
0.9438976377952755
 20
1.070866141732283
 30
0.0
  0
VERTEX
  5
208
330
205
100
AcDbEntity
  8
1
100
AcDbVertex
100
AcDb2dVertex
 10
0.9448818897637794
 20
1.070866141732283
 30
0.0
  0
SEQEND
  5
209
330
205
100
AcDbEntity
  8
1
  0
POLYLINE
  5
20A
330
1F
100
AcDbEntity
  8
1
100
AcDb2dPolyline
 66
     1
 10
0.0
 20
0.0
 30
0.0
  0
VERTEX
  5
20B
330
20A
100
AcDbEntity
  8
1
100
AcDbVertex
100
AcDb2dVertex
 10
0.9183070866141733
 20
1.070866141732283
 30
0.0
  0
VERTEX
  5
20C
330
20A
100
AcDbEntity
  8
1
100
AcDbVertex
100
AcDb2dVertex
 10
0.922244094488189
 20
1.061023622047243
 30
0.0
  0
VERTEX
  5
20D
330
20A
100
AcDbEntity
  8
1
100
AcDbVertex
100
AcDb2dVertex
 10
0.9320866141732283
 20
1.057086614173228
 30
0.0
  0
SEQEND
  5
20E
330
20A
100
AcDbEntity
  8
1
  0
POLYLINE
  5
20F
330
1F
100
AcDbEntity
  8
1
100
AcDb2dPolyline
 66
     1
 10
0.0
 20
0.0
 30
0.0
  0
VERTEX
  5
210
330
20F
100
AcDbEntity
  8
1
100
AcDbVertex
100
AcDb2dVertex
 10
0.9173228346456692
 20
1.046259842519684
 30
0.0
  0
VERTEX
  5
211
330
20F
100
AcDbEntity
  8
1
100
AcDbVertex
100
AcDb2dVertex
 10
0.9183070866141733
 20
1.054133858267716
 30
0.0
  0
VERTEX
  5
212
330
20F
100
AcDbEntity
  8
1
100
AcDbVertex
100
AcDb2dVertex
 10
0.9183070866141733
 20
1.062007874015747
 30
0.0
  0
VERTEX
  5
213
330
20F
100
AcDbEntity
  8
1
100
AcDbVertex
100
AcDb2dVertex
 10
0.9183070866141733
 20
1.070866141732283
 30
0.0
  0
SEQEND
  5
214
330
20F
100
AcDbEntity
  8
1
  0
LINE
  5
215
330
1F
100
AcDbEntity
  8
1
100
AcDbLine
 10
0.9330708661417322
 20
1.042322834645669
 30
0.0
 11
0.9173228346456692
 21
1.046259842519684
 31
0.0
  0
LINE
  5
216
330
1F
100
AcDbEntity
  8
1
100
AcDbLine
 10
1.009842519685039
 20
1.031496062992125
 30
0.0
 11
1.225393700787401
 21
1.031496062992125
 31
0.0
  0
LINE
  5
217
330
1F
100
AcDbEntity
  8
1
100
AcDbLine
 10
1.33759842519685
 20
1.046259842519684
 30
0.0
 11
1.33759842519685
 21
1.030511811023621
 31
0.0
  0
LINE
  5
218
330
1F
100
AcDbEntity
  8
1
100
AcDbLine
 10
1.314960629921259
 20
1.044291338582677
 30
0.0
 11
1.314960629921259
 21
1.031496062992125
 31
0.0
  0
LINE
  5
219
330
1F
100
AcDbEntity
  8
1
100
AcDbLine
 10
1.314960629921259
 20
1.031496062992125
 30
0.0
 11
0.9399606299212598
 21
1.031496062992125
 31
0.0
  0
LINE
  5
21A
330
1F
100
AcDbEntity
  8
1
100
AcDbLine
 10
0.9399606299212598
 20
1.031496062992125
 30
0.0
 11
0.9399606299212598
 21
1.044291338582677
 31
0.0
  0
LINE
  5
21B
330
1F
100
AcDbEntity
  8
1
100
AcDbLine
 10
0.9173228346456692
 20
1.030511811023621
 30
0.0
 11
0.9173228346456692
 21
1.046259842519684
 31
0.0
  0
LINE
  5
21C
330
1F
100
AcDbEntity
  8
1
100
AcDbLine
 10
0.9173228346456692
 20
1.030511811023621
 30
0.0
 11
1.009842519685039
 21
1.030511811023621
 31
0.0
  0
LINE
  5
21D
330
1F
100
AcDbEntity
  8
1
100
AcDbLine
 10
1.009842519685039
 20
1.030511811023621
 30
0.0
 11
1.009842519685039
 21
1.031496062992125
 31
0.0
  0
LINE
  5
21E
330
1F
100
AcDbEntity
  8
1
100
AcDbLine
 10
1.193897637795275
 20
1.012795275590551
 30
0.0
 11
1.197834645669291
 21
1.014763779527559
 31
0.0
  0
LINE
  5
21F
330
1F
100
AcDbEntity
  8
1
100
AcDbLine
 10
1.194881889763779
 20
1.011811023622047
 30
0.0
 11
1.193897637795275
 21
1.012795275590551
 31
0.0
  0
LINE
  5
220
330
1F
100
AcDbEntity
  8
1
100
AcDbLine
 10
1.193897637795275
 20
1.012795275590551
 30
0.0
 11
1.302165354330708
 21
1.012795275590551
 31
0.0
  0
LINE
  5
221
330
1F
100
AcDbEntity
  8
1
100
AcDbLine
 10
1.302165354330708
 20
1.012795275590551
 30
0.0
 11
1.193897637795275
 21
1.012795275590551
 31
0.0
  0
LINE
  5
222
330
1F
100
AcDbEntity
  8
1
100
AcDbLine
 10
1.345472440944881
 20
1.012795275590551
 30
0.0
 11
1.302165354330708
 21
1.012795275590551
 31
0.0
  0
LINE
  5
223
330
1F
100
AcDbEntity
  8
1
100
AcDbLine
 10
1.345472440944881
 20
1.012795275590551
 30
0.0
 11
1.33759842519685
 21
1.016732283464566
 31
0.0
  0
LINE
  5
224
330
1F
100
AcDbEntity
  8
1
100
AcDbLine
 10
0.9950787401574803
 20
1.016732283464566
 30
0.0
 11
1.002952755905511
 21
1.012795275590551
 31
0.0
  0
LINE
  5
225
330
1F
100
AcDbEntity
  8
1
100
AcDbLine
 10
0.9950787401574803
 20
1.016732283464566
 30
0.0
 11
0.9173228346456692
 21
1.016732283464566
 31
0.0
  0
LINE
  5
226
330
1F
100
AcDbEntity
  8
1
100
AcDbLine
 10
0.9104330708661416
 20
1.012795275590551
 30
0.0
 11
0.9173228346456692
 21
1.016732283464566
 31
0.0
  0
LINE
  5
227
330
1F
100
AcDbEntity
  8
1
100
AcDbLine
 10
1.002952755905511
 20
1.012795275590551
 30
0.0
 11
0.9104330708661416
 21
1.012795275590551
 31
0.0
  0
LINE
  5
228
330
1F
100
AcDbEntity
  8
1
100
AcDbLine
 10
1.005905511811023
 20
1.026574803149606
 30
0.0
 11
1.009842519685039
 21
1.031496062992125
 31
0.0
  0
POLYLINE
  5
229
330
1F
100
AcDbEntity
  8
1
100
AcDb2dPolyline
 66
     1
 10
0.0
 20
0.0
 30
0.0
  0
VERTEX
  5
22A
330
229
100
AcDbEntity
  8
1
100
AcDbVertex
100
AcDb2dVertex
 10
1.009842519685039
 20
1.030511811023621
 30
0.0
  0
VERTEX
  5
22B
330
229
100
AcDbEntity
  8
1
100
AcDbVertex
100
AcDb2dVertex
 10
1.0
 20
1.020669291338582
 30
0.0
  0
VERTEX
  5
22C
330
229
100
AcDbEntity
  8
1
100
AcDbVertex
100
AcDb2dVertex
 10
0.9950787401574803
 20
1.016732283464566
 30
0.0
  0
SEQEND
  5
22D
330
229
100
AcDbEntity
  8
1
  0
LINE
  5
22E
330
1F
100
AcDbEntity
  8
1
100
AcDbLine
 10
1.001968503937007
 20
1.011811023622047
 30
0.0
 11
1.002952755905511
 21
1.012795275590551
 31
0.0
  0
LINE
  5
22F
330
1F
100
AcDbEntity
  8
1
100
AcDbLine
 10
1.34251968503937
 20
1.024606299212598
 30
0.0
 11
1.345472440944881
 21
1.012795275590551
 31
0.0
  0
LINE
  5
230
330
1F
100
AcDbEntity
  8
1
100
AcDbLine
 10
1.34251968503937
 20
1.024606299212598
 30
0.0
 11
1.34251968503937
 21
1.084645669291338
 31
0.0
  0
LINE
  5
231
330
1F
100
AcDbEntity
  8
1
100
AcDbLine
 10
1.338582677165354
 20
1.088582677165354
 30
0.0
 11
1.34251968503937
 21
1.084645669291338
 31
0.0
  0
LINE
  5
232
330
1F
100
AcDbEntity
  8
1
100
AcDbLine
 10
1.336614173228346
 20
1.085629921259842
 30
0.0
 11
1.338582677165354
 21
1.088582677165354
 31
0.0
  0
LINE
  5
233
330
1F
100
AcDbEntity
  8
1
100
AcDbLine
 10
1.336614173228346
 20
1.085629921259842
 30
0.0
 11
1.336614173228346
 21
1.069881889763779
 31
0.0
  0
POLYLINE
  5
234
330
1F
100
AcDbEntity
  8
1
100
AcDb2dPolyline
 66
     1
 10
0.0
 20
0.0
 30
0.0
  0
VERTEX
  5
235
330
234
100
AcDbEntity
  8
1
100
AcDbVertex
100
AcDb2dVertex
 10
1.336614173228346
 20
1.069881889763779
 30
0.0
  0
VERTEX
  5
236
330
234
100
AcDbEntity
  8
1
100
AcDbVertex
100
AcDb2dVertex
 10
1.336614173228346
 20
1.070866141732283
 30
0.0
  0
VERTEX
  5
237
330
234
100
AcDbEntity
  8
1
100
AcDbVertex
100
AcDb2dVertex
 10
1.33759842519685
 20
1.070866141732283
 30
0.0
  0
SEQEND
  5
238
330
234
100
AcDbEntity
  8
1
  0
POLYLINE
  5
239
330
1F
100
AcDbEntity
  8
1
100
AcDb2dPolyline
 66
     1
 10
0.0
 20
0.0
 30
0.0
  0
VERTEX
  5
23A
330
239
100
AcDbEntity
  8
1
100
AcDbVertex
100
AcDb2dVertex
 10
1.336614173228346
 20
1.069881889763779
 30
0.0
  0
VERTEX
  5
23B
330
239
100
AcDbEntity
  8
1
100
AcDbVertex
100
AcDb2dVertex
 10
1.335629921259842
 20
1.064960629921259
 30
0.0
  0
VERTEX
  5
23C
330
239
100
AcDbEntity
  8
1
100
AcDbVertex
100
AcDb2dVertex
 10
1.333661417322834
 20
1.062007874015747
 30
0.0
  0
SEQEND
  5
23D
330
239
100
AcDbEntity
  8
1
  0
LINE
  5
23E
330
1F
100
AcDbEntity
  8
1
100
AcDbLine
 10
1.314960629921259
 20
1.06003937007874
 30
0.0
 11
1.313976377952755
 21
1.061023622047243
 31
0.0
  0
POLYLINE
  5
23F
330
1F
100
AcDbEntity
  8
1
100
AcDb2dPolyline
 66
     1
 10
0.0
 20
0.0
 30
0.0
  0
VERTEX
  5
240
330
23F
100
AcDbEntity
  8
1
100
AcDbVertex
100
AcDb2dVertex
 10
1.313976377952755
 20
1.061023622047243
 30
0.0
  0
VERTEX
  5
241
330
23F
100
AcDbEntity
  8
1
100
AcDbVertex
100
AcDb2dVertex
 10
1.313976377952755
 20
1.062007874015747
 30
0.0
  0
VERTEX
  5
242
330
23F
100
AcDbEntity
  8
1
100
AcDbVertex
100
AcDb2dVertex
 10
1.312007874015747
 20
1.065944881889763
 30
0.0
  0
VERTEX
  5
243
330
23F
100
AcDbEntity
  8
1
100
AcDbVertex
100
AcDb2dVertex
 10
1.311023622047243
 20
1.069881889763779
 30
0.0
  0
SEQEND
  5
244
330
23F
100
AcDbEntity
  8
1
  0
POLYLINE
  5
245
330
1F
100
AcDbEntity
  8
1
100
AcDb2dPolyline
 66
     1
 10
0.0
 20
0.0
 30
0.0
  0
VERTEX
  5
246
330
245
100
AcDbEntity
  8
1
100
AcDbVertex
100
AcDb2dVertex
 10
0.9438976377952755
 20
1.069881889763779
 30
0.0
  0
VERTEX
  5
247
330
245
100
AcDbEntity
  8
1
100
AcDbVertex
100
AcDb2dVertex
 10
0.9438976377952755
 20
1.065944881889763
 30
0.0
  0
VERTEX
  5
248
330
245
100
AcDbEntity
  8
1
100
AcDbVertex
100
AcDb2dVertex
 10
0.9419291338582677
 20
1.062992125984251
 30
0.0
  0
SEQEND
  5
249
330
245
100
AcDbEntity
  8
1
  0
LINE
  5
24A
330
1F
100
AcDbEntity
  8
1
100
AcDbLine
 10
0.9232283464566929
 20
1.06003937007874
 30
0.0
 11
0.9183070866141733
 21
1.069881889763779
 31
0.0
  0
LINE
  5
24B
330
1F
100
AcDbEntity
  8
1
100
AcDbLine
 10
0.9183070866141733
 20
1.070866141732283
 30
0.0
 11
0.9183070866141733
 21
1.069881889763779
 31
0.0
  0
POLYLINE
  5
24C
330
1F
100
AcDbEntity
  8
1
100
AcDb2dPolyline
 66
     1
 10
0.0
 20
0.0
 30
0.0
  0
VERTEX
  5
24D
330
24C
100
AcDbEntity
  8
1
100
AcDbVertex
100
AcDb2dVertex
 10
0.9173228346456692
 20
1.016732283464566
 30
0.0
  0
VERTEX
  5
24E
330
24C
100
AcDbEntity
  8
1
100
AcDbVertex
100
AcDb2dVertex
 10
0.9173228346456692
 20
1.020669291338582
 30
0.0
  0
VERTEX
  5
24F
330
24C
100
AcDbEntity
  8
1
100
AcDbVertex
100
AcDb2dVertex
 10
0.9173228346456692
 20
1.030511811023621
 30
0.0
  0
SEQEND
  5
250
330
24C
100
AcDbEntity
  8
1
  0
LINE
  5
251
330
1F
100
AcDbEntity
  8
1
100
AcDbLine
 10
0.9183070866141733
 20
1.069881889763779
 30
0.0
 11
0.9183070866141733
 21
1.085629921259842
 31
0.0
  0
LINE
  5
252
330
1F
100
AcDbEntity
  8
1
100
AcDbLine
 10
0.9183070866141733
 20
1.085629921259842
 30
0.0
 11
0.9163385826771653
 21
1.088582677165354
 31
0.0
  0
LINE
  5
253
330
1F
100
AcDbEntity
  8
1
100
AcDbLine
 10
0.9163385826771653
 20
1.088582677165354
 30
0.0
 11
0.9133858267716535
 21
1.084645669291338
 31
0.0
  0
LINE
  5
254
330
1F
100
AcDbEntity
  8
1
100
AcDbLine
 10
0.9133858267716535
 20
1.024606299212598
 30
0.0
 11
0.9133858267716535
 21
1.084645669291338
 31
0.0
  0
LINE
  5
255
330
1F
100
AcDbEntity
  8
1
100
AcDbLine
 10
0.9133858267716535
 20
1.024606299212598
 30
0.0
 11
0.9104330708661416
 21
1.012795275590551
 31
0.0
  0
LINE
  5
256
330
1F
100
AcDbEntity
  8
1
100
AcDbLine
 10
1.34251968503937
 20
1.084645669291338
 30
0.0
 11
1.415354330708661
 21
1.084645669291338
 31
0.0
  0
LINE
  5
257
330
1F
100
AcDbEntity
  8
1
100
AcDbLine
 10
1.34251968503937
 20
1.024606299212598
 30
0.0
 11
1.415354330708661
 21
1.024606299212598
 31
0.0
  0
LINE
  5
258
330
1F
100
AcDbEntity
  8
1
100
AcDbLine
 10
0.9133858267716535
 20
1.084645669291338
 30
0.0
 11
0.8395669291338581
 21
1.084645669291338
 31
0.0
  0
LINE
  5
259
330
1F
100
AcDbEntity
  8
1
100
AcDbLine
 10
0.9133858267716535
 20
1.024606299212598
 30
0.0
 11
0.8395669291338581
 21
1.024606299212598
 31
0.0
  0
LINE
  5
25A
330
1F
100
AcDbEntity
  8
1
100
AcDbLine
 10
0.8031496062992125
 20
1.088582677165354
 30
0.0
 11
0.9163385826771653
 21
1.088582677165354
 31
0.0
  0
LINE
  5
25B
330
1F
100
AcDbEntity
  8
1
100
AcDbLine
 10
0.8061023622047244
 20
1.085629921259842
 30
0.0
 11
0.8395669291338581
 21
1.085629921259842
 31
0.0
  0
LINE
  5
25C
330
1F
100
AcDbEntity
  8
1
100
AcDbLine
 10
0.8031496062992125
 20
1.088582677165354
 30
0.0
 11
0.8061023622047244
 21
1.085629921259842
 31
0.0
  0
LINE
  5
25D
330
1F
100
AcDbEntity
  8
1
100
AcDbLine
 10
1.451771653543307
 20
1.088582677165354
 30
0.0
 11
1.338582677165354
 21
1.088582677165354
 31
0.0
  0
LINE
  5
25E
330
1F
100
AcDbEntity
  8
1
100
AcDbLine
 10
1.416338582677165
 20
1.085629921259842
 30
0.0
 11
1.449803149606299
 21
1.085629921259842
 31
0.0
  0
LINE
  5
25F
330
1F
100
AcDbEntity
  8
1
100
AcDbLine
 10
1.451771653543307
 20
1.088582677165354
 30
0.0
 11
1.449803149606299
 21
1.085629921259842
 31
0.0
  0
LINE
  5
260
330
1F
100
AcDbEntity
  8
1
100
AcDbLine
 10
0.8061023622047244
 20
0.8976377952755905
 30
0.0
 11
0.8031496062992125
 21
0.8996062992125983
 31
0.0
  0
LINE
  5
261
330
1F
100
AcDbEntity
  8
1
100
AcDbLine
 10
0.8031496062992125
 20
0.8996062992125983
 30
0.0
 11
0.8031496062992125
 21
1.088582677165354
 31
0.0
  0
LINE
  5
262
330
1F
100
AcDbEntity
  8
1
100
AcDbLine
 10
0.8031496062992125
 20
0.8996062992125983
 30
0.0
 11
0.8061023622047244
 21
0.9015748031496062
 31
0.0
  0
LINE
  5
263
330
1F
100
AcDbEntity
  8
1
100
AcDbLine
 10
0.8061023622047244
 20
0.9015748031496062
 30
0.0
 11
0.8061023622047244
 21
1.085629921259842
 31
0.0
  0
LINE
  5
264
330
1F
100
AcDbEntity
  8
1
100
AcDbLine
 10
1.449803149606299
 20
1.085629921259842
 30
0.0
 11
1.449803149606299
 21
0.9015748031496062
 31
0.0
  0
LINE
  5
265
330
1F
100
AcDbEntity
  8
1
100
AcDbLine
 10
1.451771653543307
 20
0.8996062992125983
 30
0.0
 11
1.449803149606299
 21
0.9015748031496062
 31
0.0
  0
LINE
  5
266
330
1F
100
AcDbEntity
  8
1
100
AcDbLine
 10
1.451771653543307
 20
0.8996062992125983
 30
0.0
 11
1.451771653543307
 21
1.088582677165354
 31
0.0
  0
LINE
  5
267
330
1F
100
AcDbEntity
  8
1
100
AcDbLine
 10
1.449803149606299
 20
0.8976377952755905
 30
0.0
 11
1.451771653543307
 21
0.8996062992125983
 31
0.0
  0
LINE
  5
268
330
1F
100
AcDbEntity
  8
1
100
AcDbLine
 10
0.8395669291338581
 20
0.9015748031496062
 30
0.0
 11
0.8061023622047244
 21
0.9015748031496062
 31
0.0
  0
LINE
  5
269
330
1F
100
AcDbEntity
  8
1
100
AcDbLine
 10
0.8031496062992125
 20
0.5285433070866141
 30
0.0
 11
0.8061023622047244
 21
0.5265748031496063
 31
0.0
  0
LINE
  5
26A
330
1F
100
AcDbEntity
  8
1
100
AcDbLine
 10
0.8061023622047244
 20
0.5265748031496063
 30
0.0
 11
0.8395669291338581
 21
0.5265748031496063
 31
0.0
  0
LINE
  5
26B
330
1F
100
AcDbEntity
  8
1
100
AcDbLine
 10
0.8061023622047244
 20
0.5305118110236221
 30
0.0
 11
0.8031496062992125
 21
0.5285433070866141
 31
0.0
  0
LINE
  5
26C
330
1F
100
AcDbEntity
  8
1
100
AcDbLine
 10
0.8061023622047244
 20
0.3336614173228347
 30
0.0
 11
0.8061023622047244
 21
0.5265748031496063
 31
0.0
  0
LINE
  5
26D
330
1F
100
AcDbEntity
  8
1
100
AcDbLine
 10
0.8031496062992125
 20
0.3316929133858268
 30
0.0
 11
0.8031496062992125
 21
0.5285433070866141
 31
0.0
  0
LINE
  5
26E
330
1F
100
AcDbEntity
  8
1
100
AcDbLine
 10
1.449803149606299
 20
0.9015748031496062
 30
0.0
 11
1.416338582677165
 21
0.9015748031496062
 31
0.0
  0
LINE
  5
26F
330
1F
100
AcDbEntity
  8
1
100
AcDbLine
 10
1.416338582677165
 20
0.5265748031496063
 30
0.0
 11
1.449803149606299
 21
0.5265748031496063
 31
0.0
  0
LINE
  5
270
330
1F
100
AcDbEntity
  8
1
100
AcDbLine
 10
1.449803149606299
 20
0.5265748031496063
 30
0.0
 11
1.451771653543307
 21
0.5285433070866141
 31
0.0
  0
LINE
  5
271
330
1F
100
AcDbEntity
  8
1
100
AcDbLine
 10
1.451771653543307
 20
0.5285433070866141
 30
0.0
 11
1.449803149606299
 21
0.5305118110236221
 31
0.0
  0
LINE
  5
272
330
1F
100
AcDbEntity
  8
1
100
AcDbLine
 10
1.451771653543307
 20
0.3316929133858268
 30
0.0
 11
1.451771653543307
 21
0.5285433070866141
 31
0.0
  0
LINE
  5
273
330
1F
100
AcDbEntity
  8
1
100
AcDbLine
 10
1.449803149606299
 20
0.5265748031496063
 30
0.0
 11
1.449803149606299
 21
0.3336614173228347
 31
0.0
  0
POLYLINE
  5
274
330
1F
100
AcDbEntity
  8
1
100
AcDb2dPolyline
 66
     1
 10
0.0
 20
0.0
 30
0.0
  0
VERTEX
  5
275
330
274
100
AcDbEntity
  8
1
100
AcDbVertex
100
AcDb2dVertex
 10
1.308070866141732
 20
1.099409448818897
 30
0.0
  0
VERTEX
  5
276
330
274
100
AcDbEntity
  8
1
100
AcDbVertex
100
AcDb2dVertex
 10
1.31003937007874
 20
1.097440944881889
 30
0.0
  0
VERTEX
  5
277
330
274
100
AcDbEntity
  8
1
100
AcDbVertex
100
AcDb2dVertex
 10
1.311023622047243
 20
1.094488188976377
 30
0.0
  0
SEQEND
  5
278
330
274
100
AcDbEntity
  8
1
  0
POLYLINE
  5
279
330
1F
100
AcDbEntity
  8
1
100
AcDb2dPolyline
 66
     1
 10
0.0
 20
0.0
 30
0.0
  0
VERTEX
  5
27A
330
279
100
AcDbEntity
  8
1
100
AcDbVertex
100
AcDb2dVertex
 10
0.9468503937007874
 20
1.099409448818897
 30
0.0
  0
VERTEX
  5
27B
330
279
100
AcDbEntity
  8
1
100
AcDbVertex
100
AcDb2dVertex
 10
0.9448818897637794
 20
1.097440944881889
 30
0.0
  0
VERTEX
  5
27C
330
279
100
AcDbEntity
  8
1
100
AcDbVertex
100
AcDb2dVertex
 10
0.9448818897637794
 20
1.094488188976377
 30
0.0
  0
SEQEND
  5
27D
330
279
100
AcDbEntity
  8
1
  0
LINE
  5
27E
330
1F
100
AcDbEntity
  8
1
100
AcDbLine
 10
0.9498031496062992
 20
1.100393700787401
 30
0.0
 11
0.9498031496062992
 21
1.099409448818897
 31
0.0
  0
LINE
  5
27F
330
1F
100
AcDbEntity
  8
1
100
AcDbLine
 10
1.188976377952755
 20
1.051181102362204
 30
0.0
 11
1.18503937007874
 21
1.089566929133858
 31
0.0
  0
LINE
  5
280
330
1F
100
AcDbEntity
  8
1
100
AcDbLine
 10
1.011811023622047
 20
1.089566929133858
 30
0.0
 11
1.007874015748031
 21
1.051181102362204
 31
0.0
  0
POLYLINE
  5
281
330
1F
100
AcDbEntity
  8
1
100
AcDb2dPolyline
 66
     1
 10
0.0
 20
0.0
 30
0.0
  0
VERTEX
  5
282
330
281
100
AcDbEntity
  8
1
100
AcDbVertex
100
AcDb2dVertex
 10
0.9448818897637794
 20
1.042322834645669
 30
0.0
  0
VERTEX
  5
283
330
281
100
AcDbEntity
  8
1
100
AcDbVertex
100
AcDb2dVertex
 10
0.9448818897637794
 20
1.040354330708661
 30
0.0
  0
VERTEX
  5
284
330
281
100
AcDbEntity
  8
1
100
AcDbVertex
100
AcDb2dVertex
 10
0.9429133858267716
 20
1.037401574803149
 30
0.0
  0
VERTEX
  5
285
330
281
100
AcDbEntity
  8
1
100
AcDbVertex
100
AcDb2dVertex
 10
0.9399606299212598
 20
1.031496062992125
 30
0.0
  0
SEQEND
  5
286
330
281
100
AcDbEntity
  8
1
  0
POLYLINE
  5
287
330
1F
100
AcDbEntity
  8
1
100
AcDb2dPolyline
 66
     1
 10
0.0
 20
0.0
 30
0.0
  0
VERTEX
  5
288
330
287
100
AcDbEntity
  8
1
100
AcDbVertex
100
AcDb2dVertex
 10
1.314960629921259
 20
1.031496062992125
 30
0.0
  0
VERTEX
  5
289
330
287
100
AcDbEntity
  8
1
100
AcDbVertex
100
AcDb2dVertex
 10
1.312007874015747
 20
1.037401574803149
 30
0.0
  0
VERTEX
  5
28A
330
287
100
AcDbEntity
  8
1
100
AcDbVertex
100
AcDb2dVertex
 10
1.311023622047243
 20
1.040354330708661
 30
0.0
  0
VERTEX
  5
28B
330
287
100
AcDbEntity
  8
1
100
AcDbVertex
100
AcDb2dVertex
 10
1.31003937007874
 20
1.042322834645669
 30
0.0
  0
SEQEND
  5
28C
330
287
100
AcDbEntity
  8
1
  0
POLYLINE
  5
28D
330
1F
100
AcDbEntity
  8
1
100
AcDb2dPolyline
 66
     1
 10
0.0
 20
0.0
 30
0.0
  0
VERTEX
  5
28E
330
28D
100
AcDbEntity
  8
1
100
AcDbVertex
100
AcDb2dVertex
 10
0.9448818897637794
 20
1.044291338582677
 30
0.0
  0
VERTEX
  5
28F
330
28D
100
AcDbEntity
  8
1
100
AcDbVertex
100
AcDb2dVertex
 10
0.9438976377952755
 20
1.044291338582677
 30
0.0
  0
VERTEX
  5
290
330
28D
100
AcDbEntity
  8
1
100
AcDbVertex
100
AcDb2dVertex
 10
0.9399606299212598
 20
1.044291338582677
 30
0.0
  0
SEQEND
  5
291
330
28D
100
AcDbEntity
  8
1
  0
POLYLINE
  5
292
330
1F
100
AcDbEntity
  8
1
100
AcDb2dPolyline
 66
     1
 10
0.0
 20
0.0
 30
0.0
  0
VERTEX
  5
293
330
292
100
AcDbEntity
  8
1
100
AcDbVertex
100
AcDb2dVertex
 10
1.314960629921259
 20
1.044291338582677
 30
0.0
  0
VERTEX
  5
294
330
292
100
AcDbEntity
  8
1
100
AcDbVertex
100
AcDb2dVertex
 10
1.312007874015747
 20
1.044291338582677
 30
0.0
  0
VERTEX
  5
295
330
292
100
AcDbEntity
  8
1
100
AcDbVertex
100
AcDb2dVertex
 10
1.31003937007874
 20
1.044291338582677
 30
0.0
  0
SEQEND
  5
296
330
292
100
AcDbEntity
  8
1
  0
LINE
  5
297
330
1F
100
AcDbEntity
  8
1
100
AcDbLine
 10
1.107283464566929
 20
0.6092519685039371
 30
0.0
 11
1.107283464566929
 21
0.6269685039370079
 31
0.0
  0
LINE
  5
298
330
1F
100
AcDbEntity
  8
1
100
AcDbLine
 10
1.107283464566929
 20
0.6269685039370079
 30
0.0
 11
1.11515748031496
 21
0.6269685039370079
 31
0.0
  0
LINE
  5
299
330
1F
100
AcDbEntity
  8
1
100
AcDbLine
 10
1.113188976377952
 20
0.6210629921259843
 30
0.0
 11
1.113188976377952
 21
0.6151574803149607
 31
0.0
  0
LINE
  5
29A
330
1F
100
AcDbEntity
  8
1
100
AcDbLine
 10
1.113188976377952
 20
0.6151574803149607
 30
0.0
 11
1.11515748031496
 21
0.6151574803149607
 31
0.0
  0
LINE
  5
29B
330
1F
100
AcDbEntity
  8
1
100
AcDbLine
 10
1.11515748031496
 20
0.6210629921259843
 30
0.0
 11
1.113188976377952
 21
0.6210629921259843
 31
0.0
  0
LINE
  5
29C
330
1F
100
AcDbEntity
  8
1
100
AcDbLine
 10
1.11515748031496
 20
0.6092519685039371
 30
0.0
 11
1.107283464566929
 21
0.6092519685039371
 31
0.0
  0
LINE
  5
29D
330
1F
100
AcDbEntity
  8
1
100
AcDbLine
 10
1.107283464566929
 20
0.6092519685039371
 30
0.0
 11
1.113188976377952
 21
0.6151574803149607
 31
0.0
  0
LINE
  5
29E
330
1F
100
AcDbEntity
  8
1
100
AcDbLine
 10
1.113188976377952
 20
0.6210629921259843
 30
0.0
 11
1.107283464566929
 21
0.6269685039370079
 31
0.0
  0
LINE
  5
29F
330
1F
100
AcDbEntity
  8
1
100
AcDbLine
 10
1.21751968503937
 20
0.8651574803149607
 30
0.0
 11
1.21751968503937
 21
0.4881889763779528
 31
0.0
  0
POLYLINE
  5
2A0
330
1F
100
AcDbEntity
  8
1
100
AcDb2dPolyline
 66
     1
 10
0.0
 20
0.0
 30
0.0
  0
VERTEX
  5
2A1
330
2A0
100
AcDbEntity
  8
1
100
AcDbVertex
100
AcDb2dVertex
 10
1.21751968503937
 20
0.4881889763779528
 30
0.0
  0
VERTEX
  5
2A2
330
2A0
100
AcDbEntity
  8
1
100
AcDbVertex
100
AcDb2dVertex
 10
1.216535433070866
 20
0.4832677165354331
 30
0.0
  0
VERTEX
  5
2A3
330
2A0
100
AcDbEntity
  8
1
100
AcDbVertex
100
AcDb2dVertex
 10
1.213582677165354
 20
0.4793307086614174
 30
0.0
  0
SEQEND
  5
2A4
330
2A0
100
AcDbEntity
  8
1
  0
LINE
  5
2A5
330
1F
100
AcDbEntity
  8
1
100
AcDbLine
 10
1.213582677165354
 20
0.4793307086614174
 30
0.0
 11
1.174212598425196
 21
0.4448818897637796
 31
0.0
  0
POLYLINE
  5
2A6
330
1F
100
AcDbEntity
  8
1
100
AcDb2dPolyline
 66
     1
 10
0.0
 20
0.0
 30
0.0
  0
VERTEX
  5
2A7
330
2A6
100
AcDbEntity
  8
1
100
AcDbVertex
100
AcDb2dVertex
 10
1.174212598425196
 20
0.4448818897637796
 30
0.0
  0
VERTEX
  5
2A8
330
2A6
100
AcDbEntity
  8
1
100
AcDbVertex
100
AcDb2dVertex
 10
1.169291338582677
 20
0.438976377952756
 30
0.0
  0
VERTEX
  5
2A9
330
2A6
100
AcDbEntity
  8
1
100
AcDbVertex
100
AcDb2dVertex
 10
1.165354330708661
 20
0.4320866141732284
 30
0.0
  0
SEQEND
  5
2AA
330
2A6
100
AcDbEntity
  8
1
  0
LINE
  5
2AB
330
1F
100
AcDbEntity
  8
1
100
AcDbLine
 10
1.165354330708661
 20
0.4320866141732284
 30
0.0
 11
1.158464566929133
 21
0.4094488188976378
 31
0.0
  0
POLYLINE
  5
2AC
330
1F
100
AcDbEntity
  8
1
100
AcDb2dPolyline
 66
     1
 10
0.0
 20
0.0
 30
0.0
  0
VERTEX
  5
2AD
330
2AC
100
AcDbEntity
  8
1
100
AcDbVertex
100
AcDb2dVertex
 10
1.158464566929133
 20
0.4094488188976378
 30
0.0
  0
VERTEX
  5
2AE
330
2AC
100
AcDbEntity
  8
1
100
AcDbVertex
100
AcDb2dVertex
 10
1.154527559055118
 20
0.4025590551181103
 30
0.0
  0
VERTEX
  5
2AF
330
2AC
100
AcDbEntity
  8
1
100
AcDbVertex
100
AcDb2dVertex
 10
1.14763779527559
 20
0.4005905511811024
 30
0.0
  0
SEQEND
  5
2B0
330
2AC
100
AcDbEntity
  8
1
  0
LINE
  5
2B1
330
1F
100
AcDbEntity
  8
1
100
AcDbLine
 10
1.14763779527559
 20
0.4005905511811024
 30
0.0
 11
1.0501968503937
 21
0.4005905511811024
 31
0.0
  0
POLYLINE
  5
2B2
330
1F
100
AcDbEntity
  8
1
100
AcDb2dPolyline
 66
     1
 10
0.0
 20
0.0
 30
0.0
  0
VERTEX
  5
2B3
330
2B2
100
AcDbEntity
  8
1
100
AcDbVertex
100
AcDb2dVertex
 10
1.0501968503937
 20
0.4005905511811024
 30
0.0
  0
VERTEX
  5
2B4
330
2B2
100
AcDbEntity
  8
1
100
AcDbVertex
100
AcDb2dVertex
 10
1.041338582677165
 20
0.4045275590551182
 30
0.0
  0
VERTEX
  5
2B5
330
2B2
100
AcDbEntity
  8
1
100
AcDbVertex
100
AcDb2dVertex
 10
1.038385826771653
 20
0.4124015748031497
 30
0.0
  0
SEQEND
  5
2B6
330
2B2
100
AcDbEntity
  8
1
  0
LINE
  5
2B7
330
1F
100
AcDbEntity
  8
1
100
AcDbLine
 10
1.038385826771653
 20
0.4124015748031497
 30
0.0
 11
1.038385826771653
 21
0.9419291338582677
 31
0.0
  0
POLYLINE
  5
2B8
330
1F
100
AcDbEntity
  8
1
100
AcDb2dPolyline
 66
     1
 10
0.0
 20
0.0
 30
0.0
  0
VERTEX
  5
2B9
330
2B8
100
AcDbEntity
  8
1
100
AcDbVertex
100
AcDb2dVertex
 10
1.038385826771653
 20
0.9419291338582677
 30
0.0
  0
VERTEX
  5
2BA
330
2B8
100
AcDbEntity
  8
1
100
AcDbVertex
100
AcDb2dVertex
 10
1.041338582677165
 20
0.9498031496062992
 30
0.0
  0
VERTEX
  5
2BB
330
2B8
100
AcDbEntity
  8
1
100
AcDbVertex
100
AcDb2dVertex
 10
1.0501968503937
 20
0.9537401574803149
 30
0.0
  0
SEQEND
  5
2BC
330
2B8
100
AcDbEntity
  8
1
  0
LINE
  5
2BD
330
1F
100
AcDbEntity
  8
1
100
AcDbLine
 10
1.0501968503937
 20
0.9537401574803149
 30
0.0
 11
1.14763779527559
 21
0.9537401574803149
 31
0.0
  0
POLYLINE
  5
2BE
330
1F
100
AcDbEntity
  8
1
100
AcDb2dPolyline
 66
     1
 10
0.0
 20
0.0
 30
0.0
  0
VERTEX
  5
2BF
330
2BE
100
AcDbEntity
  8
1
100
AcDbVertex
100
AcDb2dVertex
 10
1.14763779527559
 20
0.9537401574803149
 30
0.0
  0
VERTEX
  5
2C0
330
2BE
100
AcDbEntity
  8
1
100
AcDbVertex
100
AcDb2dVertex
 10
1.154527559055118
 20
0.9507874015748031
 30
0.0
  0
VERTEX
  5
2C1
330
2BE
100
AcDbEntity
  8
1
100
AcDbVertex
100
AcDb2dVertex
 10
1.158464566929133
 20
0.9448818897637794
 30
0.0
  0
SEQEND
  5
2C2
330
2BE
100
AcDbEntity
  8
1
  0
LINE
  5
2C3
330
1F
100
AcDbEntity
  8
1
100
AcDbLine
 10
1.158464566929133
 20
0.9448818897637794
 30
0.0
 11
1.165354330708661
 21
0.922244094488189
 31
0.0
  0
POLYLINE
  5
2C4
330
1F
100
AcDbEntity
  8
1
100
AcDb2dPolyline
 66
     1
 10
0.0
 20
0.0
 30
0.0
  0
VERTEX
  5
2C5
330
2C4
100
AcDbEntity
  8
1
100
AcDbVertex
100
AcDb2dVertex
 10
1.165354330708661
 20
0.922244094488189
 30
0.0
  0
VERTEX
  5
2C6
330
2C4
100
AcDbEntity
  8
1
100
AcDbVertex
100
AcDb2dVertex
 10
1.169291338582677
 20
0.9143700787401575
 30
0.0
  0
VERTEX
  5
2C7
330
2C4
100
AcDbEntity
  8
1
100
AcDbVertex
100
AcDb2dVertex
 10
1.174212598425196
 20
0.9084645669291337
 30
0.0
  0
SEQEND
  5
2C8
330
2C4
100
AcDbEntity
  8
1
  0
LINE
  5
2C9
330
1F
100
AcDbEntity
  8
1
100
AcDbLine
 10
1.174212598425196
 20
0.9084645669291337
 30
0.0
 11
1.213582677165354
 21
0.8740157480314961
 31
0.0
  0
POLYLINE
  5
2CA
330
1F
100
AcDbEntity
  8
1
100
AcDb2dPolyline
 66
     1
 10
0.0
 20
0.0
 30
0.0
  0
VERTEX
  5
2CB
330
2CA
100
AcDbEntity
  8
1
100
AcDbVertex
100
AcDb2dVertex
 10
1.213582677165354
 20
0.8740157480314961
 30
0.0
  0
VERTEX
  5
2CC
330
2CA
100
AcDbEntity
  8
1
100
AcDbVertex
100
AcDb2dVertex
 10
1.216535433070866
 20
0.8700787401574803
 30
0.0
  0
VERTEX
  5
2CD
330
2CA
100
AcDbEntity
  8
1
100
AcDbVertex
100
AcDb2dVertex
 10
1.21751968503937
 20
0.8651574803149607
 30
0.0
  0
SEQEND
  5
2CE
330
2CA
100
AcDbEntity
  8
1
  0
LINE
  5
2CF
330
1F
100
AcDbEntity
  8
1
100
AcDbLine
 10
1.14763779527559
 20
0.5501968503937009
 30
0.0
 11
1.14763779527559
 21
0.5679133858267717
 31
0.0
  0
LINE
  5
2D0
330
1F
100
AcDbEntity
  8
1
100
AcDbLine
 10
1.14763779527559
 20
0.5679133858267717
 30
0.0
 11
1.139763779527559
 21
0.5679133858267717
 31
0.0
  0
LINE
  5
2D1
330
1F
100
AcDbEntity
  8
1
100
AcDbLine
 10
1.141732283464566
 20
0.5620078740157481
 30
0.0
 11
1.141732283464566
 21
0.5561023622047245
 31
0.0
  0
LINE
  5
2D2
330
1F
100
AcDbEntity
  8
1
100
AcDbLine
 10
1.139763779527559
 20
0.5620078740157481
 30
0.0
 11
1.141732283464566
 21
0.5620078740157481
 31
0.0
  0
LINE
  5
2D3
330
1F
100
AcDbEntity
  8
1
100
AcDbLine
 10
1.141732283464566
 20
0.5561023622047245
 30
0.0
 11
1.139763779527559
 21
0.5561023622047245
 31
0.0
  0
LINE
  5
2D4
330
1F
100
AcDbEntity
  8
1
100
AcDbLine
 10
1.139763779527559
 20
0.5501968503937009
 30
0.0
 11
1.14763779527559
 21
0.5501968503937009
 31
0.0
  0
LINE
  5
2D5
330
1F
100
AcDbEntity
  8
1
100
AcDbLine
 10
1.141732283464566
 20
0.5620078740157481
 30
0.0
 11
1.14763779527559
 21
0.5679133858267717
 31
0.0
  0
LINE
  5
2D6
330
1F
100
AcDbEntity
  8
1
100
AcDbLine
 10
1.14763779527559
 20
0.5501968503937009
 30
0.0
 11
1.141732283464566
 21
0.5561023622047245
 31
0.0
  0
LINE
  5
2D7
330
1F
100
AcDbEntity
  8
1
100
AcDbLine
 10
1.14763779527559
 20
0.7864173228346456
 30
0.0
 11
1.14763779527559
 21
0.8041338582677164
 31
0.0
  0
LINE
  5
2D8
330
1F
100
AcDbEntity
  8
1
100
AcDbLine
 10
1.14763779527559
 20
0.8041338582677164
 30
0.0
 11
1.139763779527559
 21
0.8041338582677164
 31
0.0
  0
LINE
  5
2D9
330
1F
100
AcDbEntity
  8
1
100
AcDbLine
 10
1.141732283464566
 20
0.798228346456693
 30
0.0
 11
1.141732283464566
 21
0.7923228346456694
 31
0.0
  0
LINE
  5
2DA
330
1F
100
AcDbEntity
  8
1
100
AcDbLine
 10
1.139763779527559
 20
0.798228346456693
 30
0.0
 11
1.141732283464566
 21
0.798228346456693
 31
0.0
  0
LINE
  5
2DB
330
1F
100
AcDbEntity
  8
1
100
AcDbLine
 10
1.141732283464566
 20
0.7923228346456694
 30
0.0
 11
1.139763779527559
 21
0.7923228346456694
 31
0.0
  0
LINE
  5
2DC
330
1F
100
AcDbEntity
  8
1
100
AcDbLine
 10
1.139763779527559
 20
0.7864173228346456
 30
0.0
 11
1.14763779527559
 21
0.7864173228346456
 31
0.0
  0
LINE
  5
2DD
330
1F
100
AcDbEntity
  8
1
100
AcDbLine
 10
1.141732283464566
 20
0.798228346456693
 30
0.0
 11
1.14763779527559
 21
0.8041338582677164
 31
0.0
  0
LINE
  5
2DE
330
1F
100
AcDbEntity
  8
1
100
AcDbLine
 10
1.14763779527559
 20
0.7864173228346456
 30
0.0
 11
1.141732283464566
 21
0.7923228346456694
 31
0.0
  0
LINE
  5
2DF
330
1F
100
AcDbEntity
  8
1
100
AcDbLine
 10
1.107283464566929
 20
0.687992125984252
 30
0.0
 11
1.107283464566929
 21
0.7057086614173228
 31
0.0
  0
LINE
  5
2E0
330
1F
100
AcDbEntity
  8
1
100
AcDbLine
 10
1.107283464566929
 20
0.7057086614173228
 30
0.0
 11
1.11515748031496
 21
0.7057086614173228
 31
0.0
  0
LINE
  5
2E1
330
1F
100
AcDbEntity
  8
1
100
AcDbLine
 10
1.113188976377952
 20
0.6998031496062992
 30
0.0
 11
1.113188976377952
 21
0.6938976377952756
 31
0.0
  0
LINE
  5
2E2
330
1F
100
AcDbEntity
  8
1
100
AcDbLine
 10
1.113188976377952
 20
0.6938976377952756
 30
0.0
 11
1.11515748031496
 21
0.6938976377952756
 31
0.0
  0
LINE
  5
2E3
330
1F
100
AcDbEntity
  8
1
100
AcDbLine
 10
1.11515748031496
 20
0.6998031496062992
 30
0.0
 11
1.113188976377952
 21
0.6998031496062992
 31
0.0
  0
LINE
  5
2E4
330
1F
100
AcDbEntity
  8
1
100
AcDbLine
 10
1.11515748031496
 20
0.687992125984252
 30
0.0
 11
1.107283464566929
 21
0.687992125984252
 31
0.0
  0
LINE
  5
2E5
330
1F
100
AcDbEntity
  8
1
100
AcDbLine
 10
1.107283464566929
 20
0.687992125984252
 30
0.0
 11
1.113188976377952
 21
0.6938976377952756
 31
0.0
  0
LINE
  5
2E6
330
1F
100
AcDbEntity
  8
1
100
AcDbLine
 10
1.113188976377952
 20
0.6998031496062992
 30
0.0
 11
1.107283464566929
 21
0.7057086614173228
 31
0.0
  0
LINE
  5
2E7
330
1F
100
AcDbEntity
  8
1
100
AcDbLine
 10
1.107283464566929
 20
0.8454724409448818
 30
0.0
 11
1.107283464566929
 21
0.8631889763779527
 31
0.0
  0
LINE
  5
2E8
330
1F
100
AcDbEntity
  8
1
100
AcDbLine
 10
1.107283464566929
 20
0.8631889763779527
 30
0.0
 11
1.11515748031496
 21
0.8631889763779527
 31
0.0
  0
LINE
  5
2E9
330
1F
100
AcDbEntity
  8
1
100
AcDbLine
 10
1.113188976377952
 20
0.8572834645669292
 30
0.0
 11
1.113188976377952
 21
0.8513779527559055
 31
0.0
  0
LINE
  5
2EA
330
1F
100
AcDbEntity
  8
1
100
AcDbLine
 10
1.113188976377952
 20
0.8513779527559055
 30
0.0
 11
1.11515748031496
 21
0.8513779527559055
 31
0.0
  0
LINE
  5
2EB
330
1F
100
AcDbEntity
  8
1
100
AcDbLine
 10
1.11515748031496
 20
0.8572834645669292
 30
0.0
 11
1.113188976377952
 21
0.8572834645669292
 31
0.0
  0
LINE
  5
2EC
330
1F
100
AcDbEntity
  8
1
100
AcDbLine
 10
1.11515748031496
 20
0.8454724409448818
 30
0.0
 11
1.107283464566929
 21
0.8454724409448818
 31
0.0
  0
LINE
  5
2ED
330
1F
100
AcDbEntity
  8
1
100
AcDbLine
 10
1.107283464566929
 20
0.8454724409448818
 30
0.0
 11
1.113188976377952
 21
0.8513779527559055
 31
0.0
  0
LINE
  5
2EE
330
1F
100
AcDbEntity
  8
1
100
AcDbLine
 10
1.113188976377952
 20
0.8572834645669292
 30
0.0
 11
1.107283464566929
 21
0.8631889763779527
 31
0.0
  0
LINE
  5
2EF
330
1F
100
AcDbEntity
  8
1
100
AcDbLine
 10
1.14763779527559
 20
0.5108267716535434
 30
0.0
 11
1.14763779527559
 21
0.5285433070866141
 31
0.0
  0
LINE
  5
2F0
330
1F
100
AcDbEntity
  8
1
100
AcDbLine
 10
1.14763779527559
 20
0.5285433070866141
 30
0.0
 11
1.139763779527559
 21
0.5285433070866141
 31
0.0
  0
LINE
  5
2F1
330
1F
100
AcDbEntity
  8
1
100
AcDbLine
 10
1.141732283464566
 20
0.5226377952755906
 30
0.0
 11
1.141732283464566
 21
0.5167322834645669
 31
0.0
  0
LINE
  5
2F2
330
1F
100
AcDbEntity
  8
1
100
AcDbLine
 10
1.139763779527559
 20
0.5226377952755906
 30
0.0
 11
1.141732283464566
 21
0.5226377952755906
 31
0.0
  0
LINE
  5
2F3
330
1F
100
AcDbEntity
  8
1
100
AcDbLine
 10
1.141732283464566
 20
0.5167322834645669
 30
0.0
 11
1.139763779527559
 21
0.5167322834645669
 31
0.0
  0
LINE
  5
2F4
330
1F
100
AcDbEntity
  8
1
100
AcDbLine
 10
1.139763779527559
 20
0.5108267716535434
 30
0.0
 11
1.14763779527559
 21
0.5108267716535434
 31
0.0
  0
LINE
  5
2F5
330
1F
100
AcDbEntity
  8
1
100
AcDbLine
 10
1.141732283464566
 20
0.5226377952755906
 30
0.0
 11
1.14763779527559
 21
0.5285433070866141
 31
0.0
  0
LINE
  5
2F6
330
1F
100
AcDbEntity
  8
1
100
AcDbLine
 10
1.14763779527559
 20
0.5108267716535434
 30
0.0
 11
1.141732283464566
 21
0.5167322834645669
 31
0.0
  0
LINE
  5
2F7
330
1F
100
AcDbEntity
  8
1
100
AcDbLine
 10
1.14763779527559
 20
0.5895669291338583
 30
0.0
 11
1.14763779527559
 21
0.6072834645669292
 31
0.0
  0
LINE
  5
2F8
330
1F
100
AcDbEntity
  8
1
100
AcDbLine
 10
1.14763779527559
 20
0.6072834645669292
 30
0.0
 11
1.139763779527559
 21
0.6072834645669292
 31
0.0
  0
LINE
  5
2F9
330
1F
100
AcDbEntity
  8
1
100
AcDbLine
 10
1.141732283464566
 20
0.6013779527559056
 30
0.0
 11
1.141732283464566
 21
0.5954724409448819
 31
0.0
  0
LINE
  5
2FA
330
1F
100
AcDbEntity
  8
1
100
AcDbLine
 10
1.139763779527559
 20
0.6013779527559056
 30
0.0
 11
1.141732283464566
 21
0.6013779527559056
 31
0.0
  0
LINE
  5
2FB
330
1F
100
AcDbEntity
  8
1
100
AcDbLine
 10
1.141732283464566
 20
0.5954724409448819
 30
0.0
 11
1.139763779527559
 21
0.5954724409448819
 31
0.0
  0
LINE
  5
2FC
330
1F
100
AcDbEntity
  8
1
100
AcDbLine
 10
1.139763779527559
 20
0.5895669291338583
 30
0.0
 11
1.14763779527559
 21
0.5895669291338583
 31
0.0
  0
LINE
  5
2FD
330
1F
100
AcDbEntity
  8
1
100
AcDbLine
 10
1.141732283464566
 20
0.6013779527559056
 30
0.0
 11
1.14763779527559
 21
0.6072834645669292
 31
0.0
  0
LINE
  5
2FE
330
1F
100
AcDbEntity
  8
1
100
AcDbLine
 10
1.14763779527559
 20
0.5895669291338583
 30
0.0
 11
1.141732283464566
 21
0.5954724409448819
 31
0.0
  0
LINE
  5
2FF
330
1F
100
AcDbEntity
  8
1
100
AcDbLine
 10
1.14763779527559
 20
0.7076771653543307
 30
0.0
 11
1.14763779527559
 21
0.7253937007874017
 31
0.0
  0
LINE
  5
300
330
1F
100
AcDbEntity
  8
1
100
AcDbLine
 10
1.14763779527559
 20
0.7253937007874017
 30
0.0
 11
1.139763779527559
 21
0.7253937007874017
 31
0.0
  0
LINE
  5
301
330
1F
100
AcDbEntity
  8
1
100
AcDbLine
 10
1.141732283464566
 20
0.7194881889763779
 30
0.0
 11
1.141732283464566
 21
0.7135826771653543
 31
0.0
  0
LINE
  5
302
330
1F
100
AcDbEntity
  8
1
100
AcDbLine
 10
1.139763779527559
 20
0.7194881889763779
 30
0.0
 11
1.141732283464566
 21
0.7194881889763779
 31
0.0
  0
LINE
  5
303
330
1F
100
AcDbEntity
  8
1
100
AcDbLine
 10
1.141732283464566
 20
0.7135826771653543
 30
0.0
 11
1.139763779527559
 21
0.7135826771653543
 31
0.0
  0
LINE
  5
304
330
1F
100
AcDbEntity
  8
1
100
AcDbLine
 10
1.139763779527559
 20
0.7076771653543307
 30
0.0
 11
1.14763779527559
 21
0.7076771653543307
 31
0.0
  0
LINE
  5
305
330
1F
100
AcDbEntity
  8
1
100
AcDbLine
 10
1.141732283464566
 20
0.7194881889763779
 30
0.0
 11
1.14763779527559
 21
0.7253937007874017
 31
0.0
  0
LINE
  5
306
330
1F
100
AcDbEntity
  8
1
100
AcDbLine
 10
1.14763779527559
 20
0.7076771653543307
 30
0.0
 11
1.141732283464566
 21
0.7135826771653543
 31
0.0
  0
LINE
  5
307
330
1F
100
AcDbEntity
  8
1
100
AcDbLine
 10
1.107283464566929
 20
0.7273622047244095
 30
0.0
 11
1.107283464566929
 21
0.7450787401574804
 31
0.0
  0
LINE
  5
308
330
1F
100
AcDbEntity
  8
1
100
AcDbLine
 10
1.107283464566929
 20
0.7450787401574804
 30
0.0
 11
1.11515748031496
 21
0.7450787401574804
 31
0.0
  0
LINE
  5
309
330
1F
100
AcDbEntity
  8
1
100
AcDbLine
 10
1.113188976377952
 20
0.7391732283464567
 30
0.0
 11
1.113188976377952
 21
0.7332677165354332
 31
0.0
  0
LINE
  5
30A
330
1F
100
AcDbEntity
  8
1
100
AcDbLine
 10
1.113188976377952
 20
0.7332677165354332
 30
0.0
 11
1.11515748031496
 21
0.7332677165354332
 31
0.0
  0
LINE
  5
30B
330
1F
100
AcDbEntity
  8
1
100
AcDbLine
 10
1.11515748031496
 20
0.7391732283464567
 30
0.0
 11
1.113188976377952
 21
0.7391732283464567
 31
0.0
  0
LINE
  5
30C
330
1F
100
AcDbEntity
  8
1
100
AcDbLine
 10
1.11515748031496
 20
0.7273622047244095
 30
0.0
 11
1.107283464566929
 21
0.7273622047244095
 31
0.0
  0
LINE
  5
30D
330
1F
100
AcDbEntity
  8
1
100
AcDbLine
 10
1.107283464566929
 20
0.7273622047244095
 30
0.0
 11
1.113188976377952
 21
0.7332677165354332
 31
0.0
  0
LINE
  5
30E
330
1F
100
AcDbEntity
  8
1
100
AcDbLine
 10
1.113188976377952
 20
0.7391732283464567
 30
0.0
 11
1.107283464566929
 21
0.7450787401574804
 31
0.0
  0
LINE
  5
30F
330
1F
100
AcDbEntity
  8
1
100
AcDbLine
 10
1.14763779527559
 20
0.6289370078740158
 30
0.0
 11
1.14763779527559
 21
0.6466535433070866
 31
0.0
  0
LINE
  5
310
330
1F
100
AcDbEntity
  8
1
100
AcDbLine
 10
1.14763779527559
 20
0.6466535433070866
 30
0.0
 11
1.139763779527559
 21
0.6466535433070866
 31
0.0
  0
LINE
  5
311
330
1F
100
AcDbEntity
  8
1
100
AcDbLine
 10
1.141732283464566
 20
0.640748031496063
 30
0.0
 11
1.141732283464566
 21
0.6348425196850394
 31
0.0
  0
LINE
  5
312
330
1F
100
AcDbEntity
  8
1
100
AcDbLine
 10
1.139763779527559
 20
0.640748031496063
 30
0.0
 11
1.141732283464566
 21
0.640748031496063
 31
0.0
  0
LINE
  5
313
330
1F
100
AcDbEntity
  8
1
100
AcDbLine
 10
1.141732283464566
 20
0.6348425196850394
 30
0.0
 11
1.139763779527559
 21
0.6348425196850394
 31
0.0
  0
LINE
  5
314
330
1F
100
AcDbEntity
  8
1
100
AcDbLine
 10
1.139763779527559
 20
0.6289370078740158
 30
0.0
 11
1.14763779527559
 21
0.6289370078740158
 31
0.0
  0
LINE
  5
315
330
1F
100
AcDbEntity
  8
1
100
AcDbLine
 10
1.141732283464566
 20
0.640748031496063
 30
0.0
 11
1.14763779527559
 21
0.6466535433070866
 31
0.0
  0
LINE
  5
316
330
1F
100
AcDbEntity
  8
1
100
AcDbLine
 10
1.14763779527559
 20
0.6289370078740158
 30
0.0
 11
1.141732283464566
 21
0.6348425196850394
 31
0.0
  0
LINE
  5
317
330
1F
100
AcDbEntity
  8
1
100
AcDbLine
 10
1.107283464566929
 20
0.6486220472440945
 30
0.0
 11
1.107283464566929
 21
0.6663385826771654
 31
0.0
  0
LINE
  5
318
330
1F
100
AcDbEntity
  8
1
100
AcDbLine
 10
1.107283464566929
 20
0.6663385826771654
 30
0.0
 11
1.11515748031496
 21
0.6663385826771654
 31
0.0
  0
LINE
  5
319
330
1F
100
AcDbEntity
  8
1
100
AcDbLine
 10
1.113188976377952
 20
0.6604330708661417
 30
0.0
 11
1.113188976377952
 21
0.6545275590551181
 31
0.0
  0
LINE
  5
31A
330
1F
100
AcDbEntity
  8
1
100
AcDbLine
 10
1.113188976377952
 20
0.6545275590551181
 30
0.0
 11
1.11515748031496
 21
0.6545275590551181
 31
0.0
  0
LINE
  5
31B
330
1F
100
AcDbEntity
  8
1
100
AcDbLine
 10
1.11515748031496
 20
0.6604330708661417
 30
0.0
 11
1.113188976377952
 21
0.6604330708661417
 31
0.0
  0
LINE
  5
31C
330
1F
100
AcDbEntity
  8
1
100
AcDbLine
 10
1.11515748031496
 20
0.6486220472440945
 30
0.0
 11
1.107283464566929
 21
0.6486220472440945
 31
0.0
  0
LINE
  5
31D
330
1F
100
AcDbEntity
  8
1
100
AcDbLine
 10
1.107283464566929
 20
0.6486220472440945
 30
0.0
 11
1.113188976377952
 21
0.6545275590551181
 31
0.0
  0
LINE
  5
31E
330
1F
100
AcDbEntity
  8
1
100
AcDbLine
 10
1.113188976377952
 20
0.6604330708661417
 30
0.0
 11
1.107283464566929
 21
0.6663385826771654
 31
0.0
  0
LINE
  5
31F
330
1F
100
AcDbEntity
  8
1
100
AcDbLine
 10
1.107283464566929
 20
0.5698818897637796
 30
0.0
 11
1.107283464566929
 21
0.5875984251968504
 31
0.0
  0
LINE
  5
320
330
1F
100
AcDbEntity
  8
1
100
AcDbLine
 10
1.107283464566929
 20
0.5875984251968504
 30
0.0
 11
1.11515748031496
 21
0.5875984251968504
 31
0.0
  0
LINE
  5
321
330
1F
100
AcDbEntity
  8
1
100
AcDbLine
 10
1.113188976377952
 20
0.5816929133858268
 30
0.0
 11
1.113188976377952
 21
0.5757874015748032
 31
0.0
  0
LINE
  5
322
330
1F
100
AcDbEntity
  8
1
100
AcDbLine
 10
1.113188976377952
 20
0.5757874015748032
 30
0.0
 11
1.11515748031496
 21
0.5757874015748032
 31
0.0
  0
LINE
  5
323
330
1F
100
AcDbEntity
  8
1
100
AcDbLine
 10
1.11515748031496
 20
0.5816929133858268
 30
0.0
 11
1.113188976377952
 21
0.5816929133858268
 31
0.0
  0
LINE
  5
324
330
1F
100
AcDbEntity
  8
1
100
AcDbLine
 10
1.11515748031496
 20
0.5698818897637796
 30
0.0
 11
1.107283464566929
 21
0.5698818897637796
 31
0.0
  0
LINE
  5
325
330
1F
100
AcDbEntity
  8
1
100
AcDbLine
 10
1.107283464566929
 20
0.5698818897637796
 30
0.0
 11
1.113188976377952
 21
0.5757874015748032
 31
0.0
  0
LINE
  5
326
330
1F
100
AcDbEntity
  8
1
100
AcDbLine
 10
1.113188976377952
 20
0.5816929133858268
 30
0.0
 11
1.107283464566929
 21
0.5875984251968504
 31
0.0
  0
LINE
  5
327
330
1F
100
AcDbEntity
  8
1
100
AcDbLine
 10
1.107283464566929
 20
0.8061023622047244
 30
0.0
 11
1.107283464566929
 21
0.8238188976377951
 31
0.0
  0
LINE
  5
328
330
1F
100
AcDbEntity
  8
1
100
AcDbLine
 10
1.107283464566929
 20
0.8238188976377951
 30
0.0
 11
1.11515748031496
 21
0.8238188976377951
 31
0.0
  0
LINE
  5
329
330
1F
100
AcDbEntity
  8
1
100
AcDbLine
 10
1.113188976377952
 20
0.8179133858267716
 30
0.0
 11
1.113188976377952
 21
0.8120078740157479
 31
0.0
  0
LINE
  5
32A
330
1F
100
AcDbEntity
  8
1
100
AcDbLine
 10
1.113188976377952
 20
0.8120078740157479
 30
0.0
 11
1.11515748031496
 21
0.8120078740157479
 31
0.0
  0
LINE
  5
32B
330
1F
100
AcDbEntity
  8
1
100
AcDbLine
 10
1.11515748031496
 20
0.8179133858267716
 30
0.0
 11
1.113188976377952
 21
0.8179133858267716
 31
0.0
  0
LINE
  5
32C
330
1F
100
AcDbEntity
  8
1
100
AcDbLine
 10
1.11515748031496
 20
0.8061023622047244
 30
0.0
 11
1.107283464566929
 21
0.8061023622047244
 31
0.0
  0
LINE
  5
32D
330
1F
100
AcDbEntity
  8
1
100
AcDbLine
 10
1.107283464566929
 20
0.8061023622047244
 30
0.0
 11
1.113188976377952
 21
0.8120078740157479
 31
0.0
  0
LINE
  5
32E
330
1F
100
AcDbEntity
  8
1
100
AcDbLine
 10
1.113188976377952
 20
0.8179133858267716
 30
0.0
 11
1.107283464566929
 21
0.8238188976377951
 31
0.0
  0
LINE
  5
32F
330
1F
100
AcDbEntity
  8
1
100
AcDbLine
 10
1.107283464566929
 20
0.4911417322834647
 30
0.0
 11
1.107283464566929
 21
0.5088582677165354
 31
0.0
  0
LINE
  5
330
330
1F
100
AcDbEntity
  8
1
100
AcDbLine
 10
1.107283464566929
 20
0.5088582677165354
 30
0.0
 11
1.11515748031496
 21
0.5088582677165354
 31
0.0
  0
LINE
  5
331
330
1F
100
AcDbEntity
  8
1
100
AcDbLine
 10
1.113188976377952
 20
0.5029527559055119
 30
0.0
 11
1.113188976377952
 21
0.4970472440944882
 31
0.0
  0
LINE
  5
332
330
1F
100
AcDbEntity
  8
1
100
AcDbLine
 10
1.113188976377952
 20
0.4970472440944882
 30
0.0
 11
1.11515748031496
 21
0.4970472440944882
 31
0.0
  0
LINE
  5
333
330
1F
100
AcDbEntity
  8
1
100
AcDbLine
 10
1.11515748031496
 20
0.5029527559055119
 30
0.0
 11
1.113188976377952
 21
0.5029527559055119
 31
0.0
  0
LINE
  5
334
330
1F
100
AcDbEntity
  8
1
100
AcDbLine
 10
1.11515748031496
 20
0.4911417322834647
 30
0.0
 11
1.107283464566929
 21
0.4911417322834647
 31
0.0
  0
LINE
  5
335
330
1F
100
AcDbEntity
  8
1
100
AcDbLine
 10
1.107283464566929
 20
0.4911417322834647
 30
0.0
 11
1.113188976377952
 21
0.4970472440944882
 31
0.0
  0
LINE
  5
336
330
1F
100
AcDbEntity
  8
1
100
AcDbLine
 10
1.113188976377952
 20
0.5029527559055119
 30
0.0
 11
1.107283464566929
 21
0.5088582677165354
 31
0.0
  0
LINE
  5
337
330
1F
100
AcDbEntity
  8
1
100
AcDbLine
 10
1.145669291338582
 20
0.8051181102362205
 30
0.0
 11
1.145669291338582
 21
0.8248031496062992
 31
0.0
  0
LINE
  5
338
330
1F
100
AcDbEntity
  8
1
100
AcDbLine
 10
1.145669291338582
 20
0.765748031496063
 30
0.0
 11
1.145669291338582
 21
0.7854330708661417
 31
0.0
  0
LINE
  5
339
330
1F
100
AcDbEntity
  8
1
100
AcDbLine
 10
1.145669291338582
 20
0.7263779527559056
 30
0.0
 11
1.145669291338582
 21
0.7460629921259843
 31
0.0
  0
LINE
  5
33A
330
1F
100
AcDbEntity
  8
1
100
AcDbLine
 10
1.145669291338582
 20
0.6870078740157481
 30
0.0
 11
1.145669291338582
 21
0.7066929133858268
 31
0.0
  0
LINE
  5
33B
330
1F
100
AcDbEntity
  8
1
100
AcDbLine
 10
1.145669291338582
 20
0.5295275590551181
 30
0.0
 11
1.145669291338582
 21
0.5492125984251969
 31
0.0
  0
LINE
  5
33C
330
1F
100
AcDbEntity
  8
1
100
AcDbLine
 10
1.145669291338582
 20
0.5688976377952756
 30
0.0
 11
1.145669291338582
 21
0.5885826771653543
 31
0.0
  0
LINE
  5
33D
330
1F
100
AcDbEntity
  8
1
100
AcDbLine
 10
1.145669291338582
 20
0.6082677165354332
 30
0.0
 11
1.145669291338582
 21
0.6279527559055119
 31
0.0
  0
LINE
  5
33E
330
1F
100
AcDbEntity
  8
1
100
AcDbLine
 10
1.145669291338582
 20
0.6476377952755906
 30
0.0
 11
1.145669291338582
 21
0.6673228346456694
 31
0.0
  0
LINE
  5
33F
330
1F
100
AcDbEntity
  8
1
100
AcDbLine
 10
1.145669291338582
 20
0.8444881889763779
 30
0.0
 11
1.145669291338582
 21
0.8700787401574803
 31
0.0
  0
LINE
  5
340
330
1F
100
AcDbEntity
  8
1
100
AcDbLine
 10
1.11023622047244
 20
0.8779527559055118
 30
0.0
 11
1.11023622047244
 21
0.8641732283464566
 31
0.0
  0
LINE
  5
341
330
1F
100
AcDbEntity
  8
1
100
AcDbLine
 10
1.11023622047244
 20
0.8779527559055118
 30
0.0
 11
1.11023622047244
 21
0.889763779527559
 31
0.0
  0
LINE
  5
342
330
1F
100
AcDbEntity
  8
1
100
AcDbLine
 10
1.11023622047244
 20
0.8444881889763779
 30
0.0
 11
1.11023622047244
 21
0.8248031496062992
 31
0.0
  0
LINE
  5
343
330
1F
100
AcDbEntity
  8
1
100
AcDbLine
 10
1.11023622047244
 20
0.8051181102362205
 30
0.0
 11
1.11023622047244
 21
0.7854330708661417
 31
0.0
  0
LINE
  5
344
330
1F
100
AcDbEntity
  8
1
100
AcDbLine
 10
1.11023622047244
 20
0.765748031496063
 30
0.0
 11
1.11023622047244
 21
0.7460629921259843
 31
0.0
  0
LINE
  5
345
330
1F
100
AcDbEntity
  8
1
100
AcDbLine
 10
1.11023622047244
 20
0.7263779527559056
 30
0.0
 11
1.11023622047244
 21
0.7066929133858268
 31
0.0
  0
LINE
  5
346
330
1F
100
AcDbEntity
  8
1
100
AcDbLine
 10
1.11023622047244
 20
0.6870078740157481
 30
0.0
 11
1.11023622047244
 21
0.6673228346456694
 31
0.0
  0
LINE
  5
347
330
1F
100
AcDbEntity
  8
1
100
AcDbLine
 10
1.11023622047244
 20
0.6476377952755906
 30
0.0
 11
1.11023622047244
 21
0.6279527559055119
 31
0.0
  0
LINE
  5
348
330
1F
100
AcDbEntity
  8
1
100
AcDbLine
 10
1.11023622047244
 20
0.6082677165354332
 30
0.0
 11
1.11023622047244
 21
0.5885826771653543
 31
0.0
  0
LINE
  5
349
330
1F
100
AcDbEntity
  8
1
100
AcDbLine
 10
1.11023622047244
 20
0.5688976377952756
 30
0.0
 11
1.11023622047244
 21
0.5492125984251969
 31
0.0
  0
LINE
  5
34A
330
1F
100
AcDbEntity
  8
1
100
AcDbLine
 10
1.11023622047244
 20
0.5295275590551181
 30
0.0
 11
1.11023622047244
 21
0.5098425196850394
 31
0.0
  0
LINE
  5
34B
330
1F
100
AcDbEntity
  8
1
100
AcDbLine
 10
1.145669291338582
 20
0.484251968503937
 30
0.0
 11
1.145669291338582
 21
0.5098425196850394
 31
0.0
  0
LINE
  5
34C
330
1F
100
AcDbEntity
  8
1
100
AcDbLine
 10
1.11023622047244
 20
0.889763779527559
 30
0.0
 11
1.133858267716535
 21
0.889763779527559
 31
0.0
  0
LINE
  5
34D
330
1F
100
AcDbEntity
  8
1
100
AcDbLine
 10
1.11023622047244
 20
0.4645669291338583
 30
0.0
 11
1.11023622047244
 21
0.4753937007874016
 31
0.0
  0
LINE
  5
34E
330
1F
100
AcDbEntity
  8
1
100
AcDbLine
 10
1.11023622047244
 20
0.4901574803149607
 30
0.0
 11
1.11023622047244
 21
0.4753937007874016
 31
0.0
  0
LINE
  5
34F
330
1F
100
AcDbEntity
  8
1
100
AcDbLine
 10
1.133858267716535
 20
0.4645669291338583
 30
0.0
 11
1.11023622047244
 21
0.4645669291338583
 31
0.0
  0
LINE
  5
350
330
1F
100
AcDbEntity
  8
1
100
AcDbLine
 10
1.145669291338582
 20
0.8248031496062992
 30
0.0
 11
1.139763779527559
 21
0.8248031496062992
 31
0.0
  0
LINE
  5
351
330
1F
100
AcDbEntity
  8
1
100
AcDbLine
 10
1.139763779527559
 20
0.8444881889763779
 30
0.0
 11
1.139763779527559
 21
0.8248031496062992
 31
0.0
  0
LINE
  5
352
330
1F
100
AcDbEntity
  8
1
100
AcDbLine
 10
1.145669291338582
 20
0.8444881889763779
 30
0.0
 11
1.139763779527559
 21
0.8444881889763779
 31
0.0
  0
LINE
  5
353
330
1F
100
AcDbEntity
  8
1
100
AcDbLine
 10
1.145669291338582
 20
0.8700787401574803
 30
0.0
 11
1.140748031496062
 21
0.8779527559055118
 31
0.0
  0
LINE
  5
354
330
1F
100
AcDbEntity
  8
1
100
AcDbLine
 10
1.140748031496062
 20
0.8779527559055118
 30
0.0
 11
1.11023622047244
 21
0.8779527559055118
 31
0.0
  0
LINE
  5
355
330
1F
100
AcDbEntity
  8
1
100
AcDbLine
 10
1.11023622047244
 20
0.8641732283464566
 30
0.0
 11
1.11515748031496
 21
0.8641732283464566
 31
0.0
  0
LINE
  5
356
330
1F
100
AcDbEntity
  8
1
100
AcDbLine
 10
1.11515748031496
 20
0.8444881889763779
 30
0.0
 11
1.11515748031496
 21
0.8641732283464566
 31
0.0
  0
LINE
  5
357
330
1F
100
AcDbEntity
  8
1
100
AcDbLine
 10
1.11023622047244
 20
0.8444881889763779
 30
0.0
 11
1.11515748031496
 21
0.8444881889763779
 31
0.0
  0
LINE
  5
358
330
1F
100
AcDbEntity
  8
1
100
AcDbLine
 10
1.11023622047244
 20
0.8248031496062992
 30
0.0
 11
1.11515748031496
 21
0.8248031496062992
 31
0.0
  0
LINE
  5
359
330
1F
100
AcDbEntity
  8
1
100
AcDbLine
 10
1.11515748031496
 20
0.8051181102362205
 30
0.0
 11
1.11515748031496
 21
0.8248031496062992
 31
0.0
  0
LINE
  5
35A
330
1F
100
AcDbEntity
  8
1
100
AcDbLine
 10
1.11023622047244
 20
0.8051181102362205
 30
0.0
 11
1.11515748031496
 21
0.8051181102362205
 31
0.0
  0
LINE
  5
35B
330
1F
100
AcDbEntity
  8
1
100
AcDbLine
 10
1.11023622047244
 20
0.7854330708661417
 30
0.0
 11
1.11515748031496
 21
0.7854330708661417
 31
0.0
  0
LINE
  5
35C
330
1F
100
AcDbEntity
  8
1
100
AcDbLine
 10
1.11515748031496
 20
0.765748031496063
 30
0.0
 11
1.11515748031496
 21
0.7854330708661417
 31
0.0
  0
LINE
  5
35D
330
1F
100
AcDbEntity
  8
1
100
AcDbLine
 10
1.11023622047244
 20
0.765748031496063
 30
0.0
 11
1.11515748031496
 21
0.765748031496063
 31
0.0
  0
LINE
  5
35E
330
1F
100
AcDbEntity
  8
1
100
AcDbLine
 10
1.11023622047244
 20
0.7460629921259843
 30
0.0
 11
1.11515748031496
 21
0.7460629921259843
 31
0.0
  0
LINE
  5
35F
330
1F
100
AcDbEntity
  8
1
100
AcDbLine
 10
1.11515748031496
 20
0.7263779527559056
 30
0.0
 11
1.11515748031496
 21
0.7460629921259843
 31
0.0
  0
LINE
  5
360
330
1F
100
AcDbEntity
  8
1
100
AcDbLine
 10
1.11023622047244
 20
0.7263779527559056
 30
0.0
 11
1.11515748031496
 21
0.7263779527559056
 31
0.0
  0
LINE
  5
361
330
1F
100
AcDbEntity
  8
1
100
AcDbLine
 10
1.11023622047244
 20
0.7066929133858268
 30
0.0
 11
1.11515748031496
 21
0.7066929133858268
 31
0.0
  0
LINE
  5
362
330
1F
100
AcDbEntity
  8
1
100
AcDbLine
 10
1.11515748031496
 20
0.6870078740157481
 30
0.0
 11
1.11515748031496
 21
0.7066929133858268
 31
0.0
  0
LINE
  5
363
330
1F
100
AcDbEntity
  8
1
100
AcDbLine
 10
1.11023622047244
 20
0.6870078740157481
 30
0.0
 11
1.11515748031496
 21
0.6870078740157481
 31
0.0
  0
LINE
  5
364
330
1F
100
AcDbEntity
  8
1
100
AcDbLine
 10
1.11023622047244
 20
0.6673228346456694
 30
0.0
 11
1.11515748031496
 21
0.6673228346456694
 31
0.0
  0
LINE
  5
365
330
1F
100
AcDbEntity
  8
1
100
AcDbLine
 10
1.11515748031496
 20
0.6476377952755906
 30
0.0
 11
1.11515748031496
 21
0.6673228346456694
 31
0.0
  0
LINE
  5
366
330
1F
100
AcDbEntity
  8
1
100
AcDbLine
 10
1.11023622047244
 20
0.6476377952755906
 30
0.0
 11
1.11515748031496
 21
0.6476377952755906
 31
0.0
  0
LINE
  5
367
330
1F
100
AcDbEntity
  8
1
100
AcDbLine
 10
1.11023622047244
 20
0.6279527559055119
 30
0.0
 11
1.11515748031496
 21
0.6279527559055119
 31
0.0
  0
LINE
  5
368
330
1F
100
AcDbEntity
  8
1
100
AcDbLine
 10
1.11515748031496
 20
0.6082677165354332
 30
0.0
 11
1.11515748031496
 21
0.6279527559055119
 31
0.0
  0
LINE
  5
369
330
1F
100
AcDbEntity
  8
1
100
AcDbLine
 10
1.11023622047244
 20
0.6082677165354332
 30
0.0
 11
1.11515748031496
 21
0.6082677165354332
 31
0.0
  0
LINE
  5
36A
330
1F
100
AcDbEntity
  8
1
100
AcDbLine
 10
1.11023622047244
 20
0.5885826771653543
 30
0.0
 11
1.11515748031496
 21
0.5885826771653543
 31
0.0
  0
LINE
  5
36B
330
1F
100
AcDbEntity
  8
1
100
AcDbLine
 10
1.11515748031496
 20
0.5688976377952756
 30
0.0
 11
1.11515748031496
 21
0.5885826771653543
 31
0.0
  0
LINE
  5
36C
330
1F
100
AcDbEntity
  8
1
100
AcDbLine
 10
1.11023622047244
 20
0.5688976377952756
 30
0.0
 11
1.11515748031496
 21
0.5688976377952756
 31
0.0
  0
LINE
  5
36D
330
1F
100
AcDbEntity
  8
1
100
AcDbLine
 10
1.11023622047244
 20
0.5492125984251969
 30
0.0
 11
1.11515748031496
 21
0.5492125984251969
 31
0.0
  0
LINE
  5
36E
330
1F
100
AcDbEntity
  8
1
100
AcDbLine
 10
1.11515748031496
 20
0.5295275590551181
 30
0.0
 11
1.11515748031496
 21
0.5492125984251969
 31
0.0
  0
LINE
  5
36F
330
1F
100
AcDbEntity
  8
1
100
AcDbLine
 10
1.11023622047244
 20
0.5295275590551181
 30
0.0
 11
1.11515748031496
 21
0.5295275590551181
 31
0.0
  0
LINE
  5
370
330
1F
100
AcDbEntity
  8
1
100
AcDbLine
 10
1.11023622047244
 20
0.5098425196850394
 30
0.0
 11
1.11515748031496
 21
0.5098425196850394
 31
0.0
  0
LINE
  5
371
330
1F
100
AcDbEntity
  8
1
100
AcDbLine
 10
1.11515748031496
 20
0.4901574803149607
 30
0.0
 11
1.11515748031496
 21
0.5098425196850394
 31
0.0
  0
LINE
  5
372
330
1F
100
AcDbEntity
  8
1
100
AcDbLine
 10
1.11023622047244
 20
0.4901574803149607
 30
0.0
 11
1.11515748031496
 21
0.4901574803149607
 31
0.0
  0
LINE
  5
373
330
1F
100
AcDbEntity
  8
1
100
AcDbLine
 10
1.11023622047244
 20
0.4753937007874016
 30
0.0
 11
1.140748031496062
 21
0.4753937007874016
 31
0.0
  0
LINE
  5
374
330
1F
100
AcDbEntity
  8
1
100
AcDbLine
 10
1.140748031496062
 20
0.4753937007874016
 30
0.0
 11
1.145669291338582
 21
0.484251968503937
 31
0.0
  0
LINE
  5
375
330
1F
100
AcDbEntity
  8
1
100
AcDbLine
 10
1.145669291338582
 20
0.5098425196850394
 30
0.0
 11
1.139763779527559
 21
0.5098425196850394
 31
0.0
  0
LINE
  5
376
330
1F
100
AcDbEntity
  8
1
100
AcDbLine
 10
1.139763779527559
 20
0.5098425196850394
 30
0.0
 11
1.139763779527559
 21
0.5295275590551181
 31
0.0
  0
LINE
  5
377
330
1F
100
AcDbEntity
  8
1
100
AcDbLine
 10
1.145669291338582
 20
0.5295275590551181
 30
0.0
 11
1.139763779527559
 21
0.5295275590551181
 31
0.0
  0
LINE
  5
378
330
1F
100
AcDbEntity
  8
1
100
AcDbLine
 10
1.145669291338582
 20
0.5492125984251969
 30
0.0
 11
1.139763779527559
 21
0.5492125984251969
 31
0.0
  0
LINE
  5
379
330
1F
100
AcDbEntity
  8
1
100
AcDbLine
 10
1.139763779527559
 20
0.5688976377952756
 30
0.0
 11
1.139763779527559
 21
0.5492125984251969
 31
0.0
  0
LINE
  5
37A
330
1F
100
AcDbEntity
  8
1
100
AcDbLine
 10
1.145669291338582
 20
0.5688976377952756
 30
0.0
 11
1.139763779527559
 21
0.5688976377952756
 31
0.0
  0
LINE
  5
37B
330
1F
100
AcDbEntity
  8
1
100
AcDbLine
 10
1.145669291338582
 20
0.5885826771653543
 30
0.0
 11
1.139763779527559
 21
0.5885826771653543
 31
0.0
  0
LINE
  5
37C
330
1F
100
AcDbEntity
  8
1
100
AcDbLine
 10
1.139763779527559
 20
0.6082677165354332
 30
0.0
 11
1.139763779527559
 21
0.5885826771653543
 31
0.0
  0
LINE
  5
37D
330
1F
100
AcDbEntity
  8
1
100
AcDbLine
 10
1.145669291338582
 20
0.6082677165354332
 30
0.0
 11
1.139763779527559
 21
0.6082677165354332
 31
0.0
  0
LINE
  5
37E
330
1F
100
AcDbEntity
  8
1
100
AcDbLine
 10
1.145669291338582
 20
0.6279527559055119
 30
0.0
 11
1.139763779527559
 21
0.6279527559055119
 31
0.0
  0
LINE
  5
37F
330
1F
100
AcDbEntity
  8
1
100
AcDbLine
 10
1.139763779527559
 20
0.6476377952755906
 30
0.0
 11
1.139763779527559
 21
0.6279527559055119
 31
0.0
  0
LINE
  5
380
330
1F
100
AcDbEntity
  8
1
100
AcDbLine
 10
1.145669291338582
 20
0.6476377952755906
 30
0.0
 11
1.139763779527559
 21
0.6476377952755906
 31
0.0
  0
LINE
  5
381
330
1F
100
AcDbEntity
  8
1
100
AcDbLine
 10
1.145669291338582
 20
0.6673228346456694
 30
0.0
 11
1.139763779527559
 21
0.6673228346456694
 31
0.0
  0
LINE
  5
382
330
1F
100
AcDbEntity
  8
1
100
AcDbLine
 10
1.139763779527559
 20
0.6870078740157481
 30
0.0
 11
1.139763779527559
 21
0.6673228346456694
 31
0.0
  0
LINE
  5
383
330
1F
100
AcDbEntity
  8
1
100
AcDbLine
 10
1.145669291338582
 20
0.6870078740157481
 30
0.0
 11
1.139763779527559
 21
0.6870078740157481
 31
0.0
  0
LINE
  5
384
330
1F
100
AcDbEntity
  8
1
100
AcDbLine
 10
1.145669291338582
 20
0.7066929133858268
 30
0.0
 11
1.139763779527559
 21
0.7066929133858268
 31
0.0
  0
LINE
  5
385
330
1F
100
AcDbEntity
  8
1
100
AcDbLine
 10
1.139763779527559
 20
0.7263779527559056
 30
0.0
 11
1.139763779527559
 21
0.7066929133858268
 31
0.0
  0
LINE
  5
386
330
1F
100
AcDbEntity
  8
1
100
AcDbLine
 10
1.145669291338582
 20
0.7263779527559056
 30
0.0
 11
1.139763779527559
 21
0.7263779527559056
 31
0.0
  0
LINE
  5
387
330
1F
100
AcDbEntity
  8
1
100
AcDbLine
 10
1.145669291338582
 20
0.7460629921259843
 30
0.0
 11
1.139763779527559
 21
0.7460629921259843
 31
0.0
  0
LINE
  5
388
330
1F
100
AcDbEntity
  8
1
100
AcDbLine
 10
1.139763779527559
 20
0.765748031496063
 30
0.0
 11
1.139763779527559
 21
0.7460629921259843
 31
0.0
  0
LINE
  5
389
330
1F
100
AcDbEntity
  8
1
100
AcDbLine
 10
1.145669291338582
 20
0.765748031496063
 30
0.0
 11
1.139763779527559
 21
0.765748031496063
 31
0.0
  0
LINE
  5
38A
330
1F
100
AcDbEntity
  8
1
100
AcDbLine
 10
1.145669291338582
 20
0.7854330708661417
 30
0.0
 11
1.139763779527559
 21
0.7854330708661417
 31
0.0
  0
LINE
  5
38B
330
1F
100
AcDbEntity
  8
1
100
AcDbLine
 10
1.139763779527559
 20
0.8051181102362205
 30
0.0
 11
1.139763779527559
 21
0.7854330708661417
 31
0.0
  0
LINE
  5
38C
330
1F
100
AcDbEntity
  8
1
100
AcDbLine
 10
1.145669291338582
 20
0.8051181102362205
 30
0.0
 11
1.139763779527559
 21
0.8051181102362205
 31
0.0
  0
LINE
  5
38D
330
1F
100
AcDbEntity
  8
1
100
AcDbLine
 10
1.133858267716535
 20
0.889763779527559
 30
0.0
 11
1.140748031496062
 21
0.8779527559055118
 31
0.0
  0
LINE
  5
38E
330
1F
100
AcDbEntity
  8
1
100
AcDbLine
 10
1.140748031496062
 20
0.4753937007874016
 30
0.0
 11
1.133858267716535
 21
0.4645669291338583
 31
0.0
  0
LINE
  5
38F
330
1F
100
AcDbEntity
  8
1
100
AcDbLine
 10
1.14763779527559
 20
0.6683070866141733
 30
0.0
 11
1.14763779527559
 21
0.6860236220472441
 31
0.0
  0
LINE
  5
390
330
1F
100
AcDbEntity
  8
1
100
AcDbLine
 10
1.14763779527559
 20
0.6860236220472441
 30
0.0
 11
1.139763779527559
 21
0.6860236220472441
 31
0.0
  0
LINE
  5
391
330
1F
100
AcDbEntity
  8
1
100
AcDbLine
 10
1.141732283464566
 20
0.6801181102362205
 30
0.0
 11
1.141732283464566
 21
0.6742125984251969
 31
0.0
  0
LINE
  5
392
330
1F
100
AcDbEntity
  8
1
100
AcDbLine
 10
1.139763779527559
 20
0.6801181102362205
 30
0.0
 11
1.141732283464566
 21
0.6801181102362205
 31
0.0
  0
LINE
  5
393
330
1F
100
AcDbEntity
  8
1
100
AcDbLine
 10
1.141732283464566
 20
0.6742125984251969
 30
0.0
 11
1.139763779527559
 21
0.6742125984251969
 31
0.0
  0
LINE
  5
394
330
1F
100
AcDbEntity
  8
1
100
AcDbLine
 10
1.139763779527559
 20
0.6683070866141733
 30
0.0
 11
1.14763779527559
 21
0.6683070866141733
 31
0.0
  0
LINE
  5
395
330
1F
100
AcDbEntity
  8
1
100
AcDbLine
 10
1.141732283464566
 20
0.6801181102362205
 30
0.0
 11
1.14763779527559
 21
0.6860236220472441
 31
0.0
  0
LINE
  5
396
330
1F
100
AcDbEntity
  8
1
100
AcDbLine
 10
1.14763779527559
 20
0.6683070866141733
 30
0.0
 11
1.141732283464566
 21
0.6742125984251969
 31
0.0
  0
LINE
  5
397
330
1F
100
AcDbEntity
  8
1
100
AcDbLine
 10
1.14763779527559
 20
0.7470472440944882
 30
0.0
 11
1.14763779527559
 21
0.7647637795275591
 31
0.0
  0
LINE
  5
398
330
1F
100
AcDbEntity
  8
1
100
AcDbLine
 10
1.14763779527559
 20
0.7647637795275591
 30
0.0
 11
1.139763779527559
 21
0.7647637795275591
 31
0.0
  0
LINE
  5
399
330
1F
100
AcDbEntity
  8
1
100
AcDbLine
 10
1.141732283464566
 20
0.7588582677165354
 30
0.0
 11
1.141732283464566
 21
0.7529527559055119
 31
0.0
  0
LINE
  5
39A
330
1F
100
AcDbEntity
  8
1
100
AcDbLine
 10
1.139763779527559
 20
0.7588582677165354
 30
0.0
 11
1.141732283464566
 21
0.7588582677165354
 31
0.0
  0
LINE
  5
39B
330
1F
100
AcDbEntity
  8
1
100
AcDbLine
 10
1.141732283464566
 20
0.7529527559055119
 30
0.0
 11
1.139763779527559
 21
0.7529527559055119
 31
0.0
  0
LINE
  5
39C
330
1F
100
AcDbEntity
  8
1
100
AcDbLine
 10
1.139763779527559
 20
0.7470472440944882
 30
0.0
 11
1.14763779527559
 21
0.7470472440944882
 31
0.0
  0
LINE
  5
39D
330
1F
100
AcDbEntity
  8
1
100
AcDbLine
 10
1.141732283464566
 20
0.7588582677165354
 30
0.0
 11
1.14763779527559
 21
0.7647637795275591
 31
0.0
  0
LINE
  5
39E
330
1F
100
AcDbEntity
  8
1
100
AcDbLine
 10
1.14763779527559
 20
0.7470472440944882
 30
0.0
 11
1.141732283464566
 21
0.7529527559055119
 31
0.0
  0
LINE
  5
39F
330
1F
100
AcDbEntity
  8
1
100
AcDbLine
 10
1.107283464566929
 20
0.7667322834645669
 30
0.0
 11
1.107283464566929
 21
0.7844488188976378
 31
0.0
  0
LINE
  5
3A0
330
1F
100
AcDbEntity
  8
1
100
AcDbLine
 10
1.107283464566929
 20
0.7844488188976378
 30
0.0
 11
1.11515748031496
 21
0.7844488188976378
 31
0.0
  0
LINE
  5
3A1
330
1F
100
AcDbEntity
  8
1
100
AcDbLine
 10
1.113188976377952
 20
0.7785433070866141
 30
0.0
 11
1.113188976377952
 21
0.7726377952755906
 31
0.0
  0
LINE
  5
3A2
330
1F
100
AcDbEntity
  8
1
100
AcDbLine
 10
1.113188976377952
 20
0.7726377952755906
 30
0.0
 11
1.11515748031496
 21
0.7726377952755906
 31
0.0
  0
LINE
  5
3A3
330
1F
100
AcDbEntity
  8
1
100
AcDbLine
 10
1.11515748031496
 20
0.7785433070866141
 30
0.0
 11
1.113188976377952
 21
0.7785433070866141
 31
0.0
  0
LINE
  5
3A4
330
1F
100
AcDbEntity
  8
1
100
AcDbLine
 10
1.11515748031496
 20
0.7667322834645669
 30
0.0
 11
1.107283464566929
 21
0.7667322834645669
 31
0.0
  0
LINE
  5
3A5
330
1F
100
AcDbEntity
  8
1
100
AcDbLine
 10
1.107283464566929
 20
0.7667322834645669
 30
0.0
 11
1.113188976377952
 21
0.7726377952755906
 31
0.0
  0
LINE
  5
3A6
330
1F
100
AcDbEntity
  8
1
100
AcDbLine
 10
1.113188976377952
 20
0.7785433070866141
 30
0.0
 11
1.107283464566929
 21
0.7844488188976378
 31
0.0
  0
LINE
  5
3A7
330
1F
100
AcDbEntity
  8
1
100
AcDbLine
 10
1.107283464566929
 20
0.5305118110236221
 30
0.0
 11
1.107283464566929
 21
0.548228346456693
 31
0.0
  0
LINE
  5
3A8
330
1F
100
AcDbEntity
  8
1
100
AcDbLine
 10
1.107283464566929
 20
0.548228346456693
 30
0.0
 11
1.11515748031496
 21
0.548228346456693
 31
0.0
  0
LINE
  5
3A9
330
1F
100
AcDbEntity
  8
1
100
AcDbLine
 10
1.113188976377952
 20
0.5423228346456694
 30
0.0
 11
1.113188976377952
 21
0.5364173228346458
 31
0.0
  0
LINE
  5
3AA
330
1F
100
AcDbEntity
  8
1
100
AcDbLine
 10
1.113188976377952
 20
0.5364173228346458
 30
0.0
 11
1.11515748031496
 21
0.5364173228346458
 31
0.0
  0
LINE
  5
3AB
330
1F
100
AcDbEntity
  8
1
100
AcDbLine
 10
1.11515748031496
 20
0.5423228346456694
 30
0.0
 11
1.113188976377952
 21
0.5423228346456694
 31
0.0
  0
LINE
  5
3AC
330
1F
100
AcDbEntity
  8
1
100
AcDbLine
 10
1.11515748031496
 20
0.5305118110236221
 30
0.0
 11
1.107283464566929
 21
0.5305118110236221
 31
0.0
  0
LINE
  5
3AD
330
1F
100
AcDbEntity
  8
1
100
AcDbLine
 10
1.107283464566929
 20
0.5305118110236221
 30
0.0
 11
1.113188976377952
 21
0.5364173228346458
 31
0.0
  0
LINE
  5
3AE
330
1F
100
AcDbEntity
  8
1
100
AcDbLine
 10
1.113188976377952
 20
0.5423228346456694
 30
0.0
 11
1.107283464566929
 21
0.548228346456693
 31
0.0
  0
LINE
  5
3AF
330
1F
100
AcDbEntity
  8
1
100
AcDbLine
 10
1.14763779527559
 20
0.8257874015748031
 30
0.0
 11
1.14763779527559
 21
0.8435039370078738
 31
0.0
  0
LINE
  5
3B0
330
1F
100
AcDbEntity
  8
1
100
AcDbLine
 10
1.14763779527559
 20
0.8435039370078738
 30
0.0
 11
1.139763779527559
 21
0.8435039370078738
 31
0.0
  0
LINE
  5
3B1
330
1F
100
AcDbEntity
  8
1
100
AcDbLine
 10
1.141732283464566
 20
0.8375984251968503
 30
0.0
 11
1.141732283464566
 21
0.8316929133858266
 31
0.0
  0
LINE
  5
3B2
330
1F
100
AcDbEntity
  8
1
100
AcDbLine
 10
1.139763779527559
 20
0.8375984251968503
 30
0.0
 11
1.141732283464566
 21
0.8375984251968503
 31
0.0
  0
LINE
  5
3B3
330
1F
100
AcDbEntity
  8
1
100
AcDbLine
 10
1.141732283464566
 20
0.8316929133858266
 30
0.0
 11
1.139763779527559
 21
0.8316929133858266
 31
0.0
  0
LINE
  5
3B4
330
1F
100
AcDbEntity
  8
1
100
AcDbLine
 10
1.139763779527559
 20
0.8257874015748031
 30
0.0
 11
1.14763779527559
 21
0.8257874015748031
 31
0.0
  0
LINE
  5
3B5
330
1F
100
AcDbEntity
  8
1
100
AcDbLine
 10
1.141732283464566
 20
0.8375984251968503
 30
0.0
 11
1.14763779527559
 21
0.8435039370078738
 31
0.0
  0
LINE
  5
3B6
330
1F
100
AcDbEntity
  8
1
100
AcDbLine
 10
1.14763779527559
 20
0.8257874015748031
 30
0.0
 11
1.141732283464566
 21
0.8316929133858266
 31
0.0
  0
LINE
  5
3B7
330
1F
100
AcDbEntity
  8
1
100
AcDbLine
 10
1.426181102362204
 20
0.8927165354330707
 30
0.0
 11
1.419291338582677
 21
0.8858267716535433
 31
0.0
  0
LINE
  5
3B8
330
1F
100
AcDbEntity
  8
1
100
AcDbLine
 10
1.426181102362204
 20
0.8927165354330707
 30
0.0
 11
1.418307086614173
 21
0.8927165354330707
 31
0.0
  0
LINE
  5
3B9
330
1F
100
AcDbEntity
  8
1
100
AcDbLine
 10
0.8297244094488188
 20
0.5354330708661417
 30
0.0
 11
0.8366141732283464
 21
0.5423228346456694
 31
0.0
  0
LINE
  5
3BA
330
1F
100
AcDbEntity
  8
1
100
AcDbLine
 10
0.8297244094488188
 20
0.5354330708661417
 30
0.0
 11
0.8366141732283464
 21
0.5354330708661417
 31
0.0
  0
LINE
  5
3BB
330
1F
100
AcDbEntity
  8
1
100
AcDbLine
 10
1.428149606299212
 20
0.5305118110236221
 30
0.0
 11
1.428149606299212
 21
0.8976377952755905
 31
0.0
  0
LINE
  5
3BC
330
1F
100
AcDbEntity
  8
1
100
AcDbLine
 10
0.826771653543307
 20
0.5305118110236221
 30
0.0
 11
0.826771653543307
 21
0.8976377952755905
 31
0.0
  0
LINE
  5
3BD
330
1F
100
AcDbEntity
  8
1
100
AcDbLine
 10
0.8061023622047244
 20
0.5305118110236221
 30
0.0
 11
0.8061023622047244
 21
0.8976377952755905
 31
0.0
  0
LINE
  5
3BE
330
1F
100
AcDbEntity
  8
1
100
AcDbLine
 10
1.449803149606299
 20
0.5305118110236221
 30
0.0
 11
1.449803149606299
 21
0.8976377952755905
 31
0.0
  0
LINE
  5
3BF
330
1F
100
AcDbEntity
  8
1
100
AcDbLine
 10
1.427165354330708
 20
0.8976377952755905
 30
0.0
 11
1.426181102362204
 21
0.8927165354330707
 31
0.0
  0
LINE
  5
3C0
330
1F
100
AcDbEntity
  8
1
100
AcDbLine
 10
1.427165354330708
 20
0.5344488188976378
 30
0.0
 11
1.419291338582677
 21
0.5423228346456694
 31
0.0
  0
LINE
  5
3C1
330
1F
100
AcDbEntity
  8
1
100
AcDbLine
 10
1.427165354330708
 20
0.5344488188976378
 30
0.0
 11
1.428149606299212
 21
0.5305118110236221
 31
0.0
  0
LINE
  5
3C2
330
1F
100
AcDbEntity
  8
1
100
AcDbLine
 10
1.418307086614173
 20
0.5344488188976378
 30
0.0
 11
1.427165354330708
 21
0.5344488188976378
 31
0.0
  0
LINE
  5
3C3
330
1F
100
AcDbEntity
  8
1
100
AcDbLine
 10
0.8277559055118109
 20
0.5305118110236221
 30
0.0
 11
0.8297244094488188
 21
0.5354330708661417
 31
0.0
  0
LINE
  5
3C4
330
1F
100
AcDbEntity
  8
1
100
AcDbLine
 10
0.8297244094488188
 20
0.8927165354330707
 30
0.0
 11
0.8366141732283464
 21
0.8858267716535433
 31
0.0
  0
LINE
  5
3C5
330
1F
100
AcDbEntity
  8
1
100
AcDbLine
 10
0.8297244094488188
 20
0.8927165354330707
 30
0.0
 11
0.8277559055118109
 21
0.8976377952755905
 31
0.0
  0
LINE
  5
3C6
330
1F
100
AcDbEntity
  8
1
100
AcDbLine
 10
0.8366141732283464
 20
0.8927165354330707
 30
0.0
 11
0.8297244094488188
 21
0.8927165354330707
 31
0.0
  0
LINE
  5
3C7
330
1F
100
AcDbEntity
  8
1
100
AcDbLine
 10
0.84251968503937
 20
1.991141732283464
 30
0.0
 11
1.412401574803149
 21
1.991141732283464
 31
0.0
  0
LINE
  5
3C8
330
1F
100
AcDbEntity
  8
1
100
AcDbLine
 10
0.8415354330708661
 20
2.076771653543306
 30
0.0
 11
0.84251968503937
 21
1.991141732283464
 31
0.0
  0
LINE
  5
3C9
330
1F
100
AcDbEntity
  8
1
100
AcDbLine
 10
0.8415354330708661
 20
2.076771653543306
 30
0.0
 11
0.8395669291338581
 21
2.289370078740157
 31
0.0
  0
LINE
  5
3CA
330
1F
100
AcDbEntity
  8
1
100
AcDbLine
 10
0.8395669291338581
 20
2.375
 30
0.0
 11
0.8395669291338581
 21
2.289370078740157
 31
0.0
  0
LINE
  5
3CB
330
1F
100
AcDbEntity
  8
1
100
AcDbLine
 10
1.415354330708661
 20
2.289370078740157
 30
0.0
 11
1.416338582677165
 21
2.375
 31
0.0
  0
LINE
  5
3CC
330
1F
100
AcDbEntity
  8
1
100
AcDbLine
 10
1.415354330708661
 20
2.289370078740157
 30
0.0
 11
1.413385826771653
 21
2.076771653543306
 31
0.0
  0
LINE
  5
3CD
330
1F
100
AcDbEntity
  8
1
100
AcDbLine
 10
1.413385826771653
 20
2.076771653543306
 30
0.0
 11
1.412401574803149
 21
1.991141732283464
 31
0.0
  0
LINE
  5
3CE
330
1F
100
AcDbEntity
  8
1
100
AcDbLine
 10
1.33759842519685
 20
2.553149606299212
 30
0.0
 11
1.31003937007874
 21
2.553149606299212
 31
0.0
  0
LINE
  5
3CF
330
1F
100
AcDbEntity
  8
1
100
AcDbLine
 10
0.9498031496062992
 20
2.30511811023622
 30
0.0
 11
0.9498031496062992
 21
2.299212598425196
 31
0.0
  0
LINE
  5
3D0
330
1F
100
AcDbEntity
  8
1
100
AcDbLine
 10
0.9498031496062992
 20
2.299212598425196
 30
0.0
 11
0.9507874015748031
 21
2.224409448818897
 31
0.0
  0
LINE
  5
3D1
330
1F
100
AcDbEntity
  8
1
100
AcDbLine
 10
1.304133858267716
 20
2.224409448818897
 30
0.0
 11
1.187992125984251
 21
2.224409448818897
 31
0.0
  0
LINE
  5
3D2
330
1F
100
AcDbEntity
  8
1
100
AcDbLine
 10
1.011811023622047
 20
2.226377952755905
 30
0.0
 11
1.18503937007874
 21
2.226377952755905
 31
0.0
  0
LINE
  5
3D3
330
1F
100
AcDbEntity
  8
1
100
AcDbLine
 10
1.18503937007874
 20
2.226377952755905
 30
0.0
 11
1.187992125984251
 21
2.224409448818897
 31
0.0
  0
LINE
  5
3D4
330
1F
100
AcDbEntity
  8
1
100
AcDbLine
 10
1.30511811023622
 20
2.289370078740157
 30
0.0
 11
1.304133858267716
 21
2.224409448818897
 31
0.0
  0
LINE
  5
3D5
330
1F
100
AcDbEntity
  8
1
100
AcDbLine
 10
0.9498031496062992
 20
2.289370078740157
 30
0.0
 11
1.30511811023622
 21
2.289370078740157
 31
0.0
  0
LINE
  5
3D6
330
1F
100
AcDbEntity
  8
1
100
AcDbLine
 10
0.9507874015748031
 20
2.224409448818897
 30
0.0
 11
0.9498031496062992
 21
2.289370078740157
 31
0.0
  0
LINE
  5
3D7
330
1F
100
AcDbEntity
  8
1
100
AcDbLine
 10
1.008858267716535
 20
2.224409448818897
 30
0.0
 11
0.9507874015748031
 21
2.224409448818897
 31
0.0
  0
LINE
  5
3D8
330
1F
100
AcDbEntity
  8
1
100
AcDbLine
 10
1.011811023622047
 20
2.226377952755905
 30
0.0
 11
1.008858267716535
 21
2.224409448818897
 31
0.0
  0
LINE
  5
3D9
330
1F
100
AcDbEntity
  8
1
100
AcDbLine
 10
0.9114173228346455
 20
2.629921259842519
 30
0.0
 11
0.8061023622047244
 21
2.629921259842519
 31
0.0
  0
POLYLINE
  5
3DA
330
1F
100
AcDbEntity
  8
1
100
AcDb2dPolyline
 66
     1
 10
0.0
 20
0.0
 30
0.0
  0
VERTEX
  5
3DB
330
3DA
100
AcDbEntity
  8
1
100
AcDbVertex
100
AcDb2dVertex
 10
0.9114173228346455
 20
2.629921259842519
 30
0.0
  0
VERTEX
  5
3DC
330
3DA
100
AcDbEntity
  8
1
100
AcDbVertex
100
AcDb2dVertex
 10
0.9143700787401575
 20
2.629921259842519
 30
0.0
  0
VERTEX
  5
3DD
330
3DA
100
AcDbEntity
  8
1
100
AcDbVertex
100
AcDb2dVertex
 10
0.922244094488189
 20
2.629921259842519
 30
0.0
  0
VERTEX
  5
3DE
330
3DA
100
AcDbEntity
  8
1
100
AcDbVertex
100
AcDb2dVertex
 10
0.9340551181102362
 20
2.629921259842519
 30
0.0
  0
SEQEND
  5
3DF
330
3DA
100
AcDbEntity
  8
1
  0
POLYLINE
  5
3E0
330
1F
100
AcDbEntity
  8
1
100
AcDb2dPolyline
 66
     1
 10
0.0
 20
0.0
 30
0.0
  0
VERTEX
  5
3E1
330
3E0
100
AcDbEntity
  8
1
100
AcDbVertex
100
AcDb2dVertex
 10
0.9340551181102362
 20
2.629921259842519
 30
0.0
  0
VERTEX
  5
3E2
330
3E0
100
AcDbEntity
  8
1
100
AcDbVertex
100
AcDb2dVertex
 10
0.9350393700787401
 20
2.629921259842519
 30
0.0
  0
VERTEX
  5
3E3
330
3E0
100
AcDbEntity
  8
1
100
AcDbVertex
100
AcDb2dVertex
 10
0.9419291338582677
 20
2.629921259842519
 30
0.0
  0
VERTEX
  5
3E4
330
3E0
100
AcDbEntity
  8
1
100
AcDbVertex
100
AcDb2dVertex
 10
0.9468503937007874
 20
2.629921259842519
 30
0.0
  0
SEQEND
  5
3E5
330
3E0
100
AcDbEntity
  8
1
  0
LINE
  5
3E6
330
1F
100
AcDbEntity
  8
1
100
AcDbLine
 10
0.9468503937007874
 20
2.629921259842519
 30
0.0
 11
1.308070866141732
 21
2.629921259842519
 31
0.0
  0
POLYLINE
  5
3E7
330
1F
100
AcDbEntity
  8
1
100
AcDb2dPolyline
 66
     1
 10
0.0
 20
0.0
 30
0.0
  0
VERTEX
  5
3E8
330
3E7
100
AcDbEntity
  8
1
100
AcDbVertex
100
AcDb2dVertex
 10
1.308070866141732
 20
2.629921259842519
 30
0.0
  0
VERTEX
  5
3E9
330
3E7
100
AcDbEntity
  8
1
100
AcDbVertex
100
AcDb2dVertex
 10
1.315944881889763
 20
2.629921259842519
 30
0.0
  0
VERTEX
  5
3EA
330
3E7
100
AcDbEntity
  8
1
100
AcDbVertex
100
AcDb2dVertex
 10
1.326771653543307
 20
2.629921259842519
 30
0.0
  0
SEQEND
  5
3EB
330
3E7
100
AcDbEntity
  8
1
  0
LINE
  5
3EC
330
1F
100
AcDbEntity
  8
1
100
AcDbLine
 10
1.449803149606299
 20
2.629921259842519
 30
0.0
 11
1.344488188976378
 21
2.629921259842519
 31
0.0
  0
LINE
  5
3ED
330
1F
100
AcDbEntity
  8
1
100
AcDbLine
 10
0.8415354330708661
 20
2.076771653543306
 30
0.0
 11
1.413385826771653
 21
2.076771653543306
 31
0.0
  0
LINE
  5
3EE
330
1F
100
AcDbEntity
  8
1
100
AcDbLine
 10
1.304133858267716
 20
2.224409448818897
 30
0.0
 11
1.306102362204724
 21
2.30511811023622
 31
0.0
  0
LINE
  5
3EF
330
1F
100
AcDbEntity
  8
1
100
AcDbLine
 10
1.298228346456692
 20
2.312007874015748
 30
0.0
 11
0.9566929133858266
 21
2.312007874015748
 31
0.0
  0
POLYLINE
  5
3F0
330
1F
100
AcDbEntity
  8
1
100
AcDb2dPolyline
 66
     1
 10
0.0
 20
0.0
 30
0.0
  0
VERTEX
  5
3F1
330
3F0
100
AcDbEntity
  8
1
100
AcDbVertex
100
AcDb2dVertex
 10
1.306102362204724
 20
2.304133858267716
 30
0.0
  0
VERTEX
  5
3F2
330
3F0
100
AcDbEntity
  8
1
100
AcDbVertex
100
AcDb2dVertex
 10
1.303149606299212
 20
2.31003937007874
 30
0.0
  0
VERTEX
  5
3F3
330
3F0
100
AcDbEntity
  8
1
100
AcDbVertex
100
AcDb2dVertex
 10
1.298228346456692
 20
2.312007874015748
 30
0.0
  0
SEQEND
  5
3F4
330
3F0
100
AcDbEntity
  8
1
  0
POLYLINE
  5
3F5
330
1F
100
AcDbEntity
  8
1
100
AcDb2dPolyline
 66
     1
 10
0.0
 20
0.0
 30
0.0
  0
VERTEX
  5
3F6
330
3F5
100
AcDbEntity
  8
1
100
AcDbVertex
100
AcDb2dVertex
 10
0.9566929133858266
 20
2.312007874015748
 30
0.0
  0
VERTEX
  5
3F7
330
3F5
100
AcDbEntity
  8
1
100
AcDbVertex
100
AcDb2dVertex
 10
0.951771653543307
 20
2.31003937007874
 30
0.0
  0
VERTEX
  5
3F8
330
3F5
100
AcDbEntity
  8
1
100
AcDbVertex
100
AcDb2dVertex
 10
0.9498031496062992
 20
2.304133858267716
 30
0.0
  0
SEQEND
  5
3F9
330
3F5
100
AcDbEntity
  8
1
  0
LINE
  5
3FA
330
1F
100
AcDbEntity
  8
1
100
AcDbLine
 10
0.9498031496062992
 20
2.289370078740157
 30
0.0
 11
0.9498031496062992
 21
2.304133858267716
 31
0.0
  0
LINE
  5
3FB
330
1F
100
AcDbEntity
  8
1
100
AcDbLine
 10
1.30511811023622
 20
2.289370078740157
 30
0.0
 11
1.306102362204724
 21
2.304133858267716
 31
0.0
  0
LINE
  5
3FC
330
1F
100
AcDbEntity
  8
1
100
AcDbLine
 10
0.9498031496062992
 20
2.30511811023622
 30
0.0
 11
0.9468503937007874
 21
2.475393700787401
 31
0.0
  0
LINE
  5
3FD
330
1F
100
AcDbEntity
  8
1
100
AcDbLine
 10
1.306102362204724
 20
2.30511811023622
 30
0.0
 11
1.309055118110236
 21
2.475393700787401
 31
0.0
  0
LINE
  5
3FE
330
1F
100
AcDbEntity
  8
1
100
AcDbLine
 10
0.9448818897637794
 20
2.553149606299212
 30
0.0
 11
0.9468503937007874
 21
2.475393700787401
 31
0.0
  0
LINE
  5
3FF
330
1F
100
AcDbEntity
  8
1
100
AcDbLine
 10
1.309055118110236
 20
2.475393700787401
 30
0.0
 11
1.31003937007874
 21
2.553149606299212
 31
0.0
  0
LINE
  5
400
330
1F
100
AcDbEntity
  8
1
100
AcDbLine
 10
1.010826771653543
 20
2.225393700787401
 30
0.0
 11
1.012795275590551
 21
2.113188976377952
 31
0.0
  0
LINE
  5
401
330
1F
100
AcDbEntity
  8
1
100
AcDbLine
 10
1.012795275590551
 20
2.113188976377952
 30
0.0
 11
1.183070866141732
 21
2.113188976377952
 31
0.0
  0
LINE
  5
402
330
1F
100
AcDbEntity
  8
1
100
AcDbLine
 10
1.183070866141732
 20
2.113188976377952
 30
0.0
 11
1.18503937007874
 21
2.226377952755905
 31
0.0
  0
LINE
  5
403
330
1F
100
AcDbEntity
  8
1
100
AcDbLine
 10
1.012795275590551
 20
2.113188976377952
 30
0.0
 11
1.001968503937007
 21
2.102362204724409
 31
0.0
  0
LINE
  5
404
330
1F
100
AcDbEntity
  8
1
100
AcDbLine
 10
1.194881889763779
 20
2.102362204724409
 30
0.0
 11
1.001968503937007
 21
2.102362204724409
 31
0.0
  0
LINE
  5
405
330
1F
100
AcDbEntity
  8
1
100
AcDbLine
 10
1.183070866141732
 20
2.113188976377952
 30
0.0
 11
1.194881889763779
 21
2.102362204724409
 31
0.0
  0
POLYLINE
  5
406
330
1F
100
AcDbEntity
  8
1
100
AcDb2dPolyline
 66
     1
 10
0.0
 20
0.0
 30
0.0
  0
VERTEX
  5
407
330
406
100
AcDbEntity
  8
1
100
AcDbVertex
100
AcDb2dVertex
 10
1.324803149606299
 20
2.581692913385826
 30
0.0
  0
VERTEX
  5
408
330
406
100
AcDbEntity
  8
1
100
AcDbVertex
100
AcDb2dVertex
 10
1.329724409448818
 20
2.581692913385826
 30
0.0
  0
VERTEX
  5
409
330
406
100
AcDbEntity
  8
1
100
AcDbVertex
100
AcDb2dVertex
 10
1.33267716535433
 20
2.581692913385826
 30
0.0
  0
VERTEX
  5
40A
330
406
100
AcDbEntity
  8
1
100
AcDbVertex
100
AcDb2dVertex
 10
1.335629921259842
 20
2.581692913385826
 30
0.0
  0
VERTEX
  5
40B
330
406
100
AcDbEntity
  8
1
100
AcDbVertex
100
AcDb2dVertex
 10
1.33759842519685
 20
2.581692913385826
 30
0.0
  0
SEQEND
  5
40C
330
406
100
AcDbEntity
  8
1
  0
POLYLINE
  5
40D
330
1F
100
AcDbEntity
  8
1
100
AcDb2dPolyline
 66
     1
 10
0.0
 20
0.0
 30
0.0
  0
VERTEX
  5
40E
330
40D
100
AcDbEntity
  8
1
100
AcDbVertex
100
AcDb2dVertex
 10
1.325787401574803
 20
2.567913385826771
 30
0.0
  0
VERTEX
  5
40F
330
40D
100
AcDbEntity
  8
1
100
AcDbVertex
100
AcDb2dVertex
 10
1.324803149606299
 20
2.569881889763779
 30
0.0
  0
VERTEX
  5
410
330
40D
100
AcDbEntity
  8
1
100
AcDbVertex
100
AcDb2dVertex
 10
1.324803149606299
 20
2.572834645669291
 30
0.0
  0
VERTEX
  5
411
330
40D
100
AcDbEntity
  8
1
100
AcDbVertex
100
AcDb2dVertex
 10
1.324803149606299
 20
2.577755905511811
 30
0.0
  0
VERTEX
  5
412
330
40D
100
AcDbEntity
  8
1
100
AcDbVertex
100
AcDb2dVertex
 10
1.324803149606299
 20
2.581692913385826
 30
0.0
  0
SEQEND
  5
413
330
40D
100
AcDbEntity
  8
1
  0
POLYLINE
  5
414
330
1F
100
AcDbEntity
  8
1
100
AcDb2dPolyline
 66
     1
 10
0.0
 20
0.0
 30
0.0
  0
VERTEX
  5
415
330
414
100
AcDbEntity
  8
1
100
AcDbVertex
100
AcDb2dVertex
 10
1.33759842519685
 20
2.567913385826771
 30
0.0
  0
VERTEX
  5
416
330
414
100
AcDbEntity
  8
1
100
AcDbVertex
100
AcDb2dVertex
 10
1.333661417322834
 20
2.567913385826771
 30
0.0
  0
VERTEX
  5
417
330
414
100
AcDbEntity
  8
1
100
AcDbVertex
100
AcDb2dVertex
 10
1.325787401574803
 20
2.567913385826771
 30
0.0
  0
SEQEND
  5
418
330
414
100
AcDbEntity
  8
1
  0
POLYLINE
  5
419
330
1F
100
AcDbEntity
  8
1
100
AcDb2dPolyline
 66
     1
 10
0.0
 20
0.0
 30
0.0
  0
VERTEX
  5
41A
330
419
100
AcDbEntity
  8
1
100
AcDbVertex
100
AcDb2dVertex
 10
1.311023622047243
 20
2.581692913385826
 30
0.0
  0
VERTEX
  5
41B
330
419
100
AcDbEntity
  8
1
100
AcDbVertex
100
AcDb2dVertex
 10
1.314960629921259
 20
2.581692913385826
 30
0.0
  0
VERTEX
  5
41C
330
419
100
AcDbEntity
  8
1
100
AcDbVertex
100
AcDb2dVertex
 10
1.324803149606299
 20
2.581692913385826
 30
0.0
  0
SEQEND
  5
41D
330
419
100
AcDbEntity
  8
1
  0
POLYLINE
  5
41E
330
1F
100
AcDbEntity
  8
1
100
AcDb2dPolyline
 66
     1
 10
0.0
 20
0.0
 30
0.0
  0
VERTEX
  5
41F
330
41E
100
AcDbEntity
  8
1
100
AcDbVertex
100
AcDb2dVertex
 10
1.311023622047243
 20
2.581692913385826
 30
0.0
  0
VERTEX
  5
420
330
41E
100
AcDbEntity
  8
1
100
AcDbVertex
100
AcDb2dVertex
 10
1.311023622047243
 20
2.577755905511811
 30
0.0
  0
VERTEX
  5
421
330
41E
100
AcDbEntity
  8
1
100
AcDbVertex
100
AcDb2dVertex
 10
1.312992125984251
 20
2.572834645669291
 30
0.0
  0
VERTEX
  5
422
330
41E
100
AcDbEntity
  8
1
100
AcDbVertex
100
AcDb2dVertex
 10
1.313976377952755
 20
2.568897637795275
 30
0.0
  0
VERTEX
  5
423
330
41E
100
AcDbEntity
  8
1
100
AcDbVertex
100
AcDb2dVertex
 10
1.314960629921259
 20
2.567913385826771
 30
0.0
  0
SEQEND
  5
424
330
41E
100
AcDbEntity
  8
1
  0
LINE
  5
425
330
1F
100
AcDbEntity
  8
1
100
AcDbLine
 10
1.325787401574803
 20
2.567913385826771
 30
0.0
 11
1.314960629921259
 21
2.567913385826771
 31
0.0
  0
LINE
  5
426
330
1F
100
AcDbEntity
  8
1
100
AcDbLine
 10
1.31003937007874
 20
2.553149606299212
 30
0.0
 11
1.31003937007874
 21
2.562992125984251
 31
0.0
  0
POLYLINE
  5
427
330
1F
100
AcDbEntity
  8
1
100
AcDb2dPolyline
 66
     1
 10
0.0
 20
0.0
 30
0.0
  0
VERTEX
  5
428
330
427
100
AcDbEntity
  8
1
100
AcDbVertex
100
AcDb2dVertex
 10
1.31003937007874
 20
2.562992125984251
 30
0.0
  0
VERTEX
  5
429
330
427
100
AcDbEntity
  8
1
100
AcDbVertex
100
AcDb2dVertex
 10
1.31003937007874
 20
2.564960629921259
 30
0.0
  0
VERTEX
  5
42A
330
427
100
AcDbEntity
  8
1
100
AcDbVertex
100
AcDb2dVertex
 10
1.31003937007874
 20
2.569881889763779
 30
0.0
  0
VERTEX
  5
42B
330
427
100
AcDbEntity
  8
1
100
AcDbVertex
100
AcDb2dVertex
 10
1.31003937007874
 20
2.576771653543306
 30
0.0
  0
VERTEX
  5
42C
330
427
100
AcDbEntity
  8
1
100
AcDbVertex
100
AcDb2dVertex
 10
1.311023622047243
 20
2.581692913385826
 30
0.0
  0
SEQEND
  5
42D
330
427
100
AcDbEntity
  8
1
  0
LINE
  5
42E
330
1F
100
AcDbEntity
  8
1
100
AcDbLine
 10
1.311023622047243
 20
2.581692913385826
 30
0.0
 11
1.311023622047243
 21
2.62007874015748
 31
0.0
  0
POLYLINE
  5
42F
330
1F
100
AcDbEntity
  8
1
100
AcDb2dPolyline
 66
     1
 10
0.0
 20
0.0
 30
0.0
  0
VERTEX
  5
430
330
42F
100
AcDbEntity
  8
1
100
AcDbVertex
100
AcDb2dVertex
 10
1.311023622047243
 20
2.62007874015748
 30
0.0
  0
VERTEX
  5
431
330
42F
100
AcDbEntity
  8
1
100
AcDbVertex
100
AcDb2dVertex
 10
1.311023622047243
 20
2.612204724409448
 30
0.0
  0
VERTEX
  5
432
330
42F
100
AcDbEntity
  8
1
100
AcDbVertex
100
AcDb2dVertex
 10
1.311023622047243
 20
2.599409448818897
 30
0.0
  0
VERTEX
  5
433
330
42F
100
AcDbEntity
  8
1
100
AcDbVertex
100
AcDb2dVertex
 10
1.311023622047243
 20
2.585629921259842
 30
0.0
  0
SEQEND
  5
434
330
42F
100
AcDbEntity
  8
1
  0
LINE
  5
435
330
1F
100
AcDbEntity
  8
1
100
AcDbLine
 10
1.311023622047243
 20
2.585629921259842
 30
0.0
 11
1.306102362204724
 21
2.311023622047243
 31
0.0
  0
POLYLINE
  5
436
330
1F
100
AcDbEntity
  8
1
100
AcDb2dPolyline
 66
     1
 10
0.0
 20
0.0
 30
0.0
  0
VERTEX
  5
437
330
436
100
AcDbEntity
  8
1
100
AcDbVertex
100
AcDb2dVertex
 10
1.306102362204724
 20
2.311023622047243
 30
0.0
  0
VERTEX
  5
438
330
436
100
AcDbEntity
  8
1
100
AcDbVertex
100
AcDb2dVertex
 10
1.306102362204724
 20
2.302165354330708
 30
0.0
  0
VERTEX
  5
439
330
436
100
AcDbEntity
  8
1
100
AcDbVertex
100
AcDb2dVertex
 10
1.306102362204724
 20
2.299212598425196
 30
0.0
  0
SEQEND
  5
43A
330
436
100
AcDbEntity
  8
1
  0
LINE
  5
43B
330
1F
100
AcDbEntity
  8
1
100
AcDbLine
 10
1.306102362204724
 20
2.299212598425196
 30
0.0
 11
1.306102362204724
 21
2.304133858267716
 31
0.0
  0
LINE
  5
43C
330
1F
100
AcDbEntity
  8
1
100
AcDbLine
 10
1.303149606299212
 20
2.585629921259842
 30
0.0
 11
0.951771653543307
 21
2.585629921259842
 31
0.0
  0
LINE
  5
43D
330
1F
100
AcDbEntity
  8
1
100
AcDbLine
 10
0.951771653543307
 20
2.585629921259842
 30
0.0
 11
0.9566929133858266
 21
2.312007874015748
 31
0.0
  0
LINE
  5
43E
330
1F
100
AcDbEntity
  8
1
100
AcDbLine
 10
1.298228346456692
 20
2.312007874015748
 30
0.0
 11
1.303149606299212
 21
2.585629921259842
 31
0.0
  0
POLYLINE
  5
43F
330
1F
100
AcDbEntity
  8
1
100
AcDb2dPolyline
 66
     1
 10
0.0
 20
0.0
 30
0.0
  0
VERTEX
  5
440
330
43F
100
AcDbEntity
  8
1
100
AcDbVertex
100
AcDb2dVertex
 10
0.9399606299212598
 20
2.567913385826771
 30
0.0
  0
VERTEX
  5
441
330
43F
100
AcDbEntity
  8
1
100
AcDbVertex
100
AcDb2dVertex
 10
0.936023622047244
 20
2.567913385826771
 30
0.0
  0
VERTEX
  5
442
330
43F
100
AcDbEntity
  8
1
100
AcDbVertex
100
AcDb2dVertex
 10
0.9330708661417322
 20
2.567913385826771
 30
0.0
  0
SEQEND
  5
443
330
43F
100
AcDbEntity
  8
1
  0
POLYLINE
  5
444
330
1F
100
AcDbEntity
  8
1
100
AcDb2dPolyline
 66
     1
 10
0.0
 20
0.0
 30
0.0
  0
VERTEX
  5
445
330
444
100
AcDbEntity
  8
1
100
AcDbVertex
100
AcDb2dVertex
 10
0.9399606299212598
 20
2.567913385826771
 30
0.0
  0
VERTEX
  5
446
330
444
100
AcDbEntity
  8
1
100
AcDbVertex
100
AcDb2dVertex
 10
0.9409448818897637
 20
2.568897637795275
 30
0.0
  0
VERTEX
  5
447
330
444
100
AcDbEntity
  8
1
100
AcDbVertex
100
AcDb2dVertex
 10
0.9419291338582677
 20
2.570866141732283
 30
0.0
  0
VERTEX
  5
448
330
444
100
AcDbEntity
  8
1
100
AcDbVertex
100
AcDb2dVertex
 10
0.9448818897637794
 20
2.578740157480314
 30
0.0
  0
VERTEX
  5
449
330
444
100
AcDbEntity
  8
1
100
AcDbVertex
100
AcDb2dVertex
 10
0.9448818897637794
 20
2.581692913385826
 30
0.0
  0
SEQEND
  5
44A
330
444
100
AcDbEntity
  8
1
  0
POLYLINE
  5
44B
330
1F
100
AcDbEntity
  8
1
100
AcDb2dPolyline
 66
     1
 10
0.0
 20
0.0
 30
0.0
  0
VERTEX
  5
44C
330
44B
100
AcDbEntity
  8
1
100
AcDbVertex
100
AcDb2dVertex
 10
0.9320866141732283
 20
2.581692913385826
 30
0.0
  0
VERTEX
  5
44D
330
44B
100
AcDbEntity
  8
1
100
AcDbVertex
100
AcDb2dVertex
 10
0.9370078740157479
 20
2.581692913385826
 30
0.0
  0
VERTEX
  5
44E
330
44B
100
AcDbEntity
  8
1
100
AcDbVertex
100
AcDb2dVertex
 10
0.9409448818897637
 20
2.581692913385826
 30
0.0
  0
VERTEX
  5
44F
330
44B
100
AcDbEntity
  8
1
100
AcDbVertex
100
AcDb2dVertex
 10
0.9429133858267716
 20
2.581692913385826
 30
0.0
  0
VERTEX
  5
450
330
44B
100
AcDbEntity
  8
1
100
AcDbVertex
100
AcDb2dVertex
 10
0.9448818897637794
 20
2.581692913385826
 30
0.0
  0
SEQEND
  5
451
330
44B
100
AcDbEntity
  8
1
  0
POLYLINE
  5
452
330
1F
100
AcDbEntity
  8
1
100
AcDb2dPolyline
 66
     1
 10
0.0
 20
0.0
 30
0.0
  0
VERTEX
  5
453
330
452
100
AcDbEntity
  8
1
100
AcDbVertex
100
AcDb2dVertex
 10
0.9330708661417322
 20
2.567913385826771
 30
0.0
  0
VERTEX
  5
454
330
452
100
AcDbEntity
  8
1
100
AcDbVertex
100
AcDb2dVertex
 10
0.9330708661417322
 20
2.569881889763779
 30
0.0
  0
VERTEX
  5
455
330
452
100
AcDbEntity
  8
1
100
AcDbVertex
100
AcDb2dVertex
 10
0.9320866141732283
 20
2.572834645669291
 30
0.0
  0
VERTEX
  5
456
330
452
100
AcDbEntity
  8
1
100
AcDbVertex
100
AcDb2dVertex
 10
0.9320866141732283
 20
2.576771653543306
 30
0.0
  0
VERTEX
  5
457
330
452
100
AcDbEntity
  8
1
100
AcDbVertex
100
AcDb2dVertex
 10
0.9320866141732283
 20
2.581692913385826
 30
0.0
  0
SEQEND
  5
458
330
452
100
AcDbEntity
  8
1
  0
POLYLINE
  5
459
330
1F
100
AcDbEntity
  8
1
100
AcDb2dPolyline
 66
     1
 10
0.0
 20
0.0
 30
0.0
  0
VERTEX
  5
45A
330
459
100
AcDbEntity
  8
1
100
AcDbVertex
100
AcDb2dVertex
 10
0.9448818897637794
 20
2.581692913385826
 30
0.0
  0
VERTEX
  5
45B
330
459
100
AcDbEntity
  8
1
100
AcDbVertex
100
AcDb2dVertex
 10
0.9448818897637794
 20
2.566929133858267
 30
0.0
  0
VERTEX
  5
45C
330
459
100
AcDbEntity
  8
1
100
AcDbVertex
100
AcDb2dVertex
 10
0.9448818897637794
 20
2.564960629921259
 30
0.0
  0
VERTEX
  5
45D
330
459
100
AcDbEntity
  8
1
100
AcDbVertex
100
AcDb2dVertex
 10
0.9448818897637794
 20
2.562992125984251
 30
0.0
  0
SEQEND
  5
45E
330
459
100
AcDbEntity
  8
1
  0
LINE
  5
45F
330
1F
100
AcDbEntity
  8
1
100
AcDbLine
 10
0.9448818897637794
 20
2.562992125984251
 30
0.0
 11
0.9448818897637794
 21
2.553149606299212
 31
0.0
  0
LINE
  5
460
330
1F
100
AcDbEntity
  8
1
100
AcDbLine
 10
0.9498031496062992
 20
2.304133858267716
 30
0.0
 11
0.9498031496062992
 21
2.299212598425196
 31
0.0
  0
POLYLINE
  5
461
330
1F
100
AcDbEntity
  8
1
100
AcDb2dPolyline
 66
     1
 10
0.0
 20
0.0
 30
0.0
  0
VERTEX
  5
462
330
461
100
AcDbEntity
  8
1
100
AcDbVertex
100
AcDb2dVertex
 10
0.9498031496062992
 20
2.299212598425196
 30
0.0
  0
VERTEX
  5
463
330
461
100
AcDbEntity
  8
1
100
AcDbVertex
100
AcDb2dVertex
 10
0.9498031496062992
 20
2.302165354330708
 30
0.0
  0
VERTEX
  5
464
330
461
100
AcDbEntity
  8
1
100
AcDbVertex
100
AcDb2dVertex
 10
0.9498031496062992
 20
2.311023622047243
 30
0.0
  0
SEQEND
  5
465
330
461
100
AcDbEntity
  8
1
  0
LINE
  5
466
330
1F
100
AcDbEntity
  8
1
100
AcDbLine
 10
0.9498031496062992
 20
2.311023622047243
 30
0.0
 11
0.9448818897637794
 21
2.585629921259842
 31
0.0
  0
POLYLINE
  5
467
330
1F
100
AcDbEntity
  8
1
100
AcDb2dPolyline
 66
     1
 10
0.0
 20
0.0
 30
0.0
  0
VERTEX
  5
468
330
467
100
AcDbEntity
  8
1
100
AcDbVertex
100
AcDb2dVertex
 10
0.9448818897637794
 20
2.585629921259842
 30
0.0
  0
VERTEX
  5
469
330
467
100
AcDbEntity
  8
1
100
AcDbVertex
100
AcDb2dVertex
 10
0.9438976377952755
 20
2.599409448818897
 30
0.0
  0
VERTEX
  5
46A
330
467
100
AcDbEntity
  8
1
100
AcDbVertex
100
AcDb2dVertex
 10
0.9438976377952755
 20
2.612204724409448
 30
0.0
  0
VERTEX
  5
46B
330
467
100
AcDbEntity
  8
1
100
AcDbVertex
100
AcDb2dVertex
 10
0.9438976377952755
 20
2.62007874015748
 30
0.0
  0
SEQEND
  5
46C
330
467
100
AcDbEntity
  8
1
  0
POLYLINE
  5
46D
330
1F
100
AcDbEntity
  8
1
100
AcDb2dPolyline
 66
     1
 10
0.0
 20
0.0
 30
0.0
  0
VERTEX
  5
46E
330
46D
100
AcDbEntity
  8
1
100
AcDbVertex
100
AcDb2dVertex
 10
0.9438976377952755
 20
2.62007874015748
 30
0.0
  0
VERTEX
  5
46F
330
46D
100
AcDbEntity
  8
1
100
AcDbVertex
100
AcDb2dVertex
 10
0.9438976377952755
 20
2.604330708661417
 30
0.0
  0
VERTEX
  5
470
330
46D
100
AcDbEntity
  8
1
100
AcDbVertex
100
AcDb2dVertex
 10
0.9448818897637794
 20
2.581692913385826
 30
0.0
  0
SEQEND
  5
471
330
46D
100
AcDbEntity
  8
1
  0
POLYLINE
  5
472
330
1F
100
AcDbEntity
  8
1
100
AcDb2dPolyline
 66
     1
 10
0.0
 20
0.0
 30
0.0
  0
VERTEX
  5
473
330
472
100
AcDbEntity
  8
1
100
AcDbVertex
100
AcDb2dVertex
 10
0.9183070866141733
 20
2.581692913385826
 30
0.0
  0
VERTEX
  5
474
330
472
100
AcDbEntity
  8
1
100
AcDbVertex
100
AcDb2dVertex
 10
0.922244094488189
 20
2.581692913385826
 30
0.0
  0
VERTEX
  5
475
330
472
100
AcDbEntity
  8
1
100
AcDbVertex
100
AcDb2dVertex
 10
0.9320866141732283
 20
2.581692913385826
 30
0.0
  0
SEQEND
  5
476
330
472
100
AcDbEntity
  8
1
  0
LINE
  5
477
330
1F
100
AcDbEntity
  8
1
100
AcDbLine
 10
0.9330708661417322
 20
2.567913385826771
 30
0.0
 11
0.9173228346456692
 21
2.567913385826771
 31
0.0
  0
LINE
  5
478
330
1F
100
AcDbEntity
  8
1
100
AcDbLine
 10
1.193897637795275
 20
2.119094488188976
 30
0.0
 11
1.195866141732283
 21
2.224409448818897
 31
0.0
  0
LINE
  5
479
330
1F
100
AcDbEntity
  8
1
100
AcDbLine
 10
1.194881889763779
 20
2.102362204724409
 30
0.0
 11
1.193897637795275
 21
2.119094488188976
 31
0.0
  0
LINE
  5
47A
330
1F
100
AcDbEntity
  8
1
100
AcDbLine
 10
1.193897637795275
 20
2.119094488188976
 30
0.0
 11
1.302165354330708
 21
2.119094488188976
 31
0.0
  0
LINE
  5
47B
330
1F
100
AcDbEntity
  8
1
100
AcDbLine
 10
1.345472440944881
 20
2.119094488188976
 30
0.0
 11
1.302165354330708
 21
2.119094488188976
 31
0.0
  0
LINE
  5
47C
330
1F
100
AcDbEntity
  8
1
100
AcDbLine
 10
1.000984251968503
 20
2.224409448818897
 30
0.0
 11
1.002952755905511
 21
2.119094488188976
 31
0.0
  0
LINE
  5
47D
330
1F
100
AcDbEntity
  8
1
100
AcDbLine
 10
0.9448818897637794
 20
2.553149606299212
 30
0.0
 11
0.9173228346456692
 21
2.553149606299212
 31
0.0
  0
LINE
  5
47E
330
1F
100
AcDbEntity
  8
1
100
AcDbLine
 10
1.002952755905511
 20
2.119094488188976
 30
0.0
 11
0.9104330708661416
 21
2.119094488188976
 31
0.0
  0
LINE
  5
47F
330
1F
100
AcDbEntity
  8
1
100
AcDbLine
 10
1.001968503937007
 20
2.102362204724409
 30
0.0
 11
1.002952755905511
 21
2.119094488188976
 31
0.0
  0
LINE
  5
480
330
1F
100
AcDbEntity
  8
1
100
AcDbLine
 10
1.34251968503937
 20
2.289370078740157
 30
0.0
 11
1.345472440944881
 21
2.119094488188976
 31
0.0
  0
LINE
  5
481
330
1F
100
AcDbEntity
  8
1
100
AcDbLine
 10
1.338582677165354
 20
2.499015748031495
 30
0.0
 11
1.34251968503937
 21
2.289370078740157
 31
0.0
  0
LINE
  5
482
330
1F
100
AcDbEntity
  8
1
100
AcDbLine
 10
1.336614173228346
 20
2.622047244094487
 30
0.0
 11
1.338582677165354
 21
2.499015748031495
 31
0.0
  0
POLYLINE
  5
483
330
1F
100
AcDbEntity
  8
1
100
AcDb2dPolyline
 66
     1
 10
0.0
 20
0.0
 30
0.0
  0
VERTEX
  5
484
330
483
100
AcDbEntity
  8
1
100
AcDbVertex
100
AcDb2dVertex
 10
1.336614173228346
 20
2.622047244094487
 30
0.0
  0
VERTEX
  5
485
330
483
100
AcDbEntity
  8
1
100
AcDbVertex
100
AcDb2dVertex
 10
1.335629921259842
 20
2.622047244094487
 30
0.0
  0
VERTEX
  5
486
330
483
100
AcDbEntity
  8
1
100
AcDbVertex
100
AcDb2dVertex
 10
1.333661417322834
 20
2.622047244094487
 30
0.0
  0
VERTEX
  5
487
330
483
100
AcDbEntity
  8
1
100
AcDbVertex
100
AcDb2dVertex
 10
1.329724409448818
 20
2.622047244094487
 30
0.0
  0
VERTEX
  5
488
330
483
100
AcDbEntity
  8
1
100
AcDbVertex
100
AcDb2dVertex
 10
1.325787401574803
 20
2.622047244094487
 30
0.0
  0
SEQEND
  5
489
330
483
100
AcDbEntity
  8
1
  0
LINE
  5
48A
330
1F
100
AcDbEntity
  8
1
100
AcDbLine
 10
1.325787401574803
 20
2.622047244094487
 30
0.0
 11
1.324803149606299
 21
2.581692913385826
 31
0.0
  0
LINE
  5
48B
330
1F
100
AcDbEntity
  8
1
100
AcDbLine
 10
1.325787401574803
 20
2.622047244094487
 30
0.0
 11
1.313976377952755
 21
2.622047244094487
 31
0.0
  0
POLYLINE
  5
48C
330
1F
100
AcDbEntity
  8
1
100
AcDb2dPolyline
 66
     1
 10
0.0
 20
0.0
 30
0.0
  0
VERTEX
  5
48D
330
48C
100
AcDbEntity
  8
1
100
AcDbVertex
100
AcDb2dVertex
 10
1.313976377952755
 20
2.622047244094487
 30
0.0
  0
VERTEX
  5
48E
330
48C
100
AcDbEntity
  8
1
100
AcDbVertex
100
AcDb2dVertex
 10
1.312007874015747
 20
2.621062992125984
 30
0.0
  0
VERTEX
  5
48F
330
48C
100
AcDbEntity
  8
1
100
AcDbVertex
100
AcDb2dVertex
 10
1.311023622047243
 20
2.62007874015748
 30
0.0
  0
SEQEND
  5
490
330
48C
100
AcDbEntity
  8
1
  0
POLYLINE
  5
491
330
1F
100
AcDbEntity
  8
1
100
AcDb2dPolyline
 66
     1
 10
0.0
 20
0.0
 30
0.0
  0
VERTEX
  5
492
330
491
100
AcDbEntity
  8
1
100
AcDbVertex
100
AcDb2dVertex
 10
0.9468503937007874
 20
2.629921259842519
 30
0.0
  0
VERTEX
  5
493
330
491
100
AcDbEntity
  8
1
100
AcDbVertex
100
AcDb2dVertex
 10
0.9498031496062992
 20
2.628937007874015
 30
0.0
  0
VERTEX
  5
494
330
491
100
AcDbEntity
  8
1
100
AcDbVertex
100
AcDb2dVertex
 10
0.951771653543307
 20
2.626968503937007
 30
0.0
  0
SEQEND
  5
495
330
491
100
AcDbEntity
  8
1
  0
POLYLINE
  5
496
330
1F
100
AcDbEntity
  8
1
100
AcDb2dPolyline
 66
     1
 10
0.0
 20
0.0
 30
0.0
  0
VERTEX
  5
497
330
496
100
AcDbEntity
  8
1
100
AcDbVertex
100
AcDb2dVertex
 10
0.951771653543307
 20
2.626968503937007
 30
0.0
  0
VERTEX
  5
498
330
496
100
AcDbEntity
  8
1
100
AcDbVertex
100
AcDb2dVertex
 10
0.951771653543307
 20
2.617125984251968
 30
0.0
  0
VERTEX
  5
499
330
496
100
AcDbEntity
  8
1
100
AcDbVertex
100
AcDb2dVertex
 10
0.951771653543307
 20
2.603346456692913
 30
0.0
  0
VERTEX
  5
49A
330
496
100
AcDbEntity
  8
1
100
AcDbVertex
100
AcDb2dVertex
 10
0.951771653543307
 20
2.585629921259842
 30
0.0
  0
SEQEND
  5
49B
330
496
100
AcDbEntity
  8
1
  0
POLYLINE
  5
49C
330
1F
100
AcDbEntity
  8
1
100
AcDb2dPolyline
 66
     1
 10
0.0
 20
0.0
 30
0.0
  0
VERTEX
  5
49D
330
49C
100
AcDbEntity
  8
1
100
AcDbVertex
100
AcDb2dVertex
 10
1.303149606299212
 20
2.585629921259842
 30
0.0
  0
VERTEX
  5
49E
330
49C
100
AcDbEntity
  8
1
100
AcDbVertex
100
AcDb2dVertex
 10
1.303149606299212
 20
2.602362204724409
 30
0.0
  0
VERTEX
  5
49F
330
49C
100
AcDbEntity
  8
1
100
AcDbVertex
100
AcDb2dVertex
 10
1.303149606299212
 20
2.617125984251968
 30
0.0
  0
VERTEX
  5
4A0
330
49C
100
AcDbEntity
  8
1
100
AcDbVertex
100
AcDb2dVertex
 10
1.304133858267716
 20
2.626968503937007
 30
0.0
  0
SEQEND
  5
4A1
330
49C
100
AcDbEntity
  8
1
  0
POLYLINE
  5
4A2
330
1F
100
AcDbEntity
  8
1
100
AcDb2dPolyline
 66
     1
 10
0.0
 20
0.0
 30
0.0
  0
VERTEX
  5
4A3
330
4A2
100
AcDbEntity
  8
1
100
AcDbVertex
100
AcDb2dVertex
 10
1.304133858267716
 20
2.626968503937007
 30
0.0
  0
VERTEX
  5
4A4
330
4A2
100
AcDbEntity
  8
1
100
AcDbVertex
100
AcDb2dVertex
 10
1.30511811023622
 20
2.628937007874015
 30
0.0
  0
VERTEX
  5
4A5
330
4A2
100
AcDbEntity
  8
1
100
AcDbVertex
100
AcDb2dVertex
 10
1.308070866141732
 20
2.629921259842519
 30
0.0
  0
SEQEND
  5
4A6
330
4A2
100
AcDbEntity
  8
1
  0
POLYLINE
  5
4A7
330
1F
100
AcDbEntity
  8
1
100
AcDb2dPolyline
 66
     1
 10
0.0
 20
0.0
 30
0.0
  0
VERTEX
  5
4A8
330
4A7
100
AcDbEntity
  8
1
100
AcDbVertex
100
AcDb2dVertex
 10
0.9438976377952755
 20
2.62007874015748
 30
0.0
  0
VERTEX
  5
4A9
330
4A7
100
AcDbEntity
  8
1
100
AcDbVertex
100
AcDb2dVertex
 10
0.9438976377952755
 20
2.621062992125984
 30
0.0
  0
VERTEX
  5
4AA
330
4A7
100
AcDbEntity
  8
1
100
AcDbVertex
100
AcDb2dVertex
 10
0.9419291338582677
 20
2.622047244094487
 30
0.0
  0
VERTEX
  5
4AB
330
4A7
100
AcDbEntity
  8
1
100
AcDbVertex
100
AcDb2dVertex
 10
0.9409448818897637
 20
2.622047244094487
 30
0.0
  0
SEQEND
  5
4AC
330
4A7
100
AcDbEntity
  8
1
  0
POLYLINE
  5
4AD
330
1F
100
AcDbEntity
  8
1
100
AcDb2dPolyline
 66
     1
 10
0.0
 20
0.0
 30
0.0
  0
VERTEX
  5
4AE
330
4AD
100
AcDbEntity
  8
1
100
AcDbVertex
100
AcDb2dVertex
 10
0.9409448818897637
 20
2.622047244094487
 30
0.0
  0
VERTEX
  5
4AF
330
4AD
100
AcDbEntity
  8
1
100
AcDbVertex
100
AcDb2dVertex
 10
0.937992125984252
 20
2.622047244094487
 30
0.0
  0
VERTEX
  5
4B0
330
4AD
100
AcDbEntity
  8
1
100
AcDbVertex
100
AcDb2dVertex
 10
0.9330708661417322
 20
2.622047244094487
 30
0.0
  0
SEQEND
  5
4B1
330
4AD
100
AcDbEntity
  8
1
  0
LINE
  5
4B2
330
1F
100
AcDbEntity
  8
1
100
AcDbLine
 10
0.9330708661417322
 20
2.622047244094487
 30
0.0
 11
0.9320866141732283
 21
2.581692913385826
 31
0.0
  0
POLYLINE
  5
4B3
330
1F
100
AcDbEntity
  8
1
100
AcDb2dPolyline
 66
     1
 10
0.0
 20
0.0
 30
0.0
  0
VERTEX
  5
4B4
330
4B3
100
AcDbEntity
  8
1
100
AcDbVertex
100
AcDb2dVertex
 10
0.9330708661417322
 20
2.622047244094487
 30
0.0
  0
VERTEX
  5
4B5
330
4B3
100
AcDbEntity
  8
1
100
AcDbVertex
100
AcDb2dVertex
 10
0.9232283464566929
 20
2.622047244094487
 30
0.0
  0
VERTEX
  5
4B6
330
4B3
100
AcDbEntity
  8
1
100
AcDbVertex
100
AcDb2dVertex
 10
0.9183070866141733
 20
2.622047244094487
 30
0.0
  0
SEQEND
  5
4B7
330
4B3
100
AcDbEntity
  8
1
  0
LINE
  5
4B8
330
1F
100
AcDbEntity
  8
1
100
AcDbLine
 10
0.9183070866141733
 20
2.622047244094487
 30
0.0
 11
0.9163385826771653
 21
2.499015748031495
 31
0.0
  0
LINE
  5
4B9
330
1F
100
AcDbEntity
  8
1
100
AcDbLine
 10
0.9163385826771653
 20
2.499015748031495
 30
0.0
 11
0.9133858267716535
 21
2.289370078740157
 31
0.0
  0
LINE
  5
4BA
330
1F
100
AcDbEntity
  8
1
100
AcDbLine
 10
0.9133858267716535
 20
2.289370078740157
 30
0.0
 11
0.9104330708661416
 21
2.119094488188976
 31
0.0
  0
LINE
  5
4BB
330
1F
100
AcDbEntity
  8
1
100
AcDbLine
 10
1.34251968503937
 20
2.289370078740157
 30
0.0
 11
1.415354330708661
 21
2.289370078740157
 31
0.0
  0
LINE
  5
4BC
330
1F
100
AcDbEntity
  8
1
100
AcDbLine
 10
0.9133858267716535
 20
2.289370078740157
 30
0.0
 11
0.8395669291338581
 21
2.289370078740157
 31
0.0
  0
POLYLINE
  5
4BD
330
1F
100
AcDbEntity
  8
1
100
AcDb2dPolyline
 66
     1
 10
0.0
 20
0.0
 30
0.0
  0
VERTEX
  5
4BE
330
4BD
100
AcDbEntity
  8
1
100
AcDbVertex
100
AcDb2dVertex
 10
0.9183070866141733
 20
2.622047244094487
 30
0.0
  0
VERTEX
  5
4BF
330
4BD
100
AcDbEntity
  8
1
100
AcDbVertex
100
AcDb2dVertex
 10
0.9163385826771653
 20
2.627952755905511
 30
0.0
  0
VERTEX
  5
4C0
330
4BD
100
AcDbEntity
  8
1
100
AcDbVertex
100
AcDb2dVertex
 10
0.9114173228346455
 20
2.629921259842519
 30
0.0
  0
SEQEND
  5
4C1
330
4BD
100
AcDbEntity
  8
1
  0
LINE
  5
4C2
330
1F
100
AcDbEntity
  8
1
100
AcDbLine
 10
0.8031496062992125
 20
2.499015748031495
 30
0.0
 11
0.8061023622047244
 21
2.629921259842519
 31
0.0
  0
LINE
  5
4C3
330
1F
100
AcDbEntity
  8
1
100
AcDbLine
 10
0.8031496062992125
 20
2.499015748031495
 30
0.0
 11
0.9163385826771653
 21
2.499015748031495
 31
0.0
  0
LINE
  5
4C4
330
1F
100
AcDbEntity
  8
1
100
AcDbLine
 10
0.8061023622047244
 20
2.375
 30
0.0
 11
0.8395669291338581
 21
2.375
 31
0.0
  0
LINE
  5
4C5
330
1F
100
AcDbEntity
  8
1
100
AcDbLine
 10
0.8031496062992125
 20
2.499015748031495
 30
0.0
 11
0.8061023622047244
 21
2.375
 31
0.0
  0
POLYLINE
  5
4C6
330
1F
100
AcDbEntity
  8
1
100
AcDb2dPolyline
 66
     1
 10
0.0
 20
0.0
 30
0.0
  0
VERTEX
  5
4C7
330
4C6
100
AcDbEntity
  8
1
100
AcDbVertex
100
AcDb2dVertex
 10
1.344488188976378
 20
2.629921259842519
 30
0.0
  0
VERTEX
  5
4C8
330
4C6
100
AcDbEntity
  8
1
100
AcDbVertex
100
AcDb2dVertex
 10
1.338582677165354
 20
2.627952755905511
 30
0.0
  0
VERTEX
  5
4C9
330
4C6
100
AcDbEntity
  8
1
100
AcDbVertex
100
AcDb2dVertex
 10
1.336614173228346
 20
2.622047244094487
 30
0.0
  0
SEQEND
  5
4CA
330
4C6
100
AcDbEntity
  8
1
  0
LINE
  5
4CB
330
1F
100
AcDbEntity
  8
1
100
AcDbLine
 10
1.451771653543307
 20
2.499015748031495
 30
0.0
 11
1.338582677165354
 21
2.499015748031495
 31
0.0
  0
LINE
  5
4CC
330
1F
100
AcDbEntity
  8
1
100
AcDbLine
 10
1.449803149606299
 20
2.629921259842519
 30
0.0
 11
1.451771653543307
 21
2.499015748031495
 31
0.0
  0
LINE
  5
4CD
330
1F
100
AcDbEntity
  8
1
100
AcDbLine
 10
1.416338582677165
 20
2.375
 30
0.0
 11
1.449803149606299
 21
2.375
 31
0.0
  0
LINE
  5
4CE
330
1F
100
AcDbEntity
  8
1
100
AcDbLine
 10
1.451771653543307
 20
2.499015748031495
 30
0.0
 11
1.449803149606299
 21
2.375
 31
0.0
  0
LINE
  5
4CF
330
1F
100
AcDbEntity
  8
1
100
AcDbLine
 10
0.8080708661417322
 20
2.741141732283464
 30
0.0
 11
0.8080708661417322
 21
2.757874015748031
 31
0.0
  0
LINE
  5
4D0
330
1F
100
AcDbEntity
  8
1
100
AcDbLine
 10
0.8533464566929133
 20
2.799212598425196
 30
0.0
 11
0.8080708661417322
 21
2.757874015748031
 31
0.0
  0
POLYLINE
  5
4D1
330
1F
100
AcDbEntity
  8
1
100
AcDb2dPolyline
 66
     1
 10
0.0
 20
0.0
 30
0.0
  0
VERTEX
  5
4D2
330
4D1
100
AcDbEntity
  8
1
100
AcDbVertex
100
AcDb2dVertex
 10
1.3001968503937
 20
2.312007874015748
 30
0.0
  0
VERTEX
  5
4D3
330
4D1
100
AcDbEntity
  8
1
100
AcDbVertex
100
AcDb2dVertex
 10
1.304133858267716
 20
2.311023622047243
 30
0.0
  0
VERTEX
  5
4D4
330
4D1
100
AcDbEntity
  8
1
100
AcDbVertex
100
AcDb2dVertex
 10
1.306102362204724
 20
2.311023622047243
 30
0.0
  0
SEQEND
  5
4D5
330
4D1
100
AcDbEntity
  8
1
  0
POLYLINE
  5
4D6
330
1F
100
AcDbEntity
  8
1
100
AcDb2dPolyline
 66
     1
 10
0.0
 20
0.0
 30
0.0
  0
VERTEX
  5
4D7
330
4D6
100
AcDbEntity
  8
1
100
AcDbVertex
100
AcDb2dVertex
 10
1.325787401574803
 20
2.622047244094487
 30
0.0
  0
VERTEX
  5
4D8
330
4D6
100
AcDbEntity
  8
1
100
AcDbVertex
100
AcDb2dVertex
 10
1.325787401574803
 20
2.625
 30
0.0
  0
VERTEX
  5
4D9
330
4D6
100
AcDbEntity
  8
1
100
AcDbVertex
100
AcDb2dVertex
 10
1.325787401574803
 20
2.626968503937007
 30
0.0
  0
VERTEX
  5
4DA
330
4D6
100
AcDbEntity
  8
1
100
AcDbVertex
100
AcDb2dVertex
 10
1.325787401574803
 20
2.628937007874015
 30
0.0
  0
VERTEX
  5
4DB
330
4D6
100
AcDbEntity
  8
1
100
AcDbVertex
100
AcDb2dVertex
 10
1.325787401574803
 20
2.629921259842519
 30
0.0
  0
VERTEX
  5
4DC
330
4D6
100
AcDbEntity
  8
1
100
AcDbVertex
100
AcDb2dVertex
 10
1.326771653543307
 20
2.629921259842519
 30
0.0
  0
SEQEND
  5
4DD
330
4D6
100
AcDbEntity
  8
1
  0
POLYLINE
  5
4DE
330
1F
100
AcDbEntity
  8
1
100
AcDb2dPolyline
 66
     1
 10
0.0
 20
0.0
 30
0.0
  0
VERTEX
  5
4DF
330
4DE
100
AcDbEntity
  8
1
100
AcDbVertex
100
AcDb2dVertex
 10
1.303149606299212
 20
2.585629921259842
 30
0.0
  0
VERTEX
  5
4E0
330
4DE
100
AcDbEntity
  8
1
100
AcDbVertex
100
AcDb2dVertex
 10
1.308070866141732
 20
2.585629921259842
 30
0.0
  0
VERTEX
  5
4E1
330
4DE
100
AcDbEntity
  8
1
100
AcDbVertex
100
AcDb2dVertex
 10
1.311023622047243
 20
2.585629921259842
 30
0.0
  0
SEQEND
  5
4E2
330
4DE
100
AcDbEntity
  8
1
  0
POLYLINE
  5
4E3
330
1F
100
AcDbEntity
  8
1
100
AcDb2dPolyline
 66
     1
 10
0.0
 20
0.0
 30
0.0
  0
VERTEX
  5
4E4
330
4E3
100
AcDbEntity
  8
1
100
AcDbVertex
100
AcDb2dVertex
 10
1.313976377952755
 20
2.622047244094487
 30
0.0
  0
VERTEX
  5
4E5
330
4E3
100
AcDbEntity
  8
1
100
AcDbVertex
100
AcDb2dVertex
 10
1.312992125984251
 20
2.627952755905511
 30
0.0
  0
VERTEX
  5
4E6
330
4E3
100
AcDbEntity
  8
1
100
AcDbVertex
100
AcDb2dVertex
 10
1.308070866141732
 20
2.629921259842519
 30
0.0
  0
SEQEND
  5
4E7
330
4E3
100
AcDbEntity
  8
1
  0
POLYLINE
  5
4E8
330
1F
100
AcDbEntity
  8
1
100
AcDb2dPolyline
 66
     1
 10
0.0
 20
0.0
 30
0.0
  0
VERTEX
  5
4E9
330
4E8
100
AcDbEntity
  8
1
100
AcDbVertex
100
AcDb2dVertex
 10
1.304133858267716
 20
2.626968503937007
 30
0.0
  0
VERTEX
  5
4EA
330
4E8
100
AcDbEntity
  8
1
100
AcDbVertex
100
AcDb2dVertex
 10
1.309055118110236
 20
2.625
 30
0.0
  0
VERTEX
  5
4EB
330
4E8
100
AcDbEntity
  8
1
100
AcDbVertex
100
AcDb2dVertex
 10
1.311023622047243
 20
2.62007874015748
 30
0.0
  0
SEQEND
  5
4EC
330
4E8
100
AcDbEntity
  8
1
  0
POLYLINE
  5
4ED
330
1F
100
AcDbEntity
  8
1
100
AcDb2dPolyline
 66
     1
 10
0.0
 20
0.0
 30
0.0
  0
VERTEX
  5
4EE
330
4ED
100
AcDbEntity
  8
1
100
AcDbVertex
100
AcDb2dVertex
 10
0.9340551181102362
 20
2.629921259842519
 30
0.0
  0
VERTEX
  5
4EF
330
4ED
100
AcDbEntity
  8
1
100
AcDbVertex
100
AcDb2dVertex
 10
0.9330708661417322
 20
2.628937007874015
 30
0.0
  0
VERTEX
  5
4F0
330
4ED
100
AcDbEntity
  8
1
100
AcDbVertex
100
AcDb2dVertex
 10
0.9330708661417322
 20
2.626968503937007
 30
0.0
  0
VERTEX
  5
4F1
330
4ED
100
AcDbEntity
  8
1
100
AcDbVertex
100
AcDb2dVertex
 10
0.9330708661417322
 20
2.625
 30
0.0
  0
VERTEX
  5
4F2
330
4ED
100
AcDbEntity
  8
1
100
AcDbVertex
100
AcDb2dVertex
 10
0.9330708661417322
 20
2.622047244094487
 30
0.0
  0
SEQEND
  5
4F3
330
4ED
100
AcDbEntity
  8
1
  0
POLYLINE
  5
4F4
330
1F
100
AcDbEntity
  8
1
100
AcDb2dPolyline
 66
     1
 10
0.0
 20
0.0
 30
0.0
  0
VERTEX
  5
4F5
330
4F4
100
AcDbEntity
  8
1
100
AcDbVertex
100
AcDb2dVertex
 10
0.9468503937007874
 20
2.629921259842519
 30
0.0
  0
VERTEX
  5
4F6
330
4F4
100
AcDbEntity
  8
1
100
AcDbVertex
100
AcDb2dVertex
 10
0.9429133858267716
 20
2.627952755905511
 30
0.0
  0
VERTEX
  5
4F7
330
4F4
100
AcDbEntity
  8
1
100
AcDbVertex
100
AcDb2dVertex
 10
0.9409448818897637
 20
2.622047244094487
 30
0.0
  0
SEQEND
  5
4F8
330
4F4
100
AcDbEntity
  8
1
  0
POLYLINE
  5
4F9
330
1F
100
AcDbEntity
  8
1
100
AcDb2dPolyline
 66
     1
 10
0.0
 20
0.0
 30
0.0
  0
VERTEX
  5
4FA
330
4F9
100
AcDbEntity
  8
1
100
AcDbVertex
100
AcDb2dVertex
 10
0.951771653543307
 20
2.626968503937007
 30
0.0
  0
VERTEX
  5
4FB
330
4F9
100
AcDbEntity
  8
1
100
AcDbVertex
100
AcDb2dVertex
 10
0.9458661417322835
 20
2.625
 30
0.0
  0
VERTEX
  5
4FC
330
4F9
100
AcDbEntity
  8
1
100
AcDbVertex
100
AcDb2dVertex
 10
0.9438976377952755
 20
2.62007874015748
 30
0.0
  0
SEQEND
  5
4FD
330
4F9
100
AcDbEntity
  8
1
  0
POLYLINE
  5
4FE
330
1F
100
AcDbEntity
  8
1
100
AcDb2dPolyline
 66
     1
 10
0.0
 20
0.0
 30
0.0
  0
VERTEX
  5
4FF
330
4FE
100
AcDbEntity
  8
1
100
AcDbVertex
100
AcDb2dVertex
 10
0.951771653543307
 20
2.585629921259842
 30
0.0
  0
VERTEX
  5
500
330
4FE
100
AcDbEntity
  8
1
100
AcDbVertex
100
AcDb2dVertex
 10
0.9468503937007874
 20
2.585629921259842
 30
0.0
  0
VERTEX
  5
501
330
4FE
100
AcDbEntity
  8
1
100
AcDbVertex
100
AcDb2dVertex
 10
0.9448818897637794
 20
2.585629921259842
 30
0.0
  0
SEQEND
  5
502
330
4FE
100
AcDbEntity
  8
1
  0
POLYLINE
  5
503
330
1F
100
AcDbEntity
  8
1
100
AcDb2dPolyline
 66
     1
 10
0.0
 20
0.0
 30
0.0
  0
VERTEX
  5
504
330
503
100
AcDbEntity
  8
1
100
AcDbVertex
100
AcDb2dVertex
 10
0.9547244094488188
 20
2.312007874015748
 30
0.0
  0
VERTEX
  5
505
330
503
100
AcDbEntity
  8
1
100
AcDbVertex
100
AcDb2dVertex
 10
0.9507874015748031
 20
2.311023622047243
 30
0.0
  0
VERTEX
  5
506
330
503
100
AcDbEntity
  8
1
100
AcDbVertex
100
AcDb2dVertex
 10
0.9498031496062992
 20
2.311023622047243
 30
0.0
  0
SEQEND
  5
507
330
503
100
AcDbEntity
  8
1
  0
POLYLINE
  5
508
330
1F
100
AcDbEntity
  8
1
100
AcDb2dPolyline
 66
     1
 10
0.0
 20
0.0
 30
0.0
  0
VERTEX
  5
509
330
508
100
AcDbEntity
  8
1
100
AcDbVertex
100
AcDb2dVertex
 10
0.9448818897637794
 20
2.562992125984251
 30
0.0
  0
VERTEX
  5
50A
330
508
100
AcDbEntity
  8
1
100
AcDbVertex
100
AcDb2dVertex
 10
0.9448818897637794
 20
2.563976377952756
 30
0.0
  0
VERTEX
  5
50B
330
508
100
AcDbEntity
  8
1
100
AcDbVertex
100
AcDb2dVertex
 10
0.9429133858267716
 20
2.565944881889763
 30
0.0
  0
VERTEX
  5
50C
330
508
100
AcDbEntity
  8
1
100
AcDbVertex
100
AcDb2dVertex
 10
0.9399606299212598
 20
2.567913385826771
 30
0.0
  0
SEQEND
  5
50D
330
508
100
AcDbEntity
  8
1
  0
POLYLINE
  5
50E
330
1F
100
AcDbEntity
  8
1
100
AcDb2dPolyline
 66
     1
 10
0.0
 20
0.0
 30
0.0
  0
VERTEX
  5
50F
330
50E
100
AcDbEntity
  8
1
100
AcDbVertex
100
AcDb2dVertex
 10
1.314960629921259
 20
2.567913385826771
 30
0.0
  0
VERTEX
  5
510
330
50E
100
AcDbEntity
  8
1
100
AcDbVertex
100
AcDb2dVertex
 10
1.312007874015747
 20
2.565944881889763
 30
0.0
  0
VERTEX
  5
511
330
50E
100
AcDbEntity
  8
1
100
AcDbVertex
100
AcDb2dVertex
 10
1.311023622047243
 20
2.563976377952756
 30
0.0
  0
VERTEX
  5
512
330
50E
100
AcDbEntity
  8
1
100
AcDbVertex
100
AcDb2dVertex
 10
1.31003937007874
 20
2.562992125984251
 30
0.0
  0
SEQEND
  5
513
330
50E
100
AcDbEntity
  8
1
  0
POLYLINE
  5
514
330
1F
100
AcDbEntity
  8
1
100
AcDb2dPolyline
 66
     1
 10
0.0
 20
0.0
 30
0.0
  0
VERTEX
  5
515
330
514
100
AcDbEntity
  8
1
100
AcDbVertex
100
AcDb2dVertex
 10
0.9448818897637794
 20
2.562992125984251
 30
0.0
  0
VERTEX
  5
516
330
514
100
AcDbEntity
  8
1
100
AcDbVertex
100
AcDb2dVertex
 10
0.9438976377952755
 20
2.565944881889763
 30
0.0
  0
VERTEX
  5
517
330
514
100
AcDbEntity
  8
1
100
AcDbVertex
100
AcDb2dVertex
 10
0.9399606299212598
 20
2.567913385826771
 30
0.0
  0
SEQEND
  5
518
330
514
100
AcDbEntity
  8
1
  0
POLYLINE
  5
519
330
1F
100
AcDbEntity
  8
1
100
AcDb2dPolyline
 66
     1
 10
0.0
 20
0.0
 30
0.0
  0
VERTEX
  5
51A
330
519
100
AcDbEntity
  8
1
100
AcDbVertex
100
AcDb2dVertex
 10
1.314960629921259
 20
2.567913385826771
 30
0.0
  0
VERTEX
  5
51B
330
519
100
AcDbEntity
  8
1
100
AcDbVertex
100
AcDb2dVertex
 10
1.312007874015747
 20
2.565944881889763
 30
0.0
  0
VERTEX
  5
51C
330
519
100
AcDbEntity
  8
1
100
AcDbVertex
100
AcDb2dVertex
 10
1.31003937007874
 20
2.562992125984251
 30
0.0
  0
SEQEND
  5
51D
330
519
100
AcDbEntity
  8
1
  0
LINE
  5
51E
330
1F
100
AcDbEntity
  8
1
100
AcDbLine
 10
1.206692913385826
 20
2.629921259842519
 30
0.0
 11
1.206692913385826
 21
2.631889763779527
 31
0.0
  0
LINE
  5
51F
330
1F
100
AcDbEntity
  8
1
100
AcDbLine
 10
1.26771653543307
 20
2.629921259842519
 30
0.0
 11
1.26771653543307
 21
2.631889763779527
 31
0.0
  0
LINE
  5
520
330
1F
100
AcDbEntity
  8
1
100
AcDbLine
 10
1.048228346456692
 20
2.629921259842519
 30
0.0
 11
1.048228346456692
 21
2.631889763779527
 31
0.0
  0
LINE
  5
521
330
1F
100
AcDbEntity
  8
1
100
AcDbLine
 10
0.9881889763779527
 20
2.629921259842519
 30
0.0
 11
0.9881889763779527
 21
2.631889763779527
 31
0.0
  0
LINE
  5
522
330
1F
100
AcDbEntity
  8
1
100
AcDbLine
 10
0.8533464566929133
 20
2.799212598425196
 30
0.0
 11
0.8779527559055118
 21
3.085629921259842
 31
0.0
  0
LINE
  5
523
330
1F
100
AcDbEntity
  8
1
100
AcDbLine
 10
0.8533464566929133
 20
2.799212598425196
 30
0.0
 11
0.9133858267716535
 21
2.799212598425196
 31
0.0
  0
LINE
  5
524
330
1F
100
AcDbEntity
  8
1
100
AcDbLine
 10
0.9232283464566929
 20
2.631889763779527
 30
0.0
 11
0.9192913385826772
 21
2.629921259842519
 31
0.0
  0
LINE
  5
525
330
1F
100
AcDbEntity
  8
1
100
AcDbLine
 10
0.9950787401574803
 20
2.631889763779527
 30
0.0
 11
0.9232283464566929
 21
2.631889763779527
 31
0.0
  0
LINE
  5
526
330
1F
100
AcDbEntity
  8
1
100
AcDbLine
 10
0.9950787401574803
 20
2.631889763779527
 30
0.0
 11
0.9950787401574803
 21
3.024606299212598
 31
0.0
  0
LINE
  5
527
330
1F
100
AcDbEntity
  8
1
100
AcDbLine
 10
0.9950787401574803
 20
3.024606299212598
 30
0.0
 11
1.274606299212598
 21
3.024606299212598
 31
0.0
  0
LINE
  5
528
330
1F
100
AcDbEntity
  8
1
100
AcDbLine
 10
1.274606299212598
 20
3.024606299212598
 30
0.0
 11
1.274606299212598
 21
2.631889763779527
 31
0.0
  0
LINE
  5
529
330
1F
100
AcDbEntity
  8
1
100
AcDbLine
 10
1.33267716535433
 20
2.631889763779527
 30
0.0
 11
1.274606299212598
 21
2.631889763779527
 31
0.0
  0
LINE
  5
52A
330
1F
100
AcDbEntity
  8
1
100
AcDbLine
 10
1.33267716535433
 20
2.631889763779527
 30
0.0
 11
1.336614173228346
 21
2.629921259842519
 31
0.0
  0
LINE
  5
52B
330
1F
100
AcDbEntity
  8
1
100
AcDbLine
 10
1.34251968503937
 20
2.799212598425196
 30
0.0
 11
1.403543307086614
 21
2.799212598425196
 31
0.0
  0
LINE
  5
52C
330
1F
100
AcDbEntity
  8
1
100
AcDbLine
 10
1.403543307086614
 20
2.799212598425196
 30
0.0
 11
1.378937007874015
 21
3.085629921259842
 31
0.0
  0
LINE
  5
52D
330
1F
100
AcDbEntity
  8
1
100
AcDbLine
 10
1.378937007874015
 20
3.085629921259842
 30
0.0
 11
0.8779527559055118
 21
3.085629921259842
 31
0.0
  0
LINE
  5
52E
330
1F
100
AcDbEntity
  8
1
100
AcDbLine
 10
0.8061023622047244
 20
2.629921259842519
 30
0.0
 11
0.9114173228346455
 21
2.629921259842519
 31
0.0
  0
LINE
  5
52F
330
1F
100
AcDbEntity
  8
1
100
AcDbLine
 10
1.449803149606299
 20
2.629921259842519
 30
0.0
 11
1.344488188976378
 21
2.629921259842519
 31
0.0
  0
LINE
  5
530
330
1F
100
AcDbEntity
  8
1
100
AcDbLine
 10
1.264763779527559
 20
2.631889763779527
 30
0.0
 11
1.274606299212598
 21
2.631889763779527
 31
0.0
  0
LINE
  5
531
330
1F
100
AcDbEntity
  8
1
100
AcDbLine
 10
1.264763779527559
 20
2.631889763779527
 30
0.0
 11
1.004921259842519
 21
2.631889763779527
 31
0.0
  0
LINE
  5
532
330
1F
100
AcDbEntity
  8
1
100
AcDbLine
 10
0.9950787401574803
 20
2.631889763779527
 30
0.0
 11
1.004921259842519
 21
2.631889763779527
 31
0.0
  0
LINE
  5
533
330
1F
100
AcDbEntity
  8
1
100
AcDbLine
 10
1.446850393700787
 20
2.757874015748031
 30
0.0
 11
1.446850393700787
 21
2.759842519685039
 31
0.0
  0
LINE
  5
534
330
1F
100
AcDbEntity
  8
1
100
AcDbLine
 10
1.449803149606299
 20
2.629921259842519
 30
0.0
 11
1.446850393700787
 21
2.757874015748031
 31
0.0
  0
LINE
  5
535
330
1F
100
AcDbEntity
  8
1
100
AcDbLine
 10
0.8061023622047244
 20
2.629921259842519
 30
0.0
 11
0.8080708661417322
 21
2.757874015748031
 31
0.0
  0
LINE
  5
536
330
1F
100
AcDbEntity
  8
1
100
AcDbLine
 10
1.317913385826771
 20
2.629921259842519
 30
0.0
 11
1.315944881889763
 21
2.631889763779527
 31
0.0
  0
LINE
  5
537
330
1F
100
AcDbEntity
  8
1
100
AcDbLine
 10
1.004921259842519
 20
2.631889763779527
 30
0.0
 11
1.004921259842519
 21
3.014763779527558
 31
0.0
  0
LINE
  5
538
330
1F
100
AcDbEntity
  8
1
100
AcDbLine
 10
1.264763779527559
 20
2.631889763779527
 30
0.0
 11
1.264763779527559
 21
3.014763779527558
 31
0.0
  0
LINE
  5
539
330
1F
100
AcDbEntity
  8
1
100
AcDbLine
 10
1.004921259842519
 20
3.014763779527558
 30
0.0
 11
1.264763779527559
 21
3.014763779527558
 31
0.0
  0
LINE
  5
53A
330
1F
100
AcDbEntity
  8
1
100
AcDbLine
 10
1.004921259842519
 20
3.014763779527558
 30
0.0
 11
0.9950787401574803
 21
3.024606299212598
 31
0.0
  0
LINE
  5
53B
330
1F
100
AcDbEntity
  8
1
100
AcDbLine
 10
1.264763779527559
 20
3.014763779527558
 30
0.0
 11
1.274606299212598
 21
3.024606299212598
 31
0.0
  0
POLYLINE
  5
53C
330
1F
100
AcDbEntity
  8
1
100
AcDb2dPolyline
 66
     1
 10
0.0
 20
0.0
 30
0.0
  0
VERTEX
  5
53D
330
53C
100
AcDbEntity
  8
1
100
AcDbVertex
100
AcDb2dVertex
 10
0.9114173228346455
 20
2.629921259842519
 30
0.0
  0
VERTEX
  5
53E
330
53C
100
AcDbEntity
  8
1
100
AcDbVertex
100
AcDb2dVertex
 10
0.9163385826771653
 20
2.631889763779527
 30
0.0
  0
VERTEX
  5
53F
330
53C
100
AcDbEntity
  8
1
100
AcDbVertex
100
AcDb2dVertex
 10
0.9183070866141733
 20
2.63779527559055
 30
0.0
  0
SEQEND
  5
540
330
53C
100
AcDbEntity
  8
1
  0
LINE
  5
541
330
1F
100
AcDbEntity
  8
1
100
AcDbLine
 10
0.9183070866141733
 20
2.63779527559055
 30
0.0
 11
0.9143700787401575
 21
2.757874015748031
 31
0.0
  0
LINE
  5
542
330
1F
100
AcDbEntity
  8
1
100
AcDbLine
 10
0.8080708661417322
 20
2.757874015748031
 30
0.0
 11
0.9143700787401575
 21
2.757874015748031
 31
0.0
  0
LINE
  5
543
330
1F
100
AcDbEntity
  8
1
100
AcDbLine
 10
0.9133858267716535
 20
2.799212598425196
 30
0.0
 11
0.9143700787401575
 21
2.757874015748031
 31
0.0
  0
LINE
  5
544
330
1F
100
AcDbEntity
  8
1
100
AcDbLine
 10
1.336614173228346
 20
2.63779527559055
 30
0.0
 11
1.340551181102362
 21
2.757874015748031
 31
0.0
  0
POLYLINE
  5
545
330
1F
100
AcDbEntity
  8
1
100
AcDb2dPolyline
 66
     1
 10
0.0
 20
0.0
 30
0.0
  0
VERTEX
  5
546
330
545
100
AcDbEntity
  8
1
100
AcDbVertex
100
AcDb2dVertex
 10
1.336614173228346
 20
2.63779527559055
 30
0.0
  0
VERTEX
  5
547
330
545
100
AcDbEntity
  8
1
100
AcDbVertex
100
AcDb2dVertex
 10
1.338582677165354
 20
2.631889763779527
 30
0.0
  0
VERTEX
  5
548
330
545
100
AcDbEntity
  8
1
100
AcDbVertex
100
AcDb2dVertex
 10
1.344488188976378
 20
2.629921259842519
 30
0.0
  0
SEQEND
  5
549
330
545
100
AcDbEntity
  8
1
  0
LINE
  5
54A
330
1F
100
AcDbEntity
  8
1
100
AcDbLine
 10
1.446850393700787
 20
2.757874015748031
 30
0.0
 11
1.340551181102362
 21
2.757874015748031
 31
0.0
  0
LINE
  5
54B
330
1F
100
AcDbEntity
  8
1
100
AcDbLine
 10
1.340551181102362
 20
2.757874015748031
 30
0.0
 11
1.34251968503937
 21
2.799212598425196
 31
0.0
  0
LINE
  5
54C
330
1F
100
AcDbEntity
  8
1
100
AcDbLine
 10
0.8080708661417322
 20
2.757874015748031
 30
0.0
 11
0.8533464566929133
 21
2.799212598425196
 31
0.0
  0
LINE
  5
54D
330
1F
100
AcDbEntity
  8
1
100
AcDbLine
 10
1.403543307086614
 20
2.799212598425196
 30
0.0
 11
1.446850393700787
 21
2.759842519685039
 31
0.0
  0
LINE
  5
54E
330
1F
100
AcDbEntity
  8
1
100
AcDbLine
 10
2.617125984251968
 20
0.9734251968503937
 30
0.0
 11
2.617125984251968
 21
0.3405511811023622
 31
0.0
  0
LINE
  5
54F
330
1F
100
AcDbEntity
  8
1
100
AcDbLine
 10
3.125984251968503
 20
0.3316929133858268
 30
0.0
 11
3.000984251968503
 21
0.3336614173228347
 31
0.0
  0
LINE
  5
550
330
1F
100
AcDbEntity
  8
1
100
AcDbLine
 10
2.617125984251968
 20
0.3405511811023622
 30
0.0
 11
3.000984251968503
 21
0.3336614173228347
 31
0.0
  0
LINE
  5
551
330
1F
100
AcDbEntity
  8
1
100
AcDbLine
 10
3.366141732283464
 20
0.5452755905511811
 30
0.0
 11
3.366141732283464
 21
0.8828740157480314
 31
0.0
  0
LINE
  5
552
330
1F
100
AcDbEntity
  8
1
100
AcDbLine
 10
2.915354330708661
 20
1.084645669291338
 30
0.0
 11
3.000984251968503
 21
1.085629921259842
 31
0.0
  0
LINE
  5
553
330
1F
100
AcDbEntity
  8
1
100
AcDbLine
 10
2.915354330708661
 20
1.084645669291338
 30
0.0
 11
2.915354330708661
 21
1.024606299212598
 31
0.0
  0
LINE
  5
554
330
1F
100
AcDbEntity
  8
1
100
AcDbLine
 10
2.915354330708661
 20
1.024606299212598
 30
0.0
 11
2.703740157480314
 21
1.009842519685039
 31
0.0
  0
LINE
  5
555
330
1F
100
AcDbEntity
  8
1
100
AcDbLine
 10
2.703740157480314
 20
1.009842519685039
 30
0.0
 11
2.617125984251968
 21
0.9734251968503937
 31
0.0
  0
LINE
  5
556
330
1F
100
AcDbEntity
  8
1
100
AcDbLine
 10
2.850393700787401
 20
1.08759842519685
 30
0.0
 11
2.850393700787401
 21
1.080708661417322
 31
0.0
  0
LINE
  5
557
330
1F
100
AcDbEntity
  8
1
100
AcDbLine
 10
2.915354330708661
 20
1.153543307086614
 30
0.0
 11
2.850393700787401
 21
1.08759842519685
 31
0.0
  0
LINE
  5
558
330
1F
100
AcDbEntity
  8
1
100
AcDbLine
 10
2.817913385826771
 20
0.3366141732283465
 30
0.0
 11
2.815944881889763
 21
0.3366141732283465
 31
0.0
  0
LINE
  5
559
330
1F
100
AcDbEntity
  8
1
100
AcDbLine
 10
2.827755905511811
 20
0.3316929133858268
 30
0.0
 11
2.817913385826771
 21
0.3366141732283465
 31
0.0
  0
LINE
  5
55A
330
1F
100
AcDbEntity
  8
1
100
AcDbLine
 10
2.941929133858267
 20
0.3297244094488189
 30
0.0
 11
2.827755905511811
 21
0.3316929133858268
 31
0.0
  0
LINE
  5
55B
330
1F
100
AcDbEntity
  8
1
100
AcDbLine
 10
2.941929133858267
 20
0.3287401574803149
 30
0.0
 11
2.941929133858267
 21
0.3297244094488189
 31
0.0
  0
LINE
  5
55C
330
1F
100
AcDbEntity
  8
1
100
AcDbLine
 10
2.941929133858267
 20
0.3297244094488189
 30
0.0
 11
2.941929133858267
 21
0.3346456692913386
 31
0.0
  0
LINE
  5
55D
330
1F
100
AcDbEntity
  8
1
100
AcDbLine
 10
3.255905511811023
 20
0.3336614173228347
 30
0.0
 11
3.255905511811023
 21
0.5305118110236221
 31
0.0
  0
LINE
  5
55E
330
1F
100
AcDbEntity
  8
1
100
AcDbLine
 10
3.255905511811023
 20
0.8976377952755905
 30
0.0
 11
3.255905511811023
 21
1.085629921259842
 31
0.0
  0
LINE
  5
55F
330
1F
100
AcDbEntity
  8
1
100
AcDbLine
 10
2.937007874015748
 20
0.327755905511811
 30
0.0
 11
2.941929133858267
 21
0.2785433070866142
 31
0.0
  0
LINE
  5
560
330
1F
100
AcDbEntity
  8
1
100
AcDbLine
 10
2.941929133858267
 20
0.3287401574803149
 30
0.0
 11
2.937007874015748
 21
0.327755905511811
 31
0.0
  0
LINE
  5
561
330
1F
100
AcDbEntity
  8
1
100
AcDbLine
 10
2.941929133858267
 20
0.2785433070866142
 30
0.0
 11
2.827755905511811
 21
0.3316929133858268
 31
0.0
  0
LINE
  5
562
330
1F
100
AcDbEntity
  8
1
100
AcDbLine
 10
3.125984251968503
 20
0.3316929133858268
 30
0.0
 11
3.255905511811023
 21
0.3336614173228347
 31
0.0
  0
POLYLINE
  5
563
330
1F
100
AcDbEntity
  8
1
100
AcDb2dPolyline
 66
     1
 10
0.0
 20
0.0
 30
0.0
  0
VERTEX
  5
564
330
563
100
AcDbEntity
  8
1
100
AcDbVertex
100
AcDb2dVertex
 10
3.125984251968503
 20
0.3316929133858268
 30
0.0
  0
VERTEX
  5
565
330
563
100
AcDbEntity
  8
1
100
AcDbVertex
100
AcDb2dVertex
 10
3.121062992125984
 20
0.3316929133858268
 30
0.0
  0
VERTEX
  5
566
330
563
100
AcDbEntity
  8
1
100
AcDbVertex
100
AcDb2dVertex
 10
3.107283464566929
 20
0.3307086614173228
 30
0.0
  0
VERTEX
  5
567
330
563
100
AcDbEntity
  8
1
100
AcDbVertex
100
AcDb2dVertex
 10
3.085629921259842
 20
0.3307086614173228
 30
0.0
  0
VERTEX
  5
568
330
563
100
AcDbEntity
  8
1
100
AcDbVertex
100
AcDb2dVertex
 10
3.058070866141732
 20
0.3307086614173228
 30
0.0
  0
VERTEX
  5
569
330
563
100
AcDbEntity
  8
1
100
AcDbVertex
100
AcDb2dVertex
 10
3.024606299212598
 20
0.3297244094488189
 30
0.0
  0
VERTEX
  5
56A
330
563
100
AcDbEntity
  8
1
100
AcDbVertex
100
AcDb2dVertex
 10
2.988188976377952
 20
0.3287401574803149
 30
0.0
  0
SEQEND
  5
56B
330
563
100
AcDbEntity
  8
1
  0
LINE
  5
56C
330
1F
100
AcDbEntity
  8
1
100
AcDbLine
 10
2.988188976377952
 20
0.3287401574803149
 30
0.0
 11
2.941929133858267
 21
0.3287401574803149
 31
0.0
  0
LINE
  5
56D
330
1F
100
AcDbEntity
  8
1
100
AcDbLine
 10
2.988188976377952
 20
0.3287401574803149
 30
0.0
 11
2.941929133858267
 21
0.3297244094488189
 31
0.0
  0
LINE
  5
56E
330
1F
100
AcDbEntity
  8
1
100
AcDbLine
 10
2.850393700787401
 20
1.080708661417322
 30
0.0
 11
2.915354330708661
 21
1.065944881889763
 31
0.0
  0
LINE
  5
56F
330
1F
100
AcDbEntity
  8
1
100
AcDbLine
 10
2.937992125984251
 20
1.154527559055118
 30
0.0
 11
2.933070866141732
 21
1.112204724409448
 31
0.0
  0
POLYLINE
  5
570
330
1F
100
AcDbEntity
  8
1
100
AcDb2dPolyline
 66
     1
 10
0.0
 20
0.0
 30
0.0
  0
VERTEX
  5
571
330
570
100
AcDbEntity
  8
1
100
AcDbVertex
100
AcDb2dVertex
 10
2.93011811023622
 20
1.153543307086614
 30
0.0
  0
VERTEX
  5
572
330
570
100
AcDbEntity
  8
1
100
AcDbVertex
100
AcDb2dVertex
 10
2.936023622047244
 20
1.154527559055118
 30
0.0
  0
VERTEX
  5
573
330
570
100
AcDbEntity
  8
1
100
AcDbVertex
100
AcDb2dVertex
 10
2.937992125984251
 20
1.154527559055118
 30
0.0
  0
SEQEND
  5
574
330
570
100
AcDbEntity
  8
1
  0
LINE
  5
575
330
1F
100
AcDbEntity
  8
1
100
AcDbLine
 10
2.915354330708661
 20
1.153543307086614
 30
0.0
 11
2.93011811023622
 21
1.153543307086614
 31
0.0
  0
LINE
  5
576
330
1F
100
AcDbEntity
  8
1
100
AcDbLine
 10
2.739173228346456
 20
1.02263779527559
 30
0.0
 11
2.911417322834645
 21
1.024606299212598
 31
0.0
  0
LINE
  5
577
330
1F
100
AcDbEntity
  8
1
100
AcDbLine
 10
2.739173228346456
 20
1.02263779527559
 30
0.0
 11
2.728346456692913
 21
1.011811023622047
 31
0.0
  0
LINE
  5
578
330
1F
100
AcDbEntity
  8
1
100
AcDbLine
 10
3.234251968503937
 20
1.086614173228346
 30
0.0
 11
3.211614173228346
 21
1.094488188976377
 31
0.0
  0
LINE
  5
579
330
1F
100
AcDbEntity
  8
1
100
AcDbLine
 10
3.211614173228346
 20
1.094488188976377
 30
0.0
 11
2.937992125984251
 21
1.099409448818897
 31
0.0
  0
POLYLINE
  5
57A
330
1F
100
AcDbEntity
  8
1
100
AcDb2dPolyline
 66
     1
 10
0.0
 20
0.0
 30
0.0
  0
VERTEX
  5
57B
330
57A
100
AcDbEntity
  8
1
100
AcDbVertex
100
AcDb2dVertex
 10
2.937992125984251
 20
1.099409448818897
 30
0.0
  0
VERTEX
  5
57C
330
57A
100
AcDbEntity
  8
1
100
AcDbVertex
100
AcDb2dVertex
 10
2.928149606299212
 20
1.103346456692913
 30
0.0
  0
VERTEX
  5
57D
330
57A
100
AcDbEntity
  8
1
100
AcDbVertex
100
AcDb2dVertex
 10
2.9251968503937
 20
1.113188976377952
 30
0.0
  0
SEQEND
  5
57E
330
57A
100
AcDbEntity
  8
1
  0
LINE
  5
57F
330
1F
100
AcDbEntity
  8
1
100
AcDbLine
 10
2.9251968503937
 20
1.113188976377952
 30
0.0
 11
2.93011811023622
 21
1.153543307086614
 31
0.0
  0
LINE
  5
580
330
1F
100
AcDbEntity
  8
1
100
AcDbLine
 10
2.937992125984251
 20
1.106299212598425
 30
0.0
 11
3.211614173228346
 21
1.101377952755905
 31
0.0
  0
POLYLINE
  5
581
330
1F
100
AcDbEntity
  8
1
100
AcDb2dPolyline
 66
     1
 10
0.0
 20
0.0
 30
0.0
  0
VERTEX
  5
582
330
581
100
AcDbEntity
  8
1
100
AcDbVertex
100
AcDb2dVertex
 10
3.211614173228346
 20
1.101377952755905
 30
0.0
  0
VERTEX
  5
583
330
581
100
AcDbEntity
  8
1
100
AcDbVertex
100
AcDb2dVertex
 10
3.230314960629921
 20
1.097440944881889
 30
0.0
  0
VERTEX
  5
584
330
581
100
AcDbEntity
  8
1
100
AcDbVertex
100
AcDb2dVertex
 10
3.24507874015748
 20
1.086614173228346
 30
0.0
  0
SEQEND
  5
585
330
581
100
AcDbEntity
  8
1
  0
LINE
  5
586
330
1F
100
AcDbEntity
  8
1
100
AcDbLine
 10
3.255905511811023
 20
1.085629921259842
 30
0.0
 11
3.125984251968503
 21
1.088582677165354
 31
0.0
  0
LINE
  5
587
330
1F
100
AcDbEntity
  8
1
100
AcDbLine
 10
3.125984251968503
 20
1.088582677165354
 30
0.0
 11
3.000984251968503
 21
1.085629921259842
 31
0.0
  0
LINE
  5
588
330
1F
100
AcDbEntity
  8
1
100
AcDbLine
 10
3.000984251968503
 20
1.085629921259842
 30
0.0
 11
3.000984251968503
 21
0.9015748031496062
 31
0.0
  0
LINE
  5
589
330
1F
100
AcDbEntity
  8
1
100
AcDbLine
 10
3.125984251968503
 20
0.8996062992125983
 30
0.0
 11
3.000984251968503
 21
0.9015748031496062
 31
0.0
  0
LINE
  5
58A
330
1F
100
AcDbEntity
  8
1
100
AcDbLine
 10
3.125984251968503
 20
0.8996062992125983
 30
0.0
 11
3.125984251968503
 21
1.088582677165354
 31
0.0
  0
LINE
  5
58B
330
1F
100
AcDbEntity
  8
1
100
AcDbLine
 10
3.255905511811023
 20
0.8976377952755905
 30
0.0
 11
3.125984251968503
 21
0.8996062992125983
 31
0.0
  0
LINE
  5
58C
330
1F
100
AcDbEntity
  8
1
100
AcDbLine
 10
3.000984251968503
 20
0.5265748031496063
 30
0.0
 11
3.125984251968503
 21
0.5285433070866141
 31
0.0
  0
LINE
  5
58D
330
1F
100
AcDbEntity
  8
1
100
AcDbLine
 10
3.125984251968503
 20
0.5285433070866141
 30
0.0
 11
3.255905511811023
 21
0.5305118110236221
 31
0.0
  0
LINE
  5
58E
330
1F
100
AcDbEntity
  8
1
100
AcDbLine
 10
3.125984251968503
 20
0.3316929133858268
 30
0.0
 11
3.125984251968503
 21
0.5285433070866141
 31
0.0
  0
LINE
  5
58F
330
1F
100
AcDbEntity
  8
1
100
AcDbLine
 10
3.000984251968503
 20
0.5265748031496063
 30
0.0
 11
3.000984251968503
 21
0.3336614173228347
 31
0.0
  0
LINE
  5
590
330
1F
100
AcDbEntity
  8
1
100
AcDbLine
 10
3.366141732283464
 20
0.5452755905511811
 30
0.0
 11
3.368110236220472
 21
0.5452755905511811
 31
0.0
  0
LINE
  5
591
330
1F
100
AcDbEntity
  8
1
100
AcDbLine
 10
3.368110236220472
 20
0.5452755905511811
 30
0.0
 11
3.368110236220472
 21
0.8828740157480314
 31
0.0
  0
LINE
  5
592
330
1F
100
AcDbEntity
  8
1
100
AcDbLine
 10
3.366141732283464
 20
0.8828740157480314
 30
0.0
 11
3.368110236220472
 21
0.8828740157480314
 31
0.0
  0
LINE
  5
593
330
1F
100
AcDbEntity
  8
1
100
AcDbLine
 10
3.385826771653543
 20
0.547244094488189
 30
0.0
 11
3.368110236220472
 21
0.5452755905511811
 31
0.0
  0
LINE
  5
594
330
1F
100
AcDbEntity
  8
1
100
AcDbLine
 10
3.385826771653543
 20
0.547244094488189
 30
0.0
 11
3.385826771653543
 21
0.8809055118110237
 31
0.0
  0
LINE
  5
595
330
1F
100
AcDbEntity
  8
1
100
AcDbLine
 10
3.385826771653543
 20
0.8809055118110237
 30
0.0
 11
3.368110236220472
 21
0.8828740157480314
 31
0.0
  0
LINE
  5
596
330
1F
100
AcDbEntity
  8
1
100
AcDbLine
 10
3.427165354330708
 20
0.8769685039370077
 30
0.0
 11
3.427165354330708
 21
0.5501968503937009
 31
0.0
  0
LINE
  5
597
330
1F
100
AcDbEntity
  8
1
100
AcDbLine
 10
3.385826771653543
 20
0.8809055118110237
 30
0.0
 11
3.427165354330708
 21
0.8769685039370077
 31
0.0
  0
LINE
  5
598
330
1F
100
AcDbEntity
  8
1
100
AcDbLine
 10
3.427165354330708
 20
0.5501968503937009
 30
0.0
 11
3.385826771653543
 21
0.547244094488189
 31
0.0
  0
LINE
  5
599
330
1F
100
AcDbEntity
  8
1
100
AcDbLine
 10
2.933070866141732
 20
1.112204724409448
 30
0.0
 11
2.937992125984251
 21
1.106299212598425
 31
0.0
  0
POLYLINE
  5
59A
330
1F
100
AcDbEntity
  8
1
100
AcDb2dPolyline
 66
     1
 10
0.0
 20
0.0
 30
0.0
  0
VERTEX
  5
59B
330
59A
100
AcDbEntity
  8
1
100
AcDbVertex
100
AcDb2dVertex
 10
2.933070866141732
 20
1.112204724409448
 30
0.0
  0
VERTEX
  5
59C
330
59A
100
AcDbEntity
  8
1
100
AcDbVertex
100
AcDb2dVertex
 10
2.931102362204724
 20
1.112204724409448
 30
0.0
  0
VERTEX
  5
59D
330
59A
100
AcDbEntity
  8
1
100
AcDbVertex
100
AcDb2dVertex
 10
2.9251968503937
 20
1.113188976377952
 30
0.0
  0
SEQEND
  5
59E
330
59A
100
AcDbEntity
  8
1
  0
POLYLINE
  5
59F
330
1F
100
AcDbEntity
  8
1
100
AcDb2dPolyline
 66
     1
 10
0.0
 20
0.0
 30
0.0
  0
VERTEX
  5
5A0
330
59F
100
AcDbEntity
  8
1
100
AcDbVertex
100
AcDb2dVertex
 10
2.937992125984251
 20
1.106299212598425
 30
0.0
  0
VERTEX
  5
5A1
330
59F
100
AcDbEntity
  8
1
100
AcDbVertex
100
AcDb2dVertex
 10
2.937992125984251
 20
1.104330708661417
 30
0.0
  0
VERTEX
  5
5A2
330
59F
100
AcDbEntity
  8
1
100
AcDbVertex
100
AcDb2dVertex
 10
2.937992125984251
 20
1.099409448818897
 30
0.0
  0
SEQEND
  5
5A3
330
59F
100
AcDbEntity
  8
1
  0
POLYLINE
  5
5A4
330
1F
100
AcDbEntity
  8
1
100
AcDb2dPolyline
 66
     1
 10
0.0
 20
0.0
 30
0.0
  0
VERTEX
  5
5A5
330
5A4
100
AcDbEntity
  8
1
100
AcDbVertex
100
AcDb2dVertex
 10
3.211614173228346
 20
1.101377952755905
 30
0.0
  0
VERTEX
  5
5A6
330
5A4
100
AcDbEntity
  8
1
100
AcDbVertex
100
AcDb2dVertex
 10
3.211614173228346
 20
1.099409448818897
 30
0.0
  0
VERTEX
  5
5A7
330
5A4
100
AcDbEntity
  8
1
100
AcDbVertex
100
AcDb2dVertex
 10
3.211614173228346
 20
1.094488188976377
 30
0.0
  0
SEQEND
  5
5A8
330
5A4
100
AcDbEntity
  8
1
  0
LINE
  5
5A9
330
1F
100
AcDbEntity
  8
1
100
AcDbLine
 10
3.366141732283464
 20
0.8848425196850392
 30
0.0
 11
3.43011811023622
 21
0.8799212598425196
 31
0.0
  0
LINE
  5
5AA
330
1F
100
AcDbEntity
  8
1
100
AcDbLine
 10
3.4251968503937
 20
1.029527559055118
 30
0.0
 11
3.711614173228346
 21
1.008858267716535
 31
0.0
  0
LINE
  5
5AB
330
1F
100
AcDbEntity
  8
1
100
AcDbLine
 10
3.255905511811023
 20
0.3336614173228347
 30
0.0
 11
3.255905511811023
 21
1.085629921259842
 31
0.0
  0
LINE
  5
5AC
330
1F
100
AcDbEntity
  8
1
100
AcDbLine
 10
3.385826771653543
 20
0.5413385826771654
 30
0.0
 11
3.366141732283464
 21
0.5423228346456694
 31
0.0
  0
LINE
  5
5AD
330
1F
100
AcDbEntity
  8
1
100
AcDbLine
 10
3.366141732283464
 20
0.5423228346456694
 30
0.0
 11
3.366141732283464
 21
0.8848425196850392
 31
0.0
  0
LINE
  5
5AE
330
1F
100
AcDbEntity
  8
1
100
AcDbLine
 10
3.366141732283464
 20
0.8848425196850392
 30
0.0
 11
3.385826771653543
 21
0.8858267716535433
 31
0.0
  0
LINE
  5
5AF
330
1F
100
AcDbEntity
  8
1
100
AcDbLine
 10
3.385826771653543
 20
0.8858267716535433
 30
0.0
 11
3.385826771653543
 21
1.081692913385826
 31
0.0
  0
LINE
  5
5B0
330
1F
100
AcDbEntity
  8
1
100
AcDbLine
 10
3.383858267716535
 20
1.083661417322834
 30
0.0
 11
3.385826771653543
 21
1.081692913385826
 31
0.0
  0
LINE
  5
5B1
330
1F
100
AcDbEntity
  8
1
100
AcDbLine
 10
3.255905511811023
 20
1.085629921259842
 30
0.0
 11
3.383858267716535
 21
1.083661417322834
 31
0.0
  0
LINE
  5
5B2
330
1F
100
AcDbEntity
  8
1
100
AcDbLine
 10
3.255905511811023
 20
0.3336614173228347
 30
0.0
 11
3.385826771653543
 21
0.3346456692913386
 31
0.0
  0
LINE
  5
5B3
330
1F
100
AcDbEntity
  8
1
100
AcDbLine
 10
3.385826771653543
 20
0.5413385826771654
 30
0.0
 11
3.385826771653543
 21
0.3346456692913386
 31
0.0
  0
LINE
  5
5B4
330
1F
100
AcDbEntity
  8
1
100
AcDbLine
 10
3.711614173228346
 20
0.3375984251968504
 30
0.0
 11
3.4251968503937
 21
0.3356299212598425
 31
0.0
  0
LINE
  5
5B5
330
1F
100
AcDbEntity
  8
1
100
AcDbLine
 10
3.4251968503937
 20
0.3356299212598425
 30
0.0
 11
3.385826771653543
 21
0.3346456692913386
 31
0.0
  0
LINE
  5
5B6
330
1F
100
AcDbEntity
  8
1
100
AcDbLine
 10
3.711614173228346
 20
0.3375984251968504
 30
0.0
 11
3.711614173228346
 21
1.008858267716535
 31
0.0
  0
LINE
  5
5B7
330
1F
100
AcDbEntity
  8
1
100
AcDbLine
 10
3.43011811023622
 20
0.548228346456693
 30
0.0
 11
3.366141732283464
 21
0.5423228346456694
 31
0.0
  0
LINE
  5
5B8
330
1F
100
AcDbEntity
  8
1
100
AcDbLine
 10
3.4251968503937
 20
0.5393700787401575
 30
0.0
 11
3.4251968503937
 21
0.3356299212598425
 31
0.0
  0
LINE
  5
5B9
330
1F
100
AcDbEntity
  8
1
100
AcDbLine
 10
3.4251968503937
 20
1.029527559055118
 30
0.0
 11
3.4251968503937
 21
0.8877952755905511
 31
0.0
  0
LINE
  5
5BA
330
1F
100
AcDbEntity
  8
1
100
AcDbLine
 10
3.43011811023622
 20
0.8799212598425196
 30
0.0
 11
3.43011811023622
 21
0.548228346456693
 31
0.0
  0
LINE
  5
5BB
330
1F
100
AcDbEntity
  8
1
100
AcDbLine
 10
3.4251968503937
 20
0.8877952755905511
 30
0.0
 11
3.385826771653543
 21
0.8858267716535433
 31
0.0
  0
LINE
  5
5BC
330
1F
100
AcDbEntity
  8
1
100
AcDbLine
 10
3.417322834645669
 20
1.040354330708661
 30
0.0
 11
3.641732283464566
 21
1.024606299212598
 31
0.0
  0
LINE
  5
5BD
330
1F
100
AcDbEntity
  8
1
100
AcDbLine
 10
3.641732283464566
 20
1.024606299212598
 30
0.0
 11
3.650590551181102
 21
1.013779527559055
 31
0.0
  0
LINE
  5
5BE
330
1F
100
AcDbEntity
  8
1
100
AcDbLine
 10
3.4251968503937
 20
0.5393700787401575
 30
0.0
 11
3.385826771653543
 21
0.5413385826771654
 31
0.0
  0
LINE
  5
5BF
330
1F
100
AcDbEntity
  8
1
100
AcDbLine
 10
3.4251968503937
 20
1.029527559055118
 30
0.0
 11
3.385826771653543
 21
1.081692913385826
 31
0.0
  0
ENDSEC
  0
SECTION
  2
OBJECTS
  0
DICTIONARY
  5
C
330
0
100
AcDbDictionary
281
     1
  3
ACAD_COLOR
350
5C7
  3
ACAD_GROUP
350
D
  3
ACAD_IMAGE_DICT
350
5A
  3
ACAD_LAYOUT
350
1A
  3
ACAD_MATERIAL
350
5C3
  3
ACAD_MLEADERSTYLE
350
5C1
  3
ACAD_MLINESTYLE
350
17
  3
ACAD_PLOTSETTINGS
350
19
  3
ACAD_PLOTSTYLENAME
350
E
  3
ACAD_TABLESTYLE
350
5C0
  3
ACAD_VISUALSTYLE
350
2A
  3
AcDbVariableDictionary
350
5CB
  0
DICTIONARY
  5
5C7
102
{ACAD_REACTORS
330
C
102
}
330
C
100
AcDbDictionary
281
     1
  0
DICTIONARY
  5
D
102
{ACAD_REACTORS
330
C
102
}
330
C
100
AcDbDictionary
281
     1
  0
DICTIONARY
  5
5A
102
{ACAD_REACTORS
330
C
102
}
330
C
100
AcDbDictionary
281
     1
  0
DICTIONARY
  5
1A
102
{ACAD_REACTORS
330
C
102
}
330
C
100
AcDbDictionary
281
     1
  3
Layout1
350
1E
  3
Layout2
350
26
  3
Model
350
22
  0
DICTIONARY
  5
5C3
102
{ACAD_REACTORS
330
C
102
}
330
C
100
AcDbDictionary
281
     1
  3
ByBlock
350
5C5
  3
ByLayer
350
5C4
  3
Global
350
5C6
  0
DICTIONARY
  5
5C1
102
{ACAD_REACTORS
330
C
102
}
330
C
100
AcDbDictionary
281
     1
  0
DICTIONARY
  5
17
102
{ACAD_REACTORS
330
C
102
}
330
C
100
AcDbDictionary
281
     1
  3
Standard
350
18
  0
DICTIONARY
  5
19
102
{ACAD_REACTORS
330
C
102
}
330
C
100
AcDbDictionary
281
     1
  0
ACDBDICTIONARYWDFLT
  5
E
102
{ACAD_REACTORS
330
C
102
}
330
C
100
AcDbDictionary
281
     1
  3
Normal
350
F
100
AcDbDictionaryWithDefault
340
F
  0
DICTIONARY
  5
5C0
102
{ACAD_REACTORS
330
C
102
}
330
C
100
AcDbDictionary
281
     1
  3
Standard
350
5C8
  0
DICTIONARY
  5
2A
102
{ACAD_REACTORS
330
C
102
}
330
C
100
AcDbDictionary
281
     1
  3
2dWireframe
350
2F
  3
3D Hidden
350
31
  3
3dWireframe
350
30
  3
Basic
350
32
  3
Brighten
350
36
  3
ColorChange
350
3A
  3
Conceptual
350
34
  3
Dim
350
35
  3
Facepattern
350
39
  3
Flat
350
2B
  3
FlatWithEdges
350
2C
  3
Gouraud
350
2D
  3
GouraudWithEdges
350
2E
  3
Linepattern
350
38
  3
Realistic
350
33
  3
Thicken
350
37
  0
DICTIONARY
  5
5CB
102
{ACAD_REACTORS
330
C
102
}
330
C
100
AcDbDictionary
281
     1
  3
CTABLESTYLE
350
5CC
  0
LAYOUT
  5
1E
102
{ACAD_REACTORS
330
1A
102
}
330
1A
100
AcDbPlotSettings
  1

  2
none_device
  4

  6

 40
0.0
 41
0.0
 42
0.0
 43
0.0
 44
0.0
 45
0.0
 46
0.0
 47
0.0
 48
0.0
 49
0.0
140
0.0
141
0.0
142
1.0
143
1.0
 70
   688
 72
     0
 73
     0
 74
     5
  7

 75
    16
147
1.0
 76
     0
 77
     2
 78
   300
148
0.0
149
0.0
100
AcDbLayout
  1
Layout1
 70
     1
 71
     1
 10
0.0
 20
0.0
 11
12.0
 21
9.0
 12
0.0
 22
0.0
 32
0.0
 14
1.000000000000000E+20
 24
1.000000000000000E+20
 34
1.000000000000000E+20
 15
-1.000000000000000E+20
 25
-1.000000000000000E+20
 35
-1.000000000000000E+20
146
0.0
 13
0.0
 23
0.0
 33
0.0
 16
1.0
 26
0.0
 36
0.0
 17
0.0
 27
1.0
 37
0.0
 76
     0
330
1B
  0
LAYOUT
  5
26
102
{ACAD_REACTORS
330
1A
102
}
330
1A
100
AcDbPlotSettings
  1

  2
none_device
  4

  6

 40
0.0
 41
0.0
 42
0.0
 43
0.0
 44
0.0
 45
0.0
 46
0.0
 47
0.0
 48
0.0
 49
0.0
140
0.0
141
0.0
142
1.0
143
1.0
 70
   688
 72
     0
 73
     0
 74
     5
  7

 75
    16
147
1.0
 76
     0
 77
     2
 78
   300
148
0.0
149
0.0
100
AcDbLayout
  1
Layout2
 70
     1
 71
     2
 10
0.0
 20
0.0
 11
0.0
 21
0.0
 12
0.0
 22
0.0
 32
0.0
 14
0.0
 24
0.0
 34
0.0
 15
0.0
 25
0.0
 35
0.0
146
0.0
 13
0.0
 23
0.0
 33
0.0
 16
1.0
 26
0.0
 36
0.0
 17
0.0
 27
1.0
 37
0.0
 76
     0
330
23
  0
LAYOUT
  5
22
102
{ACAD_REACTORS
330
1A
102
}
330
1A
100
AcDbPlotSettings
  1

  2
none_device
  4

  6

 40
0.0
 41
0.0
 42
0.0
 43
0.0
 44
0.0
 45
0.0
 46
0.0
 47
0.0
 48
0.0
 49
0.0
140
0.0
141
0.0
142
1.0
143
1.0
 70
  1712
 72
     0
 73
     0
 74
     0
  7

 75
     0
147
1.0
 76
     0
 77
     2
 78
   300
148
0.0
149
0.0
100
AcDbLayout
  1
Model
 70
     1
 71
     0
 10
0.0
 20
0.0
 11
12.0
 21
9.0
 12
0.0
 22
0.0
 32
0.0
 14
1.000000000000000E+20
 24
1.000000000000000E+20
 34
1.000000000000000E+20
 15
-1.000000000000000E+20
 25
-1.000000000000000E+20
 35
-1.000000000000000E+20
146
0.0
 13
0.0
 23
0.0
 33
0.0
 16
1.0
 26
0.0
 36
0.0
 17
0.0
 27
1.0
 37
0.0
 76
     0
330
1F
331
29
  0
MATERIAL
  5
5C5
102
{ACAD_REACTORS
330
5C3
102
}
330
5C3
100
AcDbMaterial
  1
ByBlock
  0
MATERIAL
  5
5C4
102
{ACAD_REACTORS
330
5C3
102
}
330
5C3
100
AcDbMaterial
  1
ByLayer
  0
MATERIAL
  5
5C6
102
{ACAD_REACTORS
330
5C3
102
}
330
5C3
100
AcDbMaterial
  1
Global
  0
MLINESTYLE
  5
18
102
{ACAD_REACTORS
330
17
102
}
330
17
100
AcDbMlineStyle
  2
STANDARD
 70
     0
  3

 62
   256
 51
90.0
 52
90.0
 71
     2
 49
0.5
 62
   256
  6
BYLAYER
 49
-0.5
 62
   256
  6
BYLAYER
  0
ACDBPLACEHOLDER
  5
F
102
{ACAD_REACTORS
330
E
102
}
330
E
  0
TABLESTYLE
  5
5C8
102
{ACAD_REACTORS
330
5C0
102
}
330
5C0
100
AcDbTableStyle
  3
Standard
 70
     0
 71
     0
 40
0.06
 41
0.06
280
     0
281
     0
  7
Standard
140
0.18
170
     2
 62
     0
 63
     7
283
     0
 90
      512
 91
        0
  1

274
    -2
284
     1
 64
     0
275
    -2
285
     1
 65
     0
276
    -2
286
     1
 66
     0
277
    -2
287
     1
 67
     0
278
    -2
288
     1
 68
     0
279
    -2
289
     1
 69
     0
  7
Standard
140
0.25
170
     5
 62
     0
 63
     7
283
     0
 90
      512
 91
        0
  1

274
    -2
284
     1
 64
     0
275
    -2
285
     1
 65
     0
276
    -2
286
     1
 66
     0
277
    -2
287
     1
 67
     0
278
    -2
288
     1
 68
     0
279
    -2
289
     1
 69
     0
  7
Standard
140
0.18
170
     5
 62
     0
 63
     7
283
     0
 90
      512
 91
        0
  1

274
    -2
284
     1
 64
     0
275
    -2
285
     1
 65
     0
276
    -2
286
     1
 66
     0
277
    -2
287
     1
 67
     0
278
    -2
288
     1
 68
     0
279
    -2
289
     1
 69
     0
  0
VISUALSTYLE
  5
2F
102
{ACAD_REACTORS
330
2A
102
}
330
2A
100
AcDbVisualStyle
  2
2dWireframe
 70
     4
 71
     0
 72
     2
 73
     0
 90
        0
 40
-0.6
 41
-30.0
 62
     5
 63
     7
 74
     1
 91
        4
 64
     7
 65
   257
 75
     1
175
     1
 42
1.0
 92
        0
 66
   257
 43
1.0
 76
     1
 77
     6
 78
     2
 67
     7
 79
     5
170
     0
171
     0
290
     0
174
     0
 93
        1
 44
0.0
173
     0
291
     0
 45
0.0
  0
VISUALSTYLE
  5
31
102
{ACAD_REACTORS
330
2A
102
}
330
2A
100
AcDbVisualStyle
  2
3D Hidden
 70
     6
 71
     1
 72
     2
 73
     2
 90
        0
 40
-0.6
 41
-30.0
 62
     5
 63
     7
 74
     2
 91
        2
 64
     7
 65
   257
 75
     2
175
     1
 42
40.0
 92
        0
 66
   257
 43
1.0
 76
     1
 77
     6
 78
     2
 67
     7
 79
     3
170
     0
171
     0
290
     0
174
     0
 93
        1
 44
0.0
173
     0
291
     0
 45
0.0
  0
VISUALSTYLE
  5
30
102
{ACAD_REACTORS
330
2A
102
}
330
2A
100
AcDbVisualStyle
  2
3dWireframe
 70
     5
 71
     0
 72
     2
 73
     0
 90
        0
 40
-0.6
 41
-30.0
 62
     5
 63
     7
 74
     1
 91
        4
 64
     7
 65
   257
 75
     1
175
     1
 42
1.0
 92
        0
 66
   257
 43
1.0
 76
     1
 77
     6
 78
     2
 67
     7
 79
     5
170
     0
171
     0
290
     0
174
     0
 93
        1
 44
0.0
173
     0
291
     0
 45
0.0
  0
VISUALSTYLE
  5
32
102
{ACAD_REACTORS
330
2A
102
}
330
2A
100
AcDbVisualStyle
  2
Basic
 70
     7
 71
     1
 72
     0
 73
     1
 90
        0
 40
-0.6
 41
-30.0
 62
     5
 63
     7
 74
     0
 91
        4
 64
     7
 65
   257
 75
     1
175
     1
 42
1.0
 92
        8
 66
     7
 43
1.0
 76
     1
 77
     6
 78
     2
 67
     7
 79
     5
170
     0
171
     0
290
     0
174
     0
 93
        1
 44
0.0
173
     0
291
     1
 45
0.0
  0
VISUALSTYLE
  5
36
102
{ACAD_REACTORS
330
2A
102
}
330
2A
100
AcDbVisualStyle
  2
Brighten
 70
    12
 71
     2
 72
     2
 73
     0
 90
        0
 40
-0.6
 41
-30.0
 62
     5
 63
     7
 74
     1
 91
        4
 64
     7
 65
   257
 75
     1
175
     1
 42
1.0
 92
        8
 66
     7
 43
1.0
 76
     1
 77
     6
 78
     2
 67
     7
 79
     5
170
     0
171
     0
290
     0
174
     0
 93
        1
 44
50.0
173
     0
291
     1
 45
0.0
  0
VISUALSTYLE
  5
3A
102
{ACAD_REACTORS
330
2A
102
}
330
2A
100
AcDbVisualStyle
  2
ColorChange
 70
    16
 71
     2
 72
     2
 73
     3
 90
        0
 40
-0.6
 41
-30.0
 62
     5
 63
     8
 74
     1
 91
        4
 64
     7
 65
   257
 75
     1
175
     1
 42
1.0
 92
        8
 66
     8
 43
1.0
 76
     1
 77
     6
 78
     2
 67
     7
 79
     5
170
     0
171
     0
290
     0
174
     0
 93
        1
 44
0.0
173
     0
291
     1
 45
0.0
  0
VISUALSTYLE
  5
34
102
{ACAD_REACTORS
330
2A
102
}
330
2A
100
AcDbVisualStyle
  2
Conceptual
 70
     9
 71
     3
 72
     2
 73
     0
 90
        0
 40
-0.6
 41
-30.0
 62
     5
 63
     7
 74
     2
 91
        2
 64
     7
 65
   257
 75
     1
175
     1
 42
40.0
 92
        8
 66
     7
 43
1.0
 76
     1
 77
     6
 78
     2
 67
     7
 79
     3
170
     0
171
     0
290
     0
174
     0
 93
        1
 44
0.0
173
     0
291
     0
 45
0.0
  0
VISUALSTYLE
  5
35
102
{ACAD_REACTORS
330
2A
102
}
330
2A
100
AcDbVisualStyle
  2
Dim
 70
    11
 71
     2
 72
     2
 73
     0
 90
        0
 40
-0.6
 41
-30.0
 62
     5
 63
     7
 74
     1
 91
        4
 64
     7
 65
   257
 75
     1
175
     1
 42
1.0
 92
        8
 66
     7
 43
1.0
 76
     1
 77
     6
 78
     2
 67
     7
 79
     5
170
     0
171
     0
290
     0
174
     0
 93
        1
 44
-50.0
173
     0
291
     1
 45
0.0
  0
VISUALSTYLE
  5
39
102
{ACAD_REACTORS
330
2A
102
}
330
2A
100
AcDbVisualStyle
  2
Facepattern
 70
    15
 71
     2
 72
     2
 73
     0
 90
        0
 40
-0.6
 41
-30.0
 62
     5
 63
     7
 74
     1
 91
        4
 64
     7
 65
   257
 75
     1
175
     1
 42
1.0
 92
        8
 66
     7
 43
1.0
 76
     1
 77
     6
 78
     2
 67
     7
 79
     5
170
     0
171
     0
290
     0
174
     0
 93
        1
 44
0.0
173
     0
291
     1
 45
0.0
  0
VISUALSTYLE
  5
2B
102
{ACAD_REACTORS
330
2A
102
}
330
2A
100
AcDbVisualStyle
  2
Flat
 70
     0
 71
     2
 72
     1
 73
     1
 90
        2
 40
-0.6
 41
30.0
 62
     5
 63
     7
 74
     0
 91
        4
 64
     7
 65
   257
 75
     1
175
     1
 42
1.0
 92
        8
 66
     7
 43
1.0
 76
     1
 77
     6
 78
     2
 67
     7
 79
     5
170
     0
171
     0
290
     0
174
     0
 93
       13
 44
0.0
173
     0
291
     1
 45
0.0
  0
VISUALSTYLE
  5
2C
102
{ACAD_REACTORS
330
2A
102
}
330
2A
100
AcDbVisualStyle
  2
FlatWithEdges
 70
     1
 71
     2
 72
     1
 73
     1
 90
        2
 40
-0.6
 41
30.0
 62
     5
 63
     7
 74
     1
 91
        4
 64
     7
 65
   257
 75
     1
175
     1
 42
1.0
 92
        0
 66
   257
 43
1.0
 76
     1
 77
     6
 78
     2
 67
     7
 79
     5
170
     0
171
     0
290
     0
174
     0
 93
       13
 44
0.0
173
     0
291
     1
 45
0.0
  0
VISUALSTYLE
  5
2D
102
{ACAD_REACTORS
330
2A
102
}
330
2A
100
AcDbVisualStyle
  2
Gouraud
 70
     2
 71
     2
 72
     2
 73
     1
 90
        2
 40
-0.6
 41
30.0
 62
     5
 63
     7
 74
     0
 91
        4
 64
     7
 65
   257
 75
     1
175
     1
 42
1.0
 92
        0
 66
     7
 43
1.0
 76
     1
 77
     6
 78
     2
 67
     7
 79
     5
170
     0
171
     0
290
     0
174
     0
 93
       13
 44
0.0
173
     0
291
     1
 45
0.0
  0
VISUALSTYLE
  5
2E
102
{ACAD_REACTORS
330
2A
102
}
330
2A
100
AcDbVisualStyle
  2
GouraudWithEdges
 70
     3
 71
     2
 72
     2
 73
     1
 90
        2
 40
-0.6
 41
30.0
 62
     5
 63
     7
 74
     1
 91
        4
 64
     7
 65
   257
 75
     1
175
     1
 42
1.0
 92
        0
 66
   257
 43
1.0
 76
     1
 77
     6
 78
     2
 67
     7
 79
     5
170
     0
171
     0
290
     0
174
     0
 93
       13
 44
0.0
173
     0
291
     1
 45
0.0
  0
VISUALSTYLE
  5
38
102
{ACAD_REACTORS
330
2A
102
}
330
2A
100
AcDbVisualStyle
  2
Linepattern
 70
    14
 71
     2
 72
     2
 73
     0
 90
        0
 40
-0.6
 41
-30.0
 62
     5
 63
     7
 74
     1
 91
        4
 64
     7
 65
   257
 75
     7
175
     7
 42
1.0
 92
        8
 66
     7
 43
1.0
 76
     1
 77
     6
 78
     2
 67
     7
 79
     5
170
     0
171
     0
290
     0
174
     0
 93
        1
 44
0.0
173
     0
291
     1
 45
0.0
  0
VISUALSTYLE
  5
33
102
{ACAD_REACTORS
330
2A
102
}
330
2A
100
AcDbVisualStyle
  2
Realistic
 70
     8
 71
     2
 72
     2
 73
     0
 90
        0
 40
-0.6
 41
-30.0
 62
     5
 63
     7
 74
     1
 91
        0
 64
     7
 65
   257
 75
     1
175
     1
 42
1.0
 92
        8
 66
     8
 43
1.0
 76
     1
 77
     6
 78
     2
 67
     7
 79
     5
170
     0
171
     0
290
     0
174
     0
 93
       13
 44
0.0
173
     0
291
     0
 45
0.0
  0
VISUALSTYLE
  5
37
102
{ACAD_REACTORS
330
2A
102
}
330
2A
100
AcDbVisualStyle
  2
Thicken
 70
    13
 71
     2
 72
     2
 73
     0
 90
        0
 40
-0.6
 41
-30.0
 62
     5
 63
     7
 74
     1
 91
        4
 64
     7
 65
   257
 75
     1
175
     1
 42
1.0
 92
       12
 66
     7
 43
1.0
 76
     1
 77
     6
 78
     2
 67
     7
 79
     5
170
     0
171
     0
290
     0
174
     0
 93
        1
 44
0.0
173
     0
291
     1
 45
0.0
  0
DICTIONARYVAR
  5
5CC
102
{ACAD_REACTORS
330
5CB
102
}
330
5CB
100
DictionaryVariables
280
     0
  1
STANDARD
  0
ENDSEC
  0
EOF
