  0
SECTION
  2
HEADER
  9
$ACADVER
  1
AC1015
  9
$ACADMAINTVER
 70
    20
  9
$DWGCODEPAGE
  3
ANSI_1252
  9
$INSBASE
 10
0.0
 20
0.0
 30
0.0
  9
$EXTMIN
 10
-0.5
 20
-0.5
 30
-0.5
  9
$EXTMAX
 10
5.0
 20
5.0
 30
5.0
  9
$LIMMIN
 10
-0.5
 20
-0.5
  9
$LIMMAX
 10
5.0
 20
5.0
  9
$ORTHOMODE
 70
     0
  9
$REGENMODE
 70
     1
  9
$FILLMODE
 70
     1
  9
$QTEXTMODE
 70
     0
  9
$MIRRTEXT
 70
     1
  9
$LTSCALE
 40
1.0
  9
$ATTMODE
 70
     1
  9
$TEXTSIZE
 40
0.0
  9
$TRACEWID
 40
0.05
  9
$TEXTSTYLE
  7
Standard
  9
$CLAYER
  8
0
  9
$CELTYPE
  6
Continuous
  9
$CECOLOR
 62
   256
  9
$CELTSCALE
 40
1.0
  9
$DISPSILH
 70
     0
  9
$DIMSCALE
 40
1.0
  9
$DIMASZ
 40
0.18
  9
$DIMEXO
 40
0.0625
  9
$DIMDLI
 40
0.38
  9
$DIMRND
 40
0.0
  9
$DIMDLE
 40
0.0
  9
$DIMEXE
 40
0.18
  9
$DIMTP
 40
0.0
  9
$DIMTM
 40
0.0
  9
$DIMTXT
 40
0.18
  9
$DIMCEN
 40
0.09
  9
$DIMTSZ
 40
0.0
  9
$DIMTOL
 70
     0
  9
$DIMLIM
 70
     0
  9
$DIMTIH
 70
     1
  9
$DIMTOH
 70
     1
  9
$DIMSE1
 70
     0
  9
$DIMSE2
 70
     0
  9
$DIMTAD
 70
     0
  9
$DIMZIN
 70
     0
  9
$DIMBLK
  1

  9
$DIMASO
 70
     1
  9
$DIMSHO
 70
     1
  9
$DIMPOST
  1

  9
$DIMAPOST
  1

  9
$DIMALT
 70
     0
  9
$DIMALTD
 70
     2
  9
$DIMALTF
 40
25.4
  9
$DIMLFAC
 40
1.0
  9
$DIMTOFL
 70
     0
  9
$DIMTVP
 40
0.0
  9
$DIMTIX
 70
     0
  9
$DIMSOXD
 70
     0
  9
$DIMSAH
 70
     0
  9
$DIMBLK1
  1

  9
$DIMBLK2
  1

  9
$DIMSTYLE
  2
Standard
  9
$DIMCLRD
 70
     0
  9
$DIMCLRE
 70
     0
  9
$DIMCLRT
 70
     0
  9
$DIMTFAC
 40
1.0
  9
$DIMGAP
 40
0.09
  9
$DIMJUST
 70
     0
  9
$DIMSD1
 70
     0
  9
$DIMSD2
 70
     0
  9
$DIMTOLJ
 70
     1
  9
$DIMTZIN
 70
     0
  9
$DIMALTZ
 70
     0
  9
$DIMALTTZ
 70
     0
  9
$DIMUPT
 70
     0
  9
$DIMDEC
 70
     4
  9
$DIMTDEC
 70
     4
  9
$DIMALTU
 70
     2
  9
$DIMALTTD
 70
     2
  9
$DIMTXSTY
  7
Standard
  9
$DIMAUNIT
 70
     0
  9
$DIMADEC
 70
     0
  9
$DIMALTRND
 40
0.0
  9
$DIMAZIN
 70
     0
  9
$DIMDSEP
 70
     0
  9
$DIMATFIT
 70
     3
  9
$DIMFRAC
 70
     0
  9
$DIMLDRBLK
  1

  9
$DIMLUNIT
 70
     2
  9
$DIMLWD
 70
     0
  9
$DIMLWE
 70
     0
  9
$DIMTMOVE
 70
     0
  9
$LUNITS
 70
     2
  9
$LUPREC
 70
     4
  9
$SKETCHINC
 40
0.1
  9
$FILLETRAD
 40
0.0
  9
$AUNITS
 70
     0
  9
$AUPREC
 70
     0
  9
$MENU
  1
acad
  9
$ELEVATION
 40
0.0
  9
$PELEVATION
 40
0.0
  9
$THICKNESS
 40
0.0
  9
$LIMCHECK
 70
     0
  9
$CHAMFERA
 40
0.0
  9
$CHAMFERB
 40
0.0
  9
$CHAMFERC
 40
0.0
  9
$CHAMFERD
 40
0.0
  9
$SKPOLY
 70
     0
  9
$TDCREATE
 40
2455723.464555845
  9
$TDUCREATE
 40
2455723.672889178
  9
$TDUPDATE
 40
2455723.465057199
  9
$TDUUPDATE
 40
2455723.673390532
  9
$TDINDWG
 40
0.0005062269
  9
$TDUSRTIMER
 40
0.0005062269
  9
$USRTIMER
 70
     1
  9
$ANGBASE
 50
0.0
  9
$ANGDIR
 70
     0
  9
$PDMODE
 70
     0
  9
$PDSIZE
 40
0.0
  9
$PLINEWID
 40
0.0
  9
$SPLFRAME
 70
     0
  9
$SPLINETYPE
 70
     6
  9
$SPLINESEGS
 70
     8
  9
$HANDSEED
  5
565
  9
$SURFTAB1
 70
     6
  9
$SURFTAB2
 70
     6
  9
$SURFTYPE
 70
     6
  9
$SURFU
 70
     6
  9
$SURFV
 70
     6
  9
$UCSBASE
  2

  9
$UCSNAME
  2

  9
$UCSORG
 10
0.0
 20
0.0
 30
0.0
  9
$UCSXDIR
 10
1.0
 20
0.0
 30
0.0
  9
$UCSYDIR
 10
0.0
 20
1.0
 30
0.0
  9
$UCSORTHOREF
  2

  9
$UCSORTHOVIEW
 70
     0
  9
$UCSORGTOP
 10
0.0
 20
0.0
 30
0.0
  9
$UCSORGBOTTOM
 10
0.0
 20
0.0
 30
0.0
  9
$UCSORGLEFT
 10
0.0
 20
0.0
 30
0.0
  9
$UCSORGRIGHT
 10
0.0
 20
0.0
 30
0.0
  9
$UCSORGFRONT
 10
0.0
 20
0.0
 30
0.0
  9
$UCSORGBACK
 10
0.0
 20
0.0
 30
0.0
  9
$PUCSBASE
  2

  9
$PUCSNAME
  2

  9
$PUCSORG
 10
0.0
 20
0.0
 30
0.0
  9
$PUCSXDIR
 10
1.0
 20
0.0
 30
0.0
  9
$PUCSYDIR
 10
0.0
 20
1.0
 30
0.0
  9
$PUCSORTHOREF
  2

  9
$PUCSORTHOVIEW
 70
     0
  9
$PUCSORGTOP
 10
0.0
 20
0.0
 30
0.0
  9
$PUCSORGBOTTOM
 10
0.0
 20
0.0
 30
0.0
  9
$PUCSORGLEFT
 10
0.0
 20
0.0
 30
0.0
  9
$PUCSORGRIGHT
 10
0.0
 20
0.0
 30
0.0
  9
$PUCSORGFRONT
 10
0.0
 20
0.0
 30
0.0
  9
$PUCSORGBACK
 10
0.0
 20
0.0
 30
0.0
  9
$USERI1
 70
     0
  9
$USERI2
 70
     0
  9
$USERI3
 70
     0
  9
$USERI4
 70
     0
  9
$USERI5
 70
     0
  9
$USERR1
 40
0.0
  9
$USERR2
 40
0.0
  9
$USERR3
 40
0.0
  9
$USERR4
 40
0.0
  9
$USERR5
 40
0.0
  9
$WORLDVIEW
 70
     1
  9
$SHADEDGE
 70
     3
  9
$SHADEDIF
 70
    70
  9
$TILEMODE
 70
     0
  9
$MAXACTVP
 70
    64
  9
$PINSBASE
 10
0.0
 20
0.0
 30
0.0
  9
$PLIMCHECK
 70
     0
  9
$PEXTMIN
 10
1.555351286492484
 20
3.669723536551142
 30
-0.0004043445228632
  9
$PEXTMAX
 10
5.841354390887254
 20
6.498016376046017
 30
0.0000152657740013
  9
$PLIMMIN
 10
1.453303490809836
 20
3.567675840487666
  9
$PLIMMAX
 10
5.94340208695073
 20
7.037297460667772
  9
$UNITMODE
 70
     0
  9
$VISRETAIN
 70
     0
  9
$PLINEGEN
 70
     1
  9
$PSLTSCALE
 70
     0
  9
$TREEDEPTH
 70
  3020
  9
$CMLSTYLE
  2
Standard
  9
$CMLJUST
 70
     0
  9
$CMLSCALE
 40
1.0
  9
$PROXYGRAPHICS
 70
     0
  9
$MEASUREMENT
 70
     0
  9
$CELWEIGHT
370
     0
  9
$ENDCAPS
280
     0
  9
$JOINSTYLE
280
     0
  9
$LWDISPLAY
290
     0
  9
$INSUNITS
 70
     0
  9
$HYPERLINKBASE
  1

  9
$STYLESHEET
  1

  9
$XEDIT
290
     1
  9
$CEPSNTYPE
380
     0
  9
$PSTYLEMODE
290
     1
  9
$FINGERPRINTGUID
  2

  9
$VERSIONGUID
  2
{E119BB9A-47BC-413C-A3F5-B1E3496D18EF}
  9
$EXTNAMES
290
     1
  9
$PSVPSCALE
 40
0.0
  9
$OLESTARTUP
290
     0
  0
ENDSEC
  0
SECTION
  2
CLASSES
  0
CLASS
  1
IMAGE
  2
AcDbRasterImage
  3
ISM
 90
    34943
280
     0
281
     1
  0
CLASS
  1
DICTIONARYVAR
  2
AcDbDictionaryVar
  3
ObjectDBX Classes
 90
        0
280
     0
281
     0
  0
CLASS
  1
RASTERVARIABLES
  2
AcDbRasterVariables
  3
ISM
 90
    32768
280
     0
281
     0
  0
CLASS
  1
IMAGEDEF
  2
AcDbRasterImageDef
  3
ISM
 90
    32768
280
     0
281
     0
  0
CLASS
  1
IMAGEDEF_REACTOR
  2
AcDbRasterImageDefReactor
  3
ISM
 90
    32769
280
     0
281
     0
  0
CLASS
  1
IDBUFFER
  2
AcDbIdBuffer
  3
ObjectDBX Classes
 90
    32768
280
     0
281
     0
  0
CLASS
  1
SPATIAL_FILTER
  2
AcDbSpatialFilter
  3
ObjectDBX Classes
 90
    32768
280
     0
281
     0
  0
CLASS
  1
SORTENTSTABLE
  2
AcDbSortentsTable
  3
ObjectDBX Classes
 90
    32768
280
     0
281
     0
  0
CLASS
  1
LAYER_INDEX
  2
AcDbLayerIndex
  3
ObjectDBX Classes
 90
    32768
280
     0
281
     0
  0
CLASS
  1
SPATIAL_INDEX
  2
AcDbSpatialIndex
  3
ObjectDBX Classes
 90
    32768
280
     0
281
     0
  0
CLASS
  1
OBJECT_PTR
  2
CAseDLPNTableRecord
  3
ASE-LPNTableRecord
 90
    32769
280
     0
281
     0
  0
CLASS
  1
LAYOUT
  2
AcDbLayout
  3
ObjectDBX Classes
 90
        0
280
     0
281
     0
  0
CLASS
  1
PLOTSETTINGS
  2
AcDbPlotSettings
  3
ObjectDBX Classes
 90
    32768
280
     0
281
     0
  0
CLASS
  1
ACDBDICTIONARYWDFLT
  2
AcDbDictionaryWithDefault
  3
ObjectDBX Classes
 90
        0
280
     0
281
     0
  0
CLASS
  1
ACDBPLACEHOLDER
  2
AcDbPlaceHolder
  3
ObjectDBX Classes
 90
        0
280
     0
281
     0
  0
CLASS
  1
VBA_PROJECT
  2
AcDbVbaProject
  3
acad
 90
    32768
280
     0
281
     0
  0
CLASS
  1
WIPEOUT
  2
AcDbWipeout
  3
"WipeOut|Product Desc: Object Enabler for WipeOut entity                        |Company: Autodesk, Inc.                        |WEB Address: www.autodesk.com"
 90
    34943
280
     0
281
     1
  0
CLASS
  1
WIPEOUTVARIABLES
  2
AcDbWipeoutVariables
  3
"WipeOut|Product Desc:     WipeOut Dbx Application|Company:          Autodesk, Inc.|WEB Address:      www.autodesk.com"
 90
        0
280
     0
281
     0
  0
CLASS
  1
RTEXT
  2
RText
  3
RText|AutoCAD Express Tool|expresstools@autodesk.com
 90
    35839
280
     0
281
     1
  0
CLASS
  1
ARCALIGNEDTEXT
  2
AcDbArcAlignedText
  3
ATEXT|AutoCAD Express Tool|expresstools@autodesk.com
 90
    32768
280
     0
281
     1
  0
CLASS
  1
MATERIAL
  2
AcDbMaterial
  3
ObjectDBX Classes
 90
     1024
280
     0
281
     0
  0
CLASS
  1
VISUALSTYLE
  2
AcDbVisualStyle
  3
ObjectDBX Classes
 90
     4095
280
     0
281
     0
  0
CLASS
  1
TABLESTYLE
  2
AcDbTableStyle
  3
ObjectDBX Classes
 90
     4095
280
     0
281
     0
  0
ENDSEC
  0
SECTION
  2
TABLES
  0
TABLE
  2
VPORT
  5
7
330
0
100
AcDbSymbolTable
 70
    16
  0
VPORT
  5
51C
330
7
100
AcDbSymbolTableRecord
100
AcDbViewportTableRecord
  2
*ACTIVE
 70
     0
 10
0.0
 20
0.0
 11
1.0
 21
1.0
 12
0.0
 22
0.0
 13
0.0
 23
0.0
 14
1.0
 24
1.0
 15
0.0
 25
0.0
 16
0.718873
 26
-0.5850489999999999
 36
0.375419
 17
0.0
 27
0.0
 37
0.0
 40
46.267976
 41
0.6885640000000001
 42
50.0
 43
22.857141
 44
-22.857141
 50
0.0
 51
0.0
 71
    16
 72
   100
 73
     1
 74
     1
 75
     0
 76
     0
 77
     0
 78
     0
281
     0
 65
     0
110
0.0
120
0.0
130
0.0
111
1.0
121
0.0
131
0.0
112
0.0
122
1.0
132
0.0
 79
     0
146
0.0
  0
VPORT
  5
51D
330
7
100
AcDbSymbolTableRecord
100
AcDbViewportTableRecord
  2
L1
 70
     0
 10
0.0
 20
0.0
 11
1.0
 21
1.0
 12
0.0
 22
0.0
 13
0.0
 23
0.0
 14
1.0
 24
1.0
 15
0.0
 25
0.0
 16
0.718873
 26
-0.5850489999999999
 36
0.375419
 17
0.0
 27
0.0
 37
0.0
 40
46.267976
 41
0.6885640000000001
 42
50.0
 43
22.857141
 44
-22.857141
 50
0.0
 51
0.0
 71
    16
 72
   100
 73
     1
 74
     1
 75
     0
 76
     0
 77
     0
 78
     0
281
     0
 65
     0
110
0.0
120
0.0
130
0.0
111
1.0
121
0.0
131
0.0
112
0.0
122
1.0
132
0.0
 79
     0
146
0.0
  0
VPORT
  5
51E
330
7
100
AcDbSymbolTableRecord
100
AcDbViewportTableRecord
  2
L2
 70
     0
 10
0.0
 20
0.0
 11
0.5
 21
1.0
 12
0.0
 22
0.0
 13
0.0
 23
0.0
 14
1.0
 24
1.0
 15
0.0
 25
0.0
 16
0.0
 26
-1.0
 36
0.0
 17
0.0
 27
0.0
 37
0.0
 40
44.59929999999999
 41
0.6885640000000001
 42
50.0
 43
23.034414
 44
-23.034414
 50
0.0
 51
0.0
 71
    16
 72
   100
 73
     1
 74
     1
 75
     0
 76
     0
 77
     0
 78
     0
281
     0
 65
     0
110
0.0
120
0.0
130
0.0
111
1.0
121
0.0
131
0.0
112
0.0
122
1.0
132
0.0
 79
     0
146
0.0
  0
VPORT
  5
51F
330
7
100
AcDbSymbolTableRecord
100
AcDbViewportTableRecord
  2
L2
 70
     0
 10
0.5
 20
0.0
 11
1.0
 21
1.0
 12
0.0
 22
0.0
 13
0.0
 23
0.0
 14
1.0
 24
1.0
 15
0.0
 25
0.0
 16
1.0
 26
0.0
 36
0.0
 17
0.0
 27
0.0
 37
0.0
 40
44.59929999999999
 41
0.6885640000000001
 42
50.0
 43
22.544309
 44
-22.544309
 50
0.0
 51
0.0
 71
    16
 72
   100
 73
     1
 74
     1
 75
     0
 76
     0
 77
     0
 78
     0
281
     0
 65
     0
110
0.0
120
0.0
130
0.0
111
1.0
121
0.0
131
0.0
112
0.0
122
1.0
132
0.0
 79
     0
146
0.0
  0
VPORT
  5
520
330
7
100
AcDbSymbolTableRecord
100
AcDbViewportTableRecord
  2
L3
 70
     0
 10
0.0
 20
0.5
 11
1.0
 21
1.0
 12
0.0
 22
0.0
 13
0.0
 23
0.0
 14
1.0
 24
1.0
 15
0.0
 25
0.0
 16
0.0
 26
0.0
 36
1.0
 17
0.0
 27
0.0
 37
0.0
 40
6.624633999999999
 41
0.6885640000000001
 42
50.0
 43
22.29965
 44
-22.29965
 50
0.0
 51
0.0
 71
    16
 72
   100
 73
     1
 74
     1
 75
     0
 76
     0
 77
     0
 78
     0
281
     0
 65
     0
110
0.0
120
0.0
130
0.0
111
1.0
121
0.0
131
0.0
112
0.0
122
1.0
132
0.0
 79
     0
146
0.0
  0
VPORT
  5
521
330
7
100
AcDbSymbolTableRecord
100
AcDbViewportTableRecord
  2
L3
 70
     0
 10
0.0
 20
0.0
 11
1.0
 21
0.5
 12
0.0
 22
0.0
 13
0.0
 23
0.0
 14
1.0
 24
1.0
 15
0.0
 25
0.0
 16
0.0
 26
-1.0
 36
0.0
 17
0.0
 27
0.0
 37
0.0
 40
44.59929999999999
 41
0.6885640000000001
 42
50.0
 43
23.034414
 44
-23.034414
 50
0.0
 51
0.0
 71
    16
 72
   100
 73
     1
 74
     1
 75
     0
 76
     0
 77
     0
 78
     0
281
     0
 65
     0
110
0.0
120
0.0
130
0.0
111
1.0
121
0.0
131
0.0
112
0.0
122
1.0
132
0.0
 79
     0
146
0.0
  0
VPORT
  5
522
330
7
100
AcDbSymbolTableRecord
100
AcDbViewportTableRecord
  2
L4
 70
     0
 10
0.0
 20
0.5
 11
0.5
 21
1.0
 12
0.0
 22
0.0
 13
0.0
 23
0.0
 14
1.0
 24
1.0
 15
0.0
 25
0.0
 16
0.0
 26
0.0
 36
1.0
 17
0.0
 27
0.0
 37
0.0
 40
6.624633999999999
 41
0.6885640000000001
 42
50.0
 43
22.29965
 44
-22.29965
 50
0.0
 51
0.0
 71
    16
 72
   100
 73
     1
 74
     1
 75
     0
 76
     0
 77
     0
 78
     0
281
     0
 65
     0
110
0.0
120
0.0
130
0.0
111
1.0
121
0.0
131
0.0
112
0.0
122
1.0
132
0.0
 79
     0
146
0.0
  0
VPORT
  5
523
330
7
100
AcDbSymbolTableRecord
100
AcDbViewportTableRecord
  2
L4
 70
     0
 10
0.0
 20
0.0
 11
0.5
 21
0.5
 12
0.0
 22
0.0
 13
0.0
 23
0.0
 14
1.0
 24
1.0
 15
0.0
 25
0.0
 16
0.0
 26
-1.0
 36
0.0
 17
0.0
 27
0.0
 37
0.0
 40
44.59929999999999
 41
0.6885640000000001
 42
50.0
 43
23.034414
 44
-23.034414
 50
0.0
 51
0.0
 71
    16
 72
   100
 73
     1
 74
     1
 75
     0
 76
     0
 77
     0
 78
     0
281
     0
 65
     0
110
0.0
120
0.0
130
0.0
111
1.0
121
0.0
131
0.0
112
0.0
122
1.0
132
0.0
 79
     0
146
0.0
  0
VPORT
  5
524
330
7
100
AcDbSymbolTableRecord
100
AcDbViewportTableRecord
  2
L4
 70
     0
 10
0.5
 20
0.0
 11
1.0
 21
0.5
 12
0.0
 22
0.0
 13
0.0
 23
0.0
 14
1.0
 24
1.0
 15
0.0
 25
0.0
 16
1.0
 26
0.0
 36
0.0
 17
0.0
 27
0.0
 37
0.0
 40
44.59929999999999
 41
0.6885640000000001
 42
50.0
 43
22.544309
 44
-22.544309
 50
0.0
 51
0.0
 71
    16
 72
   100
 73
     1
 74
     1
 75
     0
 76
     0
 77
     0
 78
     0
281
     0
 65
     0
110
0.0
120
0.0
130
0.0
111
1.0
121
0.0
131
0.0
112
0.0
122
1.0
132
0.0
 79
     0
146
0.0
  0
VPORT
  5
525
330
7
100
AcDbSymbolTableRecord
100
AcDbViewportTableRecord
  2
L4
 70
     0
 10
0.5
 20
0.5
 11
1.0
 21
1.0
 12
0.0
 22
0.0
 13
0.0
 23
0.0
 14
1.0
 24
1.0
 15
0.0
 25
0.0
 16
0.5773500000000001
 26
-0.5773500000000001
 36
0.5773500000000001
 17
0.0
 27
0.0
 37
0.0
 40
43.832054
 41
0.6885640000000001
 42
50.0
 43
22.837903
 44
-22.837903
 50
0.0
 51
0.0
 71
    16
 72
   100
 73
     1
 74
     1
 75
     0
 76
     0
 77
     0
 78
     0
281
     0
 65
     0
110
0.0
120
0.0
130
0.0
111
1.0
121
0.0
131
0.0
112
0.0
122
1.0
132
0.0
 79
     0
146
0.0
  0
VPORT
  5
526
330
7
100
AcDbSymbolTableRecord
100
AcDbViewportTableRecord
  2
L6
 70
     0
 10
0.0
 20
0.5
 11
0.333333
 21
1.0
 12
0.0
 22
0.0
 13
0.0
 23
0.0
 14
1.0
 24
1.0
 15
0.0
 25
0.0
 16
0.718873
 26
-0.5850489999999999
 36
0.375419
 17
0.0
 27
0.0
 37
0.0
 40
46.267976
 41
0.6885640000000001
 42
50.0
 43
22.857141
 44
-22.857141
 50
0.0
 51
0.0
 71
    16
 72
   100
 73
     1
 74
     1
 75
     0
 76
     0
 77
     0
 78
     0
281
     0
 65
     0
110
0.0
120
0.0
130
0.0
111
1.0
121
0.0
131
0.0
112
0.0
122
1.0
132
0.0
 79
     0
146
0.0
  0
VPORT
  5
527
330
7
100
AcDbSymbolTableRecord
100
AcDbViewportTableRecord
  2
L6
 70
     0
 10
0.0
 20
0.0
 11
0.333333
 21
0.5
 12
0.0
 22
0.0
 13
0.0
 23
0.0
 14
1.0
 24
1.0
 15
0.0
 25
0.0
 16
-1.0
 26
0.0
 36
0.0
 17
0.0
 27
0.0
 37
0.0
 40
44.59929999999999
 41
0.6885640000000001
 42
50.0
 43
22.544309
 44
-22.544309
 50
0.0
 51
0.0
 71
    16
 72
   100
 73
     1
 74
     1
 75
     0
 76
     0
 77
     0
 78
     0
281
     0
 65
     0
110
0.0
120
0.0
130
0.0
111
1.0
121
0.0
131
0.0
112
0.0
122
1.0
132
0.0
 79
     0
146
0.0
  0
VPORT
  5
528
330
7
100
AcDbSymbolTableRecord
100
AcDbViewportTableRecord
  2
L6
 70
     0
 10
0.333333
 20
0.5
 11
0.666667
 21
1.0
 12
0.0
 22
0.0
 13
0.0
 23
0.0
 14
1.0
 24
1.0
 15
0.0
 25
0.0
 16
0.0
 26
0.0
 36
1.0
 17
0.0
 27
0.0
 37
0.0
 40
6.624633999999999
 41
0.6885640000000001
 42
50.0
 43
22.29965
 44
-22.29965
 50
0.0
 51
0.0
 71
    16
 72
   100
 73
     1
 74
     1
 75
     0
 76
     0
 77
     0
 78
     0
281
     0
 65
     0
110
0.0
120
0.0
130
0.0
111
1.0
121
0.0
131
0.0
112
0.0
122
1.0
132
0.0
 79
     0
146
0.0
  0
VPORT
  5
529
330
7
100
AcDbSymbolTableRecord
100
AcDbViewportTableRecord
  2
L6
 70
     0
 10
0.333333
 20
0.0
 11
0.666667
 21
0.5
 12
0.0
 22
0.0
 13
0.0
 23
0.0
 14
1.0
 24
1.0
 15
0.0
 25
0.0
 16
0.0
 26
-1.0
 36
0.0
 17
0.0
 27
0.0
 37
0.0
 40
44.59929999999999
 41
0.6885640000000001
 42
50.0
 43
23.034414
 44
-23.034414
 50
0.0
 51
0.0
 71
    16
 72
   100
 73
     1
 74
     1
 75
     0
 76
     0
 77
     0
 78
     0
281
     0
 65
     0
110
0.0
120
0.0
130
0.0
111
1.0
121
0.0
131
0.0
112
0.0
122
1.0
132
0.0
 79
     0
146
0.0
  0
VPORT
  5
52A
330
7
100
AcDbSymbolTableRecord
100
AcDbViewportTableRecord
  2
L6
 70
     0
 10
0.666667
 20
0.5
 11
1.0
 21
1.0
 12
0.0
 22
0.0
 13
0.0
 23
0.0
 14
1.0
 24
1.0
 15
0.0
 25
0.0
 16
0.5773500000000001
 26
-0.5773500000000001
 36
0.5773500000000001
 17
0.0
 27
0.0
 37
0.0
 40
43.832054
 41
0.6885640000000001
 42
50.0
 43
22.837903
 44
-22.837903
 50
0.0
 51
0.0
 71
    16
 72
   100
 73
     1
 74
     1
 75
     0
 76
     0
 77
     0
 78
     0
281
     0
 65
     0
110
0.0
120
0.0
130
0.0
111
1.0
121
0.0
131
0.0
112
0.0
122
1.0
132
0.0
 79
     0
146
0.0
  0
VPORT
  5
52B
330
7
100
AcDbSymbolTableRecord
100
AcDbViewportTableRecord
  2
L6
 70
     0
 10
0.666667
 20
0.0
 11
1.0
 21
0.5
 12
0.0
 22
0.0
 13
0.0
 23
0.0
 14
1.0
 24
1.0
 15
0.0
 25
0.0
 16
1.0
 26
0.0
 36
0.0
 17
0.0
 27
0.0
 37
0.0
 40
44.59929999999999
 41
0.6885640000000001
 42
50.0
 43
22.544309
 44
-22.544309
 50
0.0
 51
0.0
 71
    16
 72
   100
 73
     1
 74
     1
 75
     0
 76
     0
 77
     0
 78
     0
281
     0
 65
     0
110
0.0
120
0.0
130
0.0
111
1.0
121
0.0
131
0.0
112
0.0
122
1.0
132
0.0
 79
     0
146
0.0
  0
ENDTAB
  0
TABLE
  2
LTYPE
  5
4
330
0
100
AcDbSymbolTable
 70
     7
  0
LTYPE
  5
11
330
4
100
AcDbSymbolTableRecord
100
AcDbLinetypeTableRecord
  2
ByBlock
 70
     0
  3

 72
    65
 73
     0
 40
0.0
  0
LTYPE
  5
12
330
4
100
AcDbSymbolTableRecord
100
AcDbLinetypeTableRecord
  2
ByLayer
 70
     0
  3

 72
    65
 73
     0
 40
0.0
  0
LTYPE
  5
13
330
4
100
AcDbSymbolTableRecord
100
AcDbLinetypeTableRecord
  2
Continuous
 70
     0
  3
Solid line
 72
    65
 73
     0
 40
0.0
  0
LTYPE
  5
24
330
4
100
AcDbSymbolTableRecord
100
AcDbLinetypeTableRecord
  2
DASHED
 70
     0
  3
__ __ __ __ __ __ __ __ __
 72
    65
 73
     2
 40
25.72
 49
12.86
 74
     0
 49
-12.86
 74
     0
  0
LTYPE
  5
25
330
4
100
AcDbSymbolTableRecord
100
AcDbLinetypeTableRecord
  2
HIDDEN
 70
     0
  3
_ _ _ _ _ _ _ _ _ _ _ _ _ _ _
 72
    65
 73
     2
 40
0.5
 49
0.25
 74
     0
 49
-0.25
 74
     0
  0
LTYPE
  5
26
330
4
100
AcDbSymbolTableRecord
100
AcDbLinetypeTableRecord
  2
PHANTOM
 70
     0
  3
____ _ _ ____ _ _ _____ _ _ ____
 72
    65
 73
     6
 40
50.5
 49
18.0
 74
     0
 49
-6.5
 74
     0
 49
6.5
 74
     0
 49
-6.5
 74
     0
 49
6.5
 74
     0
 49
-6.5
 74
     0
  0
LTYPE
  5
27
330
4
100
AcDbSymbolTableRecord
100
AcDbLinetypeTableRecord
  2
CENTER
 70
     0
  3
____ _ ____ _ ____ _ ____
 72
    65
 73
     4
 40
47.5
 49
22.0
 74
     0
 49
-8.5
 74
     0
 49
8.5
 74
     0
 49
-8.5
 74
     0
  0
LTYPE
  5
28
330
4
100
AcDbSymbolTableRecord
100
AcDbLinetypeTableRecord
  2
DOT
 70
     0
  3
.........................
 72
    65
 73
     2
 40
10.0
 49
0.0
 74
     0
 49
-10.0
 74
     0
  0
LTYPE
  5
29
330
4
100
AcDbSymbolTableRecord
100
AcDbLinetypeTableRecord
  2
DASHDOT
 70
     0
  3
_._._._._._._._._._._._._._._._.
 72
    65
 73
     4
 40
70.0
 49
31.0
 74
     0
 49
-13.0
 74
     0
 49
13.0
 74
     0
 49
-13.0
 74
     0
  0
ENDTAB
  0
TABLE
  2
LAYER
  5
2
330
0
100
AcDbSymbolTable
 70
     2
  0
LAYER
  5
14
330
2
100
AcDbSymbolTableRecord
100
AcDbLayerTableRecord
  2
0
 70
     0
 62
     7
  6
Continuous
370
    -3
390
1D
  0
LAYER
  5
34
330
2
100
AcDbSymbolTableRecord
100
AcDbLayerTableRecord
  2
1
 70
     0
 62
     7
  6
Continuous
370
    -3
390
1D
  0
ENDTAB
  0
TABLE
  2
STYLE
  5
3
330
0
100
AcDbSymbolTable
 70
     1
  0
STYLE
  5
17
330
3
100
AcDbSymbolTableRecord
100
AcDbTextStyleTableRecord
  2
Standard
 70
     0
 40
0.0
 41
1.0
 50
0.0
 71
     0
 42
0.0
  3
txt
  4

  0
ENDTAB
  0
TABLE
  2
VIEW
  5
5
330
0
100
AcDbSymbolTable
 70
     8
  0
VIEW
  5
2A
330
5
100
AcDbSymbolTableRecord
100
AcDbViewTableRecord
  2
TOP
 70
     0
 40
6.624633999999999
 10
0.0
 20
0.0
 41
11.542932
 11
0.0
 21
0.0
 31
1.0
 12
0.0
 22
0.0
 32
0.0
 42
50.0
 43
22.29965
 44
-22.29965
 50
0.0
 71
    16
281
     0
 72
     0
  0
VIEW
  5
2B
330
5
100
AcDbSymbolTableRecord
100
AcDbViewTableRecord
  2
FRONT
 70
     0
 40
44.59929999999999
 10
0.0
 20
0.0
 41
11.542932
 11
0.0
 21
-1.0
 31
0.0
 12
0.0
 22
0.0
 32
0.0
 42
50.0
 43
23.034414
 44
-23.034414
 50
0.0
 71
    16
281
     0
 72
     0
  0
VIEW
  5
2C
330
5
100
AcDbSymbolTableRecord
100
AcDbViewTableRecord
  2
RIGHT
 70
     0
 40
44.59929999999999
 10
0.0
 20
0.0
 41
6.624633999999999
 11
1.0
 21
0.0
 31
0.0
 12
0.0
 22
0.0
 32
0.0
 42
50.0
 43
22.544309
 44
-22.544309
 50
0.0
 71
    16
281
     0
 72
     0
  0
VIEW
  5
2D
330
5
100
AcDbSymbolTableRecord
100
AcDbViewTableRecord
  2
BACK
 70
     0
 40
44.59929999999999
 10
0.0
 20
0.0
 41
11.542932
 11
0.0
 21
1.0
 31
0.0
 12
0.0
 22
0.0
 32
0.0
 42
50.0
 43
23.034414
 44
-23.034414
 50
0.0
 71
    16
281
     0
 72
     0
  0
VIEW
  5
2E
330
5
100
AcDbSymbolTableRecord
100
AcDbViewTableRecord
  2
BOTTOM
 70
     0
 40
6.624633999999999
 10
0.0
 20
0.0
 41
11.542932
 11
0.0
 21
0.0
 31
-1.0
 12
0.0
 22
0.0
 32
0.0
 42
50.0
 43
22.29965
 44
-22.29965
 50
180.0
 71
    16
281
     0
 72
     0
  0
VIEW
  5
2F
330
5
100
AcDbSymbolTableRecord
100
AcDbViewTableRecord
  2
LEFT
 70
     0
 40
44.59929999999999
 10
0.0
 20
0.0
 41
6.624633999999999
 11
-1.0
 21
0.0
 31
0.0
 12
0.0
 22
0.0
 32
0.0
 42
50.0
 43
22.544309
 44
-22.544309
 50
0.0
 71
    16
281
     0
 72
     0
  0
VIEW
  5
30
330
5
100
AcDbSymbolTableRecord
100
AcDbViewTableRecord
  2
TFR-ISO
 70
     0
 40
43.832054
 10
0.0
 20
0.0
 41
12.84641
 11
0.5773500000000001
 21
-0.5773500000000001
 31
0.5773500000000001
 12
0.0
 22
0.0
 32
0.0
 42
50.0
 43
22.837903
 44
-22.837903
 50
0.0
 71
    16
281
     0
 72
     0
  0
VIEW
  5
31
330
5
100
AcDbSymbolTableRecord
100
AcDbViewTableRecord
  2
TFR-TRI
 70
     0
 40
46.267976
 10
0.0
 20
0.0
 41
12.424216
 11
0.718873
 21
-0.5850489999999999
 31
0.375419
 12
0.0
 22
0.0
 32
0.0
 42
50.0
 43
22.857141
 44
-22.857141
 50
0.0
 71
    16
281
     0
 72
     0
  0
ENDTAB
  0
TABLE
  2
UCS
  5
6
330
0
100
AcDbSymbolTable
 70
     0
  0
ENDTAB
  0
TABLE
  2
APPID
  5
8
330
0
100
AcDbSymbolTable
 70
     3
  0
APPID
  5
16
330
8
100
AcDbSymbolTableRecord
100
AcDbRegAppTableRecord
  2
ACAD
 70
     0
  0
APPID
  5
54A
330
8
100
AcDbSymbolTableRecord
100
AcDbRegAppTableRecord
  2
ACAD_PSEXT
 70
     0
  0
APPID
  5
54D
330
8
100
AcDbSymbolTableRecord
100
AcDbRegAppTableRecord
  2
DCO15
 70
     0
  0
ENDTAB
  0
TABLE
  2
DIMSTYLE
  5
9
330
0
100
AcDbSymbolTable
 70
     1
100
AcDbDimStyleTable
 71
     0
  0
DIMSTYLE
105
18
330
9
100
AcDbSymbolTableRecord
100
AcDbDimStyleTableRecord
  2
Standard
 70
     0
340
17
  0
ENDTAB
  0
TABLE
  2
BLOCK_RECORD
  5
1
330
0
100
AcDbSymbolTable
 70
     0
  0
BLOCK_RECORD
  5
A
330
1
100
AcDbSymbolTableRecord
100
AcDbBlockTableRecord
  2
*MODEL_SPACE
340
20
  0
BLOCK_RECORD
  5
B
330
1
100
AcDbSymbolTableRecord
100
AcDbBlockTableRecord
  2
*PAPER_SPACE
340
21
  0
ENDTAB
  0
ENDSEC
  0
SECTION
  2
BLOCKS
  0
BLOCK
  5
D
330
A
100
AcDbEntity
  8
0
100
AcDbBlockBegin
  2
*MODEL_SPACE
 70
     0
 10
0.0
 20
0.0
 30
0.0
  3
*MODEL_SPACE
  1

  0
ENDBLK
  5
E
330
A
100
AcDbEntity
  8
0
100
AcDbBlockEnd
  0
BLOCK
  5
F
330
B
100
AcDbEntity
 67
     1
  8
0
100
AcDbBlockBegin
  2
*PAPER_SPACE
 70
     0
 10
0.0
 20
0.0
 30
0.0
  3
*PAPER_SPACE
  1

  0
ENDBLK
  5
10
330
B
100
AcDbEntity
 67
     1
  8
0
100
AcDbBlockEnd
  0
ENDSEC
  0
SECTION
  2
ENTITIES
  0
VIEWPORT
  5
32
102
{ACAD_XDICTIONARY
360
559
102
}
330
B
100
AcDbEntity
 67
     1
  8
0
100
AcDbViewport
 10
7.594715447154472
 20
4.25
 30
0.0
 40
15.18943089430894
 41
8.5
 68
     1
 69
     1
 12
7.594715447154472
 22
4.25
 13
0.0
 23
0.0
 14
0.0
 24
0.0
 15
0.0
 25
0.0
 16
0.0
 26
0.0
 36
1.0
 17
0.0
 27
0.0
 37
0.0
 42
26.277896
 43
0.0
 44
0.0
 45
8.5
 50
0.0
 51
0.0
 72
   100
 90
    32800
  1

281
     0
 71
     0
 74
     1
110
0.0
120
0.0
130
0.0
111
1.0
121
0.0
131
0.0
112
0.0
122
1.0
132
0.0
 79
     0
146
0.0
  0
LINE
  5
33
330
B
100
AcDbEntity
 67
     1
  8
1
  6
Continuous
 62
    18
100
AcDbLine
 10
2.073202
 20
5.615412999999999
 30
0.0
 11
2.054927999999999
 21
5.620187
 31
0.0
  0
LINE
  5
35
330
B
100
AcDbEntity
 67
     1
  8
1
  6
Continuous
 62
    18
100
AcDbLine
 10
5.782383
 20
4.253128
 30
0.0
 11
5.727694999999999
 21
4.253128
 31
0.0
  0
LINE
  5
36
330
B
100
AcDbEntity
 67
     1
  8
1
  6
Continuous
 62
    18
100
AcDbLine
 10
2.071210999999999
 20
3.824166999999999
 30
0.0
 11
2.068286
 21
3.824423
 31
0.0
  0
LINE
  5
37
330
B
100
AcDbEntity
 67
     1
  8
1
  6
Continuous
 62
    18
100
AcDbLine
 10
2.085950999999999
 20
5.6302
 30
0.0
 11
2.159329
 21
5.634825
 31
0.0
  0
LINE
  5
38
330
B
100
AcDbEntity
 67
     1
  8
1
  6
Continuous
 62
    18
100
AcDbLine
 10
5.615198
 20
4.102998999999999
 30
0.0
 11
5.129901999999999
 21
4.102998999999999
 31
0.0
  0
LINE
  5
39
330
B
100
AcDbEntity
 67
     1
  8
1
  6
Continuous
 62
    18
100
AcDbLine
 10
5.701298
 20
4.165351999999999
 30
0.0
 11
5.729981999999999
 21
4.165853
 31
0.0
  0
LINE
  5
3A
330
B
100
AcDbEntity
 67
     1
  8
1
  6
Continuous
 62
    18
100
AcDbLine
 10
2.556883
 20
4.164013999999999
 30
0.0
 11
2.666568999999999
 21
4.164127999999999
 31
0.0
  0
LINE
  5
3B
330
B
100
AcDbEntity
 67
     1
  8
1
  6
Continuous
 62
    18
100
AcDbLine
 10
2.394878999999999
 20
5.670771
 30
0.0
 11
2.404615999999999
 21
5.670601
 31
0.0
  0
LINE
  5
3C
330
B
100
AcDbEntity
 67
     1
  8
1
  6
Continuous
 62
    18
100
AcDbLine
 10
4.959868
 20
3.982491
 30
0.0
 11
4.962545999999999
 21
3.982491
 31
0.0
  0
LINE
  5
3D
330
B
100
AcDbEntity
 67
     1
  8
1
  6
Continuous
 62
    18
100
AcDbLine
 10
5.686537999999999
 20
4.279796
 30
0.0
 11
5.680352
 21
4.281006999999999
 31
0.0
  0
LINE
  5
3E
330
B
100
AcDbEntity
 67
     1
  8
1
  6
Continuous
 62
    18
100
AcDbLine
 10
2.260731999999999
 20
4.235616999999999
 30
0.0
 11
2.348291
 21
4.237144999999999
 31
0.0
  0
LINE
  5
3F
330
B
100
AcDbEntity
 67
     1
  8
1
  6
Continuous
 62
    18
100
AcDbLine
 10
5.728221999999999
 20
3.758316999999999
 30
0.0
 11
5.769988999999999
 21
3.756556999999999
 31
0.0
  0
LINE
  5
40
330
B
100
AcDbEntity
 67
     1
  8
1
  6
Continuous
 62
    18
100
AcDbLine
 10
2.145776999999999
 20
4.103855999999999
 30
0.0
 11
2.138818999999999
 21
4.100866
 31
0.0
  0
LINE
  5
41
330
B
100
AcDbEntity
 67
     1
  8
1
  6
Continuous
 62
    18
100
AcDbLine
 10
2.394878999999999
 20
5.642954
 30
0.0
 11
2.404615999999999
 21
5.640165
 31
0.0
  0
LINE
  5
42
330
B
100
AcDbEntity
 67
     1
  8
1
  6
Continuous
 62
    18
100
AcDbLine
 10
2.156824
 20
3.972298999999999
 30
0.0
 11
2.176527
 21
3.971955
 31
0.0
  0
LINE
  5
43
330
B
100
AcDbEntity
 67
     1
  8
1
  6
Continuous
 62
    18
100
AcDbLine
 10
4.978932
 20
3.692846999999999
 30
0.0
 11
4.983149
 21
3.686920999999999
 31
0.0
  0
LINE
  5
44
330
B
100
AcDbEntity
 67
     1
  8
1
  6
Continuous
 62
    18
100
AcDbLine
 10
5.103953999999999
 20
3.880732
 30
0.0
 11
5.099942999999999
 21
3.895718
 31
0.0
  0
LINE
  5
45
330
B
100
AcDbEntity
 67
     1
  8
1
  6
Continuous
 62
    18
100
AcDbLine
 10
2.261172
 20
4.185704
 30
0.0
 11
2.251301999999999
 21
4.187394
 31
0.0
  0
LINE
  5
46
330
B
100
AcDbEntity
 67
     1
  8
1
  6
Continuous
 62
    18
100
AcDbLine
 10
2.261983
 20
4.049563
 30
0.0
 11
2.261983
 21
4.047556
 31
0.0
  0
LINE
  5
47
330
B
100
AcDbEntity
 67
     1
  8
1
  6
Continuous
 62
    18
100
AcDbLine
 10
4.962545999999999
 20
4.108969
 30
0.0
 11
4.960443999999999
 21
4.115091
 31
0.0
  0
LINE
  5
48
330
B
100
AcDbEntity
 67
     1
  8
1
  6
Continuous
 62
    18
100
AcDbLine
 10
5.725178999999999
 20
3.671315
 30
0.0
 11
5.725153999999999
 21
3.694278999999999
 31
0.0
  0
LINE
  5
49
330
B
100
AcDbEntity
 67
     1
  8
1
  6
Continuous
 62
    18
100
AcDbLine
 10
4.964288999999999
 20
4.238008999999999
 30
0.0
 11
4.965085
 21
4.234022
 31
0.0
  0
LINE
  5
4A
330
B
100
AcDbEntity
 67
     1
  8
1
  6
Continuous
 62
    18
100
AcDbLine
 10
4.978932
 20
4.295882999999999
 30
0.0
 11
4.982477999999999
 21
4.301328999999999
 31
0.0
  0
LINE
  5
4B
330
B
100
AcDbEntity
 67
     1
  8
1
  6
Continuous
 62
    18
100
AcDbLine
 10
5.015118
 20
3.670273
 30
0.0
 11
5.017641
 21
3.672795999999999
 31
0.0
  0
LINE
  5
4C
330
B
100
AcDbEntity
 67
     1
  8
1
  6
Continuous
 62
    18
100
AcDbLine
 10
2.404615999999999
 20
3.716968
 30
0.0
 11
2.394878999999999
 21
3.701311
 31
0.0
  0
LINE
  5
4D
330
B
100
AcDbEntity
 67
     1
  8
1
  6
Continuous
 62
    18
100
AcDbLine
 10
4.958164
 20
4.165853
 30
0.0
 11
4.954565
 21
4.147812999999999
 31
0.0
  0
LINE
  5
4E
330
B
100
AcDbEntity
 67
     1
  8
1
  6
Continuous
 62
    18
100
AcDbLine
 10
2.068286
 20
4.164308
 30
0.0
 11
2.071210999999999
 21
4.164564
 31
0.0
  0
LINE
  5
4F
330
B
100
AcDbEntity
 67
     1
  8
1
  6
Continuous
 62
    18
100
AcDbLine
 10
5.020678
 20
3.824601999999999
 30
0.0
 11
5.018762999999999
 21
3.822754
 31
0.0
  0
LINE
  5
50
330
B
100
AcDbEntity
 67
     1
  8
1
  6
Continuous
 62
    18
100
AcDbLine
 10
2.138818999999999
 20
3.887864
 30
0.0
 11
2.145776999999999
 21
3.884875
 31
0.0
  0
LINE
  5
51
330
B
100
AcDbEntity
 67
     1
  8
1
  6
Continuous
 62
    18
100
AcDbLine
 10
4.958865
 20
3.894873
 30
0.0
 11
4.958865
 21
3.918622
 31
0.0
  0
LINE
  5
52
330
B
100
AcDbEntity
 67
     1
  8
1
  6
Continuous
 62
    18
100
AcDbLine
 10
4.959401
 20
3.962301
 30
0.0
 11
4.960220999999999
 21
3.966264999999999
 31
0.0
  0
LINE
  5
53
330
B
100
AcDbEntity
 67
     1
  8
1
  6
Continuous
 62
    18
100
AcDbLine
 10
5.099942999999999
 20
3.895718
 30
0.0
 11
5.11371
 21
3.895718
 31
0.0
  0
LINE
  5
54
330
B
100
AcDbEntity
 67
     1
  8
1
  6
Continuous
 62
    18
100
AcDbLine
 10
1.786633
 20
5.629359
 30
0.0
 11
1.788175
 21
5.625748
 31
0.0
  0
LINE
  5
55
330
B
100
AcDbEntity
 67
     1
  8
1
  6
Continuous
 62
    18
100
AcDbLine
 10
5.712316999999999
 20
4.164308
 30
0.0
 11
5.719108999999999
 21
4.164564
 31
0.0
  0
LINE
  5
56
330
B
100
AcDbEntity
 67
     1
  8
1
  6
Continuous
 62
    18
100
AcDbLine
 10
2.156895999999999
 20
4.056987
 30
0.0
 11
2.156824
 21
4.059916
 31
0.0
  0
LINE
  5
57
330
B
100
AcDbEntity
 67
     1
  8
1
  6
Continuous
 62
    18
100
AcDbLine
 10
4.959208
 20
4.050111
 30
0.0
 11
4.958965
 21
4.05609
 31
0.0
  0
LINE
  5
58
330
B
100
AcDbEntity
 67
     1
  8
1
  6
Continuous
 62
    18
100
AcDbLine
 10
5.766932999999999
 20
3.848723999999999
 30
0.0
 11
5.743533
 21
3.839741999999999
 31
0.0
  0
LINE
  5
59
330
B
100
AcDbEntity
 67
     1
  8
1
  6
Continuous
 62
    18
100
AcDbLine
 10
2.362372999999999
 20
5.645103999999999
 30
0.0
 11
2.362372999999999
 21
5.671337999999999
 31
0.0
  0
LINE
  5
5A
330
B
100
AcDbEntity
 67
     1
  8
1
  6
Continuous
 62
    18
100
AcDbLine
 10
2.133084
 20
3.894873
 30
0.0
 11
2.126125999999999
 21
3.894873
 31
0.0
  0
LINE
  5
5B
330
B
100
AcDbEntity
 67
     1
  8
1
  6
Continuous
 62
    18
100
AcDbLine
 10
4.985827999999999
 20
4.309047
 30
0.0
 11
4.988633
 21
4.303449999999999
 31
0.0
  0
LINE
  5
5C
330
B
100
AcDbEntity
 67
     1
  8
1
  6
Continuous
 62
    18
100
AcDbLine
 10
2.205950999999999
 20
3.961615
 30
0.0
 11
2.202227999999999
 21
3.961666999999999
 31
0.0
  0
LINE
  5
5D
330
B
100
AcDbEntity
 67
     1
  8
1
  6
Continuous
 62
    18
100
AcDbLine
 10
2.329757999999999
 20
5.822707
 30
0.0
 11
2.342760999999999
 21
5.816294999999999
 31
0.0
  0
LINE
  5
5E
330
B
100
AcDbEntity
 67
     1
  8
1
  6
Continuous
 62
    18
100
AcDbLine
 10
5.29544
 20
3.984365
 30
0.0
 11
5.29544
 21
3.994365
 31
0.0
  0
LINE
  5
5F
330
B
100
AcDbEntity
 67
     1
  8
1
  6
Continuous
 62
    18
100
AcDbLine
 10
2.216808
 20
4.312583999999999
 30
0.0
 11
2.143527999999999
 21
4.315873
 31
0.0
  0
LINE
  5
60
330
B
100
AcDbEntity
 67
     1
  8
1
  6
Continuous
 62
    18
100
AcDbLine
 10
2.353015
 20
4.184623
 30
0.0
 11
2.353015
 21
4.225926
 31
0.0
  0
LINE
  5
61
330
B
100
AcDbEntity
 67
     1
  8
1
  6
Continuous
 62
    18
100
AcDbLine
 10
5.725153999999999
 20
4.256463
 30
0.0
 11
5.734530999999999
 21
4.256463
 31
0.0
  0
LINE
  5
62
330
B
100
AcDbEntity
 67
     1
  8
1
  6
Continuous
 62
    18
100
AcDbLine
 10
2.348015
 20
5.671588999999999
 30
0.0
 11
2.216983
 21
5.673875999999999
 31
0.0
  0
LINE
  5
63
330
B
100
AcDbEntity
 67
     1
  8
1
  6
Continuous
 62
    18
100
AcDbLine
 10
2.145849
 20
4.019167999999999
 30
0.0
 11
2.145776999999999
 21
4.016237999999999
 31
0.0
  0
LINE
  5
64
330
B
100
AcDbEntity
 67
     1
  8
1
  6
Continuous
 62
    18
100
AcDbLine
 10
5.017405
 20
4.16814
 30
0.0
 11
5.017405
 21
4.165929
 31
0.0
  0
LINE
  5
65
330
B
100
AcDbEntity
 67
     1
  8
1
  6
Continuous
 62
    18
100
AcDbLine
 10
2.191613999999999
 20
4.026915999999999
 30
0.0
 11
2.202227999999999
 21
4.027064
 31
0.0
  0
LINE
  5
66
330
B
100
AcDbEntity
 67
     1
  8
1
  6
Continuous
 62
    18
100
AcDbLine
 10
2.167469
 20
6.326635999999999
 30
0.0
 11
2.167520999999999
 21
6.326426
 31
0.0
  0
LINE
  5
67
330
B
100
AcDbEntity
 67
     1
  8
1
  6
Continuous
 62
    18
100
AcDbLine
 10
5.125227999999999
 20
4.071864999999999
 30
0.0
 11
5.121463999999999
 21
4.071864999999999
 31
0.0
  0
LINE
  5
68
330
B
100
AcDbEntity
 67
     1
  8
1
  6
Continuous
 62
    18
100
AcDbLine
 10
2.393397999999999
 20
3.840085999999999
 30
0.0
 11
2.38017
 21
3.854522
 31
0.0
  0
LINE
  5
69
330
B
100
AcDbEntity
 67
     1
  8
1
  6
Continuous
 62
    18
100
AcDbLine
 10
1.852958
 20
5.563724999999999
 30
0.0
 11
1.859699
 21
5.56095
 31
0.0
  0
LINE
  5
6A
330
B
100
AcDbEntity
 67
     1
  8
1
  6
Continuous
 62
    18
100
AcDbLine
 10
2.08592
 20
4.318456999999999
 30
0.0
 11
2.073202
 21
4.318233999999999
 31
0.0
  0
LINE
  5
6B
330
B
100
AcDbEntity
 67
     1
  8
1
  6
Continuous
 62
    18
100
AcDbLine
 10
5.769992
 20
3.732507
 30
0.0
 11
5.781384
 21
3.732773999999999
 31
0.0
  0
LINE
  5
6C
330
B
100
AcDbEntity
 67
     1
  8
1
  6
Continuous
 62
    18
100
AcDbLine
 10
2.053591999999999
 20
6.423504
 30
0.0
 11
2.072086
 21
6.422639
 31
0.0
  0
LINE
  5
6D
330
B
100
AcDbEntity
 67
     1
  8
1
  6
Continuous
 62
    18
100
AcDbLine
 10
2.408015
 20
4.167627999999999
 30
0.0
 11
2.404615999999999
 21
4.149505999999999
 31
0.0
  0
LINE
  5
6E
330
B
100
AcDbEntity
 67
     1
  8
1
  6
Continuous
 62
    18
100
AcDbLine
 10
4.960443999999999
 20
3.873639999999999
 30
0.0
 11
4.959208
 21
3.874876
 31
0.0
  0
LINE
  5
6F
330
B
100
AcDbEntity
 67
     1
  8
1
  6
Continuous
 62
    18
100
AcDbLine
 10
2.398393999999999
 20
3.754708
 30
0.0
 11
2.405218999999999
 21
3.755441
 31
0.0
  0
LINE
  5
70
330
B
100
AcDbEntity
 67
     1
  8
1
  6
Continuous
 62
    18
100
AcDbLine
 10
5.728293999999999
 20
4.187394
 30
0.0
 11
5.728221999999999
 21
4.191088999999999
 31
0.0
  0
LINE
  5
71
330
B
100
AcDbEntity
 67
     1
  8
1
  6
Continuous
 62
    18
100
AcDbLine
 10
5.11371
 20
3.895718
 30
0.0
 11
5.119915999999999
 21
3.895718
 31
0.0
  0
LINE
  5
72
330
B
100
AcDbEntity
 67
     1
  8
1
  6
Continuous
 62
    18
100
AcDbLine
 10
2.217157999999999
 20
6.424180999999999
 30
0.0
 11
2.217122
 21
6.424062
 31
0.0
  0
LINE
  5
73
330
B
100
AcDbEntity
 67
     1
  8
1
  6
Continuous
 62
    18
100
AcDbLine
 10
2.085950999999999
 20
6.386454
 30
0.0
 11
2.216983
 21
6.384166
 31
0.0
  0
LINE
  5
74
330
B
100
AcDbEntity
 67
     1
  8
1
  6
Continuous
 62
    18
100
AcDbLine
 10
2.126125999999999
 20
3.982491
 30
0.0
 11
2.126125999999999
 21
4.00624
 31
0.0
  0
LINE
  5
75
330
B
100
AcDbEntity
 67
     1
  8
1
  6
Continuous
 62
    18
100
AcDbLine
 10
5.708325
 20
4.284041
 30
0.0
 11
5.027641
 21
4.284041
 31
0.0
  0
LINE
  5
76
330
B
100
AcDbEntity
 67
     1
  8
1
  6
Continuous
 62
    18
100
AcDbLine
 10
2.216983
 20
6.384166
 30
0.0
 11
2.216983
 21
6.326858
 31
0.0
  0
LINE
  5
77
330
B
100
AcDbEntity
 67
     1
  8
1
  6
Continuous
 62
    18
100
AcDbLine
 10
2.085950999999999
 20
3.733315
 30
0.0
 11
2.216983
 21
3.735601999999999
 31
0.0
  0
LINE
  5
78
330
B
100
AcDbEntity
 67
     1
  8
1
  6
Continuous
 62
    18
100
AcDbLine
 10
4.962545999999999
 20
3.894873
 30
0.0
 11
4.959868
 21
3.894873
 31
0.0
  0
LINE
  5
79
330
B
100
AcDbEntity
 67
     1
  8
1
  6
Continuous
 62
    18
100
AcDbLine
 10
4.964288999999999
 20
3.750720999999999
 30
0.0
 11
4.965010999999999
 21
3.747104
 31
0.0
  0
LINE
  5
7A
330
B
100
AcDbEntity
 67
     1
  8
1
  6
Continuous
 62
    18
100
AcDbLine
 10
2.380374999999999
 20
5.634538
 30
0.0
 11
2.361881
 21
5.635403
 31
0.0
  0
LINE
  5
7B
330
B
100
AcDbEntity
 67
     1
  8
1
  6
Continuous
 62
    18
100
AcDbLine
 10
2.298399
 20
4.309047
 30
0.0
 11
2.362372999999999
 21
4.303449999999999
 31
0.0
  0
LINE
  5
7C
330
B
100
AcDbEntity
 67
     1
  8
1
  6
Continuous
 62
    18
100
AcDbLine
 10
5.613648999999999
 20
3.88728
 30
0.0
 11
5.131451
 21
3.88728
 31
0.0
  0
LINE
  5
7D
330
B
100
AcDbEntity
 67
     1
  8
1
  6
Continuous
 62
    18
100
AcDbLine
 10
2.556883
 20
5.619017999999999
 30
0.0
 11
2.666568999999999
 21
5.677149
 31
0.0
  0
LINE
  5
7E
330
B
100
AcDbEntity
 67
     1
  8
1
  6
Continuous
 62
    18
100
AcDbLine
 10
5.780088
 20
3.747104
 30
0.0
 11
5.729989999999999
 21
3.747104
 31
0.0
  0
LINE
  5
7F
330
B
100
AcDbEntity
 67
     1
  8
1
  6
Continuous
 62
    18
100
AcDbLine
 10
4.904182999999999
 20
4.147541
 30
0.0
 11
4.904182999999999
 21
3.841188999999999
 31
0.0
  0
LINE
  5
80
330
B
100
AcDbEntity
 67
     1
  8
1
  6
Continuous
 62
    18
100
AcDbLine
 10
2.135950999999999
 20
3.918622
 30
0.0
 11
2.135950999999999
 21
3.894873
 31
0.0
  0
LINE
  5
81
330
B
100
AcDbEntity
 67
     1
  8
1
  6
Continuous
 62
    18
100
AcDbLine
 10
5.784648999999999
 20
3.82059
 30
0.0
 11
5.782353999999999
 21
3.809087999999999
 31
0.0
  0
LINE
  5
82
330
B
100
AcDbEntity
 67
     1
  8
1
  6
Continuous
 62
    18
100
AcDbLine
 10
2.379037999999999
 20
6.437854999999999
 30
0.0
 11
2.39433
 21
6.426463
 31
0.0
  0
LINE
  5
83
330
B
100
AcDbEntity
 67
     1
  8
1
  6
Continuous
 62
    18
100
AcDbLine
 10
2.298038999999999
 20
3.685619
 30
0.0
 11
2.361881
 21
3.692846999999999
 31
0.0
  0
LINE
  5
84
330
B
100
AcDbEntity
 67
     1
  8
1
  6
Continuous
 62
    18
100
AcDbLine
 10
5.014070999999999
 20
3.822917999999999
 30
0.0
 11
5.014069999999999
 21
3.821101999999999
 31
0.0
  0
LINE
  5
85
330
B
100
AcDbEntity
 67
     1
  8
1
  6
Continuous
 62
    18
100
AcDbLine
 10
1.555482999999999
 20
3.708057
 30
0.0
 11
1.555482999999999
 21
4.280673
 31
0.0
  0
LINE
  5
86
330
B
100
AcDbEntity
 67
     1
  8
1
  6
Continuous
 62
    18
100
AcDbLine
 10
5.727694999999999
 20
3.735601999999999
 30
0.0
 11
5.709668999999999
 21
3.735601999999999
 31
0.0
  0
LINE
  5
87
330
B
100
AcDbEntity
 67
     1
  8
1
  6
Continuous
 62
    18
100
AcDbLine
 10
2.274636999999999
 20
6.423217
 30
0.0
 11
2.216983
 21
6.419583
 31
0.0
  0
LINE
  5
88
330
B
100
AcDbEntity
 67
     1
  8
1
  6
Continuous
 62
    18
100
AcDbLine
 10
4.963979
 20
3.752084999999999
 30
0.0
 11
4.962824999999999
 21
3.762804
 31
0.0
  0
LINE
  5
89
330
B
100
AcDbEntity
 67
     1
  8
1
  6
Continuous
 62
    18
100
AcDbLine
 10
2.054927999999999
 20
5.620187
 30
0.0
 11
2.039636999999999
 21
5.631579
 31
0.0
  0
LINE
  5
8A
330
B
100
AcDbEntity
 67
     1
  8
1
  6
Continuous
 62
    18
100
AcDbLine
 10
2.350114
 20
4.184098999999999
 30
0.0
 11
2.350114
 21
4.237176999999999
 31
0.0
  0
LINE
  5
8B
330
B
100
AcDbEntity
 67
     1
  8
1
  6
Continuous
 62
    18
100
AcDbLine
 10
5.701298
 20
3.823377999999999
 30
0.0
 11
5.709668999999999
 21
3.82059
 31
0.0
  0
LINE
  5
8C
330
B
100
AcDbEntity
 67
     1
  8
1
  6
Continuous
 62
    18
100
AcDbLine
 10
5.595032999999999
 20
3.892365
 30
0.0
 11
5.611032999999999
 21
3.892365
 31
0.0
  0
LINE
  5
8D
330
B
100
AcDbEntity
 67
     1
  8
1
  6
Continuous
 62
    18
100
AcDbLine
 10
1.879754
 20
3.840916999999999
 30
0.0
 11
1.874674
 21
3.841362
 31
0.0
  0
LINE
  5
8E
330
B
100
AcDbEntity
 67
     1
  8
1
  6
Continuous
 62
    18
100
AcDbLine
 10
2.159329
 20
5.634825
 30
0.0
 11
2.216983
 21
5.638458999999999
 31
0.0
  0
LINE
  5
8F
330
B
100
AcDbEntity
 67
     1
  8
1
  6
Continuous
 62
    18
100
AcDbLine
 10
5.729981999999999
 20
3.822876999999999
 30
0.0
 11
5.701298
 21
3.823377999999999
 31
0.0
  0
LINE
  5
90
330
B
100
AcDbEntity
 67
     1
  8
1
  6
Continuous
 62
    18
100
AcDbLine
 10
2.398393999999999
 20
4.234022
 30
0.0
 11
2.405218999999999
 21
4.233289
 31
0.0
  0
LINE
  5
91
330
B
100
AcDbEntity
 67
     1
  8
1
  6
Continuous
 62
    18
100
AcDbLine
 10
2.556883
 20
3.824716999999999
 30
0.0
 11
2.556883
 21
3.822754
 31
0.0
  0
LINE
  5
92
330
B
100
AcDbEntity
 67
     1
  8
1
  6
Continuous
 62
    18
100
AcDbLine
 10
2.029497999999999
 20
3.73233
 30
0.0
 11
2.039636999999999
 21
3.732507
 31
0.0
  0
LINE
  5
93
330
B
100
AcDbEntity
 67
     1
  8
1
  6
Continuous
 62
    18
100
AcDbLine
 10
2.404615999999999
 20
5.670601
 30
0.0
 11
2.408015
 21
5.670541
 31
0.0
  0
LINE
  5
94
330
B
100
AcDbEntity
 67
     1
  8
1
  6
Continuous
 62
    18
100
AcDbLine
 10
2.279729
 20
3.948001
 30
0.0
 11
2.284982999999999
 21
3.961512999999999
 31
0.0
  0
LINE
  5
95
330
B
100
AcDbEntity
 67
     1
  8
1
  6
Continuous
 62
    18
100
AcDbLine
 10
4.958865
 20
4.00624
 30
0.0
 11
4.959868
 21
4.00624
 31
0.0
  0
LINE
  5
96
330
B
100
AcDbEntity
 67
     1
  8
1
  6
Continuous
 62
    18
100
AcDbLine
 10
5.664090999999999
 20
4.280673
 30
0.0
 11
5.680352
 21
4.281006999999999
 31
0.0
  0
LINE
  5
97
330
B
100
AcDbEntity
 67
     1
  8
1
  6
Continuous
 62
    18
100
AcDbLine
 10
2.216983
 20
4.168139
 30
0.0
 11
2.216983
 21
4.186500999999999
 31
0.0
  0
LINE
  5
98
330
B
100
AcDbEntity
 67
     1
  8
1
  6
Continuous
 62
    18
100
AcDbLine
 10
2.350114
 20
4.237176999999999
 30
0.0
 11
2.348291
 21
4.237144999999999
 31
0.0
  0
LINE
  5
99
330
B
100
AcDbEntity
 67
     1
  8
1
  6
Continuous
 62
    18
100
AcDbLine
 10
5.769988999999999
 20
3.800862
 30
0.0
 11
5.728221999999999
 21
3.797641999999999
 31
0.0
  0
LINE
  5
9A
330
B
100
AcDbEntity
 67
     1
  8
1
  6
Continuous
 62
    18
100
AcDbLine
 10
5.781384
 20
4.255956999999999
 30
0.0
 11
5.769992
 21
4.256223999999999
 31
0.0
  0
LINE
  5
9B
330
B
100
AcDbEntity
 67
     1
  8
1
  6
Continuous
 62
    18
100
AcDbLine
 10
2.138818999999999
 20
4.100866
 30
0.0
 11
2.135950999999999
 21
4.093856999999999
 31
0.0
  0
LINE
  5
9C
330
B
100
AcDbEntity
 67
     1
  8
1
  6
Continuous
 62
    18
100
AcDbLine
 10
2.404615999999999
 20
5.640165
 30
0.0
 11
2.408015
 21
5.636692
 31
0.0
  0
LINE
  5
9D
330
B
100
AcDbEntity
 67
     1
  8
1
  6
Continuous
 62
    18
100
AcDbLine
 10
2.176527
 20
3.971955
 30
0.0
 11
2.190881999999999
 21
3.971705
 31
0.0
  0
LINE
  5
9E
330
B
100
AcDbEntity
 67
     1
  8
1
  6
Continuous
 62
    18
100
AcDbLine
 10
1.619031999999999
 20
4.276232
 30
0.0
 11
1.608366
 21
4.279796
 31
0.0
  0
LINE
  5
9F
330
B
100
AcDbEntity
 67
     1
  8
1
  6
Continuous
 62
    18
100
AcDbLine
 10
4.983149
 20
3.686920999999999
 30
0.0
 11
4.988633
 21
3.68528
 31
0.0
  0
LINE
  5
A0
330
B
100
AcDbEntity
 67
     1
  8
1
  6
Continuous
 62
    18
100
AcDbLine
 10
5.099942999999999
 20
3.895718
 30
0.0
 11
5.099942999999999
 21
4.093013
 31
0.0
  0
LINE
  5
A1
330
B
100
AcDbEntity
 67
     1
  8
1
  6
Continuous
 62
    18
100
AcDbLine
 10
2.251301999999999
 20
4.187394
 30
0.0
 11
2.247183
 21
4.191088999999999
 31
0.0
  0
LINE
  5
A2
330
B
100
AcDbEntity
 67
     1
  8
1
  6
Continuous
 62
    18
100
AcDbLine
 10
2.261983
 20
3.941176999999999
 30
0.0
 11
2.261983
 21
3.939169999999999
 31
0.0
  0
LINE
  5
A3
330
B
100
AcDbEntity
 67
     1
  8
1
  6
Continuous
 62
    18
100
AcDbLine
 10
4.962545999999999
 20
4.106398999999999
 30
0.0
 11
4.960080999999999
 21
4.10977
 31
0.0
  0
LINE
  5
A4
330
B
100
AcDbEntity
 67
     1
  8
1
  6
Continuous
 62
    18
100
AcDbLine
 10
5.725153999999999
 20
3.732267999999999
 30
0.0
 11
5.725153999999999
 21
3.694278999999999
 31
0.0
  0
LINE
  5
A5
330
B
100
AcDbEntity
 67
     1
  8
1
  6
Continuous
 62
    18
100
AcDbLine
 10
4.965085
 20
4.234022
 30
0.0
 11
4.970519999999999
 21
4.256035999999999
 31
0.0
  0
LINE
  5
A6
330
B
100
AcDbEntity
 67
     1
  8
1
  6
Continuous
 62
    18
100
AcDbLine
 10
5.770705999999999
 20
3.670495999999999
 30
0.0
 11
5.771372
 21
3.670273999999999
 31
0.0
  0
LINE
  5
A7
330
B
100
AcDbEntity
 67
     1
  8
1
  6
Continuous
 62
    18
100
AcDbLine
 10
2.216983
 20
5.673875999999999
 30
0.0
 11
2.216983
 21
5.638458999999999
 31
0.0
  0
LINE
  5
A8
330
B
100
AcDbEntity
 67
     1
  8
1
  6
Continuous
 62
    18
100
AcDbLine
 10
2.085950999999999
 20
4.255415
 30
0.0
 11
2.073202
 21
4.255637999999999
 31
0.0
  0
LINE
  5
A9
330
B
100
AcDbEntity
 67
     1
  8
1
  6
Continuous
 62
    18
100
AcDbLine
 10
2.394878999999999
 20
3.701311
 30
0.0
 11
2.380129999999999
 21
3.690247
 31
0.0
  0
LINE
  5
AA
330
B
100
AcDbEntity
 67
     1
  8
1
  6
Continuous
 62
    18
100
AcDbLine
 10
4.954565
 20
4.147812999999999
 30
0.0
 11
4.954565
 21
3.840916999999999
 31
0.0
  0
LINE
  5
AB
330
B
100
AcDbEntity
 67
     1
  8
1
  6
Continuous
 62
    18
100
AcDbLine
 10
2.405148
 20
3.766755999999999
 30
0.0
 11
2.408015
 21
3.766755999999999
 31
0.0
  0
LINE
  5
AC
330
B
100
AcDbEntity
 67
     1
  8
1
  6
Continuous
 62
    18
100
AcDbLine
 10
5.015153999999999
 20
3.751554
 30
0.0
 11
5.015153999999999
 21
3.804630999999999
 31
0.0
  0
LINE
  5
AD
330
B
100
AcDbEntity
 67
     1
  8
1
  6
Continuous
 62
    18
100
AcDbLine
 10
2.216983
 20
4.105099
 30
0.0
 11
2.216952999999999
 21
4.108030999999999
 31
0.0
  0
LINE
  5
AE
330
B
100
AcDbEntity
 67
     1
  8
1
  6
Continuous
 62
    18
100
AcDbLine
 10
4.958865
 20
3.918622
 30
0.0
 11
4.958965
 21
3.932641
 31
0.0
  0
LINE
  5
AF
330
B
100
AcDbEntity
 67
     1
  8
1
  6
Continuous
 62
    18
100
AcDbLine
 10
2.196126
 20
3.929499999999999
 30
0.0
 11
2.203084
 21
3.932488999999999
 31
0.0
  0
LINE
  5
B0
330
B
100
AcDbEntity
 67
     1
  8
1
  6
Continuous
 62
    18
100
AcDbLine
 10
4.958965
 20
4.05609
 30
0.0
 11
4.958865
 21
4.070108
 31
0.0
  0
LINE
  5
B1
330
B
100
AcDbEntity
 67
     1
  8
1
  6
Continuous
 62
    18
100
AcDbLine
 10
5.743533
 20
3.839741999999999
 30
0.0
 11
5.729352999999999
 21
3.824968
 31
0.0
  0
LINE
  5
B2
330
B
100
AcDbEntity
 67
     1
  8
1
  6
Continuous
 62
    18
100
AcDbLine
 10
5.769988999999999
 20
3.756556999999999
 30
0.0
 11
5.764726999999999
 21
3.751584999999999
 31
0.0
  0
LINE
  5
B3
330
B
100
AcDbEntity
 67
     1
  8
1
  6
Continuous
 62
    18
100
AcDbLine
 10
2.205950999999999
 20
3.961615
 30
0.0
 11
2.203084
 21
3.968623999999999
 31
0.0
  0
LINE
  5
B4
330
B
100
AcDbEntity
 67
     1
  8
1
  6
Continuous
 62
    18
100
AcDbLine
 10
4.988633
 20
4.303449999999999
 30
0.0
 11
5.014866999999999
 21
4.303449999999999
 31
0.0
  0
LINE
  5
B5
330
B
100
AcDbEntity
 67
     1
  8
1
  6
Continuous
 62
    18
100
AcDbLine
 10
2.202227999999999
 20
3.961666999999999
 30
0.0
 11
2.191613999999999
 21
3.961814999999999
 31
0.0
  0
LINE
  5
B6
330
B
100
AcDbEntity
 67
     1
  8
1
  6
Continuous
 62
    18
100
AcDbLine
 10
2.342760999999999
 20
5.816294999999999
 30
0.0
 11
2.348015
 21
5.802782999999999
 31
0.0
  0
LINE
  5
B7
330
B
100
AcDbEntity
 67
     1
  8
1
  6
Continuous
 62
    18
100
AcDbLine
 10
5.24544
 20
3.984365
 30
0.0
 11
5.19544
 21
3.984365
 31
0.0
  0
LINE
  5
B8
330
B
100
AcDbEntity
 67
     1
  8
1
  6
Continuous
 62
    18
100
AcDbLine
 10
2.143527999999999
 20
4.315873
 30
0.0
 11
2.085950999999999
 21
4.318456999999999
 31
0.0
  0
LINE
  5
B9
330
B
100
AcDbEntity
 67
     1
  8
1
  6
Continuous
 62
    18
100
AcDbLine
 10
2.353015
 20
4.184623
 30
0.0
 11
2.348450999999999
 21
4.179641999999999
 31
0.0
  0
LINE
  5
BA
330
B
100
AcDbEntity
 67
     1
  8
1
  6
Continuous
 62
    18
100
AcDbLine
 10
2.073202
 20
3.733093
 30
0.0
 11
2.073202
 21
3.670495999999999
 31
0.0
  0
LINE
  5
BB
330
B
100
AcDbEntity
 67
     1
  8
1
  6
Continuous
 62
    18
100
AcDbLine
 10
2.271459
 20
5.731741999999999
 30
0.0
 11
2.276088999999999
 21
5.731701999999999
 31
0.0
  0
LINE
  5
BC
330
B
100
AcDbEntity
 67
     1
  8
1
  6
Continuous
 62
    18
100
AcDbLine
 10
5.701298
 20
4.255916
 30
0.0
 11
5.709668999999999
 21
4.253128
 31
0.0
  0
LINE
  5
BD
330
B
100
AcDbEntity
 67
     1
  8
1
  6
Continuous
 62
    18
100
AcDbLine
 10
2.072086
 20
6.422639
 30
0.0
 11
2.153316999999999
 21
6.423473999999999
 31
0.0
  0
LINE
  5
BE
330
B
100
AcDbEntity
 67
     1
  8
1
  6
Continuous
 62
    18
100
AcDbLine
 10
2.156824
 20
4.016430999999999
 30
0.0
 11
2.156895999999999
 21
4.019360999999999
 31
0.0
  0
LINE
  5
BF
330
B
100
AcDbEntity
 67
     1
  8
1
  6
Continuous
 62
    18
100
AcDbLine
 10
5.722691
 20
3.804341999999999
 30
0.0
 11
5.725908
 21
3.82059
 31
0.0
  0
LINE
  5
C0
330
B
100
AcDbEntity
 67
     1
  8
1
  6
Continuous
 62
    18
100
AcDbLine
 10
5.734530999999999
 20
4.256463
 30
0.0
 11
5.725153999999999
 21
4.294451
 31
0.0
  0
LINE
  5
C1
330
B
100
AcDbEntity
 67
     1
  8
1
  6
Continuous
 62
    18
100
AcDbLine
 10
2.080950999999999
 20
6.437591999999999
 30
0.0
 11
2.081141
 21
6.437281999999999
 31
0.0
  0
LINE
  5
C2
330
B
100
AcDbEntity
 67
     1
  8
1
  6
Continuous
 62
    18
100
AcDbLine
 10
5.126533
 20
3.916864999999999
 30
0.0
 11
5.125227999999999
 21
3.916864999999999
 31
0.0
  0
LINE
  5
C3
330
B
100
AcDbEntity
 67
     1
  8
1
  6
Continuous
 62
    18
100
AcDbLine
 10
2.38017
 20
3.854522
 30
0.0
 11
2.361675999999999
 21
3.860949999999999
 31
0.0
  0
LINE
  5
C4
330
B
100
AcDbEntity
 67
     1
  8
1
  6
Continuous
 62
    18
100
AcDbLine
 10
5.781384
 20
3.732773999999999
 30
0.0
 11
5.786158
 21
3.733093
 31
0.0
  0
LINE
  5
C5
330
B
100
AcDbEntity
 67
     1
  8
1
  6
Continuous
 62
    18
100
AcDbLine
 10
2.035776999999999
 20
6.437956999999999
 30
0.0
 11
2.080950999999999
 21
6.438746
 31
0.0
  0
LINE
  5
C6
330
B
100
AcDbEntity
 67
     1
  8
1
  6
Continuous
 62
    18
100
AcDbLine
 10
4.960080999999999
 20
3.934535999999999
 30
0.0
 11
4.959208
 21
3.938619
 31
0.0
  0
LINE
  5
C7
330
B
100
AcDbEntity
 67
     1
  8
1
  6
Continuous
 62
    18
100
AcDbLine
 10
5.728458999999999
 20
3.753114
 30
0.0
 11
5.729981999999999
 21
3.75159
 31
0.0
  0
LINE
  5
C8
330
B
100
AcDbEntity
 67
     1
  8
1
  6
Continuous
 62
    18
100
AcDbLine
 10
5.099942999999999
 20
4.093013
 30
0.0
 11
5.11371
 21
4.093013
 31
0.0
  0
LINE
  5
C9
330
B
100
AcDbEntity
 67
     1
  8
1
  6
Continuous
 62
    18
100
AcDbLine
 10
2.217122
 20
6.424062
 30
0.0
 11
2.217045999999999
 21
6.423602999999999
 31
0.0
  0
LINE
  5
CA
330
B
100
AcDbEntity
 67
     1
  8
1
  6
Continuous
 62
    18
100
AcDbLine
 10
2.361881
 20
5.635403
 30
0.0
 11
2.280649
 21
5.634567999999999
 31
0.0
  0
LINE
  5
CB
330
B
100
AcDbEntity
 67
     1
  8
1
  6
Continuous
 62
    18
100
AcDbLine
 10
2.348015
 20
4.318456999999999
 30
0.0
 11
2.216983
 21
4.316169999999999
 31
0.0
  0
LINE
  5
CC
330
B
100
AcDbEntity
 67
     1
  8
1
  6
Continuous
 62
    18
100
AcDbLine
 10
2.126125999999999
 20
4.00624
 30
0.0
 11
2.131861
 21
4.020258
 31
0.0
  0
LINE
  5
CD
330
B
100
AcDbEntity
 67
     1
  8
1
  6
Continuous
 62
    18
100
AcDbLine
 10
5.708325
 20
4.284041
 30
0.0
 11
5.715415
 21
4.281114999999999
 31
0.0
  0
LINE
  5
CE
330
B
100
AcDbEntity
 67
     1
  8
1
  6
Continuous
 62
    18
100
AcDbLine
 10
2.811031
 20
6.349194
 30
0.0
 11
2.814934999999999
 21
6.347536999999999
 31
0.0
  0
LINE
  5
CF
330
B
100
AcDbEntity
 67
     1
  8
1
  6
Continuous
 62
    18
100
AcDbLine
 10
4.958164
 20
3.733315
 30
0.0
 11
4.962716999999999
 21
3.735601999999999
 31
0.0
  0
LINE
  5
D0
330
B
100
AcDbEntity
 67
     1
  8
1
  6
Continuous
 62
    18
100
AcDbLine
 10
5.150033
 20
4.096365
 30
0.0
 11
5.134033
 21
4.096365
 31
0.0
  0
LINE
  5
D1
330
B
100
AcDbEntity
 67
     1
  8
1
  6
Continuous
 62
    18
100
AcDbLine
 10
2.39819
 20
5.620084999999999
 30
0.0
 11
2.353015
 21
5.619297
 31
0.0
  0
LINE
  5
D2
330
B
100
AcDbEntity
 67
     1
  8
1
  6
Continuous
 62
    18
100
AcDbLine
 10
2.216983
 20
5.830576999999999
 30
0.0
 11
2.216983
 21
6.225469
 31
0.0
  0
LINE
  5
D3
330
B
100
AcDbEntity
 67
     1
  8
1
  6
Continuous
 62
    18
100
AcDbLine
 10
2.362372999999999
 20
4.117817999999999
 30
0.0
 11
2.216983
 21
4.105099
 31
0.0
  0
LINE
  5
D4
330
B
100
AcDbEntity
 67
     1
  8
1
  6
Continuous
 62
    18
100
AcDbLine
 10
5.11371
 20
4.093013
 30
0.0
 11
5.119915999999999
 21
4.093013
 31
0.0
  0
LINE
  5
D5
330
B
100
AcDbEntity
 67
     1
  8
1
  6
Continuous
 62
    18
100
AcDbLine
 10
5.623635
 20
3.897266
 30
0.0
 11
5.625183999999999
 21
3.895718
 31
0.0
  0
LINE
  5
D6
330
B
100
AcDbEntity
 67
     1
  8
1
  6
Continuous
 62
    18
100
AcDbLine
 10
2.645791
 20
6.432294999999999
 30
0.0
 11
2.581008999999999
 21
6.494316999999999
 31
0.0
  0
LINE
  5
D7
330
B
100
AcDbEntity
 67
     1
  8
1
  6
Continuous
 62
    18
100
AcDbLine
 10
5.014069999999999
 20
3.821101999999999
 30
0.0
 11
4.973612
 21
3.821101999999999
 31
0.0
  0
LINE
  5
D8
330
B
100
AcDbEntity
 67
     1
  8
1
  6
Continuous
 62
    18
100
AcDbLine
 10
5.015119
 20
4.318456999999999
 30
0.0
 11
4.973729
 21
4.318456999999999
 31
0.0
  0
LINE
  5
D9
330
B
100
AcDbEntity
 67
     1
  8
1
  6
Continuous
 62
    18
100
AcDbLine
 10
2.057266999999999
 20
4.165351999999999
 30
0.0
 11
2.085950999999999
 21
4.165853
 31
0.0
  0
LINE
  5
DA
330
B
100
AcDbEntity
 67
     1
  8
1
  6
Continuous
 62
    18
100
AcDbLine
 10
5.782353999999999
 20
3.809087999999999
 30
0.0
 11
5.782275
 21
3.804107
 31
0.0
  0
LINE
  5
DB
330
B
100
AcDbEntity
 67
     1
  8
1
  6
Continuous
 62
    18
100
AcDbLine
 10
1.790522
 20
5.634637999999999
 30
0.0
 11
1.786633
 21
5.629762999999999
 31
0.0
  0
LINE
  5
DC
330
B
100
AcDbEntity
 67
     1
  8
1
  6
Continuous
 62
    18
100
AcDbLine
 10
2.39433
 20
6.426463
 30
0.0
 11
2.404468
 21
6.410069999999999
 31
0.0
  0
LINE
  5
DD
330
B
100
AcDbEntity
 67
     1
  8
1
  6
Continuous
 62
    18
100
AcDbLine
 10
5.014069999999999
 20
3.73509
 30
0.0
 11
5.014069999999999
 21
3.821101999999999
 31
0.0
  0
LINE
  5
DE
330
B
100
AcDbEntity
 67
     1
  8
1
  6
Continuous
 62
    18
100
AcDbLine
 10
1.622935
 20
3.717462
 30
0.0
 11
1.941403
 21
3.714682999999999
 31
0.0
  0
LINE
  5
DF
330
B
100
AcDbEntity
 67
     1
  8
1
  6
Continuous
 62
    18
100
AcDbLine
 10
5.727694999999999
 20
3.82059
 30
0.0
 11
5.729989999999999
 21
3.809087999999999
 31
0.0
  0
LINE
  5
E0
330
B
100
AcDbEntity
 67
     1
  8
1
  6
Continuous
 62
    18
100
AcDbLine
 10
2.216983
 20
6.327358
 30
0.0
 11
2.216983
 21
6.384166
 31
0.0
  0
LINE
  5
E1
330
B
100
AcDbEntity
 67
     1
  8
1
  6
Continuous
 62
    18
100
AcDbLine
 10
2.216983
 20
6.326858
 30
0.0
 11
2.164324999999999
 21
6.326398
 31
0.0
  0
LINE
  5
E2
330
B
100
AcDbEntity
 67
     1
  8
1
  6
Continuous
 62
    18
100
AcDbLine
 10
5.014866999999999
 20
4.303449999999999
 30
0.0
 11
5.014556999999999
 21
4.298483999999999
 31
0.0
  0
LINE
  5
E3
330
B
100
AcDbEntity
 67
     1
  8
1
  6
Continuous
 62
    18
100
AcDbLine
 10
1.893184999999999
 20
4.148988
 30
0.0
 11
1.790522
 21
4.140006999999999
 31
0.0
  0
LINE
  5
E4
330
B
100
AcDbEntity
 67
     1
  8
1
  6
Continuous
 62
    18
100
AcDbLine
 10
2.666568999999999
 20
4.164127999999999
 30
0.0
 11
2.556883
 21
4.165976999999999
 31
0.0
  0
LINE
  5
E5
330
B
100
AcDbEntity
 67
     1
  8
1
  6
Continuous
 62
    18
100
AcDbLine
 10
5.701298
 20
3.823377999999999
 30
0.0
 11
5.701298
 21
3.732813999999999
 31
0.0
  0
LINE
  5
E6
330
B
100
AcDbEntity
 67
     1
  8
1
  6
Continuous
 62
    18
100
AcDbLine
 10
2.216983
 20
5.731183999999999
 30
0.0
 11
2.269641
 21
5.731644
 31
0.0
  0
LINE
  5
E7
330
B
100
AcDbEntity
 67
     1
  8
1
  6
Continuous
 62
    18
100
AcDbLine
 10
5.729981999999999
 20
3.822876999999999
 30
0.0
 11
5.712316999999999
 21
3.824423
 31
0.0
  0
LINE
  5
E8
330
B
100
AcDbEntity
 67
     1
  8
1
  6
Continuous
 62
    18
100
AcDbLine
 10
2.405218999999999
 20
4.233289
 30
0.0
 11
2.408015
 21
4.231626999999999
 31
0.0
  0
LINE
  5
E9
330
B
100
AcDbEntity
 67
     1
  8
1
  6
Continuous
 62
    18
100
AcDbLine
 10
2.556883
 20
3.824716999999999
 30
0.0
 11
2.556883
 21
4.164013999999999
 31
0.0
  0
LINE
  5
EA
330
B
100
AcDbEntity
 67
     1
  8
1
  6
Continuous
 62
    18
100
AcDbLine
 10
2.408015
 20
5.670541
 30
0.0
 11
2.408015
 21
5.636692
 31
0.0
  0
LINE
  5
EB
330
B
100
AcDbEntity
 67
     1
  8
1
  6
Continuous
 62
    18
100
AcDbLine
 10
2.284982999999999
 20
3.961512999999999
 30
0.0
 11
2.284982999999999
 21
4.027217
 31
0.0
  0
LINE
  5
EC
330
B
100
AcDbEntity
 67
     1
  8
1
  6
Continuous
 62
    18
100
AcDbLine
 10
2.408015
 20
4.221973999999999
 30
0.0
 11
2.408015
 21
4.167627999999999
 31
0.0
  0
LINE
  5
ED
330
B
100
AcDbEntity
 67
     1
  8
1
  6
Continuous
 62
    18
100
AcDbLine
 10
2.085950999999999
 20
6.255258999999999
 30
0.0
 11
2.085950999999999
 21
5.6302
 31
0.0
  0
LINE
  5
EE
330
B
100
AcDbEntity
 67
     1
  8
1
  6
Continuous
 62
    18
100
AcDbLine
 10
4.959868
 20
4.00624
 30
0.0
 11
4.962545999999999
 21
4.00624
 31
0.0
  0
LINE
  5
EF
330
B
100
AcDbEntity
 67
     1
  8
1
  6
Continuous
 62
    18
100
AcDbLine
 10
5.664090999999999
 20
3.708057
 30
0.0
 11
5.664090999999999
 21
4.280673
 31
0.0
  0
LINE
  5
F0
330
B
100
AcDbEntity
 67
     1
  8
1
  6
Continuous
 62
    18
100
AcDbLine
 10
2.216983
 20
4.253128
 30
0.0
 11
2.216983
 21
4.186503
 31
0.0
  0
LINE
  5
F1
330
B
100
AcDbEntity
 67
     1
  8
1
  6
Continuous
 62
    18
100
AcDbLine
 10
2.216983
 20
5.830576999999999
 30
0.0
 11
2.327758
 21
5.820885999999999
 31
0.0
  0
LINE
  5
F2
330
B
100
AcDbEntity
 67
     1
  8
1
  6
Continuous
 62
    18
100
AcDbLine
 10
2.348015
 20
4.232173
 30
0.0
 11
2.348015
 21
4.187869
 31
0.0
  0
LINE
  5
F3
330
B
100
AcDbEntity
 67
     1
  8
1
  6
Continuous
 62
    18
100
AcDbLine
 10
4.964288999999999
 20
3.750720999999999
 30
0.0
 11
4.963979
 21
3.752084999999999
 31
0.0
  0
LINE
  5
F4
330
B
100
AcDbEntity
 67
     1
  8
1
  6
Continuous
 62
    18
100
AcDbLine
 10
2.205950999999999
 20
4.027116
 30
0.0
 11
2.203084
 21
4.020106
 31
0.0
  0
LINE
  5
F5
330
B
100
AcDbEntity
 67
     1
  8
1
  6
Continuous
 62
    18
100
AcDbLine
 10
2.39819
 20
5.620084999999999
 30
0.0
 11
2.398393999999999
 21
5.621555999999999
 31
0.0
  0
LINE
  5
F6
330
B
100
AcDbEntity
 67
     1
  8
1
  6
Continuous
 62
    18
100
AcDbLine
 10
2.190881999999999
 20
3.971705
 30
0.0
 11
2.196126
 21
3.971612999999999
 31
0.0
  0
LINE
  5
F7
330
B
100
AcDbEntity
 67
     1
  8
1
  6
Continuous
 62
    18
100
AcDbLine
 10
4.970519999999999
 20
3.732694999999999
 30
0.0
 11
4.973487
 21
3.733427999999999
 31
0.0
  0
LINE
  5
F8
330
B
100
AcDbEntity
 67
     1
  8
1
  6
Continuous
 62
    18
100
AcDbLine
 10
5.099942999999999
 20
4.093013
 30
0.0
 11
5.103953999999999
 21
4.107998999999999
 31
0.0
  0
LINE
  5
F9
330
B
100
AcDbEntity
 67
     1
  8
1
  6
Continuous
 62
    18
100
AcDbLine
 10
2.260731999999999
 20
3.753114
 30
0.0
 11
2.251145999999999
 21
3.754733999999999
 31
0.0
  0
LINE
  5
FA
330
B
100
AcDbEntity
 67
     1
  8
1
  6
Continuous
 62
    18
100
AcDbLine
 10
5.129901999999999
 20
4.102998999999999
 30
0.0
 11
5.131451
 21
4.101450999999999
 31
0.0
  0
LINE
  5
FB
330
B
100
AcDbEntity
 67
     1
  8
1
  6
Continuous
 62
    18
100
AcDbLine
 10
4.981987999999999
 20
3.672559999999999
 30
0.0
 11
5.015117
 21
3.672559999999999
 31
0.0
  0
LINE
  5
FC
330
B
100
AcDbEntity
 67
     1
  8
1
  6
Continuous
 62
    18
100
AcDbLine
 10
4.960080999999999
 20
4.10977
 30
0.0
 11
4.959208
 21
4.113853999999999
 31
0.0
  0
LINE
  5
FD
330
B
100
AcDbEntity
 67
     1
  8
1
  6
Continuous
 62
    18
100
AcDbLine
 10
5.725153999999999
 20
3.732267999999999
 30
0.0
 11
5.693991999999999
 21
3.725508
 31
0.0
  0
LINE
  5
FE
330
B
100
AcDbEntity
 67
     1
  8
1
  6
Continuous
 62
    18
100
AcDbLine
 10
2.361881
 20
4.295882999999999
 30
0.0
 11
2.362295
 21
4.301328999999999
 31
0.0
  0
LINE
  5
FF
330
B
100
AcDbEntity
 67
     1
  8
1
  6
Continuous
 62
    18
100
AcDbLine
 10
2.361881
 20
4.295882999999999
 30
0.0
 11
2.280649
 21
4.305350999999999
 31
0.0
  0
LINE
  5
100
330
B
100
AcDbEntity
 67
     1
  8
1
  6
Continuous
 62
    18
100
AcDbLine
 10
2.362324999999999
 20
3.686920999999999
 30
0.0
 11
2.362372999999999
 21
3.68528
 31
0.0
  0
LINE
  5
101
330
B
100
AcDbEntity
 67
     1
  8
1
  6
Continuous
 62
    18
100
AcDbLine
 10
4.970519999999999
 20
4.256035999999999
 30
0.0
 11
4.975019
 21
4.275019999999999
 31
0.0
  0
LINE
  5
102
330
B
100
AcDbEntity
 67
     1
  8
1
  6
Continuous
 62
    18
100
AcDbLine
 10
2.085950999999999
 20
5.614634999999999
 30
0.0
 11
1.879754
 21
5.611036
 31
0.0
  0
LINE
  5
103
330
B
100
AcDbEntity
 67
     1
  8
1
  6
Continuous
 62
    18
100
AcDbLine
 10
2.062051999999999
 20
3.824968
 30
0.0
 11
2.068668999999999
 21
3.824389
 31
0.0
  0
LINE
  5
104
330
B
100
AcDbEntity
 67
     1
  8
1
  6
Continuous
 62
    18
100
AcDbLine
 10
4.977388999999999
 20
4.312583999999999
 30
0.0
 11
4.977508999999999
 21
4.312983999999999
 31
0.0
  0
LINE
  5
105
330
B
100
AcDbEntity
 67
     1
  8
1
  6
Continuous
 62
    18
100
AcDbLine
 10
5.708325
 20
3.70469
 30
0.0
 11
5.680352
 21
3.707723
 31
0.0
  0
LINE
  5
106
330
B
100
AcDbEntity
 67
     1
  8
1
  6
Continuous
 62
    18
100
AcDbLine
 10
2.380129999999999
 20
3.690247
 30
0.0
 11
2.362372999999999
 21
3.68528
 31
0.0
  0
LINE
  5
107
330
B
100
AcDbEntity
 67
     1
  8
1
  6
Continuous
 62
    18
100
AcDbLine
 10
4.958164
 20
3.822876999999999
 30
0.0
 11
4.954565
 21
3.840916999999999
 31
0.0
  0
LINE
  5
108
330
B
100
AcDbEntity
 67
     1
  8
1
  6
Continuous
 62
    18
100
AcDbLine
 10
2.216983
 20
3.802227999999999
 30
0.0
 11
2.216983
 21
3.735602999999999
 31
0.0
  0
LINE
  5
109
330
B
100
AcDbEntity
 67
     1
  8
1
  6
Continuous
 62
    18
100
AcDbLine
 10
2.068668999999999
 20
4.164341
 30
0.0
 11
2.062051999999999
 21
4.163762
 31
0.0
  0
LINE
  5
10A
330
B
100
AcDbEntity
 67
     1
  8
1
  6
Continuous
 62
    18
100
AcDbLine
 10
4.958965
 20
3.932641
 30
0.0
 11
4.959208
 21
3.938619
 31
0.0
  0
LINE
  5
10B
330
B
100
AcDbEntity
 67
     1
  8
1
  6
Continuous
 62
    18
100
AcDbLine
 10
5.786935999999999
 20
4.165853
 30
0.0
 11
5.790535
 21
4.147812999999999
 31
0.0
  0
LINE
  5
10C
330
B
100
AcDbEntity
 67
     1
  8
1
  6
Continuous
 62
    18
100
AcDbLine
 10
2.203084
 20
3.932488999999999
 30
0.0
 11
2.205950999999999
 21
3.939498
 31
0.0
  0
LINE
  5
10D
330
B
100
AcDbEntity
 67
     1
  8
1
  6
Continuous
 62
    18
100
AcDbLine
 10
4.958865
 20
4.070108
 30
0.0
 11
4.958865
 21
4.093856999999999
 31
0.0
  0
LINE
  5
10E
330
B
100
AcDbEntity
 67
     1
  8
1
  6
Continuous
 62
    18
100
AcDbLine
 10
5.126533
 20
4.071864999999999
 30
0.0
 11
5.126533
 21
3.916864999999999
 31
0.0
  0
LINE
  5
10F
330
B
100
AcDbEntity
 67
     1
  8
1
  6
Continuous
 62
    18
100
AcDbLine
 10
5.729352999999999
 20
3.824968
 30
0.0
 11
5.726053
 21
3.824389
 31
0.0
  0
LINE
  5
110
330
B
100
AcDbEntity
 67
     1
  8
1
  6
Continuous
 62
    18
100
AcDbLine
 10
2.203084
 20
3.968623999999999
 30
0.0
 11
2.196126
 21
3.971612999999999
 31
0.0
  0
LINE
  5
111
330
B
100
AcDbEntity
 67
     1
  8
1
  6
Continuous
 62
    18
100
AcDbLine
 10
5.015118
 20
4.304705999999999
 30
0.0
 11
5.014866999999999
 21
4.303449999999999
 31
0.0
  0
LINE
  5
112
330
B
100
AcDbEntity
 67
     1
  8
1
  6
Continuous
 62
    18
100
AcDbLine
 10
2.191613999999999
 20
3.961814999999999
 30
0.0
 11
2.175688
 21
3.962037
 31
0.0
  0
LINE
  5
113
330
B
100
AcDbEntity
 67
     1
  8
1
  6
Continuous
 62
    18
100
AcDbLine
 10
2.071593
 20
6.386703999999999
 30
0.0
 11
2.053836999999999
 21
6.387013999999999
 31
0.0
  0
LINE
  5
114
330
B
100
AcDbEntity
 67
     1
  8
1
  6
Continuous
 62
    18
100
AcDbLine
 10
5.24544
 20
3.994365
 30
0.0
 11
5.24544
 21
3.984365
 31
0.0
  0
LINE
  5
115
330
B
100
AcDbEntity
 67
     1
  8
1
  6
Continuous
 62
    18
100
AcDbLine
 10
2.085950999999999
 20
4.318456999999999
 30
0.0
 11
2.08592
 21
4.318456999999999
 31
0.0
  0
LINE
  5
116
330
B
100
AcDbEntity
 67
     1
  8
1
  6
Continuous
 62
    18
100
AcDbLine
 10
2.216983
 20
4.16814
 30
0.0
 11
2.348450999999999
 21
4.179641999999999
 31
0.0
  0
LINE
  5
117
330
B
100
AcDbEntity
 67
     1
  8
1
  6
Continuous
 62
    18
100
AcDbLine
 10
5.769988999999999
 20
4.187869
 30
0.0
 11
5.764555999999999
 21
4.182922
 31
0.0
  0
LINE
  5
118
330
B
100
AcDbEntity
 67
     1
  8
1
  6
Continuous
 62
    18
100
AcDbLine
 10
5.701298
 20
4.165351999999999
 30
0.0
 11
5.709668999999999
 21
4.16814
 31
0.0
  0
LINE
  5
119
330
B
100
AcDbEntity
 67
     1
  8
1
  6
Continuous
 62
    18
100
AcDbLine
 10
2.153316999999999
 20
6.423473999999999
 30
0.0
 11
2.217157999999999
 21
6.424180999999999
 31
0.0
  0
LINE
  5
11A
330
B
100
AcDbEntity
 67
     1
  8
1
  6
Continuous
 62
    18
100
AcDbLine
 10
2.156895999999999
 20
4.019360999999999
 30
0.0
 11
2.156824
 21
4.02643
 31
0.0
  0
LINE
  5
11B
330
B
100
AcDbEntity
 67
     1
  8
1
  6
Continuous
 62
    18
100
AcDbLine
 10
5.722691
 20
3.804341999999999
 30
0.0
 11
5.729981999999999
 21
3.804596
 31
0.0
  0
LINE
  5
11C
330
B
100
AcDbEntity
 67
     1
  8
1
  6
Continuous
 62
    18
100
AcDbLine
 10
2.408015
 20
3.821101999999999
 30
0.0
 11
2.408015
 21
3.766755999999999
 31
0.0
  0
LINE
  5
11D
330
B
100
AcDbEntity
 67
     1
  8
1
  6
Continuous
 62
    18
100
AcDbLine
 10
2.071593
 20
6.412937999999999
 30
0.0
 11
2.053836999999999
 21
6.413363999999999
 31
0.0
  0
LINE
  5
11E
330
B
100
AcDbEntity
 67
     1
  8
1
  6
Continuous
 62
    18
100
AcDbLine
 10
5.125227999999999
 20
3.916864999999999
 30
0.0
 11
5.121463999999999
 21
3.916864999999999
 31
0.0
  0
LINE
  5
11F
330
B
100
AcDbEntity
 67
     1
  8
1
  6
Continuous
 62
    18
100
AcDbLine
 10
2.361675999999999
 20
3.860949999999999
 30
0.0
 11
2.216633999999999
 21
3.873639999999999
 31
0.0
  0
LINE
  5
120
330
B
100
AcDbEntity
 67
     1
  8
1
  6
Continuous
 62
    18
100
AcDbLine
 10
5.786935999999999
 20
3.733315
 30
0.0
 11
5.786158
 21
3.733093
 31
0.0
  0
LINE
  5
121
330
B
100
AcDbEntity
 67
     1
  8
1
  6
Continuous
 62
    18
100
AcDbLine
 10
2.080950999999999
 20
6.438746
 30
0.0
 11
2.085515
 21
6.438826
 31
0.0
  0
LINE
  5
122
330
B
100
AcDbEntity
 67
     1
  8
1
  6
Continuous
 62
    18
100
AcDbLine
 10
2.025951
 20
4.256463
 30
0.0
 11
2.025951
 21
4.294451
 31
0.0
  0
LINE
  5
123
330
B
100
AcDbEntity
 67
     1
  8
1
  6
Continuous
 62
    18
100
AcDbLine
 10
2.217045999999999
 20
6.423602999999999
 30
0.0
 11
2.216977999999999
 21
6.422545999999999
 31
0.0
  0
LINE
  5
124
330
B
100
AcDbEntity
 67
     1
  8
1
  6
Continuous
 62
    18
100
AcDbLine
 10
2.280649
 20
5.634567999999999
 30
0.0
 11
2.216808
 21
5.633861
 31
0.0
  0
LINE
  5
125
330
B
100
AcDbEntity
 67
     1
  8
1
  6
Continuous
 62
    18
100
AcDbLine
 10
2.131861
 20
4.020258
 30
0.0
 11
2.145776999999999
 21
4.026237
 31
0.0
  0
LINE
  5
126
330
B
100
AcDbEntity
 67
     1
  8
1
  6
Continuous
 62
    18
100
AcDbLine
 10
5.122816999999999
 20
4.100099
 30
0.0
 11
5.119915999999999
 21
4.093013
 31
0.0
  0
LINE
  5
127
330
B
100
AcDbEntity
 67
     1
  8
1
  6
Continuous
 62
    18
100
AcDbLine
 10
5.715415
 20
4.281114999999999
 30
0.0
 11
5.71835
 21
4.274047
 31
0.0
  0
LINE
  5
128
330
B
100
AcDbEntity
 67
     1
  8
1
  6
Continuous
 62
    18
100
AcDbLine
 10
2.814934999999999
 20
6.347536999999999
 30
0.0
 11
2.825600999999999
 21
6.343008999999999
 31
0.0
  0
LINE
  5
129
330
B
100
AcDbEntity
 67
     1
  8
1
  6
Continuous
 62
    18
100
AcDbLine
 10
4.973726999999999
 20
3.670273999999999
 30
0.0
 11
4.958164
 21
3.733315
 31
0.0
  0
LINE
  5
12A
330
B
100
AcDbEntity
 67
     1
  8
1
  6
Continuous
 62
    18
100
AcDbLine
 10
2.353015
 20
5.619297
 30
0.0
 11
2.348450999999999
 21
5.619216999999999
 31
0.0
  0
LINE
  5
12B
330
B
100
AcDbEntity
 67
     1
  8
1
  6
Continuous
 62
    18
100
AcDbLine
 10
2.216983
 20
4.105099
 30
0.0
 11
2.362372999999999
 21
4.117817999999999
 31
0.0
  0
LINE
  5
12C
330
B
100
AcDbEntity
 67
     1
  8
1
  6
Continuous
 62
    18
100
AcDbLine
 10
5.625183999999999
 20
3.895718
 30
0.0
 11
5.625183999999999
 21
4.093013
 31
0.0
  0
LINE
  5
12D
330
B
100
AcDbEntity
 67
     1
  8
1
  6
Continuous
 62
    18
100
AcDbLine
 10
2.581008999999999
 20
6.494316999999999
 30
0.0
 11
2.574268
 21
6.497091999999999
 31
0.0
  0
LINE
  5
12E
330
B
100
AcDbEntity
 67
     1
  8
1
  6
Continuous
 62
    18
100
AcDbLine
 10
1.859699
 20
5.56095
 30
0.0
 11
1.876645
 21
5.560655
 31
0.0
  0
LINE
  5
12F
330
B
100
AcDbEntity
 67
     1
  8
1
  6
Continuous
 62
    18
100
AcDbLine
 10
1.593792
 20
4.281006999999999
 30
0.0
 11
1.941403
 21
4.284041
 31
0.0
  0
LINE
  5
130
330
B
100
AcDbEntity
 67
     1
  8
1
  6
Continuous
 62
    18
100
AcDbLine
 10
4.973729
 20
4.318456999999999
 30
0.0
 11
4.978354
 21
4.317175999999999
 31
0.0
  0
LINE
  5
131
330
B
100
AcDbEntity
 67
     1
  8
1
  6
Continuous
 62
    18
100
AcDbLine
 10
4.959208
 20
3.962494
 30
0.0
 11
4.960080999999999
 21
3.966577999999999
 31
0.0
  0
LINE
  5
132
330
B
100
AcDbEntity
 67
     1
  8
1
  6
Continuous
 62
    18
100
AcDbLine
 10
2.085950999999999
 20
3.822876999999999
 30
0.0
 11
2.057266999999999
 21
3.823377999999999
 31
0.0
  0
LINE
  5
133
330
B
100
AcDbEntity
 67
     1
  8
1
  6
Continuous
 62
    18
100
AcDbLine
 10
5.782275
 20
3.804107
 30
0.0
 11
5.782275
 21
3.762804
 31
0.0
  0
LINE
  5
134
330
B
100
AcDbEntity
 67
     1
  8
1
  6
Continuous
 62
    18
100
AcDbLine
 10
2.404468
 20
6.410069999999999
 30
0.0
 11
2.408015
 21
6.391002999999999
 31
0.0
  0
LINE
  5
135
330
B
100
AcDbEntity
 67
     1
  8
1
  6
Continuous
 62
    18
100
AcDbLine
 10
5.771372
 20
4.318456999999999
 30
0.0
 11
5.786935999999999
 21
4.255415
 31
0.0
  0
LINE
  5
136
330
B
100
AcDbEntity
 67
     1
  8
1
  6
Continuous
 62
    18
100
AcDbLine
 10
5.014069999999999
 20
3.73509
 30
0.0
 11
5.01413
 21
3.716968
 31
0.0
  0
LINE
  5
137
330
B
100
AcDbEntity
 67
     1
  8
1
  6
Continuous
 62
    18
100
AcDbLine
 10
2.398393999999999
 20
5.626991
 30
0.0
 11
2.405218999999999
 21
5.629958999999999
 31
0.0
  0
LINE
  5
138
330
B
100
AcDbEntity
 67
     1
  8
1
  6
Continuous
 62
    18
100
AcDbLine
 10
2.026258
 20
3.671315
 30
0.0
 11
1.941403
 21
3.672795999999999
 31
0.0
  0
LINE
  5
139
330
B
100
AcDbEntity
 67
     1
  8
1
  6
Continuous
 62
    18
100
AcDbLine
 10
4.959868
 20
3.894873
 30
0.0
 11
4.958865
 21
3.894873
 31
0.0
  0
LINE
  5
13A
330
B
100
AcDbEntity
 67
     1
  8
1
  6
Continuous
 62
    18
100
AcDbLine
 10
5.124387999999999
 20
3.890202999999999
 30
0.0
 11
5.131451
 21
3.88728
 31
0.0
  0
LINE
  5
13B
330
B
100
AcDbEntity
 67
     1
  8
1
  6
Continuous
 62
    18
100
AcDbLine
 10
5.729989999999999
 20
3.809087999999999
 30
0.0
 11
5.782353999999999
 21
3.809087999999999
 31
0.0
  0
LINE
  5
13C
330
B
100
AcDbEntity
 67
     1
  8
1
  6
Continuous
 62
    18
100
AcDbLine
 10
4.960443999999999
 20
3.873639999999999
 30
0.0
 11
4.962545999999999
 21
3.879761
 31
0.0
  0
LINE
  5
13D
330
B
100
AcDbEntity
 67
     1
  8
1
  6
Continuous
 62
    18
100
AcDbLine
 10
2.164324999999999
 20
6.326398
 30
0.0
 11
2.152781
 21
6.322606999999999
 31
0.0
  0
LINE
  5
13E
330
B
100
AcDbEntity
 67
     1
  8
1
  6
Continuous
 62
    18
100
AcDbLine
 10
5.014556999999999
 20
4.298483999999999
 30
0.0
 11
5.014298999999999
 21
4.28742
 31
0.0
  0
LINE
  5
13F
330
B
100
AcDbEntity
 67
     1
  8
1
  6
Continuous
 62
    18
100
AcDbLine
 10
1.790522
 20
4.140006999999999
 30
0.0
 11
1.786633
 21
4.139666
 31
0.0
  0
LINE
  5
140
330
B
100
AcDbEntity
 67
     1
  8
1
  6
Continuous
 62
    18
100
AcDbLine
 10
2.666568999999999
 20
3.824601999999999
 30
0.0
 11
2.666568999999999
 21
4.164127999999999
 31
0.0
  0
LINE
  5
141
330
B
100
AcDbEntity
 67
     1
  8
1
  6
Continuous
 62
    18
100
AcDbLine
 10
5.701298
 20
3.732813999999999
 30
0.0
 11
5.709668999999999
 21
3.735601999999999
 31
0.0
  0
LINE
  5
142
330
B
100
AcDbEntity
 67
     1
  8
1
  6
Continuous
 62
    18
100
AcDbLine
 10
5.615198
 20
4.122971999999999
 30
0.0
 11
5.615198
 21
4.109205
 31
0.0
  0
LINE
  5
143
330
B
100
AcDbEntity
 67
     1
  8
1
  6
Continuous
 62
    18
100
AcDbLine
 10
2.269641
 20
5.731644
 30
0.0
 11
2.281184999999999
 21
5.735435999999999
 31
0.0
  0
LINE
  5
144
330
B
100
AcDbEntity
 67
     1
  8
1
  6
Continuous
 62
    18
100
AcDbLine
 10
5.712316999999999
 20
3.824423
 30
0.0
 11
5.712316999999999
 21
4.164308
 31
0.0
  0
LINE
  5
145
330
B
100
AcDbEntity
 67
     1
  8
1
  6
Continuous
 62
    18
100
AcDbLine
 10
2.408015
 20
4.167627999999999
 30
0.0
 11
2.404615999999999
 21
4.149505999999999
 31
0.0
  0
LINE
  5
146
330
B
100
AcDbEntity
 67
     1
  8
1
  6
Continuous
 62
    18
100
AcDbLine
 10
2.029497999999999
 20
5.647972
 30
0.0
 11
2.025951
 21
5.667038999999999
 31
0.0
  0
LINE
  5
147
330
B
100
AcDbEntity
 67
     1
  8
1
  6
Continuous
 62
    18
100
AcDbLine
 10
2.556883
 20
3.824716999999999
 30
0.0
 11
2.666568999999999
 21
3.824601999999999
 31
0.0
  0
LINE
  5
148
330
B
100
AcDbEntity
 67
     1
  8
1
  6
Continuous
 62
    18
100
AcDbLine
 10
2.408015
 20
5.636692
 30
0.0
 11
2.408015
 21
5.631256999999999
 31
0.0
  0
LINE
  5
149
330
B
100
AcDbEntity
 67
     1
  8
1
  6
Continuous
 62
    18
100
AcDbLine
 10
2.284982999999999
 20
4.027217
 30
0.0
 11
2.279729
 21
4.040728999999999
 31
0.0
  0
LINE
  5
14A
330
B
100
AcDbEntity
 67
     1
  8
1
  6
Continuous
 62
    18
100
AcDbLine
 10
2.348450999999999
 20
4.241626
 30
0.0
 11
2.352825999999999
 21
4.238008999999999
 31
0.0
  0
LINE
  5
14B
330
B
100
AcDbEntity
 67
     1
  8
1
  6
Continuous
 62
    18
100
AcDbLine
 10
4.959208
 20
4.026237
 30
0.0
 11
4.960080999999999
 21
4.022153
 31
0.0
  0
LINE
  5
14C
330
B
100
AcDbEntity
 67
     1
  8
1
  6
Continuous
 62
    18
100
AcDbLine
 10
5.129901999999999
 20
4.122971999999999
 30
0.0
 11
5.615198
 21
4.122971999999999
 31
0.0
  0
LINE
  5
14D
330
B
100
AcDbEntity
 67
     1
  8
1
  6
Continuous
 62
    18
100
AcDbLine
 10
2.216983
 20
3.935228999999999
 30
0.0
 11
2.216983
 21
3.937237
 31
0.0
  0
LINE
  5
14E
330
B
100
AcDbEntity
 67
     1
  8
1
  6
Continuous
 62
    18
100
AcDbLine
 10
2.348015
 20
4.187869
 30
0.0
 11
2.3483
 21
4.182922
 31
0.0
  0
LINE
  5
14F
330
B
100
AcDbEntity
 67
     1
  8
1
  6
Continuous
 62
    18
100
AcDbLine
 10
4.963979
 20
4.236644999999999
 30
0.0
 11
4.964288999999999
 21
4.238008999999999
 31
0.0
  0
LINE
  5
150
330
B
100
AcDbEntity
 67
     1
  8
1
  6
Continuous
 62
    18
100
AcDbLine
 10
2.203084
 20
4.020106
 30
0.0
 11
2.196126
 21
4.017116999999999
 31
0.0
  0
LINE
  5
151
330
B
100
AcDbEntity
 67
     1
  8
1
  6
Continuous
 62
    18
100
AcDbLine
 10
2.205950999999999
 20
4.049231999999999
 30
0.0
 11
2.205950999999999
 21
4.027116
 31
0.0
  0
LINE
  5
152
330
B
100
AcDbEntity
 67
     1
  8
1
  6
Continuous
 62
    18
100
AcDbLine
 10
4.973487
 20
3.733427999999999
 30
0.0
 11
4.980221
 21
3.73509
 31
0.0
  0
LINE
  5
153
330
B
100
AcDbEntity
 67
     1
  8
1
  6
Continuous
 62
    18
100
AcDbLine
 10
5.103953999999999
 20
4.107998999999999
 30
0.0
 11
5.114916
 21
4.118960999999999
 31
0.0
  0
LINE
  5
154
330
B
100
AcDbEntity
 67
     1
  8
1
  6
Continuous
 62
    18
100
AcDbLine
 10
2.251145999999999
 20
3.754733999999999
 30
0.0
 11
2.247183
 21
3.758316999999999
 31
0.0
  0
LINE
  5
155
330
B
100
AcDbEntity
 67
     1
  8
1
  6
Continuous
 62
    18
100
AcDbLine
 10
4.981987999999999
 20
3.672559999999999
 30
0.0
 11
4.977362999999999
 21
3.67128
 31
0.0
  0
LINE
  5
156
330
B
100
AcDbEntity
 67
     1
  8
1
  6
Continuous
 62
    18
100
AcDbLine
 10
4.962545999999999
 20
4.093856999999999
 30
0.0
 11
4.959868
 21
4.093856999999999
 31
0.0
  0
LINE
  5
157
330
B
100
AcDbEntity
 67
     1
  8
1
  6
Continuous
 62
    18
100
AcDbLine
 10
2.361881
 20
3.692846999999999
 30
0.0
 11
2.380374999999999
 21
3.699275
 31
0.0
  0
LINE
  5
158
330
B
100
AcDbEntity
 67
     1
  8
1
  6
Continuous
 62
    18
100
AcDbLine
 10
5.725153999999999
 20
4.256463
 30
0.0
 11
5.693991999999999
 21
4.263221999999999
 31
0.0
  0
LINE
  5
159
330
B
100
AcDbEntity
 67
     1
  8
1
  6
Continuous
 62
    18
100
AcDbLine
 10
2.216808
 20
3.676145999999999
 30
0.0
 11
2.216845
 21
3.675745999999999
 31
0.0
  0
LINE
  5
15A
330
B
100
AcDbEntity
 67
     1
  8
1
  6
Continuous
 62
    18
100
AcDbLine
 10
2.362295
 20
4.301328999999999
 30
0.0
 11
2.362372999999999
 21
4.303449999999999
 31
0.0
  0
LINE
  5
15B
330
B
100
AcDbEntity
 67
     1
  8
1
  6
Continuous
 62
    18
100
AcDbLine
 10
4.977388999999999
 20
4.312583999999999
 30
0.0
 11
4.975338999999999
 21
4.315873
 31
0.0
  0
LINE
  5
15C
330
B
100
AcDbEntity
 67
     1
  8
1
  6
Continuous
 62
    18
100
AcDbLine
 10
4.975019
 20
4.275019999999999
 30
0.0
 11
4.978067
 21
4.289455
 31
0.0
  0
LINE
  5
15D
330
B
100
AcDbEntity
 67
     1
  8
1
  6
Continuous
 62
    18
100
AcDbLine
 10
5.034377
 20
3.708057
 30
0.0
 11
5.027641
 21
3.70469
 31
0.0
  0
LINE
  5
15E
330
B
100
AcDbEntity
 67
     1
  8
1
  6
Continuous
 62
    18
100
AcDbLine
 10
2.145776999999999
 20
4.103855999999999
 30
0.0
 11
2.138818999999999
 21
4.100866
 31
0.0
  0
LINE
  5
15F
330
B
100
AcDbEntity
 67
     1
  8
1
  6
Continuous
 62
    18
100
AcDbLine
 10
4.958164
 20
3.822876999999999
 30
0.0
 11
4.960450999999999
 21
3.82059
 31
0.0
  0
LINE
  5
160
330
B
100
AcDbEntity
 67
     1
  8
1
  6
Continuous
 62
    18
100
AcDbLine
 10
5.727694999999999
 20
4.253128
 30
0.0
 11
5.727694999999999
 21
4.186503
 31
0.0
  0
LINE
  5
161
330
B
100
AcDbEntity
 67
     1
  8
1
  6
Continuous
 62
    18
100
AcDbLine
 10
4.962545999999999
 20
4.164013999999999
 30
0.0
 11
5.020678
 21
4.164127999999999
 31
0.0
  0
LINE
  5
162
330
B
100
AcDbEntity
 67
     1
  8
1
  6
Continuous
 62
    18
100
AcDbLine
 10
2.145776999999999
 20
4.103855999999999
 30
0.0
 11
2.145849
 21
4.106784999999999
 31
0.0
  0
LINE
  5
163
330
B
100
AcDbEntity
 67
     1
  8
1
  6
Continuous
 62
    18
100
AcDbLine
 10
4.959208
 20
3.938619
 30
0.0
 11
4.959401
 21
3.938812
 31
0.0
  0
LINE
  5
164
330
B
100
AcDbEntity
 67
     1
  8
1
  6
Continuous
 62
    18
100
AcDbLine
 10
2.362372999999999
 20
3.870912
 30
0.0
 11
2.380129999999999
 21
3.865946
 31
0.0
  0
LINE
  5
165
330
B
100
AcDbEntity
 67
     1
  8
1
  6
Continuous
 62
    18
100
AcDbLine
 10
2.216952999999999
 20
4.108030999999999
 30
0.0
 11
2.216633999999999
 21
4.115091
 31
0.0
  0
LINE
  5
166
330
B
100
AcDbEntity
 67
     1
  8
1
  6
Continuous
 62
    18
100
AcDbLine
 10
5.729352999999999
 20
4.163762
 30
0.0
 11
5.743533
 21
4.148988
 31
0.0
  0
LINE
  5
167
330
B
100
AcDbEntity
 67
     1
  8
1
  6
Continuous
 62
    18
100
AcDbLine
 10
2.156824
 20
3.928814
 30
0.0
 11
2.156895999999999
 21
3.931742999999999
 31
0.0
  0
LINE
  5
168
330
B
100
AcDbEntity
 67
     1
  8
1
  6
Continuous
 62
    18
100
AcDbLine
 10
4.958865
 20
4.093856999999999
 30
0.0
 11
4.958965
 21
4.107874999999999
 31
0.0
  0
LINE
  5
169
330
B
100
AcDbEntity
 67
     1
  8
1
  6
Continuous
 62
    18
100
AcDbLine
 10
5.589533
 20
4.064365
 30
0.0
 11
5.589533
 21
3.994365
 31
0.0
  0
LINE
  5
16A
330
B
100
AcDbEntity
 67
     1
  8
1
  6
Continuous
 62
    18
100
AcDbLine
 10
2.348450999999999
 20
5.619216999999999
 30
0.0
 11
2.348450999999999
 21
5.621483
 31
0.0
  0
LINE
  5
16B
330
B
100
AcDbEntity
 67
     1
  8
1
  6
Continuous
 62
    18
100
AcDbLine
 10
5.726053
 20
3.824389
 30
0.0
 11
5.719108999999999
 21
3.824166999999999
 31
0.0
  0
LINE
  5
16C
330
B
100
AcDbEntity
 67
     1
  8
1
  6
Continuous
 62
    18
100
AcDbLine
 10
2.216845
 20
5.63398
 30
0.0
 11
2.21692
 21
5.634438999999999
 31
0.0
  0
LINE
  5
16D
330
B
100
AcDbEntity
 67
     1
  8
1
  6
Continuous
 62
    18
100
AcDbLine
 10
2.156824
 20
3.962301
 30
0.0
 11
2.156895999999999
 21
3.969369999999999
 31
0.0
  0
LINE
  5
16E
330
B
100
AcDbEntity
 67
     1
  8
1
  6
Continuous
 62
    18
100
AcDbLine
 10
5.015117
 20
4.316169999999999
 30
0.0
 11
4.981987999999999
 21
4.316169999999999
 31
0.0
  0
LINE
  5
16F
330
B
100
AcDbEntity
 67
     1
  8
1
  6
Continuous
 62
    18
100
AcDbLine
 10
2.175688
 20
3.962037
 30
0.0
 11
2.156824
 21
3.962301
 31
0.0
  0
LINE
  5
170
330
B
100
AcDbEntity
 67
     1
  8
1
  6
Continuous
 62
    18
100
AcDbLine
 10
2.053836999999999
 20
6.387013999999999
 30
0.0
 11
2.039086999999999
 21
6.387271
 31
0.0
  0
LINE
  5
171
330
B
100
AcDbEntity
 67
     1
  8
1
  6
Continuous
 62
    18
100
AcDbLine
 10
5.19544
 20
3.984365
 30
0.0
 11
5.19544
 21
3.994365
 31
0.0
  0
LINE
  5
172
330
B
100
AcDbEntity
 67
     1
  8
1
  6
Continuous
 62
    18
100
AcDbLine
 10
2.08592
 20
4.318456999999999
 30
0.0
 11
2.085950999999999
 21
4.255415
 31
0.0
  0
LINE
  5
173
330
B
100
AcDbEntity
 67
     1
  8
1
  6
Continuous
 62
    18
100
AcDbLine
 10
5.840915999999999
 20
4.147541
 30
0.0
 11
5.840915999999999
 21
3.841188999999999
 31
0.0
  0
LINE
  5
174
330
B
100
AcDbEntity
 67
     1
  8
1
  6
Continuous
 62
    18
100
AcDbLine
 10
2.217157999999999
 20
6.424180999999999
 30
0.0
 11
2.290437999999999
 21
6.426231999999999
 31
0.0
  0
LINE
  5
175
330
B
100
AcDbEntity
 67
     1
  8
1
  6
Continuous
 62
    18
100
AcDbLine
 10
2.39819
 20
4.221973999999999
 30
0.0
 11
2.398393999999999
 21
4.234022
 31
0.0
  0
LINE
  5
176
330
B
100
AcDbEntity
 67
     1
  8
1
  6
Continuous
 62
    18
100
AcDbLine
 10
5.726771
 20
3.82059
 30
0.0
 11
5.729981999999999
 21
3.804596
 31
0.0
  0
LINE
  5
177
330
B
100
AcDbEntity
 67
     1
  8
1
  6
Continuous
 62
    18
100
AcDbLine
 10
2.408015
 20
3.766755999999999
 30
0.0
 11
2.408015
 21
3.757102999999999
 31
0.0
  0
LINE
  5
178
330
B
100
AcDbEntity
 67
     1
  8
1
  6
Continuous
 62
    18
100
AcDbLine
 10
2.053836999999999
 20
6.413363999999999
 30
0.0
 11
2.039086999999999
 21
6.415087999999999
 31
0.0
  0
LINE
  5
179
330
B
100
AcDbEntity
 67
     1
  8
1
  6
Continuous
 62
    18
100
AcDbLine
 10
5.150033
 20
3.892365
 30
0.0
 11
5.150033
 21
3.891055999999999
 31
0.0
  0
LINE
  5
17A
330
B
100
AcDbEntity
 67
     1
  8
1
  6
Continuous
 62
    18
100
AcDbLine
 10
2.408015
 20
3.73509
 30
0.0
 11
2.404615999999999
 21
3.716968
 31
0.0
  0
LINE
  5
17B
330
B
100
AcDbEntity
 67
     1
  8
1
  6
Continuous
 62
    18
100
AcDbLine
 10
2.216633999999999
 20
3.873639999999999
 30
0.0
 11
2.145776999999999
 21
3.874876
 31
0.0
  0
LINE
  5
17C
330
B
100
AcDbEntity
 67
     1
  8
1
  6
Continuous
 62
    18
100
AcDbLine
 10
5.766932999999999
 20
3.848723999999999
 30
0.0
 11
5.766932999999999
 21
4.140006999999999
 31
0.0
  0
LINE
  5
17D
330
B
100
AcDbEntity
 67
     1
  8
1
  6
Continuous
 62
    18
100
AcDbLine
 10
2.216983
 20
6.441119999999999
 30
0.0
 11
2.085515
 21
6.438826
 31
0.0
  0
LINE
  5
17E
330
B
100
AcDbEntity
 67
     1
  8
1
  6
Continuous
 62
    18
100
AcDbLine
 10
5.150033
 20
4.096365
 30
0.0
 11
5.150033
 21
4.097674999999999
 31
0.0
  0
LINE
  5
17F
330
B
100
AcDbEntity
 67
     1
  8
1
  6
Continuous
 62
    18
100
AcDbLine
 10
5.728291999999999
 20
3.754733999999999
 30
0.0
 11
5.728221999999999
 21
3.758316999999999
 31
0.0
  0
LINE
  5
180
330
B
100
AcDbEntity
 67
     1
  8
1
  6
Continuous
 62
    18
100
AcDbLine
 10
2.073202
 20
4.318233999999999
 30
0.0
 11
2.073202
 21
4.255637999999999
 31
0.0
  0
LINE
  5
181
330
B
100
AcDbEntity
 67
     1
  8
1
  6
Continuous
 62
    18
100
AcDbLine
 10
2.216977999999999
 20
6.422545999999999
 30
0.0
 11
2.216959999999999
 21
6.421157
 31
0.0
  0
LINE
  5
182
330
B
100
AcDbEntity
 67
     1
  8
1
  6
Continuous
 62
    18
100
AcDbLine
 10
2.216808
 20
5.633861
 30
0.0
 11
2.143527999999999
 21
5.631810999999999
 31
0.0
  0
LINE
  5
183
330
B
100
AcDbEntity
 67
     1
  8
1
  6
Continuous
 62
    18
100
AcDbLine
 10
2.145776999999999
 20
4.026237
 30
0.0
 11
2.156824
 21
4.02643
 31
0.0
  0
LINE
  5
184
330
B
100
AcDbEntity
 67
     1
  8
1
  6
Continuous
 62
    18
100
AcDbLine
 10
5.680352
 20
4.281006999999999
 30
0.0
 11
5.708325
 21
4.284041
 31
0.0
  0
LINE
  5
185
330
B
100
AcDbEntity
 67
     1
  8
1
  6
Continuous
 62
    18
100
AcDbLine
 10
2.825600999999999
 20
6.343008999999999
 30
0.0
 11
2.840174
 21
6.336823
 31
0.0
  0
LINE
  5
186
330
B
100
AcDbEntity
 67
     1
  8
1
  6
Continuous
 62
    18
100
AcDbLine
 10
4.973729
 20
3.670273
 30
0.0
 11
4.975779
 21
3.673562
 31
0.0
  0
LINE
  5
187
330
B
100
AcDbEntity
 67
     1
  8
1
  6
Continuous
 62
    18
100
AcDbLine
 10
5.837844999999999
 20
4.145469
 30
0.0
 11
5.840620999999999
 21
4.146058999999999
 31
0.0
  0
LINE
  5
188
330
B
100
AcDbEntity
 67
     1
  8
1
  6
Continuous
 62
    18
100
AcDbLine
 10
1.555482999999999
 20
6.377194
 30
0.0
 11
1.941403
 21
6.38393
 31
0.0
  0
LINE
  5
189
330
B
100
AcDbEntity
 67
     1
  8
1
  6
Continuous
 62
    18
100
AcDbLine
 10
2.878483
 20
3.710986
 30
0.0
 11
2.878483
 21
3.708057
 31
0.0
  0
LINE
  5
18A
330
B
100
AcDbEntity
 67
     1
  8
1
  6
Continuous
 62
    18
100
AcDbLine
 10
2.085950999999999
 20
3.733315
 30
0.0
 11
2.073202
 21
3.733093
 31
0.0
  0
LINE
  5
18B
330
B
100
AcDbEntity
 67
     1
  8
1
  6
Continuous
 62
    18
100
AcDbLine
 10
2.216983
 20
3.883632
 30
0.0
 11
2.362372999999999
 21
3.870912
 31
0.0
  0
LINE
  5
18C
330
B
100
AcDbEntity
 67
     1
  8
1
  6
Continuous
 62
    18
100
AcDbLine
 10
2.085950999999999
 20
5.614634999999999
 30
0.0
 11
2.073202
 21
5.615412999999999
 31
0.0
  0
LINE
  5
18D
330
B
100
AcDbEntity
 67
     1
  8
1
  6
Continuous
 62
    18
100
AcDbLine
 10
5.625183999999999
 20
4.093013
 30
0.0
 11
5.623635
 21
4.091465
 31
0.0
  0
LINE
  5
18E
330
B
100
AcDbEntity
 67
     1
  8
1
  6
Continuous
 62
    18
100
AcDbLine
 10
2.574268
 20
6.497091999999999
 30
0.0
 11
2.557322
 21
6.497387999999999
 31
0.0
  0
LINE
  5
18F
330
B
100
AcDbEntity
 67
     1
  8
1
  6
Continuous
 62
    18
100
AcDbLine
 10
4.978354
 20
4.317175999999999
 30
0.0
 11
4.981987999999999
 21
4.316169999999999
 31
0.0
  0
LINE
  5
190
330
B
100
AcDbEntity
 67
     1
  8
1
  6
Continuous
 62
    18
100
AcDbLine
 10
1.608366
 20
5.715033
 30
0.0
 11
1.593792
 21
5.721219
 31
0.0
  0
LINE
  5
191
330
B
100
AcDbEntity
 67
     1
  8
1
  6
Continuous
 62
    18
100
AcDbLine
 10
2.085950999999999
 20
3.822876999999999
 30
0.0
 11
2.068286
 21
3.824423
 31
0.0
  0
LINE
  5
192
330
B
100
AcDbEntity
 67
     1
  8
1
  6
Continuous
 62
    18
100
AcDbLine
 10
5.71835
 20
3.714682999999999
 30
0.0
 11
5.71835
 21
3.672795999999999
 31
0.0
  0
LINE
  5
193
330
B
100
AcDbEntity
 67
     1
  8
1
  6
Continuous
 62
    18
100
AcDbLine
 10
2.380374999999999
 20
3.699275
 30
0.0
 11
2.393602
 21
3.713710999999999
 31
0.0
  0
LINE
  5
194
330
B
100
AcDbEntity
 67
     1
  8
1
  6
Continuous
 62
    18
100
AcDbLine
 10
2.492563
 20
3.714687999999999
 30
0.0
 11
2.492563
 21
3.672795999999999
 31
0.0
  0
LINE
  5
195
330
B
100
AcDbEntity
 67
     1
  8
1
  6
Continuous
 62
    18
100
AcDbLine
 10
2.407709
 20
6.381649999999999
 30
0.0
 11
2.402772999999999
 21
6.398892
 31
0.0
  0
LINE
  5
196
330
B
100
AcDbEntity
 67
     1
  8
1
  6
Continuous
 62
    18
100
AcDbLine
 10
5.01413
 20
3.716968
 30
0.0
 11
5.014298999999999
 21
3.701311
 31
0.0
  0
LINE
  5
197
330
B
100
AcDbEntity
 67
     1
  8
1
  6
Continuous
 62
    18
100
AcDbLine
 10
2.026258
 20
3.671315
 30
0.0
 11
2.025951
 21
3.694278999999999
 31
0.0
  0
LINE
  5
198
330
B
100
AcDbEntity
 67
     1
  8
1
  6
Continuous
 62
    18
100
AcDbLine
 10
4.962824999999999
 20
4.225926
 30
0.0
 11
4.963979
 21
4.236644999999999
 31
0.0
  0
LINE
  5
199
330
B
100
AcDbEntity
 67
     1
  8
1
  6
Continuous
 62
    18
100
AcDbLine
 10
5.784648999999999
 20
3.82059
 30
0.0
 11
5.727694999999999
 21
3.82059
 31
0.0
  0
LINE
  5
19A
330
B
100
AcDbEntity
 67
     1
  8
1
  6
Continuous
 62
    18
100
AcDbLine
 10
2.152781
 20
6.322606999999999
 30
0.0
 11
2.096233
 21
6.281719999999999
 31
0.0
  0
LINE
  5
19B
330
B
100
AcDbEntity
 67
     1
  8
1
  6
Continuous
 62
    18
100
AcDbLine
 10
5.615198
 20
3.885730999999999
 30
0.0
 11
5.615198
 21
3.879526
 31
0.0
  0
LINE
  5
19C
330
B
100
AcDbEntity
 67
     1
  8
1
  6
Continuous
 62
    18
100
AcDbLine
 10
5.126533
 20
4.088865
 30
0.0
 11
5.126533
 21
4.071864999999999
 31
0.0
  0
LINE
  5
19D
330
B
100
AcDbEntity
 67
     1
  8
1
  6
Continuous
 62
    18
100
AcDbLine
 10
5.014298999999999
 20
4.28742
 30
0.0
 11
5.01413
 21
4.271761999999999
 31
0.0
  0
LINE
  5
19E
330
B
100
AcDbEntity
 67
     1
  8
1
  6
Continuous
 62
    18
100
AcDbLine
 10
1.786633
 20
4.139666
 30
0.0
 11
1.788175
 21
4.139801
 31
0.0
  0
LINE
  5
19F
330
B
100
AcDbEntity
 67
     1
  8
1
  6
Continuous
 62
    18
100
AcDbLine
 10
5.701298
 20
3.823377999999999
 30
0.0
 11
5.701298
 21
4.165351999999999
 31
0.0
  0
LINE
  5
1A0
330
B
100
AcDbEntity
 67
     1
  8
1
  6
Continuous
 62
    18
100
AcDbLine
 10
2.281184999999999
 20
5.735435999999999
 30
0.0
 11
2.337734
 21
5.776323
 31
0.0
  0
LINE
  5
1A1
330
B
100
AcDbEntity
 67
     1
  8
1
  6
Continuous
 62
    18
100
AcDbLine
 10
5.712316999999999
 20
4.164308
 30
0.0
 11
5.729981999999999
 21
4.165853
 31
0.0
  0
LINE
  5
1A2
330
B
100
AcDbEntity
 67
     1
  8
1
  6
Continuous
 62
    18
100
AcDbLine
 10
2.492563
 20
4.284041
 30
0.0
 11
2.878483
 21
4.280673
 31
0.0
  0
LINE
  5
1A3
330
B
100
AcDbEntity
 67
     1
  8
1
  6
Continuous
 62
    18
100
AcDbLine
 10
2.408015
 20
5.631256999999999
 30
0.0
 11
2.408015
 21
5.630084
 31
0.0
  0
LINE
  5
1A4
330
B
100
AcDbEntity
 67
     1
  8
1
  6
Continuous
 62
    18
100
AcDbLine
 10
2.279729
 20
4.040728999999999
 30
0.0
 11
2.266725999999999
 21
4.047141
 31
0.0
  0
LINE
  5
1A5
330
B
100
AcDbEntity
 67
     1
  8
1
  6
Continuous
 62
    18
100
AcDbLine
 10
2.352825999999999
 20
4.238008999999999
 30
0.0
 11
2.398393999999999
 21
4.234022
 31
0.0
  0
LINE
  5
1A6
330
B
100
AcDbEntity
 67
     1
  8
1
  6
Continuous
 62
    18
100
AcDbLine
 10
4.960080999999999
 20
4.022153
 30
0.0
 11
4.962545999999999
 21
4.018780999999999
 31
0.0
  0
LINE
  5
1A7
330
B
100
AcDbEntity
 67
     1
  8
1
  6
Continuous
 62
    18
100
AcDbLine
 10
5.615198
 20
4.122971999999999
 30
0.0
 11
5.630183
 21
4.118960999999999
 31
0.0
  0
LINE
  5
1A8
330
B
100
AcDbEntity
 67
     1
  8
1
  6
Continuous
 62
    18
100
AcDbLine
 10
2.556883
 20
3.822754
 30
0.0
 11
2.408015999999999
 21
3.809812
 31
0.0
  0
LINE
  5
1A9
330
B
100
AcDbEntity
 67
     1
  8
1
  6
Continuous
 62
    18
100
AcDbLine
 10
2.348015
 20
4.318456999999999
 30
0.0
 11
2.492563
 21
4.315933999999999
 31
0.0
  0
LINE
  5
1AA
330
B
100
AcDbEntity
 67
     1
  8
1
  6
Continuous
 62
    18
100
AcDbLine
 10
2.348291
 20
4.237144999999999
 30
0.0
 11
2.348015
 21
4.232173
 31
0.0
  0
LINE
  5
1AB
330
B
100
AcDbEntity
 67
     1
  8
1
  6
Continuous
 62
    18
100
AcDbLine
 10
4.988633
 20
4.303449999999999
 30
0.0
 11
4.988207
 21
4.298483999999999
 31
0.0
  0
LINE
  5
1AC
330
B
100
AcDbEntity
 67
     1
  8
1
  6
Continuous
 62
    18
100
AcDbLine
 10
4.962545999999999
 20
3.918622
 30
0.0
 11
4.959868
 21
3.918622
 31
0.0
  0
LINE
  5
1AD
330
B
100
AcDbEntity
 67
     1
  8
1
  6
Continuous
 62
    18
100
AcDbLine
 10
2.398393999999999
 20
5.621555999999999
 30
0.0
 11
2.405218999999999
 21
5.624524
 31
0.0
  0
LINE
  5
1AE
330
B
100
AcDbEntity
 67
     1
  8
1
  6
Continuous
 62
    18
100
AcDbLine
 10
2.398393999999999
 20
3.754708
 30
0.0
 11
2.352825999999999
 21
3.750720999999999
 31
0.0
  0
LINE
  5
1AF
330
B
100
AcDbEntity
 67
     1
  8
1
  6
Continuous
 62
    18
100
AcDbLine
 10
4.980221
 20
4.253639999999999
 30
0.0
 11
4.974785999999999
 21
4.231626999999999
 31
0.0
  0
LINE
  5
1B0
330
B
100
AcDbEntity
 67
     1
  8
1
  6
Continuous
 62
    18
100
AcDbLine
 10
4.965085
 20
3.754708
 30
0.0
 11
4.968051999999999
 21
3.755441
 31
0.0
  0
LINE
  5
1B1
330
B
100
AcDbEntity
 67
     1
  8
1
  6
Continuous
 62
    18
100
AcDbLine
 10
5.114916
 20
4.118960999999999
 30
0.0
 11
5.129901999999999
 21
4.122971999999999
 31
0.0
  0
LINE
  5
1B2
330
B
100
AcDbEntity
 67
     1
  8
1
  6
Continuous
 62
    18
100
AcDbLine
 10
2.247183
 20
3.758316999999999
 30
0.0
 11
2.247183
 21
3.797641999999999
 31
0.0
  0
LINE
  5
1B3
330
B
100
AcDbEntity
 67
     1
  8
1
  6
Continuous
 62
    18
100
AcDbLine
 10
4.977362999999999
 20
3.67128
 30
0.0
 11
4.973729
 21
3.670273
 31
0.0
  0
LINE
  5
1B4
330
B
100
AcDbEntity
 67
     1
  8
1
  6
Continuous
 62
    18
100
AcDbLine
 10
4.959868
 20
4.093856999999999
 30
0.0
 11
4.958865
 21
4.093856999999999
 31
0.0
  0
LINE
  5
1B5
330
B
100
AcDbEntity
 67
     1
  8
1
  6
Continuous
 62
    18
100
AcDbLine
 10
5.786935999999999
 20
3.822876999999999
 30
0.0
 11
5.790535
 21
3.840916999999999
 31
0.0
  0
LINE
  5
1B6
330
B
100
AcDbEntity
 67
     1
  8
1
  6
Continuous
 62
    18
100
AcDbLine
 10
4.982477999999999
 20
4.301328999999999
 30
0.0
 11
4.988633
 21
4.303449999999999
 31
0.0
  0
LINE
  5
1B7
330
B
100
AcDbEntity
 67
     1
  8
1
  6
Continuous
 62
    18
100
AcDbLine
 10
5.725153999999999
 20
4.294451
 30
0.0
 11
5.725153999999999
 21
4.256463
 31
0.0
  0
LINE
  5
1B8
330
B
100
AcDbEntity
 67
     1
  8
1
  6
Continuous
 62
    18
100
AcDbLine
 10
2.405148
 20
4.221973999999999
 30
0.0
 11
2.408015
 21
4.221973999999999
 31
0.0
  0
LINE
  5
1B9
330
B
100
AcDbEntity
 67
     1
  8
1
  6
Continuous
 62
    18
100
AcDbLine
 10
4.978067
 20
4.289455
 30
0.0
 11
4.978932
 21
4.295882999999999
 31
0.0
  0
LINE
  5
1BA
330
B
100
AcDbEntity
 67
     1
  8
1
  6
Continuous
 62
    18
100
AcDbLine
 10
4.977967999999999
 20
4.313943
 30
0.0
 11
4.979025
 21
4.315128999999999
 31
0.0
  0
LINE
  5
1BB
330
B
100
AcDbEntity
 67
     1
  8
1
  6
Continuous
 62
    18
100
AcDbLine
 10
5.780810999999999
 20
3.750720999999999
 30
0.0
 11
5.780088
 21
3.747104
 31
0.0
  0
LINE
  5
1BC
330
B
100
AcDbEntity
 67
     1
  8
1
  6
Continuous
 62
    18
100
AcDbLine
 10
2.138818999999999
 20
4.100866
 30
0.0
 11
2.135950999999999
 21
4.093856999999999
 31
0.0
  0
LINE
  5
1BD
330
B
100
AcDbEntity
 67
     1
  8
1
  6
Continuous
 62
    18
100
AcDbLine
 10
4.960450999999999
 20
3.82059
 30
0.0
 11
4.962746
 21
3.809087999999999
 31
0.0
  0
LINE
  5
1BE
330
B
100
AcDbEntity
 67
     1
  8
1
  6
Continuous
 62
    18
100
AcDbLine
 10
5.131451
 20
4.101450999999999
 30
0.0
 11
5.613648999999999
 21
4.101450999999999
 31
0.0
  0
LINE
  5
1BF
330
B
100
AcDbEntity
 67
     1
  8
1
  6
Continuous
 62
    18
100
AcDbLine
 10
2.398393999999999
 20
4.234022
 30
0.0
 11
2.398393999999999
 21
4.256035999999999
 31
0.0
  0
LINE
  5
1C0
330
B
100
AcDbEntity
 67
     1
  8
1
  6
Continuous
 62
    18
100
AcDbLine
 10
2.145849
 20
4.106784999999999
 30
0.0
 11
2.145776999999999
 21
4.113853999999999
 31
0.0
  0
LINE
  5
1C1
330
B
100
AcDbEntity
 67
     1
  8
1
  6
Continuous
 62
    18
100
AcDbLine
 10
1.893184999999999
 20
5.658037999999999
 30
0.0
 11
1.790522
 21
5.634637999999999
 31
0.0
  0
LINE
  5
1C2
330
B
100
AcDbEntity
 67
     1
  8
1
  6
Continuous
 62
    18
100
AcDbLine
 10
4.959401
 20
3.938812
 30
0.0
 11
4.959401
 21
3.962301
 31
0.0
  0
LINE
  5
1C3
330
B
100
AcDbEntity
 67
     1
  8
1
  6
Continuous
 62
    18
100
AcDbLine
 10
2.068668999999999
 20
3.824389
 30
0.0
 11
2.071210999999999
 21
3.824166999999999
 31
0.0
  0
LINE
  5
1C4
330
B
100
AcDbEntity
 67
     1
  8
1
  6
Continuous
 62
    18
100
AcDbLine
 10
5.743533
 20
4.148988
 30
0.0
 11
5.766932999999999
 21
4.140006999999999
 31
0.0
  0
LINE
  5
1C5
330
B
100
AcDbEntity
 67
     1
  8
1
  6
Continuous
 62
    18
100
AcDbLine
 10
2.156895999999999
 20
3.931742999999999
 30
0.0
 11
2.156824
 21
3.938812
 31
0.0
  0
LINE
  5
1C6
330
B
100
AcDbEntity
 67
     1
  8
1
  6
Continuous
 62
    18
100
AcDbLine
 10
4.958965
 20
4.107874999999999
 30
0.0
 11
4.959208
 21
4.113853999999999
 31
0.0
  0
LINE
  5
1C7
330
B
100
AcDbEntity
 67
     1
  8
1
  6
Continuous
 62
    18
100
AcDbLine
 10
5.155533
 20
4.064365
 30
0.0
 11
5.589533
 21
4.064365
 31
0.0
  0
LINE
  5
1C8
330
B
100
AcDbEntity
 67
     1
  8
1
  6
Continuous
 62
    18
100
AcDbLine
 10
2.398393999999999
 20
3.754708
 30
0.0
 11
2.39819
 21
3.766755999999999
 31
0.0
  0
LINE
  5
1C9
330
B
100
AcDbEntity
 67
     1
  8
1
  6
Continuous
 62
    18
100
AcDbLine
 10
5.719108999999999
 20
3.824166999999999
 30
0.0
 11
5.712316999999999
 21
3.824423
 31
0.0
  0
LINE
  5
1CA
330
B
100
AcDbEntity
 67
     1
  8
1
  6
Continuous
 62
    18
100
AcDbLine
 10
2.21692
 20
5.634438999999999
 30
0.0
 11
2.216988
 21
5.635495999999999
 31
0.0
  0
LINE
  5
1CB
330
B
100
AcDbEntity
 67
     1
  8
1
  6
Continuous
 62
    18
100
AcDbLine
 10
2.666568999999999
 20
3.824601999999999
 30
0.0
 11
2.556883
 21
3.822754
 31
0.0
  0
LINE
  5
1CC
330
B
100
AcDbEntity
 67
     1
  8
1
  6
Continuous
 62
    18
100
AcDbLine
 10
2.156895999999999
 20
3.969369999999999
 30
0.0
 11
2.156824
 21
3.972298999999999
 31
0.0
  0
LINE
  5
1CD
330
B
100
AcDbEntity
 67
     1
  8
1
  6
Continuous
 62
    18
100
AcDbLine
 10
5.014866999999999
 20
3.68528
 30
0.0
 11
4.988633
 21
3.68528
 31
0.0
  0
LINE
  5
1CE
330
B
100
AcDbEntity
 67
     1
  8
1
  6
Continuous
 62
    18
100
AcDbLine
 10
2.156824
 20
3.938812
 30
0.0
 11
2.175688
 21
3.939076
 31
0.0
  0
LINE
  5
1CF
330
B
100
AcDbEntity
 67
     1
  8
1
  6
Continuous
 62
    18
100
AcDbLine
 10
2.039086999999999
 20
6.387271
 30
0.0
 11
2.029350999999999
 21
6.387442
 31
0.0
  0
LINE
  5
1D0
330
B
100
AcDbEntity
 67
     1
  8
1
  6
Continuous
 62
    18
100
AcDbLine
 10
5.589533
 20
3.994365
 30
0.0
 11
5.155533
 21
3.994365
 31
0.0
  0
LINE
  5
1D1
330
B
100
AcDbEntity
 67
     1
  8
1
  6
Continuous
 62
    18
100
AcDbLine
 10
2.085950999999999
 20
4.255415
 30
0.0
 11
2.216983
 21
4.253128
 31
0.0
  0
LINE
  5
1D2
330
B
100
AcDbEntity
 67
     1
  8
1
  6
Continuous
 62
    18
100
AcDbLine
 10
2.085950999999999
 20
4.165853
 30
0.0
 11
1.879754
 21
4.147812999999999
 31
0.0
  0
LINE
  5
1D3
330
B
100
AcDbEntity
 67
     1
  8
1
  6
Continuous
 62
    18
100
AcDbLine
 10
5.840620999999999
 20
4.146058999999999
 30
0.0
 11
5.840620999999999
 21
3.842672
 31
0.0
  0
LINE
  5
1D4
330
B
100
AcDbEntity
 67
     1
  8
1
  6
Continuous
 62
    18
100
AcDbLine
 10
5.726771
 20
4.16814
 30
0.0
 11
5.729981999999999
 21
4.184133999999999
 31
0.0
  0
LINE
  5
1D5
330
B
100
AcDbEntity
 67
     1
  8
1
  6
Continuous
 62
    18
100
AcDbLine
 10
5.622283
 20
4.100099
 30
0.0
 11
5.615198
 21
4.102998999999999
 31
0.0
  0
LINE
  5
1D6
330
B
100
AcDbEntity
 67
     1
  8
1
  6
Continuous
 62
    18
100
AcDbLine
 10
2.039086999999999
 20
6.415087999999999
 30
0.0
 11
2.029350999999999
 21
6.417876999999999
 31
0.0
  0
LINE
  5
1D7
330
B
100
AcDbEntity
 67
     1
  8
1
  6
Continuous
 62
    18
100
AcDbLine
 10
2.362372999999999
 20
4.303449999999999
 30
0.0
 11
2.380129999999999
 21
4.298483999999999
 31
0.0
  0
LINE
  5
1D8
330
B
100
AcDbEntity
 67
     1
  8
1
  6
Continuous
 62
    18
100
AcDbLine
 10
2.145776999999999
 20
3.874876
 30
0.0
 11
2.131861
 21
3.880855
 31
0.0
  0
LINE
  5
1D9
330
B
100
AcDbEntity
 67
     1
  8
1
  6
Continuous
 62
    18
100
AcDbLine
 10
5.725178999999999
 20
4.317415
 30
0.0
 11
5.742421
 21
4.317501999999999
 31
0.0
  0
LINE
  5
1DA
330
B
100
AcDbEntity
 67
     1
  8
1
  6
Continuous
 62
    18
100
AcDbLine
 10
2.348015
 20
6.443407999999999
 30
0.0
 11
2.216983
 21
6.441119999999999
 31
0.0
  0
LINE
  5
1DB
330
B
100
AcDbEntity
 67
     1
  8
1
  6
Continuous
 62
    18
100
AcDbLine
 10
2.39819
 20
3.821101999999999
 30
0.0
 11
2.405148
 21
3.821101999999999
 31
0.0
  0
LINE
  5
1DC
330
B
100
AcDbEntity
 67
     1
  8
1
  6
Continuous
 62
    18
100
AcDbLine
 10
5.728221999999999
 20
3.758316999999999
 30
0.0
 11
5.728221999999999
 21
3.797641999999999
 31
0.0
  0
LINE
  5
1DD
330
B
100
AcDbEntity
 67
     1
  8
1
  6
Continuous
 62
    18
100
AcDbLine
 10
5.615198
 20
3.879526
 30
0.0
 11
5.615198
 21
3.865758999999999
 31
0.0
  0
LINE
  5
1DE
330
B
100
AcDbEntity
 67
     1
  8
1
  6
Continuous
 62
    18
100
AcDbLine
 10
2.216959999999999
 20
6.421157
 30
0.0
 11
2.216983
 21
6.419591
 31
0.0
  0
LINE
  5
1DF
330
B
100
AcDbEntity
 67
     1
  8
1
  6
Continuous
 62
    18
100
AcDbLine
 10
2.143527999999999
 20
5.631810999999999
 30
0.0
 11
2.085950999999999
 21
5.6302
 31
0.0
  0
LINE
  5
1E0
330
B
100
AcDbEntity
 67
     1
  8
1
  6
Continuous
 62
    18
100
AcDbLine
 10
2.156824
 20
4.02643
 30
0.0
 11
2.156824
 21
4.049917999999999
 31
0.0
  0
LINE
  5
1E1
330
B
100
AcDbEntity
 67
     1
  8
1
  6
Continuous
 62
    18
100
AcDbLine
 10
4.962545999999999
 20
4.164013999999999
 30
0.0
 11
5.018762999999999
 21
4.165976999999999
 31
0.0
  0
LINE
  5
1E2
330
B
100
AcDbEntity
 67
     1
  8
1
  6
Continuous
 62
    18
100
AcDbLine
 10
1.555482999999999
 20
6.367194
 30
0.0
 11
1.555482999999999
 21
5.73748
 31
0.0
  0
LINE
  5
1E3
330
B
100
AcDbEntity
 67
     1
  8
1
  6
Continuous
 62
    18
100
AcDbLine
 10
5.027641
 20
4.284041
 30
0.0
 11
5.034377
 21
4.280673
 31
0.0
  0
LINE
  5
1E4
330
B
100
AcDbEntity
 67
     1
  8
1
  6
Continuous
 62
    18
100
AcDbLine
 10
2.878483
 20
6.320562
 30
0.0
 11
2.840174
 21
6.336823
 31
0.0
  0
LINE
  5
1E5
330
B
100
AcDbEntity
 67
     1
  8
1
  6
Continuous
 62
    18
100
AcDbLine
 10
4.975779
 20
3.673562
 30
0.0
 11
4.977388999999999
 21
3.676145999999999
 31
0.0
  0
LINE
  5
1E6
330
B
100
AcDbEntity
 67
     1
  8
1
  6
Continuous
 62
    18
100
AcDbLine
 10
2.878483
 20
4.280673
 30
0.0
 11
2.878483
 21
4.277744999999999
 31
0.0
  0
LINE
  5
1E7
330
B
100
AcDbEntity
 67
     1
  8
1
  6
Continuous
 62
    18
100
AcDbLine
 10
2.362372999999999
 20
3.68528
 30
0.0
 11
2.280956999999999
 21
3.678157
 31
0.0
  0
LINE
  5
1E8
330
B
100
AcDbEntity
 67
     1
  8
1
  6
Continuous
 62
    18
100
AcDbLine
 10
5.623635
 20
4.091465
 30
0.0
 11
5.623635
 21
3.897266
 31
0.0
  0
LINE
  5
1E9
330
B
100
AcDbEntity
 67
     1
  8
1
  6
Continuous
 62
    18
100
AcDbLine
 10
2.557322
 20
6.497387999999999
 30
0.0
 11
2.561064
 21
6.454616
 31
0.0
  0
LINE
  5
1EA
330
B
100
AcDbEntity
 67
     1
  8
1
  6
Continuous
 62
    18
100
AcDbLine
 10
5.720404
 20
3.801973
 30
0.0
 11
5.722691
 21
3.804341999999999
 31
0.0
  0
LINE
  5
1EB
330
B
100
AcDbEntity
 67
     1
  8
1
  6
Continuous
 62
    18
100
AcDbLine
 10
2.068286
 20
4.164308
 30
0.0
 11
2.085950999999999
 21
4.165853
 31
0.0
  0
LINE
  5
1EC
330
B
100
AcDbEntity
 67
     1
  8
1
  6
Continuous
 62
    18
100
AcDbLine
 10
5.71835
 20
3.714682999999999
 30
0.0
 11
5.715415
 21
3.707616
 31
0.0
  0
LINE
  5
1ED
330
B
100
AcDbEntity
 67
     1
  8
1
  6
Continuous
 62
    18
100
AcDbLine
 10
2.402772999999999
 20
6.398892
 30
0.0
 11
2.392370999999999
 21
6.413307999999999
 31
0.0
  0
LINE
  5
1EE
330
B
100
AcDbEntity
 67
     1
  8
1
  6
Continuous
 62
    18
100
AcDbLine
 10
5.014298999999999
 20
3.701311
 30
0.0
 11
5.014556999999999
 21
3.690247
 31
0.0
  0
LINE
  5
1EF
330
B
100
AcDbEntity
 67
     1
  8
1
  6
Continuous
 62
    18
100
AcDbLine
 10
2.025951
 20
3.732267999999999
 30
0.0
 11
1.638710999999999
 21
3.725508
 31
0.0
  0
LINE
  5
1F0
330
B
100
AcDbEntity
 67
     1
  8
1
  6
Continuous
 62
    18
100
AcDbLine
 10
5.782383
 20
3.735601999999999
 30
0.0
 11
5.780088
 21
3.747104
 31
0.0
  0
LINE
  5
1F1
330
B
100
AcDbEntity
 67
     1
  8
1
  6
Continuous
 62
    18
100
AcDbLine
 10
2.22194
 20
3.937670999999999
 30
0.0
 11
2.22194
 21
3.93566
 31
0.0
  0
LINE
  5
1F2
330
B
100
AcDbEntity
 67
     1
  8
1
  6
Continuous
 62
    18
100
AcDbLine
 10
2.096233
 20
6.281719999999999
 30
0.0
 11
2.087950999999999
 21
6.265512
 31
0.0
  0
LINE
  5
1F3
330
B
100
AcDbEntity
 67
     1
  8
1
  6
Continuous
 62
    18
100
AcDbLine
 10
5.017641
 20
3.714687999999999
 30
0.0
 11
5.024376999999999
 21
3.718055999999999
 31
0.0
  0
LINE
  5
1F4
330
B
100
AcDbEntity
 67
     1
  8
1
  6
Continuous
 62
    18
100
AcDbLine
 10
5.01413
 20
4.271761999999999
 30
0.0
 11
5.014069999999999
 21
4.253639999999999
 31
0.0
  0
LINE
  5
1F5
330
B
100
AcDbEntity
 67
     1
  8
1
  6
Continuous
 62
    18
100
AcDbLine
 10
1.859699
 20
3.842672
 30
0.0
 11
1.876645
 21
3.841188999999999
 31
0.0
  0
LINE
  5
1F6
330
B
100
AcDbEntity
 67
     1
  8
1
  6
Continuous
 62
    18
100
AcDbLine
 10
5.719108999999999
 20
4.164564
 30
0.0
 11
5.726053
 21
4.164341
 31
0.0
  0
LINE
  5
1F7
330
B
100
AcDbEntity
 67
     1
  8
1
  6
Continuous
 62
    18
100
AcDbLine
 10
5.701298
 20
4.165351999999999
 30
0.0
 11
5.701298
 21
4.255916
 31
0.0
  0
LINE
  5
1F8
330
B
100
AcDbEntity
 67
     1
  8
1
  6
Continuous
 62
    18
100
AcDbLine
 10
2.073202
 20
4.255637999999999
 30
0.0
 11
2.054927999999999
 21
4.255956999999999
 31
0.0
  0
LINE
  5
1F9
330
B
100
AcDbEntity
 67
     1
  8
1
  6
Continuous
 62
    18
100
AcDbLine
 10
2.337734
 20
5.776323
 30
0.0
 11
2.346014999999999
 21
5.79253
 31
0.0
  0
LINE
  5
1FA
330
B
100
AcDbEntity
 67
     1
  8
1
  6
Continuous
 62
    18
100
AcDbLine
 10
1.876645
 20
5.560655
 30
0.0
 11
1.872902999999999
 21
5.603425999999999
 31
0.0
  0
LINE
  5
1FB
330
B
100
AcDbEntity
 67
     1
  8
1
  6
Continuous
 62
    18
100
AcDbLine
 10
5.015118
 20
4.237176999999999
 30
0.0
 11
5.015118
 21
4.241665
 31
0.0
  0
LINE
  5
1FC
330
B
100
AcDbEntity
 67
     1
  8
1
  6
Continuous
 62
    18
100
AcDbLine
 10
2.216808
 20
4.312583999999999
 30
0.0
 11
2.216845
 21
4.312983999999999
 31
0.0
  0
LINE
  5
1FD
330
B
100
AcDbEntity
 67
     1
  8
1
  6
Continuous
 62
    18
100
AcDbLine
 10
2.216983
 20
4.053500999999999
 30
0.0
 11
2.268726
 21
4.048973999999999
 31
0.0
  0
LINE
  5
1FE
330
B
100
AcDbEntity
 67
     1
  8
1
  6
Continuous
 62
    18
100
AcDbLine
 10
2.071210999999999
 20
4.164564
 30
0.0
 11
2.068668999999999
 21
4.164341
 31
0.0
  0
LINE
  5
1FF
330
B
100
AcDbEntity
 67
     1
  8
1
  6
Continuous
 62
    18
100
AcDbLine
 10
2.216983
 20
4.051492999999999
 30
0.0
 11
2.266725999999999
 21
4.047141
 31
0.0
  0
LINE
  5
200
330
B
100
AcDbEntity
 67
     1
  8
1
  6
Continuous
 62
    18
100
AcDbLine
 10
5.611032999999999
 20
4.096365
 30
0.0
 11
5.595032999999999
 21
4.096365
 31
0.0
  0
LINE
  5
201
330
B
100
AcDbEntity
 67
     1
  8
1
  6
Continuous
 62
    18
100
AcDbLine
 10
4.962545999999999
 20
4.019150999999999
 30
0.0
 11
4.960220999999999
 21
4.022465
 31
0.0
  0
LINE
  5
202
330
B
100
AcDbEntity
 67
     1
  8
1
  6
Continuous
 62
    18
100
AcDbLine
 10
5.630183
 20
4.118960999999999
 30
0.0
 11
5.641144999999999
 21
4.107998999999999
 31
0.0
  0
LINE
  5
203
330
B
100
AcDbEntity
 67
     1
  8
1
  6
Continuous
 62
    18
100
AcDbLine
 10
2.352933
 20
3.805023999999999
 30
0.0
 11
2.349915
 21
3.804761
 31
0.0
  0
LINE
  5
204
330
B
100
AcDbEntity
 67
     1
  8
1
  6
Continuous
 62
    18
100
AcDbLine
 10
2.247183
 20
4.191088999999999
 30
0.0
 11
2.348015
 21
4.187869
 31
0.0
  0
LINE
  5
205
330
B
100
AcDbEntity
 67
     1
  8
1
  6
Continuous
 62
    18
100
AcDbLine
 10
4.988207
 20
4.298483999999999
 30
0.0
 11
4.986482999999999
 21
4.28742
 31
0.0
  0
LINE
  5
206
330
B
100
AcDbEntity
 67
     1
  8
1
  6
Continuous
 62
    18
100
AcDbLine
 10
5.780088
 20
4.241626
 30
0.0
 11
5.780810999999999
 21
4.238008999999999
 31
0.0
  0
LINE
  5
207
330
B
100
AcDbEntity
 67
     1
  8
1
  6
Continuous
 62
    18
100
AcDbLine
 10
2.145776999999999
 20
4.016237999999999
 30
0.0
 11
2.138818999999999
 21
4.013249
 31
0.0
  0
LINE
  5
208
330
B
100
AcDbEntity
 67
     1
  8
1
  6
Continuous
 62
    18
100
AcDbLine
 10
2.405218999999999
 20
5.624524
 30
0.0
 11
2.408015
 21
5.631256999999999
 31
0.0
  0
LINE
  5
209
330
B
100
AcDbEntity
 67
     1
  8
1
  6
Continuous
 62
    18
100
AcDbLine
 10
2.190881999999999
 20
4.017025
 30
0.0
 11
2.176527
 21
4.016774999999999
 31
0.0
  0
LINE
  5
20A
330
B
100
AcDbEntity
 67
     1
  8
1
  6
Continuous
 62
    18
100
AcDbLine
 10
4.968051999999999
 20
3.755441
 30
0.0
 11
4.974785999999999
 21
3.757102999999999
 31
0.0
  0
LINE
  5
20B
330
B
100
AcDbEntity
 67
     1
  8
1
  6
Continuous
 62
    18
100
AcDbLine
 10
5.024376999999999
 20
4.270673999999999
 30
0.0
 11
5.024376999999999
 21
3.718055999999999
 31
0.0
  0
LINE
  5
20C
330
B
100
AcDbEntity
 67
     1
  8
1
  6
Continuous
 62
    18
100
AcDbLine
 10
2.247183
 20
3.797641999999999
 30
0.0
 11
2.251301999999999
 21
3.801337
 31
0.0
  0
LINE
  5
20D
330
B
100
AcDbEntity
 67
     1
  8
1
  6
Continuous
 62
    18
100
AcDbLine
 10
5.015119
 20
3.670273
 30
0.0
 11
4.973729
 21
3.670273
 31
0.0
  0
LINE
  5
20E
330
B
100
AcDbEntity
 67
     1
  8
1
  6
Continuous
 62
    18
100
AcDbLine
 10
4.962545999999999
 20
4.070108
 30
0.0
 11
4.959868
 21
4.070108
 31
0.0
  0
LINE
  5
20F
330
B
100
AcDbEntity
 67
     1
  8
1
  6
Continuous
 62
    18
100
AcDbLine
 10
2.026258
 20
5.676393
 30
0.0
 11
2.031193999999999
 21
5.65915
 31
0.0
  0
LINE
  5
210
330
B
100
AcDbEntity
 67
     1
  8
1
  6
Continuous
 62
    18
100
AcDbLine
 10
4.966603
 20
3.821101999999999
 30
0.0
 11
4.973612
 21
3.821101999999999
 31
0.0
  0
LINE
  5
211
330
B
100
AcDbEntity
 67
     1
  8
1
  6
Continuous
 62
    18
100
AcDbLine
 10
2.216983
 20
6.438854
 30
0.0
 11
2.216983
 21
6.441119999999999
 31
0.0
  0
LINE
  5
212
330
B
100
AcDbEntity
 67
     1
  8
1
  6
Continuous
 62
    18
100
AcDbLine
 10
5.725153999999999
 20
4.294451
 30
0.0
 11
5.725178999999999
 21
4.317415
 31
0.0
  0
LINE
  5
213
330
B
100
AcDbEntity
 67
     1
  8
1
  6
Continuous
 62
    18
100
AcDbLine
 10
4.959208
 20
4.113853999999999
 30
0.0
 11
4.960443999999999
 21
4.115091
 31
0.0
  0
LINE
  5
214
330
B
100
AcDbEntity
 67
     1
  8
1
  6
Continuous
 62
    18
100
AcDbLine
 10
2.054927999999999
 20
4.255956999999999
 30
0.0
 11
2.039636999999999
 21
4.256223999999999
 31
0.0
  0
LINE
  5
215
330
B
100
AcDbEntity
 67
     1
  8
1
  6
Continuous
 62
    18
100
AcDbLine
 10
4.979025
 20
4.315128999999999
 30
0.0
 11
4.980413999999999
 21
4.3159
 31
0.0
  0
LINE
  5
216
330
B
100
AcDbEntity
 67
     1
  8
1
  6
Continuous
 62
    18
100
AcDbLine
 10
5.786935999999999
 20
3.733315
 30
0.0
 11
5.782383
 21
3.735601999999999
 31
0.0
  0
LINE
  5
217
330
B
100
AcDbEntity
 67
     1
  8
1
  6
Continuous
 62
    18
100
AcDbLine
 10
2.348015
 20
3.670273
 30
0.0
 11
2.492563
 21
3.672795999999999
 31
0.0
  0
LINE
  5
218
330
B
100
AcDbEntity
 67
     1
  8
1
  6
Continuous
 62
    18
100
AcDbLine
 10
2.135950999999999
 20
4.070108
 30
0.0
 11
2.138818999999999
 21
4.063099
 31
0.0
  0
LINE
  5
219
330
B
100
AcDbEntity
 67
     1
  8
1
  6
Continuous
 62
    18
100
AcDbLine
 10
4.962746
 20
3.809087999999999
 30
0.0
 11
4.962824999999999
 21
3.804107
 31
0.0
  0
LINE
  5
21A
330
B
100
AcDbEntity
 67
     1
  8
1
  6
Continuous
 62
    18
100
AcDbLine
 10
2.135950999999999
 20
4.093856999999999
 30
0.0
 11
2.133084
 21
4.093856999999999
 31
0.0
  0
LINE
  5
21B
330
B
100
AcDbEntity
 67
     1
  8
1
  6
Continuous
 62
    18
100
AcDbLine
 10
4.959401
 20
3.962301
 30
0.0
 11
4.959208
 21
3.962494
 31
0.0
  0
LINE
  5
21C
330
B
100
AcDbEntity
 67
     1
  8
1
  6
Continuous
 62
    18
100
AcDbLine
 10
5.129901999999999
 20
4.102998999999999
 30
0.0
 11
5.122816999999999
 21
4.100099
 31
0.0
  0
LINE
  5
21D
330
B
100
AcDbEntity
 67
     1
  8
1
  6
Continuous
 62
    18
100
AcDbLine
 10
5.766932999999999
 20
4.140006999999999
 30
0.0
 11
5.771808
 21
4.139666
 31
0.0
  0
LINE
  5
21E
330
B
100
AcDbEntity
 67
     1
  8
1
  6
Continuous
 62
    18
100
AcDbLine
 10
2.145776999999999
 20
3.928620999999999
 30
0.0
 11
2.145849
 21
3.931551
 31
0.0
  0
LINE
  5
21F
330
B
100
AcDbEntity
 67
     1
  8
1
  6
Continuous
 62
    18
100
AcDbLine
 10
5.727694999999999
 20
3.802227999999999
 30
0.0
 11
5.727694999999999
 21
3.735602999999999
 31
0.0
  0
LINE
  5
220
330
B
100
AcDbEntity
 67
     1
  8
1
  6
Continuous
 62
    18
100
AcDbLine
 10
5.155533
 20
3.994365
 30
0.0
 11
5.155533
 21
4.064365
 31
0.0
  0
LINE
  5
221
330
B
100
AcDbEntity
 67
     1
  8
1
  6
Continuous
 62
    18
100
AcDbLine
 10
5.786935999999999
 20
3.822876999999999
 30
0.0
 11
5.729981999999999
 21
3.822876999999999
 31
0.0
  0
LINE
  5
222
330
B
100
AcDbEntity
 67
     1
  8
1
  6
Continuous
 62
    18
100
AcDbLine
 10
2.216988
 20
5.635495999999999
 30
0.0
 11
2.217007
 21
5.636884999999999
 31
0.0
  0
LINE
  5
223
330
B
100
AcDbEntity
 67
     1
  8
1
  6
Continuous
 62
    18
100
AcDbLine
 10
2.145776999999999
 20
3.962494
 30
0.0
 11
2.145849
 21
3.969562999999999
 31
0.0
  0
LINE
  5
224
330
B
100
AcDbEntity
 67
     1
  8
1
  6
Continuous
 62
    18
100
AcDbLine
 10
4.988633
 20
3.68528
 30
0.0
 11
4.984786999999999
 21
3.678157
 31
0.0
  0
LINE
  5
225
330
B
100
AcDbEntity
 67
     1
  8
1
  6
Continuous
 62
    18
100
AcDbLine
 10
5.729981999999999
 20
4.165853
 30
0.0
 11
5.786935999999999
 21
4.165853
 31
0.0
  0
LINE
  5
226
330
B
100
AcDbEntity
 67
     1
  8
1
  6
Continuous
 62
    18
100
AcDbLine
 10
2.029350999999999
 20
6.387442
 30
0.0
 11
2.025951
 21
6.387501
 31
0.0
  0
LINE
  5
227
330
B
100
AcDbEntity
 67
     1
  8
1
  6
Continuous
 62
    18
100
AcDbLine
 10
5.618533
 20
4.071864999999999
 30
0.0
 11
5.619847
 21
4.071864999999999
 31
0.0
  0
LINE
  5
228
330
B
100
AcDbEntity
 67
     1
  8
1
  6
Continuous
 62
    18
100
AcDbLine
 10
1.879754
 20
4.147812999999999
 30
0.0
 11
1.879754
 21
3.840916999999999
 31
0.0
  0
LINE
  5
229
330
B
100
AcDbEntity
 67
     1
  8
1
  6
Continuous
 62
    18
100
AcDbLine
 10
5.729989999999999
 20
4.179641999999999
 30
0.0
 11
5.730069999999999
 21
4.184623
 31
0.0
  0
LINE
  5
22A
330
B
100
AcDbEntity
 67
     1
  8
1
  6
Continuous
 62
    18
100
AcDbLine
 10
2.380129999999999
 20
3.865946
 30
0.0
 11
2.394878999999999
 21
3.854881999999999
 31
0.0
  0
LINE
  5
22B
330
B
100
AcDbEntity
 67
     1
  8
1
  6
Continuous
 62
    18
100
AcDbLine
 10
5.729352999999999
 20
4.163762
 30
0.0
 11
5.729352999999999
 21
3.824968
 31
0.0
  0
LINE
  5
22C
330
B
100
AcDbEntity
 67
     1
  8
1
  6
Continuous
 62
    18
100
AcDbLine
 10
2.348015
 20
6.427843
 30
0.0
 11
2.348047
 21
6.427844
 31
0.0
  0
LINE
  5
22D
330
B
100
AcDbEntity
 67
     1
  8
1
  6
Continuous
 62
    18
100
AcDbLine
 10
5.729981999999999
 20
4.184133999999999
 30
0.0
 11
5.722691
 21
4.184389
 31
0.0
  0
LINE
  5
22E
330
B
100
AcDbEntity
 67
     1
  8
1
  6
Continuous
 62
    18
100
AcDbLine
 10
2.353015
 20
3.752084999999999
 30
0.0
 11
2.353015
 21
3.762804
 31
0.0
  0
LINE
  5
22F
330
B
100
AcDbEntity
 67
     1
  8
1
  6
Continuous
 62
    18
100
AcDbLine
 10
2.029350999999999
 20
6.417876999999999
 30
0.0
 11
2.025951
 21
6.42135
 31
0.0
  0
LINE
  5
230
330
B
100
AcDbEntity
 67
     1
  8
1
  6
Continuous
 62
    18
100
AcDbLine
 10
2.380129999999999
 20
4.298483999999999
 30
0.0
 11
2.394878999999999
 21
4.28742
 31
0.0
  0
LINE
  5
231
330
B
100
AcDbEntity
 67
     1
  8
1
  6
Continuous
 62
    18
100
AcDbLine
 10
2.131861
 20
3.880855
 30
0.0
 11
2.126125999999999
 21
3.894873
 31
0.0
  0
LINE
  5
232
330
B
100
AcDbEntity
 67
     1
  8
1
  6
Continuous
 62
    18
100
AcDbLine
 10
5.015118
 20
4.318456999999999
 30
0.0
 11
5.017641
 21
4.315933999999999
 31
0.0
  0
LINE
  5
233
330
B
100
AcDbEntity
 67
     1
  8
1
  6
Continuous
 62
    18
100
AcDbLine
 10
1.877083
 20
6.439023999999999
 30
0.0
 11
1.767398
 21
6.380893
 31
0.0
  0
LINE
  5
234
330
B
100
AcDbEntity
 67
     1
  8
1
  6
Continuous
 62
    18
100
AcDbLine
 10
5.742421
 20
4.317501999999999
 30
0.0
 11
5.756836999999999
 21
4.317683
 31
0.0
  0
LINE
  5
235
330
B
100
AcDbEntity
 67
     1
  8
1
  6
Continuous
 62
    18
100
AcDbLine
 10
2.348015
 20
6.443407999999999
 30
0.0
 11
2.554213
 21
6.447007
 31
0.0
  0
LINE
  5
236
330
B
100
AcDbEntity
 67
     1
  8
1
  6
Continuous
 62
    18
100
AcDbLine
 10
5.728221999999999
 20
3.797641999999999
 30
0.0
 11
5.728293999999999
 21
3.801337
 31
0.0
  0
LINE
  5
237
330
B
100
AcDbEntity
 67
     1
  8
1
  6
Continuous
 62
    18
100
AcDbLine
 10
5.129901999999999
 20
4.122971999999999
 30
0.0
 11
5.129901999999999
 21
4.109205
 31
0.0
  0
LINE
  5
238
330
B
100
AcDbEntity
 67
     1
  8
1
  6
Continuous
 62
    18
100
AcDbLine
 10
2.405148
 20
3.821101999999999
 30
0.0
 11
2.408015
 21
3.821101999999999
 31
0.0
  0
LINE
  5
239
330
B
100
AcDbEntity
 67
     1
  8
1
  6
Continuous
 62
    18
100
AcDbLine
 10
2.085950999999999
 20
5.6302
 30
0.0
 11
2.08592
 21
5.630198
 31
0.0
  0
LINE
  5
23A
330
B
100
AcDbEntity
 67
     1
  8
1
  6
Continuous
 62
    18
100
AcDbLine
 10
2.156824
 20
4.049917999999999
 30
0.0
 11
2.145776999999999
 21
4.050111
 31
0.0
  0
LINE
  5
23B
330
B
100
AcDbEntity
 67
     1
  8
1
  6
Continuous
 62
    18
100
AcDbLine
 10
5.015153999999999
 20
4.184098999999999
 30
0.0
 11
5.01503
 21
4.184095
 31
0.0
  0
LINE
  5
23C
330
B
100
AcDbEntity
 67
     1
  8
1
  6
Continuous
 62
    18
100
AcDbLine
 10
2.878483
 20
5.690847999999999
 30
0.0
 11
2.878483
 21
6.320562
 31
0.0
  0
LINE
  5
23D
330
B
100
AcDbEntity
 67
     1
  8
1
  6
Continuous
 62
    18
100
AcDbLine
 10
4.977388999999999
 20
3.676145999999999
 30
0.0
 11
4.978223
 21
3.685619
 31
0.0
  0
LINE
  5
23E
330
B
100
AcDbEntity
 67
     1
  8
1
  6
Continuous
 62
    18
100
AcDbLine
 10
2.878483
 20
4.277744999999999
 30
0.0
 11
2.878483
 21
4.270673999999999
 31
0.0
  0
LINE
  5
23F
330
B
100
AcDbEntity
 67
     1
  8
1
  6
Continuous
 62
    18
100
AcDbLine
 10
2.280956999999999
 20
3.678157
 30
0.0
 11
2.216983
 21
3.672559999999999
 31
0.0
  0
LINE
  5
240
330
B
100
AcDbEntity
 67
     1
  8
1
  6
Continuous
 62
    18
100
AcDbLine
 10
5.613648999999999
 20
4.101450999999999
 30
0.0
 11
5.615198
 21
4.102998999999999
 31
0.0
  0
LINE
  5
241
330
B
100
AcDbEntity
 67
     1
  8
1
  6
Continuous
 62
    18
100
AcDbLine
 10
2.561064
 20
6.454616
 30
0.0
 11
2.559292999999999
 21
6.449322
 31
0.0
  0
LINE
  5
242
330
B
100
AcDbEntity
 67
     1
  8
1
  6
Continuous
 62
    18
100
AcDbLine
 10
5.720404
 20
4.186758
 30
0.0
 11
5.722691
 21
4.184389
 31
0.0
  0
LINE
  5
243
330
B
100
AcDbEntity
 67
     1
  8
1
  6
Continuous
 62
    18
100
AcDbLine
 10
2.260657
 20
4.185716999999999
 30
0.0
 11
2.348288999999999
 21
4.182919
 31
0.0
  0
LINE
  5
244
330
B
100
AcDbEntity
 67
     1
  8
1
  6
Continuous
 62
    18
100
AcDbLine
 10
5.122816999999999
 20
3.888631999999999
 30
0.0
 11
5.129901999999999
 21
3.885730999999999
 31
0.0
  0
LINE
  5
245
330
B
100
AcDbEntity
 67
     1
  8
1
  6
Continuous
 62
    18
100
AcDbLine
 10
1.555482999999999
 20
3.708057
 30
0.0
 11
1.593792
 21
3.707723
 31
0.0
  0
LINE
  5
246
330
B
100
AcDbEntity
 67
     1
  8
1
  6
Continuous
 62
    18
100
AcDbLine
 10
5.615198
 20
3.885730999999999
 30
0.0
 11
5.622283
 21
3.888631999999999
 31
0.0
  0
LINE
  5
247
330
B
100
AcDbEntity
 67
     1
  8
1
  6
Continuous
 62
    18
100
AcDbLine
 10
5.715415
 20
3.707616
 30
0.0
 11
5.708325
 21
3.70469
 31
0.0
  0
LINE
  5
248
330
B
100
AcDbEntity
 67
     1
  8
1
  6
Continuous
 62
    18
100
AcDbLine
 10
2.216983
 20
3.802229
 30
0.0
 11
2.216983
 21
3.820591
 31
0.0
  0
LINE
  5
249
330
B
100
AcDbEntity
 67
     1
  8
1
  6
Continuous
 62
    18
100
AcDbLine
 10
1.638710999999999
 20
3.725508
 30
0.0
 11
1.638710999999999
 21
4.263221999999999
 31
0.0
  0
LINE
  5
24A
330
B
100
AcDbEntity
 67
     1
  8
1
  6
Continuous
 62
    18
100
AcDbLine
 10
2.392370999999999
 20
6.413307999999999
 30
0.0
 11
2.377774
 21
6.423137
 31
0.0
  0
LINE
  5
24B
330
B
100
AcDbEntity
 67
     1
  8
1
  6
Continuous
 62
    18
100
AcDbLine
 10
5.014556999999999
 20
3.690247
 30
0.0
 11
5.014866999999999
 21
3.68528
 31
0.0
  0
LINE
  5
24C
330
B
100
AcDbEntity
 67
     1
  8
1
  6
Continuous
 62
    18
100
AcDbLine
 10
1.872902999999999
 20
5.603425999999999
 30
0.0
 11
1.874674
 21
5.608721
 31
0.0
  0
LINE
  5
24D
330
B
100
AcDbEntity
 67
     1
  8
1
  6
Continuous
 62
    18
100
AcDbLine
 10
2.025951
 20
4.256463
 30
0.0
 11
1.638710999999999
 21
4.263221999999999
 31
0.0
  0
LINE
  5
24E
330
B
100
AcDbEntity
 67
     1
  8
1
  6
Continuous
 62
    18
100
AcDbLine
 10
2.216808
 20
3.676145999999999
 30
0.0
 11
2.298038999999999
 21
3.685619
 31
0.0
  0
LINE
  5
24F
330
B
100
AcDbEntity
 67
     1
  8
1
  6
Continuous
 62
    18
100
AcDbLine
 10
5.840620999999999
 20
4.146058999999999
 30
0.0
 11
5.840915999999999
 21
4.147541
 31
0.0
  0
LINE
  5
250
330
B
100
AcDbEntity
 67
     1
  8
1
  6
Continuous
 62
    18
100
AcDbLine
 10
2.085950999999999
 20
6.386454
 30
0.0
 11
1.941403
 21
6.38393
 31
0.0
  0
LINE
  5
251
330
B
100
AcDbEntity
 67
     1
  8
1
  6
Continuous
 62
    18
100
AcDbLine
 10
2.026258
 20
4.317415
 30
0.0
 11
2.031193999999999
 21
4.317501999999999
 31
0.0
  0
LINE
  5
252
330
B
100
AcDbEntity
 67
     1
  8
1
  6
Continuous
 62
    18
100
AcDbLine
 10
2.190881999999999
 20
4.059321999999999
 30
0.0
 11
2.196126
 21
4.05923
 31
0.0
  0
LINE
  5
253
330
B
100
AcDbEntity
 67
     1
  8
1
  6
Continuous
 62
    18
100
AcDbLine
 10
2.087950999999999
 20
6.257080999999999
 30
0.0
 11
2.087950999999999
 21
6.265512
 31
0.0
  0
LINE
  5
254
330
B
100
AcDbEntity
 67
     1
  8
1
  6
Continuous
 62
    18
100
AcDbLine
 10
5.014069999999999
 20
4.253639999999999
 30
0.0
 11
5.014069999999999
 21
4.167627999999999
 31
0.0
  0
LINE
  5
255
330
B
100
AcDbEntity
 67
     1
  8
1
  6
Continuous
 62
    18
100
AcDbLine
 10
2.404615999999999
 20
4.149505999999999
 30
0.0
 11
2.394878999999999
 21
4.133848999999999
 31
0.0
  0
LINE
  5
256
330
B
100
AcDbEntity
 67
     1
  8
1
  6
Continuous
 62
    18
100
AcDbLine
 10
1.859699
 20
3.842672
 30
0.0
 11
1.852958
 21
3.843262
 31
0.0
  0
LINE
  5
257
330
B
100
AcDbEntity
 67
     1
  8
1
  6
Continuous
 62
    18
100
AcDbLine
 10
5.693991999999999
 20
4.263221999999999
 30
0.0
 11
5.701298
 21
4.255916
 31
0.0
  0
LINE
  5
258
330
B
100
AcDbEntity
 67
     1
  8
1
  6
Continuous
 62
    18
100
AcDbLine
 10
2.393602
 20
3.713710999999999
 30
0.0
 11
2.398393999999999
 21
3.732694999999999
 31
0.0
  0
LINE
  5
259
330
B
100
AcDbEntity
 67
     1
  8
1
  6
Continuous
 62
    18
100
AcDbLine
 10
2.346014999999999
 20
5.800962
 30
0.0
 11
2.346014999999999
 21
5.79253
 31
0.0
  0
LINE
  5
25A
330
B
100
AcDbEntity
 67
     1
  8
1
  6
Continuous
 62
    18
100
AcDbLine
 10
5.015118
 20
3.747066
 30
0.0
 11
5.015118
 21
3.751552999999999
 31
0.0
  0
LINE
  5
25B
330
B
100
AcDbEntity
 67
     1
  8
1
  6
Continuous
 62
    18
100
AcDbLine
 10
2.268726
 20
4.048973999999999
 30
0.0
 11
2.281728999999999
 21
4.042562
 31
0.0
  0
LINE
  5
25C
330
B
100
AcDbEntity
 67
     1
  8
1
  6
Continuous
 62
    18
100
AcDbLine
 10
5.764726999999999
 20
4.237144999999999
 30
0.0
 11
5.769988999999999
 21
4.232173
 31
0.0
  0
LINE
  5
25D
330
B
100
AcDbEntity
 67
     1
  8
1
  6
Continuous
 62
    18
100
AcDbLine
 10
2.031193999999999
 20
4.317501999999999
 30
0.0
 11
2.041595
 21
4.317683
 31
0.0
  0
LINE
  5
25E
330
B
100
AcDbEntity
 67
     1
  8
1
  6
Continuous
 62
    18
100
AcDbLine
 10
2.083852999999999
 20
6.386416999999999
 30
0.0
 11
2.083855999999999
 21
6.38649
 31
0.0
  0
LINE
  5
25F
330
B
100
AcDbEntity
 67
     1
  8
1
  6
Continuous
 62
    18
100
AcDbLine
 10
2.135950999999999
 20
4.093856999999999
 30
0.0
 11
2.135950999999999
 21
4.070108
 31
0.0
  0
LINE
  5
260
330
B
100
AcDbEntity
 67
     1
  8
1
  6
Continuous
 62
    18
100
AcDbLine
 10
4.960220999999999
 20
4.022465
 30
0.0
 11
4.959401
 21
4.02643
 31
0.0
  0
LINE
  5
261
330
B
100
AcDbEntity
 67
     1
  8
1
  6
Continuous
 62
    18
100
AcDbLine
 10
5.641144999999999
 20
4.107998999999999
 30
0.0
 11
5.645156
 21
4.093013
 31
0.0
  0
LINE
  5
262
330
B
100
AcDbEntity
 67
     1
  8
1
  6
Continuous
 62
    18
100
AcDbLine
 10
2.556883
 20
4.165976999999999
 30
0.0
 11
2.408015999999999
 21
4.178918
 31
0.0
  0
LINE
  5
263
330
B
100
AcDbEntity
 67
     1
  8
1
  6
Continuous
 62
    18
100
AcDbLine
 10
2.176527
 20
3.929158
 30
0.0
 11
2.156824
 21
3.928814
 31
0.0
  0
LINE
  5
264
330
B
100
AcDbEntity
 67
     1
  8
1
  6
Continuous
 62
    18
100
AcDbLine
 10
4.973612
 20
3.766755999999999
 30
0.0
 11
4.974785999999999
 21
3.757102999999999
 31
0.0
  0
LINE
  5
265
330
B
100
AcDbEntity
 67
     1
  8
1
  6
Continuous
 62
    18
100
AcDbLine
 10
2.348015
 20
4.232173
 30
0.0
 11
2.247183
 21
4.230412999999999
 31
0.0
  0
LINE
  5
266
330
B
100
AcDbEntity
 67
     1
  8
1
  6
Continuous
 62
    18
100
AcDbLine
 10
4.986482999999999
 20
4.28742
 30
0.0
 11
4.983693999999999
 21
4.271761999999999
 31
0.0
  0
LINE
  5
267
330
B
100
AcDbEntity
 67
     1
  8
1
  6
Continuous
 62
    18
100
AcDbLine
 10
2.176527
 20
4.016774999999999
 30
0.0
 11
2.156824
 21
4.016430999999999
 31
0.0
  0
LINE
  5
268
330
B
100
AcDbEntity
 67
     1
  8
1
  6
Continuous
 62
    18
100
AcDbLine
 10
2.202227999999999
 20
4.027064
 30
0.0
 11
2.205950999999999
 21
4.027116
 31
0.0
  0
LINE
  5
269
330
B
100
AcDbEntity
 67
     1
  8
1
  6
Continuous
 62
    18
100
AcDbLine
 10
4.963613999999999
 20
3.766755999999999
 30
0.0
 11
4.966603
 21
3.766755999999999
 31
0.0
  0
LINE
  5
26A
330
B
100
AcDbEntity
 67
     1
  8
1
  6
Continuous
 62
    18
100
AcDbLine
 10
2.196126
 20
4.017116999999999
 30
0.0
 11
2.145776999999999
 21
4.016237999999999
 31
0.0
  0
LINE
  5
26B
330
B
100
AcDbEntity
 67
     1
  8
1
  6
Continuous
 62
    18
100
AcDbLine
 10
5.024376999999999
 20
3.718055999999999
 30
0.0
 11
5.027305999999999
 21
3.710986
 31
0.0
  0
LINE
  5
26C
330
B
100
AcDbEntity
 67
     1
  8
1
  6
Continuous
 62
    18
100
AcDbLine
 10
2.251301999999999
 20
3.801337
 30
0.0
 11
2.261172
 21
3.803026
 31
0.0
  0
LINE
  5
26D
330
B
100
AcDbEntity
 67
     1
  8
1
  6
Continuous
 62
    18
100
AcDbLine
 10
2.39819
 20
4.167627999999999
 30
0.0
 11
2.405148
 21
4.167627999999999
 31
0.0
  0
LINE
  5
26E
330
B
100
AcDbEntity
 67
     1
  8
1
  6
Continuous
 62
    18
100
AcDbLine
 10
4.959868
 20
4.070108
 30
0.0
 11
4.958865
 21
4.070108
 31
0.0
  0
LINE
  5
26F
330
B
100
AcDbEntity
 67
     1
  8
1
  6
Continuous
 62
    18
100
AcDbLine
 10
4.963613999999999
 20
4.167627999999999
 30
0.0
 11
4.966603
 21
4.167627999999999
 31
0.0
  0
LINE
  5
270
330
B
100
AcDbEntity
 67
     1
  8
1
  6
Continuous
 62
    18
100
AcDbLine
 10
5.725178999999999
 20
4.317415
 30
0.0
 11
5.71835
 21
4.315933999999999
 31
0.0
  0
LINE
  5
271
330
B
100
AcDbEntity
 67
     1
  8
1
  6
Continuous
 62
    18
100
AcDbLine
 10
4.960443999999999
 20
4.115091
 30
0.0
 11
4.962545999999999
 21
4.125626
 31
0.0
  0
LINE
  5
272
330
B
100
AcDbEntity
 67
     1
  8
1
  6
Continuous
 62
    18
100
AcDbLine
 10
4.977967999999999
 20
3.674787
 30
0.0
 11
4.979025
 21
3.673601
 31
0.0
  0
LINE
  5
273
330
B
100
AcDbEntity
 67
     1
  8
1
  6
Continuous
 62
    18
100
AcDbLine
 10
2.175688
 20
4.026692999999999
 30
0.0
 11
2.191613999999999
 21
4.026915999999999
 31
0.0
  0
LINE
  5
274
330
B
100
AcDbEntity
 67
     1
  8
1
  6
Continuous
 62
    18
100
AcDbLine
 10
2.405218999999999
 20
3.755441
 30
0.0
 11
2.408015
 21
3.757102999999999
 31
0.0
  0
LINE
  5
275
330
B
100
AcDbEntity
 67
     1
  8
1
  6
Continuous
 62
    18
100
AcDbLine
 10
5.771372
 20
3.670273999999999
 30
0.0
 11
5.786935999999999
 21
3.733315
 31
0.0
  0
LINE
  5
276
330
B
100
AcDbEntity
 67
     1
  8
1
  6
Continuous
 62
    18
100
AcDbLine
 10
2.878483
 20
3.708057
 30
0.0
 11
2.492563
 21
3.70469
 31
0.0
  0
LINE
  5
277
330
B
100
AcDbEntity
 67
     1
  8
1
  6
Continuous
 62
    18
100
AcDbLine
 10
2.138818999999999
 20
4.063099
 30
0.0
 11
2.145776999999999
 21
4.060109999999999
 31
0.0
  0
LINE
  5
278
330
B
100
AcDbEntity
 67
     1
  8
1
  6
Continuous
 62
    18
100
AcDbLine
 10
4.962824999999999
 20
3.804107
 30
0.0
 11
4.962824999999999
 21
3.762804
 31
0.0
  0
LINE
  5
279
330
B
100
AcDbEntity
 67
     1
  8
1
  6
Continuous
 62
    18
100
AcDbLine
 10
2.266725999999999
 20
3.941589
 30
0.0
 11
2.279729
 21
3.948001
 31
0.0
  0
LINE
  5
27A
330
B
100
AcDbEntity
 67
     1
  8
1
  6
Continuous
 62
    18
100
AcDbLine
 10
5.786935999999999
 20
3.822876999999999
 30
0.0
 11
5.784648999999999
 21
3.82059
 31
0.0
  0
LINE
  5
27B
330
B
100
AcDbEntity
 67
     1
  8
1
  6
Continuous
 62
    18
100
AcDbLine
 10
2.085950999999999
 20
4.165853
 30
0.0
 11
2.216983
 21
4.16814
 31
0.0
  0
LINE
  5
27C
330
B
100
AcDbEntity
 67
     1
  8
1
  6
Continuous
 62
    18
100
AcDbLine
 10
5.613648999999999
 20
3.88728
 30
0.0
 11
5.620712
 21
3.890202999999999
 31
0.0
  0
LINE
  5
27D
330
B
100
AcDbEntity
 67
     1
  8
1
  6
Continuous
 62
    18
100
AcDbLine
 10
2.133084
 20
4.093856999999999
 30
0.0
 11
2.126125999999999
 21
4.093856999999999
 31
0.0
  0
LINE
  5
27E
330
B
100
AcDbEntity
 67
     1
  8
1
  6
Continuous
 62
    18
100
AcDbLine
 10
4.959208
 20
3.962494
 30
0.0
 11
4.958965
 21
3.968472
 31
0.0
  0
LINE
  5
27F
330
B
100
AcDbEntity
 67
     1
  8
1
  6
Continuous
 62
    18
100
AcDbLine
 10
2.025951
 20
3.694278999999999
 30
0.0
 11
2.025951
 21
3.732267999999999
 31
0.0
  0
LINE
  5
280
330
B
100
AcDbEntity
 67
     1
  8
1
  6
Continuous
 62
    18
100
AcDbLine
 10
1.941403
 20
5.683220999999999
 30
0.0
 11
1.941403
 21
6.38393
 31
0.0
  0
LINE
  5
281
330
B
100
AcDbEntity
 67
     1
  8
1
  6
Continuous
 62
    18
100
AcDbLine
 10
5.772212
 20
4.139666
 30
0.0
 11
5.771808
 21
4.139666
 31
0.0
  0
LINE
  5
282
330
B
100
AcDbEntity
 67
     1
  8
1
  6
Continuous
 62
    18
100
AcDbLine
 10
2.145849
 20
3.931551
 30
0.0
 11
2.145776999999999
 21
3.938619
 31
0.0
  0
LINE
  5
283
330
B
100
AcDbEntity
 67
     1
  8
1
  6
Continuous
 62
    18
100
AcDbLine
 10
5.727694999999999
 20
3.802227999999999
 30
0.0
 11
5.720404
 21
3.801973
 31
0.0
  0
LINE
  5
284
330
B
100
AcDbEntity
 67
     1
  8
1
  6
Continuous
 62
    18
100
AcDbLine
 10
5.54544
 20
3.984365
 30
0.0
 11
5.49544
 21
3.984365
 31
0.0
  0
LINE
  5
285
330
B
100
AcDbEntity
 67
     1
  8
1
  6
Continuous
 62
    18
100
AcDbLine
 10
2.380374999999999
 20
4.289455
 30
0.0
 11
2.361881
 21
4.295882999999999
 31
0.0
  0
LINE
  5
286
330
B
100
AcDbEntity
 67
     1
  8
1
  6
Continuous
 62
    18
100
AcDbLine
 10
5.790535
 20
3.840916999999999
 30
0.0
 11
5.792849999999999
 21
3.841362
 31
0.0
  0
LINE
  5
287
330
B
100
AcDbEntity
 67
     1
  8
1
  6
Continuous
 62
    18
100
AcDbLine
 10
2.217007
 20
5.636884999999999
 30
0.0
 11
2.216983
 21
5.638450999999999
 31
0.0
  0
LINE
  5
288
330
B
100
AcDbEntity
 67
     1
  8
1
  6
Continuous
 62
    18
100
AcDbLine
 10
2.145849
 20
3.969562999999999
 30
0.0
 11
2.145776999999999
 21
3.972491999999999
 31
0.0
  0
LINE
  5
289
330
B
100
AcDbEntity
 67
     1
  8
1
  6
Continuous
 62
    18
100
AcDbLine
 10
4.984786999999999
 20
3.678157
 30
0.0
 11
4.981978999999999
 21
3.672559999999999
 31
0.0
  0
LINE
  5
28A
330
B
100
AcDbEntity
 67
     1
  8
1
  6
Continuous
 62
    18
100
AcDbLine
 10
2.191613999999999
 20
3.939298
 30
0.0
 11
2.202227999999999
 21
3.939445999999999
 31
0.0
  0
LINE
  5
28B
330
B
100
AcDbEntity
 67
     1
  8
1
  6
Continuous
 62
    18
100
AcDbLine
 10
2.025951
 20
6.387501
 30
0.0
 11
2.025951
 21
6.42135
 31
0.0
  0
LINE
  5
28C
330
B
100
AcDbEntity
 67
     1
  8
1
  6
Continuous
 62
    18
100
AcDbLine
 10
5.619847
 20
4.071864999999999
 30
0.0
 11
5.623635
 21
4.071864999999999
 31
0.0
  0
LINE
  5
28D
330
B
100
AcDbEntity
 67
     1
  8
1
  6
Continuous
 62
    18
100
AcDbLine
 10
2.085950999999999
 20
3.822876999999999
 30
0.0
 11
1.879754
 21
3.840916999999999
 31
0.0
  0
LINE
  5
28E
330
B
100
AcDbEntity
 67
     1
  8
1
  6
Continuous
 62
    18
100
AcDbLine
 10
5.743533
 20
3.839741999999999
 30
0.0
 11
5.743533
 21
4.148988
 31
0.0
  0
LINE
  5
28F
330
B
100
AcDbEntity
 67
     1
  8
1
  6
Continuous
 62
    18
100
AcDbLine
 10
2.348047
 20
6.427844
 30
0.0
 11
2.348015
 21
6.443407999999999
 31
0.0
  0
LINE
  5
290
330
B
100
AcDbEntity
 67
     1
  8
1
  6
Continuous
 62
    18
100
AcDbLine
 10
2.135950999999999
 20
4.00624
 30
0.0
 11
2.135950999999999
 21
3.982491
 31
0.0
  0
LINE
  5
291
330
B
100
AcDbEntity
 67
     1
  8
1
  6
Continuous
 62
    18
100
AcDbLine
 10
2.216845
 20
3.675745999999999
 30
0.0
 11
2.21692
 21
3.674787
 31
0.0
  0
LINE
  5
292
330
B
100
AcDbEntity
 67
     1
  8
1
  6
Continuous
 62
    18
100
AcDbLine
 10
5.722691
 20
4.184389
 30
0.0
 11
5.725908
 21
4.16814
 31
0.0
  0
LINE
  5
293
330
B
100
AcDbEntity
 67
     1
  8
1
  6
Continuous
 62
    18
100
AcDbLine
 10
5.622283
 20
3.888631999999999
 30
0.0
 11
5.625183999999999
 21
3.895718
 31
0.0
  0
LINE
  5
294
330
B
100
AcDbEntity
 67
     1
  8
1
  6
Continuous
 62
    18
100
AcDbLine
 10
2.035776999999999
 20
6.437956999999999
 30
0.0
 11
2.035572
 21
6.436487
 31
0.0
  0
LINE
  5
295
330
B
100
AcDbEntity
 67
     1
  8
1
  6
Continuous
 62
    18
100
AcDbLine
 10
2.394878999999999
 20
4.28742
 30
0.0
 11
2.404615999999999
 21
4.271761999999999
 31
0.0
  0
LINE
  5
296
330
B
100
AcDbEntity
 67
     1
  8
1
  6
Continuous
 62
    18
100
AcDbLine
 10
2.126125999999999
 20
3.894873
 30
0.0
 11
2.126125999999999
 21
3.918622
 31
0.0
  0
LINE
  5
297
330
B
100
AcDbEntity
 67
     1
  8
1
  6
Continuous
 62
    18
100
AcDbLine
 10
5.756836999999999
 20
4.317683
 30
0.0
 11
5.766664999999999
 21
4.317937999999999
 31
0.0
  0
LINE
  5
298
330
B
100
AcDbEntity
 67
     1
  8
1
  6
Continuous
 62
    18
100
AcDbLine
 10
2.216983
 20
6.227465
 30
0.0
 11
2.106208
 21
6.237155999999999
 31
0.0
  0
LINE
  5
299
330
B
100
AcDbEntity
 67
     1
  8
1
  6
Continuous
 62
    18
100
AcDbLine
 10
5.728293999999999
 20
3.801337
 30
0.0
 11
5.728467
 21
3.803026
 31
0.0
  0
LINE
  5
29A
330
B
100
AcDbEntity
 67
     1
  8
1
  6
Continuous
 62
    18
100
AcDbLine
 10
5.129901999999999
 20
4.109205
 30
0.0
 11
5.129901999999999
 21
4.102998999999999
 31
0.0
  0
LINE
  5
29B
330
B
100
AcDbEntity
 67
     1
  8
1
  6
Continuous
 62
    18
100
AcDbLine
 10
2.290821999999999
 20
5.742404
 30
0.0
 11
2.293481
 21
5.742404
 31
0.0
  0
LINE
  5
29C
330
B
100
AcDbEntity
 67
     1
  8
1
  6
Continuous
 62
    18
100
AcDbLine
 10
2.08592
 20
5.630198
 30
0.0
 11
2.085950999999999
 21
5.614634999999999
 31
0.0
  0
LINE
  5
29D
330
B
100
AcDbEntity
 67
     1
  8
1
  6
Continuous
 62
    18
100
AcDbLine
 10
2.145776999999999
 20
4.050111
 30
0.0
 11
2.131861
 21
4.05609
 31
0.0
  0
LINE
  5
29E
330
B
100
AcDbEntity
 67
     1
  8
1
  6
Continuous
 62
    18
100
AcDbLine
 10
5.015153999999999
 20
3.804630999999999
 30
0.0
 11
5.01503
 21
3.804635999999999
 31
0.0
  0
LINE
  5
29F
330
B
100
AcDbEntity
 67
     1
  8
1
  6
Continuous
 62
    18
100
AcDbLine
 10
2.878483
 20
5.690847999999999
 30
0.0
 11
2.878483
 21
5.683777
 31
0.0
  0
LINE
  5
2A0
330
B
100
AcDbEntity
 67
     1
  8
1
  6
Continuous
 62
    18
100
AcDbLine
 10
4.978223
 20
3.685619
 30
0.0
 11
4.978932
 21
3.692846999999999
 31
0.0
  0
LINE
  5
2A1
330
B
100
AcDbEntity
 67
     1
  8
1
  6
Continuous
 62
    18
100
AcDbLine
 10
2.216983
 20
3.735601999999999
 30
0.0
 11
2.348450999999999
 21
3.747104
 31
0.0
  0
LINE
  5
2A2
330
B
100
AcDbEntity
 67
     1
  8
1
  6
Continuous
 62
    18
100
AcDbLine
 10
5.729974999999999
 20
4.184098
 30
0.0
 11
5.764555999999999
 21
4.182922
 31
0.0
  0
LINE
  5
2A3
330
B
100
AcDbEntity
 67
     1
  8
1
  6
Continuous
 62
    18
100
AcDbLine
 10
1.593792
 20
3.707723
 30
0.0
 11
1.608366
 21
3.708934999999999
 31
0.0
  0
LINE
  5
2A4
330
B
100
AcDbEntity
 67
     1
  8
1
  6
Continuous
 62
    18
100
AcDbLine
 10
5.708325
 20
3.70469
 30
0.0
 11
5.027641
 21
3.70469
 31
0.0
  0
LINE
  5
2A5
330
B
100
AcDbEntity
 67
     1
  8
1
  6
Continuous
 62
    18
100
AcDbLine
 10
2.377774
 20
6.423137
 30
0.0
 11
2.360764
 21
6.427176999999999
 31
0.0
  0
LINE
  5
2A6
330
B
100
AcDbEntity
 67
     1
  8
1
  6
Continuous
 62
    18
100
AcDbLine
 10
1.555482999999999
 20
6.367194
 30
0.0
 11
1.555482999999999
 21
6.374265
 31
0.0
  0
LINE
  5
2A7
330
B
100
AcDbEntity
 67
     1
  8
1
  6
Continuous
 62
    18
100
AcDbLine
 10
5.015109999999999
 20
3.747104
 30
0.0
 11
5.01503
 21
3.752084999999999
 31
0.0
  0
LINE
  5
2A8
330
B
100
AcDbEntity
 67
     1
  8
1
  6
Continuous
 62
    18
100
AcDbLine
 10
2.025951
 20
4.294451
 30
0.0
 11
2.026258
 21
4.317415
 31
0.0
  0
LINE
  5
2A9
330
B
100
AcDbEntity
 67
     1
  8
1
  6
Continuous
 62
    18
100
AcDbLine
 10
5.729989999999999
 20
3.747104
 30
0.0
 11
5.727694999999999
 21
3.735601999999999
 31
0.0
  0
LINE
  5
2AA
330
B
100
AcDbEntity
 67
     1
  8
1
  6
Continuous
 62
    18
100
AcDbLine
 10
2.087950999999999
 20
6.257080999999999
 30
0.0
 11
2.093206
 21
6.243567999999999
 31
0.0
  0
LINE
  5
2AB
330
B
100
AcDbEntity
 67
     1
  8
1
  6
Continuous
 62
    18
100
AcDbLine
 10
5.014069999999999
 20
4.167627999999999
 30
0.0
 11
5.014070999999999
 21
4.165811999999999
 31
0.0
  0
LINE
  5
2AC
330
B
100
AcDbEntity
 67
     1
  8
1
  6
Continuous
 62
    18
100
AcDbLine
 10
2.216983
 20
3.937237
 30
0.0
 11
2.266725999999999
 21
3.941589
 31
0.0
  0
LINE
  5
2AD
330
B
100
AcDbEntity
 67
     1
  8
1
  6
Continuous
 62
    18
100
AcDbLine
 10
1.788175
 20
3.848929
 30
0.0
 11
1.852958
 21
3.843262
 31
0.0
  0
LINE
  5
2AE
330
B
100
AcDbEntity
 67
     1
  8
1
  6
Continuous
 62
    18
100
AcDbLine
 10
2.216845
 20
4.312983999999999
 30
0.0
 11
2.21692
 21
4.313943
 31
0.0
  0
LINE
  5
2AF
330
B
100
AcDbEntity
 67
     1
  8
1
  6
Continuous
 62
    18
100
AcDbLine
 10
5.693991999999999
 20
3.725508
 30
0.0
 11
5.693991999999999
 21
4.263221999999999
 31
0.0
  0
LINE
  5
2B0
330
B
100
AcDbEntity
 67
     1
  8
1
  6
Continuous
 62
    18
100
AcDbLine
 10
2.143604999999999
 20
3.67128
 30
0.0
 11
2.085950999999999
 21
3.670273
 31
0.0
  0
LINE
  5
2B1
330
B
100
AcDbEntity
 67
     1
  8
1
  6
Continuous
 62
    18
100
AcDbLine
 10
2.346014999999999
 20
5.800962
 30
0.0
 11
2.340761
 21
5.814473999999999
 31
0.0
  0
LINE
  5
2B2
330
B
100
AcDbEntity
 67
     1
  8
1
  6
Continuous
 62
    18
100
AcDbLine
 10
5.664090999999999
 20
3.708057
 30
0.0
 11
5.680352
 21
3.707723
 31
0.0
  0
LINE
  5
2B3
330
B
100
AcDbEntity
 67
     1
  8
1
  6
Continuous
 62
    18
100
AcDbLine
 10
2.281728999999999
 20
4.042562
 30
0.0
 11
2.286983
 21
4.029049999999999
 31
0.0
  0
LINE
  5
2B4
330
B
100
AcDbEntity
 67
     1
  8
1
  6
Continuous
 62
    18
100
AcDbLine
 10
5.728221999999999
 20
4.191088999999999
 30
0.0
 11
5.769988999999999
 21
4.187869
 31
0.0
  0
LINE
  5
2B5
330
B
100
AcDbEntity
 67
     1
  8
1
  6
Continuous
 62
    18
100
AcDbLine
 10
4.977508999999999
 20
4.312983999999999
 30
0.0
 11
4.977967999999999
 21
4.313943
 31
0.0
  0
LINE
  5
2B6
330
B
100
AcDbEntity
 67
     1
  8
1
  6
Continuous
 62
    18
100
AcDbLine
 10
2.025951
 20
5.667038999999999
 30
0.0
 11
2.025951
 21
5.676416999999999
 31
0.0
  0
LINE
  5
2B7
330
B
100
AcDbEntity
 67
     1
  8
1
  6
Continuous
 62
    18
100
AcDbLine
 10
4.963613999999999
 20
4.221973999999999
 30
0.0
 11
4.965085
 21
4.234022
 31
0.0
  0
LINE
  5
2B8
330
B
100
AcDbEntity
 67
     1
  8
1
  6
Continuous
 62
    18
100
AcDbLine
 10
5.645156
 20
4.093013
 30
0.0
 11
5.645156
 21
3.895718
 31
0.0
  0
LINE
  5
2B9
330
B
100
AcDbEntity
 67
     1
  8
1
  6
Continuous
 62
    18
100
AcDbLine
 10
2.352933
 20
4.183707
 30
0.0
 11
2.349915
 21
4.183969
 31
0.0
  0
LINE
  5
2BA
330
B
100
AcDbEntity
 67
     1
  8
1
  6
Continuous
 62
    18
100
AcDbLine
 10
5.726053
 20
4.164341
 30
0.0
 11
5.729352999999999
 21
4.163762
 31
0.0
  0
LINE
  5
2BB
330
B
100
AcDbEntity
 67
     1
  8
1
  6
Continuous
 62
    18
100
AcDbLine
 10
2.159329
 20
4.317175999999999
 30
0.0
 11
2.216983
 21
4.316169999999999
 31
0.0
  0
LINE
  5
2BC
330
B
100
AcDbEntity
 67
     1
  8
1
  6
Continuous
 62
    18
100
AcDbLine
 10
2.350114
 20
3.751554
 30
0.0
 11
2.348291
 21
3.751584999999999
 31
0.0
  0
LINE
  5
2BD
330
B
100
AcDbEntity
 67
     1
  8
1
  6
Continuous
 62
    18
100
AcDbLine
 10
4.983693999999999
 20
4.271761999999999
 30
0.0
 11
4.980221
 21
4.253639999999999
 31
0.0
  0
LINE
  5
2BE
330
B
100
AcDbEntity
 67
     1
  8
1
  6
Continuous
 62
    18
100
AcDbLine
 10
2.405218999999999
 20
5.629958999999999
 30
0.0
 11
2.408015
 21
5.636692
 31
0.0
  0
LINE
  5
2BF
330
B
100
AcDbEntity
 67
     1
  8
1
  6
Continuous
 62
    18
100
AcDbLine
 10
2.156824
 20
4.016430999999999
 30
0.0
 11
2.145776999999999
 21
4.016237999999999
 31
0.0
  0
LINE
  5
2C0
330
B
100
AcDbEntity
 67
     1
  8
1
  6
Continuous
 62
    18
100
AcDbLine
 10
4.966603
 20
3.766755999999999
 30
0.0
 11
4.973612
 21
3.766755999999999
 31
0.0
  0
LINE
  5
2C1
330
B
100
AcDbEntity
 67
     1
  8
1
  6
Continuous
 62
    18
100
AcDbLine
 10
5.027305999999999
 20
3.710986
 30
0.0
 11
5.034377
 21
3.708057
 31
0.0
  0
LINE
  5
2C2
330
B
100
AcDbEntity
 67
     1
  8
1
  6
Continuous
 62
    18
100
AcDbLine
 10
2.260914
 20
3.803021999999999
 30
0.0
 11
2.216983
 21
3.802227999999999
 31
0.0
  0
LINE
  5
2C3
330
B
100
AcDbEntity
 67
     1
  8
1
  6
Continuous
 62
    18
100
AcDbLine
 10
4.978096999999999
 20
4.305350999999999
 30
0.0
 11
4.977388999999999
 21
4.312583999999999
 31
0.0
  0
LINE
  5
2C4
330
B
100
AcDbEntity
 67
     1
  8
1
  6
Continuous
 62
    18
100
AcDbLine
 10
4.962545999999999
 20
4.057566
 30
0.0
 11
4.960080999999999
 21
4.054194999999999
 31
0.0
  0
LINE
  5
2C5
330
B
100
AcDbEntity
 67
     1
  8
1
  6
Continuous
 62
    18
100
AcDbLine
 10
2.159231
 20
3.673562
 30
0.0
 11
2.216808
 21
3.676145999999999
 31
0.0
  0
LINE
  5
2C6
330
B
100
AcDbEntity
 67
     1
  8
1
  6
Continuous
 62
    18
100
AcDbLine
 10
4.966603
 20
4.167627999999999
 30
0.0
 11
4.973612
 21
4.167627999999999
 31
0.0
  0
LINE
  5
2C7
330
B
100
AcDbEntity
 67
     1
  8
1
  6
Continuous
 62
    18
100
AcDbLine
 10
5.71835
 20
4.274047
 30
0.0
 11
5.71835
 21
4.315933999999999
 31
0.0
  0
LINE
  5
2C8
330
B
100
AcDbEntity
 67
     1
  8
1
  6
Continuous
 62
    18
100
AcDbLine
 10
4.963611
 20
4.164049999999999
 30
0.0
 11
4.963613999999999
 21
4.167627999999999
 31
0.0
  0
LINE
  5
2C9
330
B
100
AcDbEntity
 67
     1
  8
1
  6
Continuous
 62
    18
100
AcDbLine
 10
5.725178999999999
 20
3.671315
 30
0.0
 11
5.71835
 21
3.672795999999999
 31
0.0
  0
LINE
  5
2CA
330
B
100
AcDbEntity
 67
     1
  8
1
  6
Continuous
 62
    18
100
AcDbLine
 10
2.22194
 20
4.053067999999999
 30
0.0
 11
2.22194
 21
4.051060999999999
 31
0.0
  0
LINE
  5
2CB
330
B
100
AcDbEntity
 67
     1
  8
1
  6
Continuous
 62
    18
100
AcDbLine
 10
2.145776999999999
 20
4.016237999999999
 30
0.0
 11
2.138818999999999
 21
4.013249
 31
0.0
  0
LINE
  5
2CC
330
B
100
AcDbEntity
 67
     1
  8
1
  6
Continuous
 62
    18
100
AcDbLine
 10
2.196126
 20
4.017116999999999
 30
0.0
 11
2.190881999999999
 21
4.017025
 31
0.0
  0
LINE
  5
2CD
330
B
100
AcDbEntity
 67
     1
  8
1
  6
Continuous
 62
    18
100
AcDbLine
 10
4.962824999999999
 20
3.762804
 30
0.0
 11
4.963613999999999
 21
3.766755999999999
 31
0.0
  0
LINE
  5
2CE
330
B
100
AcDbEntity
 67
     1
  8
1
  6
Continuous
 62
    18
100
AcDbLine
 10
5.775824
 20
4.139801
 30
0.0
 11
5.837844999999999
 21
4.145469
 31
0.0
  0
LINE
  5
2CF
330
B
100
AcDbEntity
 67
     1
  8
1
  6
Continuous
 62
    18
100
AcDbLine
 10
5.728458999999999
 20
4.235616999999999
 30
0.0
 11
5.764726999999999
 21
4.237144999999999
 31
0.0
  0
LINE
  5
2D0
330
B
100
AcDbEntity
 67
     1
  8
1
  6
Continuous
 62
    18
100
AcDbLine
 10
5.620712
 20
3.890202999999999
 30
0.0
 11
5.623635
 21
3.897266
 31
0.0
  0
LINE
  5
2D1
330
B
100
AcDbEntity
 67
     1
  8
1
  6
Continuous
 62
    18
100
AcDbLine
 10
2.135950999999999
 20
4.070108
 30
0.0
 11
2.133084
 21
4.070108
 31
0.0
  0
LINE
  5
2D2
330
B
100
AcDbEntity
 67
     1
  8
1
  6
Continuous
 62
    18
100
AcDbLine
 10
4.958965
 20
3.968472
 30
0.0
 11
4.958865
 21
3.982491
 31
0.0
  0
LINE
  5
2D3
330
B
100
AcDbEntity
 67
     1
  8
1
  6
Continuous
 62
    18
100
AcDbLine
 10
5.772212
 20
4.139666
 30
0.0
 11
5.775824
 21
4.139801
 31
0.0
  0
LINE
  5
2D4
330
B
100
AcDbEntity
 67
     1
  8
1
  6
Continuous
 62
    18
100
AcDbLine
 10
2.135950999999999
 20
3.918622
 30
0.0
 11
2.133084
 21
3.918622
 31
0.0
  0
LINE
  5
2D5
330
B
100
AcDbEntity
 67
     1
  8
1
  6
Continuous
 62
    18
100
AcDbLine
 10
5.720404
 20
3.801973
 30
0.0
 11
5.720404
 21
3.820591
 31
0.0
  0
LINE
  5
2D6
330
B
100
AcDbEntity
 67
     1
  8
1
  6
Continuous
 62
    18
100
AcDbLine
 10
5.54544
 20
3.994365
 30
0.0
 11
5.54544
 21
3.984365
 31
0.0
  0
LINE
  5
2D7
330
B
100
AcDbEntity
 67
     1
  8
1
  6
Continuous
 62
    18
100
AcDbLine
 10
2.145776999999999
 20
4.113853999999999
 30
0.0
 11
2.216633999999999
 21
4.115091
 31
0.0
  0
LINE
  5
2D8
330
B
100
AcDbEntity
 67
     1
  8
1
  6
Continuous
 62
    18
100
AcDbLine
 10
5.792849999999999
 20
3.841362
 30
0.0
 11
5.798144
 21
3.841516999999999
 31
0.0
  0
LINE
  5
2D9
330
B
100
AcDbEntity
 67
     1
  8
1
  6
Continuous
 62
    18
100
AcDbLine
 10
2.216983
 20
6.227465
 30
0.0
 11
2.216983
 21
5.832573
 31
0.0
  0
LINE
  5
2DA
330
B
100
AcDbEntity
 67
     1
  8
1
  6
Continuous
 62
    18
100
AcDbLine
 10
2.353015
 20
4.236644999999999
 30
0.0
 11
2.352825999999999
 21
4.238008999999999
 31
0.0
  0
LINE
  5
2DB
330
B
100
AcDbEntity
 67
     1
  8
1
  6
Continuous
 62
    18
100
AcDbLine
 10
2.126125999999999
 20
3.982491
 30
0.0
 11
2.133084
 21
3.982491
 31
0.0
  0
LINE
  5
2DC
330
B
100
AcDbEntity
 67
     1
  8
1
  6
Continuous
 62
    18
100
AcDbLine
 10
5.015118
 20
3.684023999999999
 30
0.0
 11
5.014866999999999
 21
3.68528
 31
0.0
  0
LINE
  5
2DD
330
B
100
AcDbEntity
 67
     1
  8
1
  6
Continuous
 62
    18
100
AcDbLine
 10
5.730069999999999
 20
4.236644999999999
 30
0.0
 11
5.729989999999999
 21
4.241626
 31
0.0
  0
LINE
  5
2DE
330
B
100
AcDbEntity
 67
     1
  8
1
  6
Continuous
 62
    18
100
AcDbLine
 10
2.062051999999999
 20
4.163762
 30
0.0
 11
1.893184999999999
 21
4.148988
 31
0.0
  0
LINE
  5
2DF
330
B
100
AcDbEntity
 67
     1
  8
1
  6
Continuous
 62
    18
100
AcDbLine
 10
2.085950999999999
 20
3.822876999999999
 30
0.0
 11
2.216983
 21
3.82059
 31
0.0
  0
LINE
  5
2E0
330
B
100
AcDbEntity
 67
     1
  8
1
  6
Continuous
 62
    18
100
AcDbLine
 10
5.772212
 20
3.849063999999999
 30
0.0
 11
5.772212
 21
4.139666
 31
0.0
  0
LINE
  5
2E1
330
B
100
AcDbEntity
 67
     1
  8
1
  6
Continuous
 62
    18
100
AcDbLine
 10
2.348015
 20
6.443407999999999
 30
0.0
 11
2.216983
 21
6.438855
 31
0.0
  0
LINE
  5
2E2
330
B
100
AcDbEntity
 67
     1
  8
1
  6
Continuous
 62
    18
100
AcDbLine
 10
2.21692
 20
3.674787
 30
0.0
 11
2.216988
 21
3.673601
 31
0.0
  0
LINE
  5
2E3
330
B
100
AcDbEntity
 67
     1
  8
1
  6
Continuous
 62
    18
100
AcDbLine
 10
5.728221999999999
 20
4.230412999999999
 30
0.0
 11
5.728221999999999
 21
4.191088999999999
 31
0.0
  0
LINE
  5
2E4
330
B
100
AcDbEntity
 67
     1
  8
1
  6
Continuous
 62
    18
100
AcDbLine
 10
2.404615999999999
 20
4.149505999999999
 30
0.0
 11
2.394878999999999
 21
4.133848999999999
 31
0.0
  0
LINE
  5
2E5
330
B
100
AcDbEntity
 67
     1
  8
1
  6
Continuous
 62
    18
100
AcDbLine
 10
2.404615999999999
 20
4.271761999999999
 30
0.0
 11
2.408015
 21
4.253639999999999
 31
0.0
  0
LINE
  5
2E6
330
B
100
AcDbEntity
 67
     1
  8
1
  6
Continuous
 62
    18
100
AcDbLine
 10
2.126125999999999
 20
3.918622
 30
0.0
 11
2.131861
 21
3.932641
 31
0.0
  0
LINE
  5
2E7
330
B
100
AcDbEntity
 67
     1
  8
1
  6
Continuous
 62
    18
100
AcDbLine
 10
5.782275
 20
3.804107
 30
0.0
 11
5.768709999999999
 21
3.804107
 31
0.0
  0
LINE
  5
2E8
330
B
100
AcDbEntity
 67
     1
  8
1
  6
Continuous
 62
    18
100
AcDbLine
 10
4.959868
 20
3.918622
 30
0.0
 11
4.958865
 21
3.918622
 31
0.0
  0
LINE
  5
2E9
330
B
100
AcDbEntity
 67
     1
  8
1
  6
Continuous
 62
    18
100
AcDbLine
 10
4.974785999999999
 20
4.231626999999999
 30
0.0
 11
4.973612
 21
4.221973999999999
 31
0.0
  0
LINE
  5
2EA
330
B
100
AcDbEntity
 67
     1
  8
1
  6
Continuous
 62
    18
100
AcDbLine
 10
5.766664999999999
 20
4.317937999999999
 30
0.0
 11
5.770705999999999
 21
4.318233999999999
 31
0.0
  0
LINE
  5
2EB
330
B
100
AcDbEntity
 67
     1
  8
1
  6
Continuous
 62
    18
100
AcDbLine
 10
2.216983
 20
6.419591
 30
0.0
 11
2.135566999999999
 21
6.415741999999999
 31
0.0
  0
LINE
  5
2EC
330
B
100
AcDbEntity
 67
     1
  8
1
  6
Continuous
 62
    18
100
AcDbLine
 10
5.728467
 20
3.803026
 30
0.0
 11
5.727694999999999
 21
3.802227999999999
 31
0.0
  0
LINE
  5
2ED
330
B
100
AcDbEntity
 67
     1
  8
1
  6
Continuous
 62
    18
100
AcDbLine
 10
5.625183999999999
 20
3.895718
 30
0.0
 11
5.631388999999999
 21
3.895718
 31
0.0
  0
LINE
  5
2EE
330
B
100
AcDbEntity
 67
     1
  8
1
  6
Continuous
 62
    18
100
AcDbLine
 10
2.171982999999999
 20
6.231400999999999
 30
0.0
 11
2.171982999999999
 21
6.229403999999999
 31
0.0
  0
LINE
  5
2EF
330
B
100
AcDbEntity
 67
     1
  8
1
  6
Continuous
 62
    18
100
AcDbLine
 10
2.085950999999999
 20
5.614634999999999
 30
0.0
 11
2.216983
 21
5.619187999999999
 31
0.0
  0
LINE
  5
2F0
330
B
100
AcDbEntity
 67
     1
  8
1
  6
Continuous
 62
    18
100
AcDbLine
 10
2.131861
 20
4.05609
 30
0.0
 11
2.126125999999999
 21
4.070108
 31
0.0
  0
LINE
  5
2F1
330
B
100
AcDbEntity
 67
     1
  8
1
  6
Continuous
 62
    18
100
AcDbLine
 10
5.121463999999999
 20
4.091465
 30
0.0
 11
5.119915999999999
 21
4.093013
 31
0.0
  0
LINE
  5
2F2
330
B
100
AcDbEntity
 67
     1
  8
1
  6
Continuous
 62
    18
100
AcDbLine
 10
2.878483
 20
5.683777
 30
0.0
 11
2.878483
 21
5.680848
 31
0.0
  0
LINE
  5
2F3
330
B
100
AcDbEntity
 67
     1
  8
1
  6
Continuous
 62
    18
100
AcDbLine
 10
4.904182999999999
 20
4.147541
 30
0.0
 11
4.946954999999999
 21
4.147213999999999
 31
0.0
  0
LINE
  5
2F4
330
B
100
AcDbEntity
 67
     1
  8
1
  6
Continuous
 62
    18
100
AcDbLine
 10
2.216983
 20
5.638450999999999
 30
0.0
 11
2.298399
 21
5.642299999999999
 31
0.0
  0
LINE
  5
2F5
330
B
100
AcDbEntity
 67
     1
  8
1
  6
Continuous
 62
    18
100
AcDbLine
 10
2.057266999999999
 20
3.823377999999999
 30
0.0
 11
2.057266999999999
 21
3.732813999999999
 31
0.0
  0
LINE
  5
2F6
330
B
100
AcDbEntity
 67
     1
  8
1
  6
Continuous
 62
    18
100
AcDbLine
 10
2.408015
 20
6.388855
 30
0.0
 11
2.540780999999999
 21
6.400004
 31
0.0
  0
LINE
  5
2F7
330
B
100
AcDbEntity
 67
     1
  8
1
  6
Continuous
 62
    18
100
AcDbLine
 10
5.015153999999999
 20
4.184098999999999
 30
0.0
 11
5.015153999999999
 21
4.237176999999999
 31
0.0
  0
LINE
  5
2F8
330
B
100
AcDbEntity
 67
     1
  8
1
  6
Continuous
 62
    18
100
AcDbLine
 10
5.764555999999999
 20
4.182922
 30
0.0
 11
5.728467
 21
4.185704
 31
0.0
  0
LINE
  5
2F9
330
B
100
AcDbEntity
 67
     1
  8
1
  6
Continuous
 62
    18
100
AcDbLine
 10
2.216983
 20
5.673875999999999
 30
0.0
 11
2.216983
 21
5.731183999999999
 31
0.0
  0
LINE
  5
2FA
330
B
100
AcDbEntity
 67
     1
  8
1
  6
Continuous
 62
    18
100
AcDbLine
 10
2.216983
 20
4.253128
 30
0.0
 11
2.348450999999999
 21
4.241626
 31
0.0
  0
LINE
  5
2FB
330
B
100
AcDbEntity
 67
     1
  8
1
  6
Continuous
 62
    18
100
AcDbLine
 10
1.608366
 20
3.708934999999999
 30
0.0
 11
1.619031999999999
 21
3.712498999999999
 31
0.0
  0
LINE
  5
2FC
330
B
100
AcDbEntity
 67
     1
  8
1
  6
Continuous
 62
    18
100
AcDbLine
 10
5.027641
 20
3.70469
 30
0.0
 11
5.020569
 21
3.707618
 31
0.0
  0
LINE
  5
2FD
330
B
100
AcDbEntity
 67
     1
  8
1
  6
Continuous
 62
    18
100
AcDbLine
 10
2.398393999999999
 20
4.256035999999999
 30
0.0
 11
2.393602
 21
4.275019999999999
 31
0.0
  0
LINE
  5
2FE
330
B
100
AcDbEntity
 67
     1
  8
1
  6
Continuous
 62
    18
100
AcDbLine
 10
2.348047
 20
6.427844
 30
0.0
 11
2.360764
 21
6.427176999999999
 31
0.0
  0
LINE
  5
2FF
330
B
100
AcDbEntity
 67
     1
  8
1
  6
Continuous
 62
    18
100
AcDbLine
 10
5.01503
 20
3.804107
 30
0.0
 11
5.01503
 21
3.752084999999999
 31
0.0
  0
LINE
  5
300
330
B
100
AcDbEntity
 67
     1
  8
1
  6
Continuous
 62
    18
100
AcDbLine
 10
2.026258
 20
4.317415
 30
0.0
 11
1.941403
 21
4.315933999999999
 31
0.0
  0
LINE
  5
301
330
B
100
AcDbEntity
 67
     1
  8
1
  6
Continuous
 62
    18
100
AcDbLine
 10
5.727694999999999
 20
3.735601999999999
 30
0.0
 11
5.782383
 21
3.735601999999999
 31
0.0
  0
LINE
  5
302
330
B
100
AcDbEntity
 67
     1
  8
1
  6
Continuous
 62
    18
100
AcDbLine
 10
2.203084
 20
3.932488999999999
 30
0.0
 11
2.196126
 21
3.929499999999999
 31
0.0
  0
LINE
  5
303
330
B
100
AcDbEntity
 67
     1
  8
1
  6
Continuous
 62
    18
100
AcDbLine
 10
5.015109999999999
 20
4.179641999999999
 30
0.0
 11
5.01503
 21
4.184623
 31
0.0
  0
LINE
  5
304
330
B
100
AcDbEntity
 67
     1
  8
1
  6
Continuous
 62
    18
100
AcDbLine
 10
1.788175
 20
3.848929
 30
0.0
 11
1.786633
 21
3.849063999999999
 31
0.0
  0
LINE
  5
305
330
B
100
AcDbEntity
 67
     1
  8
1
  6
Continuous
 62
    18
100
AcDbLine
 10
5.693991999999999
 20
3.725508
 30
0.0
 11
5.701298
 21
3.732813999999999
 31
0.0
  0
LINE
  5
306
330
B
100
AcDbEntity
 67
     1
  8
1
  6
Continuous
 62
    18
100
AcDbLine
 10
2.348288999999999
 20
3.805812
 30
0.0
 11
2.260657
 21
3.803014
 31
0.0
  0
LINE
  5
307
330
B
100
AcDbEntity
 67
     1
  8
1
  6
Continuous
 62
    18
100
AcDbLine
 10
5.595032999999999
 20
4.096365
 30
0.0
 11
5.595032999999999
 21
4.097674999999999
 31
0.0
  0
LINE
  5
308
330
B
100
AcDbEntity
 67
     1
  8
1
  6
Continuous
 62
    18
100
AcDbLine
 10
2.031193999999999
 20
3.671229
 30
0.0
 11
2.026258
 21
3.671315
 31
0.0
  0
LINE
  5
309
330
B
100
AcDbEntity
 67
     1
  8
1
  6
Continuous
 62
    18
100
AcDbLine
 10
2.191613999999999
 20
4.049432
 30
0.0
 11
2.175688
 21
4.049654
 31
0.0
  0
LINE
  5
30A
330
B
100
AcDbEntity
 67
     1
  8
1
  6
Continuous
 62
    18
100
AcDbLine
 10
2.340761
 20
5.814473999999999
 30
0.0
 11
2.327758
 21
5.820885999999999
 31
0.0
  0
LINE
  5
30B
330
B
100
AcDbEntity
 67
     1
  8
1
  6
Continuous
 62
    18
100
AcDbLine
 10
5.680352
 20
3.707723
 30
0.0
 11
5.686537999999999
 21
3.708934999999999
 31
0.0
  0
LINE
  5
30C
330
B
100
AcDbEntity
 67
     1
  8
1
  6
Continuous
 62
    18
100
AcDbLine
 10
2.286983
 20
4.029049999999999
 30
0.0
 11
2.286983
 21
3.95968
 31
0.0
  0
LINE
  5
30D
330
B
100
AcDbEntity
 67
     1
  8
1
  6
Continuous
 62
    18
100
AcDbLine
 10
5.769988999999999
 20
4.232173
 30
0.0
 11
5.728221999999999
 21
4.230412999999999
 31
0.0
  0
LINE
  5
30E
330
B
100
AcDbEntity
 67
     1
  8
1
  6
Continuous
 62
    18
100
AcDbLine
 10
2.056191999999999
 20
4.317937999999999
 30
0.0
 11
2.073202
 21
4.318233999999999
 31
0.0
  0
LINE
  5
30F
330
B
100
AcDbEntity
 67
     1
  8
1
  6
Continuous
 62
    18
100
AcDbLine
 10
2.073202
 20
5.630865
 30
0.0
 11
2.073202
 21
5.615412999999999
 31
0.0
  0
LINE
  5
310
330
B
100
AcDbEntity
 67
     1
  8
1
  6
Continuous
 62
    18
100
AcDbLine
 10
4.965085
 20
3.754708
 30
0.0
 11
4.963613999999999
 21
3.766755999999999
 31
0.0
  0
LINE
  5
311
330
B
100
AcDbEntity
 67
     1
  8
1
  6
Continuous
 62
    18
100
AcDbLine
 10
5.645156
 20
3.895718
 30
0.0
 11
5.641144999999999
 21
3.880732
 31
0.0
  0
LINE
  5
312
330
B
100
AcDbEntity
 67
     1
  8
1
  6
Continuous
 62
    18
100
AcDbLine
 10
2.247183
 20
4.230412999999999
 30
0.0
 11
2.247183
 21
4.191088999999999
 31
0.0
  0
LINE
  5
313
330
B
100
AcDbEntity
 67
     1
  8
1
  6
Continuous
 62
    18
100
AcDbLine
 10
4.980413999999999
 20
3.67283
 30
0.0
 11
4.981978999999999
 21
3.672559999999999
 31
0.0
  0
LINE
  5
314
330
B
100
AcDbEntity
 67
     1
  8
1
  6
Continuous
 62
    18
100
AcDbLine
 10
2.348291
 20
3.751584999999999
 30
0.0
 11
2.260731999999999
 21
3.753114
 31
0.0
  0
LINE
  5
315
330
B
100
AcDbEntity
 67
     1
  8
1
  6
Continuous
 62
    18
100
AcDbLine
 10
4.973612
 20
4.167627999999999
 30
0.0
 11
4.973611
 21
4.164398999999999
 31
0.0
  0
LINE
  5
316
330
B
100
AcDbEntity
 67
     1
  8
1
  6
Continuous
 62
    18
100
AcDbLine
 10
2.361881
 20
5.635403
 30
0.0
 11
2.362295
 21
5.638949
 31
0.0
  0
LINE
  5
317
330
B
100
AcDbEntity
 67
     1
  8
1
  6
Continuous
 62
    18
100
AcDbLine
 10
2.085950999999999
 20
3.670273
 30
0.0
 11
2.159231
 21
3.673562
 31
0.0
  0
LINE
  5
318
330
B
100
AcDbEntity
 67
     1
  8
1
  6
Continuous
 62
    18
100
AcDbLine
 10
2.398393999999999
 20
3.732694999999999
 30
0.0
 11
2.398393999999999
 21
3.754708
 31
0.0
  0
LINE
  5
319
330
B
100
AcDbEntity
 67
     1
  8
1
  6
Continuous
 62
    18
100
AcDbLine
 10
5.034377
 20
3.708057
 30
0.0
 11
5.664090999999999
 21
3.708057
 31
0.0
  0
LINE
  5
31A
330
B
100
AcDbEntity
 67
     1
  8
1
  6
Continuous
 62
    18
100
AcDbLine
 10
2.348015
 20
3.670273
 30
0.0
 11
2.216983
 21
3.672559999999999
 31
0.0
  0
LINE
  5
31B
330
B
100
AcDbEntity
 67
     1
  8
1
  6
Continuous
 62
    18
100
AcDbLine
 10
2.39819
 20
4.221973999999999
 30
0.0
 11
2.405148
 21
4.221973999999999
 31
0.0
  0
LINE
  5
31C
330
B
100
AcDbEntity
 67
     1
  8
1
  6
Continuous
 62
    18
100
AcDbLine
 10
4.960080999999999
 20
4.054194999999999
 30
0.0
 11
4.959208
 21
4.050111
 31
0.0
  0
LINE
  5
31D
330
B
100
AcDbEntity
 67
     1
  8
1
  6
Continuous
 62
    18
100
AcDbLine
 10
4.963613999999999
 20
4.221973999999999
 30
0.0
 11
4.966603
 21
4.221973999999999
 31
0.0
  0
LINE
  5
31E
330
B
100
AcDbEntity
 67
     1
  8
1
  6
Continuous
 62
    18
100
AcDbLine
 10
5.71835
 20
4.274047
 30
0.0
 11
5.692722999999999
 21
4.271268
 31
0.0
  0
LINE
  5
31F
330
B
100
AcDbEntity
 67
     1
  8
1
  6
Continuous
 62
    18
100
AcDbLine
 10
4.963613999999999
 20
4.167627999999999
 30
0.0
 11
4.963613999999999
 21
4.221973999999999
 31
0.0
  0
LINE
  5
320
330
B
100
AcDbEntity
 67
     1
  8
1
  6
Continuous
 62
    18
100
AcDbLine
 10
1.788175
 20
4.139801
 30
0.0
 11
1.852958
 21
4.145469
 31
0.0
  0
LINE
  5
321
330
B
100
AcDbEntity
 67
     1
  8
1
  6
Continuous
 62
    18
100
AcDbLine
 10
5.024376999999999
 20
4.270673999999999
 30
0.0
 11
5.017641
 21
4.274041999999999
 31
0.0
  0
LINE
  5
322
330
B
100
AcDbEntity
 67
     1
  8
1
  6
Continuous
 62
    18
100
AcDbLine
 10
2.138818999999999
 20
4.013249
 30
0.0
 11
2.135950999999999
 21
4.00624
 31
0.0
  0
LINE
  5
323
330
B
100
AcDbEntity
 67
     1
  8
1
  6
Continuous
 62
    18
100
AcDbLine
 10
4.963613999999999
 20
3.766755999999999
 30
0.0
 11
4.963613999999999
 21
3.821101999999999
 31
0.0
  0
LINE
  5
324
330
B
100
AcDbEntity
 67
     1
  8
1
  6
Continuous
 62
    18
100
AcDbLine
 10
4.959208
 20
3.874876
 30
0.0
 11
4.960080999999999
 21
3.878959999999999
 31
0.0
  0
LINE
  5
325
330
B
100
AcDbEntity
 67
     1
  8
1
  6
Continuous
 62
    18
100
AcDbLine
 10
5.729981999999999
 20
4.237176999999999
 30
0.0
 11
5.764726999999999
 21
4.237144999999999
 31
0.0
  0
LINE
  5
326
330
B
100
AcDbEntity
 67
     1
  8
1
  6
Continuous
 62
    18
100
AcDbLine
 10
5.729989999999999
 20
3.747104
 30
0.0
 11
5.730069999999999
 21
3.752084999999999
 31
0.0
  0
LINE
  5
327
330
B
100
AcDbEntity
 67
     1
  8
1
  6
Continuous
 62
    18
100
AcDbLine
 10
2.133084
 20
4.070108
 30
0.0
 11
2.126125999999999
 21
4.070108
 31
0.0
  0
LINE
  5
328
330
B
100
AcDbEntity
 67
     1
  8
1
  6
Continuous
 62
    18
100
AcDbLine
 10
4.958865
 20
3.982491
 30
0.0
 11
4.958865
 21
4.00624
 31
0.0
  0
LINE
  5
329
330
B
100
AcDbEntity
 67
     1
  8
1
  6
Continuous
 62
    18
100
AcDbLine
 10
2.492563
 20
3.714687999999999
 30
0.0
 11
2.878483
 21
3.718055999999999
 31
0.0
  0
LINE
  5
32A
330
B
100
AcDbEntity
 67
     1
  8
1
  6
Continuous
 62
    18
100
AcDbLine
 10
2.196126
 20
3.929499999999999
 30
0.0
 11
2.190881999999999
 21
3.929408
 31
0.0
  0
LINE
  5
32B
330
B
100
AcDbEntity
 67
     1
  8
1
  6
Continuous
 62
    18
100
AcDbLine
 10
5.840620999999999
 20
3.842672
 30
0.0
 11
5.840915999999999
 21
3.841188999999999
 31
0.0
  0
LINE
  5
32C
330
B
100
AcDbEntity
 67
     1
  8
1
  6
Continuous
 62
    18
100
AcDbLine
 10
2.133084
 20
3.918622
 30
0.0
 11
2.126125999999999
 21
3.918622
 31
0.0
  0
LINE
  5
32D
330
B
100
AcDbEntity
 67
     1
  8
1
  6
Continuous
 62
    18
100
AcDbLine
 10
5.720404
 20
4.168139
 30
0.0
 11
5.720404
 21
4.186758
 31
0.0
  0
LINE
  5
32E
330
B
100
AcDbEntity
 67
     1
  8
1
  6
Continuous
 62
    18
100
AcDbLine
 10
5.49544
 20
3.984365
 30
0.0
 11
5.49544
 21
3.994365
 31
0.0
  0
LINE
  5
32F
330
B
100
AcDbEntity
 67
     1
  8
1
  6
Continuous
 62
    18
100
AcDbLine
 10
2.283185
 20
5.734952999999999
 30
0.0
 11
2.271640999999999
 21
5.731162
 31
0.0
  0
LINE
  5
330
330
B
100
AcDbEntity
 67
     1
  8
1
  6
Continuous
 62
    18
100
AcDbLine
 10
2.216633999999999
 20
4.115091
 30
0.0
 11
2.361675999999999
 21
4.12778
 31
0.0
  0
LINE
  5
331
330
B
100
AcDbEntity
 67
     1
  8
1
  6
Continuous
 62
    18
100
AcDbLine
 10
1.876645
 20
4.147541
 30
0.0
 11
1.872902999999999
 21
4.147213999999999
 31
0.0
  0
LINE
  5
332
330
B
100
AcDbEntity
 67
     1
  8
1
  6
Continuous
 62
    18
100
AcDbLine
 10
5.840915999999999
 20
3.841188999999999
 30
0.0
 11
5.798144
 21
3.841516999999999
 31
0.0
  0
LINE
  5
333
330
B
100
AcDbEntity
 67
     1
  8
1
  6
Continuous
 62
    18
100
AcDbLine
 10
2.348015
 20
5.671588999999999
 30
0.0
 11
2.348015
 21
5.792048
 31
0.0
  0
LINE
  5
334
330
B
100
AcDbEntity
 67
     1
  8
1
  6
Continuous
 62
    18
100
AcDbLine
 10
2.133084
 20
3.982491
 30
0.0
 11
2.135950999999999
 21
3.982491
 31
0.0
  0
LINE
  5
335
330
B
100
AcDbEntity
 67
     1
  8
1
  6
Continuous
 62
    18
100
AcDbLine
 10
5.017405
 20
3.82059
 30
0.0
 11
5.015109999999999
 21
3.809087999999999
 31
0.0
  0
LINE
  5
336
330
B
100
AcDbEntity
 67
     1
  8
1
  6
Continuous
 62
    18
100
AcDbLine
 10
2.205950999999999
 20
4.049231999999999
 30
0.0
 11
2.202227999999999
 21
4.049283999999999
 31
0.0
  0
LINE
  5
337
330
B
100
AcDbEntity
 67
     1
  8
1
  6
Continuous
 62
    18
100
AcDbLine
 10
2.025951
 20
6.426784999999999
 30
0.0
 11
2.025951
 21
6.427958999999999
 31
0.0
  0
LINE
  5
338
330
B
100
AcDbEntity
 67
     1
  8
1
  6
Continuous
 62
    18
100
AcDbLine
 10
5.619847
 20
3.916864999999999
 30
0.0
 11
5.623635
 21
3.916864999999999
 31
0.0
  0
LINE
  5
339
330
B
100
AcDbEntity
 67
     1
  8
1
  6
Continuous
 62
    18
100
AcDbLine
 10
2.216983
 20
3.82059
 30
0.0
 11
2.348450999999999
 21
3.809087999999999
 31
0.0
  0
LINE
  5
33A
330
B
100
AcDbEntity
 67
     1
  8
1
  6
Continuous
 62
    18
100
AcDbLine
 10
5.771808
 20
4.139666
 30
0.0
 11
5.771808
 21
3.849063999999999
 31
0.0
  0
LINE
  5
33B
330
B
100
AcDbEntity
 67
     1
  8
1
  6
Continuous
 62
    18
100
AcDbLine
 10
2.216983
 20
6.438855
 30
0.0
 11
2.085515
 21
6.43656
 31
0.0
  0
LINE
  5
33C
330
B
100
AcDbEntity
 67
     1
  8
1
  6
Continuous
 62
    18
100
AcDbLine
 10
5.728221999999999
 20
4.230412999999999
 30
0.0
 11
5.728291999999999
 21
4.233996
 31
0.0
  0
LINE
  5
33D
330
B
100
AcDbEntity
 67
     1
  8
1
  6
Continuous
 62
    18
100
AcDbLine
 10
2.394878999999999
 20
4.133848999999999
 30
0.0
 11
2.380129999999999
 21
4.122784999999999
 31
0.0
  0
LINE
  5
33E
330
B
100
AcDbEntity
 67
     1
  8
1
  6
Continuous
 62
    18
100
AcDbLine
 10
2.035572
 20
6.436487
 30
0.0
 11
2.028747
 21
6.433519
 31
0.0
  0
LINE
  5
33F
330
B
100
AcDbEntity
 67
     1
  8
1
  6
Continuous
 62
    18
100
AcDbLine
 10
2.085950999999999
 20
6.386454
 30
0.0
 11
2.085950999999999
 21
6.265994999999999
 31
0.0
  0
LINE
  5
340
330
B
100
AcDbEntity
 67
     1
  8
1
  6
Continuous
 62
    18
100
AcDbLine
 10
2.131861
 20
3.932641
 30
0.0
 11
2.145776999999999
 21
3.938619
 31
0.0
  0
LINE
  5
341
330
B
100
AcDbEntity
 67
     1
  8
1
  6
Continuous
 62
    18
100
AcDbLine
 10
4.973612
 20
4.221973999999999
 30
0.0
 11
4.973612
 21
4.167627999999999
 31
0.0
  0
LINE
  5
342
330
B
100
AcDbEntity
 67
     1
  8
1
  6
Continuous
 62
    18
100
AcDbLine
 10
5.771372
 20
4.318456999999999
 30
0.0
 11
5.770705999999999
 21
4.318233999999999
 31
0.0
  0
LINE
  5
343
330
B
100
AcDbEntity
 67
     1
  8
1
  6
Continuous
 62
    18
100
AcDbLine
 10
2.135566999999999
 20
6.415741999999999
 30
0.0
 11
2.071593
 21
6.412937999999999
 31
0.0
  0
LINE
  5
344
330
B
100
AcDbEntity
 67
     1
  8
1
  6
Continuous
 62
    18
100
AcDbLine
 10
5.729981999999999
 20
3.747066
 30
0.0
 11
5.729981999999999
 21
3.75159
 31
0.0
  0
LINE
  5
345
330
B
100
AcDbEntity
 67
     1
  8
1
  6
Continuous
 62
    18
100
AcDbLine
 10
5.631388999999999
 20
3.895718
 30
0.0
 11
5.645156
 21
3.895718
 31
0.0
  0
LINE
  5
346
330
B
100
AcDbEntity
 67
     1
  8
1
  6
Continuous
 62
    18
100
AcDbLine
 10
2.088045999999999
 20
6.267503999999999
 30
0.0
 11
2.086006
 21
6.267503999999999
 31
0.0
  0
LINE
  5
347
330
B
100
AcDbEntity
 67
     1
  8
1
  6
Continuous
 62
    18
100
AcDbLine
 10
2.216983
 20
5.619187999999999
 30
0.0
 11
2.348450999999999
 21
5.621482
 31
0.0
  0
LINE
  5
348
330
B
100
AcDbEntity
 67
     1
  8
1
  6
Continuous
 62
    18
100
AcDbLine
 10
2.126125999999999
 20
4.070108
 30
0.0
 11
2.126125999999999
 21
4.093856999999999
 31
0.0
  0
LINE
  5
349
330
B
100
AcDbEntity
 67
     1
  8
1
  6
Continuous
 62
    18
100
AcDbLine
 10
5.119915999999999
 20
4.093013
 30
0.0
 11
5.119915999999999
 21
3.895718
 31
0.0
  0
LINE
  5
34A
330
B
100
AcDbEntity
 67
     1
  8
1
  6
Continuous
 62
    18
100
AcDbLine
 10
2.407709
 20
6.381649999999999
 30
0.0
 11
2.492563
 21
6.374821999999999
 31
0.0
  0
LINE
  5
34B
330
B
100
AcDbEntity
 67
     1
  8
1
  6
Continuous
 62
    18
100
AcDbLine
 10
4.946954999999999
 20
4.147213999999999
 30
0.0
 11
4.95225
 21
4.147369
 31
0.0
  0
LINE
  5
34C
330
B
100
AcDbEntity
 67
     1
  8
1
  6
Continuous
 62
    18
100
AcDbLine
 10
2.298399
 20
5.642299999999999
 30
0.0
 11
2.362372999999999
 21
5.645103999999999
 31
0.0
  0
LINE
  5
34D
330
B
100
AcDbEntity
 67
     1
  8
1
  6
Continuous
 62
    18
100
AcDbLine
 10
2.540780999999999
 20
6.400004
 30
0.0
 11
2.643443999999999
 21
6.423405
 31
0.0
  0
LINE
  5
34E
330
B
100
AcDbEntity
 67
     1
  8
1
  6
Continuous
 62
    18
100
AcDbLine
 10
5.728467
 20
3.803026
 30
0.0
 11
5.764555999999999
 21
3.805808999999999
 31
0.0
  0
LINE
  5
34F
330
B
100
AcDbEntity
 67
     1
  8
1
  6
Continuous
 62
    18
100
AcDbLine
 10
1.619031999999999
 20
3.712498999999999
 30
0.0
 11
1.622935
 21
3.717462
 31
0.0
  0
LINE
  5
350
330
B
100
AcDbEntity
 67
     1
  8
1
  6
Continuous
 62
    18
100
AcDbLine
 10
5.020569
 20
3.707618
 30
0.0
 11
5.017641
 21
3.714687999999999
 31
0.0
  0
LINE
  5
351
330
B
100
AcDbEntity
 67
     1
  8
1
  6
Continuous
 62
    18
100
AcDbLine
 10
2.393602
 20
4.275019999999999
 30
0.0
 11
2.380374999999999
 21
4.289455
 31
0.0
  0
LINE
  5
352
330
B
100
AcDbEntity
 67
     1
  8
1
  6
Continuous
 62
    18
100
AcDbLine
 10
2.348015
 20
5.802782999999999
 30
0.0
 11
2.348015
 21
6.427843
 31
0.0
  0
LINE
  5
353
330
B
100
AcDbEntity
 67
     1
  8
1
  6
Continuous
 62
    18
100
AcDbLine
 10
5.01503
 20
3.804107
 30
0.0
 11
5.015109999999999
 21
3.809087999999999
 31
0.0
  0
LINE
  5
354
330
B
100
AcDbEntity
 67
     1
  8
1
  6
Continuous
 62
    18
100
AcDbLine
 10
1.941403
 20
4.274047
 30
0.0
 11
1.941403
 21
4.315933999999999
 31
0.0
  0
LINE
  5
355
330
B
100
AcDbEntity
 67
     1
  8
1
  6
Continuous
 62
    18
100
AcDbLine
 10
5.782353999999999
 20
4.179641999999999
 30
0.0
 11
5.729989999999999
 21
4.179641999999999
 31
0.0
  0
LINE
  5
356
330
B
100
AcDbEntity
 67
     1
  8
1
  6
Continuous
 62
    18
100
AcDbLine
 10
5.01503
 20
4.184623
 30
0.0
 11
5.01503
 21
4.236644999999999
 31
0.0
  0
LINE
  5
357
330
B
100
AcDbEntity
 67
     1
  8
1
  6
Continuous
 62
    18
100
AcDbLine
 10
2.216983
 20
5.832573
 30
0.0
 11
2.329757999999999
 21
5.822707
 31
0.0
  0
LINE
  5
358
330
B
100
AcDbEntity
 67
     1
  8
1
  6
Continuous
 62
    18
100
AcDbLine
 10
5.786158
 20
3.733093
 30
0.0
 11
5.770705999999999
 21
3.670495999999999
 31
0.0
  0
LINE
  5
359
330
B
100
AcDbEntity
 67
     1
  8
1
  6
Continuous
 62
    18
100
AcDbLine
 10
1.786633
 20
3.849063999999999
 30
0.0
 11
1.790522
 21
3.848723999999999
 31
0.0
  0
LINE
  5
35A
330
B
100
AcDbEntity
 67
     1
  8
1
  6
Continuous
 62
    18
100
AcDbLine
 10
5.727694999999999
 20
4.253128
 30
0.0
 11
5.709668999999999
 21
4.253128
 31
0.0
  0
LINE
  5
35B
330
B
100
AcDbEntity
 67
     1
  8
1
  6
Continuous
 62
    18
100
AcDbLine
 10
2.138818999999999
 20
4.013249
 30
0.0
 11
2.135950999999999
 21
4.00624
 31
0.0
  0
LINE
  5
35C
330
B
100
AcDbEntity
 67
     1
  8
1
  6
Continuous
 62
    18
100
AcDbLine
 10
2.362372999999999
 20
3.870912
 30
0.0
 11
2.362241
 21
3.867989
 31
0.0
  0
LINE
  5
35D
330
B
100
AcDbEntity
 67
     1
  8
1
  6
Continuous
 62
    18
100
AcDbLine
 10
4.962545999999999
 20
3.824716999999999
 30
0.0
 11
5.018762999999999
 21
3.822754
 31
0.0
  0
LINE
  5
35E
330
B
100
AcDbEntity
 67
     1
  8
1
  6
Continuous
 62
    18
100
AcDbLine
 10
2.216983
 20
6.225469
 30
0.0
 11
2.104208
 21
6.235335
 31
0.0
  0
LINE
  5
35F
330
B
100
AcDbEntity
 67
     1
  8
1
  6
Continuous
 62
    18
100
AcDbLine
 10
2.025951
 20
3.732267999999999
 30
0.0
 11
2.029497999999999
 21
3.73233
 31
0.0
  0
LINE
  5
360
330
B
100
AcDbEntity
 67
     1
  8
1
  6
Continuous
 62
    18
100
AcDbLine
 10
5.686537999999999
 20
3.708934999999999
 30
0.0
 11
5.691066
 21
3.712498999999999
 31
0.0
  0
LINE
  5
361
330
B
100
AcDbEntity
 67
     1
  8
1
  6
Continuous
 62
    18
100
AcDbLine
 10
2.286983
 20
3.95968
 30
0.0
 11
2.281728999999999
 21
3.946169
 31
0.0
  0
LINE
  5
362
330
B
100
AcDbEntity
 67
     1
  8
1
  6
Continuous
 62
    18
100
AcDbLine
 10
5.729981999999999
 20
3.751554
 30
0.0
 11
5.764726999999999
 21
3.751584999999999
 31
0.0
  0
LINE
  5
363
330
B
100
AcDbEntity
 67
     1
  8
1
  6
Continuous
 62
    18
100
AcDbLine
 10
5.786935999999999
 20
4.165853
 30
0.0
 11
5.784648999999999
 21
4.16814
 31
0.0
  0
LINE
  5
364
330
B
100
AcDbEntity
 67
     1
  8
1
  6
Continuous
 62
    18
100
AcDbLine
 10
5.798144
 20
4.147213999999999
 30
0.0
 11
5.792849999999999
 21
4.147369
 31
0.0
  0
LINE
  5
365
330
B
100
AcDbEntity
 67
     1
  8
1
  6
Continuous
 62
    18
100
AcDbLine
 10
2.266545999999999
 20
5.731117
 30
0.0
 11
2.266497999999999
 21
5.731405999999999
 31
0.0
  0
LINE
  5
366
330
B
100
AcDbEntity
 67
     1
  8
1
  6
Continuous
 62
    18
100
AcDbLine
 10
4.977388999999999
 20
3.676145999999999
 30
0.0
 11
4.977508999999999
 21
3.675745999999999
 31
0.0
  0
LINE
  5
367
330
B
100
AcDbEntity
 67
     1
  8
1
  6
Continuous
 62
    18
100
AcDbLine
 10
5.641144999999999
 20
3.880732
 30
0.0
 11
5.630183
 21
3.869769999999999
 31
0.0
  0
LINE
  5
368
330
B
100
AcDbEntity
 67
     1
  8
1
  6
Continuous
 62
    18
100
AcDbLine
 10
2.247183
 20
4.230412999999999
 30
0.0
 11
2.251145999999999
 21
4.233996
 31
0.0
  0
LINE
  5
369
330
B
100
AcDbEntity
 67
     1
  8
1
  6
Continuous
 62
    18
100
AcDbLine
 10
2.348015
 20
3.756556999999999
 30
0.0
 11
2.348015
 21
3.800862
 31
0.0
  0
LINE
  5
36A
330
B
100
AcDbEntity
 67
     1
  8
1
  6
Continuous
 62
    18
100
AcDbLine
 10
4.973611
 20
3.824330999999999
 30
0.0
 11
4.973612
 21
3.821101999999999
 31
0.0
  0
LINE
  5
36B
330
B
100
AcDbEntity
 67
     1
  8
1
  6
Continuous
 62
    18
100
AcDbLine
 10
2.362295
 20
5.638949
 30
0.0
 11
2.362372999999999
 21
5.645103999999999
 31
0.0
  0
LINE
  5
36C
330
B
100
AcDbEntity
 67
     1
  8
1
  6
Continuous
 62
    18
100
AcDbLine
 10
2.156824
 20
4.059916
 30
0.0
 11
2.176527
 21
4.059573
 31
0.0
  0
LINE
  5
36D
330
B
100
AcDbEntity
 67
     1
  8
1
  6
Continuous
 62
    18
100
AcDbLine
 10
5.034377
 20
4.280673
 30
0.0
 11
5.664090999999999
 21
4.280673
 31
0.0
  0
LINE
  5
36E
330
B
100
AcDbEntity
 67
     1
  8
1
  6
Continuous
 62
    18
100
AcDbLine
 10
2.348015
 20
3.670273
 30
0.0
 11
2.348015
 21
3.684025
 31
0.0
  0
LINE
  5
36F
330
B
100
AcDbEntity
 67
     1
  8
1
  6
Continuous
 62
    18
100
AcDbLine
 10
5.150033
 20
3.891055999999999
 30
0.0
 11
5.150033
 21
3.88728
 31
0.0
  0
LINE
  5
370
330
B
100
AcDbEntity
 67
     1
  8
1
  6
Continuous
 62
    18
100
AcDbLine
 10
4.975338999999999
 20
4.315873
 30
0.0
 11
4.973729
 21
4.318456999999999
 31
0.0
  0
LINE
  5
371
330
B
100
AcDbEntity
 67
     1
  8
1
  6
Continuous
 62
    18
100
AcDbLine
 10
4.959401
 20
4.049917999999999
 30
0.0
 11
4.960220999999999
 21
4.053881999999999
 31
0.0
  0
LINE
  5
372
330
B
100
AcDbEntity
 67
     1
  8
1
  6
Continuous
 62
    18
100
AcDbLine
 10
2.398393999999999
 20
4.256035999999999
 30
0.0
 11
2.405218999999999
 21
4.255302999999999
 31
0.0
  0
LINE
  5
373
330
B
100
AcDbEntity
 67
     1
  8
1
  6
Continuous
 62
    18
100
AcDbLine
 10
2.216952999999999
 20
3.8807
 30
0.0
 11
2.216983
 21
3.883632
 31
0.0
  0
LINE
  5
374
330
B
100
AcDbEntity
 67
     1
  8
1
  6
Continuous
 62
    18
100
AcDbLine
 10
4.966603
 20
4.221973999999999
 30
0.0
 11
4.973612
 21
4.221973999999999
 31
0.0
  0
LINE
  5
375
330
B
100
AcDbEntity
 67
     1
  8
1
  6
Continuous
 62
    18
100
AcDbLine
 10
5.015118
 20
3.670273
 30
0.0
 11
5.135576
 21
3.670273
 31
0.0
  0
LINE
  5
376
330
B
100
AcDbEntity
 67
     1
  8
1
  6
Continuous
 62
    18
100
AcDbLine
 10
4.963613999999999
 20
4.221973999999999
 30
0.0
 11
4.962824999999999
 21
4.225926
 31
0.0
  0
LINE
  5
377
330
B
100
AcDbEntity
 67
     1
  8
1
  6
Continuous
 62
    18
100
AcDbLine
 10
1.874674
 20
5.608721
 30
0.0
 11
1.879754
 21
5.611036
 31
0.0
  0
LINE
  5
378
330
B
100
AcDbEntity
 67
     1
  8
1
  6
Continuous
 62
    18
100
AcDbLine
 10
1.852958
 20
4.145469
 30
0.0
 11
1.859699
 21
4.146058999999999
 31
0.0
  0
LINE
  5
379
330
B
100
AcDbEntity
 67
     1
  8
1
  6
Continuous
 62
    18
100
AcDbLine
 10
5.017641
 20
4.274041999999999
 30
0.0
 11
5.017641
 21
4.315933999999999
 31
0.0
  0
LINE
  5
37A
330
B
100
AcDbEntity
 67
     1
  8
1
  6
Continuous
 62
    18
100
AcDbLine
 10
2.135950999999999
 20
3.982491
 30
0.0
 11
2.138818999999999
 21
3.975481999999999
 31
0.0
  0
LINE
  5
37B
330
B
100
AcDbEntity
 67
     1
  8
1
  6
Continuous
 62
    18
100
AcDbLine
 10
4.963613999999999
 20
3.821101999999999
 30
0.0
 11
4.963611
 21
3.82468
 31
0.0
  0
LINE
  5
37C
330
B
100
AcDbEntity
 67
     1
  8
1
  6
Continuous
 62
    18
100
AcDbLine
 10
5.786935999999999
 20
4.255415
 30
0.0
 11
5.782383
 21
4.253128
 31
0.0
  0
LINE
  5
37D
330
B
100
AcDbEntity
 67
     1
  8
1
  6
Continuous
 62
    18
100
AcDbLine
 10
5.730069999999999
 20
3.804107
 30
0.0
 11
5.729989999999999
 21
3.809087999999999
 31
0.0
  0
LINE
  5
37E
330
B
100
AcDbEntity
 67
     1
  8
1
  6
Continuous
 62
    18
100
AcDbLine
 10
2.205950999999999
 20
4.049231999999999
 30
0.0
 11
2.203084
 21
4.056240999999999
 31
0.0
  0
LINE
  5
37F
330
B
100
AcDbEntity
 67
     1
  8
1
  6
Continuous
 62
    18
100
AcDbLine
 10
2.085950999999999
 20
5.614634999999999
 30
0.0
 11
2.216983
 21
5.616921999999999
 31
0.0
  0
LINE
  5
380
330
B
100
AcDbEntity
 67
     1
  8
1
  6
Continuous
 62
    18
100
AcDbLine
 10
4.958865
 20
4.00624
 30
0.0
 11
4.958965
 21
4.020258
 31
0.0
  0
LINE
  5
381
330
B
100
AcDbEntity
 67
     1
  8
1
  6
Continuous
 62
    18
100
AcDbLine
 10
5.840620999999999
 20
3.842672
 30
0.0
 11
5.837844999999999
 21
3.843262
 31
0.0
  0
LINE
  5
382
330
B
100
AcDbEntity
 67
     1
  8
1
  6
Continuous
 62
    18
100
AcDbLine
 10
2.216633999999999
 20
3.873639999999999
 30
0.0
 11
2.216952999999999
 21
3.8807
 31
0.0
  0
LINE
  5
383
330
B
100
AcDbEntity
 67
     1
  8
1
  6
Continuous
 62
    18
100
AcDbLine
 10
5.727694999999999
 20
4.186503
 30
0.0
 11
5.720404
 21
4.186758
 31
0.0
  0
LINE
  5
384
330
B
100
AcDbEntity
 67
     1
  8
1
  6
Continuous
 62
    18
100
AcDbLine
 10
5.44544
 20
3.984365
 30
0.0
 11
5.395439999999999
 21
3.984365
 31
0.0
  0
LINE
  5
385
330
B
100
AcDbEntity
 67
     1
  8
1
  6
Continuous
 62
    18
100
AcDbLine
 10
2.361675999999999
 20
4.12778
 30
0.0
 11
2.38017
 21
4.134208999999999
 31
0.0
  0
LINE
  5
386
330
B
100
AcDbEntity
 67
     1
  8
1
  6
Continuous
 62
    18
100
AcDbLine
 10
5.786935999999999
 20
4.255415
 30
0.0
 11
5.786158
 21
4.255637999999999
 31
0.0
  0
LINE
  5
387
330
B
100
AcDbEntity
 67
     1
  8
1
  6
Continuous
 62
    18
100
AcDbLine
 10
2.348015
 20
5.792048
 30
0.0
 11
2.339733999999999
 21
5.77584
 31
0.0
  0
LINE
  5
388
330
B
100
AcDbEntity
 67
     1
  8
1
  6
Continuous
 62
    18
100
AcDbLine
 10
2.126125999999999
 20
4.00624
 30
0.0
 11
2.133084
 21
4.00624
 31
0.0
  0
LINE
  5
389
330
B
100
AcDbEntity
 67
     1
  8
1
  6
Continuous
 62
    18
100
AcDbLine
 10
4.962716999999999
 20
3.735601999999999
 30
0.0
 11
4.965010999999999
 21
3.747104
 31
0.0
  0
LINE
  5
38A
330
B
100
AcDbEntity
 67
     1
  8
1
  6
Continuous
 62
    18
100
AcDbLine
 10
2.202227999999999
 20
4.049283999999999
 30
0.0
 11
2.191613999999999
 21
4.049432
 31
0.0
  0
LINE
  5
38B
330
B
100
AcDbEntity
 67
     1
  8
1
  6
Continuous
 62
    18
100
AcDbLine
 10
2.080950999999999
 20
6.438746
 30
0.0
 11
2.080950999999999
 21
6.437591999999999
 31
0.0
  0
LINE
  5
38C
330
B
100
AcDbEntity
 67
     1
  8
1
  6
Continuous
 62
    18
100
AcDbLine
 10
2.21692
 20
4.313943
 30
0.0
 11
2.216988
 21
4.315128999999999
 31
0.0
  0
LINE
  5
38D
330
B
100
AcDbEntity
 67
     1
  8
1
  6
Continuous
 62
    18
100
AcDbLine
 10
2.348450999999999
 20
3.809087999999999
 30
0.0
 11
2.353015
 21
3.804107
 31
0.0
  0
LINE
  5
38E
330
B
100
AcDbEntity
 67
     1
  8
1
  6
Continuous
 62
    18
100
AcDbLine
 10
2.085515
 20
6.43656
 30
0.0
 11
2.081141
 21
6.437281999999999
 31
0.0
  0
LINE
  5
38F
330
B
100
AcDbEntity
 67
     1
  8
1
  6
Continuous
 62
    18
100
AcDbLine
 10
2.217007
 20
3.67283
 30
0.0
 11
2.216983
 21
3.672559999999999
 31
0.0
  0
LINE
  5
390
330
B
100
AcDbEntity
 67
     1
  8
1
  6
Continuous
 62
    18
100
AcDbLine
 10
5.728291999999999
 20
4.233996
 30
0.0
 11
5.728458999999999
 21
4.235616999999999
 31
0.0
  0
LINE
  5
391
330
B
100
AcDbEntity
 67
     1
  8
1
  6
Continuous
 62
    18
100
AcDbLine
 10
2.380129999999999
 20
4.122784999999999
 30
0.0
 11
2.362372999999999
 21
4.117817999999999
 31
0.0
  0
LINE
  5
392
330
B
100
AcDbEntity
 67
     1
  8
1
  6
Continuous
 62
    18
100
AcDbLine
 10
2.028747
 20
6.433519
 30
0.0
 11
2.025951
 21
6.426784999999999
 31
0.0
  0
LINE
  5
393
330
B
100
AcDbEntity
 67
     1
  8
1
  6
Continuous
 62
    18
100
AcDbLine
 10
2.085950999999999
 20
6.265994999999999
 30
0.0
 11
2.094233
 21
6.282201999999999
 31
0.0
  0
LINE
  5
394
330
B
100
AcDbEntity
 67
     1
  8
1
  6
Continuous
 62
    18
100
AcDbLine
 10
2.145776999999999
 20
3.938619
 30
0.0
 11
2.156824
 21
3.938812
 31
0.0
  0
LINE
  5
395
330
B
100
AcDbEntity
 67
     1
  8
1
  6
Continuous
 62
    18
100
AcDbLine
 10
4.973612
 20
4.167627999999999
 30
0.0
 11
5.014069999999999
 21
4.167627999999999
 31
0.0
  0
LINE
  5
396
330
B
100
AcDbEntity
 67
     1
  8
1
  6
Continuous
 62
    18
100
AcDbLine
 10
5.146311999999999
 20
4.318456999999999
 30
0.0
 11
5.771371
 21
4.318456999999999
 31
0.0
  0
LINE
  5
397
330
B
100
AcDbEntity
 67
     1
  8
1
  6
Continuous
 62
    18
100
AcDbLine
 10
2.071593
 20
6.412937999999999
 30
0.0
 11
2.071593
 21
6.386703999999999
 31
0.0
  0
LINE
  5
398
330
B
100
AcDbEntity
 67
     1
  8
1
  6
Continuous
 62
    18
100
AcDbLine
 10
2.362241
 20
4.120741999999999
 30
0.0
 11
2.362372999999999
 21
4.117817999999999
 31
0.0
  0
LINE
  5
399
330
B
100
AcDbEntity
 67
     1
  8
1
  6
Continuous
 62
    18
100
AcDbLine
 10
4.978932
 20
3.692846999999999
 30
0.0
 11
4.978067
 21
3.699275
 31
0.0
  0
LINE
  5
39A
330
B
100
AcDbEntity
 67
     1
  8
1
  6
Continuous
 62
    18
100
AcDbLine
 10
5.781119999999999
 20
4.236644999999999
 30
0.0
 11
5.780810999999999
 21
4.238008999999999
 31
0.0
  0
LINE
  5
39B
330
B
100
AcDbEntity
 67
     1
  8
1
  6
Continuous
 62
    18
100
AcDbLine
 10
2.10502
 20
6.290003999999999
 30
0.0
 11
2.107689
 21
6.290003999999999
 31
0.0
  0
LINE
  5
39C
330
B
100
AcDbEntity
 67
     1
  8
1
  6
Continuous
 62
    18
100
AcDbLine
 10
2.348450999999999
 20
5.621482
 30
0.0
 11
2.352825999999999
 21
5.620759999999999
 31
0.0
  0
LINE
  5
39D
330
B
100
AcDbEntity
 67
     1
  8
1
  6
Continuous
 62
    18
100
AcDbLine
 10
2.126125999999999
 20
4.093856999999999
 30
0.0
 11
2.131861
 21
4.107874999999999
 31
0.0
  0
LINE
  5
39E
330
B
100
AcDbEntity
 67
     1
  8
1
  6
Continuous
 62
    18
100
AcDbLine
 10
5.119915999999999
 20
3.895718
 30
0.0
 11
5.121463999999999
 21
3.897266
 31
0.0
  0
LINE
  5
39F
330
B
100
AcDbEntity
 67
     1
  8
1
  6
Continuous
 62
    18
100
AcDbLine
 10
2.492563
 20
6.374821999999999
 30
0.0
 11
2.811031
 21
6.349194
 31
0.0
  0
LINE
  5
3A0
330
B
100
AcDbEntity
 67
     1
  8
1
  6
Continuous
 62
    18
100
AcDbLine
 10
4.95225
 20
4.147369
 30
0.0
 11
4.954565
 21
4.147812999999999
 31
0.0
  0
LINE
  5
3A1
330
B
100
AcDbEntity
 67
     1
  8
1
  6
Continuous
 62
    18
100
AcDbLine
 10
2.057266999999999
 20
4.163343
 30
0.0
 11
2.057266999999999
 21
4.165351999999999
 31
0.0
  0
LINE
  5
3A2
330
B
100
AcDbEntity
 67
     1
  8
1
  6
Continuous
 62
    18
100
AcDbLine
 10
5.623635
 20
4.091465
 30
0.0
 11
5.620712
 21
4.098526999999999
 31
0.0
  0
LINE
  5
3A3
330
B
100
AcDbEntity
 67
     1
  8
1
  6
Continuous
 62
    18
100
AcDbLine
 10
2.643443999999999
 20
6.423405
 30
0.0
 11
2.647333
 21
6.428278999999999
 31
0.0
  0
LINE
  5
3A4
330
B
100
AcDbEntity
 67
     1
  8
1
  6
Continuous
 62
    18
100
AcDbLine
 10
2.031193999999999
 20
5.65915
 30
0.0
 11
2.041595
 21
5.644733999999999
 31
0.0
  0
LINE
  5
3A5
330
B
100
AcDbEntity
 67
     1
  8
1
  6
Continuous
 62
    18
100
AcDbLine
 10
5.729974999999999
 20
3.804631999999999
 30
0.0
 11
5.764555999999999
 21
3.805808999999999
 31
0.0
  0
LINE
  5
3A6
330
B
100
AcDbEntity
 67
     1
  8
1
  6
Continuous
 62
    18
100
AcDbLine
 10
1.622935
 20
4.271268
 30
0.0
 11
1.622935
 21
3.717462
 31
0.0
  0
LINE
  5
3A7
330
B
100
AcDbEntity
 67
     1
  8
1
  6
Continuous
 62
    18
100
AcDbLine
 10
5.017641
 20
3.714687999999999
 30
0.0
 11
5.017641
 21
3.672795999999999
 31
0.0
  0
LINE
  5
3A8
330
B
100
AcDbEntity
 67
     1
  8
1
  6
Continuous
 62
    18
100
AcDbLine
 10
2.348015
 20
5.792048
 30
0.0
 11
2.348015
 21
5.802782999999999
 31
0.0
  0
LINE
  5
3A9
330
B
100
AcDbEntity
 67
     1
  8
1
  6
Continuous
 62
    18
100
AcDbLine
 10
2.145776999999999
 20
4.060109999999999
 30
0.0
 11
2.156824
 21
4.059916
 31
0.0
  0
LINE
  5
3AA
330
B
100
AcDbEntity
 67
     1
  8
1
  6
Continuous
 62
    18
100
AcDbLine
 10
1.941403
 20
4.274047
 30
0.0
 11
1.622935
 21
4.271268
 31
0.0
  0
LINE
  5
3AB
330
B
100
AcDbEntity
 67
     1
  8
1
  6
Continuous
 62
    18
100
AcDbLine
 10
5.782275
 20
4.225926
 30
0.0
 11
5.781119999999999
 21
4.236644999999999
 31
0.0
  0
LINE
  5
3AC
330
B
100
AcDbEntity
 67
     1
  8
1
  6
Continuous
 62
    18
100
AcDbLine
 10
5.729989999999999
 20
4.179641999999999
 30
0.0
 11
5.727694999999999
 21
4.16814
 31
0.0
  0
LINE
  5
3AD
330
B
100
AcDbEntity
 67
     1
  8
1
  6
Continuous
 62
    18
100
AcDbLine
 10
5.01503
 20
4.236644999999999
 30
0.0
 11
5.015109999999999
 21
4.241626
 31
0.0
  0
LINE
  5
3AE
330
B
100
AcDbEntity
 67
     1
  8
1
  6
Continuous
 62
    18
100
AcDbLine
 10
2.085950999999999
 20
6.265994999999999
 30
0.0
 11
2.085950999999999
 21
6.255258999999999
 31
0.0
  0
LINE
  5
3AF
330
B
100
AcDbEntity
 67
     1
  8
1
  6
Continuous
 62
    18
100
AcDbLine
 10
4.963613999999999
 20
3.821101999999999
 30
0.0
 11
4.966603
 21
3.821101999999999
 31
0.0
  0
LINE
  5
3B0
330
B
100
AcDbEntity
 67
     1
  8
1
  6
Continuous
 62
    18
100
AcDbLine
 10
5.020678
 20
4.164127999999999
 30
0.0
 11
5.018762999999999
 21
4.165976999999999
 31
0.0
  0
LINE
  5
3B1
330
B
100
AcDbEntity
 67
     1
  8
1
  6
Continuous
 62
    18
100
AcDbLine
 10
5.709668999999999
 20
4.253128
 30
0.0
 11
5.709668999999999
 21
4.16814
 31
0.0
  0
LINE
  5
3B2
330
B
100
AcDbEntity
 67
     1
  8
1
  6
Continuous
 62
    18
100
AcDbLine
 10
2.394878999999999
 20
3.854881999999999
 30
0.0
 11
2.404615999999999
 21
3.839223999999999
 31
0.0
  0
LINE
  5
3B3
330
B
100
AcDbEntity
 67
     1
  8
1
  6
Continuous
 62
    18
100
AcDbLine
 10
2.362241
 20
3.867989
 30
0.0
 11
2.361675999999999
 21
3.860949999999999
 31
0.0
  0
LINE
  5
3B4
330
B
100
AcDbEntity
 67
     1
  8
1
  6
Continuous
 62
    18
100
AcDbLine
 10
5.770705999999999
 20
4.318233999999999
 30
0.0
 11
5.786158
 21
4.255637999999999
 31
0.0
  0
LINE
  5
3B5
330
B
100
AcDbEntity
 67
     1
  8
1
  6
Continuous
 62
    18
100
AcDbLine
 10
2.380129999999999
 20
4.122784999999999
 30
0.0
 11
2.362372999999999
 21
4.117817999999999
 31
0.0
  0
LINE
  5
3B6
330
B
100
AcDbEntity
 67
     1
  8
1
  6
Continuous
 62
    18
100
AcDbLine
 10
1.859699
 20
4.146058999999999
 30
0.0
 11
1.859699
 21
3.842672
 31
0.0
  0
LINE
  5
3B7
330
B
100
AcDbEntity
 67
     1
  8
1
  6
Continuous
 62
    18
100
AcDbLine
 10
2.104208
 20
6.235335
 30
0.0
 11
2.091206
 21
6.241747
 31
0.0
  0
LINE
  5
3B8
330
B
100
AcDbEntity
 67
     1
  8
1
  6
Continuous
 62
    18
100
AcDbLine
 10
2.196126
 20
3.929499999999999
 30
0.0
 11
2.145776999999999
 21
3.928620999999999
 31
0.0
  0
LINE
  5
3B9
330
B
100
AcDbEntity
 67
     1
  8
1
  6
Continuous
 62
    18
100
AcDbLine
 10
5.691066
 20
3.712498999999999
 30
0.0
 11
5.692722999999999
 21
3.717462
 31
0.0
  0
LINE
  5
3BA
330
B
100
AcDbEntity
 67
     1
  8
1
  6
Continuous
 62
    18
100
AcDbLine
 10
2.281728999999999
 20
3.946169
 30
0.0
 11
2.268726
 21
3.939755999999999
 31
0.0
  0
LINE
  5
3BB
330
B
100
AcDbEntity
 67
     1
  8
1
  6
Continuous
 62
    18
100
AcDbLine
 10
5.764726999999999
 20
3.751584999999999
 30
0.0
 11
5.728458999999999
 21
3.753114
 31
0.0
  0
LINE
  5
3BC
330
B
100
AcDbEntity
 67
     1
  8
1
  6
Continuous
 62
    18
100
AcDbLine
 10
2.266497999999999
 20
5.731405999999999
 30
0.0
 11
2.266445
 21
5.731616
 31
0.0
  0
LINE
  5
3BD
330
B
100
AcDbEntity
 67
     1
  8
1
  6
Continuous
 62
    18
100
AcDbLine
 10
2.190881999999999
 20
3.929408
 30
0.0
 11
2.176527
 21
3.929158
 31
0.0
  0
LINE
  5
3BE
330
B
100
AcDbEntity
 67
     1
  8
1
  6
Continuous
 62
    18
100
AcDbLine
 10
4.977508999999999
 20
3.675745999999999
 30
0.0
 11
4.977967999999999
 21
3.674787
 31
0.0
  0
LINE
  5
3BF
330
B
100
AcDbEntity
 67
     1
  8
1
  6
Continuous
 62
    18
100
AcDbLine
 10
5.630183
 20
3.869769999999999
 30
0.0
 11
5.615198
 21
3.865758999999999
 31
0.0
  0
LINE
  5
3C0
330
B
100
AcDbEntity
 67
     1
  8
1
  6
Continuous
 62
    18
100
AcDbLine
 10
2.251145999999999
 20
4.233996
 30
0.0
 11
2.260731999999999
 21
4.235616999999999
 31
0.0
  0
LINE
  5
3C1
330
B
100
AcDbEntity
 67
     1
  8
1
  6
Continuous
 62
    18
100
AcDbLine
 10
2.348015
 20
3.756556999999999
 30
0.0
 11
2.348291
 21
3.751584999999999
 31
0.0
  0
LINE
  5
3C2
330
B
100
AcDbEntity
 67
     1
  8
1
  6
Continuous
 62
    18
100
AcDbLine
 10
4.980221
 20
3.73509
 30
0.0
 11
4.983693999999999
 21
3.716968
 31
0.0
  0
LINE
  5
3C3
330
B
100
AcDbEntity
 67
     1
  8
1
  6
Continuous
 62
    18
100
AcDbLine
 10
2.216983
 20
3.672559999999999
 30
0.0
 11
2.143604999999999
 21
3.67128
 31
0.0
  0
LINE
  5
3C4
330
B
100
AcDbEntity
 67
     1
  8
1
  6
Continuous
 62
    18
100
AcDbLine
 10
2.216808
 20
5.633861
 30
0.0
 11
2.216845
 21
5.63398
 31
0.0
  0
LINE
  5
3C5
330
B
100
AcDbEntity
 67
     1
  8
1
  6
Continuous
 62
    18
100
AcDbLine
 10
2.176527
 20
4.059573
 30
0.0
 11
2.190881999999999
 21
4.059321999999999
 31
0.0
  0
LINE
  5
3C6
330
B
100
AcDbEntity
 67
     1
  8
1
  6
Continuous
 62
    18
100
AcDbLine
 10
5.119915999999999
 20
3.895718
 30
0.0
 11
5.122816999999999
 21
3.888631999999999
 31
0.0
  0
LINE
  5
3C7
330
B
100
AcDbEntity
 67
     1
  8
1
  6
Continuous
 62
    18
100
AcDbLine
 10
5.034377
 20
4.280673
 30
0.0
 11
5.027305999999999
 21
4.277744999999999
 31
0.0
  0
LINE
  5
3C8
330
B
100
AcDbEntity
 67
     1
  8
1
  6
Continuous
 62
    18
100
AcDbLine
 10
2.348015
 20
3.747066
 30
0.0
 11
2.348015
 21
3.75159
 31
0.0
  0
LINE
  5
3C9
330
B
100
AcDbEntity
 67
     1
  8
1
  6
Continuous
 62
    18
100
AcDbLine
 10
4.973726999999999
 20
4.318456999999999
 30
0.0
 11
4.958164
 21
4.255415
 31
0.0
  0
LINE
  5
3CA
330
B
100
AcDbEntity
 67
     1
  8
1
  6
Continuous
 62
    18
100
AcDbLine
 10
4.960220999999999
 20
4.053881999999999
 30
0.0
 11
4.962545999999999
 21
4.057197
 31
0.0
  0
LINE
  5
3CB
330
B
100
AcDbEntity
 67
     1
  8
1
  6
Continuous
 62
    18
100
AcDbLine
 10
2.039636999999999
 20
4.256223999999999
 30
0.0
 11
2.029497999999999
 21
4.256401
 31
0.0
  0
LINE
  5
3CC
330
B
100
AcDbEntity
 67
     1
  8
1
  6
Continuous
 62
    18
100
AcDbLine
 10
5.618533
 20
3.899865
 30
0.0
 11
5.618533
 21
3.916864999999999
 31
0.0
  0
LINE
  5
3CD
330
B
100
AcDbEntity
 67
     1
  8
1
  6
Continuous
 62
    18
100
AcDbLine
 10
4.965085
 20
4.234022
 30
0.0
 11
4.968051999999999
 21
4.233289
 31
0.0
  0
LINE
  5
3CE
330
B
100
AcDbEntity
 67
     1
  8
1
  6
Continuous
 62
    18
100
AcDbLine
 10
2.041595
 20
4.317683
 30
0.0
 11
2.056191999999999
 21
4.317937999999999
 31
0.0
  0
LINE
  5
3CF
330
B
100
AcDbEntity
 67
     1
  8
1
  6
Continuous
 62
    18
100
AcDbLine
 10
5.770705999999999
 20
3.670495999999999
 30
0.0
 11
5.766664999999999
 21
3.670793
 31
0.0
  0
LINE
  5
3D0
330
B
100
AcDbEntity
 67
     1
  8
1
  6
Continuous
 62
    18
100
AcDbLine
 10
4.962824999999999
 20
4.184623
 30
0.0
 11
4.962824999999999
 21
4.225926
 31
0.0
  0
LINE
  5
3D1
330
B
100
AcDbEntity
 67
     1
  8
1
  6
Continuous
 62
    18
100
AcDbLine
 10
5.625183999999999
 20
4.093013
 30
0.0
 11
5.631388999999999
 21
4.093013
 31
0.0
  0
LINE
  5
3D2
330
B
100
AcDbEntity
 67
     1
  8
1
  6
Continuous
 62
    18
100
AcDbLine
 10
1.859699
 20
4.146058999999999
 30
0.0
 11
1.876645
 21
4.147541
 31
0.0
  0
LINE
  5
3D3
330
B
100
AcDbEntity
 67
     1
  8
1
  6
Continuous
 62
    18
100
AcDbLine
 10
2.138818999999999
 20
3.975481999999999
 30
0.0
 11
2.145776999999999
 21
3.972491999999999
 31
0.0
  0
LINE
  5
3D4
330
B
100
AcDbEntity
 67
     1
  8
1
  6
Continuous
 62
    18
100
AcDbLine
 10
4.962545999999999
 20
3.863105
 30
0.0
 11
4.960443999999999
 21
3.873639999999999
 31
0.0
  0
LINE
  5
3D5
330
B
100
AcDbEntity
 67
     1
  8
1
  6
Continuous
 62
    18
100
AcDbLine
 10
5.840915999999999
 20
4.147541
 30
0.0
 11
5.798144
 21
4.147213999999999
 31
0.0
  0
LINE
  5
3D6
330
B
100
AcDbEntity
 67
     1
  8
1
  6
Continuous
 62
    18
100
AcDbLine
 10
5.782383
 20
4.253128
 30
0.0
 11
5.780088
 21
4.241626
 31
0.0
  0
LINE
  5
3D7
330
B
100
AcDbEntity
 67
     1
  8
1
  6
Continuous
 62
    18
100
AcDbLine
 10
5.767026
 20
3.752084999999999
 30
0.0
 11
5.781119999999999
 21
3.752084999999999
 31
0.0
  0
LINE
  5
3D8
330
B
100
AcDbEntity
 67
     1
  8
1
  6
Continuous
 62
    18
100
AcDbLine
 10
2.203084
 20
4.056240999999999
 30
0.0
 11
2.196126
 21
4.05923
 31
0.0
  0
LINE
  5
3D9
330
B
100
AcDbEntity
 67
     1
  8
1
  6
Continuous
 62
    18
100
AcDbLine
 10
4.958965
 20
4.020258
 30
0.0
 11
4.959208
 21
4.026237
 31
0.0
  0
LINE
  5
3DA
330
B
100
AcDbEntity
 67
     1
  8
1
  6
Continuous
 62
    18
100
AcDbLine
 10
5.775824
 20
3.848929
 30
0.0
 11
5.837844999999999
 21
3.843262
 31
0.0
  0
LINE
  5
3DB
330
B
100
AcDbEntity
 67
     1
  8
1
  6
Continuous
 62
    18
100
AcDbLine
 10
5.44544
 20
3.994365
 30
0.0
 11
5.44544
 21
3.984365
 31
0.0
  0
LINE
  5
3DC
330
B
100
AcDbEntity
 67
     1
  8
1
  6
Continuous
 62
    18
100
AcDbLine
 10
2.38017
 20
4.134208999999999
 30
0.0
 11
2.393397999999999
 21
4.148643999999999
 31
0.0
  0
LINE
  5
3DD
330
B
100
AcDbEntity
 67
     1
  8
1
  6
Continuous
 62
    18
100
AcDbLine
 10
5.786158
 20
4.255637999999999
 30
0.0
 11
5.781384
 21
4.255956999999999
 31
0.0
  0
LINE
  5
3DE
330
B
100
AcDbEntity
 67
     1
  8
1
  6
Continuous
 62
    18
100
AcDbLine
 10
2.339733999999999
 20
5.77584
 30
0.0
 11
2.283185
 21
5.734952999999999
 31
0.0
  0
LINE
  5
3DF
330
B
100
AcDbEntity
 67
     1
  8
1
  6
Continuous
 62
    18
100
AcDbLine
 10
2.133084
 20
4.00624
 30
0.0
 11
2.135950999999999
 21
4.00624
 31
0.0
  0
LINE
  5
3E0
330
B
100
AcDbEntity
 67
     1
  8
1
  6
Continuous
 62
    18
100
AcDbLine
 10
5.015109999999999
 20
3.747104
 30
0.0
 11
5.015118
 21
3.747066
 31
0.0
  0
LINE
  5
3E1
330
B
100
AcDbEntity
 67
     1
  8
1
  6
Continuous
 62
    18
100
AcDbLine
 10
5.768709999999999
 20
4.184623
 30
0.0
 11
5.782275
 21
4.184623
 31
0.0
  0
LINE
  5
3E2
330
B
100
AcDbEntity
 67
     1
  8
1
  6
Continuous
 62
    18
100
AcDbLine
 10
2.350114
 20
5.671625999999999
 30
0.0
 11
2.350109999999999
 21
5.671551999999999
 31
0.0
  0
LINE
  5
3E3
330
B
100
AcDbEntity
 67
     1
  8
1
  6
Continuous
 62
    18
100
AcDbLine
 10
5.150033
 20
4.097674999999999
 30
0.0
 11
5.150033
 21
4.101450999999999
 31
0.0
  0
LINE
  5
3E4
330
B
100
AcDbEntity
 67
     1
  8
1
  6
Continuous
 62
    18
100
AcDbLine
 10
2.353015
 20
3.804107
 30
0.0
 11
2.353015
 21
3.762804
 31
0.0
  0
LINE
  5
3E5
330
B
100
AcDbEntity
 67
     1
  8
1
  6
Continuous
 62
    18
100
AcDbLine
 10
5.129901999999999
 20
3.885730999999999
 30
0.0
 11
5.615198
 21
3.885730999999999
 31
0.0
  0
LINE
  5
3E6
330
B
100
AcDbEntity
 67
     1
  8
1
  6
Continuous
 62
    18
100
AcDbLine
 10
5.775824
 20
4.139801
 30
0.0
 11
5.775824
 21
3.848929
 31
0.0
  0
LINE
  5
3E7
330
B
100
AcDbEntity
 67
     1
  8
1
  6
Continuous
 62
    18
100
AcDbLine
 10
2.081141
 20
6.437281999999999
 30
0.0
 11
2.035572
 21
6.436487
 31
0.0
  0
LINE
  5
3E8
330
B
100
AcDbEntity
 67
     1
  8
1
  6
Continuous
 62
    18
100
AcDbLine
 10
2.352825999999999
 20
3.750720999999999
 30
0.0
 11
2.353015
 21
3.752084999999999
 31
0.0
  0
LINE
  5
3E9
330
B
100
AcDbEntity
 67
     1
  8
1
  6
Continuous
 62
    18
100
AcDbLine
 10
2.361881
 20
3.692846999999999
 30
0.0
 11
2.362324999999999
 21
3.686920999999999
 31
0.0
  0
LINE
  5
3EA
330
B
100
AcDbEntity
 67
     1
  8
1
  6
Continuous
 62
    18
100
AcDbLine
 10
5.728458999999999
 20
4.235616999999999
 30
0.0
 11
5.729981999999999
 21
4.23714
 31
0.0
  0
LINE
  5
3EB
330
B
100
AcDbEntity
 67
     1
  8
1
  6
Continuous
 62
    18
100
AcDbLine
 10
2.408015
 20
4.253639999999999
 30
0.0
 11
2.408015
 21
4.231626999999999
 31
0.0
  0
LINE
  5
3EC
330
B
100
AcDbEntity
 67
     1
  8
1
  6
Continuous
 62
    18
100
AcDbLine
 10
2.035572
 20
6.431051999999999
 30
0.0
 11
2.028747
 21
6.428082999999999
 31
0.0
  0
LINE
  5
3ED
330
B
100
AcDbEntity
 67
     1
  8
1
  6
Continuous
 62
    18
100
AcDbLine
 10
2.094233
 20
6.282201999999999
 30
0.0
 11
2.150781
 21
6.323088999999999
 31
0.0
  0
LINE
  5
3EE
330
B
100
AcDbEntity
 67
     1
  8
1
  6
Continuous
 62
    18
100
AcDbLine
 10
2.156824
 20
3.938812
 30
0.0
 11
2.156824
 21
3.962301
 31
0.0
  0
LINE
  5
3EF
330
B
100
AcDbEntity
 67
     1
  8
1
  6
Continuous
 62
    18
100
AcDbLine
 10
5.135576
 20
4.318456999999999
 30
0.0
 11
5.146311999999999
 21
4.318456999999999
 31
0.0
  0
LINE
  5
3F0
330
B
100
AcDbEntity
 67
     1
  8
1
  6
Continuous
 62
    18
100
AcDbLine
 10
2.085952999999999
 20
6.386454
 30
0.0
 11
2.071593
 21
6.386703999999999
 31
0.0
  0
LINE
  5
3F1
330
B
100
AcDbEntity
 67
     1
  8
1
  6
Continuous
 62
    18
100
AcDbLine
 10
1.872902999999999
 20
4.147213999999999
 30
0.0
 11
1.874674
 21
4.147369
 31
0.0
  0
LINE
  5
3F2
330
B
100
AcDbEntity
 67
     1
  8
1
  6
Continuous
 62
    18
100
AcDbLine
 10
4.978067
 20
3.699275
 30
0.0
 11
4.975019
 21
3.713710999999999
 31
0.0
  0
LINE
  5
3F3
330
B
100
AcDbEntity
 67
     1
  8
1
  6
Continuous
 62
    18
100
AcDbLine
 10
5.615198
 20
4.109205
 30
0.0
 11
5.615198
 21
4.102998999999999
 31
0.0
  0
LINE
  5
3F4
330
B
100
AcDbEntity
 67
     1
  8
1
  6
Continuous
 62
    18
100
AcDbLine
 10
2.261983
 20
5.826643999999999
 30
0.0
 11
2.261983
 21
5.828641999999999
 31
0.0
  0
LINE
  5
3F5
330
B
100
AcDbEntity
 67
     1
  8
1
  6
Continuous
 62
    18
100
AcDbLine
 10
2.352825999999999
 20
5.620759999999999
 30
0.0
 11
2.398393999999999
 21
5.621555999999999
 31
0.0
  0
LINE
  5
3F6
330
B
100
AcDbEntity
 67
     1
  8
1
  6
Continuous
 62
    18
100
AcDbLine
 10
2.131861
 20
4.107874999999999
 30
0.0
 11
2.145776999999999
 21
4.113853999999999
 31
0.0
  0
LINE
  5
3F7
330
B
100
AcDbEntity
 67
     1
  8
1
  6
Continuous
 62
    18
100
AcDbLine
 10
2.056191999999999
 20
3.670793
 30
0.0
 11
2.041595
 21
3.671047
 31
0.0
  0
LINE
  5
3F8
330
B
100
AcDbEntity
 67
     1
  8
1
  6
Continuous
 62
    18
100
AcDbLine
 10
2.216983
 20
4.105099
 30
0.0
 11
2.145776999999999
 21
4.103855999999999
 31
0.0
  0
LINE
  5
3F9
330
B
100
AcDbEntity
 67
     1
  8
1
  6
Continuous
 62
    18
100
AcDbLine
 10
5.121463999999999
 20
3.897266
 30
0.0
 11
5.121463999999999
 21
4.091465
 31
0.0
  0
LINE
  5
3FA
330
B
100
AcDbEntity
 67
     1
  8
1
  6
Continuous
 62
    18
100
AcDbLine
 10
2.162508
 20
6.326299999999999
 30
0.0
 11
2.157877
 21
6.32634
 31
0.0
  0
LINE
  5
3FB
330
B
100
AcDbEntity
 67
     1
  8
1
  6
Continuous
 62
    18
100
AcDbLine
 10
4.954565
 20
3.840916999999999
 30
0.0
 11
4.95225
 21
3.841362
 31
0.0
  0
LINE
  5
3FC
330
B
100
AcDbEntity
 67
     1
  8
1
  6
Continuous
 62
    18
100
AcDbLine
 10
2.348014
 20
5.671588999999999
 30
0.0
 11
2.362372999999999
 21
5.671337999999999
 31
0.0
  0
LINE
  5
3FD
330
B
100
AcDbEntity
 67
     1
  8
1
  6
Continuous
 62
    18
100
AcDbLine
 10
2.057266999999999
 20
4.165351999999999
 30
0.0
 11
2.057266999999999
 21
4.255916
 31
0.0
  0
LINE
  5
3FE
330
B
100
AcDbEntity
 67
     1
  8
1
  6
Continuous
 62
    18
100
AcDbLine
 10
5.620712
 20
4.098526999999999
 30
0.0
 11
5.613648999999999
 21
4.101450999999999
 31
0.0
  0
LINE
  5
3FF
330
B
100
AcDbEntity
 67
     1
  8
1
  6
Continuous
 62
    18
100
AcDbLine
 10
2.647333
 20
6.428683
 30
0.0
 11
2.647333
 21
6.428278999999999
 31
0.0
  0
LINE
  5
400
330
B
100
AcDbEntity
 67
     1
  8
1
  6
Continuous
 62
    18
100
AcDbLine
 10
4.962545999999999
 20
3.962068999999999
 30
0.0
 11
4.959401
 21
3.962301
 31
0.0
  0
LINE
  5
401
330
B
100
AcDbEntity
 67
     1
  8
1
  6
Continuous
 62
    18
100
AcDbLine
 10
1.622935
 20
4.271268
 30
0.0
 11
1.619031999999999
 21
4.276232
 31
0.0
  0
LINE
  5
402
330
B
100
AcDbEntity
 67
     1
  8
1
  6
Continuous
 62
    18
100
AcDbLine
 10
5.71835
 20
3.672795999999999
 30
0.0
 11
5.017641
 21
3.672795999999999
 31
0.0
  0
LINE
  5
403
330
B
100
AcDbEntity
 67
     1
  8
1
  6
Continuous
 62
    18
100
AcDbLine
 10
2.492563
 20
6.374821999999999
 30
0.0
 11
2.492563
 21
5.674112
 31
0.0
  0
LINE
  5
404
330
B
100
AcDbEntity
 67
     1
  8
1
  6
Continuous
 62
    18
100
AcDbLine
 10
2.135950999999999
 20
3.894873
 30
0.0
 11
2.138818999999999
 21
3.887864
 31
0.0
  0
LINE
  5
405
330
B
100
AcDbEntity
 67
     1
  8
1
  6
Continuous
 62
    18
100
AcDbLine
 10
4.973612
 20
3.821101999999999
 30
0.0
 11
4.973612
 21
3.766755999999999
 31
0.0
  0
LINE
  5
406
330
B
100
AcDbEntity
 67
     1
  8
1
  6
Continuous
 62
    18
100
AcDbLine
 10
2.216988
 20
3.673601
 30
0.0
 11
2.217007
 21
3.67283
 31
0.0
  0
LINE
  5
407
330
B
100
AcDbEntity
 67
     1
  8
1
  6
Continuous
 62
    18
100
AcDbLine
 10
2.073202
 20
3.670495999999999
 30
0.0
 11
2.056191999999999
 21
3.670793
 31
0.0
  0
LINE
  5
408
330
B
100
AcDbEntity
 67
     1
  8
1
  6
Continuous
 62
    18
100
AcDbLine
 10
5.727694999999999
 20
4.16814
 30
0.0
 11
5.784648999999999
 21
4.16814
 31
0.0
  0
LINE
  5
409
330
B
100
AcDbEntity
 67
     1
  8
1
  6
Continuous
 62
    18
100
AcDbLine
 10
1.874674
 20
3.841362
 30
0.0
 11
1.872902999999999
 21
3.841516999999999
 31
0.0
  0
LINE
  5
40A
330
B
100
AcDbEntity
 67
     1
  8
1
  6
Continuous
 62
    18
100
AcDbLine
 10
5.014069999999999
 20
4.253639999999999
 30
0.0
 11
4.980221
 21
4.253639999999999
 31
0.0
  0
LINE
  5
40B
330
B
100
AcDbEntity
 67
     1
  8
1
  6
Continuous
 62
    18
100
AcDbLine
 10
1.893184999999999
 20
3.839741999999999
 30
0.0
 11
2.062051999999999
 21
3.824968
 31
0.0
  0
LINE
  5
40C
330
B
100
AcDbEntity
 67
     1
  8
1
  6
Continuous
 62
    18
100
AcDbLine
 10
2.131861
 20
3.968472
 30
0.0
 11
2.126125999999999
 21
3.982491
 31
0.0
  0
LINE
  5
40D
330
B
100
AcDbEntity
 67
     1
  8
1
  6
Continuous
 62
    18
100
AcDbLine
 10
5.727694999999999
 20
4.16814
 30
0.0
 11
5.709668999999999
 21
4.16814
 31
0.0
  0
LINE
  5
40E
330
B
100
AcDbEntity
 67
     1
  8
1
  6
Continuous
 62
    18
100
AcDbLine
 10
2.404615999999999
 20
3.839223999999999
 30
0.0
 11
2.408015
 21
3.821101999999999
 31
0.0
  0
LINE
  5
40F
330
B
100
AcDbEntity
 67
     1
  8
1
  6
Continuous
 62
    18
100
AcDbLine
 10
1.786633
 20
3.849063999999999
 30
0.0
 11
1.786633
 21
4.139666
 31
0.0
  0
LINE
  5
410
330
B
100
AcDbEntity
 67
     1
  8
1
  6
Continuous
 62
    18
100
AcDbLine
 10
2.091206
 20
6.241747
 30
0.0
 11
2.085950999999999
 21
6.255258999999999
 31
0.0
  0
LINE
  5
411
330
B
100
AcDbEntity
 67
     1
  8
1
  6
Continuous
 62
    18
100
AcDbLine
 10
2.145776999999999
 20
3.928620999999999
 30
0.0
 11
2.138818999999999
 21
3.925631999999999
 31
0.0
  0
LINE
  5
412
330
B
100
AcDbEntity
 67
     1
  8
1
  6
Continuous
 62
    18
100
AcDbLine
 10
5.692722999999999
 20
4.271268
 30
0.0
 11
5.692722999999999
 21
3.717462
 31
0.0
  0
LINE
  5
413
330
B
100
AcDbEntity
 67
     1
  8
1
  6
Continuous
 62
    18
100
AcDbLine
 10
1.786633
 20
5.629359
 30
0.0
 11
1.786633
 21
5.629762999999999
 31
0.0
  0
LINE
  5
414
330
B
100
AcDbEntity
 67
     1
  8
1
  6
Continuous
 62
    18
100
AcDbLine
 10
2.268726
 20
3.939755999999999
 30
0.0
 11
2.216983
 21
3.93523
 31
0.0
  0
LINE
  5
415
330
B
100
AcDbEntity
 67
     1
  8
1
  6
Continuous
 62
    18
100
AcDbLine
 10
5.769988999999999
 20
3.756556999999999
 30
0.0
 11
5.769988999999999
 21
3.800862
 31
0.0
  0
LINE
  5
416
330
B
100
AcDbEntity
 67
     1
  8
1
  6
Continuous
 62
    18
100
AcDbLine
 10
2.085950999999999
 20
4.318456999999999
 30
0.0
 11
2.159329
 21
4.317175999999999
 31
0.0
  0
LINE
  5
417
330
B
100
AcDbEntity
 67
     1
  8
1
  6
Continuous
 62
    18
100
AcDbLine
 10
2.353015
 20
5.620449999999999
 30
0.0
 11
2.352825999999999
 21
5.620759999999999
 31
0.0
  0
LINE
  5
418
330
B
100
AcDbEntity
 67
     1
  8
1
  6
Continuous
 62
    18
100
AcDbLine
 10
2.085950999999999
 20
3.670273
 30
0.0
 11
2.08592
 21
3.670273999999999
 31
0.0
  0
LINE
  5
419
330
B
100
AcDbEntity
 67
     1
  8
1
  6
Continuous
 62
    18
100
AcDbLine
 10
5.615198
 20
3.865758999999999
 30
0.0
 11
5.129901999999999
 21
3.865758999999999
 31
0.0
  0
LINE
  5
41A
330
B
100
AcDbEntity
 67
     1
  8
1
  6
Continuous
 62
    18
100
AcDbLine
 10
2.348015
 20
4.23714
 30
0.0
 11
2.348015
 21
4.241665
 31
0.0
  0
LINE
  5
41B
330
B
100
AcDbEntity
 67
     1
  8
1
  6
Continuous
 62
    18
100
AcDbLine
 10
2.145849
 20
4.05718
 30
0.0
 11
2.145776999999999
 21
4.050111
 31
0.0
  0
LINE
  5
41C
330
B
100
AcDbEntity
 67
     1
  8
1
  6
Continuous
 62
    18
100
AcDbLine
 10
2.3483
 20
3.805808999999999
 30
0.0
 11
2.348015
 21
3.800862
 31
0.0
  0
LINE
  5
41D
330
B
100
AcDbEntity
 67
     1
  8
1
  6
Continuous
 62
    18
100
AcDbLine
 10
4.983693999999999
 20
3.716968
 30
0.0
 11
4.986482999999999
 21
3.701311
 31
0.0
  0
LINE
  5
41E
330
B
100
AcDbEntity
 67
     1
  8
1
  6
Continuous
 62
    18
100
AcDbLine
 10
2.205950999999999
 20
3.939498
 30
0.0
 11
2.203084
 21
3.932488999999999
 31
0.0
  0
LINE
  5
41F
330
B
100
AcDbEntity
 67
     1
  8
1
  6
Continuous
 62
    18
100
AcDbLine
 10
5.027305999999999
 20
4.277744999999999
 30
0.0
 11
5.024376999999999
 21
4.270673999999999
 31
0.0
  0
LINE
  5
420
330
B
100
AcDbEntity
 67
     1
  8
1
  6
Continuous
 62
    18
100
AcDbLine
 10
2.878483
 20
4.270673999999999
 30
0.0
 11
2.878483
 21
3.718055999999999
 31
0.0
  0
LINE
  5
421
330
B
100
AcDbEntity
 67
     1
  8
1
  6
Continuous
 62
    18
100
AcDbLine
 10
4.962545999999999
 20
3.824716999999999
 30
0.0
 11
4.962545999999999
 21
4.164013999999999
 31
0.0
  0
LINE
  5
422
330
B
100
AcDbEntity
 67
     1
  8
1
  6
Continuous
 62
    18
100
AcDbLine
 10
2.026258
 20
5.676393
 30
0.0
 11
1.941403
 21
5.683220999999999
 31
0.0
  0
LINE
  5
423
330
B
100
AcDbEntity
 67
     1
  8
1
  6
Continuous
 62
    18
100
AcDbLine
 10
4.958164
 20
4.255415
 30
0.0
 11
4.962716999999999
 21
4.253128
 31
0.0
  0
LINE
  5
424
330
B
100
AcDbEntity
 67
     1
  8
1
  6
Continuous
 62
    18
100
AcDbLine
 10
4.962545999999999
 20
3.931533999999999
 30
0.0
 11
4.960220999999999
 21
3.934848
 31
0.0
  0
LINE
  5
425
330
B
100
AcDbEntity
 67
     1
  8
1
  6
Continuous
 62
    18
100
AcDbLine
 10
2.290437999999999
 20
6.426231999999999
 30
0.0
 11
2.348015
 21
6.427843
 31
0.0
  0
LINE
  5
426
330
B
100
AcDbEntity
 67
     1
  8
1
  6
Continuous
 62
    18
100
AcDbLine
 10
4.968051999999999
 20
4.233289
 30
0.0
 11
4.974785999999999
 21
4.231626999999999
 31
0.0
  0
LINE
  5
427
330
B
100
AcDbEntity
 67
     1
  8
1
  6
Continuous
 62
    18
100
AcDbLine
 10
5.766664999999999
 20
3.670793
 30
0.0
 11
5.756836999999999
 21
3.671047
 31
0.0
  0
LINE
  5
428
330
B
100
AcDbEntity
 67
     1
  8
1
  6
Continuous
 62
    18
100
AcDbLine
 10
5.618533
 20
4.071864999999999
 30
0.0
 11
5.618533
 21
4.088865
 31
0.0
  0
LINE
  5
429
330
B
100
AcDbEntity
 67
     1
  8
1
  6
Continuous
 62
    18
100
AcDbLine
 10
4.962824999999999
 20
4.184623
 30
0.0
 11
4.962746
 21
4.179641999999999
 31
0.0
  0
LINE
  5
42A
330
B
100
AcDbEntity
 67
     1
  8
1
  6
Continuous
 62
    18
100
AcDbLine
 10
2.073202
 20
3.670495999999999
 30
0.0
 11
2.08592
 21
3.670273999999999
 31
0.0
  0
LINE
  5
42B
330
B
100
AcDbEntity
 67
     1
  8
1
  6
Continuous
 62
    18
100
AcDbLine
 10
2.216988
 20
4.315128999999999
 30
0.0
 11
2.217007
 21
4.3159
 31
0.0
  0
LINE
  5
42C
330
B
100
AcDbEntity
 67
     1
  8
1
  6
Continuous
 62
    18
100
AcDbLine
 10
5.780810999999999
 20
3.750720999999999
 30
0.0
 11
5.781119999999999
 21
3.752084999999999
 31
0.0
  0
LINE
  5
42D
330
B
100
AcDbEntity
 67
     1
  8
1
  6
Continuous
 62
    18
100
AcDbLine
 10
2.145776999999999
 20
3.928620999999999
 30
0.0
 11
2.138818999999999
 21
3.925631999999999
 31
0.0
  0
LINE
  5
42E
330
B
100
AcDbEntity
 67
     1
  8
1
  6
Continuous
 62
    18
100
AcDbLine
 10
5.595032999999999
 20
3.892365
 30
0.0
 11
5.595032999999999
 21
3.891055999999999
 31
0.0
  0
LINE
  5
42F
330
B
100
AcDbEntity
 67
     1
  8
1
  6
Continuous
 62
    18
100
AcDbLine
 10
5.781119999999999
 20
3.752084999999999
 30
0.0
 11
5.782275
 21
3.762804
 31
0.0
  0
LINE
  5
430
330
B
100
AcDbEntity
 67
     1
  8
1
  6
Continuous
 62
    18
100
AcDbLine
 10
2.145776999999999
 20
3.884875
 30
0.0
 11
2.216983
 21
3.883632
 31
0.0
  0
LINE
  5
431
330
B
100
AcDbEntity
 67
     1
  8
1
  6
Continuous
 62
    18
100
AcDbLine
 10
2.145776999999999
 20
4.060109999999999
 30
0.0
 11
2.145849
 21
4.05718
 31
0.0
  0
LINE
  5
432
330
B
100
AcDbEntity
 67
     1
  8
1
  6
Continuous
 62
    18
100
AcDbLine
 10
4.959208
 20
4.026237
 30
0.0
 11
4.959401
 21
4.02643
 31
0.0
  0
LINE
  5
433
330
B
100
AcDbEntity
 67
     1
  8
1
  6
Continuous
 62
    18
100
AcDbLine
 10
1.555482999999999
 20
6.374265
 30
0.0
 11
1.555482999999999
 21
6.377194
 31
0.0
  0
LINE
  5
434
330
B
100
AcDbEntity
 67
     1
  8
1
  6
Continuous
 62
    18
100
AcDbLine
 10
2.175688
 20
4.049654
 30
0.0
 11
2.156824
 21
4.049917999999999
 31
0.0
  0
LINE
  5
435
330
B
100
AcDbEntity
 67
     1
  8
1
  6
Continuous
 62
    18
100
AcDbLine
 10
2.025951
 20
5.669186999999999
 30
0.0
 11
1.893184999999999
 21
5.658037999999999
 31
0.0
  0
LINE
  5
436
330
B
100
AcDbEntity
 67
     1
  8
1
  6
Continuous
 62
    18
100
AcDbLine
 10
5.775824
 20
3.848929
 30
0.0
 11
5.772212
 21
3.849063999999999
 31
0.0
  0
LINE
  5
437
330
B
100
AcDbEntity
 67
     1
  8
1
  6
Continuous
 62
    18
100
AcDbLine
 10
2.145776999999999
 20
3.874876
 30
0.0
 11
2.145849
 21
3.881944999999999
 31
0.0
  0
LINE
  5
438
330
B
100
AcDbEntity
 67
     1
  8
1
  6
Continuous
 62
    18
100
AcDbLine
 10
5.017405
 20
3.82059
 30
0.0
 11
5.017405
 21
3.822801999999999
 31
0.0
  0
LINE
  5
439
330
B
100
AcDbEntity
 67
     1
  8
1
  6
Continuous
 62
    18
100
AcDbLine
 10
5.395439999999999
 20
3.984365
 30
0.0
 11
5.395439999999999
 21
3.994365
 31
0.0
  0
LINE
  5
43A
330
B
100
AcDbEntity
 67
     1
  8
1
  6
Continuous
 62
    18
100
AcDbLine
 10
2.393397999999999
 20
4.148643999999999
 30
0.0
 11
2.39819
 21
4.167627999999999
 31
0.0
  0
LINE
  5
43B
330
B
100
AcDbEntity
 67
     1
  8
1
  6
Continuous
 62
    18
100
AcDbLine
 10
2.405148
 20
4.167627999999999
 30
0.0
 11
2.408015
 21
4.167627999999999
 31
0.0
  0
LINE
  5
43C
330
B
100
AcDbEntity
 67
     1
  8
1
  6
Continuous
 62
    18
100
AcDbLine
 10
5.618533
 20
4.071864999999999
 30
0.0
 11
5.618533
 21
3.916864999999999
 31
0.0
  0
LINE
  5
43D
330
B
100
AcDbEntity
 67
     1
  8
1
  6
Continuous
 62
    18
100
AcDbLine
 10
2.196126
 20
4.017116999999999
 30
0.0
 11
2.203084
 21
4.020106
 31
0.0
  0
LINE
  5
43E
330
B
100
AcDbEntity
 67
     1
  8
1
  6
Continuous
 62
    18
100
AcDbLine
 10
5.015109999999999
 20
4.179641999999999
 30
0.0
 11
5.017405
 21
4.16814
 31
0.0
  0
LINE
  5
43F
330
B
100
AcDbEntity
 67
     1
  8
1
  6
Continuous
 62
    18
100
AcDbLine
 10
5.015153999999999
 20
4.237176999999999
 30
0.0
 11
5.01503
 21
4.237176999999999
 31
0.0
  0
LINE
  5
440
330
B
100
AcDbEntity
 67
     1
  8
1
  6
Continuous
 62
    18
100
AcDbLine
 10
2.408015
 20
6.391002999999999
 30
0.0
 11
2.408015
 21
6.381624999999999
 31
0.0
  0
LINE
  5
441
330
B
100
AcDbEntity
 67
     1
  8
1
  6
Continuous
 62
    18
100
AcDbLine
 10
2.217007
 20
4.3159
 30
0.0
 11
2.216983
 21
4.316169999999999
 31
0.0
  0
LINE
  5
442
330
B
100
AcDbEntity
 67
     1
  8
1
  6
Continuous
 62
    18
100
AcDbLine
 10
5.725153999999999
 20
3.732267999999999
 30
0.0
 11
5.734530999999999
 21
3.732267999999999
 31
0.0
  0
LINE
  5
443
330
B
100
AcDbEntity
 67
     1
  8
1
  6
Continuous
 62
    18
100
AcDbLine
 10
2.035572
 20
6.436487
 30
0.0
 11
2.035572
 21
6.431051999999999
 31
0.0
  0
LINE
  5
444
330
B
100
AcDbEntity
 67
     1
  8
1
  6
Continuous
 62
    18
100
AcDbLine
 10
5.729981999999999
 20
4.23714
 30
0.0
 11
5.729981999999999
 21
4.241665
 31
0.0
  0
LINE
  5
445
330
B
100
AcDbEntity
 67
     1
  8
1
  6
Continuous
 62
    18
100
AcDbLine
 10
2.408015
 20
4.231626999999999
 30
0.0
 11
2.408015
 21
4.221973999999999
 31
0.0
  0
LINE
  5
446
330
B
100
AcDbEntity
 67
     1
  8
1
  6
Continuous
 62
    18
100
AcDbLine
 10
2.028747
 20
6.428082999999999
 30
0.0
 11
2.025951
 21
6.42135
 31
0.0
  0
LINE
  5
447
330
B
100
AcDbEntity
 67
     1
  8
1
  6
Continuous
 62
    18
100
AcDbLine
 10
2.150781
 20
6.323088999999999
 30
0.0
 11
2.162325
 21
6.326881
 31
0.0
  0
LINE
  5
448
330
B
100
AcDbEntity
 67
     1
  8
1
  6
Continuous
 62
    18
100
AcDbLine
 10
2.156824
 20
3.962301
 30
0.0
 11
2.145776999999999
 21
3.962494
 31
0.0
  0
LINE
  5
449
330
B
100
AcDbEntity
 67
     1
  8
1
  6
Continuous
 62
    18
100
AcDbLine
 10
5.784648999999999
 20
4.16814
 30
0.0
 11
5.782353999999999
 21
4.179641999999999
 31
0.0
  0
LINE
  5
44A
330
B
100
AcDbEntity
 67
     1
  8
1
  6
Continuous
 62
    18
100
AcDbLine
 10
5.71835
 20
4.315933999999999
 30
0.0
 11
5.017641
 21
4.315933999999999
 31
0.0
  0
LINE
  5
44B
330
B
100
AcDbEntity
 67
     1
  8
1
  6
Continuous
 62
    18
100
AcDbLine
 10
2.216983
 20
6.384166
 30
0.0
 11
2.216983
 21
6.419583
 31
0.0
  0
LINE
  5
44C
330
B
100
AcDbEntity
 67
     1
  8
1
  6
Continuous
 62
    18
100
AcDbLine
 10
4.975019
 20
3.713710999999999
 30
0.0
 11
4.970519999999999
 21
3.732694999999999
 31
0.0
  0
LINE
  5
44D
330
B
100
AcDbEntity
 67
     1
  8
1
  6
Continuous
 62
    18
100
AcDbLine
 10
2.345920999999999
 20
5.790504
 30
0.0
 11
2.347961
 21
5.790504
 31
0.0
  0
LINE
  5
44E
330
B
100
AcDbEntity
 67
     1
  8
1
  6
Continuous
 62
    18
100
AcDbLine
 10
2.398393999999999
 20
5.621555999999999
 30
0.0
 11
2.398393999999999
 21
5.626991
 31
0.0
  0
LINE
  5
44F
330
B
100
AcDbEntity
 67
     1
  8
1
  6
Continuous
 62
    18
100
AcDbLine
 10
1.941403
 20
3.714682999999999
 30
0.0
 11
1.941403
 21
3.672795999999999
 31
0.0
  0
LINE
  5
450
330
B
100
AcDbEntity
 67
     1
  8
1
  6
Continuous
 62
    18
100
AcDbLine
 10
2.056191999999999
 20
5.634905999999999
 30
0.0
 11
2.073202
 21
5.630865
 31
0.0
  0
LINE
  5
451
330
B
100
AcDbEntity
 67
     1
  8
1
  6
Continuous
 62
    18
100
AcDbLine
 10
5.131451
 20
3.88728
 30
0.0
 11
5.129901999999999
 21
3.885730999999999
 31
0.0
  0
LINE
  5
452
330
B
100
AcDbEntity
 67
     1
  8
1
  6
Continuous
 62
    18
100
AcDbLine
 10
2.878483
 20
5.680848
 30
0.0
 11
2.492563
 21
5.674112
 31
0.0
  0
LINE
  5
453
330
B
100
AcDbEntity
 67
     1
  8
1
  6
Continuous
 62
    18
100
AcDbLine
 10
4.95225
 20
3.841362
 30
0.0
 11
4.946954999999999
 21
3.841516999999999
 31
0.0
  0
LINE
  5
454
330
B
100
AcDbEntity
 67
     1
  8
1
  6
Continuous
 62
    18
100
AcDbLine
 10
5.131451
 20
4.101450999999999
 30
0.0
 11
5.124387999999999
 21
4.098526999999999
 31
0.0
  0
LINE
  5
455
330
B
100
AcDbEntity
 67
     1
  8
1
  6
Continuous
 62
    18
100
AcDbLine
 10
2.647333
 20
6.428683
 30
0.0
 11
2.645791
 21
6.432294999999999
 31
0.0
  0
LINE
  5
456
330
B
100
AcDbEntity
 67
     1
  8
1
  6
Continuous
 62
    18
100
AcDbLine
 10
4.959401
 20
3.938812
 30
0.0
 11
4.962545999999999
 21
3.939044
 31
0.0
  0
LINE
  5
457
330
B
100
AcDbEntity
 67
     1
  8
1
  6
Continuous
 62
    18
100
AcDbLine
 10
5.728458999999999
 20
3.753114
 30
0.0
 11
5.728291999999999
 21
3.754733999999999
 31
0.0
  0
LINE
  5
458
330
B
100
AcDbEntity
 67
     1
  8
1
  6
Continuous
 62
    18
100
AcDbLine
 10
5.135576
 20
3.670273
 30
0.0
 11
5.146311999999999
 21
3.670273
 31
0.0
  0
LINE
  5
459
330
B
100
AcDbEntity
 67
     1
  8
1
  6
Continuous
 62
    18
100
AcDbLine
 10
2.840174
 20
6.336823
 30
0.0
 11
2.492563
 21
6.364796
 31
0.0
  0
LINE
  5
45A
330
B
100
AcDbEntity
 67
     1
  8
1
  6
Continuous
 62
    18
100
AcDbLine
 10
2.216983
 20
5.616921999999999
 30
0.0
 11
2.348450999999999
 21
5.619216999999999
 31
0.0
  0
LINE
  5
45B
330
B
100
AcDbEntity
 67
     1
  8
1
  6
Continuous
 62
    18
100
AcDbLine
 10
2.878483
 20
4.270673999999999
 30
0.0
 11
2.492563
 21
4.274041999999999
 31
0.0
  0
LINE
  5
45C
330
B
100
AcDbEntity
 67
     1
  8
1
  6
Continuous
 62
    18
100
AcDbLine
 10
1.555482999999999
 20
5.73748
 30
0.0
 11
1.593792
 21
5.721219
 31
0.0
  0
LINE
  5
45D
330
B
100
AcDbEntity
 67
     1
  8
1
  6
Continuous
 62
    18
100
AcDbLine
 10
5.727694999999999
 20
4.253128
 30
0.0
 11
5.729989999999999
 21
4.241626
 31
0.0
  0
LINE
  5
45E
330
B
100
AcDbEntity
 67
     1
  8
1
  6
Continuous
 62
    18
100
AcDbLine
 10
2.029497999999999
 20
4.256401
 30
0.0
 11
2.025951
 21
4.256463
 31
0.0
  0
LINE
  5
45F
330
B
100
AcDbEntity
 67
     1
  8
1
  6
Continuous
 62
    18
100
AcDbLine
 10
1.593792
 20
5.721219
 30
0.0
 11
1.941403
 21
5.693246
 31
0.0
  0
LINE
  5
460
330
B
100
AcDbEntity
 67
     1
  8
1
  6
Continuous
 62
    18
100
AcDbLine
 10
2.202227999999999
 20
3.939445999999999
 30
0.0
 11
2.205950999999999
 21
3.939498
 31
0.0
  0
LINE
  5
461
330
B
100
AcDbEntity
 67
     1
  8
1
  6
Continuous
 62
    18
100
AcDbLine
 10
5.018762999999999
 20
3.822754
 30
0.0
 11
5.015125
 21
3.804633
 31
0.0
  0
LINE
  5
462
330
B
100
AcDbEntity
 67
     1
  8
1
  6
Continuous
 62
    18
100
AcDbLine
 10
2.350114
 20
3.751554
 30
0.0
 11
2.350114
 21
3.804630999999999
 31
0.0
  0
LINE
  5
463
330
B
100
AcDbEntity
 67
     1
  8
1
  6
Continuous
 62
    18
100
AcDbLine
 10
1.852958
 20
3.843262
 30
0.0
 11
1.852958
 21
4.145469
 31
0.0
  0
LINE
  5
464
330
B
100
AcDbEntity
 67
     1
  8
1
  6
Continuous
 62
    18
100
AcDbLine
 10
2.362372999999999
 20
5.671337999999999
 30
0.0
 11
2.380129999999999
 21
5.671027999999999
 31
0.0
  0
LINE
  5
465
330
B
100
AcDbEntity
 67
     1
  8
1
  6
Continuous
 62
    18
100
AcDbLine
 10
4.960080999999999
 20
3.966577999999999
 30
0.0
 11
4.962545999999999
 21
3.969948999999999
 31
0.0
  0
LINE
  5
466
330
B
100
AcDbEntity
 67
     1
  8
1
  6
Continuous
 62
    18
100
AcDbLine
 10
5.692722999999999
 20
4.271268
 30
0.0
 11
5.691066
 21
4.276232
 31
0.0
  0
LINE
  5
467
330
B
100
AcDbEntity
 67
     1
  8
1
  6
Continuous
 62
    18
100
AcDbLine
 10
2.350114
 20
4.184098999999999
 30
0.0
 11
2.3483
 21
4.182922
 31
0.0
  0
LINE
  5
468
330
B
100
AcDbEntity
 67
     1
  8
1
  6
Continuous
 62
    18
100
AcDbLine
 10
5.781119999999999
 20
4.236644999999999
 30
0.0
 11
5.767026
 21
4.236644999999999
 31
0.0
  0
LINE
  5
469
330
B
100
AcDbEntity
 67
     1
  8
1
  6
Continuous
 62
    18
100
AcDbLine
 10
5.129901999999999
 20
3.885730999999999
 30
0.0
 11
5.129901999999999
 21
3.879526
 31
0.0
  0
LINE
  5
46A
330
B
100
AcDbEntity
 67
     1
  8
1
  6
Continuous
 62
    18
100
AcDbLine
 10
2.362372999999999
 20
5.645103999999999
 30
0.0
 11
2.380129999999999
 21
5.644679
 31
0.0
  0
LINE
  5
46B
330
B
100
AcDbEntity
 67
     1
  8
1
  6
Continuous
 62
    18
100
AcDbLine
 10
2.156824
 20
3.928814
 30
0.0
 11
2.145776999999999
 21
3.928620999999999
 31
0.0
  0
LINE
  5
46C
330
B
100
AcDbEntity
 67
     1
  8
1
  6
Continuous
 62
    18
100
AcDbLine
 10
4.979025
 20
3.673601
 30
0.0
 11
4.980413999999999
 21
3.67283
 31
0.0
  0
LINE
  5
46D
330
B
100
AcDbEntity
 67
     1
  8
1
  6
Continuous
 62
    18
100
AcDbLine
 10
5.015118
 20
4.318456999999999
 30
0.0
 11
5.135576
 21
4.318456999999999
 31
0.0
  0
LINE
  5
46E
330
B
100
AcDbEntity
 67
     1
  8
1
  6
Continuous
 62
    18
100
AcDbLine
 10
5.129901999999999
 20
3.865758999999999
 30
0.0
 11
5.114916
 21
3.869769999999999
 31
0.0
  0
LINE
  5
46F
330
B
100
AcDbEntity
 67
     1
  8
1
  6
Continuous
 62
    18
100
AcDbLine
 10
2.348015
 20
4.304705999999999
 30
0.0
 11
2.348015
 21
4.318456999999999
 31
0.0
  0
LINE
  5
470
330
B
100
AcDbEntity
 67
     1
  8
1
  6
Continuous
 62
    18
100
AcDbLine
 10
2.247183
 20
3.758316999999999
 30
0.0
 11
2.348015
 21
3.756556999999999
 31
0.0
  0
LINE
  5
471
330
B
100
AcDbEntity
 67
     1
  8
1
  6
Continuous
 62
    18
100
AcDbLine
 10
4.986482999999999
 20
3.701311
 30
0.0
 11
4.988207
 21
3.690247
 31
0.0
  0
LINE
  5
472
330
B
100
AcDbEntity
 67
     1
  8
1
  6
Continuous
 62
    18
100
AcDbLine
 10
5.020678
 20
3.824601999999999
 30
0.0
 11
5.020678
 21
4.164127999999999
 31
0.0
  0
LINE
  5
473
330
B
100
AcDbEntity
 67
     1
  8
1
  6
Continuous
 62
    18
100
AcDbLine
 10
1.619031999999999
 20
5.710505
 30
0.0
 11
1.608366
 21
5.715033
 31
0.0
  0
LINE
  5
474
330
B
100
AcDbEntity
 67
     1
  8
1
  6
Continuous
 62
    18
100
AcDbLine
 10
1.876645
 20
4.147541
 30
0.0
 11
1.876645
 21
3.841188999999999
 31
0.0
  0
LINE
  5
475
330
B
100
AcDbEntity
 67
     1
  8
1
  6
Continuous
 62
    18
100
AcDbLine
 10
2.361675999999999
 20
4.12778
 30
0.0
 11
2.362241
 21
4.120741999999999
 31
0.0
  0
LINE
  5
476
330
B
100
AcDbEntity
 67
     1
  8
1
  6
Continuous
 62
    18
100
AcDbLine
 10
5.692722999999999
 20
3.717462
 30
0.0
 11
5.71835
 21
3.714682999999999
 31
0.0
  0
LINE
  5
477
330
B
100
AcDbEntity
 67
     1
  8
1
  6
Continuous
 62
    18
100
AcDbLine
 10
2.878483
 20
3.718055999999999
 30
0.0
 11
2.878483
 21
3.710986
 31
0.0
  0
LINE
  5
478
330
B
100
AcDbEntity
 67
     1
  8
1
  6
Continuous
 62
    18
100
AcDbLine
 10
4.962716999999999
 20
4.253128
 30
0.0
 11
4.965010999999999
 21
4.241626
 31
0.0
  0
LINE
  5
479
330
B
100
AcDbEntity
 67
     1
  8
1
  6
Continuous
 62
    18
100
AcDbLine
 10
4.960220999999999
 20
3.934848
 30
0.0
 11
4.959401
 21
3.938812
 31
0.0
  0
LINE
  5
47A
330
B
100
AcDbEntity
 67
     1
  8
1
  6
Continuous
 62
    18
100
AcDbLine
 10
2.353015
 20
5.619297
 30
0.0
 11
2.353015
 21
5.620449999999999
 31
0.0
  0
LINE
  5
47B
330
B
100
AcDbEntity
 67
     1
  8
1
  6
Continuous
 62
    18
100
AcDbLine
 10
4.970519999999999
 20
4.256035999999999
 30
0.0
 11
4.973487
 21
4.255302999999999
 31
0.0
  0
LINE
  5
47C
330
B
100
AcDbEntity
 67
     1
  8
1
  6
Continuous
 62
    18
100
AcDbLine
 10
5.756836999999999
 20
3.671047
 30
0.0
 11
5.742421
 21
3.671229
 31
0.0
  0
LINE
  5
47D
330
B
100
AcDbEntity
 67
     1
  8
1
  6
Continuous
 62
    18
100
AcDbLine
 10
4.960450999999999
 20
4.16814
 30
0.0
 11
4.962746
 21
4.179641999999999
 31
0.0
  0
LINE
  5
47E
330
B
100
AcDbEntity
 67
     1
  8
1
  6
Continuous
 62
    18
100
AcDbLine
 10
2.025951
 20
6.42135
 30
0.0
 11
2.025951
 21
6.426784999999999
 31
0.0
  0
LINE
  5
47F
330
B
100
AcDbEntity
 67
     1
  8
1
  6
Continuous
 62
    18
100
AcDbLine
 10
2.138818999999999
 20
3.925631999999999
 30
0.0
 11
2.135950999999999
 21
3.918622
 31
0.0
  0
LINE
  5
480
330
B
100
AcDbEntity
 67
     1
  8
1
  6
Continuous
 62
    18
100
AcDbLine
 10
4.959208
 20
3.874876
 30
0.0
 11
4.958965
 21
3.880855
 31
0.0
  0
LINE
  5
481
330
B
100
AcDbEntity
 67
     1
  8
1
  6
Continuous
 62
    18
100
AcDbLine
 10
1.622935
 20
5.708848
 30
0.0
 11
1.619031999999999
 21
5.710505
 31
0.0
  0
LINE
  5
482
330
B
100
AcDbEntity
 67
     1
  8
1
  6
Continuous
 62
    18
100
AcDbLine
 10
5.782275
 20
4.184623
 30
0.0
 11
5.782275
 21
4.225926
 31
0.0
  0
LINE
  5
483
330
B
100
AcDbEntity
 67
     1
  8
1
  6
Continuous
 62
    18
100
AcDbLine
 10
2.175688
 20
3.939076
 30
0.0
 11
2.191613999999999
 21
3.939298
 31
0.0
  0
LINE
  5
484
330
B
100
AcDbEntity
 67
     1
  8
1
  6
Continuous
 62
    18
100
AcDbLine
 10
5.792849999999999
 20
4.147369
 30
0.0
 11
5.790535
 21
4.147812999999999
 31
0.0
  0
LINE
  5
485
330
B
100
AcDbEntity
 67
     1
  8
1
  6
Continuous
 62
    18
100
AcDbLine
 10
1.788175
 20
5.625748
 30
0.0
 11
1.852958
 21
5.563724999999999
 31
0.0
  0
LINE
  5
486
330
B
100
AcDbEntity
 67
     1
  8
1
  6
Continuous
 62
    18
100
AcDbLine
 10
4.959401
 20
4.02643
 30
0.0
 11
4.959401
 21
4.049917999999999
 31
0.0
  0
LINE
  5
487
330
B
100
AcDbEntity
 67
     1
  8
1
  6
Continuous
 62
    18
100
AcDbLine
 10
5.772212
 20
3.849063999999999
 30
0.0
 11
5.771808
 21
3.849063999999999
 31
0.0
  0
LINE
  5
488
330
B
100
AcDbEntity
 67
     1
  8
1
  6
Continuous
 62
    18
100
AcDbLine
 10
2.145849
 20
3.881944999999999
 30
0.0
 11
2.145776999999999
 21
3.884875
 31
0.0
  0
LINE
  5
489
330
B
100
AcDbEntity
 67
     1
  8
1
  6
Continuous
 62
    18
100
AcDbLine
 10
5.017405
 20
3.82059
 30
0.0
 11
5.018329
 21
3.82059
 31
0.0
  0
LINE
  5
48A
330
B
100
AcDbEntity
 67
     1
  8
1
  6
Continuous
 62
    18
100
AcDbLine
 10
2.093206
 20
6.243567999999999
 30
0.0
 11
2.106208
 21
6.237155999999999
 31
0.0
  0
LINE
  5
48B
330
B
100
AcDbEntity
 67
     1
  8
1
  6
Continuous
 62
    18
100
AcDbLine
 10
5.345439999999999
 20
3.984365
 30
0.0
 11
5.29544
 21
3.984365
 31
0.0
  0
LINE
  5
48C
330
B
100
AcDbEntity
 67
     1
  8
1
  6
Continuous
 62
    18
100
AcDbLine
 10
2.39819
 20
4.167627999999999
 30
0.0
 11
2.39819
 21
4.221973999999999
 31
0.0
  0
LINE
  5
48D
330
B
100
AcDbEntity
 67
     1
  8
1
  6
Continuous
 62
    18
100
AcDbLine
 10
2.394878999999999
 20
4.133848999999999
 30
0.0
 11
2.380129999999999
 21
4.122784999999999
 31
0.0
  0
LINE
  5
48E
330
B
100
AcDbEntity
 67
     1
  8
1
  6
Continuous
 62
    18
100
AcDbLine
 10
2.352825999999999
 20
3.750720999999999
 30
0.0
 11
2.348450999999999
 21
3.747104
 31
0.0
  0
LINE
  5
48F
330
B
100
AcDbEntity
 67
     1
  8
1
  6
Continuous
 62
    18
100
AcDbLine
 10
4.960080999999999
 20
3.878959999999999
 30
0.0
 11
4.962545999999999
 21
3.882331999999999
 31
0.0
  0
LINE
  5
490
330
B
100
AcDbEntity
 67
     1
  8
1
  6
Continuous
 62
    18
100
AcDbLine
 10
2.353015
 20
3.762804
 30
0.0
 11
2.39819
 21
3.766755999999999
 31
0.0
  0
LINE
  5
491
330
B
100
AcDbEntity
 67
     1
  8
1
  6
Continuous
 62
    18
100
AcDbLine
 10
5.769992
 20
4.256223999999999
 30
0.0
 11
5.753598999999999
 21
4.256401
 31
0.0
  0
LINE
  5
492
330
B
100
AcDbEntity
 67
     1
  8
1
  6
Continuous
 62
    18
100
AcDbLine
 10
2.271640999999999
 20
5.731162
 30
0.0
 11
2.216983
 21
5.730683999999999
 31
0.0
  0
LINE
  5
493
330
B
100
AcDbEntity
 67
     1
  8
1
  6
Continuous
 62
    18
100
AcDbLine
 10
2.054927999999999
 20
3.732773999999999
 30
0.0
 11
2.073202
 21
3.733093
 31
0.0
  0
LINE
  5
494
330
B
100
AcDbEntity
 67
     1
  8
1
  6
Continuous
 62
    18
100
AcDbLine
 10
2.203084
 20
4.020106
 30
0.0
 11
2.205950999999999
 21
4.027116
 31
0.0
  0
LINE
  5
495
330
B
100
AcDbEntity
 67
     1
  8
1
  6
Continuous
 62
    18
100
AcDbLine
 10
5.015118
 20
4.241664
 30
0.0
 11
5.015109999999999
 21
4.241626
 31
0.0
  0
LINE
  5
496
330
B
100
AcDbEntity
 67
     1
  8
1
  6
Continuous
 62
    18
100
AcDbLine
 10
5.015153999999999
 20
3.751554
 30
0.0
 11
5.01503
 21
3.751554
 31
0.0
  0
LINE
  5
497
330
B
100
AcDbEntity
 67
     1
  8
1
  6
Continuous
 62
    18
100
AcDbLine
 10
2.360764
 20
6.427176999999999
 30
0.0
 11
2.360764
 21
6.442629
 31
0.0
  0
LINE
  5
498
330
B
100
AcDbEntity
 67
     1
  8
1
  6
Continuous
 62
    18
100
AcDbLine
 10
5.595032999999999
 20
4.097674999999999
 30
0.0
 11
5.595032999999999
 21
4.101450999999999
 31
0.0
  0
LINE
  5
499
330
B
100
AcDbEntity
 67
     1
  8
1
  6
Continuous
 62
    18
100
AcDbLine
 10
2.39819
 20
3.766755999999999
 30
0.0
 11
2.39819
 21
3.821101999999999
 31
0.0
  0
LINE
  5
49A
330
B
100
AcDbEntity
 67
     1
  8
1
  6
Continuous
 62
    18
100
AcDbLine
 10
2.08592
 20
3.670273999999999
 30
0.0
 11
2.085950999999999
 21
3.733315
 31
0.0
  0
LINE
  5
49B
330
B
100
AcDbEntity
 67
     1
  8
1
  6
Continuous
 62
    18
100
AcDbLine
 10
5.734530999999999
 20
3.732267999999999
 30
0.0
 11
5.753598999999999
 21
3.73233
 31
0.0
  0
LINE
  5
49C
330
B
100
AcDbEntity
 67
     1
  8
1
  6
Continuous
 62
    18
100
AcDbLine
 10
2.035572
 20
6.431051999999999
 30
0.0
 11
2.040363999999999
 21
6.426550999999999
 31
0.0
  0
LINE
  5
49D
330
B
100
AcDbEntity
 67
     1
  8
1
  6
Continuous
 62
    18
100
AcDbLine
 10
2.398393999999999
 20
3.732694999999999
 30
0.0
 11
2.405218999999999
 21
3.733427999999999
 31
0.0
  0
LINE
  5
49E
330
B
100
AcDbEntity
 67
     1
  8
1
  6
Continuous
 62
    18
100
AcDbLine
 10
5.728467
 20
4.185704
 30
0.0
 11
5.727694999999999
 21
4.186503
 31
0.0
  0
LINE
  5
49F
330
B
100
AcDbEntity
 67
     1
  8
1
  6
Continuous
 62
    18
100
AcDbLine
 10
5.129901999999999
 20
3.879526
 30
0.0
 11
5.129901999999999
 21
3.865758999999999
 31
0.0
  0
LINE
  5
4A0
330
B
100
AcDbEntity
 67
     1
  8
1
  6
Continuous
 62
    18
100
AcDbLine
 10
2.072086
 20
6.422639
 30
0.0
 11
2.071670999999999
 21
6.419093
 31
0.0
  0
LINE
  5
4A1
330
B
100
AcDbEntity
 67
     1
  8
1
  6
Continuous
 62
    18
100
AcDbLine
 10
2.162325
 20
6.326881
 30
0.0
 11
2.216983
 21
6.327358
 31
0.0
  0
LINE
  5
4A2
330
B
100
AcDbEntity
 67
     1
  8
1
  6
Continuous
 62
    18
100
AcDbLine
 10
2.145776999999999
 20
3.962494
 30
0.0
 11
2.131861
 21
3.968472
 31
0.0
  0
LINE
  5
4A3
330
B
100
AcDbEntity
 67
     1
  8
1
  6
Continuous
 62
    18
100
AcDbLine
 10
2.408015
 20
3.757102999999999
 30
0.0
 11
2.408015
 21
3.73509
 31
0.0
  0
LINE
  5
4A4
330
B
100
AcDbEntity
 67
     1
  8
1
  6
Continuous
 62
    18
100
AcDbLine
 10
5.017641
 20
4.274041999999999
 30
0.0
 11
5.020569
 21
4.281112999999999
 31
0.0
  0
LINE
  5
4A5
330
B
100
AcDbEntity
 67
     1
  8
1
  6
Continuous
 62
    18
100
AcDbLine
 10
2.085515
 20
6.438826
 30
0.0
 11
2.085515
 21
6.436558999999999
 31
0.0
  0
LINE
  5
4A6
330
B
100
AcDbEntity
 67
     1
  8
1
  6
Continuous
 62
    18
100
AcDbLine
 10
4.970519999999999
 20
3.732694999999999
 30
0.0
 11
4.965085
 21
3.754708
 31
0.0
  0
LINE
  5
4A7
330
B
100
AcDbEntity
 67
     1
  8
1
  6
Continuous
 62
    18
100
AcDbLine
 10
5.126533
 20
3.916864999999999
 30
0.0
 11
5.126533
 21
3.899865
 31
0.0
  0
LINE
  5
4A8
330
B
100
AcDbEntity
 67
     1
  8
1
  6
Continuous
 62
    18
100
AcDbLine
 10
2.328904
 20
5.768004
 30
0.0
 11
2.326235
 21
5.768004
 31
0.0
  0
LINE
  5
4A9
330
B
100
AcDbEntity
 67
     1
  8
1
  6
Continuous
 62
    18
100
AcDbLine
 10
2.398393999999999
 20
5.626991
 30
0.0
 11
2.393602
 21
5.631491
 31
0.0
  0
LINE
  5
4AA
330
B
100
AcDbEntity
 67
     1
  8
1
  6
Continuous
 62
    18
100
AcDbLine
 10
2.216983
 20
3.937237
 30
0.0
 11
2.216983
 21
3.883632
 31
0.0
  0
LINE
  5
4AB
330
B
100
AcDbEntity
 67
     1
  8
1
  6
Continuous
 62
    18
100
AcDbLine
 10
2.039636999999999
 20
5.631579
 30
0.0
 11
2.029497999999999
 21
5.647972
 31
0.0
  0
LINE
  5
4AC
330
B
100
AcDbEntity
 67
     1
  8
1
  6
Continuous
 62
    18
100
AcDbLine
 10
2.405218999999999
 20
4.255302999999999
 30
0.0
 11
2.408015
 21
4.253639999999999
 31
0.0
  0
LINE
  5
4AD
330
B
100
AcDbEntity
 67
     1
  8
1
  6
Continuous
 62
    18
100
AcDbLine
 10
2.348015
 20
5.671588999999999
 30
0.0
 11
2.492563
 21
5.674112
 31
0.0
  0
LINE
  5
4AE
330
B
100
AcDbEntity
 67
     1
  8
1
  6
Continuous
 62
    18
100
AcDbLine
 10
4.904182999999999
 20
3.841188999999999
 30
0.0
 11
4.946954999999999
 21
3.841516999999999
 31
0.0
  0
LINE
  5
4AF
330
B
100
AcDbEntity
 67
     1
  8
1
  6
Continuous
 62
    18
100
AcDbLine
 10
2.216983
 20
4.105099
 30
0.0
 11
2.216983
 21
4.051492999999999
 31
0.0
  0
LINE
  5
4B0
330
B
100
AcDbEntity
 67
     1
  8
1
  6
Continuous
 62
    18
100
AcDbLine
 10
5.124387999999999
 20
4.098526999999999
 30
0.0
 11
5.121463999999999
 21
4.091465
 31
0.0
  0
LINE
  5
4B1
330
B
100
AcDbEntity
 67
     1
  8
1
  6
Continuous
 62
    18
100
AcDbLine
 10
2.348015
 20
6.443407999999999
 30
0.0
 11
2.360764
 21
6.442629
 31
0.0
  0
LINE
  5
4B2
330
B
100
AcDbEntity
 67
     1
  8
1
  6
Continuous
 62
    18
100
AcDbLine
 10
5.134033
 20
3.892365
 30
0.0
 11
5.150033
 21
3.892365
 31
0.0
  0
LINE
  5
4B3
330
B
100
AcDbEntity
 67
     1
  8
1
  6
Continuous
 62
    18
100
AcDbLine
 10
4.962545999999999
 20
4.049686
 30
0.0
 11
4.959401
 21
4.049917999999999
 31
0.0
  0
LINE
  5
4B4
330
B
100
AcDbEntity
 67
     1
  8
1
  6
Continuous
 62
    18
100
AcDbLine
 10
1.608366
 20
4.279796
 30
0.0
 11
1.593792
 21
4.281006999999999
 31
0.0
  0
LINE
  5
4B5
330
B
100
AcDbEntity
 67
     1
  8
1
  6
Continuous
 62
    18
100
AcDbLine
 10
1.874674
 20
4.147369
 30
0.0
 11
1.879754
 21
4.147812999999999
 31
0.0
  0
LINE
  5
4B6
330
B
100
AcDbEntity
 67
     1
  8
1
  6
Continuous
 62
    18
100
AcDbLine
 10
5.727694999999999
 20
3.82059
 30
0.0
 11
5.709668999999999
 21
3.82059
 31
0.0
  0
LINE
  5
4B7
330
B
100
AcDbEntity
 67
     1
  8
1
  6
Continuous
 62
    18
100
AcDbLine
 10
2.143104999999999
 20
6.315604
 30
0.0
 11
2.140436
 21
6.315604
 31
0.0
  0
LINE
  5
4B8
330
B
100
AcDbEntity
 67
     1
  8
1
  6
Continuous
 62
    18
100
AcDbLine
 10
2.492563
 20
5.684111999999999
 30
0.0
 11
2.878483
 21
5.690847999999999
 31
0.0
  0
LINE
  5
4B9
330
B
100
AcDbEntity
 67
     1
  8
1
  6
Continuous
 62
    18
100
AcDbLine
 10
4.978932
 20
4.295882999999999
 30
0.0
 11
4.978096999999999
 21
4.305350999999999
 31
0.0
  0
LINE
  5
4BA
330
B
100
AcDbEntity
 67
     1
  8
1
  6
Continuous
 62
    18
100
AcDbLine
 10
4.974785999999999
 20
3.757102999999999
 30
0.0
 11
4.980221
 21
3.73509
 31
0.0
  0
LINE
  5
4BB
330
B
100
AcDbEntity
 67
     1
  8
1
  6
Continuous
 62
    18
100
AcDbLine
 10
2.041595
 20
3.671047
 30
0.0
 11
2.031193999999999
 21
3.671229
 31
0.0
  0
LINE
  5
4BC
330
B
100
AcDbEntity
 67
     1
  8
1
  6
Continuous
 62
    18
100
AcDbLine
 10
5.729989999999999
 20
4.241626
 30
0.0
 11
5.780088
 21
4.241626
 31
0.0
  0
LINE
  5
4BD
330
B
100
AcDbEntity
 67
     1
  8
1
  6
Continuous
 62
    18
100
AcDbLine
 10
5.150033
 20
4.096365
 30
0.0
 11
5.595032999999999
 21
4.096365
 31
0.0
  0
LINE
  5
4BE
330
B
100
AcDbEntity
 67
     1
  8
1
  6
Continuous
 62
    18
100
AcDbLine
 10
1.941403
 20
6.37393
 30
0.0
 11
1.555482999999999
 21
6.367194
 31
0.0
  0
LINE
  5
4BF
330
B
100
AcDbEntity
 67
     1
  8
1
  6
Continuous
 62
    18
100
AcDbLine
 10
5.018762999999999
 20
4.165976999999999
 30
0.0
 11
5.015125
 21
4.184098
 31
0.0
  0
LINE
  5
4C0
330
B
100
AcDbEntity
 67
     1
  8
1
  6
Continuous
 62
    18
100
AcDbLine
 10
2.556883
 20
4.164013999999999
 30
0.0
 11
2.556883
 21
4.165976999999999
 31
0.0
  0
LINE
  5
4C1
330
B
100
AcDbEntity
 67
     1
  8
1
  6
Continuous
 62
    18
100
AcDbLine
 10
1.788175
 20
4.139801
 30
0.0
 11
1.788175
 21
3.848929
 31
0.0
  0
LINE
  5
4C2
330
B
100
AcDbEntity
 67
     1
  8
1
  6
Continuous
 62
    18
100
AcDbLine
 10
5.769988999999999
 20
4.232173
 30
0.0
 11
5.769988999999999
 21
4.187869
 31
0.0
  0
LINE
  5
4C3
330
B
100
AcDbEntity
 67
     1
  8
1
  6
Continuous
 62
    18
100
AcDbLine
 10
4.958865
 20
3.982491
 30
0.0
 11
4.959868
 21
3.982491
 31
0.0
  0
LINE
  5
4C4
330
B
100
AcDbEntity
 67
     1
  8
1
  6
Continuous
 62
    18
100
AcDbLine
 10
5.691066
 20
4.276232
 30
0.0
 11
5.686537999999999
 21
4.279796
 31
0.0
  0
LINE
  5
4C5
330
B
100
AcDbEntity
 67
     1
  8
1
  6
Continuous
 62
    18
100
AcDbLine
 10
2.559292999999999
 20
6.449322
 30
0.0
 11
2.554213
 21
6.447007
 31
0.0
  0
LINE
  5
4C6
330
B
100
AcDbEntity
 67
     1
  8
1
  6
Continuous
 62
    18
100
AcDbLine
 10
2.350114
 20
3.804630999999999
 30
0.0
 11
2.3483
 21
3.805808999999999
 31
0.0
  0
LINE
  5
4C7
330
B
100
AcDbEntity
 67
     1
  8
1
  6
Continuous
 62
    18
100
AcDbLine
 10
5.764555999999999
 20
3.805808999999999
 30
0.0
 11
5.769988999999999
 21
3.800862
 31
0.0
  0
LINE
  5
4C8
330
B
100
AcDbEntity
 67
     1
  8
1
  6
Continuous
 62
    18
100
AcDbLine
 10
2.216983
 20
4.105099
 30
0.0
 11
2.145776999999999
 21
4.103855999999999
 31
0.0
  0
LINE
  5
4C9
330
B
100
AcDbEntity
 67
     1
  8
1
  6
Continuous
 62
    18
100
AcDbLine
 10
2.380129999999999
 20
5.644679
 30
0.0
 11
2.394878999999999
 21
5.642954
 31
0.0
  0
LINE
  5
4CA
330
B
100
AcDbEntity
 67
     1
  8
1
  6
Continuous
 62
    18
100
AcDbLine
 10
2.145776999999999
 20
3.972491999999999
 30
0.0
 11
2.156824
 21
3.972298999999999
 31
0.0
  0
LINE
  5
4CB
330
B
100
AcDbEntity
 67
     1
  8
1
  6
Continuous
 62
    18
100
AcDbLine
 10
1.876645
 20
3.841188999999999
 30
0.0
 11
1.872902999999999
 21
3.841516999999999
 31
0.0
  0
LINE
  5
4CC
330
B
100
AcDbEntity
 67
     1
  8
1
  6
Continuous
 62
    18
100
AcDbLine
 10
5.114916
 20
3.869769999999999
 30
0.0
 11
5.103953999999999
 21
3.880732
 31
0.0
  0
LINE
  5
4CD
330
B
100
AcDbEntity
 67
     1
  8
1
  6
Continuous
 62
    18
100
AcDbLine
 10
2.260914
 20
4.185708999999999
 30
0.0
 11
2.216983
 21
4.186503
 31
0.0
  0
LINE
  5
4CE
330
B
100
AcDbEntity
 67
     1
  8
1
  6
Continuous
 62
    18
100
AcDbLine
 10
2.39819
 20
3.766755999999999
 30
0.0
 11
2.405148
 21
3.766755999999999
 31
0.0
  0
LINE
  5
4CF
330
B
100
AcDbEntity
 67
     1
  8
1
  6
Continuous
 62
    18
100
AcDbLine
 10
2.348015
 20
3.800862
 30
0.0
 11
2.247183
 21
3.797641999999999
 31
0.0
  0
LINE
  5
4D0
330
B
100
AcDbEntity
 67
     1
  8
1
  6
Continuous
 62
    18
100
AcDbLine
 10
4.988207
 20
3.690247
 30
0.0
 11
4.988633
 21
3.68528
 31
0.0
  0
LINE
  5
4D1
330
B
100
AcDbEntity
 67
     1
  8
1
  6
Continuous
 62
    18
100
AcDbLine
 10
2.041595
 20
5.644733999999999
 30
0.0
 11
2.056191999999999
 21
5.634905999999999
 31
0.0
  0
LINE
  5
4D2
330
B
100
AcDbEntity
 67
     1
  8
1
  6
Continuous
 62
    18
100
AcDbLine
 10
5.837844999999999
 20
3.843262
 30
0.0
 11
5.837844999999999
 21
4.145469
 31
0.0
  0
LINE
  5
4D3
330
B
100
AcDbEntity
 67
     1
  8
1
  6
Continuous
 62
    18
100
AcDbLine
 10
2.380129999999999
 20
5.671027999999999
 30
0.0
 11
2.394878999999999
 21
5.670771
 31
0.0
  0
LINE
  5
4D4
330
B
100
AcDbEntity
 67
     1
  8
1
  6
Continuous
 62
    18
100
AcDbLine
 10
4.965010999999999
 20
4.241626
 30
0.0
 11
4.964288999999999
 21
4.238008999999999
 31
0.0
  0
LINE
  5
4D5
330
B
100
AcDbEntity
 67
     1
  8
1
  6
Continuous
 62
    18
100
AcDbLine
 10
4.962545999999999
 20
3.931163999999999
 30
0.0
 11
4.960080999999999
 21
3.934535999999999
 31
0.0
  0
LINE
  5
4D6
330
B
100
AcDbEntity
 67
     1
  8
1
  6
Continuous
 62
    18
100
AcDbLine
 10
4.973487
 20
4.255302999999999
 30
0.0
 11
4.980221
 21
4.253639999999999
 31
0.0
  0
LINE
  5
4D7
330
B
100
AcDbEntity
 67
     1
  8
1
  6
Continuous
 62
    18
100
AcDbLine
 10
5.742421
 20
3.671229
 30
0.0
 11
5.725178999999999
 21
3.671315
 31
0.0
  0
LINE
  5
4D8
330
B
100
AcDbEntity
 67
     1
  8
1
  6
Continuous
 62
    18
100
AcDbLine
 10
5.618533
 20
3.916864999999999
 30
0.0
 11
5.619847
 21
3.916864999999999
 31
0.0
  0
LINE
  5
4D9
330
B
100
AcDbEntity
 67
     1
  8
1
  6
Continuous
 62
    18
100
AcDbLine
 10
4.958164
 20
4.165853
 30
0.0
 11
4.960450999999999
 21
4.16814
 31
0.0
  0
LINE
  5
4DA
330
B
100
AcDbEntity
 67
     1
  8
1
  6
Continuous
 62
    18
100
AcDbLine
 10
4.960220999999999
 20
3.966264999999999
 30
0.0
 11
4.962545999999999
 21
3.969578999999999
 31
0.0
  0
LINE
  5
4DB
330
B
100
AcDbEntity
 67
     1
  8
1
  6
Continuous
 62
    18
100
AcDbLine
 10
2.057266999999999
 20
3.823377999999999
 30
0.0
 11
2.057266999999999
 21
3.825387
 31
0.0
  0
LINE
  5
4DC
330
B
100
AcDbEntity
 67
     1
  8
1
  6
Continuous
 62
    18
100
AcDbLine
 10
4.958965
 20
3.880855
 30
0.0
 11
4.958865
 21
3.894873
 31
0.0
  0
LINE
  5
4DD
330
B
100
AcDbEntity
 67
     1
  8
1
  6
Continuous
 62
    18
100
AcDbLine
 10
5.625183999999999
 20
4.093013
 30
0.0
 11
5.622283
 21
4.100099
 31
0.0
  0
LINE
  5
4DE
330
B
100
AcDbEntity
 67
     1
  8
1
  6
Continuous
 62
    18
100
AcDbLine
 10
4.962545999999999
 20
3.824716999999999
 30
0.0
 11
5.020678
 21
3.824601999999999
 31
0.0
  0
LINE
  5
4DF
330
B
100
AcDbEntity
 67
     1
  8
1
  6
Continuous
 62
    18
100
AcDbLine
 10
1.941403
 20
5.683220999999999
 30
0.0
 11
1.622935
 21
5.708848
 31
0.0
  0
LINE
  5
4E0
330
B
100
AcDbEntity
 67
     1
  8
1
  6
Continuous
 62
    18
100
AcDbLine
 10
2.039636999999999
 20
3.732507
 30
0.0
 11
2.054927999999999
 21
3.732773999999999
 31
0.0
  0
LINE
  5
4E1
330
B
100
AcDbEntity
 67
     1
  8
1
  6
Continuous
 62
    18
100
AcDbLine
 10
5.786935999999999
 20
4.165853
 30
0.0
 11
5.729981999999999
 21
4.165853
 31
0.0
  0
LINE
  5
4E2
330
B
100
AcDbEntity
 67
     1
  8
1
  6
Continuous
 62
    18
100
AcDbLine
 10
5.782275
 20
4.184623
 30
0.0
 11
5.782353999999999
 21
4.179641999999999
 31
0.0
  0
LINE
  5
4E3
330
B
100
AcDbEntity
 67
     1
  8
1
  6
Continuous
 62
    18
100
AcDbLine
 10
2.156824
 20
4.049917999999999
 30
0.0
 11
2.156895999999999
 21
4.056987
 31
0.0
  0
LINE
  5
4E4
330
B
100
AcDbEntity
 67
     1
  8
1
  6
Continuous
 62
    18
100
AcDbLine
 10
4.959401
 20
4.049917999999999
 30
0.0
 11
4.959208
 21
4.050111
 31
0.0
  0
LINE
  5
4E5
330
B
100
AcDbEntity
 67
     1
  8
1
  6
Continuous
 62
    18
100
AcDbLine
 10
5.771808
 20
3.849063999999999
 30
0.0
 11
5.766932999999999
 21
3.848723999999999
 31
0.0
  0
LINE
  5
4E6
330
B
100
AcDbEntity
 67
     1
  8
1
  6
Continuous
 62
    18
100
AcDbLine
 10
2.135950999999999
 20
3.894873
 30
0.0
 11
2.133084
 21
3.894873
 31
0.0
  0
LINE
  5
4E7
330
B
100
AcDbEntity
 67
     1
  8
1
  6
Continuous
 62
    18
100
AcDbLine
 10
4.981978999999999
 20
4.316169999999999
 30
0.0
 11
4.985827999999999
 21
4.309047
 31
0.0
  0
LINE
  5
4E8
330
B
100
AcDbEntity
 67
     1
  8
1
  6
Continuous
 62
    18
100
AcDbLine
 10
5.345439999999999
 20
3.994365
 30
0.0
 11
5.345439999999999
 21
3.984365
 31
0.0
  0
LINE
  5
4E9
330
B
100
AcDbEntity
 67
     1
  8
1
  6
Continuous
 62
    18
100
AcDbLine
 10
5.146311999999999
 20
3.670273
 30
0.0
 11
5.771371
 21
3.670273
 31
0.0
  0
LINE
  5
4EA
330
B
100
AcDbEntity
 67
     1
  8
1
  6
Continuous
 62
    18
100
AcDbLine
 10
2.280649
 20
4.305350999999999
 30
0.0
 11
2.216808
 21
4.312583999999999
 31
0.0
  0
LINE
  5
4EB
330
B
100
AcDbEntity
 67
     1
  8
1
  6
Continuous
 62
    18
100
AcDbLine
 10
2.39819
 20
4.221973999999999
 30
0.0
 11
2.353015
 21
4.225926
 31
0.0
  0
LINE
  5
4EC
330
B
100
AcDbEntity
 67
     1
  8
1
  6
Continuous
 62
    18
100
AcDbLine
 10
5.753598999999999
 20
4.256401
 30
0.0
 11
5.734530999999999
 21
4.256463
 31
0.0
  0
LINE
  5
4ED
330
B
100
AcDbEntity
 67
     1
  8
1
  6
Continuous
 62
    18
100
AcDbLine
 10
2.216983
 20
5.730683999999999
 30
0.0
 11
2.216983
 21
5.673875999999999
 31
0.0
  0
LINE
  5
4EE
330
B
100
AcDbEntity
 67
     1
  8
1
  6
Continuous
 62
    18
100
AcDbLine
 10
5.595032999999999
 20
3.891055999999999
 30
0.0
 11
5.595032999999999
 21
3.88728
 31
0.0
  0
LINE
  5
4EF
330
B
100
AcDbEntity
 67
     1
  8
1
  6
Continuous
 62
    18
100
AcDbLine
 10
2.145776999999999
 20
4.026237
 30
0.0
 11
2.145849
 21
4.019167999999999
 31
0.0
  0
LINE
  5
4F0
330
B
100
AcDbEntity
 67
     1
  8
1
  6
Continuous
 62
    18
100
AcDbLine
 10
5.017405
 20
4.16814
 30
0.0
 11
5.018329
 21
4.16814
 31
0.0
  0
LINE
  5
4F1
330
B
100
AcDbEntity
 67
     1
  8
1
  6
Continuous
 62
    18
100
AcDbLine
 10
5.725153999999999
 20
3.694278999999999
 30
0.0
 11
5.734530999999999
 21
3.732267999999999
 31
0.0
  0
LINE
  5
4F2
330
B
100
AcDbEntity
 67
     1
  8
1
  6
Continuous
 62
    18
100
AcDbLine
 10
2.167419999999999
 20
6.326925
 30
0.0
 11
2.167469
 21
6.326635999999999
 31
0.0
  0
LINE
  5
4F3
330
B
100
AcDbEntity
 67
     1
  8
1
  6
Continuous
 62
    18
100
AcDbLine
 10
5.126533
 20
4.071864999999999
 30
0.0
 11
5.125227999999999
 21
4.071864999999999
 31
0.0
  0
LINE
  5
4F4
330
B
100
AcDbEntity
 67
     1
  8
1
  6
Continuous
 62
    18
100
AcDbLine
 10
2.39819
 20
3.821101999999999
 30
0.0
 11
2.393397999999999
 21
3.840085999999999
 31
0.0
  0
LINE
  5
4F5
330
B
100
AcDbEntity
 67
     1
  8
1
  6
Continuous
 62
    18
100
AcDbLine
 10
2.205950999999999
 20
3.961615
 30
0.0
 11
2.205950999999999
 21
3.939498
 31
0.0
  0
LINE
  5
4F6
330
B
100
AcDbEntity
 67
     1
  8
1
  6
Continuous
 62
    18
100
AcDbLine
 10
4.980413999999999
 20
4.3159
 30
0.0
 11
4.981978999999999
 21
4.316169999999999
 31
0.0
  0
LINE
  5
4F7
330
B
100
AcDbEntity
 67
     1
  8
1
  6
Continuous
 62
    18
100
AcDbLine
 10
5.753598999999999
 20
3.73233
 30
0.0
 11
5.769992
 21
3.732507
 31
0.0
  0
LINE
  5
4F8
330
B
100
AcDbEntity
 67
     1
  8
1
  6
Continuous
 62
    18
100
AcDbLine
 10
2.040363999999999
 20
6.426550999999999
 30
0.0
 11
2.053591999999999
 21
6.423504
 31
0.0
  0
LINE
  5
4F9
330
B
100
AcDbEntity
 67
     1
  8
1
  6
Continuous
 62
    18
100
AcDbLine
 10
2.405218999999999
 20
3.733427999999999
 30
0.0
 11
2.408015
 21
3.73509
 31
0.0
  0
LINE
  5
4FA
330
B
100
AcDbEntity
 67
     1
  8
1
  6
Continuous
 62
    18
100
AcDbLine
 10
2.156824
 20
4.02643
 30
0.0
 11
2.175688
 21
4.026692999999999
 31
0.0
  0
LINE
  5
4FB
330
B
100
AcDbEntity
 67
     1
  8
1
  6
Continuous
 62
    18
100
AcDbLine
 10
5.728467
 20
4.185704
 30
0.0
 11
5.728293999999999
 21
4.187394
 31
0.0
  0
LINE
  5
4FC
330
B
100
AcDbEntity
 67
     1
  8
1
  6
Continuous
 62
    18
100
AcDbLine
 10
2.353015
 20
4.225926
 30
0.0
 11
2.353015
 21
4.236644999999999
 31
0.0
  0
LINE
  5
4FD
330
B
100
AcDbEntity
 67
     1
  8
1
  6
Continuous
 62
    18
100
AcDbLine
 10
2.071670999999999
 20
6.419093
 30
0.0
 11
2.071593
 21
6.412937999999999
 31
0.0
  0
LINE
  5
4FE
330
B
100
AcDbEntity
 67
     1
  8
1
  6
Continuous
 62
    18
100
AcDbLine
 10
2.138818999999999
 20
3.925631999999999
 30
0.0
 11
2.135950999999999
 21
3.918622
 31
0.0
  0
LINE
  5
4FF
330
B
100
AcDbEntity
 67
     1
  8
1
  6
Continuous
 62
    18
100
AcDbLine
 10
5.020569
 20
4.281112999999999
 30
0.0
 11
5.027641
 21
4.284041
 31
0.0
  0
LINE
  5
500
330
B
100
AcDbEntity
 67
     1
  8
1
  6
Continuous
 62
    18
100
AcDbLine
 10
4.965085
 20
3.754708
 30
0.0
 11
4.964288999999999
 21
3.750720999999999
 31
0.0
  0
LINE
  5
501
330
B
100
AcDbEntity
 67
     1
  8
1
  6
Continuous
 62
    18
100
AcDbLine
 10
2.393602
 20
5.631491
 30
0.0
 11
2.380374999999999
 21
5.634538
 31
0.0
  0
LINE
  5
502
330
B
100
AcDbEntity
 67
     1
  8
1
  6
Continuous
 62
    18
100
AcDbLine
 10
2.216983
 20
4.316169999999999
 30
0.0
 11
2.298399
 21
4.309047
 31
0.0
  0
LINE
  5
503
330
B
100
AcDbEntity
 67
     1
  8
1
  6
Continuous
 62
    18
100
AcDbLine
 10
5.150033
 20
3.892365
 30
0.0
 11
5.595032999999999
 21
3.892365
 31
0.0
  0
LINE
  5
504
330
B
100
AcDbEntity
 67
     1
  8
1
  6
Continuous
 62
    18
100
AcDbLine
 10
5.615198
 20
3.885730999999999
 30
0.0
 11
5.613648999999999
 21
3.88728
 31
0.0
  0
LINE
  5
505
330
B
100
AcDbEntity
 67
     1
  8
1
  6
Continuous
 62
    18
100
AcDbLine
 10
2.556883
 20
5.619017999999999
 30
0.0
 11
2.556883
 21
5.675234999999999
 31
0.0
  0
LINE
  5
506
330
B
100
AcDbEntity
 67
     1
  8
1
  6
Continuous
 62
    18
100
AcDbLine
 10
4.946954999999999
 20
3.841516999999999
 30
0.0
 11
4.946954999999999
 21
4.147213999999999
 31
0.0
  0
LINE
  5
507
330
B
100
AcDbEntity
 67
     1
  8
1
  6
Continuous
 62
    18
100
AcDbLine
 10
2.216983
 20
5.619188999999999
 30
0.0
 11
2.216983
 21
5.616921999999999
 31
0.0
  0
LINE
  5
508
330
B
100
AcDbEntity
 67
     1
  8
1
  6
Continuous
 62
    18
100
AcDbLine
 10
5.631388999999999
 20
4.093013
 30
0.0
 11
5.645156
 21
4.093013
 31
0.0
  0
LINE
  5
509
330
B
100
AcDbEntity
 67
     1
  8
1
  6
Continuous
 62
    18
100
AcDbLine
 10
5.121463999999999
 20
3.897266
 30
0.0
 11
5.124387999999999
 21
3.890202999999999
 31
0.0
  0
LINE
  5
50A
330
B
100
AcDbEntity
 67
     1
  8
1
  6
Continuous
 62
    18
100
AcDbLine
 10
2.360764
 20
6.442629
 30
0.0
 11
2.379037999999999
 21
6.437854999999999
 31
0.0
  0
LINE
  5
50B
330
B
100
AcDbEntity
 67
     1
  8
1
  6
Continuous
 62
    18
100
AcDbLine
 10
2.492563
 20
4.274041999999999
 30
0.0
 11
2.492563
 21
4.315933999999999
 31
0.0
  0
LINE
  5
50C
330
B
100
AcDbEntity
 67
     1
  8
1
  6
Continuous
 62
    18
100
AcDbLine
 10
4.959401
 20
4.02643
 30
0.0
 11
4.962545999999999
 21
4.026660999999999
 31
0.0
  0
LINE
  5
50D
330
B
100
AcDbEntity
 67
     1
  8
1
  6
Continuous
 62
    18
100
AcDbLine
 10
1.941403
 20
3.70469
 30
0.0
 11
1.593792
 21
3.707723
 31
0.0
  0
LINE
  5
50E
330
B
100
AcDbEntity
 67
     1
  8
1
  6
Continuous
 62
    18
100
AcDbLine
 10
1.877083
 20
6.439023999999999
 30
0.0
 11
1.877083
 21
6.382807999999999
 31
0.0
  0
LINE
  5
50F
330
B
100
AcDbEntity
 67
     1
  8
1
  6
Continuous
 62
    18
100
AcDbLine
 10
1.790522
 20
3.848723999999999
 30
0.0
 11
1.893184999999999
 21
3.839741999999999
 31
0.0
  0
LINE
  5
510
330
B
100
AcDbEntity
 67
     1
  8
1
  6
Continuous
 62
    18
100
AcDbLine
 10
1.555482999999999
 20
4.280673
 30
0.0
 11
1.593792
 21
4.281006999999999
 31
0.0
  0
LINE
  5
511
330
B
100
AcDbEntity
 67
     1
  8
1
  6
Continuous
 62
    18
100
AcDbLine
 10
5.709668999999999
 20
3.735601999999999
 30
0.0
 11
5.709668999999999
 21
3.82059
 31
0.0
  0
LINE
  5
512
330
B
100
AcDbEntity
 67
     1
  8
1
  6
Continuous
 62
    18
100
AcDbLine
 10
2.348015
 20
6.427843
 30
0.0
 11
2.274636999999999
 21
6.423217
 31
0.0
  0
LINE
  5
513
330
B
100
AcDbEntity
 67
     1
  8
1
  6
Continuous
 62
    18
100
AcDbLine
 10
2.08592
 20
5.630198
 30
0.0
 11
2.073202
 21
5.630865
 31
0.0
  0
LINE
  5
514
330
B
100
AcDbEntity
 67
     1
  8
1
  6
Continuous
 62
    18
100
AcDbLine
 10
4.980221
 20
3.73509
 30
0.0
 11
5.014069999999999
 21
3.73509
 31
0.0
  0
ARC
  5
515
330
B
100
AcDbEntity
 67
     1
  8
1
  6
Continuous
 62
    18
100
AcDbCircle
 10
5.611032999999999
 20
4.088865
 30
0.0
 40
0.0075
100
AcDbArc
 50
0.0
 51
90.0
  0
ARC
  5
516
330
B
100
AcDbEntity
 67
     1
  8
1
  6
Continuous
 62
    18
100
AcDbCircle
 10
5.134033
 20
4.088865
 30
0.0
 40
0.0075
100
AcDbArc
 50
90.0
 51
180.0
  0
ARC
  5
517
330
B
100
AcDbEntity
 67
     1
  8
1
  6
Continuous
 62
    18
100
AcDbCircle
 10
2.035950999999999
 20
6.427958999999999
 30
0.0
 40
0.01
100
AcDbArc
 50
91.0
 51
180.0
  0
ARC
  5
518
330
B
100
AcDbEntity
 67
     1
  8
1
  6
Continuous
 62
    18
100
AcDbCircle
 10
2.398015
 20
5.630084
 30
0.0
 40
0.01
100
AcDbArc
 50
271.0
 51
360.0
  0
ARC
  5
519
330
B
100
AcDbEntity
 67
     1
  8
1
  6
Continuous
 62
    18
100
AcDbCircle
 10
5.611032999999999
 20
3.899865
 30
0.0
 40
0.0075
100
AcDbArc
 50
270.0
 51
360.0
  0
ARC
  5
51A
330
B
100
AcDbEntity
 67
     1
  8
1
  6
Continuous
 62
    18
100
AcDbCircle
 10
5.134033
 20
3.899865
 30
0.0
 40
0.0075
100
AcDbArc
 50
180.0
 51
270.0
  0
ENDSEC
  0
SECTION
  2
OBJECTS
  0
DICTIONARY
  5
19
330
0
100
AcDbDictionary
281
     1
  3
ACAD_COLOR
350
545
  3
ACAD_GROUP
350
1A
  3
ACAD_LAYOUT
350
1E
  3
ACAD_MATERIAL
350
530
  3
ACAD_MLINESTYLE
350
1B
  3
ACAD_PLOTSETTINGS
350
22
  3
ACAD_PLOTSTYLENAME
350
1F
  3
ACAD_TABLESTYLE
350
546
  3
ACAD_VISUALSTYLE
350
534
  3
ACAD_WIPEOUT_VARS
350
23
  3
AcDbVariableDictionary
350
54F
  3
ASE_INDEX_DICTIONARY
350
54C
  3
DWGPROPS
350
554
  0
DICTIONARY
  5
559
330
32
100
AcDbDictionary
280
     1
281
     1
  3
ACAD_XREC_ROUNDTRIP
360
55A
  0
DICTIONARY
  5
545
102
{ACAD_REACTORS
330
19
102
}
330
19
100
AcDbDictionary
281
     1
  0
DICTIONARY
  5
1A
102
{ACAD_REACTORS
330
19
102
}
330
19
100
AcDbDictionary
281
     1
  0
DICTIONARY
  5
1E
102
{ACAD_REACTORS
330
19
102
}
330
19
100
AcDbDictionary
281
     1
  3
DRAWING1
350
51B
  3
Layout1
350
21
  3
Model
350
20
  0
DICTIONARY
  5
530
102
{ACAD_REACTORS
330
19
102
}
330
19
100
AcDbDictionary
281
     1
  3
ByBlock
350
532
  3
ByLayer
350
531
  3
Global
350
533
  0
DICTIONARY
  5
1B
102
{ACAD_REACTORS
330
19
102
}
330
19
100
AcDbDictionary
281
     1
  3
Standard
350
1C
  0
DICTIONARY
  5
22
102
{ACAD_REACTORS
330
19
102
}
330
19
100
AcDbDictionary
281
     1
  0
ACDBDICTIONARYWDFLT
  5
1F
102
{ACAD_REACTORS
330
19
102
}
330
19
100
AcDbDictionary
281
     1
  3
Normal
350
1D
100
AcDbDictionaryWithDefault
340
1D
  0
DICTIONARY
  5
546
102
{ACAD_REACTORS
330
19
102
}
330
19
100
AcDbDictionary
281
     1
  3
Standard
350
547
  0
DICTIONARY
  5
534
102
{ACAD_REACTORS
330
19
102
}
330
19
100
AcDbDictionary
281
     1
  3
2dWireframe
350
53A
  3
3D Hidden
350
53C
  3
3dWireframe
350
53B
  3
Basic
350
539
  3
Brighten
350
540
  3
ColorChange
350
544
  3
Conceptual
350
53D
  3
Dim
350
53F
  3
Facepattern
350
543
  3
Flat
350
535
  3
FlatWithEdges
350
536
  3
Gouraud
350
537
  3
GouraudWithEdges
350
538
  3
Linepattern
350
542
  3
Realistic
350
53E
  3
Thicken
350
541
  0
WIPEOUTVARIABLES
  5
23
330
19
100
AcDbWipeoutVariables
 70
     1
  0
DICTIONARY
  5
54F
102
{ACAD_REACTORS
330
19
102
}
330
19
100
AcDbDictionary
281
     1
  3
CTABLESTYLE
350
550
  3
DIMASSOC
350
553
  3
INDEXCTL
350
552
  3
SORTENTS
350
551
  0
DICTIONARY
  5
54C
102
{ACAD_REACTORS
330
19
102
}
330
19
100
AcDbDictionary
281
     1
  3
ASEBlockHierarchyIndexRecord
350
54E
1001
DCO15
1040
1721109876.942
  0
XRECORD
  5
554
102
{ACAD_REACTORS
330
19
102
}
330
19
100
AcDbXrecord
280
     1
  1
DWGPROPS COOKIE
  2

  3

  4

  6

  7

  8
bjn
  9

300
=
301
=
302
=
303
=
304
=
305
=
306
=
307
=
308
=
309
=
 40
0.0005060416666667
 41
2455723.464555845
 42
2455723.465057199
  1

 90
        0
  0
XRECORD
  5
55A
102
{ACAD_REACTORS
330
559
102
}
330
559
100
AcDbXrecord
280
     1
102
SHADEPLOT
 70
     0
  0
LAYOUT
  5
51B
102
{ACAD_XDICTIONARY
360
55B
102
}
102
{ACAD_REACTORS
330
1E
102
}
330
1E
100
AcDbPlotSettings
  1

  2

  4

  6

 40
20.0
 41
20.0
 42
20.0
 43
20.0
 44
319.4
 45
255.9
 46
0.0
 47
0.0
 48
0.0
 49
0.0
140
319.4
141
255.9
142
1.0
143
1.0
 70
     0
 72
     0
 73
     0
 74
     1
  7

 75
     0
147
1.0
148
0.0
149
0.0
100
AcDbLayout
  1
DRAWING1
 70
     0
 71
     2
 10
0.0
 20
0.0
 11
11.0
 21
8.5
 12
0.0
 22
0.0
 32
0.0
 14
0.0
 24
0.0
 34
0.0
 15
11.0
 25
8.5
 35
0.0
146
0.0
 13
0.0
 23
0.0
 33
0.0
 16
0.0
 26
0.0
 36
0.0
 17
0.0
 27
0.0
 37
0.0
 76
     0
330
B
331
32
  0
LAYOUT
  5
21
102
{ACAD_XDICTIONARY
360
557
102
}
102
{ACAD_REACTORS
330
1E
102
}
330
1E
100
AcDbPlotSettings
  1

  2
none_device
  4
Letter_(8.50_x_11.00_Inches)
  6

 40
6.349999904632568
 41
6.349999904632568
 42
6.350006103515625
 43
6.350006103515625
 44
215.8999938964844
 45
279.3999938964844
 46
0.0
 47
0.0
 48
0.0
 49
0.0
140
0.0
141
0.0
142
1.0
143
0.4081907903843148
 70
    16
 72
     0
 73
     1
 74
     1
  7

 75
     0
147
2.449834791859199
148
-39.50592267690911
149
-93.21097782839901
100
AcDbLayout
  1
Layout1
 70
     0
 71
     1
 10
1.453303490809836
 20
3.567675840487666
 11
5.94340208695073
 21
7.037297460667772
 12
0.0
 22
0.0
 32
0.0
 14
1.555351286492484
 24
3.669723536551142
 34
-0.0004043445228632
 15
5.841354390887254
 25
6.498016376046017
 35
0.0000152657740013
146
0.0
 13
0.0
 23
0.0
 33
0.0
 16
1.0
 26
0.0
 36
0.0
 17
0.0
 27
1.0
 37
0.0
 76
     0
330
B
331
32
1001
ACAD_PSEXT
1000
None
1000
None
1000
Not applicable
1000
The layout will not be plotted unless a new plotter configuration name is selected.
1070
     0
  0
LAYOUT
  5
20
102
{ACAD_XDICTIONARY
360
555
102
}
102
{ACAD_REACTORS
330
1E
102
}
330
1E
100
AcDbPlotSettings
  1

  2

  4

  6

 40
0.0
 41
0.0
 42
0.0
 43
0.0
 44
0.0
 45
0.0
 46
0.0
 47
0.0
 48
0.0
 49
0.0
140
0.0
141
0.0
142
1.0
143
1.0
 70
  1024
 72
     0
 73
     0
 74
     0
  7

 75
     0
147
1.0
148
0.0
149
0.0
100
AcDbLayout
  1
Model
 70
     0
 71
     0
 10
0.0
 20
0.0
 11
0.0
 21
0.0
 12
0.0
 22
0.0
 32
0.0
 14
0.0
 24
0.0
 34
0.0
 15
0.0
 25
0.0
 35
0.0
146
0.0
 13
0.0
 23
0.0
 33
0.0
 16
0.0
 26
0.0
 36
0.0
 17
0.0
 27
0.0
 37
0.0
 76
     0
330
A
  0
MATERIAL
  5
532
102
{ACAD_XDICTIONARY
360
55F
102
}
102
{ACAD_REACTORS
330
530
102
}
330
530
100
AcDbMaterial
  1
ByBlock
  0
MATERIAL
  5
531
102
{ACAD_XDICTIONARY
360
55D
102
}
102
{ACAD_REACTORS
330
530
102
}
330
530
100
AcDbMaterial
  1
ByLayer
  0
MATERIAL
  5
533
102
{ACAD_XDICTIONARY
360
561
102
}
102
{ACAD_REACTORS
330
530
102
}
330
530
100
AcDbMaterial
  1
Global
  0
MLINESTYLE
  5
1C
102
{ACAD_REACTORS
330
1B
102
}
330
1B
100
AcDbMlineStyle
  2
STANDARD
 70
     0
  3

 62
     0
 51
90.0
 52
90.0
 71
     2
 49
0.5
 62
   256
  6
BYLAYER
 49
-0.5
 62
   256
  6
BYLAYER
  0
ACDBPLACEHOLDER
  5
1D
102
{ACAD_REACTORS
330
1F
102
}
330
1F
  0
TABLESTYLE
  5
547
102
{ACAD_XDICTIONARY
360
563
102
}
102
{ACAD_REACTORS
330
546
102
}
330
546
100
AcDbTableStyle
  3
Standard
 70
     0
 71
     0
 40
0.06
 41
0.06
280
     0
281
     0
  7
Standard
140
0.18
170
     2
 62
     0
 63
     7
283
     0
274
    -2
284
     1
 64
     0
275
    -2
285
     1
 65
     0
276
    -2
286
     1
 66
     0
277
    -2
287
     1
 67
     0
278
    -2
288
     1
 68
     0
279
    -2
289
     1
 69
     0
  7
Standard
140
0.25
170
     5
 62
     0
 63
     7
283
     0
274
    -2
284
     1
 64
     0
275
    -2
285
     1
 65
     0
276
    -2
286
     1
 66
     0
277
    -2
287
     1
 67
     0
278
    -2
288
     1
 68
     0
279
    -2
289
     1
 69
     0
  7
Standard
140
0.18
170
     5
 62
     0
 63
     7
283
     0
274
    -2
284
     1
 64
     0
275
    -2
285
     1
 65
     0
276
    -2
286
     1
 66
     0
277
    -2
287
     1
 67
     0
278
    -2
288
     1
 68
     0
279
    -2
289
     1
 69
     0
  0
VISUALSTYLE
  5
53A
102
{ACAD_REACTORS
330
534
102
}
330
534
100
AcDbVisualStyle
  2
2dWireframe
 70
     4
 71
     0
 72
     2
 73
     0
 90
        0
 40
-0.6
 41
-30.0
 62
     5
 63
     7
 74
     1
 91
        4
 64
     7
 65
   257
 75
     1
175
     1
 42
1.0
 92
        0
 66
   257
 43
1.0
 76
     1
 77
     6
 78
     2
 67
     7
 79
     5
170
     0
171
     0
290
     0
174
     0
 93
        1
 44
0.0
173
     0
291
     0
 45
0.0
1001
ACAD
1000
AcDbSavedByObjectVersion
1070
     0
  0
VISUALSTYLE
  5
53C
102
{ACAD_REACTORS
330
534
102
}
330
534
100
AcDbVisualStyle
  2
3D Hidden
 70
     6
 71
     1
 72
     2
 73
     2
 90
        0
 40
-0.6
 41
-30.0
 62
     5
 63
     7
 74
     2
 91
        2
 64
     7
 65
   257
 75
     2
175
     1
 42
40.0
 92
        0
 66
   257
 43
1.0
 76
     1
 77
     6
 78
     2
 67
     7
 79
     3
170
     0
171
     0
290
     0
174
     0
 93
        1
 44
0.0
173
     0
291
     0
 45
0.0
1001
ACAD
1000
AcDbSavedByObjectVersion
1070
     0
  0
VISUALSTYLE
  5
53B
102
{ACAD_REACTORS
330
534
102
}
330
534
100
AcDbVisualStyle
  2
3dWireframe
 70
     5
 71
     0
 72
     2
 73
     0
 90
        0
 40
-0.6
 41
-30.0
 62
     5
 63
     7
 74
     1
 91
        4
 64
     7
 65
   257
 75
     1
175
     1
 42
1.0
 92
        0
 66
   257
 43
1.0
 76
     1
 77
     6
 78
     2
 67
     7
 79
     5
170
     0
171
     0
290
     0
174
     0
 93
        1
 44
0.0
173
     0
291
     0
 45
0.0
1001
ACAD
1000
AcDbSavedByObjectVersion
1070
     0
  0
VISUALSTYLE
  5
539
102
{ACAD_REACTORS
330
534
102
}
330
534
100
AcDbVisualStyle
  2
Basic
 70
     7
 71
     1
 72
     0
 73
     1
 90
        0
 40
-0.6
 41
-30.0
 62
     5
 63
     7
 74
     0
 91
        4
 64
     7
 65
   257
 75
     1
175
     1
 42
1.0
 92
        8
 66
     7
 43
1.0
 76
     1
 77
     6
 78
     2
 67
     7
 79
     5
170
     0
171
     0
290
     0
174
     0
 93
        1
 44
0.0
173
     0
291
     1
 45
0.0
1001
ACAD
1000
AcDbSavedByObjectVersion
1070
     0
  0
VISUALSTYLE
  5
540
102
{ACAD_REACTORS
330
534
102
}
330
534
100
AcDbVisualStyle
  2
Brighten
 70
    12
 71
     2
 72
     2
 73
     0
 90
        0
 40
-0.6
 41
-30.0
 62
     5
 63
     7
 74
     1
 91
        4
 64
     7
 65
   257
 75
     1
175
     1
 42
1.0
 92
        8
 66
     7
 43
1.0
 76
     1
 77
     6
 78
     2
 67
     7
 79
     5
170
     0
171
     0
290
     0
174
     0
 93
        1
 44
50.0
173
     0
291
     1
 45
0.0
1001
ACAD
1000
AcDbSavedByObjectVersion
1070
     0
  0
VISUALSTYLE
  5
544
102
{ACAD_REACTORS
330
534
102
}
330
534
100
AcDbVisualStyle
  2
ColorChange
 70
    16
 71
     2
 72
     2
 73
     3
 90
        0
 40
-0.6
 41
-30.0
 62
     5
 63
     8
 74
     1
 91
        4
 64
     7
 65
   257
 75
     1
175
     1
 42
1.0
 92
        8
 66
     8
 43
1.0
 76
     1
 77
     6
 78
     2
 67
     7
 79
     5
170
     0
171
     0
290
     0
174
     0
 93
        1
 44
0.0
173
     0
291
     1
 45
0.0
1001
ACAD
1000
AcDbSavedByObjectVersion
1070
     0
  0
VISUALSTYLE
  5
53D
102
{ACAD_REACTORS
330
534
102
}
330
534
100
AcDbVisualStyle
  2
Conceptual
 70
     9
 71
     3
 72
     2
 73
     0
 90
        0
 40
-0.6
 41
-30.0
 62
     5
 63
     7
 74
     2
 91
        2
 64
     7
 65
   257
 75
     1
175
     1
 42
40.0
 92
        8
 66
     7
 43
1.0
 76
     1
 77
     6
 78
     2
 67
     7
 79
     3
170
     0
171
     0
290
     0
174
     0
 93
        1
 44
0.0
173
     0
291
     0
 45
0.0
1001
ACAD
1000
AcDbSavedByObjectVersion
1070
     0
  0
VISUALSTYLE
  5
53F
102
{ACAD_REACTORS
330
534
102
}
330
534
100
AcDbVisualStyle
  2
Dim
 70
    11
 71
     2
 72
     2
 73
     0
 90
        0
 40
-0.6
 41
-30.0
 62
     5
 63
     7
 74
     1
 91
        4
 64
     7
 65
   257
 75
     1
175
     1
 42
1.0
 92
        8
 66
     7
 43
1.0
 76
     1
 77
     6
 78
     2
 67
     7
 79
     5
170
     0
171
     0
290
     0
174
     0
 93
        1
 44
-50.0
173
     0
291
     1
 45
0.0
1001
ACAD
1000
AcDbSavedByObjectVersion
1070
     0
  0
VISUALSTYLE
  5
543
102
{ACAD_REACTORS
330
534
102
}
330
534
100
AcDbVisualStyle
  2
Facepattern
 70
    15
 71
     2
 72
     2
 73
     0
 90
        0
 40
-0.6
 41
-30.0
 62
     5
 63
     7
 74
     1
 91
        4
 64
     7
 65
   257
 75
     1
175
     1
 42
1.0
 92
        8
 66
     7
 43
1.0
 76
     1
 77
     6
 78
     2
 67
     7
 79
     5
170
     0
171
     0
290
     0
174
     0
 93
        1
 44
0.0
173
     0
291
     1
 45
0.0
1001
ACAD
1000
AcDbSavedByObjectVersion
1070
     0
  0
VISUALSTYLE
  5
535
102
{ACAD_REACTORS
330
534
102
}
330
534
100
AcDbVisualStyle
  2
Flat
 70
     0
 71
     2
 72
     1
 73
     1
 90
        2
 40
-0.6
 41
30.0
 62
     5
 63
     7
 74
     0
 91
        4
 64
     7
 65
   257
 75
     1
175
     1
 42
1.0
 92
        8
 66
     7
 43
1.0
 76
     1
 77
     6
 78
     2
 67
     7
 79
     5
170
     0
171
     0
290
     0
174
     0
 93
       13
 44
0.0
173
     0
291
     1
 45
0.0
1001
ACAD
1000
AcDbSavedByObjectVersion
1070
     0
  0
VISUALSTYLE
  5
536
102
{ACAD_REACTORS
330
534
102
}
330
534
100
AcDbVisualStyle
  2
FlatWithEdges
 70
     1
 71
     2
 72
     1
 73
     1
 90
        2
 40
-0.6
 41
30.0
 62
     5
 63
     7
 74
     1
 91
        4
 64
     7
 65
   257
 75
     1
175
     1
 42
1.0
 92
        0
 66
   257
 43
1.0
 76
     1
 77
     6
 78
     2
 67
     7
 79
     5
170
     0
171
     0
290
     0
174
     0
 93
       13
 44
0.0
173
     0
291
     1
 45
0.0
1001
ACAD
1000
AcDbSavedByObjectVersion
1070
     0
  0
VISUALSTYLE
  5
537
102
{ACAD_REACTORS
330
534
102
}
330
534
100
AcDbVisualStyle
  2
Gouraud
 70
     2
 71
     2
 72
     2
 73
     1
 90
        2
 40
-0.6
 41
30.0
 62
     5
 63
     7
 74
     0
 91
        4
 64
     7
 65
   257
 75
     1
175
     1
 42
1.0
 92
        0
 66
     7
 43
1.0
 76
     1
 77
     6
 78
     2
 67
     7
 79
     5
170
     0
171
     0
290
     0
174
     0
 93
       13
 44
0.0
173
     0
291
     1
 45
0.0
1001
ACAD
1000
AcDbSavedByObjectVersion
1070
     0
  0
VISUALSTYLE
  5
538
102
{ACAD_REACTORS
330
534
102
}
330
534
100
AcDbVisualStyle
  2
GouraudWithEdges
 70
     3
 71
     2
 72
     2
 73
     1
 90
        2
 40
-0.6
 41
30.0
 62
     5
 63
     7
 74
     1
 91
        4
 64
     7
 65
   257
 75
     1
175
     1
 42
1.0
 92
        0
 66
   257
 43
1.0
 76
     1
 77
     6
 78
     2
 67
     7
 79
     5
170
     0
171
     0
290
     0
174
     0
 93
       13
 44
0.0
173
     0
291
     1
 45
0.0
1001
ACAD
1000
AcDbSavedByObjectVersion
1070
     0
  0
VISUALSTYLE
  5
542
102
{ACAD_REACTORS
330
534
102
}
330
534
100
AcDbVisualStyle
  2
Linepattern
 70
    14
 71
     2
 72
     2
 73
     0
 90
        0
 40
-0.6
 41
-30.0
 62
     5
 63
     7
 74
     1
 91
        4
 64
     7
 65
   257
 75
     7
175
     7
 42
1.0
 92
        8
 66
     7
 43
1.0
 76
     1
 77
     6
 78
     2
 67
     7
 79
     5
170
     0
171
     0
290
     0
174
     0
 93
        1
 44
0.0
173
     0
291
     1
 45
0.0
1001
ACAD
1000
AcDbSavedByObjectVersion
1070
     0
  0
VISUALSTYLE
  5
53E
102
{ACAD_REACTORS
330
534
102
}
330
534
100
AcDbVisualStyle
  2
Realistic
 70
     8
 71
     2
 72
     2
 73
     0
 90
        0
 40
-0.6
 41
-30.0
 62
     5
 63
     7
 74
     1
 91
        0
 64
     7
 65
   257
 75
     1
175
     1
 42
1.0
 92
        8
 66
     8
 43
1.0
 76
     1
 77
     6
 78
     2
 67
     7
 79
     5
170
     0
171
     0
290
     0
174
     0
 93
       13
 44
0.0
173
     0
291
     0
 45
0.0
1001
ACAD
1000
AcDbSavedByObjectVersion
1070
     0
  0
VISUALSTYLE
  5
541
102
{ACAD_REACTORS
330
534
102
}
330
534
100
AcDbVisualStyle
  2
Thicken
 70
    13
 71
     2
 72
     2
 73
     0
 90
        0
 40
-0.6
 41
-30.0
 62
     5
 63
     7
 74
     1
 91
        4
 64
     7
 65
   257
 75
     1
175
     1
 42
1.0
 92
       12
 66
     7
 43
1.0
 76
     1
 77
     6
 78
     2
 67
     7
 79
     5
170
     0
171
     0
290
     0
174
     0
 93
        1
 44
0.0
173
     0
291
     1
 45
0.0
1001
ACAD
1000
AcDbSavedByObjectVersion
1070
     0
  0
DICTIONARYVAR
  5
550
102
{ACAD_REACTORS
330
54F
102
}
330
54F
100
DictionaryVariables
280
     0
  1
STANDARD
  0
DICTIONARYVAR
  5
553
102
{ACAD_REACTORS
330
54F
102
}
330
54F
100
DictionaryVariables
280
     0
  1
1
  0
DICTIONARYVAR
  5
552
102
{ACAD_REACTORS
330
54F
102
}
330
54F
100
DictionaryVariables
280
     0
  1
0
  0
DICTIONARYVAR
  5
551
102
{ACAD_REACTORS
330
54F
102
}
330
54F
100
DictionaryVariables
280
     0
  1
127
  0
XRECORD
  5
54E
102
{ACAD_REACTORS
330
54C
102
}
330
54C
100
AcDbXrecord
280
     1
  0
DICTIONARY
  5
55B
330
51B
100
AcDbDictionary
280
     1
281
     1
  3
ACAD_XREC_ROUNDTRIP
360
55C
  0
DICTIONARY
  5
557
330
21
100
AcDbDictionary
280
     1
281
     1
  3
ACAD_XREC_ROUNDTRIP
360
558
  0
DICTIONARY
  5
555
330
20
100
AcDbDictionary
280
     1
281
     1
  3
ACAD_XREC_ROUNDTRIP
360
556
  0
DICTIONARY
  5
55F
330
532
100
AcDbDictionary
280
     1
281
     1
  3
ACAD_XREC_ROUNDTRIP
360
560
  0
DICTIONARY
  5
55D
330
531
100
AcDbDictionary
280
     1
281
     1
  3
ACAD_XREC_ROUNDTRIP
360
55E
  0
DICTIONARY
  5
561
330
533
100
AcDbDictionary
280
     1
281
     1
  3
ACAD_XREC_ROUNDTRIP
360
562
  0
DICTIONARY
  5
563
330
547
100
AcDbDictionary
280
     1
281
     1
  3
ACAD_XREC_ROUNDTRIP
360
564
  0
XRECORD
  5
55C
102
{ACAD_REACTORS
330
55B
102
}
330
55B
100
AcDbXrecord
280
     1
102
SHADEPLOT
 70
     0
102
SHADEPLOTRESLEVEL
 70
     2
102
SHADEPLOTCUSTOMDPI
 70
   300
  0
XRECORD
  5
558
102
{ACAD_REACTORS
330
557
102
}
330
557
100
AcDbXrecord
280
     1
102
SHADEPLOT
 70
     0
102
SHADEPLOTRESLEVEL
 70
     2
102
SHADEPLOTCUSTOMDPI
 70
   300
  0
XRECORD
  5
556
102
{ACAD_REACTORS
330
555
102
}
330
555
100
AcDbXrecord
280
     1
102
SHADEPLOT
 70
     0
102
SHADEPLOTRESLEVEL
 70
     2
102
SHADEPLOTCUSTOMDPI
 70
   300
  0
XRECORD
  5
560
102
{ACAD_REACTORS
330
55F
102
}
330
55F
100
AcDbXrecord
280
     1
102
MATERIAL
148
0.0
149
0.0
149
0.0
 93
        0
 94
       63
282
     0
 72
     1
 77
     1
171
     1
175
     1
179
     1
273
     0
  0
XRECORD
  5
55E
102
{ACAD_REACTORS
330
55D
102
}
330
55D
100
AcDbXrecord
280
     1
102
MATERIAL
148
0.0
149
0.0
149
0.0
 93
        0
 94
       63
282
     0
 72
     1
 77
     1
171
     1
175
     1
179
     1
273
     0
  0
XRECORD
  5
562
102
{ACAD_REACTORS
330
561
102
}
330
561
100
AcDbXrecord
280
     1
102
MATERIAL
148
0.0
149
0.0
149
0.0
 93
        0
 94
       63
282
     0
 72
     1
 77
     1
171
     1
175
     1
179
     1
273
     0
  0
XRECORD
  5
564
102
{ACAD_REACTORS
330
563
102
}
330
563
100
AcDbXrecord
280
     1
102
ACAD_ROUNDTRIP_PRE2007_TABLESTYLE
 90
      512
 91
        0
  1

 92
      512
 93
        0
  2

 94
      512
 95
        0
  3

  0
ENDSEC
  0
EOF
