  0
SECTION
  2
HEADER
  9
$ACADVER
  1
AC1015
  9
$ACADMAINTVER
 70
     6
  9
$DWGCODEPAGE
  3
ANSI_1252
  9
$INSBASE
 10
0.0
 20
0.0
 30
0.0
  9
$EXTMIN
 10
-1.742614720182743
 20
-1.855590801517934
 30
-0.0015258207003583
  9
$EXTMAX
 10
-0.1038207869322747
 20
-0.0497131243461198
 30
0.0000000349246037
  9
$LIMMIN
 10
0.0
 20
0.0
  9
$LIMMAX
 10
12.0
 20
9.0
  9
$ORTHOMODE
 70
     0
  9
$REGENMODE
 70
     1
  9
$FILLMODE
 70
     1
  9
$QTEXTMODE
 70
     0
  9
$MIRRTEXT
 70
     1
  9
$LTSCALE
 40
1.0
  9
$ATTMODE
 70
     1
  9
$TEXTSIZE
 40
0.2
  9
$TRACEWID
 40
0.05
  9
$TEXTSTYLE
  7
STANDARD
  9
$CLAYER
  8
0
  9
$CELTYPE
  6
ByLayer
  9
$CECOLOR
 62
   256
  9
$CELTSCALE
 40
1.0
  9
$DISPSILH
 70
     0
  9
$DIMSCALE
 40
1.0
  9
$DIMASZ
 40
0.18
  9
$DIMEXO
 40
0.0625
  9
$DIMDLI
 40
0.38
  9
$DIMRND
 40
0.0
  9
$DIMDLE
 40
0.0
  9
$DIMEXE
 40
0.18
  9
$DIMTP
 40
0.0
  9
$DIMTM
 40
0.0
  9
$DIMTXT
 40
0.18
  9
$DIMCEN
 40
0.09
  9
$DIMTSZ
 40
0.0
  9
$DIMTOL
 70
     0
  9
$DIMLIM
 70
     0
  9
$DIMTIH
 70
     1
  9
$DIMTOH
 70
     1
  9
$DIMSE1
 70
     0
  9
$DIMSE2
 70
     0
  9
$DIMTAD
 70
     0
  9
$DIMZIN
 70
     0
  9
$DIMBLK
  1

  9
$DIMASO
 70
     1
  9
$DIMSHO
 70
     1
  9
$DIMPOST
  1

  9
$DIMAPOST
  1

  9
$DIMALT
 70
     0
  9
$DIMALTD
 70
     2
  9
$DIMALTF
 40
25.4
  9
$DIMLFAC
 40
1.0
  9
$DIMTOFL
 70
     0
  9
$DIMTVP
 40
0.0
  9
$DIMTIX
 70
     0
  9
$DIMSOXD
 70
     0
  9
$DIMSAH
 70
     0
  9
$DIMBLK1
  1

  9
$DIMBLK2
  1

  9
$DIMSTYLE
  2
Standard
  9
$DIMCLRD
 70
     0
  9
$DIMCLRE
 70
     0
  9
$DIMCLRT
 70
     0
  9
$DIMTFAC
 40
1.0
  9
$DIMGAP
 40
0.09
  9
$DIMJUST
 70
     0
  9
$DIMSD1
 70
     0
  9
$DIMSD2
 70
     0
  9
$DIMTOLJ
 70
     1
  9
$DIMTZIN
 70
     0
  9
$DIMALTZ
 70
     0
  9
$DIMALTTZ
 70
     0
  9
$DIMUPT
 70
     0
  9
$DIMDEC
 70
     4
  9
$DIMTDEC
 70
     4
  9
$DIMALTU
 70
     2
  9
$DIMALTTD
 70
     2
  9
$DIMTXSTY
  7
STANDARD
  9
$DIMAUNIT
 70
     0
  9
$DIMADEC
 70
     0
  9
$DIMALTRND
 40
0.0
  9
$DIMAZIN
 70
     0
  9
$DIMDSEP
 70
    46
  9
$DIMATFIT
 70
     3
  9
$DIMFRAC
 70
     0
  9
$DIMLDRBLK
  1

  9
$DIMLUNIT
 70
     2
  9
$DIMLWD
 70
    -2
  9
$DIMLWE
 70
    -2
  9
$DIMTMOVE
 70
     2
  9
$LUNITS
 70
     2
  9
$LUPREC
 70
     4
  9
$SKETCHINC
 40
0.1
  9
$FILLETRAD
 40
0.0
  9
$AUNITS
 70
     0
  9
$AUPREC
 70
     0
  9
$MENU
  1
acad
  9
$ELEVATION
 40
0.0
  9
$PELEVATION
 40
0.0
  9
$THICKNESS
 40
0.0
  9
$LIMCHECK
 70
     0
  9
$CHAMFERA
 40
0.0
  9
$CHAMFERB
 40
0.0
  9
$CHAMFERC
 40
0.0
  9
$CHAMFERD
 40
0.0
  9
$SKPOLY
 70
     0
  9
$TDCREATE
 40
2453538.640196759
  9
$TDUCREATE
 40
2453538.848530092
  9
$TDUPDATE
 40
2453538.667644629
  9
$TDUUPDATE
 40
2453538.875977962
  9
$TDINDWG
 40
0.0000756019
  9
$TDUSRTIMER
 40
0.0000756019
  9
$USRTIMER
 70
     1
  9
$ANGBASE
 50
0.0
  9
$ANGDIR
 70
     0
  9
$PDMODE
 70
     0
  9
$PDSIZE
 40
0.0
  9
$PLINEWID
 40
0.0
  9
$SPLFRAME
 70
     0
  9
$SPLINETYPE
 70
     6
  9
$SPLINESEGS
 70
     8
  9
$HANDSEED
  5
EF8
  9
$SURFTAB1
 70
     6
  9
$SURFTAB2
 70
     6
  9
$SURFTYPE
 70
     6
  9
$SURFU
 70
     6
  9
$SURFV
 70
     6
  9
$UCSBASE
  2

  9
$UCSNAME
  2

  9
$UCSORG
 10
0.0
 20
0.0
 30
0.0
  9
$UCSXDIR
 10
1.0
 20
0.0
 30
0.0
  9
$UCSYDIR
 10
0.0
 20
1.0
 30
0.0
  9
$UCSORTHOREF
  2

  9
$UCSORTHOVIEW
 70
     0
  9
$UCSORGTOP
 10
0.0
 20
0.0
 30
0.0
  9
$UCSORGBOTTOM
 10
0.0
 20
0.0
 30
0.0
  9
$UCSORGLEFT
 10
0.0
 20
0.0
 30
0.0
  9
$UCSORGRIGHT
 10
0.0
 20
0.0
 30
0.0
  9
$UCSORGFRONT
 10
0.0
 20
0.0
 30
0.0
  9
$UCSORGBACK
 10
0.0
 20
0.0
 30
0.0
  9
$PUCSBASE
  2

  9
$PUCSNAME
  2

  9
$PUCSORG
 10
0.0
 20
0.0
 30
0.0
  9
$PUCSXDIR
 10
1.0
 20
0.0
 30
0.0
  9
$PUCSYDIR
 10
0.0
 20
1.0
 30
0.0
  9
$PUCSORTHOREF
  2

  9
$PUCSORTHOVIEW
 70
     0
  9
$PUCSORGTOP
 10
0.0
 20
0.0
 30
0.0
  9
$PUCSORGBOTTOM
 10
0.0
 20
0.0
 30
0.0
  9
$PUCSORGLEFT
 10
0.0
 20
0.0
 30
0.0
  9
$PUCSORGRIGHT
 10
0.0
 20
0.0
 30
0.0
  9
$PUCSORGFRONT
 10
0.0
 20
0.0
 30
0.0
  9
$PUCSORGBACK
 10
0.0
 20
0.0
 30
0.0
  9
$USERI1
 70
     0
  9
$USERI2
 70
     0
  9
$USERI3
 70
     0
  9
$USERI4
 70
     0
  9
$USERI5
 70
     0
  9
$USERR1
 40
0.0
  9
$USERR2
 40
0.0
  9
$USERR3
 40
0.0
  9
$USERR4
 40
0.0
  9
$USERR5
 40
0.0
  9
$WORLDVIEW
 70
     1
  9
$SHADEDGE
 70
     3
  9
$SHADEDIF
 70
    70
  9
$TILEMODE
 70
     1
  9
$MAXACTVP
 70
    16
  9
$PINSBASE
 10
0.0
 20
0.0
 30
0.0
  9
$PLIMCHECK
 70
     0
  9
$PEXTMIN
 10
1.000000000000000E+20
 20
1.000000000000000E+20
 30
1.000000000000000E+20
  9
$PEXTMAX
 10
-1.000000000000000E+20
 20
-1.000000000000000E+20
 30
-1.000000000000000E+20
  9
$PLIMMIN
 10
0.0
 20
0.0
  9
$PLIMMAX
 10
12.0
 20
9.0
  9
$UNITMODE
 70
     0
  9
$VISRETAIN
 70
     0
  9
$PLINEGEN
 70
     0
  9
$PSLTSCALE
 70
     1
  9
$TREEDEPTH
 70
  3020
  9
$CMLSTYLE
  2
Standard
  9
$CMLJUST
 70
     0
  9
$CMLSCALE
 40
1.0
  9
$PROXYGRAPHICS
 70
     1
  9
$MEASUREMENT
 70
     0
  9
$CELWEIGHT
370
    -1
  9
$ENDCAPS
280
     0
  9
$JOINSTYLE
280
     0
  9
$LWDISPLAY
290
     0
  9
$INSUNITS
 70
     0
  9
$HYPERLINKBASE
  1

  9
$STYLESHEET
  1

  9
$XEDIT
290
     1
  9
$CEPSNTYPE
380
     0
  9
$PSTYLEMODE
290
     1
  9
$FINGERPRINTGUID
  2
{D390E889-F568-498B-AE84-CF4BC90D8445}
  9
$VERSIONGUID
  2
{39BCD1E9-5A00-4F54-BE69-552993454353}
  9
$EXTNAMES
290
     1
  9
$PSVPSCALE
 40
0.0
  9
$OLESTARTUP
290
     0
  0
ENDSEC
  0
SECTION
  2
CLASSES
  0
CLASS
  1
ACDBDICTIONARYWDFLT
  2
AcDbDictionaryWithDefault
  3
AutoCAD 2000
 90
        0
280
     0
281
     0
  0
CLASS
  1
ACDBPLACEHOLDER
  2
AcDbPlaceHolder
  3
AutoCAD 2000
 90
        0
280
     0
281
     0
  0
CLASS
  1
LAYOUT
  2
AcDbLayout
  3
AutoCAD 2000
 90
        0
280
     0
281
     0
  0
ENDSEC
  0
SECTION
  2
TABLES
  0
TABLE
  2
VPORT
  5
8
330
0
100
AcDbSymbolTable
 70
     2
  0
VPORT
  5
EF7
330
8
100
AcDbSymbolTableRecord
100
AcDbViewportTableRecord
  2
*Active
 70
     0
 10
0.0
 20
0.0
 11
1.0
 21
1.0
 12
-0.9232177535575088
 22
-0.9526519629320269
 13
0.0
 23
0.0
 14
1.0
 24
1.0
 15
0.0
 25
0.0
 16
0.0
 26
0.0
 36
1.0
 17
0.0
 27
0.0
 37
0.0
 40
1.819337635014088
 41
1.536069651741293
 42
50.0
 43
0.0
 44
0.0
 50
0.0
 51
0.0
 71
     0
 72
   100
 73
     1
 74
     1
 75
     0
 76
     0
 77
     0
 78
     0
281
     0
 65
     1
110
0.0
120
0.0
130
0.0
111
1.0
121
0.0
131
0.0
112
0.0
122
1.0
132
0.0
 79
     0
146
0.0
  0
ENDTAB
  0
TABLE
  2
LTYPE
  5
5
330
0
100
AcDbSymbolTable
 70
    25
  0
LTYPE
  5
13
330
5
100
AcDbSymbolTableRecord
100
AcDbLinetypeTableRecord
  2
ByBlock
 70
     0
  3

 72
    65
 73
     0
 40
0.0
  0
LTYPE
  5
14
330
5
100
AcDbSymbolTableRecord
100
AcDbLinetypeTableRecord
  2
ByLayer
 70
     0
  3

 72
    65
 73
     0
 40
0.0
  0
LTYPE
  5
15
330
5
100
AcDbSymbolTableRecord
100
AcDbLinetypeTableRecord
  2
CONTINUOUS
 70
     0
  3
Solid line
 72
    65
 73
     0
 40
0.0
  0
LTYPE
  5
22
330
5
100
AcDbSymbolTableRecord
100
AcDbLinetypeTableRecord
  2
BORDER
 70
     0
  3
__ __ . __ __ . __ __ . __ __ . __ __ . __ __ .
 72
    65
 73
     6
 40
1.75
 49
0.5
 74
     0
 49
-0.25
 74
     0
 49
0.5
 74
     0
 49
-0.25
 74
     0
 49
0.5
 74
     0
 49
-0.25
 74
     0
  0
LTYPE
  5
23
330
5
100
AcDbSymbolTableRecord
100
AcDbLinetypeTableRecord
  2
BORDER2
 70
     0
  3
__.__.__.__.__.__.__.__.__.__.__.__.__.__.__.__
 72
    65
 73
     6
 40
0.875
 49
0.25
 74
     0
 49
-0.125
 74
     0
 49
0.25
 74
     0
 49
-0.125
 74
     0
 49
0.25
 74
     0
 49
-0.125
 74
     0
  0
LTYPE
  5
24
330
5
100
AcDbSymbolTableRecord
100
AcDbLinetypeTableRecord
  2
BORDERX2
 70
     0
  3
____  ____  .  ____  ____  .  
 72
    65
 73
     6
 40
3.5
 49
1.0
 74
     0
 49
-0.5
 74
     0
 49
1.0
 74
     0
 49
-0.5
 74
     0
 49
1.0
 74
     0
 49
-0.5
 74
     0
  0
LTYPE
  5
25
330
5
100
AcDbSymbolTableRecord
100
AcDbLinetypeTableRecord
  2
CENTER
 70
     0
  3
____ _ ____ _ ____ _ ____ _ ____ _ ____ _ ____
 72
    65
 73
     4
 40
2.0
 49
1.25
 74
     0
 49
-0.25
 74
     0
 49
0.25
 74
     0
 49
-0.25
 74
     0
  0
LTYPE
  5
26
330
5
100
AcDbSymbolTableRecord
100
AcDbLinetypeTableRecord
  2
CENTER2
 70
     0
  3
____ _ ____ _ ____ _ ____ _ ____ _ ____ _ ____
 72
    65
 73
     4
 40
1.125
 49
0.75
 74
     0
 49
-0.125
 74
     0
 49
0.125
 74
     0
 49
-0.125
 74
     0
  0
LTYPE
  5
27
330
5
100
AcDbSymbolTableRecord
100
AcDbLinetypeTableRecord
  2
CENTERX2
 70
     0
  3
________  __  ________  __  ________  __  
 72
    65
 73
     4
 40
4.0
 49
2.5
 74
     0
 49
-0.5
 74
     0
 49
0.5
 74
     0
 49
-0.5
 74
     0
  0
LTYPE
  5
28
330
5
100
AcDbSymbolTableRecord
100
AcDbLinetypeTableRecord
  2
DASHDOT
 70
     0
  3
__ . __ . __ . __ . __ . __ . __ . 
 72
    65
 73
     4
 40
1.0
 49
0.5
 74
     0
 49
-0.25
 74
     0
 49
0.0
 74
     0
 49
-0.25
 74
     0
  0
LTYPE
  5
29
330
5
100
AcDbSymbolTableRecord
100
AcDbLinetypeTableRecord
  2
DASHDOT2
 70
     0
  3
_._._._._._._._._._._._._._._._.
 72
    65
 73
     4
 40
0.5
 49
0.25
 74
     0
 49
-0.125
 74
     0
 49
0.0
 74
     0
 49
-0.125
 74
     0
  0
LTYPE
  5
2A
330
5
100
AcDbSymbolTableRecord
100
AcDbLinetypeTableRecord
  2
DASHDOTX2
 70
     0
  3
____  .  ____  .  ____  .  ____  .  
 72
    65
 73
     4
 40
2.0
 49
1.0
 74
     0
 49
-0.5
 74
     0
 49
0.0
 74
     0
 49
-0.5
 74
     0
  0
LTYPE
  5
2B
330
5
100
AcDbSymbolTableRecord
100
AcDbLinetypeTableRecord
  2
DASHED
 70
     0
  3
__ __ __ __ __ __ __ __ __ __ __ __ 
 72
    65
 73
     2
 40
0.75
 49
0.5
 74
     0
 49
-0.25
 74
     0
  0
LTYPE
  5
2C
330
5
100
AcDbSymbolTableRecord
100
AcDbLinetypeTableRecord
  2
DASHED2
 70
     0
  3
_ _ _ _ _ _ _ _ _ _ _ _ _ _ _ _ _ _ 
 72
    65
 73
     2
 40
0.375
 49
0.25
 74
     0
 49
-0.125
 74
     0
  0
LTYPE
  5
2D
330
5
100
AcDbSymbolTableRecord
100
AcDbLinetypeTableRecord
  2
DASHEDX2
 70
     0
  3
____  ____  ____  ____  ____  ____  
 72
    65
 73
     2
 40
1.5
 49
1.0
 74
     0
 49
-0.5
 74
     0
  0
LTYPE
  5
2E
330
5
100
AcDbSymbolTableRecord
100
AcDbLinetypeTableRecord
  2
DIVIDE
 70
     0
  3
____ . . ____ . . ____ . . ____ . . 
 72
    65
 73
     6
 40
1.25
 49
0.5
 74
     0
 49
-0.25
 74
     0
 49
0.0
 74
     0
 49
-0.25
 74
     0
 49
0.0
 74
     0
 49
-0.25
 74
     0
  0
LTYPE
  5
2F
330
5
100
AcDbSymbolTableRecord
100
AcDbLinetypeTableRecord
  2
DIVIDE2
 70
     0
  3
__..__..__..__..__..__..__..__..__..
 72
    65
 73
     6
 40
0.625
 49
0.25
 74
     0
 49
-0.125
 74
     0
 49
0.0
 74
     0
 49
-0.125
 74
     0
 49
0.0
 74
     0
 49
-0.125
 74
     0
  0
LTYPE
  5
30
330
5
100
AcDbSymbolTableRecord
100
AcDbLinetypeTableRecord
  2
DIVIDEX2
 70
     0
  3
________  .  .  ________  .  .  ________  .  . 
 72
    65
 73
     6
 40
2.5
 49
1.0
 74
     0
 49
-0.5
 74
     0
 49
0.0
 74
     0
 49
-0.5
 74
     0
 49
0.0
 74
     0
 49
-0.5
 74
     0
  0
LTYPE
  5
31
330
5
100
AcDbSymbolTableRecord
100
AcDbLinetypeTableRecord
  2
DOT
 70
     0
  3
. . . . . . . . . . . . . . . . . . 
 72
    65
 73
     2
 40
0.25
 49
0.0
 74
     0
 49
-0.25
 74
     0
  0
LTYPE
  5
32
330
5
100
AcDbSymbolTableRecord
100
AcDbLinetypeTableRecord
  2
DOT2
 70
     0
  3
....................................
 72
    65
 73
     2
 40
0.125
 49
0.0
 74
     0
 49
-0.125
 74
     0
  0
LTYPE
  5
33
330
5
100
AcDbSymbolTableRecord
100
AcDbLinetypeTableRecord
  2
DOTX2
 70
     0
  3
.  .  .  .  .  .  .  .  .  .  .  .  .  
 72
    65
 73
     2
 40
0.5
 49
0.0
 74
     0
 49
-0.5
 74
     0
  0
LTYPE
  5
34
330
5
100
AcDbSymbolTableRecord
100
AcDbLinetypeTableRecord
  2
HIDDEN
 70
     0
  3
__ __ __ __ __ __ __ __ __ __ __ __ 
 72
    65
 73
     2
 40
0.375
 49
0.25
 74
     0
 49
-0.125
 74
     0
  0
LTYPE
  5
35
330
5
100
AcDbSymbolTableRecord
100
AcDbLinetypeTableRecord
  2
HIDDEN2
 70
     0
  3
_ _ _ _ _ _ _ _ _ _ _ _ _ _ _ _ _ _ 
 72
    65
 73
     2
 40
0.1875
 49
0.125
 74
     0
 49
-0.0625
 74
     0
  0
LTYPE
  5
36
330
5
100
AcDbSymbolTableRecord
100
AcDbLinetypeTableRecord
  2
HIDDENX2
 70
     0
  3
____ ____ ____ ____ ____ ____ ____ 
 72
    65
 73
     2
 40
0.75
 49
0.5
 74
     0
 49
-0.25
 74
     0
  0
LTYPE
  5
37
330
5
100
AcDbSymbolTableRecord
100
AcDbLinetypeTableRecord
  2
PHANTOM
 70
     0
  3
______  __  __  ______  __  __  
 72
    65
 73
     6
 40
2.5
 49
1.25
 74
     0
 49
-0.25
 74
     0
 49
0.25
 74
     0
 49
-0.25
 74
     0
 49
0.25
 74
     0
 49
-0.25
 74
     0
  0
LTYPE
  5
38
330
5
100
AcDbSymbolTableRecord
100
AcDbLinetypeTableRecord
  2
PHANTOM2
 70
     0
  3
___ _ _ ___ _ _ ___ _ _ ___ _ _ 
 72
    65
 73
     6
 40
1.25
 49
0.625
 74
     0
 49
-0.125
 74
     0
 49
0.125
 74
     0
 49
-0.125
 74
     0
 49
0.125
 74
     0
 49
-0.125
 74
     0
  0
LTYPE
  5
39
330
5
100
AcDbSymbolTableRecord
100
AcDbLinetypeTableRecord
  2
PHANTOMX2
 70
     0
  3
___ _ _ ___ _ _ ___ _ _ ___ _ _ 
 72
    65
 73
     6
 40
5.0
 49
2.5
 74
     0
 49
-0.5
 74
     0
 49
0.5
 74
     0
 49
-0.5
 74
     0
 49
0.5
 74
     0
 49
-0.5
 74
     0
  0
ENDTAB
  0
TABLE
  2
LAYER
  5
2
330
0
100
AcDbSymbolTable
 70
   256
  0
LAYER
  5
10
330
2
100
AcDbSymbolTableRecord
100
AcDbLayerTableRecord
  2
0
 70
     0
 62
     7
  6
CONTINUOUS
370
    -3
390
F
  0
LAYER
  5
3A
330
2
100
AcDbSymbolTableRecord
100
AcDbLayerTableRecord
  2
1
 70
     0
 62
     1
  6
CONTINUOUS
370
    -3
390
F
  0
LAYER
  5
3B
330
2
100
AcDbSymbolTableRecord
100
AcDbLayerTableRecord
  2
2
 70
     0
 62
     2
  6
CONTINUOUS
370
    -3
390
F
  0
LAYER
  5
3C
330
2
100
AcDbSymbolTableRecord
100
AcDbLayerTableRecord
  2
3
 70
     0
 62
     3
  6
CONTINUOUS
370
    -3
390
F
  0
LAYER
  5
3D
330
2
100
AcDbSymbolTableRecord
100
AcDbLayerTableRecord
  2
4
 70
     0
 62
     4
  6
CONTINUOUS
370
    -3
390
F
  0
LAYER
  5
3E
330
2
100
AcDbSymbolTableRecord
100
AcDbLayerTableRecord
  2
5
 70
     0
 62
     5
  6
CONTINUOUS
370
    -3
390
F
  0
LAYER
  5
3F
330
2
100
AcDbSymbolTableRecord
100
AcDbLayerTableRecord
  2
6
 70
     0
 62
     6
  6
CONTINUOUS
370
    -3
390
F
  0
LAYER
  5
40
330
2
100
AcDbSymbolTableRecord
100
AcDbLayerTableRecord
  2
7
 70
     0
 62
     7
  6
CONTINUOUS
370
    -3
390
F
  0
LAYER
  5
41
330
2
100
AcDbSymbolTableRecord
100
AcDbLayerTableRecord
  2
8
 70
     0
 62
     8
  6
CONTINUOUS
370
    -3
390
F
  0
LAYER
  5
42
330
2
100
AcDbSymbolTableRecord
100
AcDbLayerTableRecord
  2
9
 70
     0
 62
     9
  6
CONTINUOUS
370
    -3
390
F
  0
LAYER
  5
43
330
2
100
AcDbSymbolTableRecord
100
AcDbLayerTableRecord
  2
10
 70
     0
 62
    10
  6
CONTINUOUS
370
    -3
390
F
  0
LAYER
  5
44
330
2
100
AcDbSymbolTableRecord
100
AcDbLayerTableRecord
  2
11
 70
     0
 62
    11
  6
CONTINUOUS
370
    -3
390
F
  0
LAYER
  5
45
330
2
100
AcDbSymbolTableRecord
100
AcDbLayerTableRecord
  2
12
 70
     0
 62
    12
  6
CONTINUOUS
370
    -3
390
F
  0
LAYER
  5
46
330
2
100
AcDbSymbolTableRecord
100
AcDbLayerTableRecord
  2
13
 70
     0
 62
    13
  6
CONTINUOUS
370
    -3
390
F
  0
LAYER
  5
47
330
2
100
AcDbSymbolTableRecord
100
AcDbLayerTableRecord
  2
14
 70
     0
 62
    14
  6
CONTINUOUS
370
    -3
390
F
  0
LAYER
  5
48
330
2
100
AcDbSymbolTableRecord
100
AcDbLayerTableRecord
  2
15
 70
     0
 62
    15
  6
CONTINUOUS
370
    -3
390
F
  0
LAYER
  5
49
330
2
100
AcDbSymbolTableRecord
100
AcDbLayerTableRecord
  2
16
 70
     0
 62
    16
  6
CONTINUOUS
370
    -3
390
F
  0
LAYER
  5
4A
330
2
100
AcDbSymbolTableRecord
100
AcDbLayerTableRecord
  2
17
 70
     0
 62
    17
  6
CONTINUOUS
370
    -3
390
F
  0
LAYER
  5
4B
330
2
100
AcDbSymbolTableRecord
100
AcDbLayerTableRecord
  2
18
 70
     0
 62
    18
  6
CONTINUOUS
370
    -3
390
F
  0
LAYER
  5
4C
330
2
100
AcDbSymbolTableRecord
100
AcDbLayerTableRecord
  2
19
 70
     0
 62
    19
  6
CONTINUOUS
370
    -3
390
F
  0
LAYER
  5
4D
330
2
100
AcDbSymbolTableRecord
100
AcDbLayerTableRecord
  2
20
 70
     0
 62
    20
  6
CONTINUOUS
370
    -3
390
F
  0
LAYER
  5
4E
330
2
100
AcDbSymbolTableRecord
100
AcDbLayerTableRecord
  2
21
 70
     0
 62
    21
  6
CONTINUOUS
370
    -3
390
F
  0
LAYER
  5
4F
330
2
100
AcDbSymbolTableRecord
100
AcDbLayerTableRecord
  2
22
 70
     0
 62
    22
  6
CONTINUOUS
370
    -3
390
F
  0
LAYER
  5
50
330
2
100
AcDbSymbolTableRecord
100
AcDbLayerTableRecord
  2
23
 70
     0
 62
    23
  6
CONTINUOUS
370
    -3
390
F
  0
LAYER
  5
51
330
2
100
AcDbSymbolTableRecord
100
AcDbLayerTableRecord
  2
24
 70
     0
 62
    24
  6
CONTINUOUS
370
    -3
390
F
  0
LAYER
  5
52
330
2
100
AcDbSymbolTableRecord
100
AcDbLayerTableRecord
  2
25
 70
     0
 62
    25
  6
CONTINUOUS
370
    -3
390
F
  0
LAYER
  5
53
330
2
100
AcDbSymbolTableRecord
100
AcDbLayerTableRecord
  2
26
 70
     0
 62
    26
  6
CONTINUOUS
370
    -3
390
F
  0
LAYER
  5
54
330
2
100
AcDbSymbolTableRecord
100
AcDbLayerTableRecord
  2
27
 70
     0
 62
    27
  6
CONTINUOUS
370
    -3
390
F
  0
LAYER
  5
55
330
2
100
AcDbSymbolTableRecord
100
AcDbLayerTableRecord
  2
28
 70
     0
 62
    28
  6
CONTINUOUS
370
    -3
390
F
  0
LAYER
  5
56
330
2
100
AcDbSymbolTableRecord
100
AcDbLayerTableRecord
  2
29
 70
     0
 62
    29
  6
CONTINUOUS
370
    -3
390
F
  0
LAYER
  5
57
330
2
100
AcDbSymbolTableRecord
100
AcDbLayerTableRecord
  2
30
 70
     0
 62
    30
  6
CONTINUOUS
370
    -3
390
F
  0
LAYER
  5
58
330
2
100
AcDbSymbolTableRecord
100
AcDbLayerTableRecord
  2
31
 70
     0
 62
    31
  6
CONTINUOUS
370
    -3
390
F
  0
LAYER
  5
59
330
2
100
AcDbSymbolTableRecord
100
AcDbLayerTableRecord
  2
32
 70
     0
 62
    32
  6
CONTINUOUS
370
    -3
390
F
  0
LAYER
  5
5A
330
2
100
AcDbSymbolTableRecord
100
AcDbLayerTableRecord
  2
33
 70
     0
 62
    33
  6
CONTINUOUS
370
    -3
390
F
  0
LAYER
  5
5B
330
2
100
AcDbSymbolTableRecord
100
AcDbLayerTableRecord
  2
34
 70
     0
 62
    34
  6
CONTINUOUS
370
    -3
390
F
  0
LAYER
  5
5C
330
2
100
AcDbSymbolTableRecord
100
AcDbLayerTableRecord
  2
35
 70
     0
 62
    35
  6
CONTINUOUS
370
    -3
390
F
  0
LAYER
  5
5D
330
2
100
AcDbSymbolTableRecord
100
AcDbLayerTableRecord
  2
36
 70
     0
 62
    36
  6
CONTINUOUS
370
    -3
390
F
  0
LAYER
  5
5E
330
2
100
AcDbSymbolTableRecord
100
AcDbLayerTableRecord
  2
37
 70
     0
 62
    37
  6
CONTINUOUS
370
    -3
390
F
  0
LAYER
  5
5F
330
2
100
AcDbSymbolTableRecord
100
AcDbLayerTableRecord
  2
38
 70
     0
 62
    38
  6
CONTINUOUS
370
    -3
390
F
  0
LAYER
  5
60
330
2
100
AcDbSymbolTableRecord
100
AcDbLayerTableRecord
  2
39
 70
     0
 62
    39
  6
CONTINUOUS
370
    -3
390
F
  0
LAYER
  5
61
330
2
100
AcDbSymbolTableRecord
100
AcDbLayerTableRecord
  2
40
 70
     0
 62
    40
  6
CONTINUOUS
370
    -3
390
F
  0
LAYER
  5
62
330
2
100
AcDbSymbolTableRecord
100
AcDbLayerTableRecord
  2
41
 70
     0
 62
    41
  6
CONTINUOUS
370
    -3
390
F
  0
LAYER
  5
63
330
2
100
AcDbSymbolTableRecord
100
AcDbLayerTableRecord
  2
42
 70
     0
 62
    42
  6
CONTINUOUS
370
    -3
390
F
  0
LAYER
  5
64
330
2
100
AcDbSymbolTableRecord
100
AcDbLayerTableRecord
  2
43
 70
     0
 62
    43
  6
CONTINUOUS
370
    -3
390
F
  0
LAYER
  5
65
330
2
100
AcDbSymbolTableRecord
100
AcDbLayerTableRecord
  2
44
 70
     0
 62
    44
  6
CONTINUOUS
370
    -3
390
F
  0
LAYER
  5
66
330
2
100
AcDbSymbolTableRecord
100
AcDbLayerTableRecord
  2
45
 70
     0
 62
    45
  6
CONTINUOUS
370
    -3
390
F
  0
LAYER
  5
67
330
2
100
AcDbSymbolTableRecord
100
AcDbLayerTableRecord
  2
46
 70
     0
 62
    46
  6
CONTINUOUS
370
    -3
390
F
  0
LAYER
  5
68
330
2
100
AcDbSymbolTableRecord
100
AcDbLayerTableRecord
  2
47
 70
     0
 62
    47
  6
CONTINUOUS
370
    -3
390
F
  0
LAYER
  5
69
330
2
100
AcDbSymbolTableRecord
100
AcDbLayerTableRecord
  2
48
 70
     0
 62
    48
  6
CONTINUOUS
370
    -3
390
F
  0
LAYER
  5
6A
330
2
100
AcDbSymbolTableRecord
100
AcDbLayerTableRecord
  2
49
 70
     0
 62
    49
  6
CONTINUOUS
370
    -3
390
F
  0
LAYER
  5
6B
330
2
100
AcDbSymbolTableRecord
100
AcDbLayerTableRecord
  2
50
 70
     0
 62
    50
  6
CONTINUOUS
370
    -3
390
F
  0
LAYER
  5
6C
330
2
100
AcDbSymbolTableRecord
100
AcDbLayerTableRecord
  2
51
 70
     0
 62
    51
  6
CONTINUOUS
370
    -3
390
F
  0
LAYER
  5
6D
330
2
100
AcDbSymbolTableRecord
100
AcDbLayerTableRecord
  2
52
 70
     0
 62
    52
  6
CONTINUOUS
370
    -3
390
F
  0
LAYER
  5
6E
330
2
100
AcDbSymbolTableRecord
100
AcDbLayerTableRecord
  2
53
 70
     0
 62
    53
  6
CONTINUOUS
370
    -3
390
F
  0
LAYER
  5
6F
330
2
100
AcDbSymbolTableRecord
100
AcDbLayerTableRecord
  2
54
 70
     0
 62
    54
  6
CONTINUOUS
370
    -3
390
F
  0
LAYER
  5
70
330
2
100
AcDbSymbolTableRecord
100
AcDbLayerTableRecord
  2
55
 70
     0
 62
    55
  6
CONTINUOUS
370
    -3
390
F
  0
LAYER
  5
71
330
2
100
AcDbSymbolTableRecord
100
AcDbLayerTableRecord
  2
56
 70
     0
 62
    56
  6
CONTINUOUS
370
    -3
390
F
  0
LAYER
  5
72
330
2
100
AcDbSymbolTableRecord
100
AcDbLayerTableRecord
  2
57
 70
     0
 62
    57
  6
CONTINUOUS
370
    -3
390
F
  0
LAYER
  5
73
330
2
100
AcDbSymbolTableRecord
100
AcDbLayerTableRecord
  2
58
 70
     0
 62
    58
  6
CONTINUOUS
370
    -3
390
F
  0
LAYER
  5
74
330
2
100
AcDbSymbolTableRecord
100
AcDbLayerTableRecord
  2
59
 70
     0
 62
    59
  6
CONTINUOUS
370
    -3
390
F
  0
LAYER
  5
75
330
2
100
AcDbSymbolTableRecord
100
AcDbLayerTableRecord
  2
60
 70
     0
 62
    60
  6
CONTINUOUS
370
    -3
390
F
  0
LAYER
  5
76
330
2
100
AcDbSymbolTableRecord
100
AcDbLayerTableRecord
  2
61
 70
     0
 62
    61
  6
CONTINUOUS
370
    -3
390
F
  0
LAYER
  5
77
330
2
100
AcDbSymbolTableRecord
100
AcDbLayerTableRecord
  2
62
 70
     0
 62
    62
  6
CONTINUOUS
370
    -3
390
F
  0
LAYER
  5
78
330
2
100
AcDbSymbolTableRecord
100
AcDbLayerTableRecord
  2
63
 70
     0
 62
    63
  6
CONTINUOUS
370
    -3
390
F
  0
LAYER
  5
79
330
2
100
AcDbSymbolTableRecord
100
AcDbLayerTableRecord
  2
64
 70
     0
 62
    64
  6
CONTINUOUS
370
    -3
390
F
  0
LAYER
  5
7A
330
2
100
AcDbSymbolTableRecord
100
AcDbLayerTableRecord
  2
65
 70
     0
 62
    65
  6
CONTINUOUS
370
    -3
390
F
  0
LAYER
  5
7B
330
2
100
AcDbSymbolTableRecord
100
AcDbLayerTableRecord
  2
66
 70
     0
 62
    66
  6
CONTINUOUS
370
    -3
390
F
  0
LAYER
  5
7C
330
2
100
AcDbSymbolTableRecord
100
AcDbLayerTableRecord
  2
67
 70
     0
 62
    67
  6
CONTINUOUS
370
    -3
390
F
  0
LAYER
  5
7D
330
2
100
AcDbSymbolTableRecord
100
AcDbLayerTableRecord
  2
68
 70
     0
 62
    68
  6
CONTINUOUS
370
    -3
390
F
  0
LAYER
  5
7E
330
2
100
AcDbSymbolTableRecord
100
AcDbLayerTableRecord
  2
69
 70
     0
 62
    69
  6
CONTINUOUS
370
    -3
390
F
  0
LAYER
  5
7F
330
2
100
AcDbSymbolTableRecord
100
AcDbLayerTableRecord
  2
70
 70
     0
 62
    70
  6
CONTINUOUS
370
    -3
390
F
  0
LAYER
  5
80
330
2
100
AcDbSymbolTableRecord
100
AcDbLayerTableRecord
  2
71
 70
     0
 62
    71
  6
CONTINUOUS
370
    -3
390
F
  0
LAYER
  5
81
330
2
100
AcDbSymbolTableRecord
100
AcDbLayerTableRecord
  2
72
 70
     0
 62
    72
  6
CONTINUOUS
370
    -3
390
F
  0
LAYER
  5
82
330
2
100
AcDbSymbolTableRecord
100
AcDbLayerTableRecord
  2
73
 70
     0
 62
    73
  6
CONTINUOUS
370
    -3
390
F
  0
LAYER
  5
83
330
2
100
AcDbSymbolTableRecord
100
AcDbLayerTableRecord
  2
74
 70
     0
 62
    74
  6
CONTINUOUS
370
    -3
390
F
  0
LAYER
  5
84
330
2
100
AcDbSymbolTableRecord
100
AcDbLayerTableRecord
  2
75
 70
     0
 62
    75
  6
CONTINUOUS
370
    -3
390
F
  0
LAYER
  5
85
330
2
100
AcDbSymbolTableRecord
100
AcDbLayerTableRecord
  2
76
 70
     0
 62
    76
  6
CONTINUOUS
370
    -3
390
F
  0
LAYER
  5
86
330
2
100
AcDbSymbolTableRecord
100
AcDbLayerTableRecord
  2
77
 70
     0
 62
    77
  6
CONTINUOUS
370
    -3
390
F
  0
LAYER
  5
87
330
2
100
AcDbSymbolTableRecord
100
AcDbLayerTableRecord
  2
78
 70
     0
 62
    78
  6
CONTINUOUS
370
    -3
390
F
  0
LAYER
  5
88
330
2
100
AcDbSymbolTableRecord
100
AcDbLayerTableRecord
  2
79
 70
     0
 62
    79
  6
CONTINUOUS
370
    -3
390
F
  0
LAYER
  5
89
330
2
100
AcDbSymbolTableRecord
100
AcDbLayerTableRecord
  2
80
 70
     0
 62
    80
  6
CONTINUOUS
370
    -3
390
F
  0
LAYER
  5
8A
330
2
100
AcDbSymbolTableRecord
100
AcDbLayerTableRecord
  2
81
 70
     0
 62
    81
  6
CONTINUOUS
370
    -3
390
F
  0
LAYER
  5
8B
330
2
100
AcDbSymbolTableRecord
100
AcDbLayerTableRecord
  2
82
 70
     0
 62
    82
  6
CONTINUOUS
370
    -3
390
F
  0
LAYER
  5
8C
330
2
100
AcDbSymbolTableRecord
100
AcDbLayerTableRecord
  2
83
 70
     0
 62
    83
  6
CONTINUOUS
370
    -3
390
F
  0
LAYER
  5
8D
330
2
100
AcDbSymbolTableRecord
100
AcDbLayerTableRecord
  2
84
 70
     0
 62
    84
  6
CONTINUOUS
370
    -3
390
F
  0
LAYER
  5
8E
330
2
100
AcDbSymbolTableRecord
100
AcDbLayerTableRecord
  2
85
 70
     0
 62
    85
  6
CONTINUOUS
370
    -3
390
F
  0
LAYER
  5
8F
330
2
100
AcDbSymbolTableRecord
100
AcDbLayerTableRecord
  2
86
 70
     0
 62
    86
  6
CONTINUOUS
370
    -3
390
F
  0
LAYER
  5
90
330
2
100
AcDbSymbolTableRecord
100
AcDbLayerTableRecord
  2
87
 70
     0
 62
    87
  6
CONTINUOUS
370
    -3
390
F
  0
LAYER
  5
91
330
2
100
AcDbSymbolTableRecord
100
AcDbLayerTableRecord
  2
88
 70
     0
 62
    88
  6
CONTINUOUS
370
    -3
390
F
  0
LAYER
  5
92
330
2
100
AcDbSymbolTableRecord
100
AcDbLayerTableRecord
  2
89
 70
     0
 62
    89
  6
CONTINUOUS
370
    -3
390
F
  0
LAYER
  5
93
330
2
100
AcDbSymbolTableRecord
100
AcDbLayerTableRecord
  2
90
 70
     0
 62
    90
  6
CONTINUOUS
370
    -3
390
F
  0
LAYER
  5
94
330
2
100
AcDbSymbolTableRecord
100
AcDbLayerTableRecord
  2
91
 70
     0
 62
    91
  6
CONTINUOUS
370
    -3
390
F
  0
LAYER
  5
95
330
2
100
AcDbSymbolTableRecord
100
AcDbLayerTableRecord
  2
92
 70
     0
 62
    92
  6
CONTINUOUS
370
    -3
390
F
  0
LAYER
  5
96
330
2
100
AcDbSymbolTableRecord
100
AcDbLayerTableRecord
  2
93
 70
     0
 62
    93
  6
CONTINUOUS
370
    -3
390
F
  0
LAYER
  5
97
330
2
100
AcDbSymbolTableRecord
100
AcDbLayerTableRecord
  2
94
 70
     0
 62
    94
  6
CONTINUOUS
370
    -3
390
F
  0
LAYER
  5
98
330
2
100
AcDbSymbolTableRecord
100
AcDbLayerTableRecord
  2
95
 70
     0
 62
    95
  6
CONTINUOUS
370
    -3
390
F
  0
LAYER
  5
99
330
2
100
AcDbSymbolTableRecord
100
AcDbLayerTableRecord
  2
96
 70
     0
 62
    96
  6
CONTINUOUS
370
    -3
390
F
  0
LAYER
  5
9A
330
2
100
AcDbSymbolTableRecord
100
AcDbLayerTableRecord
  2
97
 70
     0
 62
    97
  6
CONTINUOUS
370
    -3
390
F
  0
LAYER
  5
9B
330
2
100
AcDbSymbolTableRecord
100
AcDbLayerTableRecord
  2
98
 70
     0
 62
    98
  6
CONTINUOUS
370
    -3
390
F
  0
LAYER
  5
9C
330
2
100
AcDbSymbolTableRecord
100
AcDbLayerTableRecord
  2
99
 70
     0
 62
    99
  6
CONTINUOUS
370
    -3
390
F
  0
LAYER
  5
9D
330
2
100
AcDbSymbolTableRecord
100
AcDbLayerTableRecord
  2
100
 70
     0
 62
   100
  6
CONTINUOUS
370
    -3
390
F
  0
LAYER
  5
9E
330
2
100
AcDbSymbolTableRecord
100
AcDbLayerTableRecord
  2
101
 70
     0
 62
   101
  6
CONTINUOUS
370
    -3
390
F
  0
LAYER
  5
9F
330
2
100
AcDbSymbolTableRecord
100
AcDbLayerTableRecord
  2
102
 70
     0
 62
   102
  6
CONTINUOUS
370
    -3
390
F
  0
LAYER
  5
A0
330
2
100
AcDbSymbolTableRecord
100
AcDbLayerTableRecord
  2
103
 70
     0
 62
   103
  6
CONTINUOUS
370
    -3
390
F
  0
LAYER
  5
A1
330
2
100
AcDbSymbolTableRecord
100
AcDbLayerTableRecord
  2
104
 70
     0
 62
   104
  6
CONTINUOUS
370
    -3
390
F
  0
LAYER
  5
A2
330
2
100
AcDbSymbolTableRecord
100
AcDbLayerTableRecord
  2
105
 70
     0
 62
   105
  6
CONTINUOUS
370
    -3
390
F
  0
LAYER
  5
A3
330
2
100
AcDbSymbolTableRecord
100
AcDbLayerTableRecord
  2
106
 70
     0
 62
   106
  6
CONTINUOUS
370
    -3
390
F
  0
LAYER
  5
A4
330
2
100
AcDbSymbolTableRecord
100
AcDbLayerTableRecord
  2
107
 70
     0
 62
   107
  6
CONTINUOUS
370
    -3
390
F
  0
LAYER
  5
A5
330
2
100
AcDbSymbolTableRecord
100
AcDbLayerTableRecord
  2
108
 70
     0
 62
   108
  6
CONTINUOUS
370
    -3
390
F
  0
LAYER
  5
A6
330
2
100
AcDbSymbolTableRecord
100
AcDbLayerTableRecord
  2
109
 70
     0
 62
   109
  6
CONTINUOUS
370
    -3
390
F
  0
LAYER
  5
A7
330
2
100
AcDbSymbolTableRecord
100
AcDbLayerTableRecord
  2
110
 70
     0
 62
   110
  6
CONTINUOUS
370
    -3
390
F
  0
LAYER
  5
A8
330
2
100
AcDbSymbolTableRecord
100
AcDbLayerTableRecord
  2
111
 70
     0
 62
   111
  6
CONTINUOUS
370
    -3
390
F
  0
LAYER
  5
A9
330
2
100
AcDbSymbolTableRecord
100
AcDbLayerTableRecord
  2
112
 70
     0
 62
   112
  6
CONTINUOUS
370
    -3
390
F
  0
LAYER
  5
AA
330
2
100
AcDbSymbolTableRecord
100
AcDbLayerTableRecord
  2
113
 70
     0
 62
   113
  6
CONTINUOUS
370
    -3
390
F
  0
LAYER
  5
AB
330
2
100
AcDbSymbolTableRecord
100
AcDbLayerTableRecord
  2
114
 70
     0
 62
   114
  6
CONTINUOUS
370
    -3
390
F
  0
LAYER
  5
AC
330
2
100
AcDbSymbolTableRecord
100
AcDbLayerTableRecord
  2
115
 70
     0
 62
   115
  6
CONTINUOUS
370
    -3
390
F
  0
LAYER
  5
AD
330
2
100
AcDbSymbolTableRecord
100
AcDbLayerTableRecord
  2
116
 70
     0
 62
   116
  6
CONTINUOUS
370
    -3
390
F
  0
LAYER
  5
AE
330
2
100
AcDbSymbolTableRecord
100
AcDbLayerTableRecord
  2
117
 70
     0
 62
   117
  6
CONTINUOUS
370
    -3
390
F
  0
LAYER
  5
AF
330
2
100
AcDbSymbolTableRecord
100
AcDbLayerTableRecord
  2
118
 70
     0
 62
   118
  6
CONTINUOUS
370
    -3
390
F
  0
LAYER
  5
B0
330
2
100
AcDbSymbolTableRecord
100
AcDbLayerTableRecord
  2
119
 70
     0
 62
   119
  6
CONTINUOUS
370
    -3
390
F
  0
LAYER
  5
B1
330
2
100
AcDbSymbolTableRecord
100
AcDbLayerTableRecord
  2
120
 70
     0
 62
   120
  6
CONTINUOUS
370
    -3
390
F
  0
LAYER
  5
B2
330
2
100
AcDbSymbolTableRecord
100
AcDbLayerTableRecord
  2
121
 70
     0
 62
   121
  6
CONTINUOUS
370
    -3
390
F
  0
LAYER
  5
B3
330
2
100
AcDbSymbolTableRecord
100
AcDbLayerTableRecord
  2
122
 70
     0
 62
   122
  6
CONTINUOUS
370
    -3
390
F
  0
LAYER
  5
B4
330
2
100
AcDbSymbolTableRecord
100
AcDbLayerTableRecord
  2
123
 70
     0
 62
   123
  6
CONTINUOUS
370
    -3
390
F
  0
LAYER
  5
B5
330
2
100
AcDbSymbolTableRecord
100
AcDbLayerTableRecord
  2
124
 70
     0
 62
   124
  6
CONTINUOUS
370
    -3
390
F
  0
LAYER
  5
B6
330
2
100
AcDbSymbolTableRecord
100
AcDbLayerTableRecord
  2
125
 70
     0
 62
   125
  6
CONTINUOUS
370
    -3
390
F
  0
LAYER
  5
B7
330
2
100
AcDbSymbolTableRecord
100
AcDbLayerTableRecord
  2
126
 70
     0
 62
   126
  6
CONTINUOUS
370
    -3
390
F
  0
LAYER
  5
B8
330
2
100
AcDbSymbolTableRecord
100
AcDbLayerTableRecord
  2
127
 70
     0
 62
   127
  6
CONTINUOUS
370
    -3
390
F
  0
LAYER
  5
B9
330
2
100
AcDbSymbolTableRecord
100
AcDbLayerTableRecord
  2
128
 70
     0
 62
   128
  6
CONTINUOUS
370
    -3
390
F
  0
LAYER
  5
BA
330
2
100
AcDbSymbolTableRecord
100
AcDbLayerTableRecord
  2
129
 70
     0
 62
   129
  6
CONTINUOUS
370
    -3
390
F
  0
LAYER
  5
BB
330
2
100
AcDbSymbolTableRecord
100
AcDbLayerTableRecord
  2
130
 70
     0
 62
   130
  6
CONTINUOUS
370
    -3
390
F
  0
LAYER
  5
BC
330
2
100
AcDbSymbolTableRecord
100
AcDbLayerTableRecord
  2
131
 70
     0
 62
   131
  6
CONTINUOUS
370
    -3
390
F
  0
LAYER
  5
BD
330
2
100
AcDbSymbolTableRecord
100
AcDbLayerTableRecord
  2
132
 70
     0
 62
   132
  6
CONTINUOUS
370
    -3
390
F
  0
LAYER
  5
BE
330
2
100
AcDbSymbolTableRecord
100
AcDbLayerTableRecord
  2
133
 70
     0
 62
   133
  6
CONTINUOUS
370
    -3
390
F
  0
LAYER
  5
BF
330
2
100
AcDbSymbolTableRecord
100
AcDbLayerTableRecord
  2
134
 70
     0
 62
   134
  6
CONTINUOUS
370
    -3
390
F
  0
LAYER
  5
C0
330
2
100
AcDbSymbolTableRecord
100
AcDbLayerTableRecord
  2
135
 70
     0
 62
   135
  6
CONTINUOUS
370
    -3
390
F
  0
LAYER
  5
C1
330
2
100
AcDbSymbolTableRecord
100
AcDbLayerTableRecord
  2
136
 70
     0
 62
   136
  6
CONTINUOUS
370
    -3
390
F
  0
LAYER
  5
C2
330
2
100
AcDbSymbolTableRecord
100
AcDbLayerTableRecord
  2
137
 70
     0
 62
   137
  6
CONTINUOUS
370
    -3
390
F
  0
LAYER
  5
C3
330
2
100
AcDbSymbolTableRecord
100
AcDbLayerTableRecord
  2
138
 70
     0
 62
   138
  6
CONTINUOUS
370
    -3
390
F
  0
LAYER
  5
C4
330
2
100
AcDbSymbolTableRecord
100
AcDbLayerTableRecord
  2
139
 70
     0
 62
   139
  6
CONTINUOUS
370
    -3
390
F
  0
LAYER
  5
C5
330
2
100
AcDbSymbolTableRecord
100
AcDbLayerTableRecord
  2
140
 70
     0
 62
   140
  6
CONTINUOUS
370
    -3
390
F
  0
LAYER
  5
C6
330
2
100
AcDbSymbolTableRecord
100
AcDbLayerTableRecord
  2
141
 70
     0
 62
   141
  6
CONTINUOUS
370
    -3
390
F
  0
LAYER
  5
C7
330
2
100
AcDbSymbolTableRecord
100
AcDbLayerTableRecord
  2
142
 70
     0
 62
   142
  6
CONTINUOUS
370
    -3
390
F
  0
LAYER
  5
C8
330
2
100
AcDbSymbolTableRecord
100
AcDbLayerTableRecord
  2
143
 70
     0
 62
   143
  6
CONTINUOUS
370
    -3
390
F
  0
LAYER
  5
C9
330
2
100
AcDbSymbolTableRecord
100
AcDbLayerTableRecord
  2
144
 70
     0
 62
   144
  6
CONTINUOUS
370
    -3
390
F
  0
LAYER
  5
CA
330
2
100
AcDbSymbolTableRecord
100
AcDbLayerTableRecord
  2
145
 70
     0
 62
   145
  6
CONTINUOUS
370
    -3
390
F
  0
LAYER
  5
CB
330
2
100
AcDbSymbolTableRecord
100
AcDbLayerTableRecord
  2
146
 70
     0
 62
   146
  6
CONTINUOUS
370
    -3
390
F
  0
LAYER
  5
CC
330
2
100
AcDbSymbolTableRecord
100
AcDbLayerTableRecord
  2
147
 70
     0
 62
   147
  6
CONTINUOUS
370
    -3
390
F
  0
LAYER
  5
CD
330
2
100
AcDbSymbolTableRecord
100
AcDbLayerTableRecord
  2
148
 70
     0
 62
   148
  6
CONTINUOUS
370
    -3
390
F
  0
LAYER
  5
CE
330
2
100
AcDbSymbolTableRecord
100
AcDbLayerTableRecord
  2
149
 70
     0
 62
   149
  6
CONTINUOUS
370
    -3
390
F
  0
LAYER
  5
CF
330
2
100
AcDbSymbolTableRecord
100
AcDbLayerTableRecord
  2
150
 70
     0
 62
   150
  6
CONTINUOUS
370
    -3
390
F
  0
LAYER
  5
D0
330
2
100
AcDbSymbolTableRecord
100
AcDbLayerTableRecord
  2
151
 70
     0
 62
   151
  6
CONTINUOUS
370
    -3
390
F
  0
LAYER
  5
D1
330
2
100
AcDbSymbolTableRecord
100
AcDbLayerTableRecord
  2
152
 70
     0
 62
   152
  6
CONTINUOUS
370
    -3
390
F
  0
LAYER
  5
D2
330
2
100
AcDbSymbolTableRecord
100
AcDbLayerTableRecord
  2
153
 70
     0
 62
   153
  6
CONTINUOUS
370
    -3
390
F
  0
LAYER
  5
D3
330
2
100
AcDbSymbolTableRecord
100
AcDbLayerTableRecord
  2
154
 70
     0
 62
   154
  6
CONTINUOUS
370
    -3
390
F
  0
LAYER
  5
D4
330
2
100
AcDbSymbolTableRecord
100
AcDbLayerTableRecord
  2
155
 70
     0
 62
   155
  6
CONTINUOUS
370
    -3
390
F
  0
LAYER
  5
D5
330
2
100
AcDbSymbolTableRecord
100
AcDbLayerTableRecord
  2
156
 70
     0
 62
   156
  6
CONTINUOUS
370
    -3
390
F
  0
LAYER
  5
D6
330
2
100
AcDbSymbolTableRecord
100
AcDbLayerTableRecord
  2
157
 70
     0
 62
   157
  6
CONTINUOUS
370
    -3
390
F
  0
LAYER
  5
D7
330
2
100
AcDbSymbolTableRecord
100
AcDbLayerTableRecord
  2
158
 70
     0
 62
   158
  6
CONTINUOUS
370
    -3
390
F
  0
LAYER
  5
D8
330
2
100
AcDbSymbolTableRecord
100
AcDbLayerTableRecord
  2
159
 70
     0
 62
   159
  6
CONTINUOUS
370
    -3
390
F
  0
LAYER
  5
D9
330
2
100
AcDbSymbolTableRecord
100
AcDbLayerTableRecord
  2
160
 70
     0
 62
   160
  6
CONTINUOUS
370
    -3
390
F
  0
LAYER
  5
DA
330
2
100
AcDbSymbolTableRecord
100
AcDbLayerTableRecord
  2
161
 70
     0
 62
   161
  6
CONTINUOUS
370
    -3
390
F
  0
LAYER
  5
DB
330
2
100
AcDbSymbolTableRecord
100
AcDbLayerTableRecord
  2
162
 70
     0
 62
   162
  6
CONTINUOUS
370
    -3
390
F
  0
LAYER
  5
DC
330
2
100
AcDbSymbolTableRecord
100
AcDbLayerTableRecord
  2
163
 70
     0
 62
   163
  6
CONTINUOUS
370
    -3
390
F
  0
LAYER
  5
DD
330
2
100
AcDbSymbolTableRecord
100
AcDbLayerTableRecord
  2
164
 70
     0
 62
   164
  6
CONTINUOUS
370
    -3
390
F
  0
LAYER
  5
DE
330
2
100
AcDbSymbolTableRecord
100
AcDbLayerTableRecord
  2
165
 70
     0
 62
   165
  6
CONTINUOUS
370
    -3
390
F
  0
LAYER
  5
DF
330
2
100
AcDbSymbolTableRecord
100
AcDbLayerTableRecord
  2
166
 70
     0
 62
   166
  6
CONTINUOUS
370
    -3
390
F
  0
LAYER
  5
E0
330
2
100
AcDbSymbolTableRecord
100
AcDbLayerTableRecord
  2
167
 70
     0
 62
   167
  6
CONTINUOUS
370
    -3
390
F
  0
LAYER
  5
E1
330
2
100
AcDbSymbolTableRecord
100
AcDbLayerTableRecord
  2
168
 70
     0
 62
   168
  6
CONTINUOUS
370
    -3
390
F
  0
LAYER
  5
E2
330
2
100
AcDbSymbolTableRecord
100
AcDbLayerTableRecord
  2
169
 70
     0
 62
   169
  6
CONTINUOUS
370
    -3
390
F
  0
LAYER
  5
E3
330
2
100
AcDbSymbolTableRecord
100
AcDbLayerTableRecord
  2
170
 70
     0
 62
   170
  6
CONTINUOUS
370
    -3
390
F
  0
LAYER
  5
E4
330
2
100
AcDbSymbolTableRecord
100
AcDbLayerTableRecord
  2
171
 70
     0
 62
   171
  6
CONTINUOUS
370
    -3
390
F
  0
LAYER
  5
E5
330
2
100
AcDbSymbolTableRecord
100
AcDbLayerTableRecord
  2
172
 70
     0
 62
   172
  6
CONTINUOUS
370
    -3
390
F
  0
LAYER
  5
E6
330
2
100
AcDbSymbolTableRecord
100
AcDbLayerTableRecord
  2
173
 70
     0
 62
   173
  6
CONTINUOUS
370
    -3
390
F
  0
LAYER
  5
E7
330
2
100
AcDbSymbolTableRecord
100
AcDbLayerTableRecord
  2
174
 70
     0
 62
   174
  6
CONTINUOUS
370
    -3
390
F
  0
LAYER
  5
E8
330
2
100
AcDbSymbolTableRecord
100
AcDbLayerTableRecord
  2
175
 70
     0
 62
   175
  6
CONTINUOUS
370
    -3
390
F
  0
LAYER
  5
E9
330
2
100
AcDbSymbolTableRecord
100
AcDbLayerTableRecord
  2
176
 70
     0
 62
   176
  6
CONTINUOUS
370
    -3
390
F
  0
LAYER
  5
EA
330
2
100
AcDbSymbolTableRecord
100
AcDbLayerTableRecord
  2
177
 70
     0
 62
   177
  6
CONTINUOUS
370
    -3
390
F
  0
LAYER
  5
EB
330
2
100
AcDbSymbolTableRecord
100
AcDbLayerTableRecord
  2
178
 70
     0
 62
   178
  6
CONTINUOUS
370
    -3
390
F
  0
LAYER
  5
EC
330
2
100
AcDbSymbolTableRecord
100
AcDbLayerTableRecord
  2
179
 70
     0
 62
   179
  6
CONTINUOUS
370
    -3
390
F
  0
LAYER
  5
ED
330
2
100
AcDbSymbolTableRecord
100
AcDbLayerTableRecord
  2
180
 70
     0
 62
   180
  6
CONTINUOUS
370
    -3
390
F
  0
LAYER
  5
EE
330
2
100
AcDbSymbolTableRecord
100
AcDbLayerTableRecord
  2
181
 70
     0
 62
   181
  6
CONTINUOUS
370
    -3
390
F
  0
LAYER
  5
EF
330
2
100
AcDbSymbolTableRecord
100
AcDbLayerTableRecord
  2
182
 70
     0
 62
   182
  6
CONTINUOUS
370
    -3
390
F
  0
LAYER
  5
F0
330
2
100
AcDbSymbolTableRecord
100
AcDbLayerTableRecord
  2
183
 70
     0
 62
   183
  6
CONTINUOUS
370
    -3
390
F
  0
LAYER
  5
F1
330
2
100
AcDbSymbolTableRecord
100
AcDbLayerTableRecord
  2
184
 70
     0
 62
   184
  6
CONTINUOUS
370
    -3
390
F
  0
LAYER
  5
F2
330
2
100
AcDbSymbolTableRecord
100
AcDbLayerTableRecord
  2
185
 70
     0
 62
   185
  6
CONTINUOUS
370
    -3
390
F
  0
LAYER
  5
F3
330
2
100
AcDbSymbolTableRecord
100
AcDbLayerTableRecord
  2
186
 70
     0
 62
   186
  6
CONTINUOUS
370
    -3
390
F
  0
LAYER
  5
F4
330
2
100
AcDbSymbolTableRecord
100
AcDbLayerTableRecord
  2
187
 70
     0
 62
   187
  6
CONTINUOUS
370
    -3
390
F
  0
LAYER
  5
F5
330
2
100
AcDbSymbolTableRecord
100
AcDbLayerTableRecord
  2
188
 70
     0
 62
   188
  6
CONTINUOUS
370
    -3
390
F
  0
LAYER
  5
F6
330
2
100
AcDbSymbolTableRecord
100
AcDbLayerTableRecord
  2
189
 70
     0
 62
   189
  6
CONTINUOUS
370
    -3
390
F
  0
LAYER
  5
F7
330
2
100
AcDbSymbolTableRecord
100
AcDbLayerTableRecord
  2
190
 70
     0
 62
   190
  6
CONTINUOUS
370
    -3
390
F
  0
LAYER
  5
F8
330
2
100
AcDbSymbolTableRecord
100
AcDbLayerTableRecord
  2
191
 70
     0
 62
   191
  6
CONTINUOUS
370
    -3
390
F
  0
LAYER
  5
F9
330
2
100
AcDbSymbolTableRecord
100
AcDbLayerTableRecord
  2
192
 70
     0
 62
   192
  6
CONTINUOUS
370
    -3
390
F
  0
LAYER
  5
FA
330
2
100
AcDbSymbolTableRecord
100
AcDbLayerTableRecord
  2
193
 70
     0
 62
   193
  6
CONTINUOUS
370
    -3
390
F
  0
LAYER
  5
FB
330
2
100
AcDbSymbolTableRecord
100
AcDbLayerTableRecord
  2
194
 70
     0
 62
   194
  6
CONTINUOUS
370
    -3
390
F
  0
LAYER
  5
FC
330
2
100
AcDbSymbolTableRecord
100
AcDbLayerTableRecord
  2
195
 70
     0
 62
   195
  6
CONTINUOUS
370
    -3
390
F
  0
LAYER
  5
FD
330
2
100
AcDbSymbolTableRecord
100
AcDbLayerTableRecord
  2
196
 70
     0
 62
   196
  6
CONTINUOUS
370
    -3
390
F
  0
LAYER
  5
FE
330
2
100
AcDbSymbolTableRecord
100
AcDbLayerTableRecord
  2
197
 70
     0
 62
   197
  6
CONTINUOUS
370
    -3
390
F
  0
LAYER
  5
FF
330
2
100
AcDbSymbolTableRecord
100
AcDbLayerTableRecord
  2
198
 70
     0
 62
   198
  6
CONTINUOUS
370
    -3
390
F
  0
LAYER
  5
100
330
2
100
AcDbSymbolTableRecord
100
AcDbLayerTableRecord
  2
199
 70
     0
 62
   199
  6
CONTINUOUS
370
    -3
390
F
  0
LAYER
  5
101
330
2
100
AcDbSymbolTableRecord
100
AcDbLayerTableRecord
  2
200
 70
     0
 62
   200
  6
CONTINUOUS
370
    -3
390
F
  0
LAYER
  5
102
330
2
100
AcDbSymbolTableRecord
100
AcDbLayerTableRecord
  2
201
 70
     0
 62
   201
  6
CONTINUOUS
370
    -3
390
F
  0
LAYER
  5
103
330
2
100
AcDbSymbolTableRecord
100
AcDbLayerTableRecord
  2
202
 70
     0
 62
   202
  6
CONTINUOUS
370
    -3
390
F
  0
LAYER
  5
104
330
2
100
AcDbSymbolTableRecord
100
AcDbLayerTableRecord
  2
203
 70
     0
 62
   203
  6
CONTINUOUS
370
    -3
390
F
  0
LAYER
  5
105
330
2
100
AcDbSymbolTableRecord
100
AcDbLayerTableRecord
  2
204
 70
     0
 62
   204
  6
CONTINUOUS
370
    -3
390
F
  0
LAYER
  5
106
330
2
100
AcDbSymbolTableRecord
100
AcDbLayerTableRecord
  2
205
 70
     0
 62
   205
  6
CONTINUOUS
370
    -3
390
F
  0
LAYER
  5
107
330
2
100
AcDbSymbolTableRecord
100
AcDbLayerTableRecord
  2
206
 70
     0
 62
   206
  6
CONTINUOUS
370
    -3
390
F
  0
LAYER
  5
108
330
2
100
AcDbSymbolTableRecord
100
AcDbLayerTableRecord
  2
207
 70
     0
 62
   207
  6
CONTINUOUS
370
    -3
390
F
  0
LAYER
  5
109
330
2
100
AcDbSymbolTableRecord
100
AcDbLayerTableRecord
  2
208
 70
     0
 62
   208
  6
CONTINUOUS
370
    -3
390
F
  0
LAYER
  5
10A
330
2
100
AcDbSymbolTableRecord
100
AcDbLayerTableRecord
  2
209
 70
     0
 62
   209
  6
CONTINUOUS
370
    -3
390
F
  0
LAYER
  5
10B
330
2
100
AcDbSymbolTableRecord
100
AcDbLayerTableRecord
  2
210
 70
     0
 62
   210
  6
CONTINUOUS
370
    -3
390
F
  0
LAYER
  5
10C
330
2
100
AcDbSymbolTableRecord
100
AcDbLayerTableRecord
  2
211
 70
     0
 62
   211
  6
CONTINUOUS
370
    -3
390
F
  0
LAYER
  5
10D
330
2
100
AcDbSymbolTableRecord
100
AcDbLayerTableRecord
  2
212
 70
     0
 62
   212
  6
CONTINUOUS
370
    -3
390
F
  0
LAYER
  5
10E
330
2
100
AcDbSymbolTableRecord
100
AcDbLayerTableRecord
  2
213
 70
     0
 62
   213
  6
CONTINUOUS
370
    -3
390
F
  0
LAYER
  5
10F
330
2
100
AcDbSymbolTableRecord
100
AcDbLayerTableRecord
  2
214
 70
     0
 62
   214
  6
CONTINUOUS
370
    -3
390
F
  0
LAYER
  5
110
330
2
100
AcDbSymbolTableRecord
100
AcDbLayerTableRecord
  2
215
 70
     0
 62
   215
  6
CONTINUOUS
370
    -3
390
F
  0
LAYER
  5
111
330
2
100
AcDbSymbolTableRecord
100
AcDbLayerTableRecord
  2
216
 70
     0
 62
   216
  6
CONTINUOUS
370
    -3
390
F
  0
LAYER
  5
112
330
2
100
AcDbSymbolTableRecord
100
AcDbLayerTableRecord
  2
217
 70
     0
 62
   217
  6
CONTINUOUS
370
    -3
390
F
  0
LAYER
  5
113
330
2
100
AcDbSymbolTableRecord
100
AcDbLayerTableRecord
  2
218
 70
     0
 62
   218
  6
CONTINUOUS
370
    -3
390
F
  0
LAYER
  5
114
330
2
100
AcDbSymbolTableRecord
100
AcDbLayerTableRecord
  2
219
 70
     0
 62
   219
  6
CONTINUOUS
370
    -3
390
F
  0
LAYER
  5
115
330
2
100
AcDbSymbolTableRecord
100
AcDbLayerTableRecord
  2
220
 70
     0
 62
   220
  6
CONTINUOUS
370
    -3
390
F
  0
LAYER
  5
116
330
2
100
AcDbSymbolTableRecord
100
AcDbLayerTableRecord
  2
221
 70
     0
 62
   221
  6
CONTINUOUS
370
    -3
390
F
  0
LAYER
  5
117
330
2
100
AcDbSymbolTableRecord
100
AcDbLayerTableRecord
  2
222
 70
     0
 62
   222
  6
CONTINUOUS
370
    -3
390
F
  0
LAYER
  5
118
330
2
100
AcDbSymbolTableRecord
100
AcDbLayerTableRecord
  2
223
 70
     0
 62
   223
  6
CONTINUOUS
370
    -3
390
F
  0
LAYER
  5
119
330
2
100
AcDbSymbolTableRecord
100
AcDbLayerTableRecord
  2
224
 70
     0
 62
   224
  6
CONTINUOUS
370
    -3
390
F
  0
LAYER
  5
11A
330
2
100
AcDbSymbolTableRecord
100
AcDbLayerTableRecord
  2
225
 70
     0
 62
   225
  6
CONTINUOUS
370
    -3
390
F
  0
LAYER
  5
11B
330
2
100
AcDbSymbolTableRecord
100
AcDbLayerTableRecord
  2
226
 70
     0
 62
   226
  6
CONTINUOUS
370
    -3
390
F
  0
LAYER
  5
11C
330
2
100
AcDbSymbolTableRecord
100
AcDbLayerTableRecord
  2
227
 70
     0
 62
   227
  6
CONTINUOUS
370
    -3
390
F
  0
LAYER
  5
11D
330
2
100
AcDbSymbolTableRecord
100
AcDbLayerTableRecord
  2
228
 70
     0
 62
   228
  6
CONTINUOUS
370
    -3
390
F
  0
LAYER
  5
11E
330
2
100
AcDbSymbolTableRecord
100
AcDbLayerTableRecord
  2
229
 70
     0
 62
   229
  6
CONTINUOUS
370
    -3
390
F
  0
LAYER
  5
11F
330
2
100
AcDbSymbolTableRecord
100
AcDbLayerTableRecord
  2
230
 70
     0
 62
   230
  6
CONTINUOUS
370
    -3
390
F
  0
LAYER
  5
120
330
2
100
AcDbSymbolTableRecord
100
AcDbLayerTableRecord
  2
231
 70
     0
 62
   231
  6
CONTINUOUS
370
    -3
390
F
  0
LAYER
  5
121
330
2
100
AcDbSymbolTableRecord
100
AcDbLayerTableRecord
  2
232
 70
     0
 62
   232
  6
CONTINUOUS
370
    -3
390
F
  0
LAYER
  5
122
330
2
100
AcDbSymbolTableRecord
100
AcDbLayerTableRecord
  2
233
 70
     0
 62
   233
  6
CONTINUOUS
370
    -3
390
F
  0
LAYER
  5
123
330
2
100
AcDbSymbolTableRecord
100
AcDbLayerTableRecord
  2
234
 70
     0
 62
   234
  6
CONTINUOUS
370
    -3
390
F
  0
LAYER
  5
124
330
2
100
AcDbSymbolTableRecord
100
AcDbLayerTableRecord
  2
235
 70
     0
 62
   235
  6
CONTINUOUS
370
    -3
390
F
  0
LAYER
  5
125
330
2
100
AcDbSymbolTableRecord
100
AcDbLayerTableRecord
  2
236
 70
     0
 62
   236
  6
CONTINUOUS
370
    -3
390
F
  0
LAYER
  5
126
330
2
100
AcDbSymbolTableRecord
100
AcDbLayerTableRecord
  2
237
 70
     0
 62
   237
  6
CONTINUOUS
370
    -3
390
F
  0
LAYER
  5
127
330
2
100
AcDbSymbolTableRecord
100
AcDbLayerTableRecord
  2
238
 70
     0
 62
   238
  6
CONTINUOUS
370
    -3
390
F
  0
LAYER
  5
128
330
2
100
AcDbSymbolTableRecord
100
AcDbLayerTableRecord
  2
239
 70
     0
 62
   239
  6
CONTINUOUS
370
    -3
390
F
  0
LAYER
  5
129
330
2
100
AcDbSymbolTableRecord
100
AcDbLayerTableRecord
  2
240
 70
     0
 62
   240
  6
CONTINUOUS
370
    -3
390
F
  0
LAYER
  5
12A
330
2
100
AcDbSymbolTableRecord
100
AcDbLayerTableRecord
  2
241
 70
     0
 62
   241
  6
CONTINUOUS
370
    -3
390
F
  0
LAYER
  5
12B
330
2
100
AcDbSymbolTableRecord
100
AcDbLayerTableRecord
  2
242
 70
     0
 62
   242
  6
CONTINUOUS
370
    -3
390
F
  0
LAYER
  5
12C
330
2
100
AcDbSymbolTableRecord
100
AcDbLayerTableRecord
  2
243
 70
     0
 62
   243
  6
CONTINUOUS
370
    -3
390
F
  0
LAYER
  5
12D
330
2
100
AcDbSymbolTableRecord
100
AcDbLayerTableRecord
  2
244
 70
     0
 62
   244
  6
CONTINUOUS
370
    -3
390
F
  0
LAYER
  5
12E
330
2
100
AcDbSymbolTableRecord
100
AcDbLayerTableRecord
  2
245
 70
     0
 62
   245
  6
CONTINUOUS
370
    -3
390
F
  0
LAYER
  5
12F
330
2
100
AcDbSymbolTableRecord
100
AcDbLayerTableRecord
  2
246
 70
     0
 62
   246
  6
CONTINUOUS
370
    -3
390
F
  0
LAYER
  5
130
330
2
100
AcDbSymbolTableRecord
100
AcDbLayerTableRecord
  2
247
 70
     0
 62
   247
  6
CONTINUOUS
370
    -3
390
F
  0
LAYER
  5
131
330
2
100
AcDbSymbolTableRecord
100
AcDbLayerTableRecord
  2
248
 70
     0
 62
   248
  6
CONTINUOUS
370
    -3
390
F
  0
LAYER
  5
132
330
2
100
AcDbSymbolTableRecord
100
AcDbLayerTableRecord
  2
249
 70
     0
 62
   249
  6
CONTINUOUS
370
    -3
390
F
  0
LAYER
  5
133
330
2
100
AcDbSymbolTableRecord
100
AcDbLayerTableRecord
  2
250
 70
     0
 62
   250
  6
CONTINUOUS
370
    -3
390
F
  0
LAYER
  5
134
330
2
100
AcDbSymbolTableRecord
100
AcDbLayerTableRecord
  2
251
 70
     0
 62
   251
  6
CONTINUOUS
370
    -3
390
F
  0
LAYER
  5
135
330
2
100
AcDbSymbolTableRecord
100
AcDbLayerTableRecord
  2
252
 70
     0
 62
   252
  6
CONTINUOUS
370
    -3
390
F
  0
LAYER
  5
136
330
2
100
AcDbSymbolTableRecord
100
AcDbLayerTableRecord
  2
253
 70
     0
 62
   253
  6
CONTINUOUS
370
    -3
390
F
  0
LAYER
  5
137
330
2
100
AcDbSymbolTableRecord
100
AcDbLayerTableRecord
  2
254
 70
     0
 62
   254
  6
CONTINUOUS
370
    -3
390
F
  0
LAYER
  5
138
330
2
100
AcDbSymbolTableRecord
100
AcDbLayerTableRecord
  2
255
 70
     0
 62
   255
  6
CONTINUOUS
370
    -3
390
F
  0
ENDTAB
  0
TABLE
  2
STYLE
  5
3
330
0
100
AcDbSymbolTable
 70
     1
  0
STYLE
  5
11
330
3
100
AcDbSymbolTableRecord
100
AcDbTextStyleTableRecord
  2
STANDARD
 70
     0
 40
0.0
 41
1.0
 50
0.0
 71
     0
 42
0.2
  3
monotxt
  4

  0
ENDTAB
  0
TABLE
  2
VIEW
  5
6
330
0
100
AcDbSymbolTable
 70
     0
  0
ENDTAB
  0
TABLE
  2
UCS
  5
7
330
0
100
AcDbSymbolTable
 70
     0
  0
ENDTAB
  0
TABLE
  2
APPID
  5
9
330
0
100
AcDbSymbolTable
 70
     1
  0
APPID
  5
12
330
9
100
AcDbSymbolTableRecord
100
AcDbRegAppTableRecord
  2
ACAD
 70
     0
  0
ENDTAB
  0
TABLE
  2
DIMSTYLE
  5
A
330
0
100
AcDbSymbolTable
 70
     1
100
AcDbDimStyleTable
 71
     0
  0
DIMSTYLE
105
EF4
330
A
100
AcDbSymbolTableRecord
100
AcDbDimStyleTableRecord
  2
Standard
 70
     0
340
11
  0
ENDTAB
  0
TABLE
  2
BLOCK_RECORD
  5
1
330
0
100
AcDbSymbolTable
 70
     0
  0
BLOCK_RECORD
  5
1E
330
1
100
AcDbSymbolTableRecord
100
AcDbBlockTableRecord
  2
*Model_Space
340
21
  0
BLOCK_RECORD
  5
1A
330
1
100
AcDbSymbolTableRecord
100
AcDbBlockTableRecord
  2
*Paper_Space
340
1D
  0
ENDTAB
  0
ENDSEC
  0
SECTION
  2
BLOCKS
  0
BLOCK
  5
13B
330
1E
100
AcDbEntity
  8
0
100
AcDbBlockBegin
  2
*Model_Space
 70
     0
 10
0.0
 20
0.0
 30
0.0
  3
*Model_Space
  1

  0
ENDBLK
  5
13C
330
1E
100
AcDbEntity
  8
0
100
AcDbBlockEnd
  0
BLOCK
  5
139
330
1A
100
AcDbEntity
 67
     1
  8
0
100
AcDbBlockBegin
  2
*Paper_Space
 70
     0
 10
0.0
 20
0.0
 30
0.0
  3
*Paper_Space
  1

  0
ENDBLK
  5
13A
330
1A
100
AcDbEntity
 67
     1
  8
0
100
AcDbBlockEnd
  0
ENDSEC
  0
SECTION
  2
ENTITIES
  0
LINE
  5
13E
330
1E
100
AcDbEntity
  8
7
100
AcDbLine
 10
-1.451771653543306
 20
-0.5
 30
0.0
 11
-1.441929133858267
 21
-0.5
 31
0.0
  0
LINE
  5
13F
330
1E
100
AcDbEntity
  8
7
100
AcDbLine
 10
-1.391732283464566
 20
-0.5
 30
0.0
 11
-1.381889763779527
 21
-0.5
 31
0.0
  0
LWPOLYLINE
  5
140
330
1E
100
AcDbEntity
  8
7
100
AcDbPolyline
 90
        3
 70
     0
 43
0.0098425196850394
 10
-1.565944881889763
 20
-0.3297244094488189
 10
-1.579724409448818
 20
-0.3356299212598425
 10
-1.585629921259842
 20
-0.3494094488188976
  0
LINE
  5
145
330
1E
100
AcDbEntity
  8
7
100
AcDbLine
 10
-1.530511811023622
 20
-0.3297244094488189
 30
0.0
 11
-1.565944881889763
 21
-0.3297244094488189
 31
0.0
  0
LINE
  5
146
330
1E
100
AcDbEntity
  8
7
100
AcDbLine
 10
-1.5501968503937
 20
-0.3297244094488189
 30
0.0
 11
-1.5501968503937
 21
-0.3346456692913386
 31
0.0
  0
LWPOLYLINE
  5
147
330
1E
100
AcDbEntity
  8
7
100
AcDbPolyline
 90
        4
 70
     0
 43
0.0098425196850394
 10
-1.546259842519685
 20
-0.5098425196850394
 10
-1.545275590551181
 20
-0.5196850393700787
 10
-1.538385826771653
 20
-0.5167322834645669
 10
-1.535433070866141
 20
-0.5098425196850394
  0
LINE
  5
14D
330
1E
100
AcDbEntity
  8
7
100
AcDbLine
 10
-1.540354330708661
 20
-0.3346456692913386
 30
0.0
 11
-1.540354330708661
 21
-0.3297244094488189
 31
0.0
  0
LWPOLYLINE
  5
14E
330
1E
100
AcDbEntity
  8
7
100
AcDbPolyline
 90
        3
 70
     0
 43
0.0098425196850394
 10
-1.629921259842519
 20
-0.2598425196850393
 10
-1.643700787401574
 20
-0.265748031496063
 10
-1.649606299212598
 20
-0.2795275590551181
  0
LWPOLYLINE
  5
153
330
1E
100
AcDbEntity
  8
7
100
AcDbPolyline
 90
        8
 70
     0
 43
0.0098425196850394
 10
-1.649606299212598
 20
-0.2795275590551181
 10
-1.645669291338582
 20
-0.2795275590551181
 10
-1.634842519685039
 20
-0.2795275590551181
 10
-1.62007874015748
 20
-0.2795275590551181
 10
-1.62007874015748
 20
-0.265748031496063
 10
-1.62007874015748
 20
-0.2598425196850393
 10
-1.626968503937007
 20
-0.2598425196850393
 10
-1.629921259842519
 20
-0.2598425196850393
  0
LINE
  5
15D
330
1E
100
AcDbEntity
  8
7
100
AcDbLine
 10
-1.509842519685039
 20
-0.2726377952755905
 30
0.0
 11
-1.515748031496062
 21
-0.2726377952755905
 31
0.0
  0
LWPOLYLINE
  5
15E
330
1E
100
AcDbEntity
  8
7
100
AcDbPolyline
 90
        3
 70
     0
 43
0.0098425196850394
 10
-1.471456692913385
 20
-0.5098425196850394
 10
-1.451771653543306
 20
-0.5098425196850394
 10
-1.451771653543306
 20
-0.4901574803149607
  0
LINE
  5
163
330
1E
100
AcDbEntity
  8
7
100
AcDbLine
 10
-1.381889763779527
 20
-0.5098425196850394
 30
0.0
 11
-1.381889763779527
 21
-0.4901574803149607
 31
0.0
  0
LINE
  5
164
330
1E
100
AcDbEntity
  8
7
100
AcDbLine
 10
-1.381889763779527
 20
-0.5098425196850394
 30
0.0
 11
-1.362204724409448
 21
-0.5098425196850394
 31
0.0
  0
LINE
  5
165
330
1E
100
AcDbEntity
  8
7
100
AcDbLine
 10
-1.169291338582677
 20
-0.5098425196850394
 30
0.0
 11
-1.170275590551181
 21
-0.5098425196850394
 31
0.0
  0
LWPOLYLINE
  5
166
330
1E
100
AcDbEntity
  8
7
100
AcDbPolyline
 90
        3
 70
     0
 43
0.0098425196850394
 10
-1.530511811023622
 20
-0.3297244094488189
 10
-1.519685039370078
 20
-0.3257874015748031
 10
-1.515748031496062
 20
-0.3149606299212598
  0
LWPOLYLINE
  5
16B
330
1E
100
AcDbEntity
  8
7
100
AcDbPolyline
 90
        3
 70
     0
 43
0.0098425196850394
 10
-1.515748031496062
 20
-0.2598425196850393
 10
-1.515748031496062
 20
-0.265748031496063
 10
-1.515748031496062
 20
-0.2795275590551181
  0
LINE
  5
170
330
1E
100
AcDbEntity
  8
7
100
AcDbLine
 10
-1.62007874015748
 20
-0.2598425196850393
 30
0.0
 11
-1.515748031496062
 21
-0.2598425196850393
 31
0.0
  0
LINE
  5
171
330
1E
100
AcDbEntity
  8
7
100
AcDbLine
 10
-1.515748031496062
 20
-0.2795275590551181
 30
0.0
 11
-1.62007874015748
 21
-0.2795275590551181
 31
0.0
  0
LINE
  5
172
330
1E
100
AcDbEntity
  8
7
100
AcDbLine
 10
-1.670275590551181
 20
-0.3149606299212598
 30
0.0
 11
-1.670275590551181
 21
-0.4901574803149607
 31
0.0
  0
LWPOLYLINE
  5
173
330
1E
100
AcDbEntity
  8
7
100
AcDbPolyline
 90
        3
 70
     0
 43
0.0098425196850394
 10
-1.670275590551181
 20
-0.4901574803149607
 10
-1.667322834645669
 20
-0.4970472440944882
 10
-1.660433070866141
 20
-0.5
  0
LINE
  5
178
330
1E
100
AcDbEntity
  8
7
100
AcDbLine
 10
-1.660433070866141
 20
-0.5
 30
0.0
 11
-1.588582677165354
 21
-0.5
 31
0.0
  0
LINE
  5
179
330
1E
100
AcDbEntity
  8
7
100
AcDbLine
 10
-1.585629921259842
 20
-0.3494094488188976
 30
0.0
 11
-1.588582677165354
 21
-0.5
 31
0.0
  0
LINE
  5
17A
330
1E
100
AcDbEntity
  8
7
100
AcDbLine
 10
-1.515748031496062
 20
-0.3149606299212598
 30
0.0
 11
-1.515748031496062
 21
-0.2795275590551181
 31
0.0
  0
LINE
  5
17B
330
1E
100
AcDbEntity
  8
7
100
AcDbLine
 10
-1.62007874015748
 20
-0.3149606299212598
 30
0.0
 11
-1.62007874015748
 21
-0.2795275590551181
 31
0.0
  0
LINE
  5
17C
330
1E
100
AcDbEntity
  8
7
100
AcDbLine
 10
-1.62007874015748
 20
-0.3149606299212598
 30
0.0
 11
-1.670275590551181
 21
-0.3149606299212598
 31
0.0
  0
LINE
  5
17D
330
1E
100
AcDbEntity
  8
7
100
AcDbLine
 10
-1.689960629921259
 20
-0.4901574803149607
 30
0.0
 11
-1.689960629921259
 21
-0.3149606299212598
 31
0.0
  0
LWPOLYLINE
  5
17E
330
1E
100
AcDbEntity
  8
7
100
AcDbPolyline
 90
        3
 70
     0
 43
0.0098425196850394
 10
-1.689960629921259
 20
-0.4901574803149607
 10
-1.684055118110236
 20
-0.4901574803149607
 10
-1.670275590551181
 20
-0.4901574803149607
  0
LWPOLYLINE
  5
183
330
1E
100
AcDbEntity
  8
7
100
AcDbPolyline
 90
        3
 70
     0
 43
0.0098425196850394
 10
-1.689960629921259
 20
-0.3149606299212598
 10
-1.684055118110236
 20
-0.3149606299212598
 10
-1.670275590551181
 20
-0.3149606299212598
  0
LINE
  5
188
330
1E
100
AcDbEntity
  8
7
100
AcDbLine
 10
-1.649606299212598
 20
-0.2795275590551181
 30
0.0
 11
-1.650590551181102
 21
-0.3149606299212598
 31
0.0
  0
LWPOLYLINE
  5
189
330
1E
100
AcDbEntity
  8
7
100
AcDbPolyline
 90
        3
 70
     0
 43
0.0098425196850394
 10
-1.588582677165354
 20
-0.5196850393700787
 10
-1.588582677165354
 20
-0.5137795275590551
 10
-1.588582677165354
 20
-0.5
  0
LINE
  5
18E
330
1E
100
AcDbEntity
  8
7
100
AcDbLine
 10
-1.545275590551181
 20
-0.5196850393700787
 30
0.0
 11
-1.588582677165354
 21
-0.5196850393700787
 31
0.0
  0
LWPOLYLINE
  5
18F
330
1E
100
AcDbEntity
  8
7
100
AcDbPolyline
 90
        3
 70
     0
 43
0.0098425196850394
 10
-1.565944881889763
 20
-0.2125984251968504
 10
-1.715551181102362
 20
-0.2125984251968504
 10
-1.71751968503937
 20
-0.3149606299212598
  0
LINE
  5
194
330
1E
100
AcDbEntity
  8
7
100
AcDbLine
 10
-1.689960629921259
 20
-0.3149606299212598
 30
0.0
 11
-1.71751968503937
 21
-0.3149606299212598
 31
0.0
  0
LINE
  5
195
330
1E
100
AcDbEntity
  8
7
100
AcDbLine
 10
-1.585629921259842
 20
-0.2559055118110236
 30
0.0
 11
-1.585629921259842
 21
-0.2598425196850393
 31
0.0
  0
LWPOLYLINE
  5
196
330
1E
100
AcDbEntity
  8
7
100
AcDbPolyline
 90
        3
 70
     0
 43
0.0098425196850394
 10
-1.585629921259842
 20
-0.2559055118110236
 10
-1.581692913385826
 20
-0.2460629921259843
 10
-1.573818897637795
 20
-0.2411417322834645
  0
LINE
  5
19B
330
1E
100
AcDbEntity
  8
7
100
AcDbLine
 10
-1.418307086614173
 20
-0.1988188976377953
 30
0.0
 11
-1.573818897637795
 21
-0.2411417322834645
 31
0.0
  0
LWPOLYLINE
  5
19C
330
1E
100
AcDbEntity
  8
7
100
AcDbPolyline
 90
        3
 70
     0
 43
0.0098425196850394
 10
-1.418307086614173
 20
-0.1988188976377953
 10
-1.418307086614173
 20
-0.1505905511811024
 10
-1.463582677165354
 20
-0.1624015748031496
  0
LINE
  5
1A1
330
1E
100
AcDbEntity
  8
7
100
AcDbLine
 10
-1.502952755905511
 20
-0.1958661417322834
 30
0.0
 11
-1.463582677165354
 21
-0.1624015748031496
 31
0.0
  0
LINE
  5
1A2
330
1E
100
AcDbEntity
  8
7
100
AcDbLine
 10
-1.502952755905511
 20
-0.1958661417322834
 30
0.0
 11
-1.565944881889763
 21
-0.2125984251968504
 31
0.0
  0
LINE
  5
1A3
330
1E
100
AcDbEntity
  8
7
100
AcDbLine
 10
-1.312007874015747
 20
-0.1062992125984252
 30
0.0
 11
-1.311023622047243
 21
-0.1102362204724409
 31
0.0
  0
LINE
  5
1A4
330
1E
100
AcDbEntity
  8
7
100
AcDbLine
 10
-1.290354330708661
 20
-0.0994094488188977
 30
0.0
 11
-1.312007874015747
 21
-0.1062992125984252
 31
0.0
  0
LINE
  5
1A5
330
1E
100
AcDbEntity
  8
7
100
AcDbLine
 10
-1.290354330708661
 20
-0.0994094488188977
 30
0.0
 11
-1.288385826771653
 21
-0.1033464566929134
 31
0.0
  0
LINE
  5
1A6
330
1E
100
AcDbEntity
  8
7
100
AcDbLine
 10
-1.285433070866141
 20
-0.0974409448818898
 30
0.0
 11
-1.284448818897637
 21
-0.1013779527559055
 31
0.0
  0
LINE
  5
1A7
330
1E
100
AcDbEntity
  8
7
100
AcDbLine
 10
-1.285433070866141
 20
-0.0974409448818898
 30
0.0
 11
-1.290354330708661
 21
-0.0994094488188977
 31
0.0
  0
LWPOLYLINE
  5
1A8
330
1E
100
AcDbEntity
  8
7
100
AcDbPolyline
 90
        3
 70
     0
 43
0.0098425196850394
 10
-1.307086614173228
 20
-0.1496062992125984
 10
-1.285433070866141
 20
-0.1318897637795275
 10
-1.259842519685039
 20
-0.1190944881889764
  0
LINE
  5
1AD
330
1E
100
AcDbEntity
  8
7
100
AcDbLine
 10
-1.151574803149606
 20
-0.0816929133858268
 30
0.0
 11
-1.259842519685039
 21
-0.1190944881889764
 31
0.0
  0
LWPOLYLINE
  5
1AE
330
1E
100
AcDbEntity
  8
7
100
AcDbPolyline
 90
        3
 70
     0
 43
0.0098425196850394
 10
-1.127952755905511
 20
-0.078740157480315
 10
-1.097440944881889
 20
-0.0846456692913386
 10
-1.069881889763779
 20
-0.1003937007874016
  0
LWPOLYLINE
  5
1B3
330
1E
100
AcDbEntity
  8
7
100
AcDbPolyline
 90
        3
 70
     0
 43
0.0098425196850394
 10
-1.151574803149606
 20
-0.0816929133858268
 10
-1.127952755905511
 20
-0.078740157480315
 10
-1.219488188976378
 20
-0.078740157480315
  0
LINE
  5
1B8
330
1E
100
AcDbEntity
  8
7
100
AcDbLine
 10
-1.127952755905511
 20
-0.078740157480315
 30
0.0
 11
-1.056102362204724
 21
-0.078740157480315
 31
0.0
  0
LWPOLYLINE
  5
1B9
330
1E
100
AcDbEntity
  8
7
100
AcDbPolyline
 90
        4
 70
     0
 43
0.0098425196850394
 10
-1.057086614173228
 20
-0.0797244094488189
 10
-1.08759842519685
 20
-0.062007874015748
 10
-1.122047244094488
 20
-0.0551181102362205
 10
-1.157480314960629
 20
-0.0590551181102362
  0
LINE
  5
1BF
330
1E
100
AcDbEntity
  8
7
100
AcDbLine
 10
-1.157480314960629
 20
-0.0580708661417323
 30
0.0
 11
-1.219488188976378
 21
-0.078740157480315
 31
0.0
  0
LINE
  5
1C0
330
1E
100
AcDbEntity
  8
7
100
AcDbLine
 10
-1.27755905511811
 20
-0.094488188976378
 30
0.0
 11
-1.276574803149606
 21
-0.0984251968503937
 31
0.0
  0
LINE
  5
1C1
330
1E
100
AcDbEntity
  8
7
100
AcDbLine
 10
-1.246062992125984
 20
-0.0836614173228347
 30
0.0
 11
-1.24507874015748
 21
-0.0875984251968504
 31
0.0
  0
LWPOLYLINE
  5
1C2
330
1E
100
AcDbEntity
  8
7
100
AcDbPolyline
 90
        3
 70
     0
 43
0.0098425196850394
 10
-1.246062992125984
 20
-0.0836614173228347
 10
-1.254921259842519
 20
-0.0866141732283465
 10
-1.252952755905511
 20
-0.0905511811023622
  0
LINE
  5
1C7
330
1E
100
AcDbEntity
  8
7
100
AcDbLine
 10
-1.254921259842519
 20
-0.0866141732283465
 30
0.0
 11
-1.27755905511811
 21
-0.094488188976378
 31
0.0
  0
LINE
  5
1C8
330
1E
100
AcDbEntity
  8
7
100
AcDbLine
 10
-1.213582677165354
 20
-0.0728346456692913
 30
0.0
 11
-1.21259842519685
 21
-0.0767716535433071
 31
0.0
  0
LWPOLYLINE
  5
1C9
330
1E
100
AcDbEntity
  8
7
100
AcDbPolyline
 90
        3
 70
     0
 43
0.0098425196850394
 10
-1.213582677165354
 20
-0.0728346456692913
 10
-1.231299212598425
 20
-0.078740157480315
 10
-1.230314960629921
 20
-0.0826771653543307
  0
LWPOLYLINE
  5
1CE
330
1E
100
AcDbEntity
  8
7
100
AcDbPolyline
 90
        3
 70
     0
 43
0.0098425196850394
 10
-1.231299212598425
 20
-0.078740157480315
 10
-1.238188976377952
 20
-0.0816929133858268
 10
-1.237204724409448
 20
-0.0846456692913386
  0
LINE
  5
1D3
330
1E
100
AcDbEntity
  8
7
100
AcDbLine
 10
-1.206692913385826
 20
-0.0708661417322835
 30
0.0
 11
-1.205708661417322
 21
-0.0738188976377953
 31
0.0
  0
LINE
  5
1D4
330
1E
100
AcDbEntity
  8
7
100
AcDbLine
 10
-1.206692913385826
 20
-0.0708661417322835
 30
0.0
 11
-1.213582677165354
 21
-0.0728346456692913
 31
0.0
  0
LINE
  5
1D5
330
1E
100
AcDbEntity
  8
7
100
AcDbLine
 10
-1.198818897637795
 20
-0.0679133858267717
 30
0.0
 11
-1.197834645669291
 21
-0.0718503937007874
 31
0.0
  0
LINE
  5
1D6
330
1E
100
AcDbEntity
  8
7
100
AcDbLine
 10
-1.195866141732283
 20
-0.0669291338582677
 30
0.0
 11
-1.193897637795275
 21
-0.0708661417322835
 31
0.0
  0
LINE
  5
1D7
330
1E
100
AcDbEntity
  8
7
100
AcDbLine
 10
-1.195866141732283
 20
-0.0669291338582677
 30
0.0
 11
-1.198818897637795
 21
-0.0679133858267717
 31
0.0
  0
LINE
  5
1D8
330
1E
100
AcDbEntity
  8
7
100
AcDbLine
 10
-1.164370078740157
 20
-0.0561023622047244
 30
0.0
 11
-1.163385826771653
 21
-0.0600393700787402
 31
0.0
  0
LWPOLYLINE
  5
1D9
330
1E
100
AcDbEntity
  8
7
100
AcDbPolyline
 90
        3
 70
     0
 43
0.0098425196850394
 10
-1.164370078740157
 20
-0.0561023622047244
 10
-1.174212598425196
 20
-0.0590551181102362
 10
-1.173228346456692
 20
-0.062992125984252
  0
LINE
  5
1DE
330
1E
100
AcDbEntity
  8
7
100
AcDbLine
 10
-1.178149606299212
 20
-0.0610236220472441
 30
0.0
 11
-1.177165354330708
 21
-0.0649606299212598
 31
0.0
  0
LINE
  5
1DF
330
1E
100
AcDbEntity
  8
7
100
AcDbLine
 10
-1.174212598425196
 20
-0.0590551181102362
 30
0.0
 11
-1.178149606299212
 21
-0.0610236220472441
 31
0.0
  0
LWPOLYLINE
  5
1E0
330
1E
100
AcDbEntity
  8
7
100
AcDbPolyline
 90
        3
 70
     0
 43
0.0098425196850394
 10
-1.178149606299212
 20
-0.0610236220472441
 10
-1.187992125984251
 20
-0.0639763779527559
 10
-1.187007874015747
 20
-0.0679133858267717
  0
LINE
  5
1E5
330
1E
100
AcDbEntity
  8
7
100
AcDbLine
 10
-1.056102362204724
 20
-0.078740157480315
 30
0.0
 11
-1.054133858267716
 21
-0.0807086614173228
 31
0.0
  0
LINE
  5
1E6
330
1E
100
AcDbEntity
  8
7
100
AcDbLine
 10
-1.069881889763779
 20
-0.1003937007874016
 30
0.0
 11
-1.058070866141732
 21
-0.1102362204724409
 31
0.0
  0
LINE
  5
1E7
330
1E
100
AcDbEntity
  8
7
100
AcDbLine
 10
-1.021653543307086
 20
-0.1535433070866142
 30
0.0
 11
-0.9005905511811022
 21
-0.2559055118110236
 31
0.0
  0
LWPOLYLINE
  5
1E8
330
1E
100
AcDbEntity
  8
7
100
AcDbPolyline
 90
        3
 70
     0
 43
0.0098425196850394
 10
-0.8779527559055118
 20
-0.2283464566929134
 10
-0.8720472440944881
 20
-0.2381889763779527
 10
-0.8730314960629922
 20
-0.2490157480314961
  0
LWPOLYLINE
  5
1ED
330
1E
100
AcDbEntity
  8
7
100
AcDbPolyline
 90
        4
 70
     0
 43
0.0098425196850394
 10
-0.8730314960629922
 20
-0.2490157480314961
 10
-0.8799212598425196
 20
-0.2568897637795275
 10
-0.8907480314960629
 20
-0.2598425196850393
 10
-0.9005905511811022
 20
-0.2559055118110236
  0
LINE
  5
1F3
330
1E
100
AcDbEntity
  8
7
100
AcDbLine
 10
-1.054133858267716
 20
-0.0807086614173228
 30
0.0
 11
-0.8779527559055118
 21
-0.2283464566929134
 31
0.0
  0
LINE
  5
1F4
330
1E
100
AcDbEntity
  8
7
100
AcDbLine
 10
-1.058070866141732
 20
-0.1102362204724409
 30
0.0
 11
-1.035433070866141
 21
-0.1368110236220472
 31
0.0
  0
LINE
  5
1F5
330
1E
100
AcDbEntity
  8
7
100
AcDbLine
 10
-1.021653543307086
 20
-0.1535433070866142
 30
0.0
 11
-1.035433070866141
 21
-0.1368110236220472
 31
0.0
  0
LWPOLYLINE
  5
1F6
330
1E
100
AcDbEntity
  8
7
100
AcDbPolyline
 90
        3
 70
     0
 43
0.0098425196850394
 10
-1.312007874015747
 20
-0.1062992125984252
 10
-1.316929133858267
 20
-0.1082677165354331
 10
-1.315944881889763
 20
-0.1122047244094488
  0
LINE
  5
1FB
330
1E
100
AcDbEntity
  8
7
100
AcDbLine
 10
-1.352362204724409
 20
-0.1200787401574803
 30
0.0
 11
-1.357283464566929
 21
-0.1220472440944882
 31
0.0
  0
LINE
  5
1FC
330
1E
100
AcDbEntity
  8
7
100
AcDbLine
 10
-1.349409448818897
 20
-0.1190944881889764
 30
0.0
 11
-1.352362204724409
 21
-0.1200787401574803
 31
0.0
  0
LINE
  5
1FD
330
1E
100
AcDbEntity
  8
7
100
AcDbLine
 10
-1.33267716535433
 20
-0.1131889763779527
 30
0.0
 11
-1.349409448818897
 21
-0.1190944881889764
 31
0.0
  0
LINE
  5
1FE
330
1E
100
AcDbEntity
  8
7
100
AcDbLine
 10
-1.329724409448818
 20
-0.1131889763779527
 30
0.0
 11
-1.33267716535433
 21
-0.1131889763779527
 31
0.0
  0
LWPOLYLINE
  5
1FF
330
1E
100
AcDbEntity
  8
7
100
AcDbPolyline
 90
        3
 70
     0
 43
0.0098425196850394
 10
-1.324803149606299
 20
-0.1112204724409449
 10
-1.329724409448818
 20
-0.1131889763779527
 10
-1.328740157480314
 20
-0.1161417322834646
  0
LINE
  5
204
330
1E
100
AcDbEntity
  8
7
100
AcDbLine
 10
-1.324803149606299
 20
-0.1112204724409449
 30
0.0
 11
-1.323818897637795
 21
-0.1151574803149606
 31
0.0
  0
LINE
  5
205
330
1E
100
AcDbEntity
  8
7
100
AcDbLine
 10
-1.33267716535433
 20
-0.1131889763779527
 30
0.0
 11
-1.330708661417322
 21
-0.1171259842519685
 31
0.0
  0
LINE
  5
206
330
1E
100
AcDbEntity
  8
7
100
AcDbLine
 10
-1.349409448818897
 20
-0.1190944881889764
 30
0.0
 11
-1.348425196850393
 21
-0.1230314960629921
 31
0.0
  0
LINE
  5
207
330
1E
100
AcDbEntity
  8
7
100
AcDbLine
 10
-1.352362204724409
 20
-0.1200787401574803
 30
0.0
 11
-1.350393700787401
 21
-0.1240157480314961
 31
0.0
  0
LINE
  5
208
330
1E
100
AcDbEntity
  8
7
100
AcDbLine
 10
-1.357283464566929
 20
-0.1220472440944882
 30
0.0
 11
-1.356299212598425
 21
-0.1259842519685039
 31
0.0
  0
LINE
  5
209
330
1E
100
AcDbEntity
  8
7
100
AcDbLine
 10
-1.36023622047244
 20
-0.1230314960629921
 30
0.0
 11
-1.37007874015748
 21
-0.1269685039370079
 31
0.0
  0
LINE
  5
20A
330
1E
100
AcDbEntity
  8
7
100
AcDbLine
 10
-1.393700787401574
 20
-0.1348425196850394
 30
0.0
 11
-1.399606299212598
 21
-0.1368110236220472
 31
0.0
  0
LINE
  5
20B
330
1E
100
AcDbEntity
  8
7
100
AcDbLine
 10
-1.37007874015748
 20
-0.1269685039370079
 30
0.0
 11
-1.393700787401574
 21
-0.1348425196850394
 31
0.0
  0
LINE
  5
20C
330
1E
100
AcDbEntity
  8
7
100
AcDbLine
 10
-1.37007874015748
 20
-0.1269685039370079
 30
0.0
 11
-1.369094488188976
 21
-0.1309055118110236
 31
0.0
  0
LINE
  5
20D
330
1E
100
AcDbEntity
  8
7
100
AcDbLine
 10
-1.393700787401574
 20
-0.1348425196850394
 30
0.0
 11
-1.39271653543307
 21
-0.1387795275590551
 31
0.0
  0
LINE
  5
20E
330
1E
100
AcDbEntity
  8
7
100
AcDbLine
 10
-1.399606299212598
 20
-0.1368110236220472
 30
0.0
 11
-1.398622047244094
 21
-0.140748031496063
 31
0.0
  0
LINE
  5
20F
330
1E
100
AcDbEntity
  8
7
100
AcDbLine
 10
-1.36023622047244
 20
-0.1230314960629921
 30
0.0
 11
-1.358267716535433
 21
-0.1269685039370079
 31
0.0
  0
LINE
  5
210
330
1E
100
AcDbEntity
  8
7
100
AcDbLine
 10
-1.341535433070866
 20
-0.172244094488189
 30
0.0
 11
-1.404527559055118
 21
-0.1948818897637795
 31
0.0
  0
LWPOLYLINE
  5
211
330
1E
100
AcDbEntity
  8
7
100
AcDbPolyline
 90
        3
 70
     0
 43
0.0098425196850394
 10
-1.307086614173228
 20
-0.1496062992125984
 10
-1.322834645669291
 20
-0.1633858267716535
 10
-1.341535433070866
 20
-0.172244094488189
  0
LINE
  5
216
330
1E
100
AcDbEntity
  8
7
100
AcDbLine
 10
-1.404527559055118
 20
-0.1958661417322834
 30
0.0
 11
-1.404527559055118
 21
-0.1948818897637795
 31
0.0
  0
LINE
  5
217
330
1E
100
AcDbEntity
  8
7
100
AcDbLine
 10
-1.219488188976378
 20
-0.078740157480315
 30
0.0
 11
-1.463582677165354
 21
-0.1624015748031496
 31
0.0
  0
LINE
  5
218
330
1E
100
AcDbEntity
  8
7
100
AcDbLine
 10
-1.404527559055118
 20
-0.1958661417322834
 30
0.0
 11
-1.418307086614173
 21
-0.1988188976377953
 31
0.0
  0
LWPOLYLINE
  5
219
330
1E
100
AcDbEntity
  8
7
100
AcDbPolyline
 90
        4
 70
     0
 43
0.0098425196850394
 10
-1.71751968503937
 20
-0.3149606299212598
 10
-1.731299212598425
 20
-0.3149606299212598
 10
-1.737204724409448
 20
-0.3149606299212598
 10
-1.736220472440944
 20
-0.2322834645669291
  0
LWPOLYLINE
  5
21F
330
1E
100
AcDbEntity
  8
7
100
AcDbPolyline
 90
        3
 70
     0
 43
0.0098425196850394
 10
-1.160433070866141
 20
-0.5295275590551181
 10
-1.163385826771653
 20
-0.5226377952755906
 10
-1.170275590551181
 20
-0.5196850393700787
  0
LINE
  5
224
330
1E
100
AcDbEntity
  8
7
100
AcDbLine
 10
-1.170275590551181
 20
-0.5196850393700787
 30
0.0
 11
-1.381889763779527
 21
-0.5196850393700787
 31
0.0
  0
LINE
  5
225
330
1E
100
AcDbEntity
  8
7
100
AcDbLine
 10
-1.381889763779527
 20
-0.5
 30
0.0
 11
-1.391732283464566
 21
-0.5
 31
0.0
  0
LINE
  5
226
330
1E
100
AcDbEntity
  8
7
100
AcDbLine
 10
-1.441929133858267
 20
-0.5
 30
0.0
 11
-1.451771653543306
 21
-0.5
 31
0.0
  0
LINE
  5
227
330
1E
100
AcDbEntity
  8
7
100
AcDbLine
 10
-1.160433070866141
 20
-0.5374015748031497
 30
0.0
 11
-1.160433070866141
 21
-0.5295275590551181
 31
0.0
  0
LWPOLYLINE
  5
228
330
1E
100
AcDbEntity
  8
7
100
AcDbPolyline
 90
        3
 70
     0
 43
0.0098425196850394
 10
-1.160433070866141
 20
-0.5374015748031497
 10
-1.154527559055118
 20
-0.5511811023622048
 10
-1.140748031496062
 20
-0.5570866141732284
  0
LWPOLYLINE
  5
22D
330
1E
100
AcDbEntity
  8
7
100
AcDbPolyline
 90
        3
 70
     0
 43
0.0098425196850394
 10
-1.155511811023621
 20
-0.5374015748031497
 10
-1.158464566929133
 20
-0.5374015748031497
 10
-1.160433070866141
 20
-0.5374015748031497
  0
LWPOLYLINE
  5
232
330
1E
100
AcDbEntity
  8
7
100
AcDbPolyline
 90
        3
 70
     0
 43
0.0098425196850394
 10
-1.140748031496062
 20
-0.5501968503937009
 10
-1.140748031496062
 20
-0.5551181102362205
 10
-1.140748031496062
 20
-0.5570866141732284
  0
LWPOLYLINE
  5
237
330
1E
100
AcDbEntity
  8
7
100
AcDbPolyline
 90
        3
 70
     0
 43
0.0098425196850394
 10
-1.155511811023621
 20
-0.5295275590551181
 10
-1.158464566929133
 20
-0.5295275590551181
 10
-1.160433070866141
 20
-0.5295275590551181
  0
LWPOLYLINE
  5
23C
330
1E
100
AcDbEntity
  8
7
100
AcDbPolyline
 90
        3
 70
     0
 43
0.0098425196850394
 10
-1.170275590551181
 20
-0.5098425196850394
 10
-1.170275590551181
 20
-0.5167322834645669
 10
-1.170275590551181
 20
-0.5196850393700787
  0
LWPOLYLINE
  5
241
330
1E
100
AcDbEntity
  8
7
100
AcDbPolyline
 90
        3
 70
     0
 43
0.0098425196850394
 10
-1.381889763779527
 20
-0.5196850393700787
 10
-1.381889763779527
 20
-0.5167322834645669
 10
-1.381889763779527
 20
-0.5098425196850394
  0
LINE
  5
246
330
1E
100
AcDbEntity
  8
7
100
AcDbLine
 10
-1.451771653543306
 20
-0.5098425196850394
 30
0.0
 11
-1.451771653543306
 21
-0.5167322834645669
 31
0.0
  0
LWPOLYLINE
  5
247
330
1E
100
AcDbEntity
  8
7
100
AcDbPolyline
 90
        3
 70
     0
 43
0.0098425196850394
 10
-1.451771653543306
 20
-0.5167322834645669
 10
-1.451771653543306
 20
-0.5196850393700787
 10
-1.545275590551181
 20
-0.5196850393700787
  0
LINE
  5
24C
330
1E
100
AcDbEntity
  8
7
100
AcDbLine
 10
-0.9596456692913385
 20
-0.5570866141732284
 30
0.0
 11
-1.140748031496062
 21
-0.5570866141732284
 31
0.0
  0
LWPOLYLINE
  5
24D
330
1E
100
AcDbEntity
  8
7
100
AcDbPolyline
 90
        4
 70
     0
 43
0.0098425196850394
 10
-1.689960629921259
 20
-0.4901574803149607
 10
-1.686023622047243
 20
-0.5049212598425197
 10
-1.6751968503937
 20
-0.515748031496063
 10
-1.660433070866141
 20
-0.5196850393700787
  0
LWPOLYLINE
  5
253
330
1E
100
AcDbEntity
  8
7
100
AcDbPolyline
 90
        3
 70
     0
 43
0.0098425196850394
 10
-1.660433070866141
 20
-0.5196850393700787
 10
-1.660433070866141
 20
-0.5137795275590551
 10
-1.660433070866141
 20
-0.5
  0
LINE
  5
258
330
1E
100
AcDbEntity
  8
7
100
AcDbLine
 10
-1.588582677165354
 20
-0.5196850393700787
 30
0.0
 11
-1.660433070866141
 21
-0.5196850393700787
 31
0.0
  0
LWPOLYLINE
  5
259
330
1E
100
AcDbEntity
  8
7
100
AcDbPolyline
 90
        4
 70
     0
 43
0.0098425196850394
 10
-1.715551181102362
 20
-0.2125984251968504
 10
-1.725393700787401
 20
-0.2155511811023622
 10
-1.733267716535433
 20
-0.2224409448818898
 10
-1.736220472440944
 20
-0.2322834645669291
  0
LINE
  5
25F
330
1E
100
AcDbEntity
  8
7
100
AcDbLine
 10
-0.8405511811023622
 20
-0.2795275590551181
 30
0.0
 11
-0.8405511811023622
 21
-0.5501968503937009
 31
0.0
  0
LWPOLYLINE
  5
260
330
1E
100
AcDbEntity
  8
7
100
AcDbPolyline
 90
        3
 70
     0
 43
0.0098425196850394
 10
-0.8405511811023622
 20
-0.5698818897637796
 10
-0.8405511811023622
 20
-0.563976377952756
 10
-0.8405511811023622
 20
-0.5501968503937009
  0
LWPOLYLINE
  5
265
330
1E
100
AcDbEntity
  8
7
100
AcDbPolyline
 90
        3
 70
     0
 43
0.0098425196850394
 10
-0.8405511811023622
 20
-0.2795275590551181
 10
-0.8405511811023622
 20
-0.265748031496063
 10
-0.8405511811023622
 20
-0.2598425196850393
  0
LWPOLYLINE
  5
26A
330
1E
100
AcDbEntity
  8
7
100
AcDbPolyline
 90
        3
 70
     0
 43
0.0098425196850394
 10
-1.155511811023621
 20
-0.5246062992125984
 10
-1.159448818897637
 20
-0.5137795275590551
 10
-1.170275590551181
 20
-0.5098425196850394
  0
LINE
  5
26F
330
1E
100
AcDbEntity
  8
7
100
AcDbLine
 10
-1.155511811023621
 20
-0.5246062992125984
 30
0.0
 11
-1.155511811023621
 21
-0.5393700787401575
 31
0.0
  0
LWPOLYLINE
  5
270
330
1E
100
AcDbEntity
  8
7
100
AcDbPolyline
 90
        3
 70
     0
 43
0.0098425196850394
 10
-1.154527559055118
 20
-0.5393700787401575
 10
-1.151574803149606
 20
-0.5462598425196851
 10
-1.144685039370078
 20
-0.5492125984251969
  0
LINE
  5
275
330
1E
100
AcDbEntity
  8
7
100
AcDbLine
 10
-1.144685039370078
 20
-0.5501968503937009
 30
0.0
 11
-0.9596456692913385
 21
-0.5501968503937009
 31
0.0
  0
LINE
  5
276
330
1E
100
AcDbEntity
  8
7
100
AcDbLine
 10
-0.8405511811023622
 20
-0.5501968503937009
 30
0.0
 11
-0.9596456692913385
 21
-0.5501968503937009
 31
0.0
  0
LINE
  5
277
330
1E
100
AcDbEntity
  8
7
100
AcDbLine
 10
-1.509842519685039
 20
-0.2795275590551181
 30
0.0
 11
-0.8405511811023622
 21
-0.2795275590551181
 31
0.0
  0
LINE
  5
278
330
1E
100
AcDbEntity
  8
7
100
AcDbLine
 10
-1.509842519685039
 20
-0.3149606299212598
 30
0.0
 11
-1.509842519685039
 21
-0.2795275590551181
 31
0.0
  0
LWPOLYLINE
  5
279
330
1E
100
AcDbEntity
  8
7
100
AcDbPolyline
 90
        3
 70
     0
 43
0.0098425196850394
 10
-1.530511811023622
 20
-0.3346456692913386
 10
-1.516732283464566
 20
-0.3287401574803149
 10
-1.510826771653543
 20
-0.3149606299212598
  0
LINE
  5
27E
330
1E
100
AcDbEntity
  8
7
100
AcDbLine
 10
-1.530511811023622
 20
-0.3346456692913386
 30
0.0
 11
-1.564960629921259
 21
-0.3346456692913386
 31
0.0
  0
LWPOLYLINE
  5
27F
330
1E
100
AcDbEntity
  8
7
100
AcDbPolyline
 90
        3
 70
     0
 43
0.0098425196850394
 10
-1.564960629921259
 20
-0.3346456692913386
 10
-1.575787401574802
 20
-0.3385826771653543
 10
-1.579724409448818
 20
-0.3494094488188976
  0
LINE
  5
284
330
1E
100
AcDbEntity
  8
7
100
AcDbLine
 10
-1.579724409448818
 20
-0.4950787401574804
 30
0.0
 11
-1.579724409448818
 21
-0.3494094488188976
 31
0.0
  0
LINE
  5
285
330
1E
100
AcDbEntity
  8
7
100
AcDbLine
 10
-1.579724409448818
 20
-0.4950787401574804
 30
0.0
 11
-1.575787401574802
 21
-0.5059055118110237
 31
0.0
  0
LINE
  5
286
330
1E
100
AcDbEntity
  8
7
100
AcDbLine
 10
-1.575787401574802
 20
-0.5059055118110237
 30
0.0
 11
-1.564960629921259
 21
-0.5098425196850394
 31
0.0
  0
LINE
  5
287
330
1E
100
AcDbEntity
  8
7
100
AcDbLine
 10
-1.564960629921259
 20
-0.5098425196850394
 30
0.0
 11
-1.471456692913385
 21
-0.5098425196850394
 31
0.0
  0
LWPOLYLINE
  5
288
330
1E
100
AcDbEntity
  8
7
100
AcDbPolyline
 90
        3
 70
     0
 43
0.0098425196850394
 10
-1.471456692913385
 20
-0.5098425196850394
 10
-1.464566929133858
 20
-0.5068897637795276
 10
-1.461614173228346
 20
-0.5
  0
LWPOLYLINE
  5
28D
330
1E
100
AcDbEntity
  8
7
100
AcDbPolyline
 90
        4
 70
     0
 43
0.0098425196850394
 10
-1.441929133858267
 20
-0.5
 10
-1.446850393700787
 20
-0.4911417322834647
 10
-1.456692913385826
 20
-0.4911417322834647
 10
-1.461614173228346
 20
-0.5
  0
LINE
  5
293
330
1E
100
AcDbEntity
  8
7
100
AcDbLine
 10
-1.441929133858267
 20
-0.5
 30
0.0
 11
-1.391732283464566
 21
-0.5
 31
0.0
  0
LWPOLYLINE
  5
294
330
1E
100
AcDbEntity
  8
7
100
AcDbPolyline
 90
        4
 70
     0
 43
0.0098425196850394
 10
-1.372047244094488
 20
-0.5
 10
-1.376968503937007
 20
-0.4911417322834647
 10
-1.386811023622047
 20
-0.4911417322834647
 10
-1.391732283464566
 20
-0.5
  0
LWPOLYLINE
  5
29A
330
1E
100
AcDbEntity
  8
7
100
AcDbPolyline
 90
        3
 70
     0
 43
0.0098425196850394
 10
-1.372047244094488
 20
-0.5
 10
-1.369094488188976
 20
-0.5068897637795276
 10
-1.362204724409448
 20
-0.5098425196850394
  0
LINE
  5
29F
330
1E
100
AcDbEntity
  8
7
100
AcDbLine
 10
-1.362204724409448
 20
-0.5098425196850394
 30
0.0
 11
-1.170275590551181
 21
-0.5098425196850394
 31
0.0
  0
LWPOLYLINE
  5
2A0
330
1E
100
AcDbEntity
  8
7
100
AcDbPolyline
 90
        3
 70
     0
 43
0.0098425196850394
 10
-0.8356299212598424
 20
-0.2608267716535433
 10
-0.8375984251968503
 20
-0.2598425196850393
 10
-0.8405511811023622
 20
-0.2598425196850393
  0
LWPOLYLINE
  5
2A5
330
1E
100
AcDbEntity
  8
7
100
AcDbPolyline
 90
        3
 70
     0
 43
0.0098425196850394
 10
-1.509842519685039
 20
-0.2598425196850393
 10
-1.509842519685039
 20
-0.265748031496063
 10
-1.509842519685039
 20
-0.2795275590551181
  0
LINE
  5
2AA
330
1E
100
AcDbEntity
  8
7
100
AcDbLine
 10
-0.8405511811023622
 20
-0.2598425196850393
 30
0.0
 11
-1.509842519685039
 21
-0.2598425196850393
 31
0.0
  0
LINE
  5
2AB
330
1E
100
AcDbEntity
  8
7
100
AcDbLine
 10
-1.391732283464566
 20
-0.5098425196850394
 30
0.0
 11
-1.441929133858267
 21
-0.5098425196850394
 31
0.0
  0
LWPOLYLINE
  5
2AC
330
1E
100
AcDbEntity
  8
7
100
AcDbPolyline
 90
        3
 70
     0
 43
0.0098425196850394
 10
-1.441929133858267
 20
-0.5
 10
-1.441929133858267
 20
-0.5068897637795276
 10
-1.441929133858267
 20
-0.5098425196850394
  0
LWPOLYLINE
  5
2B1
330
1E
100
AcDbEntity
  8
7
100
AcDbPolyline
 90
        3
 70
     0
 43
0.0098425196850394
 10
-1.391732283464566
 20
-0.5
 10
-1.391732283464566
 20
-0.5068897637795276
 10
-1.391732283464566
 20
-0.5098425196850394
  0
LINE
  5
2B6
330
1E
100
AcDbEntity
  8
7
100
AcDbLine
 10
-0.8405511811023622
 20
-0.5344488188976378
 30
0.0
 11
-0.8356299212598424
 21
-0.5344488188976378
 31
0.0
  0
LWPOLYLINE
  5
2B7
330
1E
100
AcDbEntity
  8
7
100
AcDbPolyline
 90
        3
 70
     0
 43
0.0098425196850394
 10
-0.8405511811023622
 20
-0.5600393700787402
 10
-0.8297244094488188
 20
-0.5600393700787402
 10
-0.8297244094488188
 20
-0.5580708661417324
  0
LWPOLYLINE
  5
2BC
330
1E
100
AcDbEntity
  8
7
100
AcDbPolyline
 90
        3
 70
     0
 43
0.0098425196850394
 10
-0.8405511811023622
 20
-0.5698818897637796
 10
-0.8336614173228346
 20
-0.5669291338582677
 10
-0.8307086614173227
 20
-0.5600393700787402
  0
LINE
  5
2C1
330
1E
100
AcDbEntity
  8
7
100
AcDbLine
 10
-0.9596456692913385
 20
-0.5698818897637796
 30
0.0
 11
-0.8405511811023622
 21
-0.5698818897637796
 31
0.0
  0
LWPOLYLINE
  5
2C2
330
1E
100
AcDbEntity
  8
7
100
AcDbPolyline
 90
        3
 70
     0
 43
0.0098425196850394
 10
-0.9596456692913385
 20
-0.5698818897637796
 10
-0.9596456692913385
 20
-0.563976377952756
 10
-0.9596456692913385
 20
-0.5501968503937009
  0
LWPOLYLINE
  5
2C7
330
1E
100
AcDbEntity
  8
7
100
AcDbPolyline
 90
        3
 70
     0
 43
0.0098425196850394
 10
-0.6476377952755906
 20
-0.2470472440944882
 10
-0.6476377952755906
 20
-0.25
 10
-0.6476377952755906
 20
-0.2559055118110236
  0
LINE
  5
2CC
330
1E
100
AcDbEntity
  8
7
100
AcDbLine
 10
-0.6476377952755906
 20
-0.2913385826771653
 30
0.0
 11
-0.6476377952755906
 21
-0.2559055118110236
 31
0.0
  0
LINE
  5
2CD
330
1E
100
AcDbEntity
  8
7
100
AcDbLine
 10
-0.8356299212598424
 20
-0.3100393700787402
 30
0.0
 11
-0.8356299212598424
 21
-0.2746062992125984
 31
0.0
  0
LINE
  5
2CE
330
1E
100
AcDbEntity
  8
7
100
AcDbLine
 10
-0.8356299212598424
 20
-0.3100393700787402
 30
0.0
 11
-0.8405511811023622
 21
-0.3100393700787402
 31
0.0
  0
LINE
  5
2CF
330
1E
100
AcDbEntity
  8
7
100
AcDbLine
 10
-0.8405511811023622
 20
-0.515748031496063
 30
0.0
 11
-0.8356299212598424
 21
-0.515748031496063
 31
0.0
  0
LINE
  5
2D0
330
1E
100
AcDbEntity
  8
7
100
AcDbLine
 10
-0.8356299212598424
 20
-0.5295275590551181
 30
0.0
 11
-0.8356299212598424
 21
-0.515748031496063
 31
0.0
  0
LINE
  5
2D1
330
1E
100
AcDbEntity
  8
7
100
AcDbLine
 10
-0.6476377952755906
 20
-0.5137795275590551
 30
0.0
 11
-0.6387795275590551
 21
-0.5127952755905512
 31
0.0
  0
LINE
  5
2D2
330
1E
100
AcDbEntity
  8
7
100
AcDbLine
 10
-0.6387795275590551
 20
-0.2913385826771653
 30
0.0
 11
-0.6476377952755906
 21
-0.2913385826771653
 31
0.0
  0
LINE
  5
2D3
330
1E
100
AcDbEntity
  8
7
100
AcDbLine
 10
-0.7726377952755906
 20
-0.280511811023622
 30
0.0
 11
-0.8356299212598424
 21
-0.2746062992125984
 31
0.0
  0
LINE
  5
2D4
330
1E
100
AcDbEntity
  8
7
100
AcDbLine
 10
-0.6476377952755906
 20
-0.2913385826771653
 30
0.0
 11
-0.7726377952755906
 21
-0.280511811023622
 31
0.0
  0
LINE
  5
2D5
330
1E
100
AcDbEntity
  8
7
100
AcDbLine
 10
-0.7726377952755906
 20
-0.5246062992125984
 30
0.0
 11
-0.8356299212598424
 21
-0.5295275590551181
 31
0.0
  0
LINE
  5
2D6
330
1E
100
AcDbEntity
  8
7
100
AcDbLine
 10
-0.6476377952755906
 20
-0.5137795275590551
 30
0.0
 11
-0.7726377952755906
 21
-0.5246062992125984
 31
0.0
  0
LINE
  5
2D7
330
1E
100
AcDbEntity
  8
7
100
AcDbLine
 10
-0.7726377952755906
 20
-0.5590551181102362
 30
0.0
 11
-0.8356299212598424
 21
-0.5580708661417324
 31
0.0
  0
LINE
  5
2D8
330
1E
100
AcDbEntity
  8
7
100
AcDbLine
 10
-0.8356299212598424
 20
-0.548228346456693
 30
0.0
 11
-0.8356299212598424
 21
-0.5295275590551181
 31
0.0
  0
LINE
  5
2D9
330
1E
100
AcDbEntity
  8
7
100
AcDbLine
 10
-0.8356299212598424
 20
-0.548228346456693
 30
0.0
 11
-0.7726377952755906
 21
-0.548228346456693
 31
0.0
  0
LINE
  5
2DA
330
1E
100
AcDbEntity
  8
7
100
AcDbLine
 10
-0.7726377952755906
 20
-0.5246062992125984
 30
0.0
 11
-0.7726377952755906
 21
-0.548228346456693
 31
0.0
  0
LWPOLYLINE
  5
2DB
330
1E
100
AcDbEntity
  8
7
100
AcDbPolyline
 90
        3
 70
     0
 43
0.0098425196850394
 10
-0.8356299212598424
 20
-0.5580708661417324
 10
-0.8356299212598424
 20
-0.5551181102362205
 10
-0.8356299212598424
 20
-0.548228346456693
  0
LWPOLYLINE
  5
2E0
330
1E
100
AcDbEntity
  8
7
100
AcDbPolyline
 90
        3
 70
     0
 43
0.0098425196850394
 10
-0.7726377952755906
 20
-0.548228346456693
 10
-0.7726377952755906
 20
-0.5561023622047245
 10
-0.7726377952755906
 20
-0.5590551181102362
  0
LINE
  5
2E5
330
1E
100
AcDbEntity
  8
7
100
AcDbLine
 10
-0.7726377952755906
 20
-0.2559055118110236
 30
0.0
 11
-0.8356299212598424
 21
-0.2559055118110236
 31
0.0
  0
LINE
  5
2E6
330
1E
100
AcDbEntity
  8
7
100
AcDbLine
 10
-0.8356299212598424
 20
-0.2746062992125984
 30
0.0
 11
-0.8356299212598424
 21
-0.2559055118110236
 31
0.0
  0
LINE
  5
2E7
330
1E
100
AcDbEntity
  8
7
100
AcDbLine
 10
-0.7726377952755906
 20
-0.2559055118110236
 30
0.0
 11
-0.7726377952755906
 21
-0.280511811023622
 31
0.0
  0
LINE
  5
2E8
330
1E
100
AcDbEntity
  8
7
100
AcDbLine
 10
-0.8356299212598424
 20
-0.2460629921259843
 30
0.0
 11
-0.7726377952755906
 21
-0.2460629921259843
 31
0.0
  0
LWPOLYLINE
  5
2E9
330
1E
100
AcDbEntity
  8
7
100
AcDbPolyline
 90
        3
 70
     0
 43
0.0098425196850394
 10
-0.8356299212598424
 20
-0.2559055118110236
 10
-0.8356299212598424
 20
-0.2490157480314961
 10
-0.8356299212598424
 20
-0.2460629921259843
  0
LWPOLYLINE
  5
2EE
330
1E
100
AcDbEntity
  8
7
100
AcDbPolyline
 90
        3
 70
     0
 43
0.0098425196850394
 10
-0.7726377952755906
 20
-0.2460629921259843
 10
-0.7726377952755906
 20
-0.2490157480314961
 10
-0.7726377952755906
 20
-0.2559055118110236
  0
LINE
  5
2F3
330
1E
100
AcDbEntity
  8
7
100
AcDbLine
 10
-0.7726377952755906
 20
-0.2460629921259843
 30
0.0
 11
-0.6476377952755906
 21
-0.2470472440944882
 31
0.0
  0
LINE
  5
2F4
330
1E
100
AcDbEntity
  8
7
100
AcDbLine
 10
-0.6476377952755906
 20
-0.5570866141732284
 30
0.0
 11
-0.7726377952755906
 21
-0.5590551181102362
 31
0.0
  0
LINE
  5
2F5
330
1E
100
AcDbEntity
  8
7
100
AcDbLine
 10
-0.6476377952755906
 20
-0.548228346456693
 30
0.0
 11
-0.6476377952755906
 21
-0.5137795275590551
 31
0.0
  0
LWPOLYLINE
  5
2F6
330
1E
100
AcDbEntity
  8
7
100
AcDbPolyline
 90
        3
 70
     0
 43
0.0098425196850394
 10
-0.6476377952755906
 20
-0.548228346456693
 10
-0.6476377952755906
 20
-0.5551181102362205
 10
-0.6476377952755906
 20
-0.5570866141732284
  0
LINE
  5
2FB
330
1E
100
AcDbEntity
  8
7
100
AcDbLine
 10
-0.5442913385826773
 20
-0.5049212598425197
 30
0.0
 11
-0.5521653543307087
 21
-0.5049212598425197
 31
0.0
  0
LINE
  5
2FC
330
1E
100
AcDbEntity
  8
7
100
AcDbLine
 10
-0.5442913385826773
 20
-0.3001968503937008
 30
0.0
 11
-0.5442913385826773
 21
-0.5049212598425197
 31
0.0
  0
LINE
  5
2FD
330
1E
100
AcDbEntity
  8
7
100
AcDbLine
 10
-0.5521653543307087
 20
-0.2992125984251968
 30
0.0
 11
-0.5442913385826773
 21
-0.3001968503937008
 31
0.0
  0
LINE
  5
2FE
330
1E
100
AcDbEntity
  8
7
100
AcDbLine
 10
-0.5049212598425197
 20
-0.5009842519685039
 30
0.0
 11
-0.5442913385826773
 21
-0.5049212598425197
 31
0.0
  0
LINE
  5
2FF
330
1E
100
AcDbEntity
  8
7
100
AcDbLine
 10
-0.5049212598425197
 20
-0.5009842519685039
 30
0.0
 11
-0.5049212598425197
 21
-0.3031496062992126
 31
0.0
  0
LINE
  5
300
330
1E
100
AcDbEntity
  8
7
100
AcDbLine
 10
-0.5442913385826773
 20
-0.3001968503937008
 30
0.0
 11
-0.5049212598425197
 21
-0.3031496062992126
 31
0.0
  0
LINE
  5
301
330
1E
100
AcDbEntity
  8
7
100
AcDbLine
 10
-0.6476377952755906
 20
-0.2559055118110236
 30
0.0
 11
-0.7726377952755906
 21
-0.2559055118110236
 31
0.0
  0
LINE
  5
302
330
1E
100
AcDbEntity
  8
7
100
AcDbLine
 10
-0.7726377952755906
 20
-0.548228346456693
 30
0.0
 11
-0.6476377952755906
 21
-0.548228346456693
 31
0.0
  0
LINE
  5
303
330
1E
100
AcDbEntity
  8
7
100
AcDbLine
 10
-0.8356299212598424
 20
-0.2746062992125984
 30
0.0
 11
-0.8405511811023622
 21
-0.2746062992125984
 31
0.0
  0
LINE
  5
304
330
1E
100
AcDbEntity
  8
7
100
AcDbLine
 10
-0.6387795275590551
 20
-0.2667322834645669
 30
0.0
 11
-0.6387795275590551
 21
-0.2913385826771653
 31
0.0
  0
LINE
  5
305
330
1E
100
AcDbEntity
  8
7
100
AcDbLine
 10
-0.6387795275590551
 20
-0.5127952755905512
 30
0.0
 11
-0.6387795275590551
 21
-0.5383858267716536
 31
0.0
  0
LINE
  5
306
330
1E
100
AcDbEntity
  8
7
100
AcDbLine
 10
-0.6387795275590551
 20
-0.2893700787401574
 30
0.0
 11
-0.6387795275590551
 21
-0.2913385826771653
 31
0.0
  0
LINE
  5
307
330
1E
100
AcDbEntity
  8
7
100
AcDbLine
 10
-0.6387795275590551
 20
-0.5127952755905512
 30
0.0
 11
-0.6387795275590551
 21
-0.515748031496063
 31
0.0
  0
LWPOLYLINE
  5
308
330
1E
100
AcDbEntity
  8
7
100
AcDbPolyline
 90
        3
 70
     0
 43
0.0098425196850394
 10
-0.6387795275590551
 20
-0.5383858267716536
 10
-0.6387795275590551
 20
-0.5521653543307087
 10
-0.6387795275590551
 20
-0.5580708661417324
  0
LWPOLYLINE
  5
30D
330
1E
100
AcDbEntity
  8
7
100
AcDbPolyline
 90
        3
 70
     0
 43
0.0098425196850394
 10
-0.6387795275590551
 20
-0.2667322834645669
 10
-0.6387795275590551
 20
-0.2519685039370079
 10
-0.6387795275590551
 20
-0.2460629921259843
  0
LINE
  5
312
330
1E
100
AcDbEntity
  8
7
100
AcDbLine
 10
-0.2874015748031496
 20
-0.2716535433070866
 30
0.0
 11
-0.2874015748031496
 21
-0.2421259842519685
 31
0.0
  0
LINE
  5
313
330
1E
100
AcDbEntity
  8
7
100
AcDbLine
 10
-0.1309055118110236
 20
-0.2746062992125984
 30
0.0
 11
-0.1309055118110236
 21
-0.2421259842519685
 31
0.0
  0
LINE
  5
314
330
1E
100
AcDbEntity
  8
7
100
AcDbLine
 10
-0.1309055118110236
 20
-0.5620078740157481
 30
0.0
 11
-0.1309055118110236
 21
-0.5305118110236221
 31
0.0
  0
LINE
  5
315
330
1E
100
AcDbEntity
  8
7
100
AcDbLine
 10
-0.2874015748031496
 20
-0.5324803149606299
 30
0.0
 11
-0.2874015748031496
 21
-0.5620078740157481
 31
0.0
  0
LINE
  5
316
330
1E
100
AcDbEntity
  8
7
100
AcDbLine
 10
-0.1309055118110236
 20
-0.5620078740157481
 30
0.0
 11
-0.2874015748031496
 21
-0.5620078740157481
 31
0.0
  0
LINE
  5
317
330
1E
100
AcDbEntity
  8
7
100
AcDbLine
 10
-0.2874015748031496
 20
-0.2421259842519685
 30
0.0
 11
-0.1309055118110236
 21
-0.2421259842519685
 31
0.0
  0
LWPOLYLINE
  5
318
330
1E
100
AcDbEntity
  8
7
100
AcDbPolyline
 90
        3
 70
     0
 43
0.0098425196850394
 10
-0.3375984251968504
 20
-0.5620078740157481
 10
-0.6387795275590551
 20
-0.5620078740157481
 10
-0.6387795275590551
 20
-0.5580708661417324
  0
LINE
  5
31D
330
1E
100
AcDbEntity
  8
7
100
AcDbLine
 10
-0.6387795275590551
 20
-0.2421259842519685
 30
0.0
 11
-0.6387795275590551
 21
-0.2460629921259843
 31
0.0
  0
LINE
  5
31E
330
1E
100
AcDbEntity
  8
7
100
AcDbLine
 10
-0.3375984251968504
 20
-0.2421259842519685
 30
0.0
 11
-0.6387795275590551
 21
-0.2421259842519685
 31
0.0
  0
LWPOLYLINE
  5
31F
330
1E
100
AcDbEntity
  8
7
100
AcDbPolyline
 90
        3
 70
     0
 43
0.0098425196850394
 10
-0.6387795275590551
 20
-0.265748031496063
 10
-0.6387795275590551
 20
-0.2716535433070866
 10
-0.6387795275590551
 20
-0.2893700787401574
  0
LWPOLYLINE
  5
324
330
1E
100
AcDbEntity
  8
7
100
AcDbPolyline
 90
        6
 70
     0
 43
0.0098425196850394
 10
-0.6387795275590551
 20
-0.265748031496063
 10
-0.6387795275590551
 20
-0.2716535433070866
 10
-0.6387795275590551
 20
-0.2893700787401574
 10
-0.6387795275590551
 20
-0.515748031496063
 10
-0.6387795275590551
 20
-0.5334645669291338
 10
-0.6387795275590551
 20
-0.5393700787401575
  0
LWPOLYLINE
  5
32C
330
1E
100
AcDbEntity
  8
7
100
AcDbPolyline
 90
        3
 70
     0
 43
0.0098425196850394
 10
-0.6387795275590551
 20
-0.515748031496063
 10
-0.6387795275590551
 20
-0.5334645669291338
 10
-0.6387795275590551
 20
-0.5393700787401575
  0
LINE
  5
331
330
1E
100
AcDbEntity
  8
7
100
AcDbLine
 10
-0.6387795275590551
 20
-0.5620078740157481
 30
0.0
 11
-0.6387795275590551
 21
-0.5580708661417324
 31
0.0
  0
LWPOLYLINE
  5
332
330
1E
100
AcDbEntity
  8
7
100
AcDbPolyline
 90
        3
 70
     0
 43
0.0098425196850394
 10
-0.6387795275590551
 20
-0.5383858267716536
 10
-0.6387795275590551
 20
-0.5521653543307087
 10
-0.6387795275590551
 20
-0.5580708661417324
  0
LINE
  5
337
330
1E
100
AcDbEntity
  8
7
100
AcDbLine
 10
-0.6387795275590551
 20
-0.2667322834645669
 30
0.0
 11
-0.6387795275590551
 21
-0.5383858267716536
 31
0.0
  0
LWPOLYLINE
  5
338
330
1E
100
AcDbEntity
  8
7
100
AcDbPolyline
 90
        3
 70
     0
 43
0.0098425196850394
 10
-0.6387795275590551
 20
-0.2667322834645669
 10
-0.6387795275590551
 20
-0.2519685039370079
 10
-0.6387795275590551
 20
-0.2460629921259843
  0
LINE
  5
33D
330
1E
100
AcDbEntity
  8
7
100
AcDbLine
 10
-0.6387795275590551
 20
-0.2421259842519685
 30
0.0
 11
-0.6387795275590551
 21
-0.2460629921259843
 31
0.0
  0
LWPOLYLINE
  5
33E
330
1E
100
AcDbEntity
  8
7
100
AcDbPolyline
 90
        3
 70
     0
 43
0.0098425196850394
 10
-0.5019685039370079
 20
-0.5187007874015749
 10
-0.4911417322834646
 20
-0.5147637795275591
 10
-0.4872047244094488
 20
-0.5039370078740158
  0
LWPOLYLINE
  5
343
330
1E
100
AcDbEntity
  8
7
100
AcDbPolyline
 90
        3
 70
     0
 43
0.0098425196850394
 10
-0.4872047244094488
 20
-0.3001968503937008
 10
-0.4911417322834646
 20
-0.2893700787401574
 10
-0.5019685039370079
 20
-0.2854330708661417
  0
LINE
  5
348
330
1E
100
AcDbEntity
  8
7
100
AcDbLine
 10
-0.5374015748031496
 20
-0.2854330708661417
 30
0.0
 11
-0.5019685039370079
 21
-0.2854330708661417
 31
0.0
  0
LINE
  5
349
330
1E
100
AcDbEntity
  8
7
100
AcDbLine
 10
-0.5374015748031496
 20
-0.5187007874015749
 30
0.0
 11
-0.5019685039370079
 21
-0.5187007874015749
 31
0.0
  0
LINE
  5
34A
330
1E
100
AcDbEntity
  8
7
100
AcDbLine
 10
-0.4872047244094488
 20
-0.5078740157480315
 30
0.0
 11
-0.5501968503937009
 21
-0.5108267716535434
 31
0.0
  0
LWPOLYLINE
  5
34B
330
1E
100
AcDbEntity
  8
7
100
AcDbPolyline
 90
        3
 70
     0
 43
0.0098425196850394
 10
-0.5521653543307087
 20
-0.5039370078740158
 10
-0.548228346456693
 20
-0.5147637795275591
 10
-0.5374015748031496
 20
-0.5187007874015749
  0
LINE
  5
350
330
1E
100
AcDbEntity
  8
7
100
AcDbLine
 10
-0.5521653543307087
 20
-0.5039370078740158
 30
0.0
 11
-0.5521653543307087
 21
-0.3001968503937008
 31
0.0
  0
LWPOLYLINE
  5
351
330
1E
100
AcDbEntity
  8
7
100
AcDbPolyline
 90
        3
 70
     0
 43
0.0098425196850394
 10
-0.5374015748031496
 20
-0.2854330708661417
 10
-0.548228346456693
 20
-0.2893700787401574
 10
-0.5521653543307087
 20
-0.3001968503937008
  0
LINE
  5
356
330
1E
100
AcDbEntity
  8
7
100
AcDbLine
 10
-0.4872047244094488
 20
-0.2972440944881889
 30
0.0
 11
-0.5501968503937009
 21
-0.2933070866141732
 31
0.0
  0
LINE
  5
357
330
1E
100
AcDbEntity
  8
7
100
AcDbLine
 10
-0.4872047244094488
 20
-0.5039370078740158
 30
0.0
 11
-0.4872047244094488
 21
-0.3001968503937008
 31
0.0
  0
LINE
  5
358
330
1E
100
AcDbEntity
  8
7
100
AcDbLine
 10
-0.4370078740157481
 20
-0.5383858267716536
 30
0.0
 11
-0.6387795275590551
 21
-0.5383858267716536
 31
0.0
  0
LINE
  5
359
330
1E
100
AcDbEntity
  8
7
100
AcDbLine
 10
-0.4370078740157481
 20
-0.2667322834645669
 30
0.0
 11
-0.4370078740157481
 21
-0.5383858267716536
 31
0.0
  0
LINE
  5
35A
330
1E
100
AcDbEntity
  8
7
100
AcDbLine
 10
-0.4370078740157481
 20
-0.2667322834645669
 30
0.0
 11
-0.6387795275590551
 21
-0.2667322834645669
 31
0.0
  0
LWPOLYLINE
  5
35B
330
1E
100
AcDbEntity
  8
7
100
AcDbPolyline
 90
        3
 70
     0
 43
0.0098425196850394
 10
-0.3877952755905512
 20
-0.5580708661417324
 10
-0.3375984251968504
 20
-0.5590551181102362
 10
-0.3375984251968504
 20
-0.5521653543307087
  0
LWPOLYLINE
  5
360
330
1E
100
AcDbEntity
  8
7
100
AcDbPolyline
 90
        5
 70
     0
 43
0.0098425196850394
 10
-0.3375984251968504
 20
-0.5521653543307087
 10
-0.3375984251968504
 20
-0.5383858267716536
 10
-0.3877952755905512
 20
-0.5383858267716536
 10
-0.3877952755905512
 20
-0.5521653543307087
 10
-0.3877952755905512
 20
-0.5580708661417324
  0
LWPOLYLINE
  5
367
330
1E
100
AcDbEntity
  8
7
100
AcDbPolyline
 90
        4
 70
     0
 43
0.0098425196850394
 10
-0.6387795275590551
 20
-0.5580708661417324
 10
-0.4370078740157481
 20
-0.5580708661417324
 10
-0.4370078740157481
 20
-0.5521653543307087
 10
-0.4370078740157481
 20
-0.5383858267716536
  0
LINE
  5
36D
330
1E
100
AcDbEntity
  8
7
100
AcDbLine
 10
-0.4370078740157481
 20
-0.5600393700787402
 30
0.0
 11
-0.4370078740157481
 21
-0.469488188976378
 31
0.0
  0
LWPOLYLINE
  5
36E
330
1E
100
AcDbEntity
  8
7
100
AcDbPolyline
 90
        5
 70
     0
 43
0.0098425196850394
 10
-0.3877952755905512
 20
-0.5600393700787402
 10
-0.3907480314960629
 20
-0.5600393700787402
 10
-0.3996062992125984
 20
-0.5600393700787402
 10
-0.4124015748031497
 20
-0.5600393700787402
 10
-0.4251968503937008
 20
-0.5600393700787402
  0
LWPOLYLINE
  5
375
330
1E
100
AcDbEntity
  8
7
100
AcDbPolyline
 90
        3
 70
     0
 43
0.0098425196850394
 10
-0.4251968503937008
 20
-0.5600393700787402
 10
-0.4340551181102362
 20
-0.5600393700787402
 10
-0.4370078740157481
 20
-0.5600393700787402
  0
LINE
  5
37A
330
1E
100
AcDbEntity
  8
7
100
AcDbLine
 10
-0.3877952755905512
 20
-0.4675196850393701
 30
0.0
 11
-0.3877952755905512
 21
-0.5600393700787402
 31
0.0
  0
LWPOLYLINE
  5
37B
330
1E
100
AcDbEntity
  8
7
100
AcDbPolyline
 90
       11
 70
     0
 43
0.0098425196850394
 10
-0.4370078740157481
 20
-0.469488188976378
 10
-0.4340551181102362
 20
-0.4872047244094488
 10
-0.4291338582677165
 20
-0.4931102362204724
 10
-0.422244094488189
 20
-0.4980314960629922
 10
-0.4163385826771654
 20
-0.5
 10
-0.4104330708661418
 20
-0.5
 10
-0.4045275590551182
 20
-0.4980314960629922
 10
-0.3986220472440944
 20
-0.4960629921259843
 10
-0.3927165354330708
 20
-0.4901574803149607
 10
-0.3887795275590551
 20
-0.4803149606299212
 10
-0.3877952755905512
 20
-0.4675196850393701
  0
LWPOLYLINE
  5
388
330
1E
100
AcDbEntity
  8
7
100
AcDbPolyline
 90
        6
 70
     0
 43
0.0098425196850394
 10
-0.1899606299212598
 20
-0.3326771653543307
 10
-0.1938976377952756
 20
-0.3179133858267717
 10
-0.1978346456692913
 20
-0.312007874015748
 10
-0.2037401574803149
 20
-0.3080708661417323
 10
-0.2086614173228346
 20
-0.3061023622047244
 10
-0.2116141732283464
 20
-0.3061023622047244
  0
LINE
  5
390
330
1E
100
AcDbEntity
  8
7
100
AcDbLine
 10
-0.1899606299212598
 20
-0.2440944881889764
 30
0.0
 11
-0.1899606299212598
 21
-0.3326771653543307
 31
0.0
  0
LWPOLYLINE
  5
391
330
1E
100
AcDbEntity
  8
7
100
AcDbPolyline
 90
        3
 70
     0
 43
0.0098425196850394
 10
-0.2116141732283464
 20
-0.2440944881889764
 10
-0.1968503937007874
 20
-0.2440944881889764
 10
-0.1899606299212598
 20
-0.2440944881889764
  0
LWPOLYLINE
  5
396
330
1E
100
AcDbEntity
  8
7
100
AcDbPolyline
 90
        5
 70
     0
 43
0.0098425196850394
 10
-0.2116141732283464
 20
-0.2440944881889764
 10
-0.2116141732283464
 20
-0.3061023622047244
 10
-0.21751968503937
 20
-0.3070866141732283
 10
-0.2224409448818898
 20
-0.3080708661417323
 10
-0.2273622047244094
 20
-0.312007874015748
  0
LWPOLYLINE
  5
39D
330
1E
100
AcDbEntity
  8
7
100
AcDbPolyline
 90
        3
 70
     0
 43
0.0098425196850394
 10
-0.2273622047244094
 20
-0.312007874015748
 10
-0.2322834645669291
 20
-0.3179133858267717
 10
-0.234251968503937
 20
-0.3316929133858268
  0
LWPOLYLINE
  5
3A2
330
1E
100
AcDbEntity
  8
7
100
AcDbPolyline
 90
        4
 70
     0
 43
0.0098425196850394
 10
-0.234251968503937
 20
-0.2440944881889764
 10
-0.2312992125984252
 20
-0.2440944881889764
 10
-0.2224409448818898
 20
-0.2440944881889764
 10
-0.2116141732283464
 20
-0.2440944881889764
  0
LINE
  5
3A8
330
1E
100
AcDbEntity
  8
7
100
AcDbLine
 10
-0.234251968503937
 20
-0.3316929133858268
 30
0.0
 11
-0.234251968503937
 21
-0.2440944881889764
 31
0.0
  0
LWPOLYLINE
  5
3A9
330
1E
100
AcDbEntity
  8
7
100
AcDbPolyline
 90
        6
 70
     0
 43
0.0098425196850394
 10
-0.234251968503937
 20
-0.3316929133858268
 10
-0.2352362204724409
 20
-0.3582677165354331
 10
-0.2352362204724409
 20
-0.3868110236220472
 10
-0.2352362204724409
 20
-0.4173228346456693
 10
-0.2352362204724409
 20
-0.4468503937007874
 10
-0.234251968503937
 20
-0.4734251968503937
  0
LINE
  5
3B1
330
1E
100
AcDbEntity
  8
7
100
AcDbLine
 10
-0.2362204724409449
 20
-0.2460629921259843
 30
0.0
 11
-0.234251968503937
 21
-0.2440944881889764
 31
0.0
  0
LWPOLYLINE
  5
3B2
330
1E
100
AcDbEntity
  8
7
100
AcDbPolyline
 90
        3
 70
     0
 43
0.0098425196850394
 10
-0.2362204724409449
 20
-0.2460629921259843
 10
-0.2372047244094488
 20
-0.2519685039370079
 10
-0.2372047244094488
 20
-0.265748031496063
  0
LINE
  5
3B7
330
1E
100
AcDbEntity
  8
7
100
AcDbLine
 10
-0.2372047244094488
 20
-0.5393700787401575
 30
0.0
 11
-0.2372047244094488
 21
-0.265748031496063
 31
0.0
  0
LWPOLYLINE
  5
3B8
330
1E
100
AcDbEntity
  8
7
100
AcDbPolyline
 90
        3
 70
     0
 43
0.0098425196850394
 10
-0.2362204724409449
 20
-0.5590551181102362
 10
-0.2372047244094488
 20
-0.5531496062992126
 10
-0.2372047244094488
 20
-0.5393700787401575
  0
LWPOLYLINE
  5
3BD
330
1E
100
AcDbEntity
  8
7
100
AcDbPolyline
 90
        3
 70
     0
 43
0.0098425196850394
 10
-0.2362204724409449
 20
-0.5590551181102362
 10
-0.234251968503937
 20
-0.5600393700787402
 10
-0.234251968503937
 20
-0.4734251968503937
  0
LWPOLYLINE
  5
3C2
330
1E
100
AcDbEntity
  8
7
100
AcDbPolyline
 90
        4
 70
     0
 43
0.0098425196850394
 10
-0.2116141732283464
 20
-0.5600393700787402
 10
-0.2224409448818898
 20
-0.5600393700787402
 10
-0.2312992125984252
 20
-0.5600393700787402
 10
-0.234251968503937
 20
-0.5600393700787402
  0
LINE
  5
3C8
330
1E
100
AcDbEntity
  8
7
100
AcDbLine
 10
-0.2116141732283464
 20
-0.4980314960629922
 30
0.0
 11
-0.2116141732283464
 21
-0.5600393700787402
 31
0.0
  0
LWPOLYLINE
  5
3C9
330
1E
100
AcDbEntity
  8
7
100
AcDbPolyline
 90
        6
 70
     0
 43
0.0098425196850394
 10
-0.234251968503937
 20
-0.4734251968503937
 10
-0.2312992125984252
 20
-0.4872047244094488
 10
-0.2273622047244094
 20
-0.4931102362204724
 10
-0.2214566929133858
 20
-0.4970472440944882
 10
-0.2155511811023622
 20
-0.4980314960629922
 10
-0.2116141732283464
 20
-0.4980314960629922
  0
LINE
  5
3D1
330
1E
100
AcDbEntity
  8
7
100
AcDbLine
 10
-0.1899606299212598
 20
-0.5600393700787402
 30
0.0
 11
-0.1968503937007874
 21
-0.5600393700787402
 31
0.0
  0
LINE
  5
3D2
330
1E
100
AcDbEntity
  8
7
100
AcDbLine
 10
-0.1968503937007874
 20
-0.5600393700787402
 30
0.0
 11
-0.2116141732283464
 21
-0.5600393700787402
 31
0.0
  0
LINE
  5
3D3
330
1E
100
AcDbEntity
  8
7
100
AcDbLine
 10
-0.1899606299212598
 20
-0.4724409448818898
 30
0.0
 11
-0.1899606299212598
 21
-0.5600393700787402
 31
0.0
  0
LWPOLYLINE
  5
3D4
330
1E
100
AcDbEntity
  8
7
100
AcDbPolyline
 90
        6
 70
     0
 43
0.0098425196850394
 10
-0.2116141732283464
 20
-0.4980314960629922
 10
-0.2047244094488189
 20
-0.4970472440944882
 10
-0.1998031496062992
 20
-0.4940944881889764
 10
-0.1948818897637795
 20
-0.4891732283464567
 10
-0.1909448818897638
 20
-0.4793307086614174
 10
-0.1899606299212598
 20
-0.4724409448818898
  0
LINE
  5
3DC
330
1E
100
AcDbEntity
  8
7
100
AcDbLine
 10
-0.1899606299212598
 20
-0.2440944881889764
 30
0.0
 11
-0.187992125984252
 21
-0.2450787401574803
 31
0.0
  0
LWPOLYLINE
  5
3DD
330
1E
100
AcDbEntity
  8
7
100
AcDbPolyline
 90
        4
 70
     0
 43
0.0098425196850394
 10
-0.1899606299212598
 20
-0.4724409448818898
 10
-0.1899606299212598
 20
-0.4458661417322835
 10
-0.1889763779527559
 20
-0.4173228346456693
 10
-0.1889763779527559
 20
-0.3877952755905512
  0
LWPOLYLINE
  5
3E3
330
1E
100
AcDbEntity
  8
7
100
AcDbPolyline
 90
        3
 70
     0
 43
0.0098425196850394
 10
-0.1889763779527559
 20
-0.3877952755905512
 10
-0.1899606299212598
 20
-0.359251968503937
 10
-0.1899606299212598
 20
-0.3326771653543307
  0
LINE
  5
3E8
330
1E
100
AcDbEntity
  8
7
100
AcDbLine
 10
-0.187992125984252
 20
-0.5590551181102362
 30
0.0
 11
-0.1899606299212598
 21
-0.5600393700787402
 31
0.0
  0
LWPOLYLINE
  5
3E9
330
1E
100
AcDbEntity
  8
7
100
AcDbPolyline
 90
        3
 70
     0
 43
0.0098425196850394
 10
-0.187007874015748
 20
-0.5393700787401575
 10
-0.187992125984252
 20
-0.5531496062992126
 10
-0.187992125984252
 20
-0.5590551181102362
  0
LINE
  5
3EE
330
1E
100
AcDbEntity
  8
7
100
AcDbLine
 10
-0.187007874015748
 20
-0.265748031496063
 30
0.0
 11
-0.187007874015748
 21
-0.5393700787401575
 31
0.0
  0
LWPOLYLINE
  5
3EF
330
1E
100
AcDbEntity
  8
7
100
AcDbPolyline
 90
        3
 70
     0
 43
0.0098425196850394
 10
-0.187007874015748
 20
-0.265748031496063
 10
-0.187992125984252
 20
-0.2519685039370079
 10
-0.187992125984252
 20
-0.2450787401574803
  0
LWPOLYLINE
  5
3F4
330
1E
100
AcDbEntity
  8
7
100
AcDbPolyline
 90
        4
 70
     0
 43
0.0098425196850394
 10
-0.2874015748031496
 20
-0.5383858267716536
 10
-0.2874015748031496
 20
-0.5531496062992126
 10
-0.2874015748031496
 20
-0.5590551181102362
 10
-0.2362204724409449
 20
-0.5590551181102362
  0
LINE
  5
3FA
330
1E
100
AcDbEntity
  8
7
100
AcDbLine
 10
-0.2372047244094488
 20
-0.5393700787401575
 30
0.0
 11
-0.2874015748031496
 21
-0.5383858267716536
 31
0.0
  0
LWPOLYLINE
  5
3FB
330
1E
100
AcDbEntity
  8
7
100
AcDbPolyline
 90
        5
 70
     0
 43
0.0098425196850394
 10
-0.2874015748031496
 20
-0.5177165354330709
 10
-0.2903543307086614
 20
-0.5068897637795276
 10
-0.2942913385826771
 20
-0.5
 10
-0.3001968503937007
 20
-0.4960629921259843
 10
-0.312007874015748
 20
-0.4921259842519686
  0
LINE
  5
402
330
1E
100
AcDbEntity
  8
7
100
AcDbLine
 10
-0.3375984251968504
 20
-0.5177165354330709
 30
0.0
 11
-0.3336614173228346
 21
-0.5049212598425197
 31
0.0
  0
LWPOLYLINE
  5
403
330
1E
100
AcDbEntity
  8
7
100
AcDbPolyline
 90
        6
 70
     0
 43
0.0098425196850394
 10
-0.3336614173228346
 20
-0.5049212598425197
 10
-0.3248031496062992
 20
-0.4960629921259843
 10
-0.312007874015748
 20
-0.4921259842519686
 10
-0.3001968503937007
 20
-0.4960629921259843
 10
-0.2903543307086614
 20
-0.5049212598425197
 10
-0.2874015748031496
 20
-0.5177165354330709
  0
LINE
  5
40B
330
1E
100
AcDbEntity
  8
7
100
AcDbLine
 10
-0.2874015748031496
 20
-0.2460629921259843
 30
0.0
 11
-0.2362204724409449
 21
-0.2460629921259843
 31
0.0
  0
LWPOLYLINE
  5
40C
330
1E
100
AcDbEntity
  8
7
100
AcDbPolyline
 90
        3
 70
     0
 43
0.0098425196850394
 10
-0.2874015748031496
 20
-0.265748031496063
 10
-0.2874015748031496
 20
-0.2519685039370079
 10
-0.2874015748031496
 20
-0.2460629921259843
  0
LINE
  5
411
330
1E
100
AcDbEntity
  8
7
100
AcDbLine
 10
-0.2372047244094488
 20
-0.265748031496063
 30
0.0
 11
-0.2874015748031496
 21
-0.265748031496063
 31
0.0
  0
LINE
  5
412
330
1E
100
AcDbEntity
  8
7
100
AcDbLine
 10
-0.3877952755905512
 20
-0.265748031496063
 30
0.0
 11
-0.3877952755905512
 21
-0.5383858267716536
 31
0.0
  0
LINE
  5
413
330
1E
100
AcDbEntity
  8
7
100
AcDbLine
 10
-0.3375984251968504
 20
-0.5383858267716536
 30
0.0
 11
-0.3375984251968504
 21
-0.5177165354330709
 31
0.0
  0
LINE
  5
414
330
1E
100
AcDbEntity
  8
7
100
AcDbLine
 10
-0.2874015748031496
 20
-0.5177165354330709
 30
0.0
 11
-0.2874015748031496
 21
-0.5383858267716536
 31
0.0
  0
LINE
  5
415
330
1E
100
AcDbEntity
  8
7
100
AcDbLine
 10
-0.2874015748031496
 20
-0.2874015748031496
 30
0.0
 11
-0.2874015748031496
 21
-0.265748031496063
 31
0.0
  0
LWPOLYLINE
  5
416
330
1E
100
AcDbEntity
  8
7
100
AcDbPolyline
 90
        6
 70
     0
 43
0.0098425196850394
 10
-0.2874015748031496
 20
-0.2874015748031496
 10
-0.2903543307086614
 20
-0.3001968503937008
 10
-0.3001968503937007
 20
-0.3090551181102362
 10
-0.312007874015748
 20
-0.312007874015748
 10
-0.3248031496062992
 20
-0.3090551181102362
 10
-0.3336614173228346
 20
-0.3001968503937008
  0
LINE
  5
41E
330
1E
100
AcDbEntity
  8
7
100
AcDbLine
 10
-0.3336614173228346
 20
-0.3001968503937008
 30
0.0
 11
-0.3375984251968504
 21
-0.2874015748031496
 31
0.0
  0
LINE
  5
41F
330
1E
100
AcDbEntity
  8
7
100
AcDbLine
 10
-0.3375984251968504
 20
-0.265748031496063
 30
0.0
 11
-0.3375984251968504
 21
-0.2874015748031496
 31
0.0
  0
LINE
  5
420
330
1E
100
AcDbEntity
  8
7
100
AcDbLine
 10
-0.3375984251968504
 20
-0.265748031496063
 30
0.0
 11
-0.3877952755905512
 21
-0.265748031496063
 31
0.0
  0
LWPOLYLINE
  5
421
330
1E
100
AcDbEntity
  8
7
100
AcDbPolyline
 90
        6
 70
     0
 43
0.0098425196850394
 10
-0.312007874015748
 20
-0.312007874015748
 10
-0.3061023622047244
 20
-0.312007874015748
 10
-0.3011811023622047
 20
-0.3090551181102362
 10
-0.2952755905511811
 20
-0.3051181102362205
 10
-0.2903543307086614
 20
-0.2982283464566929
 10
-0.2874015748031496
 20
-0.2874015748031496
  0
LINE
  5
429
330
1E
100
AcDbEntity
  8
7
100
AcDbLine
 10
-0.4370078740157481
 20
-0.2460629921259843
 30
0.0
 11
-0.4370078740157481
 21
-0.2519685039370079
 31
0.0
  0
LINE
  5
42A
330
1E
100
AcDbEntity
  8
7
100
AcDbLine
 10
-0.4370078740157481
 20
-0.2519685039370079
 30
0.0
 11
-0.4370078740157481
 21
-0.2667322834645669
 31
0.0
  0
LINE
  5
42B
330
1E
100
AcDbEntity
  8
7
100
AcDbLine
 10
-0.6387795275590551
 20
-0.2460629921259843
 30
0.0
 11
-0.4370078740157481
 21
-0.2460629921259843
 31
0.0
  0
LWPOLYLINE
  5
42C
330
1E
100
AcDbEntity
  8
7
100
AcDbPolyline
 90
        3
 70
     0
 43
0.0098425196850394
 10
-0.3375984251968504
 20
-0.2460629921259843
 10
-0.3375984251968504
 20
-0.2519685039370079
 10
-0.3375984251968504
 20
-0.265748031496063
  0
LINE
  5
431
330
1E
100
AcDbEntity
  8
7
100
AcDbLine
 10
-0.3877952755905512
 20
-0.2460629921259843
 30
0.0
 11
-0.3375984251968504
 21
-0.2460629921259843
 31
0.0
  0
LWPOLYLINE
  5
432
330
1E
100
AcDbEntity
  8
7
100
AcDbPolyline
 90
        3
 70
     0
 43
0.0098425196850394
 10
-0.3877952755905512
 20
-0.265748031496063
 10
-0.3877952755905512
 20
-0.2519685039370079
 10
-0.3877952755905512
 20
-0.2460629921259843
  0
LINE
  5
437
330
1E
100
AcDbEntity
  8
7
100
AcDbLine
 10
-0.3877952755905512
 20
-0.2450787401574803
 30
0.0
 11
-0.3877952755905512
 21
-0.2460629921259843
 31
0.0
  0
LINE
  5
438
330
1E
100
AcDbEntity
  8
7
100
AcDbLine
 10
-0.3877952755905512
 20
-0.2450787401574803
 30
0.0
 11
-0.3877952755905512
 21
-0.3366141732283465
 31
0.0
  0
LWPOLYLINE
  5
439
330
1E
100
AcDbEntity
  8
7
100
AcDbPolyline
 90
        5
 70
     0
 43
0.0098425196850394
 10
-0.3877952755905512
 20
-0.4675196850393701
 10
-0.3877952755905512
 20
-0.4360236220472441
 10
-0.3877952755905512
 20
-0.4025590551181103
 10
-0.3877952755905512
 20
-0.3681102362204724
 10
-0.3877952755905512
 20
-0.3366141732283465
  0
LINE
  5
440
330
1E
100
AcDbEntity
  8
7
100
AcDbLine
 10
-0.3877952755905512
 20
-0.5600393700787402
 30
0.0
 11
-0.3877952755905512
 21
-0.5580708661417324
 31
0.0
  0
LWPOLYLINE
  5
441
330
1E
100
AcDbEntity
  8
7
100
AcDbPolyline
 90
        6
 70
     0
 43
0.0098425196850394
 10
-0.4370078740157481
 20
-0.2450787401574803
 10
-0.4340551181102362
 20
-0.2440944881889764
 10
-0.4251968503937008
 20
-0.2440944881889764
 10
-0.4124015748031497
 20
-0.2440944881889764
 10
-0.3996062992125984
 20
-0.2440944881889764
 10
-0.3907480314960629
 20
-0.2440944881889764
  0
LINE
  5
449
330
1E
100
AcDbEntity
  8
7
100
AcDbLine
 10
-0.3907480314960629
 20
-0.2440944881889764
 30
0.0
 11
-0.3877952755905512
 21
-0.2450787401574803
 31
0.0
  0
LINE
  5
44A
330
1E
100
AcDbEntity
  8
7
100
AcDbLine
 10
-0.4370078740157481
 20
-0.3346456692913386
 30
0.0
 11
-0.4370078740157481
 21
-0.2450787401574803
 31
0.0
  0
LWPOLYLINE
  5
44B
330
1E
100
AcDbEntity
  8
7
100
AcDbPolyline
 90
       12
 70
     0
 43
0.0098425196850394
 10
-0.3877952755905512
 20
-0.3366141732283465
 10
-0.389763779527559
 20
-0.3208661417322834
 10
-0.3946850393700787
 20
-0.3129921259842519
 10
-0.3996062992125984
 20
-0.3080708661417323
 10
-0.4064960629921261
 20
-0.3051181102362205
 10
-0.4133858267716536
 20
-0.3041338582677166
 10
-0.4192913385826772
 20
-0.3051181102362205
 10
-0.4251968503937008
 20
-0.3070866141732283
 10
-0.4291338582677165
 20
-0.3110236220472441
 10
-0.4350393700787402
 20
-0.3188976377952756
 10
-0.4370078740157481
 20
-0.3316929133858268
 10
-0.4370078740157481
 20
-0.3346456692913386
  0
LINE
  5
459
330
1E
100
AcDbEntity
  8
7
100
AcDbLine
 10
-0.4370078740157481
 20
-0.5600393700787402
 30
0.0
 11
-0.4370078740157481
 21
-0.5580708661417324
 31
0.0
  0
LINE
  5
45A
330
1E
100
AcDbEntity
  8
7
100
AcDbLine
 10
-0.4370078740157481
 20
-0.2450787401574803
 30
0.0
 11
-0.4370078740157481
 21
-0.2460629921259843
 31
0.0
  0
LWPOLYLINE
  5
45B
330
1E
100
AcDbEntity
  8
7
100
AcDbPolyline
 90
        4
 70
     0
 43
0.0098425196850394
 10
-0.1368110236220472
 20
-0.5590551181102362
 10
-0.1368110236220472
 20
-0.5531496062992126
 10
-0.1377952755905512
 20
-0.5393700787401575
 10
-0.187007874015748
 20
-0.5393700787401575
  0
LINE
  5
461
330
1E
100
AcDbEntity
  8
7
100
AcDbLine
 10
-0.187992125984252
 20
-0.5590551181102362
 30
0.0
 11
-0.1368110236220472
 21
-0.5590551181102362
 31
0.0
  0
LWPOLYLINE
  5
462
330
1E
100
AcDbEntity
  8
7
100
AcDbPolyline
 90
        3
 70
     0
 43
0.0098425196850394
 10
-0.1377952755905512
 20
-0.5393700787401575
 10
-0.1377952755905512
 20
-0.265748031496063
 10
-0.187007874015748
 20
-0.265748031496063
  0
LWPOLYLINE
  5
467
330
1E
100
AcDbEntity
  8
7
100
AcDbPolyline
 90
        3
 70
     0
 43
0.0098425196850394
 10
-0.1368110236220472
 20
-0.2450787401574803
 10
-0.1368110236220472
 20
-0.2509842519685039
 10
-0.1377952755905512
 20
-0.265748031496063
  0
LINE
  5
46C
330
1E
100
AcDbEntity
  8
7
100
AcDbLine
 10
-0.187992125984252
 20
-0.2450787401574803
 30
0.0
 11
-0.1368110236220472
 21
-0.2450787401574803
 31
0.0
  0
LINE
  5
46D
330
1E
100
AcDbEntity
  8
7
100
AcDbLine
 10
-0.2874015748031496
 20
-0.2421259842519685
 30
0.0
 11
-0.2874015748031496
 21
-0.2460629921259843
 31
0.0
  0
LWPOLYLINE
  5
46E
330
1E
100
AcDbEntity
  8
7
100
AcDbPolyline
 90
        3
 70
     0
 43
0.0098425196850394
 10
-0.2874015748031496
 20
-0.2874015748031496
 10
-0.2874015748031496
 20
-0.2755905511811024
 10
-0.2874015748031496
 20
-0.2716535433070866
  0
LINE
  5
473
330
1E
100
AcDbEntity
  8
7
100
AcDbLine
 10
-0.1368110236220472
 20
-0.2450787401574803
 30
0.0
 11
-0.1309055118110236
 21
-0.2421259842519685
 31
0.0
  0
LINE
  5
474
330
1E
100
AcDbEntity
  8
7
100
AcDbLine
 10
-0.1368110236220472
 20
-0.5590551181102362
 30
0.0
 11
-0.1309055118110236
 21
-0.5620078740157481
 31
0.0
  0
LWPOLYLINE
  5
475
330
1E
100
AcDbEntity
  8
7
100
AcDbPolyline
 90
       14
 70
     0
 43
0.0098425196850394
 10
-0.1309055118110236
 20
-0.5305118110236221
 10
-0.1318897637795275
 20
-0.5265748031496063
 10
-0.1328740157480315
 20
-0.515748031496063
 10
-0.1338582677165354
 20
-0.4980314960629922
 10
-0.1348425196850393
 20
-0.4753937007874016
 10
-0.1358267716535433
 20
-0.4478346456692913
 10
-0.1358267716535433
 20
-0.4173228346456693
 10
-0.1358267716535433
 20
-0.3868110236220472
 10
-0.1358267716535433
 20
-0.3572834645669291
 10
-0.1348425196850393
 20
-0.3297244094488189
 10
-0.1338582677165354
 20
-0.3061023622047244
 10
-0.1328740157480315
 20
-0.2893700787401574
 10
-0.1318897637795275
 20
-0.2785433070866142
 10
-0.1309055118110236
 20
-0.2746062992125984
  0
LWPOLYLINE
  5
485
330
1E
100
AcDbEntity
  8
7
100
AcDbPolyline
 90
        3
 70
     0
 43
0.0098425196850394
 10
-0.2874015748031496
 20
-0.5324803149606299
 10
-0.2874015748031496
 20
-0.5285433070866141
 10
-0.2874015748031496
 20
-0.5177165354330709
  0
LINE
  5
48A
330
1E
100
AcDbEntity
  8
7
100
AcDbLine
 10
-0.2874015748031496
 20
-0.5620078740157481
 30
0.0
 11
-0.2874015748031496
 21
-0.5590551181102362
 31
0.0
  0
LINE
  5
48B
330
1E
100
AcDbEntity
  8
7
100
AcDbLine
 10
-0.3375984251968504
 20
-0.5590551181102362
 30
0.0
 11
-0.3375984251968504
 21
-0.5620078740157481
 31
0.0
  0
LINE
  5
48C
330
1E
100
AcDbEntity
  8
7
100
AcDbLine
 10
-0.3375984251968504
 20
-0.2460629921259843
 30
0.0
 11
-0.3375984251968504
 21
-0.2421259842519685
 31
0.0
  0
LINE
  5
48D
330
1E
100
AcDbEntity
  8
7
100
AcDbLine
 10
-1.064960629921259
 20
-1.809055118110236
 30
0.0
 11
-1.064960629921259
 21
-1.432086614173228
 31
0.0
  0
LINE
  5
48E
330
1E
100
AcDbEntity
  8
7
100
AcDbLine
 10
-1.709645669291338
 20
-1.733267716535433
 30
0.0
 11
-1.70767716535433
 21
-1.734251968503937
 31
0.0
  0
LINE
  5
48F
330
1E
100
AcDbEntity
  8
7
100
AcDbLine
 10
-1.70767716535433
 20
-1.506889763779527
 30
0.0
 11
-1.709645669291338
 21
-1.508858267716535
 31
0.0
  0
LWPOLYLINE
  5
490
330
1E
100
AcDbEntity
  8
7
100
AcDbPolyline
 90
       10
 70
     0
 43
0.0098425196850394
 10
-1.459645669291338
 20
-1.593503937007874
 10
-1.46259842519685
 20
-1.599409448818897
 10
-1.46259842519685
 20
-1.611220472440944
 10
-1.459645669291338
 20
-1.617125984251968
 10
-1.450787401574802
 20
-1.617125984251968
 10
-1.447834645669291
 20
-1.611220472440944
 10
-1.447834645669291
 20
-1.599409448818897
 10
-1.444881889763779
 20
-1.593503937007874
 10
-1.43503937007874
 20
-1.593503937007874
 10
-1.433070866141732
 20
-1.599409448818897
  0
LWPOLYLINE
  5
49C
330
1E
100
AcDbEntity
  8
7
100
AcDbPolyline
 90
        3
 70
     0
 43
0.0098425196850394
 10
-1.433070866141732
 20
-1.599409448818897
 10
-1.433070866141732
 20
-1.611220472440944
 10
-1.43503937007874
 20
-1.617125984251968
  0
LWPOLYLINE
  5
4A1
330
1E
100
AcDbEntity
  8
7
100
AcDbPolyline
 90
       12
 70
     0
 43
0.0098425196850394
 10
-1.450787401574802
 20
-1.625984251968503
 10
-1.444881889763779
 20
-1.631889763779527
 10
-1.444881889763779
 20
-1.644685039370078
 10
-1.450787401574802
 20
-1.650590551181102
 10
-1.456692913385826
 20
-1.650590551181102
 10
-1.46259842519685
 20
-1.644685039370078
 10
-1.46259842519685
 20
-1.631889763779527
 10
-1.456692913385826
 20
-1.625984251968503
 10
-1.438976377952755
 20
-1.625984251968503
 10
-1.433070866141732
 20
-1.631889763779527
 10
-1.433070866141732
 20
-1.644685039370078
 10
-1.438976377952755
 20
-1.650590551181102
  0
LINE
  5
4AF
330
1E
100
AcDbEntity
  8
7
100
AcDbLine
 10
-1.49507874015748
 20
-1.554133858267716
 30
0.0
 11
-1.49507874015748
 21
-1.567913385826771
 31
0.0
  0
LWPOLYLINE
  5
4B0
330
1E
100
AcDbEntity
  8
7
100
AcDbPolyline
 90
        3
 70
     0
 43
0.0098425196850394
 10
-1.498031496062992
 20
-1.554133858267716
 10
-1.496062992125984
 20
-1.554133858267716
 10
-1.49507874015748
 20
-1.554133858267716
  0
LINE
  5
4B5
330
1E
100
AcDbEntity
  8
7
100
AcDbLine
 10
-1.498031496062992
 20
-1.567913385826771
 30
0.0
 11
-1.498031496062992
 21
-1.554133858267716
 31
0.0
  0
LWPOLYLINE
  5
4B6
330
1E
100
AcDbEntity
  8
7
100
AcDbPolyline
 90
        3
 70
     0
 43
0.0098425196850394
 10
-1.49507874015748
 20
-1.567913385826771
 10
-1.496062992125984
 20
-1.567913385826771
 10
-1.498031496062992
 20
-1.567913385826771
  0
LWPOLYLINE
  5
4BB
330
1E
100
AcDbEntity
  8
7
100
AcDbPolyline
 90
        3
 70
     0
 43
0.0098425196850394
 10
-1.619094488188976
 20
-1.554133858267716
 10
-1.623031496062992
 20
-1.554133858267716
 10
-1.629921259842519
 20
-1.554133858267716
  0
LWPOLYLINE
  5
4C0
330
1E
100
AcDbEntity
  8
7
100
AcDbPolyline
 90
        6
 70
     0
 43
0.0098425196850394
 10
-1.619094488188976
 20
-1.554133858267716
 10
-1.613188976377952
 20
-1.554133858267716
 10
-1.605314960629921
 20
-1.554133858267716
 10
-1.530511811023622
 20
-1.554133858267716
 10
-1.521653543307086
 20
-1.554133858267716
 10
-1.516732283464566
 20
-1.554133858267716
  0
LWPOLYLINE
  5
4C8
330
1E
100
AcDbEntity
  8
7
100
AcDbPolyline
 90
        3
 70
     0
 43
0.0098425196850394
 10
-1.502952755905511
 20
-1.554133858267716
 10
-1.510826771653543
 20
-1.554133858267716
 10
-1.516732283464566
 20
-1.554133858267716
  0
LINE
  5
4CD
330
1E
100
AcDbEntity
  8
7
100
AcDbLine
 10
-1.498031496062992
 20
-1.554133858267716
 30
0.0
 11
-1.502952755905511
 21
-1.554133858267716
 31
0.0
  0
LWPOLYLINE
  5
4CE
330
1E
100
AcDbEntity
  8
7
100
AcDbPolyline
 90
        4
 70
     0
 43
0.0098425196850394
 10
-1.498031496062992
 20
-1.567913385826771
 10
-1.502952755905511
 20
-1.567913385826771
 10
-1.510826771653543
 20
-1.567913385826771
 10
-1.516732283464566
 20
-1.567913385826771
  0
LINE
  5
4D4
330
1E
100
AcDbEntity
  8
7
100
AcDbLine
 10
-1.530511811023622
 20
-1.567913385826771
 30
0.0
 11
-1.521653543307086
 21
-1.567913385826771
 31
0.0
  0
LINE
  5
4D5
330
1E
100
AcDbEntity
  8
7
100
AcDbLine
 10
-1.521653543307086
 20
-1.567913385826771
 30
0.0
 11
-1.516732283464566
 21
-1.567913385826771
 31
0.0
  0
LINE
  5
4D6
330
1E
100
AcDbEntity
  8
7
100
AcDbLine
 10
-1.605314960629921
 20
-1.567913385826771
 30
0.0
 11
-1.530511811023622
 21
-1.567913385826771
 31
0.0
  0
LWPOLYLINE
  5
4D7
330
1E
100
AcDbEntity
  8
7
100
AcDbPolyline
 90
        3
 70
     0
 43
0.0098425196850394
 10
-1.619094488188976
 20
-1.567913385826771
 10
-1.613188976377952
 20
-1.567913385826771
 10
-1.605314960629921
 20
-1.567913385826771
  0
LWPOLYLINE
  5
4DC
330
1E
100
AcDbEntity
  8
7
100
AcDbPolyline
 90
        4
 70
     0
 43
0.0098425196850394
 10
-1.619094488188976
 20
-1.567913385826771
 10
-1.623031496062992
 20
-1.567913385826771
 10
-1.629921259842519
 20
-1.567913385826771
 10
-1.629921259842519
 20
-1.554133858267716
  0
LINE
  5
4E2
330
1E
100
AcDbEntity
  8
7
100
AcDbLine
 10
-1.619094488188976
 20
-1.554133858267716
 30
0.0
 11
-1.619094488188976
 21
-1.567913385826771
 31
0.0
  0
LINE
  5
4E3
330
1E
100
AcDbEntity
  8
7
100
AcDbLine
 10
-1.605314960629921
 20
-1.554133858267716
 30
0.0
 11
-1.605314960629921
 21
-1.567913385826771
 31
0.0
  0
LINE
  5
4E4
330
1E
100
AcDbEntity
  8
7
100
AcDbLine
 10
-1.530511811023622
 20
-1.554133858267716
 30
0.0
 11
-1.530511811023622
 21
-1.567913385826771
 31
0.0
  0
LINE
  5
4E5
330
1E
100
AcDbEntity
  8
7
100
AcDbLine
 10
-1.516732283464566
 20
-1.554133858267716
 30
0.0
 11
-1.516732283464566
 21
-1.567913385826771
 31
0.0
  0
LINE
  5
4E6
330
1E
100
AcDbEntity
  8
7
100
AcDbLine
 10
-1.502952755905511
 20
-1.554133858267716
 30
0.0
 11
-1.502952755905511
 21
-1.567913385826771
 31
0.0
  0
LINE
  5
4E7
330
1E
100
AcDbEntity
  8
7
100
AcDbLine
 10
-1.49507874015748
 20
-1.673228346456692
 30
0.0
 11
-1.49507874015748
 21
-1.687992125984251
 31
0.0
  0
LWPOLYLINE
  5
4E8
330
1E
100
AcDbEntity
  8
7
100
AcDbPolyline
 90
        3
 70
     0
 43
0.0098425196850394
 10
-1.498031496062992
 20
-1.673228346456692
 10
-1.496062992125984
 20
-1.673228346456692
 10
-1.49507874015748
 20
-1.673228346456692
  0
LINE
  5
4ED
330
1E
100
AcDbEntity
  8
7
100
AcDbLine
 10
-1.498031496062992
 20
-1.687992125984251
 30
0.0
 11
-1.498031496062992
 21
-1.673228346456692
 31
0.0
  0
LWPOLYLINE
  5
4EE
330
1E
100
AcDbEntity
  8
7
100
AcDbPolyline
 90
        3
 70
     0
 43
0.0098425196850394
 10
-1.49507874015748
 20
-1.687992125984251
 10
-1.496062992125984
 20
-1.687992125984251
 10
-1.498031496062992
 20
-1.687992125984251
  0
LWPOLYLINE
  5
4F3
330
1E
100
AcDbEntity
  8
7
100
AcDbPolyline
 90
        3
 70
     0
 43
0.0098425196850394
 10
-1.619094488188976
 20
-1.673228346456692
 10
-1.623031496062992
 20
-1.673228346456692
 10
-1.629921259842519
 20
-1.673228346456692
  0
LWPOLYLINE
  5
4F8
330
1E
100
AcDbEntity
  8
7
100
AcDbPolyline
 90
        6
 70
     0
 43
0.0098425196850394
 10
-1.619094488188976
 20
-1.673228346456692
 10
-1.613188976377952
 20
-1.673228346456692
 10
-1.605314960629921
 20
-1.673228346456692
 10
-1.530511811023622
 20
-1.673228346456692
 10
-1.521653543307086
 20
-1.673228346456692
 10
-1.516732283464566
 20
-1.673228346456692
  0
LWPOLYLINE
  5
500
330
1E
100
AcDbEntity
  8
7
100
AcDbPolyline
 90
        3
 70
     0
 43
0.0098425196850394
 10
-1.502952755905511
 20
-1.673228346456692
 10
-1.510826771653543
 20
-1.673228346456692
 10
-1.516732283464566
 20
-1.673228346456692
  0
LINE
  5
505
330
1E
100
AcDbEntity
  8
7
100
AcDbLine
 10
-1.498031496062992
 20
-1.673228346456692
 30
0.0
 11
-1.502952755905511
 21
-1.673228346456692
 31
0.0
  0
LWPOLYLINE
  5
506
330
1E
100
AcDbEntity
  8
7
100
AcDbPolyline
 90
        4
 70
     0
 43
0.0098425196850394
 10
-1.498031496062992
 20
-1.687992125984251
 10
-1.502952755905511
 20
-1.687992125984251
 10
-1.510826771653543
 20
-1.687992125984251
 10
-1.516732283464566
 20
-1.687992125984251
  0
LWPOLYLINE
  5
50C
330
1E
100
AcDbEntity
  8
7
100
AcDbPolyline
 90
        3
 70
     0
 43
0.0098425196850394
 10
-1.530511811023622
 20
-1.687992125984251
 10
-1.521653543307086
 20
-1.687992125984251
 10
-1.516732283464566
 20
-1.687992125984251
  0
LINE
  5
511
330
1E
100
AcDbEntity
  8
7
100
AcDbLine
 10
-1.605314960629921
 20
-1.687992125984251
 30
0.0
 11
-1.530511811023622
 21
-1.687992125984251
 31
0.0
  0
LWPOLYLINE
  5
512
330
1E
100
AcDbEntity
  8
7
100
AcDbPolyline
 90
        3
 70
     0
 43
0.0098425196850394
 10
-1.619094488188976
 20
-1.687992125984251
 10
-1.613188976377952
 20
-1.687992125984251
 10
-1.605314960629921
 20
-1.687992125984251
  0
LWPOLYLINE
  5
517
330
1E
100
AcDbEntity
  8
7
100
AcDbPolyline
 90
        4
 70
     0
 43
0.0098425196850394
 10
-1.619094488188976
 20
-1.687992125984251
 10
-1.623031496062992
 20
-1.687992125984251
 10
-1.629921259842519
 20
-1.687992125984251
 10
-1.629921259842519
 20
-1.673228346456692
  0
LINE
  5
51D
330
1E
100
AcDbEntity
  8
7
100
AcDbLine
 10
-1.619094488188976
 20
-1.673228346456692
 30
0.0
 11
-1.619094488188976
 21
-1.687992125984251
 31
0.0
  0
LINE
  5
51E
330
1E
100
AcDbEntity
  8
7
100
AcDbLine
 10
-1.605314960629921
 20
-1.673228346456692
 30
0.0
 11
-1.605314960629921
 21
-1.687992125984251
 31
0.0
  0
LINE
  5
51F
330
1E
100
AcDbEntity
  8
7
100
AcDbLine
 10
-1.530511811023622
 20
-1.673228346456692
 30
0.0
 11
-1.530511811023622
 21
-1.687992125984251
 31
0.0
  0
LINE
  5
520
330
1E
100
AcDbEntity
  8
7
100
AcDbLine
 10
-1.516732283464566
 20
-1.673228346456692
 30
0.0
 11
-1.516732283464566
 21
-1.687992125984251
 31
0.0
  0
LINE
  5
521
330
1E
100
AcDbEntity
  8
7
100
AcDbLine
 10
-1.502952755905511
 20
-1.673228346456692
 30
0.0
 11
-1.502952755905511
 21
-1.687992125984251
 31
0.0
  0
LINE
  5
522
330
1E
100
AcDbEntity
  8
7
100
AcDbLine
 10
-1.49507874015748
 20
-1.487204724409448
 30
0.0
 11
-1.49507874015748
 21
-1.473425196850393
 31
0.0
  0
LWPOLYLINE
  5
523
330
1E
100
AcDbEntity
  8
7
100
AcDbPolyline
 90
        3
 70
     0
 43
0.0098425196850394
 10
-1.49507874015748
 20
-1.487204724409448
 10
-1.496062992125984
 20
-1.487204724409448
 10
-1.498031496062992
 20
-1.487204724409448
  0
LWPOLYLINE
  5
528
330
1E
100
AcDbEntity
  8
7
100
AcDbPolyline
 90
        4
 70
     0
 43
0.0098425196850394
 10
-1.49507874015748
 20
-1.473425196850393
 10
-1.496062992125984
 20
-1.473425196850393
 10
-1.498031496062992
 20
-1.473425196850393
 10
-1.498031496062992
 20
-1.487204724409448
  0
LWPOLYLINE
  5
52E
330
1E
100
AcDbEntity
  8
7
100
AcDbPolyline
 90
        3
 70
     0
 43
0.0098425196850394
 10
-1.619094488188976
 20
-1.473425196850393
 10
-1.623031496062992
 20
-1.473425196850393
 10
-1.629921259842519
 20
-1.473425196850393
  0
LINE
  5
533
330
1E
100
AcDbEntity
  8
7
100
AcDbLine
 10
-1.605314960629921
 20
-1.473425196850393
 30
0.0
 11
-1.613188976377952
 21
-1.473425196850393
 31
0.0
  0
LINE
  5
534
330
1E
100
AcDbEntity
  8
7
100
AcDbLine
 10
-1.613188976377952
 20
-1.473425196850393
 30
0.0
 11
-1.619094488188976
 21
-1.473425196850393
 31
0.0
  0
LWPOLYLINE
  5
535
330
1E
100
AcDbEntity
  8
7
100
AcDbPolyline
 90
        6
 70
     0
 43
0.0098425196850394
 10
-1.605314960629921
 20
-1.473425196850393
 10
-1.530511811023622
 20
-1.473425196850393
 10
-1.521653543307086
 20
-1.473425196850393
 10
-1.516732283464566
 20
-1.473425196850393
 10
-1.510826771653543
 20
-1.473425196850393
 10
-1.502952755905511
 20
-1.473425196850393
  0
LINE
  5
53D
330
1E
100
AcDbEntity
  8
7
100
AcDbLine
 10
-1.498031496062992
 20
-1.473425196850393
 30
0.0
 11
-1.502952755905511
 21
-1.473425196850393
 31
0.0
  0
LWPOLYLINE
  5
53E
330
1E
100
AcDbEntity
  8
7
100
AcDbPolyline
 90
        3
 70
     0
 43
0.0098425196850394
 10
-1.619094488188976
 20
-1.487204724409448
 10
-1.623031496062992
 20
-1.487204724409448
 10
-1.629921259842519
 20
-1.487204724409448
  0
LWPOLYLINE
  5
543
330
1E
100
AcDbEntity
  8
7
100
AcDbPolyline
 90
        4
 70
     0
 43
0.0098425196850394
 10
-1.498031496062992
 20
-1.487204724409448
 10
-1.502952755905511
 20
-1.487204724409448
 10
-1.510826771653543
 20
-1.487204724409448
 10
-1.516732283464566
 20
-1.487204724409448
  0
LWPOLYLINE
  5
549
330
1E
100
AcDbEntity
  8
7
100
AcDbPolyline
 90
        3
 70
     0
 43
0.0098425196850394
 10
-1.530511811023622
 20
-1.487204724409448
 10
-1.521653543307086
 20
-1.487204724409448
 10
-1.516732283464566
 20
-1.487204724409448
  0
LINE
  5
54E
330
1E
100
AcDbEntity
  8
7
100
AcDbLine
 10
-1.605314960629921
 20
-1.487204724409448
 30
0.0
 11
-1.530511811023622
 21
-1.487204724409448
 31
0.0
  0
LWPOLYLINE
  5
54F
330
1E
100
AcDbEntity
  8
7
100
AcDbPolyline
 90
        3
 70
     0
 43
0.0098425196850394
 10
-1.605314960629921
 20
-1.487204724409448
 10
-1.613188976377952
 20
-1.487204724409448
 10
-1.619094488188976
 20
-1.487204724409448
  0
LINE
  5
554
330
1E
100
AcDbEntity
  8
7
100
AcDbLine
 10
-1.502952755905511
 20
-1.473425196850393
 30
0.0
 11
-1.502952755905511
 21
-1.487204724409448
 31
0.0
  0
LINE
  5
555
330
1E
100
AcDbEntity
  8
7
100
AcDbLine
 10
-1.619094488188976
 20
-1.473425196850393
 30
0.0
 11
-1.619094488188976
 21
-1.487204724409448
 31
0.0
  0
LINE
  5
556
330
1E
100
AcDbEntity
  8
7
100
AcDbLine
 10
-1.605314960629921
 20
-1.473425196850393
 30
0.0
 11
-1.605314960629921
 21
-1.487204724409448
 31
0.0
  0
LINE
  5
557
330
1E
100
AcDbEntity
  8
7
100
AcDbLine
 10
-1.516732283464566
 20
-1.487204724409448
 30
0.0
 11
-1.516732283464566
 21
-1.473425196850393
 31
0.0
  0
LINE
  5
558
330
1E
100
AcDbEntity
  8
7
100
AcDbLine
 10
-1.530511811023622
 20
-1.473425196850393
 30
0.0
 11
-1.530511811023622
 21
-1.487204724409448
 31
0.0
  0
LINE
  5
559
330
1E
100
AcDbEntity
  8
7
100
AcDbLine
 10
-1.629921259842519
 20
-1.487204724409448
 30
0.0
 11
-1.629921259842519
 21
-1.473425196850393
 31
0.0
  0
LINE
  5
55A
330
1E
100
AcDbEntity
  8
7
100
AcDbLine
 10
-1.49507874015748
 20
-1.76771653543307
 30
0.0
 11
-1.49507874015748
 21
-1.753937007874015
 31
0.0
  0
LWPOLYLINE
  5
55B
330
1E
100
AcDbEntity
  8
7
100
AcDbPolyline
 90
        3
 70
     0
 43
0.0098425196850394
 10
-1.49507874015748
 20
-1.76771653543307
 10
-1.496062992125984
 20
-1.76771653543307
 10
-1.498031496062992
 20
-1.76771653543307
  0
LWPOLYLINE
  5
560
330
1E
100
AcDbEntity
  8
7
100
AcDbPolyline
 90
        4
 70
     0
 43
0.0098425196850394
 10
-1.49507874015748
 20
-1.753937007874015
 10
-1.496062992125984
 20
-1.753937007874015
 10
-1.498031496062992
 20
-1.753937007874015
 10
-1.498031496062992
 20
-1.76771653543307
  0
LWPOLYLINE
  5
566
330
1E
100
AcDbEntity
  8
7
100
AcDbPolyline
 90
        3
 70
     0
 43
0.0098425196850394
 10
-1.619094488188976
 20
-1.753937007874015
 10
-1.623031496062992
 20
-1.753937007874015
 10
-1.629921259842519
 20
-1.753937007874015
  0
LWPOLYLINE
  5
56B
330
1E
100
AcDbEntity
  8
7
100
AcDbPolyline
 90
        3
 70
     0
 43
0.0098425196850394
 10
-1.605314960629921
 20
-1.753937007874015
 10
-1.613188976377952
 20
-1.753937007874015
 10
-1.619094488188976
 20
-1.753937007874015
  0
LWPOLYLINE
  5
570
330
1E
100
AcDbEntity
  8
7
100
AcDbPolyline
 90
        6
 70
     0
 43
0.0098425196850394
 10
-1.605314960629921
 20
-1.753937007874015
 10
-1.530511811023622
 20
-1.753937007874015
 10
-1.521653543307086
 20
-1.753937007874015
 10
-1.516732283464566
 20
-1.753937007874015
 10
-1.510826771653543
 20
-1.753937007874015
 10
-1.502952755905511
 20
-1.753937007874015
  0
LINE
  5
578
330
1E
100
AcDbEntity
  8
7
100
AcDbLine
 10
-1.498031496062992
 20
-1.753937007874015
 30
0.0
 11
-1.502952755905511
 21
-1.753937007874015
 31
0.0
  0
LWPOLYLINE
  5
579
330
1E
100
AcDbEntity
  8
7
100
AcDbPolyline
 90
        3
 70
     0
 43
0.0098425196850394
 10
-1.619094488188976
 20
-1.76771653543307
 10
-1.623031496062992
 20
-1.76771653543307
 10
-1.629921259842519
 20
-1.76771653543307
  0
LWPOLYLINE
  5
57E
330
1E
100
AcDbEntity
  8
7
100
AcDbPolyline
 90
        4
 70
     0
 43
0.0098425196850394
 10
-1.498031496062992
 20
-1.76771653543307
 10
-1.502952755905511
 20
-1.76771653543307
 10
-1.510826771653543
 20
-1.76771653543307
 10
-1.516732283464566
 20
-1.76771653543307
  0
LWPOLYLINE
  5
584
330
1E
100
AcDbEntity
  8
7
100
AcDbPolyline
 90
        3
 70
     0
 43
0.0098425196850394
 10
-1.530511811023622
 20
-1.76771653543307
 10
-1.521653543307086
 20
-1.76771653543307
 10
-1.516732283464566
 20
-1.76771653543307
  0
LINE
  5
589
330
1E
100
AcDbEntity
  8
7
100
AcDbLine
 10
-1.605314960629921
 20
-1.76771653543307
 30
0.0
 11
-1.530511811023622
 21
-1.76771653543307
 31
0.0
  0
LWPOLYLINE
  5
58A
330
1E
100
AcDbEntity
  8
7
100
AcDbPolyline
 90
        3
 70
     0
 43
0.0098425196850394
 10
-1.605314960629921
 20
-1.76771653543307
 10
-1.613188976377952
 20
-1.76771653543307
 10
-1.619094488188976
 20
-1.76771653543307
  0
LINE
  5
58F
330
1E
100
AcDbEntity
  8
7
100
AcDbLine
 10
-1.502952755905511
 20
-1.753937007874015
 30
0.0
 11
-1.502952755905511
 21
-1.76771653543307
 31
0.0
  0
LINE
  5
590
330
1E
100
AcDbEntity
  8
7
100
AcDbLine
 10
-1.619094488188976
 20
-1.753937007874015
 30
0.0
 11
-1.619094488188976
 21
-1.76771653543307
 31
0.0
  0
LINE
  5
591
330
1E
100
AcDbEntity
  8
7
100
AcDbLine
 10
-1.605314960629921
 20
-1.753937007874015
 30
0.0
 11
-1.605314960629921
 21
-1.76771653543307
 31
0.0
  0
LINE
  5
592
330
1E
100
AcDbEntity
  8
7
100
AcDbLine
 10
-1.516732283464566
 20
-1.76771653543307
 30
0.0
 11
-1.516732283464566
 21
-1.753937007874015
 31
0.0
  0
LINE
  5
593
330
1E
100
AcDbEntity
  8
7
100
AcDbLine
 10
-1.530511811023622
 20
-1.753937007874015
 30
0.0
 11
-1.530511811023622
 21
-1.76771653543307
 31
0.0
  0
LINE
  5
594
330
1E
100
AcDbEntity
  8
7
100
AcDbLine
 10
-1.629921259842519
 20
-1.76771653543307
 30
0.0
 11
-1.629921259842519
 21
-1.753937007874015
 31
0.0
  0
LINE
  5
595
330
1E
100
AcDbEntity
  8
7
100
AcDbLine
 10
-1.49507874015748
 20
-1.727362204724409
 30
0.0
 11
-1.49507874015748
 21
-1.713582677165354
 31
0.0
  0
LWPOLYLINE
  5
596
330
1E
100
AcDbEntity
  8
7
100
AcDbPolyline
 90
        3
 70
     0
 43
0.0098425196850394
 10
-1.49507874015748
 20
-1.727362204724409
 10
-1.496062992125984
 20
-1.727362204724409
 10
-1.498031496062992
 20
-1.727362204724409
  0
LWPOLYLINE
  5
59B
330
1E
100
AcDbEntity
  8
7
100
AcDbPolyline
 90
        4
 70
     0
 43
0.0098425196850394
 10
-1.49507874015748
 20
-1.713582677165354
 10
-1.496062992125984
 20
-1.713582677165354
 10
-1.498031496062992
 20
-1.713582677165354
 10
-1.498031496062992
 20
-1.727362204724409
  0
LWPOLYLINE
  5
5A1
330
1E
100
AcDbEntity
  8
7
100
AcDbPolyline
 90
        3
 70
     0
 43
0.0098425196850394
 10
-1.619094488188976
 20
-1.713582677165354
 10
-1.623031496062992
 20
-1.713582677165354
 10
-1.629921259842519
 20
-1.713582677165354
  0
LWPOLYLINE
  5
5A6
330
1E
100
AcDbEntity
  8
7
100
AcDbPolyline
 90
        6
 70
     0
 43
0.0098425196850394
 10
-1.619094488188976
 20
-1.713582677165354
 10
-1.613188976377952
 20
-1.713582677165354
 10
-1.605314960629921
 20
-1.713582677165354
 10
-1.530511811023622
 20
-1.713582677165354
 10
-1.521653543307086
 20
-1.713582677165354
 10
-1.516732283464566
 20
-1.713582677165354
  0
LWPOLYLINE
  5
5AE
330
1E
100
AcDbEntity
  8
7
100
AcDbPolyline
 90
        3
 70
     0
 43
0.0098425196850394
 10
-1.502952755905511
 20
-1.713582677165354
 10
-1.510826771653543
 20
-1.713582677165354
 10
-1.516732283464566
 20
-1.713582677165354
  0
LINE
  5
5B3
330
1E
100
AcDbEntity
  8
7
100
AcDbLine
 10
-1.498031496062992
 20
-1.713582677165354
 30
0.0
 11
-1.502952755905511
 21
-1.713582677165354
 31
0.0
  0
LWPOLYLINE
  5
5B4
330
1E
100
AcDbEntity
  8
7
100
AcDbPolyline
 90
        3
 70
     0
 43
0.0098425196850394
 10
-1.498031496062992
 20
-1.727362204724409
 10
-1.502952755905511
 20
-1.727362204724409
 10
-1.510826771653543
 20
-1.727362204724409
  0
LINE
  5
5B9
330
1E
100
AcDbEntity
  8
7
100
AcDbLine
 10
-1.510826771653543
 20
-1.727362204724409
 30
0.0
 11
-1.516732283464566
 21
-1.727362204724409
 31
0.0
  0
LWPOLYLINE
  5
5BA
330
1E
100
AcDbEntity
  8
7
100
AcDbPolyline
 90
        3
 70
     0
 43
0.0098425196850394
 10
-1.530511811023622
 20
-1.727362204724409
 10
-1.521653543307086
 20
-1.727362204724409
 10
-1.516732283464566
 20
-1.727362204724409
  0
LINE
  5
5BF
330
1E
100
AcDbEntity
  8
7
100
AcDbLine
 10
-1.605314960629921
 20
-1.727362204724409
 30
0.0
 11
-1.530511811023622
 21
-1.727362204724409
 31
0.0
  0
LWPOLYLINE
  5
5C0
330
1E
100
AcDbEntity
  8
7
100
AcDbPolyline
 90
        3
 70
     0
 43
0.0098425196850394
 10
-1.619094488188976
 20
-1.727362204724409
 10
-1.613188976377952
 20
-1.727362204724409
 10
-1.605314960629921
 20
-1.727362204724409
  0
LWPOLYLINE
  5
5C5
330
1E
100
AcDbEntity
  8
7
100
AcDbPolyline
 90
        4
 70
     0
 43
0.0098425196850394
 10
-1.619094488188976
 20
-1.727362204724409
 10
-1.623031496062992
 20
-1.727362204724409
 10
-1.629921259842519
 20
-1.727362204724409
 10
-1.629921259842519
 20
-1.713582677165354
  0
LINE
  5
5CB
330
1E
100
AcDbEntity
  8
7
100
AcDbLine
 10
-1.619094488188976
 20
-1.713582677165354
 30
0.0
 11
-1.619094488188976
 21
-1.727362204724409
 31
0.0
  0
LINE
  5
5CC
330
1E
100
AcDbEntity
  8
7
100
AcDbLine
 10
-1.605314960629921
 20
-1.713582677165354
 30
0.0
 11
-1.605314960629921
 21
-1.727362204724409
 31
0.0
  0
LINE
  5
5CD
330
1E
100
AcDbEntity
  8
7
100
AcDbLine
 10
-1.530511811023622
 20
-1.713582677165354
 30
0.0
 11
-1.530511811023622
 21
-1.727362204724409
 31
0.0
  0
LINE
  5
5CE
330
1E
100
AcDbEntity
  8
7
100
AcDbLine
 10
-1.516732283464566
 20
-1.713582677165354
 30
0.0
 11
-1.516732283464566
 21
-1.727362204724409
 31
0.0
  0
LINE
  5
5CF
330
1E
100
AcDbEntity
  8
7
100
AcDbLine
 10
-1.502952755905511
 20
-1.713582677165354
 30
0.0
 11
-1.502952755905511
 21
-1.727362204724409
 31
0.0
  0
LINE
  5
5D0
330
1E
100
AcDbEntity
  8
7
100
AcDbLine
 10
-1.49507874015748
 20
-1.52755905511811
 30
0.0
 11
-1.49507874015748
 21
-1.513779527559055
 31
0.0
  0
LINE
  5
5D1
330
1E
100
AcDbEntity
  8
7
100
AcDbLine
 10
-1.49507874015748
 20
-1.52755905511811
 30
0.0
 11
-1.496062992125984
 21
-1.52755905511811
 31
0.0
  0
LINE
  5
5D2
330
1E
100
AcDbEntity
  8
7
100
AcDbLine
 10
-1.496062992125984
 20
-1.52755905511811
 30
0.0
 11
-1.498031496062992
 21
-1.52755905511811
 31
0.0
  0
LWPOLYLINE
  5
5D3
330
1E
100
AcDbEntity
  8
7
100
AcDbPolyline
 90
        4
 70
     0
 43
0.0098425196850394
 10
-1.49507874015748
 20
-1.513779527559055
 10
-1.496062992125984
 20
-1.513779527559055
 10
-1.498031496062992
 20
-1.513779527559055
 10
-1.498031496062992
 20
-1.52755905511811
  0
LWPOLYLINE
  5
5D9
330
1E
100
AcDbEntity
  8
7
100
AcDbPolyline
 90
        3
 70
     0
 43
0.0098425196850394
 10
-1.619094488188976
 20
-1.513779527559055
 10
-1.623031496062992
 20
-1.513779527559055
 10
-1.629921259842519
 20
-1.513779527559055
  0
LWPOLYLINE
  5
5DE
330
1E
100
AcDbEntity
  8
7
100
AcDbPolyline
 90
        6
 70
     0
 43
0.0098425196850394
 10
-1.619094488188976
 20
-1.513779527559055
 10
-1.613188976377952
 20
-1.513779527559055
 10
-1.605314960629921
 20
-1.513779527559055
 10
-1.530511811023622
 20
-1.513779527559055
 10
-1.521653543307086
 20
-1.513779527559055
 10
-1.516732283464566
 20
-1.513779527559055
  0
LINE
  5
5E6
330
1E
100
AcDbEntity
  8
7
100
AcDbLine
 10
-1.502952755905511
 20
-1.513779527559055
 30
0.0
 11
-1.510826771653543
 21
-1.513779527559055
 31
0.0
  0
LINE
  5
5E7
330
1E
100
AcDbEntity
  8
7
100
AcDbLine
 10
-1.510826771653543
 20
-1.513779527559055
 30
0.0
 11
-1.516732283464566
 21
-1.513779527559055
 31
0.0
  0
LINE
  5
5E8
330
1E
100
AcDbEntity
  8
7
100
AcDbLine
 10
-1.498031496062992
 20
-1.513779527559055
 30
0.0
 11
-1.502952755905511
 21
-1.513779527559055
 31
0.0
  0
LWPOLYLINE
  5
5E9
330
1E
100
AcDbEntity
  8
7
100
AcDbPolyline
 90
        4
 70
     0
 43
0.0098425196850394
 10
-1.498031496062992
 20
-1.52755905511811
 10
-1.502952755905511
 20
-1.52755905511811
 10
-1.510826771653543
 20
-1.52755905511811
 10
-1.516732283464566
 20
-1.52755905511811
  0
LWPOLYLINE
  5
5EF
330
1E
100
AcDbEntity
  8
7
100
AcDbPolyline
 90
        3
 70
     0
 43
0.0098425196850394
 10
-1.530511811023622
 20
-1.52755905511811
 10
-1.521653543307086
 20
-1.52755905511811
 10
-1.516732283464566
 20
-1.52755905511811
  0
LINE
  5
5F4
330
1E
100
AcDbEntity
  8
7
100
AcDbLine
 10
-1.605314960629921
 20
-1.52755905511811
 30
0.0
 11
-1.530511811023622
 21
-1.52755905511811
 31
0.0
  0
LWPOLYLINE
  5
5F5
330
1E
100
AcDbEntity
  8
7
100
AcDbPolyline
 90
        3
 70
     0
 43
0.0098425196850394
 10
-1.619094488188976
 20
-1.52755905511811
 10
-1.613188976377952
 20
-1.52755905511811
 10
-1.605314960629921
 20
-1.52755905511811
  0
LWPOLYLINE
  5
5FA
330
1E
100
AcDbEntity
  8
7
100
AcDbPolyline
 90
        4
 70
     0
 43
0.0098425196850394
 10
-1.619094488188976
 20
-1.52755905511811
 10
-1.623031496062992
 20
-1.52755905511811
 10
-1.629921259842519
 20
-1.52755905511811
 10
-1.629921259842519
 20
-1.513779527559055
  0
LINE
  5
600
330
1E
100
AcDbEntity
  8
7
100
AcDbLine
 10
-1.619094488188976
 20
-1.513779527559055
 30
0.0
 11
-1.619094488188976
 21
-1.52755905511811
 31
0.0
  0
LINE
  5
601
330
1E
100
AcDbEntity
  8
7
100
AcDbLine
 10
-1.605314960629921
 20
-1.513779527559055
 30
0.0
 11
-1.605314960629921
 21
-1.52755905511811
 31
0.0
  0
LINE
  5
602
330
1E
100
AcDbEntity
  8
7
100
AcDbLine
 10
-1.530511811023622
 20
-1.513779527559055
 30
0.0
 11
-1.530511811023622
 21
-1.52755905511811
 31
0.0
  0
LINE
  5
603
330
1E
100
AcDbEntity
  8
7
100
AcDbLine
 10
-1.516732283464566
 20
-1.513779527559055
 30
0.0
 11
-1.516732283464566
 21
-1.52755905511811
 31
0.0
  0
LINE
  5
604
330
1E
100
AcDbEntity
  8
7
100
AcDbLine
 10
-1.502952755905511
 20
-1.513779527559055
 30
0.0
 11
-1.502952755905511
 21
-1.52755905511811
 31
0.0
  0
LWPOLYLINE
  5
605
330
1E
100
AcDbEntity
  8
7
100
AcDbPolyline
 90
        4
 70
     0
 43
0.0098425196850394
 10
-1.49507874015748
 20
-1.607283464566929
 10
-1.49507874015748
 20
-1.593503937007874
 10
-1.496062992125984
 20
-1.593503937007874
 10
-1.498031496062992
 20
-1.593503937007874
  0
LWPOLYLINE
  5
60B
330
1E
100
AcDbEntity
  8
7
100
AcDbPolyline
 90
        3
 70
     0
 43
0.0098425196850394
 10
-1.629921259842519
 20
-1.593503937007874
 10
-1.623031496062992
 20
-1.593503937007874
 10
-1.619094488188976
 20
-1.593503937007874
  0
LWPOLYLINE
  5
610
330
1E
100
AcDbEntity
  8
7
100
AcDbPolyline
 90
        3
 70
     0
 43
0.0098425196850394
 10
-1.605314960629921
 20
-1.593503937007874
 10
-1.613188976377952
 20
-1.593503937007874
 10
-1.619094488188976
 20
-1.593503937007874
  0
LWPOLYLINE
  5
615
330
1E
100
AcDbEntity
  8
7
100
AcDbPolyline
 90
        5
 70
     0
 43
0.0098425196850394
 10
-1.605314960629921
 20
-1.593503937007874
 10
-1.530511811023622
 20
-1.593503937007874
 10
-1.521653543307086
 20
-1.593503937007874
 10
-1.516732283464566
 20
-1.593503937007874
 10
-1.510826771653543
 20
-1.593503937007874
  0
LINE
  5
61C
330
1E
100
AcDbEntity
  8
7
100
AcDbLine
 10
-1.510826771653543
 20
-1.593503937007874
 30
0.0
 11
-1.502952755905511
 21
-1.593503937007874
 31
0.0
  0
LINE
  5
61D
330
1E
100
AcDbEntity
  8
7
100
AcDbLine
 10
-1.498031496062992
 20
-1.593503937007874
 30
0.0
 11
-1.502952755905511
 21
-1.593503937007874
 31
0.0
  0
LWPOLYLINE
  5
61E
330
1E
100
AcDbEntity
  8
7
100
AcDbPolyline
 90
        6
 70
     0
 43
0.0098425196850394
 10
-1.49507874015748
 20
-1.607283464566929
 10
-1.496062992125984
 20
-1.607283464566929
 10
-1.498031496062992
 20
-1.607283464566929
 10
-1.502952755905511
 20
-1.607283464566929
 10
-1.510826771653543
 20
-1.607283464566929
 10
-1.516732283464566
 20
-1.607283464566929
  0
LWPOLYLINE
  5
626
330
1E
100
AcDbEntity
  8
7
100
AcDbPolyline
 90
        3
 70
     0
 43
0.0098425196850394
 10
-1.530511811023622
 20
-1.607283464566929
 10
-1.521653543307086
 20
-1.607283464566929
 10
-1.516732283464566
 20
-1.607283464566929
  0
LINE
  5
62B
330
1E
100
AcDbEntity
  8
7
100
AcDbLine
 10
-1.605314960629921
 20
-1.607283464566929
 30
0.0
 11
-1.530511811023622
 21
-1.607283464566929
 31
0.0
  0
LWPOLYLINE
  5
62C
330
1E
100
AcDbEntity
  8
7
100
AcDbPolyline
 90
        5
 70
     0
 43
0.0098425196850394
 10
-1.605314960629921
 20
-1.607283464566929
 10
-1.613188976377952
 20
-1.607283464566929
 10
-1.619094488188976
 20
-1.607283464566929
 10
-1.623031496062992
 20
-1.607283464566929
 10
-1.629921259842519
 20
-1.607283464566929
  0
LINE
  5
633
330
1E
100
AcDbEntity
  8
7
100
AcDbLine
 10
-1.498031496062992
 20
-1.593503937007874
 30
0.0
 11
-1.498031496062992
 21
-1.607283464566929
 31
0.0
  0
LINE
  5
634
330
1E
100
AcDbEntity
  8
7
100
AcDbLine
 10
-1.629921259842519
 20
-1.593503937007874
 30
0.0
 11
-1.629921259842519
 21
-1.607283464566929
 31
0.0
  0
LINE
  5
635
330
1E
100
AcDbEntity
  8
7
100
AcDbLine
 10
-1.619094488188976
 20
-1.593503937007874
 30
0.0
 11
-1.619094488188976
 21
-1.607283464566929
 31
0.0
  0
LINE
  5
636
330
1E
100
AcDbEntity
  8
7
100
AcDbLine
 10
-1.605314960629921
 20
-1.593503937007874
 30
0.0
 11
-1.605314960629921
 21
-1.607283464566929
 31
0.0
  0
LINE
  5
637
330
1E
100
AcDbEntity
  8
7
100
AcDbLine
 10
-1.530511811023622
 20
-1.593503937007874
 30
0.0
 11
-1.530511811023622
 21
-1.607283464566929
 31
0.0
  0
LINE
  5
638
330
1E
100
AcDbEntity
  8
7
100
AcDbLine
 10
-1.516732283464566
 20
-1.607283464566929
 30
0.0
 11
-1.516732283464566
 21
-1.593503937007874
 31
0.0
  0
LINE
  5
639
330
1E
100
AcDbEntity
  8
7
100
AcDbLine
 10
-1.502952755905511
 20
-1.593503937007874
 30
0.0
 11
-1.502952755905511
 21
-1.607283464566929
 31
0.0
  0
LWPOLYLINE
  5
63A
330
1E
100
AcDbEntity
  8
7
100
AcDbPolyline
 90
        4
 70
     0
 43
0.0098425196850394
 10
-1.49507874015748
 20
-1.64763779527559
 10
-1.49507874015748
 20
-1.633858267716535
 10
-1.496062992125984
 20
-1.633858267716535
 10
-1.498031496062992
 20
-1.633858267716535
  0
LWPOLYLINE
  5
640
330
1E
100
AcDbEntity
  8
7
100
AcDbPolyline
 90
        3
 70
     0
 43
0.0098425196850394
 10
-1.629921259842519
 20
-1.633858267716535
 10
-1.623031496062992
 20
-1.633858267716535
 10
-1.619094488188976
 20
-1.633858267716535
  0
LINE
  5
645
330
1E
100
AcDbEntity
  8
7
100
AcDbLine
 10
-1.605314960629921
 20
-1.633858267716535
 30
0.0
 11
-1.613188976377952
 21
-1.633858267716535
 31
0.0
  0
LINE
  5
646
330
1E
100
AcDbEntity
  8
7
100
AcDbLine
 10
-1.613188976377952
 20
-1.633858267716535
 30
0.0
 11
-1.619094488188976
 21
-1.633858267716535
 31
0.0
  0
LWPOLYLINE
  5
647
330
1E
100
AcDbEntity
  8
7
100
AcDbPolyline
 90
        6
 70
     0
 43
0.0098425196850394
 10
-1.605314960629921
 20
-1.633858267716535
 10
-1.530511811023622
 20
-1.633858267716535
 10
-1.521653543307086
 20
-1.633858267716535
 10
-1.516732283464566
 20
-1.633858267716535
 10
-1.510826771653543
 20
-1.633858267716535
 10
-1.502952755905511
 20
-1.633858267716535
  0
LINE
  5
64F
330
1E
100
AcDbEntity
  8
7
100
AcDbLine
 10
-1.498031496062992
 20
-1.633858267716535
 30
0.0
 11
-1.502952755905511
 21
-1.633858267716535
 31
0.0
  0
LWPOLYLINE
  5
650
330
1E
100
AcDbEntity
  8
7
100
AcDbPolyline
 90
        6
 70
     0
 43
0.0098425196850394
 10
-1.49507874015748
 20
-1.64763779527559
 10
-1.496062992125984
 20
-1.64763779527559
 10
-1.498031496062992
 20
-1.64763779527559
 10
-1.502952755905511
 20
-1.64763779527559
 10
-1.510826771653543
 20
-1.64763779527559
 10
-1.516732283464566
 20
-1.64763779527559
  0
LWPOLYLINE
  5
658
330
1E
100
AcDbEntity
  8
7
100
AcDbPolyline
 90
        3
 70
     0
 43
0.0098425196850394
 10
-1.530511811023622
 20
-1.64763779527559
 10
-1.521653543307086
 20
-1.64763779527559
 10
-1.516732283464566
 20
-1.64763779527559
  0
LINE
  5
65D
330
1E
100
AcDbEntity
  8
7
100
AcDbLine
 10
-1.605314960629921
 20
-1.64763779527559
 30
0.0
 11
-1.530511811023622
 21
-1.64763779527559
 31
0.0
  0
LWPOLYLINE
  5
65E
330
1E
100
AcDbEntity
  8
7
100
AcDbPolyline
 90
        5
 70
     0
 43
0.0098425196850394
 10
-1.605314960629921
 20
-1.64763779527559
 10
-1.613188976377952
 20
-1.64763779527559
 10
-1.619094488188976
 20
-1.64763779527559
 10
-1.623031496062992
 20
-1.64763779527559
 10
-1.629921259842519
 20
-1.64763779527559
  0
LINE
  5
665
330
1E
100
AcDbEntity
  8
7
100
AcDbLine
 10
-1.498031496062992
 20
-1.633858267716535
 30
0.0
 11
-1.498031496062992
 21
-1.64763779527559
 31
0.0
  0
LINE
  5
666
330
1E
100
AcDbEntity
  8
7
100
AcDbLine
 10
-1.629921259842519
 20
-1.633858267716535
 30
0.0
 11
-1.629921259842519
 21
-1.64763779527559
 31
0.0
  0
LINE
  5
667
330
1E
100
AcDbEntity
  8
7
100
AcDbLine
 10
-1.619094488188976
 20
-1.633858267716535
 30
0.0
 11
-1.619094488188976
 21
-1.64763779527559
 31
0.0
  0
LINE
  5
668
330
1E
100
AcDbEntity
  8
7
100
AcDbLine
 10
-1.605314960629921
 20
-1.633858267716535
 30
0.0
 11
-1.605314960629921
 21
-1.64763779527559
 31
0.0
  0
LINE
  5
669
330
1E
100
AcDbEntity
  8
7
100
AcDbLine
 10
-1.530511811023622
 20
-1.633858267716535
 30
0.0
 11
-1.530511811023622
 21
-1.64763779527559
 31
0.0
  0
LINE
  5
66A
330
1E
100
AcDbEntity
  8
7
100
AcDbLine
 10
-1.516732283464566
 20
-1.64763779527559
 30
0.0
 11
-1.516732283464566
 21
-1.633858267716535
 31
0.0
  0
LINE
  5
66B
330
1E
100
AcDbEntity
  8
7
100
AcDbLine
 10
-1.502952755905511
 20
-1.633858267716535
 30
0.0
 11
-1.502952755905511
 21
-1.64763779527559
 31
0.0
  0
LINE
  5
66C
330
1E
100
AcDbEntity
  8
7
100
AcDbLine
 10
-1.613188976377952
 20
-1.76771653543307
 30
0.0
 11
-1.604330708661417
 21
-1.76771653543307
 31
0.0
  0
LINE
  5
66D
330
1E
100
AcDbEntity
  8
7
100
AcDbLine
 10
-1.604330708661417
 20
-1.752952755905511
 30
0.0
 11
-1.613188976377952
 21
-1.753937007874015
 31
0.0
  0
LINE
  5
66E
330
1E
100
AcDbEntity
  8
7
100
AcDbLine
 10
-1.613188976377952
 20
-1.488188976377952
 30
0.0
 11
-1.604330708661417
 21
-1.488188976377952
 31
0.0
  0
LINE
  5
66F
330
1E
100
AcDbEntity
  8
7
100
AcDbLine
 10
-1.604330708661417
 20
-1.473425196850393
 30
0.0
 11
-1.613188976377952
 21
-1.473425196850393
 31
0.0
  0
LWPOLYLINE
  5
670
330
1E
100
AcDbEntity
  8
7
100
AcDbPolyline
 90
        3
 70
     0
 43
0.0098425196850394
 10
-1.478346456692913
 20
-1.549212598425196
 10
-1.472440944881889
 20
-1.549212598425196
 10
-1.474409448818897
 20
-1.549212598425196
  0
LINE
  5
675
330
1E
100
AcDbEntity
  8
7
100
AcDbLine
 10
-1.637795275590551
 20
-1.549212598425196
 30
0.0
 11
-1.474409448818897
 21
-1.549212598425196
 31
0.0
  0
LWPOLYLINE
  5
676
330
1E
100
AcDbEntity
  8
7
100
AcDbPolyline
 90
        4
 70
     0
 43
0.0098425196850394
 10
-1.660433070866141
 20
-1.549212598425196
 10
-1.657480314960629
 20
-1.549212598425196
 10
-1.648622047244094
 20
-1.549212598425196
 10
-1.637795275590551
 20
-1.549212598425196
  0
LWPOLYLINE
  5
67C
330
1E
100
AcDbEntity
  8
7
100
AcDbPolyline
 90
        3
 70
     0
 43
0.0098425196850394
 10
-1.660433070866141
 20
-1.549212598425196
 10
-1.660433070866141
 20
-1.5501968503937
 10
-1.637795275590551
 20
-1.549212598425196
  0
LINE
  5
681
330
1E
100
AcDbEntity
  8
7
100
AcDbLine
 10
-1.617125984251968
 20
-1.549212598425196
 30
0.0
 11
-1.637795275590551
 21
-1.549212598425196
 31
0.0
  0
LINE
  5
682
330
1E
100
AcDbEntity
  8
7
100
AcDbLine
 10
-1.614173228346456
 20
-1.549212598425196
 30
0.0
 11
-1.617125984251968
 21
-1.549212598425196
 31
0.0
  0
LINE
  5
683
330
1E
100
AcDbEntity
  8
7
100
AcDbLine
 10
-1.614173228346456
 20
-1.5501968503937
 30
0.0
 11
-1.614173228346456
 21
-1.549212598425196
 31
0.0
  0
LWPOLYLINE
  5
684
330
1E
100
AcDbEntity
  8
7
100
AcDbPolyline
 90
        4
 70
     0
 43
0.0098425196850394
 10
-1.614173228346456
 20
-1.5501968503937
 10
-1.603346456692913
 20
-1.5501968503937
 10
-1.603346456692913
 20
-1.549212598425196
 10
-1.532480314960629
 20
-1.549212598425196
  0
LINE
  5
68A
330
1E
100
AcDbEntity
  8
7
100
AcDbLine
 10
-1.531496062992125
 20
-1.5501968503937
 30
0.0
 11
-1.532480314960629
 21
-1.549212598425196
 31
0.0
  0
LWPOLYLINE
  5
68B
330
1E
100
AcDbEntity
  8
7
100
AcDbPolyline
 90
        3
 70
     0
 43
0.0098425196850394
 10
-1.531496062992125
 20
-1.5501968503937
 10
-1.521653543307086
 20
-1.5501968503937
 10
-1.521653543307086
 20
-1.549212598425196
  0
LINE
  5
690
330
1E
100
AcDbEntity
  8
7
100
AcDbLine
 10
-1.518700787401574
 20
-1.549212598425196
 30
0.0
 11
-1.521653543307086
 21
-1.549212598425196
 31
0.0
  0
LINE
  5
691
330
1E
100
AcDbEntity
  8
7
100
AcDbLine
 10
-1.518700787401574
 20
-1.549212598425196
 30
0.0
 11
-1.478346456692913
 21
-1.549212598425196
 31
0.0
  0
LWPOLYLINE
  5
692
330
1E
100
AcDbEntity
  8
7
100
AcDbPolyline
 90
        4
 70
     0
 43
0.0098425196850394
 10
-1.474409448818897
 20
-1.571850393700787
 10
-1.472440944881889
 20
-1.571850393700787
 10
-1.478346456692913
 20
-1.571850393700787
 10
-1.518700787401574
 20
-1.571850393700787
  0
LINE
  5
698
330
1E
100
AcDbEntity
  8
7
100
AcDbLine
 10
-1.521653543307086
 20
-1.571850393700787
 30
0.0
 11
-1.518700787401574
 21
-1.571850393700787
 31
0.0
  0
LWPOLYLINE
  5
699
330
1E
100
AcDbEntity
  8
7
100
AcDbPolyline
 90
        5
 70
     0
 43
0.0098425196850394
 10
-1.521653543307086
 20
-1.571850393700787
 10
-1.531496062992125
 20
-1.571850393700787
 10
-1.532480314960629
 20
-1.571850393700787
 10
-1.603346456692913
 20
-1.571850393700787
 10
-1.614173228346456
 20
-1.571850393700787
  0
LINE
  5
6A0
330
1E
100
AcDbEntity
  8
7
100
AcDbLine
 10
-1.617125984251968
 20
-1.571850393700787
 30
0.0
 11
-1.614173228346456
 21
-1.571850393700787
 31
0.0
  0
LINE
  5
6A1
330
1E
100
AcDbEntity
  8
7
100
AcDbLine
 10
-1.637795275590551
 20
-1.571850393700787
 30
0.0
 11
-1.617125984251968
 21
-1.571850393700787
 31
0.0
  0
LINE
  5
6A2
330
1E
100
AcDbEntity
  8
7
100
AcDbLine
 10
-1.637795275590551
 20
-1.571850393700787
 30
0.0
 11
-1.660433070866141
 21
-1.571850393700787
 31
0.0
  0
LWPOLYLINE
  5
6A3
330
1E
100
AcDbEntity
  8
7
100
AcDbPolyline
 90
        4
 70
     0
 43
0.0098425196850394
 10
-1.637795275590551
 20
-1.571850393700787
 10
-1.648622047244094
 20
-1.571850393700787
 10
-1.657480314960629
 20
-1.571850393700787
 10
-1.660433070866141
 20
-1.571850393700787
  0
LINE
  5
6A9
330
1E
100
AcDbEntity
  8
7
100
AcDbLine
 10
-1.474409448818897
 20
-1.571850393700787
 30
0.0
 11
-1.637795275590551
 21
-1.571850393700787
 31
0.0
  0
LWPOLYLINE
  5
6AA
330
1E
100
AcDbEntity
  8
7
100
AcDbPolyline
 90
        3
 70
     0
 43
0.0098425196850394
 10
-1.478346456692913
 20
-1.589566929133858
 10
-1.472440944881889
 20
-1.589566929133858
 10
-1.474409448818897
 20
-1.589566929133858
  0
LINE
  5
6AF
330
1E
100
AcDbEntity
  8
7
100
AcDbLine
 10
-1.637795275590551
 20
-1.589566929133858
 30
0.0
 11
-1.474409448818897
 21
-1.589566929133858
 31
0.0
  0
LWPOLYLINE
  5
6B0
330
1E
100
AcDbEntity
  8
7
100
AcDbPolyline
 90
        4
 70
     0
 43
0.0098425196850394
 10
-1.660433070866141
 20
-1.589566929133858
 10
-1.657480314960629
 20
-1.589566929133858
 10
-1.648622047244094
 20
-1.589566929133858
 10
-1.637795275590551
 20
-1.589566929133858
  0
LINE
  5
6B6
330
1E
100
AcDbEntity
  8
7
100
AcDbLine
 10
-1.660433070866141
 20
-1.589566929133858
 30
0.0
 11
-1.637795275590551
 21
-1.589566929133858
 31
0.0
  0
LINE
  5
6B7
330
1E
100
AcDbEntity
  8
7
100
AcDbLine
 10
-1.617125984251968
 20
-1.589566929133858
 30
0.0
 11
-1.637795275590551
 21
-1.589566929133858
 31
0.0
  0
LINE
  5
6B8
330
1E
100
AcDbEntity
  8
7
100
AcDbLine
 10
-1.614173228346456
 20
-1.589566929133858
 30
0.0
 11
-1.617125984251968
 21
-1.589566929133858
 31
0.0
  0
LWPOLYLINE
  5
6B9
330
1E
100
AcDbEntity
  8
7
100
AcDbPolyline
 90
        3
 70
     0
 43
0.0098425196850394
 10
-1.614173228346456
 20
-1.589566929133858
 10
-1.603346456692913
 20
-1.589566929133858
 10
-1.532480314960629
 20
-1.589566929133858
  0
LINE
  5
6BE
330
1E
100
AcDbEntity
  8
7
100
AcDbLine
 10
-1.531496062992125
 20
-1.589566929133858
 30
0.0
 11
-1.532480314960629
 21
-1.589566929133858
 31
0.0
  0
LINE
  5
6BF
330
1E
100
AcDbEntity
  8
7
100
AcDbLine
 10
-1.531496062992125
 20
-1.589566929133858
 30
0.0
 11
-1.521653543307086
 21
-1.589566929133858
 31
0.0
  0
LINE
  5
6C0
330
1E
100
AcDbEntity
  8
7
100
AcDbLine
 10
-1.518700787401574
 20
-1.589566929133858
 30
0.0
 11
-1.521653543307086
 21
-1.589566929133858
 31
0.0
  0
LINE
  5
6C1
330
1E
100
AcDbEntity
  8
7
100
AcDbLine
 10
-1.518700787401574
 20
-1.589566929133858
 30
0.0
 11
-1.478346456692913
 21
-1.589566929133858
 31
0.0
  0
LWPOLYLINE
  5
6C2
330
1E
100
AcDbEntity
  8
7
100
AcDbPolyline
 90
        4
 70
     0
 43
0.0098425196850394
 10
-1.474409448818897
 20
-1.612204724409448
 10
-1.472440944881889
 20
-1.612204724409448
 10
-1.478346456692913
 20
-1.611220472440944
 10
-1.518700787401574
 20
-1.611220472440944
  0
LINE
  5
6C8
330
1E
100
AcDbEntity
  8
7
100
AcDbLine
 10
-1.521653543307086
 20
-1.611220472440944
 30
0.0
 11
-1.518700787401574
 21
-1.611220472440944
 31
0.0
  0
LWPOLYLINE
  5
6C9
330
1E
100
AcDbEntity
  8
7
100
AcDbPolyline
 90
        4
 70
     0
 43
0.0098425196850394
 10
-1.521653543307086
 20
-1.611220472440944
 10
-1.531496062992125
 20
-1.611220472440944
 10
-1.532480314960629
 20
-1.612204724409448
 10
-1.603346456692913
 20
-1.612204724409448
  0
LINE
  5
6CF
330
1E
100
AcDbEntity
  8
7
100
AcDbLine
 10
-1.603346456692913
 20
-1.611220472440944
 30
0.0
 11
-1.603346456692913
 21
-1.612204724409448
 31
0.0
  0
LINE
  5
6D0
330
1E
100
AcDbEntity
  8
7
100
AcDbLine
 10
-1.603346456692913
 20
-1.611220472440944
 30
0.0
 11
-1.614173228346456
 21
-1.611220472440944
 31
0.0
  0
LINE
  5
6D1
330
1E
100
AcDbEntity
  8
7
100
AcDbLine
 10
-1.617125984251968
 20
-1.611220472440944
 30
0.0
 11
-1.614173228346456
 21
-1.611220472440944
 31
0.0
  0
LINE
  5
6D2
330
1E
100
AcDbEntity
  8
7
100
AcDbLine
 10
-1.637795275590551
 20
-1.611220472440944
 30
0.0
 11
-1.617125984251968
 21
-1.611220472440944
 31
0.0
  0
LINE
  5
6D3
330
1E
100
AcDbEntity
  8
7
100
AcDbLine
 10
-1.637795275590551
 20
-1.611220472440944
 30
0.0
 11
-1.660433070866141
 21
-1.611220472440944
 31
0.0
  0
LINE
  5
6D4
330
1E
100
AcDbEntity
  8
7
100
AcDbLine
 10
-1.660433070866141
 20
-1.612204724409448
 30
0.0
 11
-1.660433070866141
 21
-1.611220472440944
 31
0.0
  0
LWPOLYLINE
  5
6D5
330
1E
100
AcDbEntity
  8
7
100
AcDbPolyline
 90
        4
 70
     0
 43
0.0098425196850394
 10
-1.637795275590551
 20
-1.612204724409448
 10
-1.648622047244094
 20
-1.612204724409448
 10
-1.657480314960629
 20
-1.612204724409448
 10
-1.660433070866141
 20
-1.612204724409448
  0
LINE
  5
6DB
330
1E
100
AcDbEntity
  8
7
100
AcDbLine
 10
-1.474409448818897
 20
-1.612204724409448
 30
0.0
 11
-1.637795275590551
 21
-1.612204724409448
 31
0.0
  0
LINE
  5
6DC
330
1E
100
AcDbEntity
  8
7
100
AcDbLine
 10
-1.478346456692913
 20
-1.629921259842519
 30
0.0
 11
-1.472440944881889
 21
-1.629921259842519
 31
0.0
  0
LINE
  5
6DD
330
1E
100
AcDbEntity
  8
7
100
AcDbLine
 10
-1.474409448818897
 20
-1.628937007874015
 30
0.0
 11
-1.472440944881889
 21
-1.629921259842519
 31
0.0
  0
LWPOLYLINE
  5
6DE
330
1E
100
AcDbEntity
  8
7
100
AcDbPolyline
 90
        6
 70
     0
 43
0.0098425196850394
 10
-1.474409448818897
 20
-1.628937007874015
 10
-1.637795275590551
 20
-1.628937007874015
 10
-1.648622047244094
 20
-1.628937007874015
 10
-1.657480314960629
 20
-1.628937007874015
 10
-1.660433070866141
 20
-1.628937007874015
 10
-1.660433070866141
 20
-1.629921259842519
  0
LINE
  5
6E6
330
1E
100
AcDbEntity
  8
7
100
AcDbLine
 10
-1.637795275590551
 20
-1.629921259842519
 30
0.0
 11
-1.660433070866141
 21
-1.629921259842519
 31
0.0
  0
LINE
  5
6E7
330
1E
100
AcDbEntity
  8
7
100
AcDbLine
 10
-1.637795275590551
 20
-1.629921259842519
 30
0.0
 11
-1.617125984251968
 21
-1.629921259842519
 31
0.0
  0
LINE
  5
6E8
330
1E
100
AcDbEntity
  8
7
100
AcDbLine
 10
-1.617125984251968
 20
-1.629921259842519
 30
0.0
 11
-1.614173228346456
 21
-1.629921259842519
 31
0.0
  0
LINE
  5
6E9
330
1E
100
AcDbEntity
  8
7
100
AcDbLine
 10
-1.603346456692913
 20
-1.629921259842519
 30
0.0
 11
-1.614173228346456
 21
-1.629921259842519
 31
0.0
  0
LINE
  5
6EA
330
1E
100
AcDbEntity
  8
7
100
AcDbLine
 10
-1.603346456692913
 20
-1.629921259842519
 30
0.0
 11
-1.603346456692913
 21
-1.628937007874015
 31
0.0
  0
LINE
  5
6EB
330
1E
100
AcDbEntity
  8
7
100
AcDbLine
 10
-1.532480314960629
 20
-1.628937007874015
 30
0.0
 11
-1.603346456692913
 21
-1.628937007874015
 31
0.0
  0
LINE
  5
6EC
330
1E
100
AcDbEntity
  8
7
100
AcDbLine
 10
-1.531496062992125
 20
-1.629921259842519
 30
0.0
 11
-1.532480314960629
 21
-1.628937007874015
 31
0.0
  0
LINE
  5
6ED
330
1E
100
AcDbEntity
  8
7
100
AcDbLine
 10
-1.521653543307086
 20
-1.629921259842519
 30
0.0
 11
-1.531496062992125
 21
-1.629921259842519
 31
0.0
  0
LINE
  5
6EE
330
1E
100
AcDbEntity
  8
7
100
AcDbLine
 10
-1.521653543307086
 20
-1.629921259842519
 30
0.0
 11
-1.518700787401574
 21
-1.629921259842519
 31
0.0
  0
LINE
  5
6EF
330
1E
100
AcDbEntity
  8
7
100
AcDbLine
 10
-1.478346456692913
 20
-1.629921259842519
 30
0.0
 11
-1.518700787401574
 21
-1.629921259842519
 31
0.0
  0
LINE
  5
6F0
330
1E
100
AcDbEntity
  8
7
100
AcDbLine
 10
-1.472440944881889
 20
-1.651574803149606
 30
0.0
 11
-1.474409448818897
 21
-1.65255905511811
 31
0.0
  0
LINE
  5
6F1
330
1E
100
AcDbEntity
  8
7
100
AcDbLine
 10
-1.472440944881889
 20
-1.651574803149606
 30
0.0
 11
-1.478346456692913
 21
-1.651574803149606
 31
0.0
  0
LINE
  5
6F2
330
1E
100
AcDbEntity
  8
7
100
AcDbLine
 10
-1.518700787401574
 20
-1.651574803149606
 30
0.0
 11
-1.478346456692913
 21
-1.651574803149606
 31
0.0
  0
LINE
  5
6F3
330
1E
100
AcDbEntity
  8
7
100
AcDbLine
 10
-1.518700787401574
 20
-1.651574803149606
 30
0.0
 11
-1.521653543307086
 21
-1.651574803149606
 31
0.0
  0
LINE
  5
6F4
330
1E
100
AcDbEntity
  8
7
100
AcDbLine
 10
-1.531496062992125
 20
-1.651574803149606
 30
0.0
 11
-1.521653543307086
 21
-1.651574803149606
 31
0.0
  0
LINE
  5
6F5
330
1E
100
AcDbEntity
  8
7
100
AcDbLine
 10
-1.531496062992125
 20
-1.651574803149606
 30
0.0
 11
-1.532480314960629
 21
-1.651574803149606
 31
0.0
  0
LINE
  5
6F6
330
1E
100
AcDbEntity
  8
7
100
AcDbLine
 10
-1.603346456692913
 20
-1.651574803149606
 30
0.0
 11
-1.532480314960629
 21
-1.651574803149606
 31
0.0
  0
LINE
  5
6F7
330
1E
100
AcDbEntity
  8
7
100
AcDbLine
 10
-1.614173228346456
 20
-1.651574803149606
 30
0.0
 11
-1.603346456692913
 21
-1.651574803149606
 31
0.0
  0
LWPOLYLINE
  5
6F8
330
1E
100
AcDbEntity
  8
7
100
AcDbPolyline
 90
        3
 70
     0
 43
0.0098425196850394
 10
-1.614173228346456
 20
-1.651574803149606
 10
-1.617125984251968
 20
-1.651574803149606
 10
-1.637795275590551
 20
-1.651574803149606
  0
LINE
  5
6FD
330
1E
100
AcDbEntity
  8
7
100
AcDbLine
 10
-1.660433070866141
 20
-1.651574803149606
 30
0.0
 11
-1.637795275590551
 21
-1.651574803149606
 31
0.0
  0
LWPOLYLINE
  5
6FE
330
1E
100
AcDbEntity
  8
7
100
AcDbPolyline
 90
        3
 70
     0
 43
0.0098425196850394
 10
-1.660433070866141
 20
-1.651574803149606
 10
-1.657480314960629
 20
-1.651574803149606
 10
-1.648622047244094
 20
-1.65255905511811
  0
LWPOLYLINE
  5
703
330
1E
100
AcDbEntity
  8
7
100
AcDbPolyline
 90
        3
 70
     0
 43
0.0098425196850394
 10
-1.648622047244094
 20
-1.65255905511811
 10
-1.637795275590551
 20
-1.65255905511811
 10
-1.474409448818897
 20
-1.65255905511811
  0
LINE
  5
708
330
1E
100
AcDbEntity
  8
7
100
AcDbLine
 10
-1.478346456692913
 20
-1.669291338582677
 30
0.0
 11
-1.472440944881889
 21
-1.669291338582677
 31
0.0
  0
LINE
  5
709
330
1E
100
AcDbEntity
  8
7
100
AcDbLine
 10
-1.474409448818897
 20
-1.669291338582677
 30
0.0
 11
-1.472440944881889
 21
-1.669291338582677
 31
0.0
  0
LWPOLYLINE
  5
70A
330
1E
100
AcDbEntity
  8
7
100
AcDbPolyline
 90
        6
 70
     0
 43
0.0098425196850394
 10
-1.474409448818897
 20
-1.669291338582677
 10
-1.637795275590551
 20
-1.669291338582677
 10
-1.648622047244094
 20
-1.669291338582677
 10
-1.657480314960629
 20
-1.669291338582677
 10
-1.660433070866141
 20
-1.669291338582677
 10
-1.660433070866141
 20
-1.670275590551181
  0
LINE
  5
712
330
1E
100
AcDbEntity
  8
7
100
AcDbLine
 10
-1.637795275590551
 20
-1.669291338582677
 30
0.0
 11
-1.660433070866141
 21
-1.670275590551181
 31
0.0
  0
LWPOLYLINE
  5
713
330
1E
100
AcDbEntity
  8
7
100
AcDbPolyline
 90
        3
 70
     0
 43
0.0098425196850394
 10
-1.637795275590551
 20
-1.669291338582677
 10
-1.617125984251968
 20
-1.669291338582677
 10
-1.614173228346456
 20
-1.669291338582677
  0
LINE
  5
718
330
1E
100
AcDbEntity
  8
7
100
AcDbLine
 10
-1.603346456692913
 20
-1.669291338582677
 30
0.0
 11
-1.614173228346456
 21
-1.669291338582677
 31
0.0
  0
LINE
  5
719
330
1E
100
AcDbEntity
  8
7
100
AcDbLine
 10
-1.532480314960629
 20
-1.669291338582677
 30
0.0
 11
-1.603346456692913
 21
-1.669291338582677
 31
0.0
  0
LINE
  5
71A
330
1E
100
AcDbEntity
  8
7
100
AcDbLine
 10
-1.531496062992125
 20
-1.669291338582677
 30
0.0
 11
-1.532480314960629
 21
-1.669291338582677
 31
0.0
  0
LINE
  5
71B
330
1E
100
AcDbEntity
  8
7
100
AcDbLine
 10
-1.521653543307086
 20
-1.669291338582677
 30
0.0
 11
-1.531496062992125
 21
-1.669291338582677
 31
0.0
  0
LINE
  5
71C
330
1E
100
AcDbEntity
  8
7
100
AcDbLine
 10
-1.521653543307086
 20
-1.669291338582677
 30
0.0
 11
-1.518700787401574
 21
-1.669291338582677
 31
0.0
  0
LINE
  5
71D
330
1E
100
AcDbEntity
  8
7
100
AcDbLine
 10
-1.478346456692913
 20
-1.669291338582677
 30
0.0
 11
-1.518700787401574
 21
-1.669291338582677
 31
0.0
  0
LINE
  5
71E
330
1E
100
AcDbEntity
  8
7
100
AcDbLine
 10
-1.472440944881889
 20
-1.691929133858267
 30
0.0
 11
-1.474409448818897
 21
-1.691929133858267
 31
0.0
  0
LINE
  5
71F
330
1E
100
AcDbEntity
  8
7
100
AcDbLine
 10
-1.472440944881889
 20
-1.691929133858267
 30
0.0
 11
-1.478346456692913
 21
-1.691929133858267
 31
0.0
  0
LINE
  5
720
330
1E
100
AcDbEntity
  8
7
100
AcDbLine
 10
-1.518700787401574
 20
-1.691929133858267
 30
0.0
 11
-1.478346456692913
 21
-1.691929133858267
 31
0.0
  0
LINE
  5
721
330
1E
100
AcDbEntity
  8
7
100
AcDbLine
 10
-1.518700787401574
 20
-1.691929133858267
 30
0.0
 11
-1.521653543307086
 21
-1.691929133858267
 31
0.0
  0
LINE
  5
722
330
1E
100
AcDbEntity
  8
7
100
AcDbLine
 10
-1.531496062992125
 20
-1.691929133858267
 30
0.0
 11
-1.521653543307086
 21
-1.691929133858267
 31
0.0
  0
LINE
  5
723
330
1E
100
AcDbEntity
  8
7
100
AcDbLine
 10
-1.531496062992125
 20
-1.691929133858267
 30
0.0
 11
-1.532480314960629
 21
-1.691929133858267
 31
0.0
  0
LINE
  5
724
330
1E
100
AcDbEntity
  8
7
100
AcDbLine
 10
-1.603346456692913
 20
-1.691929133858267
 30
0.0
 11
-1.532480314960629
 21
-1.691929133858267
 31
0.0
  0
LINE
  5
725
330
1E
100
AcDbEntity
  8
7
100
AcDbLine
 10
-1.614173228346456
 20
-1.691929133858267
 30
0.0
 11
-1.603346456692913
 21
-1.691929133858267
 31
0.0
  0
LWPOLYLINE
  5
726
330
1E
100
AcDbEntity
  8
7
100
AcDbPolyline
 90
        3
 70
     0
 43
0.0098425196850394
 10
-1.614173228346456
 20
-1.691929133858267
 10
-1.617125984251968
 20
-1.691929133858267
 10
-1.637795275590551
 20
-1.691929133858267
  0
LINE
  5
72B
330
1E
100
AcDbEntity
  8
7
100
AcDbLine
 10
-1.660433070866141
 20
-1.691929133858267
 30
0.0
 11
-1.637795275590551
 21
-1.691929133858267
 31
0.0
  0
LWPOLYLINE
  5
72C
330
1E
100
AcDbEntity
  8
7
100
AcDbPolyline
 90
        3
 70
     0
 43
0.0098425196850394
 10
-1.660433070866141
 20
-1.691929133858267
 10
-1.657480314960629
 20
-1.691929133858267
 10
-1.648622047244094
 20
-1.691929133858267
  0
LWPOLYLINE
  5
731
330
1E
100
AcDbEntity
  8
7
100
AcDbPolyline
 90
        3
 70
     0
 43
0.0098425196850394
 10
-1.648622047244094
 20
-1.691929133858267
 10
-1.637795275590551
 20
-1.691929133858267
 10
-1.474409448818897
 20
-1.691929133858267
  0
LWPOLYLINE
  5
736
330
1E
100
AcDbEntity
  8
7
100
AcDbPolyline
 90
        4
 70
     0
 43
0.0098425196850394
 10
-1.474409448818897
 20
-1.492125984251968
 10
-1.472440944881889
 20
-1.492125984251968
 10
-1.478346456692913
 20
-1.492125984251968
 10
-1.518700787401574
 20
-1.492125984251968
  0
LINE
  5
73C
330
1E
100
AcDbEntity
  8
7
100
AcDbLine
 10
-1.521653543307086
 20
-1.492125984251968
 30
0.0
 11
-1.518700787401574
 21
-1.492125984251968
 31
0.0
  0
LINE
  5
73D
330
1E
100
AcDbEntity
  8
7
100
AcDbLine
 10
-1.521653543307086
 20
-1.491141732283464
 30
0.0
 11
-1.521653543307086
 21
-1.492125984251968
 31
0.0
  0
LWPOLYLINE
  5
73E
330
1E
100
AcDbEntity
  8
7
100
AcDbPolyline
 90
        4
 70
     0
 43
0.0098425196850394
 10
-1.521653543307086
 20
-1.491141732283464
 10
-1.531496062992125
 20
-1.491141732283464
 10
-1.532480314960629
 20
-1.492125984251968
 10
-1.603346456692913
 20
-1.492125984251968
  0
LINE
  5
744
330
1E
100
AcDbEntity
  8
7
100
AcDbLine
 10
-1.603346456692913
 20
-1.491141732283464
 30
0.0
 11
-1.603346456692913
 21
-1.492125984251968
 31
0.0
  0
LWPOLYLINE
  5
745
330
1E
100
AcDbEntity
  8
7
100
AcDbPolyline
 90
        3
 70
     0
 43
0.0098425196850394
 10
-1.603346456692913
 20
-1.491141732283464
 10
-1.614173228346456
 20
-1.491141732283464
 10
-1.614173228346456
 20
-1.492125984251968
  0
LINE
  5
74A
330
1E
100
AcDbEntity
  8
7
100
AcDbLine
 10
-1.617125984251968
 20
-1.492125984251968
 30
0.0
 11
-1.614173228346456
 21
-1.492125984251968
 31
0.0
  0
LINE
  5
74B
330
1E
100
AcDbEntity
  8
7
100
AcDbLine
 10
-1.637795275590551
 20
-1.492125984251968
 30
0.0
 11
-1.617125984251968
 21
-1.492125984251968
 31
0.0
  0
LINE
  5
74C
330
1E
100
AcDbEntity
  8
7
100
AcDbLine
 10
-1.637795275590551
 20
-1.492125984251968
 30
0.0
 11
-1.660433070866141
 21
-1.491141732283464
 31
0.0
  0
LINE
  5
74D
330
1E
100
AcDbEntity
  8
7
100
AcDbLine
 10
-1.660433070866141
 20
-1.492125984251968
 30
0.0
 11
-1.660433070866141
 21
-1.491141732283464
 31
0.0
  0
LWPOLYLINE
  5
74E
330
1E
100
AcDbEntity
  8
7
100
AcDbPolyline
 90
        4
 70
     0
 43
0.0098425196850394
 10
-1.637795275590551
 20
-1.492125984251968
 10
-1.648622047244094
 20
-1.492125984251968
 10
-1.657480314960629
 20
-1.492125984251968
 10
-1.660433070866141
 20
-1.492125984251968
  0
LINE
  5
754
330
1E
100
AcDbEntity
  8
7
100
AcDbLine
 10
-1.474409448818897
 20
-1.492125984251968
 30
0.0
 11
-1.637795275590551
 21
-1.492125984251968
 31
0.0
  0
LINE
  5
755
330
1E
100
AcDbEntity
  8
7
100
AcDbLine
 10
-1.478346456692913
 20
-1.75
 30
0.0
 11
-1.472440944881889
 21
-1.75
 31
0.0
  0
LINE
  5
756
330
1E
100
AcDbEntity
  8
7
100
AcDbLine
 10
-1.474409448818897
 20
-1.749015748031496
 30
0.0
 11
-1.472440944881889
 21
-1.75
 31
0.0
  0
LWPOLYLINE
  5
757
330
1E
100
AcDbEntity
  8
7
100
AcDbPolyline
 90
        5
 70
     0
 43
0.0098425196850394
 10
-1.474409448818897
 20
-1.749015748031496
 10
-1.637795275590551
 20
-1.749015748031496
 10
-1.648622047244094
 20
-1.749015748031496
 10
-1.657480314960629
 20
-1.749015748031496
 10
-1.660433070866141
 20
-1.749015748031496
  0
LINE
  5
75E
330
1E
100
AcDbEntity
  8
7
100
AcDbLine
 10
-1.660433070866141
 20
-1.749015748031496
 30
0.0
 11
-1.660433070866141
 21
-1.75
 31
0.0
  0
LINE
  5
75F
330
1E
100
AcDbEntity
  8
7
100
AcDbLine
 10
-1.637795275590551
 20
-1.75
 30
0.0
 11
-1.660433070866141
 21
-1.75
 31
0.0
  0
LWPOLYLINE
  5
760
330
1E
100
AcDbEntity
  8
7
100
AcDbPolyline
 90
        3
 70
     0
 43
0.0098425196850394
 10
-1.637795275590551
 20
-1.75
 10
-1.617125984251968
 20
-1.75
 10
-1.614173228346456
 20
-1.75
  0
LINE
  5
765
330
1E
100
AcDbEntity
  8
7
100
AcDbLine
 10
-1.603346456692913
 20
-1.75
 30
0.0
 11
-1.614173228346456
 21
-1.75
 31
0.0
  0
LINE
  5
766
330
1E
100
AcDbEntity
  8
7
100
AcDbLine
 10
-1.603346456692913
 20
-1.75
 30
0.0
 11
-1.603346456692913
 21
-1.749015748031496
 31
0.0
  0
LINE
  5
767
330
1E
100
AcDbEntity
  8
7
100
AcDbLine
 10
-1.532480314960629
 20
-1.749015748031496
 30
0.0
 11
-1.603346456692913
 21
-1.749015748031496
 31
0.0
  0
LINE
  5
768
330
1E
100
AcDbEntity
  8
7
100
AcDbLine
 10
-1.531496062992125
 20
-1.75
 30
0.0
 11
-1.532480314960629
 21
-1.749015748031496
 31
0.0
  0
LINE
  5
769
330
1E
100
AcDbEntity
  8
7
100
AcDbLine
 10
-1.521653543307086
 20
-1.75
 30
0.0
 11
-1.531496062992125
 21
-1.75
 31
0.0
  0
LINE
  5
76A
330
1E
100
AcDbEntity
  8
7
100
AcDbLine
 10
-1.521653543307086
 20
-1.75
 30
0.0
 11
-1.518700787401574
 21
-1.75
 31
0.0
  0
LINE
  5
76B
330
1E
100
AcDbEntity
  8
7
100
AcDbLine
 10
-1.478346456692913
 20
-1.75
 30
0.0
 11
-1.518700787401574
 21
-1.75
 31
0.0
  0
LWPOLYLINE
  5
76C
330
1E
100
AcDbEntity
  8
7
100
AcDbPolyline
 90
        3
 70
     0
 43
0.0098425196850394
 10
-1.478346456692913
 20
-1.469488188976377
 10
-1.472440944881889
 20
-1.469488188976377
 10
-1.474409448818897
 20
-1.469488188976377
  0
LINE
  5
771
330
1E
100
AcDbEntity
  8
7
100
AcDbLine
 10
-1.637795275590551
 20
-1.469488188976377
 30
0.0
 11
-1.474409448818897
 21
-1.469488188976377
 31
0.0
  0
LINE
  5
772
330
1E
100
AcDbEntity
  8
7
100
AcDbLine
 10
-1.660433070866141
 20
-1.469488188976377
 30
0.0
 11
-1.657480314960629
 21
-1.469488188976377
 31
0.0
  0
LWPOLYLINE
  5
773
330
1E
100
AcDbEntity
  8
7
100
AcDbPolyline
 90
        3
 70
     0
 43
0.0098425196850394
 10
-1.657480314960629
 20
-1.469488188976377
 10
-1.648622047244094
 20
-1.469488188976377
 10
-1.637795275590551
 20
-1.469488188976377
  0
LINE
  5
778
330
1E
100
AcDbEntity
  8
7
100
AcDbLine
 10
-1.660433070866141
 20
-1.469488188976377
 30
0.0
 11
-1.637795275590551
 21
-1.469488188976377
 31
0.0
  0
LINE
  5
779
330
1E
100
AcDbEntity
  8
7
100
AcDbLine
 10
-1.617125984251968
 20
-1.469488188976377
 30
0.0
 11
-1.637795275590551
 21
-1.469488188976377
 31
0.0
  0
LINE
  5
77A
330
1E
100
AcDbEntity
  8
7
100
AcDbLine
 10
-1.614173228346456
 20
-1.469488188976377
 30
0.0
 11
-1.617125984251968
 21
-1.469488188976377
 31
0.0
  0
LWPOLYLINE
  5
77B
330
1E
100
AcDbEntity
  8
7
100
AcDbPolyline
 90
        3
 70
     0
 43
0.0098425196850394
 10
-1.614173228346456
 20
-1.469488188976377
 10
-1.603346456692913
 20
-1.469488188976377
 10
-1.532480314960629
 20
-1.469488188976377
  0
LINE
  5
780
330
1E
100
AcDbEntity
  8
7
100
AcDbLine
 10
-1.531496062992125
 20
-1.469488188976377
 30
0.0
 11
-1.532480314960629
 21
-1.469488188976377
 31
0.0
  0
LINE
  5
781
330
1E
100
AcDbEntity
  8
7
100
AcDbLine
 10
-1.531496062992125
 20
-1.469488188976377
 30
0.0
 11
-1.521653543307086
 21
-1.469488188976377
 31
0.0
  0
LINE
  5
782
330
1E
100
AcDbEntity
  8
7
100
AcDbLine
 10
-1.518700787401574
 20
-1.469488188976377
 30
0.0
 11
-1.521653543307086
 21
-1.469488188976377
 31
0.0
  0
LINE
  5
783
330
1E
100
AcDbEntity
  8
7
100
AcDbLine
 10
-1.518700787401574
 20
-1.469488188976377
 30
0.0
 11
-1.478346456692913
 21
-1.469488188976377
 31
0.0
  0
LINE
  5
784
330
1E
100
AcDbEntity
  8
7
100
AcDbLine
 10
-1.472440944881889
 20
-1.771653543307086
 30
0.0
 11
-1.474409448818897
 21
-1.77263779527559
 31
0.0
  0
LINE
  5
785
330
1E
100
AcDbEntity
  8
7
100
AcDbLine
 10
-1.472440944881889
 20
-1.771653543307086
 30
0.0
 11
-1.478346456692913
 21
-1.771653543307086
 31
0.0
  0
LINE
  5
786
330
1E
100
AcDbEntity
  8
7
100
AcDbLine
 10
-1.518700787401574
 20
-1.771653543307086
 30
0.0
 11
-1.478346456692913
 21
-1.771653543307086
 31
0.0
  0
LINE
  5
787
330
1E
100
AcDbEntity
  8
7
100
AcDbLine
 10
-1.518700787401574
 20
-1.771653543307086
 30
0.0
 11
-1.521653543307086
 21
-1.771653543307086
 31
0.0
  0
LINE
  5
788
330
1E
100
AcDbEntity
  8
7
100
AcDbLine
 10
-1.531496062992125
 20
-1.771653543307086
 30
0.0
 11
-1.521653543307086
 21
-1.771653543307086
 31
0.0
  0
LINE
  5
789
330
1E
100
AcDbEntity
  8
7
100
AcDbLine
 10
-1.531496062992125
 20
-1.771653543307086
 30
0.0
 11
-1.532480314960629
 21
-1.771653543307086
 31
0.0
  0
LINE
  5
78A
330
1E
100
AcDbEntity
  8
7
100
AcDbLine
 10
-1.603346456692913
 20
-1.771653543307086
 30
0.0
 11
-1.532480314960629
 21
-1.771653543307086
 31
0.0
  0
LINE
  5
78B
330
1E
100
AcDbEntity
  8
7
100
AcDbLine
 10
-1.614173228346456
 20
-1.771653543307086
 30
0.0
 11
-1.603346456692913
 21
-1.771653543307086
 31
0.0
  0
LWPOLYLINE
  5
78C
330
1E
100
AcDbEntity
  8
7
100
AcDbPolyline
 90
        3
 70
     0
 43
0.0098425196850394
 10
-1.614173228346456
 20
-1.771653543307086
 10
-1.617125984251968
 20
-1.771653543307086
 10
-1.637795275590551
 20
-1.771653543307086
  0
LINE
  5
791
330
1E
100
AcDbEntity
  8
7
100
AcDbLine
 10
-1.660433070866141
 20
-1.771653543307086
 30
0.0
 11
-1.637795275590551
 21
-1.771653543307086
 31
0.0
  0
LWPOLYLINE
  5
792
330
1E
100
AcDbEntity
  8
7
100
AcDbPolyline
 90
        5
 70
     0
 43
0.0098425196850394
 10
-1.660433070866141
 20
-1.771653543307086
 10
-1.657480314960629
 20
-1.771653543307086
 10
-1.648622047244094
 20
-1.771653543307086
 10
-1.637795275590551
 20
-1.77263779527559
 10
-1.474409448818897
 20
-1.77263779527559
  0
LWPOLYLINE
  5
799
330
1E
100
AcDbEntity
  8
7
100
AcDbPolyline
 90
        8
 70
     0
 43
0.0098425196850394
 10
-1.474409448818897
 20
-1.532480314960629
 10
-1.472440944881889
 20
-1.531496062992125
 10
-1.478346456692913
 20
-1.531496062992125
 10
-1.519685039370078
 20
-1.531496062992125
 10
-1.52263779527559
 20
-1.531496062992125
 10
-1.531496062992125
 20
-1.531496062992125
 10
-1.532480314960629
 20
-1.532480314960629
 10
-1.603346456692913
 20
-1.532480314960629
  0
LINE
  5
7A3
330
1E
100
AcDbEntity
  8
7
100
AcDbLine
 10
-1.603346456692913
 20
-1.531496062992125
 30
0.0
 11
-1.603346456692913
 21
-1.532480314960629
 31
0.0
  0
LWPOLYLINE
  5
7A4
330
1E
100
AcDbEntity
  8
7
100
AcDbPolyline
 90
        3
 70
     0
 43
0.0098425196850394
 10
-1.603346456692913
 20
-1.531496062992125
 10
-1.613188976377952
 20
-1.531496062992125
 10
-1.616141732283464
 20
-1.531496062992125
  0
LINE
  5
7A9
330
1E
100
AcDbEntity
  8
7
100
AcDbLine
 10
-1.637795275590551
 20
-1.531496062992125
 30
0.0
 11
-1.616141732283464
 21
-1.531496062992125
 31
0.0
  0
LINE
  5
7AA
330
1E
100
AcDbEntity
  8
7
100
AcDbLine
 10
-1.637795275590551
 20
-1.531496062992125
 30
0.0
 11
-1.660433070866141
 21
-1.531496062992125
 31
0.0
  0
LWPOLYLINE
  5
7AB
330
1E
100
AcDbEntity
  8
7
100
AcDbPolyline
 90
        4
 70
     0
 43
0.0098425196850394
 10
-1.637795275590551
 20
-1.532480314960629
 10
-1.648622047244094
 20
-1.532480314960629
 10
-1.657480314960629
 20
-1.532480314960629
 10
-1.660433070866141
 20
-1.531496062992125
  0
LINE
  5
7B1
330
1E
100
AcDbEntity
  8
7
100
AcDbLine
 10
-1.474409448818897
 20
-1.532480314960629
 30
0.0
 11
-1.637795275590551
 21
-1.532480314960629
 31
0.0
  0
LWPOLYLINE
  5
7B2
330
1E
100
AcDbEntity
  8
7
100
AcDbPolyline
 90
        3
 70
     0
 43
0.0098425196850394
 10
-1.478346456692913
 20
-1.509842519685039
 10
-1.472440944881889
 20
-1.509842519685039
 10
-1.474409448818897
 20
-1.508858267716535
  0
LINE
  5
7B7
330
1E
100
AcDbEntity
  8
7
100
AcDbLine
 10
-1.637795275590551
 20
-1.508858267716535
 30
0.0
 11
-1.474409448818897
 21
-1.508858267716535
 31
0.0
  0
LWPOLYLINE
  5
7B8
330
1E
100
AcDbEntity
  8
7
100
AcDbPolyline
 90
        4
 70
     0
 43
0.0098425196850394
 10
-1.660433070866141
 20
-1.508858267716535
 10
-1.657480314960629
 20
-1.508858267716535
 10
-1.648622047244094
 20
-1.508858267716535
 10
-1.637795275590551
 20
-1.508858267716535
  0
LWPOLYLINE
  5
7BE
330
1E
100
AcDbEntity
  8
7
100
AcDbPolyline
 90
        3
 70
     0
 43
0.0098425196850394
 10
-1.660433070866141
 20
-1.508858267716535
 10
-1.660433070866141
 20
-1.509842519685039
 10
-1.637795275590551
 20
-1.509842519685039
  0
LINE
  5
7C3
330
1E
100
AcDbEntity
  8
7
100
AcDbLine
 10
-1.616141732283464
 20
-1.509842519685039
 30
0.0
 11
-1.637795275590551
 21
-1.509842519685039
 31
0.0
  0
LWPOLYLINE
  5
7C4
330
1E
100
AcDbEntity
  8
7
100
AcDbPolyline
 90
        5
 70
     0
 43
0.0098425196850394
 10
-1.616141732283464
 20
-1.509842519685039
 10
-1.613188976377952
 20
-1.509842519685039
 10
-1.603346456692913
 20
-1.509842519685039
 10
-1.603346456692913
 20
-1.508858267716535
 10
-1.532480314960629
 20
-1.508858267716535
  0
LINE
  5
7CB
330
1E
100
AcDbEntity
  8
7
100
AcDbLine
 10
-1.531496062992125
 20
-1.509842519685039
 30
0.0
 11
-1.532480314960629
 21
-1.508858267716535
 31
0.0
  0
LWPOLYLINE
  5
7CC
330
1E
100
AcDbEntity
  8
7
100
AcDbPolyline
 90
        4
 70
     0
 43
0.0098425196850394
 10
-1.531496062992125
 20
-1.509842519685039
 10
-1.52263779527559
 20
-1.509842519685039
 10
-1.519685039370078
 20
-1.509842519685039
 10
-1.478346456692913
 20
-1.509842519685039
  0
LINE
  5
7D2
330
1E
100
AcDbEntity
  8
7
100
AcDbLine
 10
-1.472440944881889
 20
-1.731299212598425
 30
0.0
 11
-1.474409448818897
 21
-1.732283464566929
 31
0.0
  0
LINE
  5
7D3
330
1E
100
AcDbEntity
  8
7
100
AcDbLine
 10
-1.472440944881889
 20
-1.731299212598425
 30
0.0
 11
-1.478346456692913
 21
-1.731299212598425
 31
0.0
  0
LINE
  5
7D4
330
1E
100
AcDbEntity
  8
7
100
AcDbLine
 10
-1.519685039370078
 20
-1.731299212598425
 30
0.0
 11
-1.478346456692913
 21
-1.731299212598425
 31
0.0
  0
LINE
  5
7D5
330
1E
100
AcDbEntity
  8
7
100
AcDbLine
 10
-1.519685039370078
 20
-1.731299212598425
 30
0.0
 11
-1.52263779527559
 21
-1.731299212598425
 31
0.0
  0
LINE
  5
7D6
330
1E
100
AcDbEntity
  8
7
100
AcDbLine
 10
-1.531496062992125
 20
-1.731299212598425
 30
0.0
 11
-1.52263779527559
 21
-1.731299212598425
 31
0.0
  0
LINE
  5
7D7
330
1E
100
AcDbEntity
  8
7
100
AcDbLine
 10
-1.531496062992125
 20
-1.731299212598425
 30
0.0
 11
-1.532480314960629
 21
-1.732283464566929
 31
0.0
  0
LINE
  5
7D8
330
1E
100
AcDbEntity
  8
7
100
AcDbLine
 10
-1.603346456692913
 20
-1.732283464566929
 30
0.0
 11
-1.532480314960629
 21
-1.732283464566929
 31
0.0
  0
LINE
  5
7D9
330
1E
100
AcDbEntity
  8
7
100
AcDbLine
 10
-1.603346456692913
 20
-1.731299212598425
 30
0.0
 11
-1.603346456692913
 21
-1.732283464566929
 31
0.0
  0
LINE
  5
7DA
330
1E
100
AcDbEntity
  8
7
100
AcDbLine
 10
-1.613188976377952
 20
-1.731299212598425
 30
0.0
 11
-1.603346456692913
 21
-1.731299212598425
 31
0.0
  0
LWPOLYLINE
  5
7DB
330
1E
100
AcDbEntity
  8
7
100
AcDbPolyline
 90
        3
 70
     0
 43
0.0098425196850394
 10
-1.613188976377952
 20
-1.731299212598425
 10
-1.616141732283464
 20
-1.731299212598425
 10
-1.637795275590551
 20
-1.731299212598425
  0
LINE
  5
7E0
330
1E
100
AcDbEntity
  8
7
100
AcDbLine
 10
-1.660433070866141
 20
-1.731299212598425
 30
0.0
 11
-1.637795275590551
 21
-1.731299212598425
 31
0.0
  0
LINE
  5
7E1
330
1E
100
AcDbEntity
  8
7
100
AcDbLine
 10
-1.660433070866141
 20
-1.732283464566929
 30
0.0
 11
-1.660433070866141
 21
-1.731299212598425
 31
0.0
  0
LWPOLYLINE
  5
7E2
330
1E
100
AcDbEntity
  8
7
100
AcDbPolyline
 90
        5
 70
     0
 43
0.0098425196850394
 10
-1.660433070866141
 20
-1.732283464566929
 10
-1.657480314960629
 20
-1.732283464566929
 10
-1.648622047244094
 20
-1.732283464566929
 10
-1.637795275590551
 20
-1.732283464566929
 10
-1.474409448818897
 20
-1.732283464566929
  0
LINE
  5
7E9
330
1E
100
AcDbEntity
  8
7
100
AcDbLine
 10
-1.478346456692913
 20
-1.709645669291338
 30
0.0
 11
-1.472440944881889
 21
-1.709645669291338
 31
0.0
  0
LINE
  5
7EA
330
1E
100
AcDbEntity
  8
7
100
AcDbLine
 10
-1.474409448818897
 20
-1.709645669291338
 30
0.0
 11
-1.472440944881889
 21
-1.709645669291338
 31
0.0
  0
LWPOLYLINE
  5
7EB
330
1E
100
AcDbEntity
  8
7
100
AcDbPolyline
 90
        5
 70
     0
 43
0.0098425196850394
 10
-1.474409448818897
 20
-1.709645669291338
 10
-1.637795275590551
 20
-1.709645669291338
 10
-1.648622047244094
 20
-1.709645669291338
 10
-1.657480314960629
 20
-1.709645669291338
 10
-1.660433070866141
 20
-1.709645669291338
  0
LINE
  5
7F2
330
1E
100
AcDbEntity
  8
7
100
AcDbLine
 10
-1.637795275590551
 20
-1.709645669291338
 30
0.0
 11
-1.660433070866141
 21
-1.709645669291338
 31
0.0
  0
LWPOLYLINE
  5
7F3
330
1E
100
AcDbEntity
  8
7
100
AcDbPolyline
 90
        3
 70
     0
 43
0.0098425196850394
 10
-1.637795275590551
 20
-1.709645669291338
 10
-1.616141732283464
 20
-1.709645669291338
 10
-1.613188976377952
 20
-1.709645669291338
  0
LINE
  5
7F8
330
1E
100
AcDbEntity
  8
7
100
AcDbLine
 10
-1.603346456692913
 20
-1.709645669291338
 30
0.0
 11
-1.613188976377952
 21
-1.709645669291338
 31
0.0
  0
LINE
  5
7F9
330
1E
100
AcDbEntity
  8
7
100
AcDbLine
 10
-1.532480314960629
 20
-1.709645669291338
 30
0.0
 11
-1.603346456692913
 21
-1.709645669291338
 31
0.0
  0
LINE
  5
7FA
330
1E
100
AcDbEntity
  8
7
100
AcDbLine
 10
-1.531496062992125
 20
-1.709645669291338
 30
0.0
 11
-1.532480314960629
 21
-1.709645669291338
 31
0.0
  0
LINE
  5
7FB
330
1E
100
AcDbEntity
  8
7
100
AcDbLine
 10
-1.52263779527559
 20
-1.709645669291338
 30
0.0
 11
-1.531496062992125
 21
-1.709645669291338
 31
0.0
  0
LINE
  5
7FC
330
1E
100
AcDbEntity
  8
7
100
AcDbLine
 10
-1.52263779527559
 20
-1.709645669291338
 30
0.0
 11
-1.519685039370078
 21
-1.709645669291338
 31
0.0
  0
LINE
  5
7FD
330
1E
100
AcDbEntity
  8
7
100
AcDbLine
 10
-1.478346456692913
 20
-1.709645669291338
 30
0.0
 11
-1.519685039370078
 21
-1.709645669291338
 31
0.0
  0
LWPOLYLINE
  5
7FE
330
1E
100
AcDbEntity
  8
7
100
AcDbPolyline
 90
        3
 70
     0
 43
0.0098425196850394
 10
-1.474409448818897
 20
-1.460629921259842
 10
-1.472440944881889
 20
-1.46259842519685
 10
-1.419291338582677
 20
-1.46259842519685
  0
LWPOLYLINE
  5
803
330
1E
100
AcDbEntity
  8
7
100
AcDbPolyline
 90
       10
 70
     0
 43
0.0098425196850394
 10
-1.37007874015748
 20
-1.46259842519685
 10
-1.281496062992125
 20
-1.46259842519685
 10
-1.273622047244094
 20
-1.46259842519685
 10
-1.221456692913385
 20
-1.461614173228346
 10
-1.196850393700787
 20
-1.460629921259842
 10
-1.14763779527559
 20
-1.460629921259842
 10
-1.140748031496062
 20
-1.460629921259842
 10
-1.137795275590551
 20
-1.460629921259842
 10
-1.140748031496062
 20
-1.460629921259842
 10
-1.14763779527559
 20
-1.460629921259842
  0
LINE
  5
80F
330
1E
100
AcDbEntity
  8
7
100
AcDbLine
 10
-1.359251968503937
 20
-1.460629921259842
 30
0.0
 11
-1.14763779527559
 21
-1.460629921259842
 31
0.0
  0
LINE
  5
810
330
1E
100
AcDbEntity
  8
7
100
AcDbLine
 10
-1.359251968503937
 20
-1.460629921259842
 30
0.0
 11
-1.359251968503937
 21
-1.461614173228346
 31
0.0
  0
LINE
  5
811
330
1E
100
AcDbEntity
  8
7
100
AcDbLine
 10
-1.359251968503937
 20
-1.461614173228346
 30
0.0
 11
-1.37007874015748
 21
-1.461614173228346
 31
0.0
  0
LINE
  5
812
330
1E
100
AcDbEntity
  8
7
100
AcDbLine
 10
-1.419291338582677
 20
-1.461614173228346
 30
0.0
 11
-1.43011811023622
 21
-1.461614173228346
 31
0.0
  0
LINE
  5
813
330
1E
100
AcDbEntity
  8
7
100
AcDbLine
 10
-1.43011811023622
 20
-1.460629921259842
 30
0.0
 11
-1.43011811023622
 21
-1.461614173228346
 31
0.0
  0
LINE
  5
814
330
1E
100
AcDbEntity
  8
7
100
AcDbLine
 10
-1.474409448818897
 20
-1.460629921259842
 30
0.0
 11
-1.43011811023622
 21
-1.460629921259842
 31
0.0
  0
LINE
  5
815
330
1E
100
AcDbEntity
  8
7
100
AcDbLine
 10
-1.281496062992125
 20
-1.778543307086614
 30
0.0
 11
-1.37007874015748
 21
-1.778543307086614
 31
0.0
  0
LINE
  5
816
330
1E
100
AcDbEntity
  8
7
100
AcDbLine
 10
-1.419291338582677
 20
-1.778543307086614
 30
0.0
 11
-1.472440944881889
 21
-1.778543307086614
 31
0.0
  0
LINE
  5
817
330
1E
100
AcDbEntity
  8
7
100
AcDbLine
 10
-1.474409448818897
 20
-1.780511811023622
 30
0.0
 11
-1.472440944881889
 21
-1.778543307086614
 31
0.0
  0
LINE
  5
818
330
1E
100
AcDbEntity
  8
7
100
AcDbLine
 10
-1.43011811023622
 20
-1.780511811023622
 30
0.0
 11
-1.474409448818897
 21
-1.780511811023622
 31
0.0
  0
LINE
  5
819
330
1E
100
AcDbEntity
  8
7
100
AcDbLine
 10
-1.43011811023622
 20
-1.779527559055118
 30
0.0
 11
-1.43011811023622
 21
-1.780511811023622
 31
0.0
  0
LINE
  5
81A
330
1E
100
AcDbEntity
  8
7
100
AcDbLine
 10
-1.43011811023622
 20
-1.779527559055118
 30
0.0
 11
-1.419291338582677
 21
-1.779527559055118
 31
0.0
  0
LWPOLYLINE
  5
81B
330
1E
100
AcDbEntity
  8
7
100
AcDbPolyline
 90
        3
 70
     0
 43
0.0098425196850394
 10
-1.37007874015748
 20
-1.779527559055118
 10
-1.359251968503937
 20
-1.779527559055118
 10
-1.359251968503937
 20
-1.780511811023622
  0
LINE
  5
820
330
1E
100
AcDbEntity
  8
7
100
AcDbLine
 10
-1.14763779527559
 20
-1.780511811023622
 30
0.0
 11
-1.359251968503937
 21
-1.780511811023622
 31
0.0
  0
LWPOLYLINE
  5
821
330
1E
100
AcDbEntity
  8
7
100
AcDbPolyline
 90
        9
 70
     0
 43
0.0098425196850394
 10
-1.14763779527559
 20
-1.780511811023622
 10
-1.140748031496062
 20
-1.780511811023622
 10
-1.137795275590551
 20
-1.780511811023622
 10
-1.140748031496062
 20
-1.780511811023622
 10
-1.14763779527559
 20
-1.780511811023622
 10
-1.196850393700787
 20
-1.780511811023622
 10
-1.221456692913385
 20
-1.779527559055118
 10
-1.273622047244094
 20
-1.778543307086614
 10
-1.281496062992125
 20
-1.778543307086614
  0
LINE
  5
82C
330
1E
100
AcDbEntity
  8
7
100
AcDbLine
 10
-1.478346456692913
 20
-1.531496062992125
 30
0.0
 11
-1.478346456692913
 21
-1.509842519685039
 31
0.0
  0
LINE
  5
82D
330
1E
100
AcDbEntity
  8
7
100
AcDbLine
 10
-1.519685039370078
 20
-1.509842519685039
 30
0.0
 11
-1.519685039370078
 21
-1.513779527559055
 31
0.0
  0
LINE
  5
82E
330
1E
100
AcDbEntity
  8
7
100
AcDbLine
 10
-1.519685039370078
 20
-1.52755905511811
 30
0.0
 11
-1.519685039370078
 21
-1.531496062992125
 31
0.0
  0
LINE
  5
82F
330
1E
100
AcDbEntity
  8
7
100
AcDbLine
 10
-1.478346456692913
 20
-1.571850393700787
 30
0.0
 11
-1.478346456692913
 21
-1.549212598425196
 31
0.0
  0
LINE
  5
830
330
1E
100
AcDbEntity
  8
7
100
AcDbLine
 10
-1.518700787401574
 20
-1.549212598425196
 30
0.0
 11
-1.518700787401574
 21
-1.554133858267716
 31
0.0
  0
LINE
  5
831
330
1E
100
AcDbEntity
  8
7
100
AcDbLine
 10
-1.518700787401574
 20
-1.567913385826771
 30
0.0
 11
-1.518700787401574
 21
-1.571850393700787
 31
0.0
  0
LINE
  5
832
330
1E
100
AcDbEntity
  8
7
100
AcDbLine
 10
-1.478346456692913
 20
-1.611220472440944
 30
0.0
 11
-1.478346456692913
 21
-1.589566929133858
 31
0.0
  0
LINE
  5
833
330
1E
100
AcDbEntity
  8
7
100
AcDbLine
 10
-1.518700787401574
 20
-1.589566929133858
 30
0.0
 11
-1.518700787401574
 21
-1.593503937007874
 31
0.0
  0
LINE
  5
834
330
1E
100
AcDbEntity
  8
7
100
AcDbLine
 10
-1.518700787401574
 20
-1.607283464566929
 30
0.0
 11
-1.518700787401574
 21
-1.611220472440944
 31
0.0
  0
LINE
  5
835
330
1E
100
AcDbEntity
  8
7
100
AcDbLine
 10
-1.478346456692913
 20
-1.651574803149606
 30
0.0
 11
-1.478346456692913
 21
-1.629921259842519
 31
0.0
  0
LINE
  5
836
330
1E
100
AcDbEntity
  8
7
100
AcDbLine
 10
-1.518700787401574
 20
-1.651574803149606
 30
0.0
 11
-1.518700787401574
 21
-1.64763779527559
 31
0.0
  0
LINE
  5
837
330
1E
100
AcDbEntity
  8
7
100
AcDbLine
 10
-1.518700787401574
 20
-1.633858267716535
 30
0.0
 11
-1.518700787401574
 21
-1.629921259842519
 31
0.0
  0
LINE
  5
838
330
1E
100
AcDbEntity
  8
7
100
AcDbLine
 10
-1.478346456692913
 20
-1.691929133858267
 30
0.0
 11
-1.478346456692913
 21
-1.669291338582677
 31
0.0
  0
LINE
  5
839
330
1E
100
AcDbEntity
  8
7
100
AcDbLine
 10
-1.518700787401574
 20
-1.691929133858267
 30
0.0
 11
-1.518700787401574
 21
-1.687992125984251
 31
0.0
  0
LINE
  5
83A
330
1E
100
AcDbEntity
  8
7
100
AcDbLine
 10
-1.518700787401574
 20
-1.673228346456692
 30
0.0
 11
-1.518700787401574
 21
-1.669291338582677
 31
0.0
  0
LINE
  5
83B
330
1E
100
AcDbEntity
  8
7
100
AcDbLine
 10
-1.478346456692913
 20
-1.731299212598425
 30
0.0
 11
-1.478346456692913
 21
-1.709645669291338
 31
0.0
  0
LINE
  5
83C
330
1E
100
AcDbEntity
  8
7
100
AcDbLine
 10
-1.519685039370078
 20
-1.709645669291338
 30
0.0
 11
-1.519685039370078
 21
-1.713582677165354
 31
0.0
  0
LINE
  5
83D
330
1E
100
AcDbEntity
  8
7
100
AcDbLine
 10
-1.519685039370078
 20
-1.727362204724409
 30
0.0
 11
-1.519685039370078
 21
-1.731299212598425
 31
0.0
  0
LINE
  5
83E
330
1E
100
AcDbEntity
  8
7
100
AcDbLine
 10
-1.478346456692913
 20
-1.492125984251968
 30
0.0
 11
-1.478346456692913
 21
-1.469488188976377
 31
0.0
  0
LINE
  5
83F
330
1E
100
AcDbEntity
  8
7
100
AcDbLine
 10
-1.518700787401574
 20
-1.469488188976377
 30
0.0
 11
-1.518700787401574
 21
-1.473425196850393
 31
0.0
  0
LINE
  5
840
330
1E
100
AcDbEntity
  8
7
100
AcDbLine
 10
-1.518700787401574
 20
-1.487204724409448
 30
0.0
 11
-1.518700787401574
 21
-1.492125984251968
 31
0.0
  0
LINE
  5
841
330
1E
100
AcDbEntity
  8
7
100
AcDbLine
 10
-1.478346456692913
 20
-1.771653543307086
 30
0.0
 11
-1.478346456692913
 21
-1.75
 31
0.0
  0
LINE
  5
842
330
1E
100
AcDbEntity
  8
7
100
AcDbLine
 10
-1.518700787401574
 20
-1.771653543307086
 30
0.0
 11
-1.518700787401574
 21
-1.76771653543307
 31
0.0
  0
LINE
  5
843
330
1E
100
AcDbEntity
  8
7
100
AcDbLine
 10
-1.518700787401574
 20
-1.753937007874015
 30
0.0
 11
-1.518700787401574
 21
-1.75
 31
0.0
  0
LINE
  5
844
330
1E
100
AcDbEntity
  8
7
100
AcDbLine
 10
-1.472440944881889
 20
-1.75
 30
0.0
 11
-1.472440944881889
 21
-1.731299212598425
 31
0.0
  0
LWPOLYLINE
  5
845
330
1E
100
AcDbEntity
  8
7
100
AcDbPolyline
 90
        3
 70
     0
 43
0.0098425196850394
 10
-1.474409448818897
 20
-1.732283464566929
 10
-1.474409448818897
 20
-1.734251968503937
 10
-1.474409448818897
 20
-1.74015748031496
  0
LINE
  5
84A
330
1E
100
AcDbEntity
  8
7
100
AcDbLine
 10
-1.474409448818897
 20
-1.741141732283464
 30
0.0
 11
-1.474409448818897
 21
-1.74015748031496
 31
0.0
  0
LINE
  5
84B
330
1E
100
AcDbEntity
  8
7
100
AcDbLine
 10
-1.474409448818897
 20
-1.741141732283464
 30
0.0
 11
-1.474409448818897
 21
-1.747047244094488
 31
0.0
  0
LINE
  5
84C
330
1E
100
AcDbEntity
  8
7
100
AcDbLine
 10
-1.474409448818897
 20
-1.747047244094488
 30
0.0
 11
-1.474409448818897
 21
-1.749015748031496
 31
0.0
  0
LINE
  5
84D
330
1E
100
AcDbEntity
  8
7
100
AcDbLine
 10
-1.472440944881889
 20
-1.709645669291338
 30
0.0
 11
-1.472440944881889
 21
-1.691929133858267
 31
0.0
  0
LWPOLYLINE
  5
84E
330
1E
100
AcDbEntity
  8
7
100
AcDbPolyline
 90
        3
 70
     0
 43
0.0098425196850394
 10
-1.474409448818897
 20
-1.691929133858267
 10
-1.474409448818897
 20
-1.694881889763779
 10
-1.474409448818897
 20
-1.699803149606299
  0
LINE
  5
853
330
1E
100
AcDbEntity
  8
7
100
AcDbLine
 10
-1.474409448818897
 20
-1.700787401574803
 30
0.0
 11
-1.474409448818897
 21
-1.699803149606299
 31
0.0
  0
LWPOLYLINE
  5
854
330
1E
100
AcDbEntity
  8
7
100
AcDbPolyline
 90
        3
 70
     0
 43
0.0098425196850394
 10
-1.474409448818897
 20
-1.700787401574803
 10
-1.474409448818897
 20
-1.706692913385826
 10
-1.474409448818897
 20
-1.709645669291338
  0
LINE
  5
859
330
1E
100
AcDbEntity
  8
7
100
AcDbLine
 10
-1.472440944881889
 20
-1.669291338582677
 30
0.0
 11
-1.472440944881889
 21
-1.651574803149606
 31
0.0
  0
LWPOLYLINE
  5
85A
330
1E
100
AcDbEntity
  8
7
100
AcDbPolyline
 90
        3
 70
     0
 43
0.0098425196850394
 10
-1.474409448818897
 20
-1.65255905511811
 10
-1.474409448818897
 20
-1.654527559055118
 10
-1.474409448818897
 20
-1.660433070866141
  0
LINE
  5
85F
330
1E
100
AcDbEntity
  8
7
100
AcDbLine
 10
-1.474409448818897
 20
-1.661417322834645
 30
0.0
 11
-1.474409448818897
 21
-1.660433070866141
 31
0.0
  0
LWPOLYLINE
  5
860
330
1E
100
AcDbEntity
  8
7
100
AcDbPolyline
 90
        3
 70
     0
 43
0.0098425196850394
 10
-1.474409448818897
 20
-1.661417322834645
 10
-1.474409448818897
 20
-1.666338582677165
 10
-1.474409448818897
 20
-1.669291338582677
  0
LINE
  5
865
330
1E
100
AcDbEntity
  8
7
100
AcDbLine
 10
-1.472440944881889
 20
-1.778543307086614
 30
0.0
 11
-1.472440944881889
 21
-1.771653543307086
 31
0.0
  0
LWPOLYLINE
  5
866
330
1E
100
AcDbEntity
  8
7
100
AcDbPolyline
 90
        3
 70
     0
 43
0.0098425196850394
 10
-1.474409448818897
 20
-1.77263779527559
 10
-1.474409448818897
 20
-1.774606299212598
 10
-1.474409448818897
 20
-1.780511811023622
  0
LINE
  5
86B
330
1E
100
AcDbEntity
  8
7
100
AcDbLine
 10
-1.472440944881889
 20
-1.629921259842519
 30
0.0
 11
-1.472440944881889
 21
-1.612204724409448
 31
0.0
  0
LWPOLYLINE
  5
86C
330
1E
100
AcDbEntity
  8
7
100
AcDbPolyline
 90
        3
 70
     0
 43
0.0098425196850394
 10
-1.474409448818897
 20
-1.62007874015748
 10
-1.474409448818897
 20
-1.614173228346456
 10
-1.474409448818897
 20
-1.612204724409448
  0
LINE
  5
871
330
1E
100
AcDbEntity
  8
7
100
AcDbLine
 10
-1.474409448818897
 20
-1.621062992125984
 30
0.0
 11
-1.474409448818897
 21
-1.62007874015748
 31
0.0
  0
LWPOLYLINE
  5
872
330
1E
100
AcDbEntity
  8
7
100
AcDbPolyline
 90
        3
 70
     0
 43
0.0098425196850394
 10
-1.474409448818897
 20
-1.621062992125984
 10
-1.474409448818897
 20
-1.626968503937007
 10
-1.474409448818897
 20
-1.628937007874015
  0
LINE
  5
877
330
1E
100
AcDbEntity
  8
7
100
AcDbLine
 10
-1.472440944881889
 20
-1.589566929133858
 30
0.0
 11
-1.472440944881889
 21
-1.571850393700787
 31
0.0
  0
LWPOLYLINE
  5
878
330
1E
100
AcDbEntity
  8
7
100
AcDbPolyline
 90
        3
 70
     0
 43
0.0098425196850394
 10
-1.474409448818897
 20
-1.579724409448818
 10
-1.474409448818897
 20
-1.574803149606299
 10
-1.474409448818897
 20
-1.571850393700787
  0
LINE
  5
87D
330
1E
100
AcDbEntity
  8
7
100
AcDbLine
 10
-1.474409448818897
 20
-1.579724409448818
 30
0.0
 11
-1.474409448818897
 21
-1.580708661417322
 31
0.0
  0
LWPOLYLINE
  5
87E
330
1E
100
AcDbEntity
  8
7
100
AcDbPolyline
 90
        3
 70
     0
 43
0.0098425196850394
 10
-1.474409448818897
 20
-1.589566929133858
 10
-1.474409448818897
 20
-1.586614173228346
 10
-1.474409448818897
 20
-1.580708661417322
  0
LINE
  5
883
330
1E
100
AcDbEntity
  8
7
100
AcDbLine
 10
-1.472440944881889
 20
-1.549212598425196
 30
0.0
 11
-1.472440944881889
 21
-1.531496062992125
 31
0.0
  0
LWPOLYLINE
  5
884
330
1E
100
AcDbEntity
  8
7
100
AcDbPolyline
 90
        3
 70
     0
 43
0.0098425196850394
 10
-1.474409448818897
 20
-1.540354330708661
 10
-1.474409448818897
 20
-1.534448818897637
 10
-1.474409448818897
 20
-1.532480314960629
  0
LINE
  5
889
330
1E
100
AcDbEntity
  8
7
100
AcDbLine
 10
-1.474409448818897
 20
-1.540354330708661
 30
0.0
 11
-1.474409448818897
 21
-1.541338582677165
 31
0.0
  0
LWPOLYLINE
  5
88A
330
1E
100
AcDbEntity
  8
7
100
AcDbPolyline
 90
        3
 70
     0
 43
0.0098425196850394
 10
-1.474409448818897
 20
-1.549212598425196
 10
-1.474409448818897
 20
-1.547244094488188
 10
-1.474409448818897
 20
-1.541338582677165
  0
LINE
  5
88F
330
1E
100
AcDbEntity
  8
7
100
AcDbLine
 10
-1.472440944881889
 20
-1.509842519685039
 30
0.0
 11
-1.472440944881889
 21
-1.492125984251968
 31
0.0
  0
LWPOLYLINE
  5
890
330
1E
100
AcDbEntity
  8
7
100
AcDbPolyline
 90
        3
 70
     0
 43
0.0098425196850394
 10
-1.474409448818897
 20
-1.5
 10
-1.474409448818897
 20
-1.494094488188976
 10
-1.474409448818897
 20
-1.492125984251968
  0
LINE
  5
895
330
1E
100
AcDbEntity
  8
7
100
AcDbLine
 10
-1.474409448818897
 20
-1.5
 30
0.0
 11
-1.474409448818897
 21
-1.500984251968503
 31
0.0
  0
LWPOLYLINE
  5
896
330
1E
100
AcDbEntity
  8
7
100
AcDbPolyline
 90
        3
 70
     0
 43
0.0098425196850394
 10
-1.474409448818897
 20
-1.508858267716535
 10
-1.474409448818897
 20
-1.506889763779527
 10
-1.474409448818897
 20
-1.500984251968503
  0
LINE
  5
89B
330
1E
100
AcDbEntity
  8
7
100
AcDbLine
 10
-1.472440944881889
 20
-1.469488188976377
 30
0.0
 11
-1.472440944881889
 21
-1.46259842519685
 31
0.0
  0
LINE
  5
89C
330
1E
100
AcDbEntity
  8
7
100
AcDbLine
 10
-1.474409448818897
 20
-1.460629921259842
 30
0.0
 11
-1.474409448818897
 21
-1.461614173228346
 31
0.0
  0
LWPOLYLINE
  5
89D
330
1E
100
AcDbEntity
  8
7
100
AcDbPolyline
 90
        3
 70
     0
 43
0.0098425196850394
 10
-1.474409448818897
 20
-1.469488188976377
 10
-1.474409448818897
 20
-1.466535433070866
 10
-1.474409448818897
 20
-1.461614173228346
  0
LINE
  5
8A2
330
1E
100
AcDbEntity
  8
7
100
AcDbLine
 10
-1.613188976377952
 20
-1.531496062992125
 30
0.0
 11
-1.613188976377952
 21
-1.52755905511811
 31
0.0
  0
LINE
  5
8A3
330
1E
100
AcDbEntity
  8
7
100
AcDbLine
 10
-1.603346456692913
 20
-1.52755905511811
 30
0.0
 11
-1.603346456692913
 21
-1.531496062992125
 31
0.0
  0
LINE
  5
8A4
330
1E
100
AcDbEntity
  8
7
100
AcDbLine
 10
-1.531496062992125
 20
-1.52755905511811
 30
0.0
 11
-1.531496062992125
 21
-1.531496062992125
 31
0.0
  0
LINE
  5
8A5
330
1E
100
AcDbEntity
  8
7
100
AcDbLine
 10
-1.52263779527559
 20
-1.52755905511811
 30
0.0
 11
-1.52263779527559
 21
-1.531496062992125
 31
0.0
  0
LINE
  5
8A6
330
1E
100
AcDbEntity
  8
7
100
AcDbLine
 10
-1.52263779527559
 20
-1.509842519685039
 30
0.0
 11
-1.52263779527559
 21
-1.513779527559055
 31
0.0
  0
LINE
  5
8A7
330
1E
100
AcDbEntity
  8
7
100
AcDbLine
 10
-1.531496062992125
 20
-1.513779527559055
 30
0.0
 11
-1.531496062992125
 21
-1.509842519685039
 31
0.0
  0
LINE
  5
8A8
330
1E
100
AcDbEntity
  8
7
100
AcDbLine
 10
-1.603346456692913
 20
-1.513779527559055
 30
0.0
 11
-1.603346456692913
 21
-1.509842519685039
 31
0.0
  0
LINE
  5
8A9
330
1E
100
AcDbEntity
  8
7
100
AcDbLine
 10
-1.613188976377952
 20
-1.513779527559055
 30
0.0
 11
-1.613188976377952
 21
-1.509842519685039
 31
0.0
  0
LINE
  5
8AA
330
1E
100
AcDbEntity
  8
7
100
AcDbLine
 10
-1.52263779527559
 20
-1.713582677165354
 30
0.0
 11
-1.52263779527559
 21
-1.709645669291338
 31
0.0
  0
LINE
  5
8AB
330
1E
100
AcDbEntity
  8
7
100
AcDbLine
 10
-1.531496062992125
 20
-1.713582677165354
 30
0.0
 11
-1.531496062992125
 21
-1.709645669291338
 31
0.0
  0
LINE
  5
8AC
330
1E
100
AcDbEntity
  8
7
100
AcDbLine
 10
-1.603346456692913
 20
-1.713582677165354
 30
0.0
 11
-1.603346456692913
 21
-1.709645669291338
 31
0.0
  0
LINE
  5
8AD
330
1E
100
AcDbEntity
  8
7
100
AcDbLine
 10
-1.613188976377952
 20
-1.709645669291338
 30
0.0
 11
-1.613188976377952
 21
-1.713582677165354
 31
0.0
  0
LWPOLYLINE
  5
8AE
330
1E
100
AcDbEntity
  8
7
100
AcDbPolyline
 90
        3
 70
     0
 43
0.0098425196850394
 10
-1.562992125984251
 20
-1.390748031496062
 10
-1.562007874015747
 20
-1.390748031496062
 10
-1.558070866141732
 20
-1.390748031496062
  0
LINE
  5
8B3
330
1E
100
AcDbEntity
  8
7
100
AcDbLine
 10
-1.562992125984251
 20
-1.413385826771653
 30
0.0
 11
-1.562992125984251
 21
-1.390748031496062
 31
0.0
  0
LINE
  5
8B4
330
1E
100
AcDbEntity
  8
7
100
AcDbLine
 10
-1.543307086614173
 20
-1.400590551181102
 30
0.0
 11
-1.543307086614173
 21
-1.413385826771653
 31
0.0
  0
LINE
  5
8B5
330
1E
100
AcDbEntity
  8
7
100
AcDbLine
 10
-1.51771653543307
 20
-1.403543307086614
 30
0.0
 11
-1.52755905511811
 21
-1.413385826771653
 31
0.0
  0
LINE
  5
8B6
330
1E
100
AcDbEntity
  8
7
100
AcDbLine
 10
-1.507874015748031
 20
-1.403543307086614
 30
0.0
 11
-1.507874015748031
 21
-1.400590551181102
 31
0.0
  0
LWPOLYLINE
  5
8B7
330
1E
100
AcDbEntity
  8
7
100
AcDbPolyline
 90
        4
 70
     0
 43
0.0098425196850394
 10
-1.523622047244094
 20
-1.413385826771653
 10
-1.516732283464566
 20
-1.406496062992125
 10
-1.513779527559055
 20
-1.403543307086614
 10
-1.51771653543307
 20
-1.403543307086614
  0
LWPOLYLINE
  5
8BD
330
1E
100
AcDbEntity
  8
7
100
AcDbPolyline
 90
        3
 70
     0
 43
0.0098425196850394
 10
-1.513779527559055
 20
-1.403543307086614
 10
-1.43011811023622
 20
-1.403543307086614
 10
-1.419291338582677
 20
-1.403543307086614
  0
LWPOLYLINE
  5
8C2
330
1E
100
AcDbEntity
  8
7
100
AcDbPolyline
 90
        8
 70
     0
 43
0.0098425196850394
 10
-1.37007874015748
 20
-1.403543307086614
 10
-1.359251968503937
 20
-1.403543307086614
 10
-1.14763779527559
 20
-1.403543307086614
 10
-1.133858267716535
 20
-1.403543307086614
 10
-1.127952755905511
 20
-1.403543307086614
 10
-1.125
 20
-1.403543307086614
 10
-1.118110236220472
 20
-1.403543307086614
 10
-0.937992125984252
 20
-1.403543307086614
  0
LINE
  5
8CC
330
1E
100
AcDbEntity
  8
7
100
AcDbLine
 10
-1.493110236220472
 20
-1.400590551181102
 30
0.0
 11
-1.493110236220472
 21
-1.403543307086614
 31
0.0
  0
LWPOLYLINE
  5
8CD
330
1E
100
AcDbEntity
  8
7
100
AcDbPolyline
 90
        4
 70
     0
 43
0.0098425196850394
 10
-1.64763779527559
 20
-1.390748031496062
 10
-1.644685039370078
 20
-1.390748031496062
 10
-1.637795275590551
 20
-1.390748031496062
 10
-1.565944881889763
 20
-1.390748031496062
  0
LINE
  5
8D3
330
1E
100
AcDbEntity
  8
7
100
AcDbLine
 10
-1.562992125984251
 20
-1.390748031496062
 30
0.0
 11
-1.565944881889763
 21
-1.390748031496062
 31
0.0
  0
LWPOLYLINE
  5
8D4
330
1E
100
AcDbEntity
  8
7
100
AcDbPolyline
 90
        3
 70
     0
 43
0.0098425196850394
 10
-1.64763779527559
 20
-1.390748031496062
 10
-1.661417322834645
 20
-1.396653543307086
 10
-1.667322834645669
 20
-1.410433070866141
  0
LWPOLYLINE
  5
8D9
330
1E
100
AcDbEntity
  8
7
100
AcDbPolyline
 90
        3
 70
     0
 43
0.0098425196850394
 10
-1.565944881889763
 20
-1.410433070866141
 10
-1.565944881889763
 20
-1.396653543307086
 10
-1.565944881889763
 20
-1.390748031496062
  0
LINE
  5
8DE
330
1E
100
AcDbEntity
  8
7
100
AcDbLine
 10
-1.565944881889763
 20
-1.413385826771653
 30
0.0
 11
-1.565944881889763
 21
-1.410433070866141
 31
0.0
  0
LINE
  5
8DF
330
1E
100
AcDbEntity
  8
7
100
AcDbLine
 10
-1.523622047244094
 20
-1.413385826771653
 30
0.0
 11
-1.565944881889763
 21
-1.413385826771653
 31
0.0
  0
LINE
  5
8E0
330
1E
100
AcDbEntity
  8
7
100
AcDbLine
 10
-0.937992125984252
 20
-1.431102362204724
 30
0.0
 11
-1.085629921259842
 21
-1.432086614173228
 31
0.0
  0
LINE
  5
8E1
330
1E
100
AcDbEntity
  8
7
100
AcDbLine
 10
-1.493110236220472
 20
-1.838582677165354
 30
0.0
 11
-1.493110236220472
 21
-1.840551181102362
 31
0.0
  0
LWPOLYLINE
  5
8E2
330
1E
100
AcDbEntity
  8
7
100
AcDbPolyline
 90
        3
 70
     0
 43
0.0098425196850394
 10
-1.668307086614173
 20
-1.461614173228346
 10
-1.665354330708661
 20
-1.466535433070866
 10
-1.660433070866141
 20
-1.469488188976377
  0
LWPOLYLINE
  5
8E7
330
1E
100
AcDbEntity
  8
7
100
AcDbPolyline
 90
        3
 70
     0
 43
0.0098425196850394
 10
-1.660433070866141
 20
-1.469488188976377
 10
-1.665354330708661
 20
-1.46751968503937
 10
-1.668307086614173
 20
-1.461614173228346
  0
LINE
  5
8EC
330
1E
100
AcDbEntity
  8
7
100
AcDbLine
 10
-1.637795275590551
 20
-1.469488188976377
 30
0.0
 11
-1.637795275590551
 21
-1.492125984251968
 31
0.0
  0
LINE
  5
8ED
330
1E
100
AcDbEntity
  8
7
100
AcDbLine
 10
-1.668307086614173
 20
-1.499015748031496
 30
0.0
 11
-1.668307086614173
 21
-1.461614173228346
 31
0.0
  0
LWPOLYLINE
  5
8EE
330
1E
100
AcDbEntity
  8
7
100
AcDbPolyline
 90
        3
 70
     0
 43
0.0098425196850394
 10
-1.660433070866141
 20
-1.491141732283464
 10
-1.665354330708661
 20
-1.494094488188976
 10
-1.668307086614173
 20
-1.499015748031496
  0
LINE
  5
8F3
330
1E
100
AcDbEntity
  8
7
100
AcDbLine
 10
-1.668307086614173
 20
-1.830708661417322
 30
0.0
 11
-1.668307086614173
 21
-1.779527559055118
 31
0.0
  0
LINE
  5
8F4
330
1E
100
AcDbEntity
  8
7
100
AcDbLine
 10
-1.668307086614173
 20
-1.742125984251968
 30
0.0
 11
-1.668307086614173
 21
-1.779527559055118
 31
0.0
  0
LINE
  5
8F5
330
1E
100
AcDbEntity
  8
7
100
AcDbLine
 10
-1.668307086614173
 20
-1.742125984251968
 30
0.0
 11
-1.668307086614173
 21
-1.741141732283464
 31
0.0
  0
LINE
  5
8F6
330
1E
100
AcDbEntity
  8
7
100
AcDbLine
 10
-1.668307086614173
 20
-1.74015748031496
 30
0.0
 11
-1.668307086614173
 21
-1.741141732283464
 31
0.0
  0
LINE
  5
8F7
330
1E
100
AcDbEntity
  8
7
100
AcDbLine
 10
-1.668307086614173
 20
-1.739173228346456
 30
0.0
 11
-1.668307086614173
 21
-1.74015748031496
 31
0.0
  0
LINE
  5
8F8
330
1E
100
AcDbEntity
  8
7
100
AcDbLine
 10
-1.668307086614173
 20
-1.701771653543307
 30
0.0
 11
-1.668307086614173
 21
-1.739173228346456
 31
0.0
  0
LINE
  5
8F9
330
1E
100
AcDbEntity
  8
7
100
AcDbLine
 10
-1.668307086614173
 20
-1.701771653543307
 30
0.0
 11
-1.668307086614173
 21
-1.699803149606299
 31
0.0
  0
LINE
  5
8FA
330
1E
100
AcDbEntity
  8
7
100
AcDbLine
 10
-1.668307086614173
 20
-1.661417322834645
 30
0.0
 11
-1.668307086614173
 21
-1.699803149606299
 31
0.0
  0
LINE
  5
8FB
330
1E
100
AcDbEntity
  8
7
100
AcDbLine
 10
-1.668307086614173
 20
-1.661417322834645
 30
0.0
 11
-1.668307086614173
 21
-1.660433070866141
 31
0.0
  0
LINE
  5
8FC
330
1E
100
AcDbEntity
  8
7
100
AcDbLine
 10
-1.668307086614173
 20
-1.659448818897637
 30
0.0
 11
-1.668307086614173
 21
-1.660433070866141
 31
0.0
  0
LINE
  5
8FD
330
1E
100
AcDbEntity
  8
7
100
AcDbLine
 10
-1.668307086614173
 20
-1.622047244094488
 30
0.0
 11
-1.668307086614173
 21
-1.659448818897637
 31
0.0
  0
LINE
  5
8FE
330
1E
100
AcDbEntity
  8
7
100
AcDbLine
 10
-1.668307086614173
 20
-1.622047244094488
 30
0.0
 11
-1.668307086614173
 21
-1.621062992125984
 31
0.0
  0
LINE
  5
8FF
330
1E
100
AcDbEntity
  8
7
100
AcDbLine
 10
-1.668307086614173
 20
-1.62007874015748
 30
0.0
 11
-1.668307086614173
 21
-1.621062992125984
 31
0.0
  0
LINE
  5
900
330
1E
100
AcDbEntity
  8
7
100
AcDbLine
 10
-1.668307086614173
 20
-1.619094488188976
 30
0.0
 11
-1.668307086614173
 21
-1.62007874015748
 31
0.0
  0
LINE
  5
901
330
1E
100
AcDbEntity
  8
7
100
AcDbLine
 10
-1.668307086614173
 20
-1.619094488188976
 30
0.0
 11
-1.668307086614173
 21
-1.581692913385826
 31
0.0
  0
LINE
  5
902
330
1E
100
AcDbEntity
  8
7
100
AcDbLine
 10
-1.668307086614173
 20
-1.579724409448818
 30
0.0
 11
-1.668307086614173
 21
-1.581692913385826
 31
0.0
  0
LWPOLYLINE
  5
903
330
1E
100
AcDbEntity
  8
7
100
AcDbPolyline
 90
        3
 70
     0
 43
0.0098425196850394
 10
-1.668307086614173
 20
-1.579724409448818
 10
-1.668307086614173
 20
-1.542322834645669
 10
-1.668307086614173
 20
-1.541338582677165
  0
LINE
  5
908
330
1E
100
AcDbEntity
  8
7
100
AcDbLine
 10
-1.668307086614173
 20
-1.540354330708661
 30
0.0
 11
-1.668307086614173
 21
-1.541338582677165
 31
0.0
  0
LINE
  5
909
330
1E
100
AcDbEntity
  8
7
100
AcDbLine
 10
-1.668307086614173
 20
-1.539370078740157
 30
0.0
 11
-1.668307086614173
 21
-1.540354330708661
 31
0.0
  0
LWPOLYLINE
  5
90A
330
1E
100
AcDbEntity
  8
7
100
AcDbPolyline
 90
        4
 70
     0
 43
0.0098425196850394
 10
-1.668307086614173
 20
-1.539370078740157
 10
-1.668307086614173
 20
-1.501968503937007
 10
-1.668307086614173
 20
-1.500984251968503
 10
-1.668307086614173
 20
-1.5
  0
LINE
  5
910
330
1E
100
AcDbEntity
  8
7
100
AcDbLine
 10
-1.668307086614173
 20
-1.499015748031496
 30
0.0
 11
-1.668307086614173
 21
-1.5
 31
0.0
  0
LINE
  5
911
330
1E
100
AcDbEntity
  8
7
100
AcDbLine
 10
-1.668307086614173
 20
-1.410433070866141
 30
0.0
 11
-1.668307086614173
 21
-1.461614173228346
 31
0.0
  0
LINE
  5
912
330
1E
100
AcDbEntity
  8
7
100
AcDbLine
 10
-1.52263779527559
 20
-1.554133858267716
 30
0.0
 11
-1.52263779527559
 21
-1.553149606299212
 31
0.0
  0
LINE
  5
913
330
1E
100
AcDbEntity
  8
7
100
AcDbLine
 10
-1.613188976377952
 20
-1.553149606299212
 30
0.0
 11
-1.613188976377952
 21
-1.554133858267716
 31
0.0
  0
LINE
  5
914
330
1E
100
AcDbEntity
  8
7
100
AcDbLine
 10
-1.52263779527559
 20
-1.608267716535433
 30
0.0
 11
-1.52263779527559
 21
-1.607283464566929
 31
0.0
  0
LINE
  5
915
330
1E
100
AcDbEntity
  8
7
100
AcDbLine
 10
-1.613188976377952
 20
-1.607283464566929
 30
0.0
 11
-1.613188976377952
 21
-1.608267716535433
 31
0.0
  0
LINE
  5
916
330
1E
100
AcDbEntity
  8
7
100
AcDbLine
 10
-1.52263779527559
 20
-1.488188976377952
 30
0.0
 11
-1.52263779527559
 21
-1.487204724409448
 31
0.0
  0
LINE
  5
917
330
1E
100
AcDbEntity
  8
7
100
AcDbLine
 10
-1.613188976377952
 20
-1.487204724409448
 30
0.0
 11
-1.613188976377952
 21
-1.488188976377952
 31
0.0
  0
LINE
  5
918
330
1E
100
AcDbEntity
  8
7
100
AcDbLine
 10
-1.52263779527559
 20
-1.752952755905511
 30
0.0
 11
-1.52263779527559
 21
-1.753937007874015
 31
0.0
  0
LINE
  5
919
330
1E
100
AcDbEntity
  8
7
100
AcDbLine
 10
-1.613188976377952
 20
-1.753937007874015
 30
0.0
 11
-1.613188976377952
 21
-1.752952755905511
 31
0.0
  0
LWPOLYLINE
  5
91A
330
1E
100
AcDbEntity
  8
7
100
AcDbPolyline
 90
        5
 70
     0
 43
0.0098425196850394
 10
-1.668307086614173
 20
-1.779527559055118
 10
-1.665354330708661
 20
-1.774606299212598
 10
-1.660433070866141
 20
-1.771653543307086
 10
-1.665354330708661
 20
-1.773622047244094
 10
-1.668307086614173
 20
-1.779527559055118
  0
LINE
  5
921
330
1E
100
AcDbEntity
  8
7
100
AcDbLine
 10
-1.637795275590551
 20
-1.771653543307086
 30
0.0
 11
-1.637795275590551
 21
-1.75
 31
0.0
  0
LWPOLYLINE
  5
922
330
1E
100
AcDbEntity
  8
7
100
AcDbPolyline
 90
        3
 70
     0
 43
0.0098425196850394
 10
-1.660433070866141
 20
-1.75
 10
-1.665354330708661
 20
-1.747047244094488
 10
-1.668307086614173
 20
-1.742125984251968
  0
LWPOLYLINE
  5
927
330
1E
100
AcDbEntity
  8
7
100
AcDbPolyline
 90
        3
 70
     0
 43
0.0098425196850394
 10
-1.668307086614173
 20
-1.500984251968503
 10
-1.692913385826771
 20
-1.500984251968503
 10
-1.694881889763779
 20
-1.502952755905511
  0
LINE
  5
92C
330
1E
100
AcDbEntity
  8
7
100
AcDbLine
 10
-1.668307086614173
 20
-1.502952755905511
 30
0.0
 11
-1.694881889763779
 21
-1.502952755905511
 31
0.0
  0
LWPOLYLINE
  5
92D
330
1E
100
AcDbEntity
  8
7
100
AcDbPolyline
 90
        3
 70
     0
 43
0.0098425196850394
 10
-1.668307086614173
 20
-1.739173228346456
 10
-1.694881889763779
 20
-1.739173228346456
 10
-1.692913385826771
 20
-1.74015748031496
  0
LINE
  5
932
330
1E
100
AcDbEntity
  8
7
100
AcDbLine
 10
-1.668307086614173
 20
-1.74015748031496
 30
0.0
 11
-1.692913385826771
 21
-1.74015748031496
 31
0.0
  0
LINE
  5
933
330
1E
100
AcDbEntity
  8
7
100
AcDbLine
 10
-1.693897637795275
 20
-1.500984251968503
 30
0.0
 11
-1.692913385826771
 21
-1.500984251968503
 31
0.0
  0
LINE
  5
934
330
1E
100
AcDbEntity
  8
7
100
AcDbLine
 10
-1.692913385826771
 20
-1.74015748031496
 30
0.0
 11
-1.693897637795275
 21
-1.74015748031496
 31
0.0
  0
LINE
  5
935
330
1E
100
AcDbEntity
  8
7
100
AcDbLine
 10
-1.694881889763779
 20
-1.502952755905511
 30
0.0
 11
-1.709645669291338
 21
-1.508858267716535
 31
0.0
  0
LINE
  5
936
330
1E
100
AcDbEntity
  8
7
100
AcDbLine
 10
-1.709645669291338
 20
-1.508858267716535
 30
0.0
 11
-1.714566929133858
 21
-1.52263779527559
 31
0.0
  0
LINE
  5
937
330
1E
100
AcDbEntity
  8
7
100
AcDbLine
 10
-1.714566929133858
 20
-1.718503937007874
 30
0.0
 11
-1.714566929133858
 21
-1.52263779527559
 31
0.0
  0
LWPOLYLINE
  5
938
330
1E
100
AcDbEntity
  8
7
100
AcDbPolyline
 90
        3
 70
     0
 43
0.0098425196850394
 10
-1.714566929133858
 20
-1.718503937007874
 10
-1.709645669291338
 20
-1.733267716535433
 10
-1.694881889763779
 20
-1.739173228346456
  0
LINE
  5
93D
330
1E
100
AcDbEntity
  8
7
100
AcDbLine
 10
-1.52263779527559
 20
-1.531496062992125
 30
0.0
 11
-1.52263779527559
 21
-1.52755905511811
 31
0.0
  0
LINE
  5
93E
330
1E
100
AcDbEntity
  8
7
100
AcDbLine
 10
-1.52263779527559
 20
-1.513779527559055
 30
0.0
 11
-1.52263779527559
 21
-1.509842519685039
 31
0.0
  0
LINE
  5
93F
330
1E
100
AcDbEntity
  8
7
100
AcDbLine
 10
-1.613188976377952
 20
-1.509842519685039
 30
0.0
 11
-1.613188976377952
 21
-1.513779527559055
 31
0.0
  0
LINE
  5
940
330
1E
100
AcDbEntity
  8
7
100
AcDbLine
 10
-1.613188976377952
 20
-1.52755905511811
 30
0.0
 11
-1.613188976377952
 21
-1.531496062992125
 31
0.0
  0
LINE
  5
941
330
1E
100
AcDbEntity
  8
7
100
AcDbLine
 10
-1.521653543307086
 20
-1.469488188976377
 30
0.0
 11
-1.521653543307086
 21
-1.473425196850393
 31
0.0
  0
LINE
  5
942
330
1E
100
AcDbEntity
  8
7
100
AcDbLine
 10
-1.521653543307086
 20
-1.487204724409448
 30
0.0
 11
-1.521653543307086
 21
-1.492125984251968
 31
0.0
  0
LINE
  5
943
330
1E
100
AcDbEntity
  8
7
100
AcDbLine
 10
-1.521653543307086
 20
-1.469488188976377
 30
0.0
 11
-1.521653543307086
 21
-1.473425196850393
 31
0.0
  0
LINE
  5
944
330
1E
100
AcDbEntity
  8
7
100
AcDbLine
 10
-1.521653543307086
 20
-1.491141732283464
 30
0.0
 11
-1.521653543307086
 21
-1.488188976377952
 31
0.0
  0
LINE
  5
945
330
1E
100
AcDbEntity
  8
7
100
AcDbLine
 10
-1.614173228346456
 20
-1.469488188976377
 30
0.0
 11
-1.614173228346456
 21
-1.473425196850393
 31
0.0
  0
LINE
  5
946
330
1E
100
AcDbEntity
  8
7
100
AcDbLine
 10
-1.614173228346456
 20
-1.487204724409448
 30
0.0
 11
-1.614173228346456
 21
-1.492125984251968
 31
0.0
  0
LINE
  5
947
330
1E
100
AcDbEntity
  8
7
100
AcDbLine
 10
-1.614173228346456
 20
-1.491141732283464
 30
0.0
 11
-1.613188976377952
 21
-1.488188976377952
 31
0.0
  0
LINE
  5
948
330
1E
100
AcDbEntity
  8
7
100
AcDbLine
 10
-1.614173228346456
 20
-1.469488188976377
 30
0.0
 11
-1.613188976377952
 21
-1.473425196850393
 31
0.0
  0
LINE
  5
949
330
1E
100
AcDbEntity
  8
7
100
AcDbLine
 10
-1.521653543307086
 20
-1.549212598425196
 30
0.0
 11
-1.521653543307086
 21
-1.554133858267716
 31
0.0
  0
LINE
  5
94A
330
1E
100
AcDbEntity
  8
7
100
AcDbLine
 10
-1.521653543307086
 20
-1.567913385826771
 30
0.0
 11
-1.521653543307086
 21
-1.571850393700787
 31
0.0
  0
LINE
  5
94B
330
1E
100
AcDbEntity
  8
7
100
AcDbLine
 10
-1.521653543307086
 20
-1.5501968503937
 30
0.0
 11
-1.521653543307086
 21
-1.553149606299212
 31
0.0
  0
LINE
  5
94C
330
1E
100
AcDbEntity
  8
7
100
AcDbLine
 10
-1.521653543307086
 20
-1.571850393700787
 30
0.0
 11
-1.521653543307086
 21
-1.567913385826771
 31
0.0
  0
LWPOLYLINE
  5
94D
330
1E
100
AcDbEntity
  8
7
100
AcDbPolyline
 90
        3
 70
     0
 43
0.0098425196850394
 10
-1.531496062992125
 20
-1.553149606299212
 10
-1.532480314960629
 20
-1.553149606299212
 10
-1.603346456692913
 20
-1.553149606299212
  0
LINE
  5
952
330
1E
100
AcDbEntity
  8
7
100
AcDbLine
 10
-1.604330708661417
 20
-1.553149606299212
 30
0.0
 11
-1.603346456692913
 21
-1.553149606299212
 31
0.0
  0
LINE
  5
953
330
1E
100
AcDbEntity
  8
7
100
AcDbLine
 10
-1.604330708661417
 20
-1.553149606299212
 30
0.0
 11
-1.613188976377952
 21
-1.553149606299212
 31
0.0
  0
LINE
  5
954
330
1E
100
AcDbEntity
  8
7
100
AcDbLine
 10
-1.521653543307086
 20
-1.553149606299212
 30
0.0
 11
-1.531496062992125
 21
-1.553149606299212
 31
0.0
  0
LINE
  5
955
330
1E
100
AcDbEntity
  8
7
100
AcDbLine
 10
-1.614173228346456
 20
-1.549212598425196
 30
0.0
 11
-1.614173228346456
 21
-1.554133858267716
 31
0.0
  0
LWPOLYLINE
  5
956
330
1E
100
AcDbEntity
  8
7
100
AcDbPolyline
 90
        3
 70
     0
 43
0.0098425196850394
 10
-1.614173228346456
 20
-1.567913385826771
 10
-1.614173228346456
 20
-1.571850393700787
 10
-1.613188976377952
 20
-1.567913385826771
  0
LINE
  5
95B
330
1E
100
AcDbEntity
  8
7
100
AcDbLine
 10
-1.614173228346456
 20
-1.5501968503937
 30
0.0
 11
-1.613188976377952
 21
-1.553149606299212
 31
0.0
  0
LWPOLYLINE
  5
95C
330
1E
100
AcDbEntity
  8
7
100
AcDbPolyline
 90
        3
 70
     0
 43
0.0098425196850394
 10
-1.604330708661417
 20
-1.567913385826771
 10
-1.603346456692913
 20
-1.567913385826771
 10
-1.532480314960629
 20
-1.567913385826771
  0
LINE
  5
961
330
1E
100
AcDbEntity
  8
7
100
AcDbLine
 10
-1.531496062992125
 20
-1.567913385826771
 30
0.0
 11
-1.532480314960629
 21
-1.567913385826771
 31
0.0
  0
LINE
  5
962
330
1E
100
AcDbEntity
  8
7
100
AcDbLine
 10
-1.531496062992125
 20
-1.567913385826771
 30
0.0
 11
-1.521653543307086
 21
-1.567913385826771
 31
0.0
  0
LINE
  5
963
330
1E
100
AcDbEntity
  8
7
100
AcDbLine
 10
-1.613188976377952
 20
-1.567913385826771
 30
0.0
 11
-1.604330708661417
 21
-1.567913385826771
 31
0.0
  0
LINE
  5
964
330
1E
100
AcDbEntity
  8
7
100
AcDbLine
 10
-1.521653543307086
 20
-1.589566929133858
 30
0.0
 11
-1.521653543307086
 21
-1.593503937007874
 31
0.0
  0
LINE
  5
965
330
1E
100
AcDbEntity
  8
7
100
AcDbLine
 10
-1.521653543307086
 20
-1.607283464566929
 30
0.0
 11
-1.521653543307086
 21
-1.611220472440944
 31
0.0
  0
LINE
  5
966
330
1E
100
AcDbEntity
  8
7
100
AcDbLine
 10
-1.521653543307086
 20
-1.589566929133858
 30
0.0
 11
-1.521653543307086
 21
-1.593503937007874
 31
0.0
  0
LINE
  5
967
330
1E
100
AcDbEntity
  8
7
100
AcDbLine
 10
-1.521653543307086
 20
-1.611220472440944
 30
0.0
 11
-1.521653543307086
 21
-1.608267716535433
 31
0.0
  0
LWPOLYLINE
  5
968
330
1E
100
AcDbEntity
  8
7
100
AcDbPolyline
 90
        3
 70
     0
 43
0.0098425196850394
 10
-1.531496062992125
 20
-1.593503937007874
 10
-1.532480314960629
 20
-1.593503937007874
 10
-1.603346456692913
 20
-1.593503937007874
  0
LINE
  5
96D
330
1E
100
AcDbEntity
  8
7
100
AcDbLine
 10
-1.604330708661417
 20
-1.593503937007874
 30
0.0
 11
-1.603346456692913
 21
-1.593503937007874
 31
0.0
  0
LINE
  5
96E
330
1E
100
AcDbEntity
  8
7
100
AcDbLine
 10
-1.604330708661417
 20
-1.593503937007874
 30
0.0
 11
-1.613188976377952
 21
-1.593503937007874
 31
0.0
  0
LINE
  5
96F
330
1E
100
AcDbEntity
  8
7
100
AcDbLine
 10
-1.521653543307086
 20
-1.593503937007874
 30
0.0
 11
-1.531496062992125
 21
-1.593503937007874
 31
0.0
  0
LINE
  5
970
330
1E
100
AcDbEntity
  8
7
100
AcDbLine
 10
-1.614173228346456
 20
-1.589566929133858
 30
0.0
 11
-1.614173228346456
 21
-1.593503937007874
 31
0.0
  0
LWPOLYLINE
  5
971
330
1E
100
AcDbEntity
  8
7
100
AcDbPolyline
 90
        3
 70
     0
 43
0.0098425196850394
 10
-1.614173228346456
 20
-1.607283464566929
 10
-1.614173228346456
 20
-1.611220472440944
 10
-1.613188976377952
 20
-1.608267716535433
  0
LINE
  5
976
330
1E
100
AcDbEntity
  8
7
100
AcDbLine
 10
-1.614173228346456
 20
-1.589566929133858
 30
0.0
 11
-1.613188976377952
 21
-1.593503937007874
 31
0.0
  0
LINE
  5
977
330
1E
100
AcDbEntity
  8
7
100
AcDbLine
 10
-1.604330708661417
 20
-1.608267716535433
 30
0.0
 11
-1.603346456692913
 21
-1.608267716535433
 31
0.0
  0
LINE
  5
978
330
1E
100
AcDbEntity
  8
7
100
AcDbLine
 10
-1.603346456692913
 20
-1.608267716535433
 30
0.0
 11
-1.532480314960629
 21
-1.608267716535433
 31
0.0
  0
LINE
  5
979
330
1E
100
AcDbEntity
  8
7
100
AcDbLine
 10
-1.531496062992125
 20
-1.608267716535433
 30
0.0
 11
-1.532480314960629
 21
-1.608267716535433
 31
0.0
  0
LINE
  5
97A
330
1E
100
AcDbEntity
  8
7
100
AcDbLine
 10
-1.531496062992125
 20
-1.608267716535433
 30
0.0
 11
-1.521653543307086
 21
-1.608267716535433
 31
0.0
  0
LINE
  5
97B
330
1E
100
AcDbEntity
  8
7
100
AcDbLine
 10
-1.613188976377952
 20
-1.608267716535433
 30
0.0
 11
-1.604330708661417
 21
-1.608267716535433
 31
0.0
  0
LINE
  5
97C
330
1E
100
AcDbEntity
  8
7
100
AcDbLine
 10
-1.521653543307086
 20
-1.651574803149606
 30
0.0
 11
-1.521653543307086
 21
-1.64763779527559
 31
0.0
  0
LWPOLYLINE
  5
97D
330
1E
100
AcDbEntity
  8
7
100
AcDbPolyline
 90
        4
 70
     0
 43
0.0098425196850394
 10
-1.521653543307086
 20
-1.633858267716535
 10
-1.521653543307086
 20
-1.629921259842519
 10
-1.521653543307086
 20
-1.632874015748031
 10
-1.521653543307086
 20
-1.633858267716535
  0
LINE
  5
983
330
1E
100
AcDbEntity
  8
7
100
AcDbLine
 10
-1.521653543307086
 20
-1.648622047244094
 30
0.0
 11
-1.521653543307086
 21
-1.64763779527559
 31
0.0
  0
LINE
  5
984
330
1E
100
AcDbEntity
  8
7
100
AcDbLine
 10
-1.521653543307086
 20
-1.651574803149606
 30
0.0
 11
-1.521653543307086
 21
-1.648622047244094
 31
0.0
  0
LINE
  5
985
330
1E
100
AcDbEntity
  8
7
100
AcDbLine
 10
-1.531496062992125
 20
-1.633858267716535
 30
0.0
 11
-1.532480314960629
 21
-1.633858267716535
 31
0.0
  0
LINE
  5
986
330
1E
100
AcDbEntity
  8
7
100
AcDbLine
 10
-1.603346456692913
 20
-1.633858267716535
 30
0.0
 11
-1.532480314960629
 21
-1.633858267716535
 31
0.0
  0
LINE
  5
987
330
1E
100
AcDbEntity
  8
7
100
AcDbLine
 10
-1.604330708661417
 20
-1.633858267716535
 30
0.0
 11
-1.603346456692913
 21
-1.633858267716535
 31
0.0
  0
LINE
  5
988
330
1E
100
AcDbEntity
  8
7
100
AcDbLine
 10
-1.613188976377952
 20
-1.633858267716535
 30
0.0
 11
-1.604330708661417
 21
-1.633858267716535
 31
0.0
  0
LINE
  5
989
330
1E
100
AcDbEntity
  8
7
100
AcDbLine
 10
-1.531496062992125
 20
-1.633858267716535
 30
0.0
 11
-1.521653543307086
 21
-1.633858267716535
 31
0.0
  0
LINE
  5
98A
330
1E
100
AcDbEntity
  8
7
100
AcDbLine
 10
-1.614173228346456
 20
-1.651574803149606
 30
0.0
 11
-1.614173228346456
 21
-1.64763779527559
 31
0.0
  0
LINE
  5
98B
330
1E
100
AcDbEntity
  8
7
100
AcDbLine
 10
-1.614173228346456
 20
-1.633858267716535
 30
0.0
 11
-1.614173228346456
 21
-1.629921259842519
 31
0.0
  0
LINE
  5
98C
330
1E
100
AcDbEntity
  8
7
100
AcDbLine
 10
-1.614173228346456
 20
-1.651574803149606
 30
0.0
 11
-1.613188976377952
 21
-1.648622047244094
 31
0.0
  0
LINE
  5
98D
330
1E
100
AcDbEntity
  8
7
100
AcDbLine
 10
-1.613188976377952
 20
-1.64763779527559
 30
0.0
 11
-1.613188976377952
 21
-1.648622047244094
 31
0.0
  0
LINE
  5
98E
330
1E
100
AcDbEntity
  8
7
100
AcDbLine
 10
-1.613188976377952
 20
-1.632874015748031
 30
0.0
 11
-1.613188976377952
 21
-1.633858267716535
 31
0.0
  0
LINE
  5
98F
330
1E
100
AcDbEntity
  8
7
100
AcDbLine
 10
-1.614173228346456
 20
-1.629921259842519
 30
0.0
 11
-1.613188976377952
 21
-1.632874015748031
 31
0.0
  0
LINE
  5
990
330
1E
100
AcDbEntity
  8
7
100
AcDbLine
 10
-1.604330708661417
 20
-1.64763779527559
 30
0.0
 11
-1.603346456692913
 21
-1.64763779527559
 31
0.0
  0
LINE
  5
991
330
1E
100
AcDbEntity
  8
7
100
AcDbLine
 10
-1.532480314960629
 20
-1.64763779527559
 30
0.0
 11
-1.603346456692913
 21
-1.64763779527559
 31
0.0
  0
LINE
  5
992
330
1E
100
AcDbEntity
  8
7
100
AcDbLine
 10
-1.531496062992125
 20
-1.64763779527559
 30
0.0
 11
-1.532480314960629
 21
-1.64763779527559
 31
0.0
  0
LINE
  5
993
330
1E
100
AcDbEntity
  8
7
100
AcDbLine
 10
-1.521653543307086
 20
-1.64763779527559
 30
0.0
 11
-1.531496062992125
 21
-1.64763779527559
 31
0.0
  0
LINE
  5
994
330
1E
100
AcDbEntity
  8
7
100
AcDbLine
 10
-1.604330708661417
 20
-1.64763779527559
 30
0.0
 11
-1.613188976377952
 21
-1.64763779527559
 31
0.0
  0
LINE
  5
995
330
1E
100
AcDbEntity
  8
7
100
AcDbLine
 10
-1.521653543307086
 20
-1.691929133858267
 30
0.0
 11
-1.521653543307086
 21
-1.687992125984251
 31
0.0
  0
LWPOLYLINE
  5
996
330
1E
100
AcDbEntity
  8
7
100
AcDbPolyline
 90
        3
 70
     0
 43
0.0098425196850394
 10
-1.521653543307086
 20
-1.673228346456692
 10
-1.521653543307086
 20
-1.669291338582677
 10
-1.521653543307086
 20
-1.673228346456692
  0
LINE
  5
99B
330
1E
100
AcDbEntity
  8
7
100
AcDbLine
 10
-1.521653543307086
 20
-1.691929133858267
 30
0.0
 11
-1.521653543307086
 21
-1.687992125984251
 31
0.0
  0
LINE
  5
99C
330
1E
100
AcDbEntity
  8
7
100
AcDbLine
 10
-1.531496062992125
 20
-1.673228346456692
 30
0.0
 11
-1.532480314960629
 21
-1.673228346456692
 31
0.0
  0
LINE
  5
99D
330
1E
100
AcDbEntity
  8
7
100
AcDbLine
 10
-1.603346456692913
 20
-1.673228346456692
 30
0.0
 11
-1.532480314960629
 21
-1.673228346456692
 31
0.0
  0
LINE
  5
99E
330
1E
100
AcDbEntity
  8
7
100
AcDbLine
 10
-1.604330708661417
 20
-1.673228346456692
 30
0.0
 11
-1.603346456692913
 21
-1.673228346456692
 31
0.0
  0
LINE
  5
99F
330
1E
100
AcDbEntity
  8
7
100
AcDbLine
 10
-1.613188976377952
 20
-1.673228346456692
 30
0.0
 11
-1.604330708661417
 21
-1.673228346456692
 31
0.0
  0
LINE
  5
9A0
330
1E
100
AcDbEntity
  8
7
100
AcDbLine
 10
-1.531496062992125
 20
-1.673228346456692
 30
0.0
 11
-1.521653543307086
 21
-1.673228346456692
 31
0.0
  0
LINE
  5
9A1
330
1E
100
AcDbEntity
  8
7
100
AcDbLine
 10
-1.614173228346456
 20
-1.691929133858267
 30
0.0
 11
-1.614173228346456
 21
-1.687992125984251
 31
0.0
  0
LINE
  5
9A2
330
1E
100
AcDbEntity
  8
7
100
AcDbLine
 10
-1.614173228346456
 20
-1.673228346456692
 30
0.0
 11
-1.614173228346456
 21
-1.669291338582677
 31
0.0
  0
LINE
  5
9A3
330
1E
100
AcDbEntity
  8
7
100
AcDbLine
 10
-1.614173228346456
 20
-1.691929133858267
 30
0.0
 11
-1.613188976377952
 21
-1.687992125984251
 31
0.0
  0
LINE
  5
9A4
330
1E
100
AcDbEntity
  8
7
100
AcDbLine
 10
-1.614173228346456
 20
-1.669291338582677
 30
0.0
 11
-1.613188976377952
 21
-1.673228346456692
 31
0.0
  0
LINE
  5
9A5
330
1E
100
AcDbEntity
  8
7
100
AcDbLine
 10
-1.604330708661417
 20
-1.687992125984251
 30
0.0
 11
-1.603346456692913
 21
-1.687992125984251
 31
0.0
  0
LINE
  5
9A6
330
1E
100
AcDbEntity
  8
7
100
AcDbLine
 10
-1.532480314960629
 20
-1.687992125984251
 30
0.0
 11
-1.603346456692913
 21
-1.687992125984251
 31
0.0
  0
LINE
  5
9A7
330
1E
100
AcDbEntity
  8
7
100
AcDbLine
 10
-1.531496062992125
 20
-1.687992125984251
 30
0.0
 11
-1.532480314960629
 21
-1.687992125984251
 31
0.0
  0
LINE
  5
9A8
330
1E
100
AcDbEntity
  8
7
100
AcDbLine
 10
-1.521653543307086
 20
-1.687992125984251
 30
0.0
 11
-1.531496062992125
 21
-1.687992125984251
 31
0.0
  0
LINE
  5
9A9
330
1E
100
AcDbEntity
  8
7
100
AcDbLine
 10
-1.604330708661417
 20
-1.687992125984251
 30
0.0
 11
-1.613188976377952
 21
-1.687992125984251
 31
0.0
  0
LINE
  5
9AA
330
1E
100
AcDbEntity
  8
7
100
AcDbLine
 10
-1.52263779527559
 20
-1.731299212598425
 30
0.0
 11
-1.52263779527559
 21
-1.727362204724409
 31
0.0
  0
LINE
  5
9AB
330
1E
100
AcDbEntity
  8
7
100
AcDbLine
 10
-1.52263779527559
 20
-1.731299212598425
 30
0.0
 11
-1.52263779527559
 21
-1.727362204724409
 31
0.0
  0
LINE
  5
9AC
330
1E
100
AcDbEntity
  8
7
100
AcDbLine
 10
-1.52263779527559
 20
-1.713582677165354
 30
0.0
 11
-1.52263779527559
 21
-1.709645669291338
 31
0.0
  0
LINE
  5
9AD
330
1E
100
AcDbEntity
  8
7
100
AcDbLine
 10
-1.613188976377952
 20
-1.709645669291338
 30
0.0
 11
-1.613188976377952
 21
-1.713582677165354
 31
0.0
  0
LINE
  5
9AE
330
1E
100
AcDbEntity
  8
7
100
AcDbLine
 10
-1.613188976377952
 20
-1.727362204724409
 30
0.0
 11
-1.613188976377952
 21
-1.731299212598425
 31
0.0
  0
LINE
  5
9AF
330
1E
100
AcDbEntity
  8
7
100
AcDbLine
 10
-1.613188976377952
 20
-1.727362204724409
 30
0.0
 11
-1.613188976377952
 21
-1.731299212598425
 31
0.0
  0
LINE
  5
9B0
330
1E
100
AcDbEntity
  8
7
100
AcDbLine
 10
-1.521653543307086
 20
-1.771653543307086
 30
0.0
 11
-1.521653543307086
 21
-1.76771653543307
 31
0.0
  0
LWPOLYLINE
  5
9B1
330
1E
100
AcDbEntity
  8
7
100
AcDbPolyline
 90
        3
 70
     0
 43
0.0098425196850394
 10
-1.521653543307086
 20
-1.753937007874015
 10
-1.521653543307086
 20
-1.75
 10
-1.521653543307086
 20
-1.752952755905511
  0
LINE
  5
9B6
330
1E
100
AcDbEntity
  8
7
100
AcDbLine
 10
-1.521653543307086
 20
-1.768700787401574
 30
0.0
 11
-1.521653543307086
 21
-1.76771653543307
 31
0.0
  0
LINE
  5
9B7
330
1E
100
AcDbEntity
  8
7
100
AcDbLine
 10
-1.521653543307086
 20
-1.771653543307086
 30
0.0
 11
-1.521653543307086
 21
-1.768700787401574
 31
0.0
  0
LINE
  5
9B8
330
1E
100
AcDbEntity
  8
7
100
AcDbLine
 10
-1.614173228346456
 20
-1.771653543307086
 30
0.0
 11
-1.614173228346456
 21
-1.76771653543307
 31
0.0
  0
LINE
  5
9B9
330
1E
100
AcDbEntity
  8
7
100
AcDbLine
 10
-1.614173228346456
 20
-1.753937007874015
 30
0.0
 11
-1.614173228346456
 21
-1.75
 31
0.0
  0
LINE
  5
9BA
330
1E
100
AcDbEntity
  8
7
100
AcDbLine
 10
-1.614173228346456
 20
-1.771653543307086
 30
0.0
 11
-1.613188976377952
 21
-1.768700787401574
 31
0.0
  0
LINE
  5
9BB
330
1E
100
AcDbEntity
  8
7
100
AcDbLine
 10
-1.613188976377952
 20
-1.76771653543307
 30
0.0
 11
-1.613188976377952
 21
-1.768700787401574
 31
0.0
  0
LINE
  5
9BC
330
1E
100
AcDbEntity
  8
7
100
AcDbLine
 10
-1.614173228346456
 20
-1.75
 30
0.0
 11
-1.613188976377952
 21
-1.752952755905511
 31
0.0
  0
LWPOLYLINE
  5
9BD
330
1E
100
AcDbEntity
  8
7
100
AcDbPolyline
 90
        3
 70
     0
 43
0.0098425196850394
 10
-1.668307086614173
 20
-1.741141732283464
 10
-1.665354330708661
 20
-1.747047244094488
 10
-1.660433070866141
 20
-1.749015748031496
  0
LWPOLYLINE
  5
9C2
330
1E
100
AcDbEntity
  8
7
100
AcDbPolyline
 90
        3
 70
     0
 43
0.0098425196850394
 10
-1.668307086614173
 20
-1.74015748031496
 10
-1.665354330708661
 20
-1.734251968503937
 10
-1.660433070866141
 20
-1.732283464566929
  0
LWPOLYLINE
  5
9C7
330
1E
100
AcDbEntity
  8
7
100
AcDbPolyline
 90
        3
 70
     0
 43
0.0098425196850394
 10
-1.660433070866141
 20
-1.731299212598425
 10
-1.665354330708661
 20
-1.734251968503937
 10
-1.668307086614173
 20
-1.739173228346456
  0
LINE
  5
9CC
330
1E
100
AcDbEntity
  8
7
100
AcDbLine
 10
-1.637795275590551
 20
-1.731299212598425
 30
0.0
 11
-1.637795275590551
 21
-1.709645669291338
 31
0.0
  0
LWPOLYLINE
  5
9CD
330
1E
100
AcDbEntity
  8
7
100
AcDbPolyline
 90
        5
 70
     0
 43
0.0098425196850394
 10
-1.660433070866141
 20
-1.709645669291338
 10
-1.665354330708661
 20
-1.70767716535433
 10
-1.668307086614173
 20
-1.701771653543307
 10
-1.665354330708661
 20
-1.706692913385826
 10
-1.660433070866141
 20
-1.709645669291338
  0
LWPOLYLINE
  5
9D4
330
1E
100
AcDbEntity
  8
7
100
AcDbPolyline
 90
        5
 70
     0
 43
0.0098425196850394
 10
-1.668307086614173
 20
-1.699803149606299
 10
-1.665354330708661
 20
-1.693897637795275
 10
-1.660433070866141
 20
-1.691929133858267
 10
-1.665354330708661
 20
-1.693897637795275
 10
-1.668307086614173
 20
-1.699803149606299
  0
LINE
  5
9DB
330
1E
100
AcDbEntity
  8
7
100
AcDbLine
 10
-1.637795275590551
 20
-1.691929133858267
 30
0.0
 11
-1.637795275590551
 21
-1.669291338582677
 31
0.0
  0
LWPOLYLINE
  5
9DC
330
1E
100
AcDbEntity
  8
7
100
AcDbPolyline
 90
        5
 70
     0
 43
0.0098425196850394
 10
-1.660433070866141
 20
-1.670275590551181
 10
-1.665354330708661
 20
-1.667322834645669
 10
-1.668307086614173
 20
-1.661417322834645
 10
-1.665354330708661
 20
-1.667322834645669
 10
-1.660433070866141
 20
-1.669291338582677
  0
LWPOLYLINE
  5
9E3
330
1E
100
AcDbEntity
  8
7
100
AcDbPolyline
 90
        5
 70
     0
 43
0.0098425196850394
 10
-1.668307086614173
 20
-1.660433070866141
 10
-1.665354330708661
 20
-1.654527559055118
 10
-1.660433070866141
 20
-1.651574803149606
 10
-1.665354330708661
 20
-1.653543307086614
 10
-1.668307086614173
 20
-1.659448818897637
  0
LINE
  5
9EA
330
1E
100
AcDbEntity
  8
7
100
AcDbLine
 10
-1.637795275590551
 20
-1.651574803149606
 30
0.0
 11
-1.637795275590551
 21
-1.629921259842519
 31
0.0
  0
LWPOLYLINE
  5
9EB
330
1E
100
AcDbEntity
  8
7
100
AcDbPolyline
 90
        3
 70
     0
 43
0.0098425196850394
 10
-1.660433070866141
 20
-1.629921259842519
 10
-1.665354330708661
 20
-1.627952755905511
 10
-1.668307086614173
 20
-1.622047244094488
  0
LWPOLYLINE
  5
9F0
330
1E
100
AcDbEntity
  8
7
100
AcDbPolyline
 90
        3
 70
     0
 43
0.0098425196850394
 10
-1.668307086614173
 20
-1.621062992125984
 10
-1.665354330708661
 20
-1.626968503937007
 10
-1.660433070866141
 20
-1.628937007874015
  0
LWPOLYLINE
  5
9F5
330
1E
100
AcDbEntity
  8
7
100
AcDbPolyline
 90
        3
 70
     0
 43
0.0098425196850394
 10
-1.668307086614173
 20
-1.62007874015748
 10
-1.665354330708661
 20
-1.614173228346456
 10
-1.660433070866141
 20
-1.612204724409448
  0
LWPOLYLINE
  5
9FA
330
1E
100
AcDbEntity
  8
7
100
AcDbPolyline
 90
        3
 70
     0
 43
0.0098425196850394
 10
-1.660433070866141
 20
-1.611220472440944
 10
-1.665354330708661
 20
-1.614173228346456
 10
-1.668307086614173
 20
-1.619094488188976
  0
LINE
  5
9FF
330
1E
100
AcDbEntity
  8
7
100
AcDbLine
 10
-1.637795275590551
 20
-1.589566929133858
 30
0.0
 11
-1.637795275590551
 21
-1.611220472440944
 31
0.0
  0
LWPOLYLINE
  5
A00
330
1E
100
AcDbEntity
  8
7
100
AcDbPolyline
 90
        5
 70
     0
 43
0.0098425196850394
 10
-1.660433070866141
 20
-1.589566929133858
 10
-1.665354330708661
 20
-1.58759842519685
 10
-1.668307086614173
 20
-1.581692913385826
 10
-1.665354330708661
 20
-1.586614173228346
 10
-1.660433070866141
 20
-1.589566929133858
  0
LWPOLYLINE
  5
A07
330
1E
100
AcDbEntity
  8
7
100
AcDbPolyline
 90
        5
 70
     0
 43
0.0098425196850394
 10
-1.668307086614173
 20
-1.579724409448818
 10
-1.665354330708661
 20
-1.573818897637795
 10
-1.660433070866141
 20
-1.571850393700787
 10
-1.665354330708661
 20
-1.573818897637795
 10
-1.668307086614173
 20
-1.579724409448818
  0
LINE
  5
A0E
330
1E
100
AcDbEntity
  8
7
100
AcDbLine
 10
-1.637795275590551
 20
-1.549212598425196
 30
0.0
 11
-1.637795275590551
 21
-1.571850393700787
 31
0.0
  0
LWPOLYLINE
  5
A0F
330
1E
100
AcDbEntity
  8
7
100
AcDbPolyline
 90
        3
 70
     0
 43
0.0098425196850394
 10
-1.660433070866141
 20
-1.5501968503937
 10
-1.665354330708661
 20
-1.547244094488188
 10
-1.668307086614173
 20
-1.542322834645669
  0
LWPOLYLINE
  5
A14
330
1E
100
AcDbEntity
  8
7
100
AcDbPolyline
 90
        3
 70
     0
 43
0.0098425196850394
 10
-1.668307086614173
 20
-1.541338582677165
 10
-1.665354330708661
 20
-1.547244094488188
 10
-1.660433070866141
 20
-1.549212598425196
  0
LWPOLYLINE
  5
A19
330
1E
100
AcDbEntity
  8
7
100
AcDbPolyline
 90
        5
 70
     0
 43
0.0098425196850394
 10
-1.668307086614173
 20
-1.540354330708661
 10
-1.665354330708661
 20
-1.534448818897637
 10
-1.660433070866141
 20
-1.531496062992125
 10
-1.665354330708661
 20
-1.533464566929133
 10
-1.668307086614173
 20
-1.539370078740157
  0
LINE
  5
A20
330
1E
100
AcDbEntity
  8
7
100
AcDbLine
 10
-1.637795275590551
 20
-1.509842519685039
 30
0.0
 11
-1.637795275590551
 21
-1.531496062992125
 31
0.0
  0
LWPOLYLINE
  5
A21
330
1E
100
AcDbEntity
  8
7
100
AcDbPolyline
 90
        3
 70
     0
 43
0.0098425196850394
 10
-1.660433070866141
 20
-1.509842519685039
 10
-1.665354330708661
 20
-1.507874015748031
 10
-1.668307086614173
 20
-1.501968503937007
  0
LWPOLYLINE
  5
A26
330
1E
100
AcDbEntity
  8
7
100
AcDbPolyline
 90
        3
 70
     0
 43
0.0098425196850394
 10
-1.668307086614173
 20
-1.500984251968503
 10
-1.665354330708661
 20
-1.506889763779527
 10
-1.660433070866141
 20
-1.508858267716535
  0
LWPOLYLINE
  5
A2B
330
1E
100
AcDbEntity
  8
7
100
AcDbPolyline
 90
        3
 70
     0
 43
0.0098425196850394
 10
-1.668307086614173
 20
-1.5
 10
-1.665354330708661
 20
-1.494094488188976
 10
-1.660433070866141
 20
-1.492125984251968
  0
LINE
  5
A30
330
1E
100
AcDbEntity
  8
7
100
AcDbLine
 10
-1.603346456692913
 20
-1.728346456692913
 30
0.0
 11
-1.603346456692913
 21
-1.731299212598425
 31
0.0
  0
LINE
  5
A31
330
1E
100
AcDbEntity
  8
7
100
AcDbLine
 10
-1.531496062992125
 20
-1.728346456692913
 30
0.0
 11
-1.531496062992125
 21
-1.731299212598425
 31
0.0
  0
LINE
  5
A32
330
1E
100
AcDbEntity
  8
7
100
AcDbLine
 10
-1.521653543307086
 20
-1.488188976377952
 30
0.0
 11
-1.531496062992125
 21
-1.488188976377952
 31
0.0
  0
LINE
  5
A33
330
1E
100
AcDbEntity
  8
7
100
AcDbLine
 10
-1.531496062992125
 20
-1.491141732283464
 30
0.0
 11
-1.531496062992125
 21
-1.488188976377952
 31
0.0
  0
LWPOLYLINE
  5
A34
330
1E
100
AcDbEntity
  8
7
100
AcDbPolyline
 90
        3
 70
     0
 43
0.0098425196850394
 10
-1.603346456692913
 20
-1.491141732283464
 10
-1.604330708661417
 20
-1.488188976377952
 10
-1.613188976377952
 20
-1.488188976377952
  0
LINE
  5
A39
330
1E
100
AcDbEntity
  8
7
100
AcDbLine
 10
-1.531496062992125
 20
-1.488188976377952
 30
0.0
 11
-1.532480314960629
 21
-1.488188976377952
 31
0.0
  0
LINE
  5
A3A
330
1E
100
AcDbEntity
  8
7
100
AcDbLine
 10
-1.532480314960629
 20
-1.492125984251968
 30
0.0
 11
-1.532480314960629
 21
-1.488188976377952
 31
0.0
  0
LINE
  5
A3B
330
1E
100
AcDbEntity
  8
7
100
AcDbLine
 10
-1.603346456692913
 20
-1.492125984251968
 30
0.0
 11
-1.603346456692913
 21
-1.488188976377952
 31
0.0
  0
LINE
  5
A3C
330
1E
100
AcDbEntity
  8
7
100
AcDbLine
 10
-1.604330708661417
 20
-1.488188976377952
 30
0.0
 11
-1.603346456692913
 21
-1.488188976377952
 31
0.0
  0
LWPOLYLINE
  5
A3D
330
1E
100
AcDbEntity
  8
7
100
AcDbPolyline
 90
        3
 70
     0
 43
0.0098425196850394
 10
-1.531496062992125
 20
-1.5501968503937
 10
-1.531496062992125
 20
-1.553149606299212
 10
-1.521653543307086
 20
-1.553149606299212
  0
LINE
  5
A42
330
1E
100
AcDbEntity
  8
7
100
AcDbLine
 10
-1.521653543307086
 20
-1.567913385826771
 30
0.0
 11
-1.531496062992125
 21
-1.567913385826771
 31
0.0
  0
LINE
  5
A43
330
1E
100
AcDbEntity
  8
7
100
AcDbLine
 10
-1.531496062992125
 20
-1.571850393700787
 30
0.0
 11
-1.531496062992125
 21
-1.567913385826771
 31
0.0
  0
LINE
  5
A44
330
1E
100
AcDbEntity
  8
7
100
AcDbLine
 10
-1.603346456692913
 20
-1.549212598425196
 30
0.0
 11
-1.603346456692913
 21
-1.553149606299212
 31
0.0
  0
LINE
  5
A45
330
1E
100
AcDbEntity
  8
7
100
AcDbLine
 10
-1.603346456692913
 20
-1.5501968503937
 30
0.0
 11
-1.604330708661417
 21
-1.553149606299212
 31
0.0
  0
LINE
  5
A46
330
1E
100
AcDbEntity
  8
7
100
AcDbLine
 10
-1.613188976377952
 20
-1.553149606299212
 30
0.0
 11
-1.604330708661417
 21
-1.553149606299212
 31
0.0
  0
LINE
  5
A47
330
1E
100
AcDbEntity
  8
7
100
AcDbLine
 10
-1.532480314960629
 20
-1.549212598425196
 30
0.0
 11
-1.532480314960629
 21
-1.553149606299212
 31
0.0
  0
LWPOLYLINE
  5
A48
330
1E
100
AcDbEntity
  8
7
100
AcDbPolyline
 90
        3
 70
     0
 43
0.0098425196850394
 10
-1.603346456692913
 20
-1.571850393700787
 10
-1.604330708661417
 20
-1.567913385826771
 10
-1.613188976377952
 20
-1.567913385826771
  0
LINE
  5
A4D
330
1E
100
AcDbEntity
  8
7
100
AcDbLine
 10
-1.532480314960629
 20
-1.571850393700787
 30
0.0
 11
-1.532480314960629
 21
-1.567913385826771
 31
0.0
  0
LINE
  5
A4E
330
1E
100
AcDbEntity
  8
7
100
AcDbLine
 10
-1.603346456692913
 20
-1.571850393700787
 30
0.0
 11
-1.603346456692913
 21
-1.567913385826771
 31
0.0
  0
LWPOLYLINE
  5
A4F
330
1E
100
AcDbEntity
  8
7
100
AcDbPolyline
 90
        3
 70
     0
 43
0.0098425196850394
 10
-1.531496062992125
 20
-1.589566929133858
 10
-1.531496062992125
 20
-1.593503937007874
 10
-1.521653543307086
 20
-1.593503937007874
  0
LINE
  5
A54
330
1E
100
AcDbEntity
  8
7
100
AcDbLine
 10
-1.521653543307086
 20
-1.608267716535433
 30
0.0
 11
-1.531496062992125
 21
-1.608267716535433
 31
0.0
  0
LINE
  5
A55
330
1E
100
AcDbEntity
  8
7
100
AcDbLine
 10
-1.531496062992125
 20
-1.611220472440944
 30
0.0
 11
-1.531496062992125
 21
-1.608267716535433
 31
0.0
  0
LINE
  5
A56
330
1E
100
AcDbEntity
  8
7
100
AcDbLine
 10
-1.603346456692913
 20
-1.589566929133858
 30
0.0
 11
-1.603346456692913
 21
-1.593503937007874
 31
0.0
  0
LINE
  5
A57
330
1E
100
AcDbEntity
  8
7
100
AcDbLine
 10
-1.603346456692913
 20
-1.589566929133858
 30
0.0
 11
-1.604330708661417
 21
-1.593503937007874
 31
0.0
  0
LINE
  5
A58
330
1E
100
AcDbEntity
  8
7
100
AcDbLine
 10
-1.613188976377952
 20
-1.593503937007874
 30
0.0
 11
-1.604330708661417
 21
-1.593503937007874
 31
0.0
  0
LINE
  5
A59
330
1E
100
AcDbEntity
  8
7
100
AcDbLine
 10
-1.532480314960629
 20
-1.589566929133858
 30
0.0
 11
-1.532480314960629
 21
-1.593503937007874
 31
0.0
  0
LINE
  5
A5A
330
1E
100
AcDbEntity
  8
7
100
AcDbLine
 10
-1.603346456692913
 20
-1.611220472440944
 30
0.0
 11
-1.604330708661417
 21
-1.608267716535433
 31
0.0
  0
LINE
  5
A5B
330
1E
100
AcDbEntity
  8
7
100
AcDbLine
 10
-1.604330708661417
 20
-1.608267716535433
 30
0.0
 11
-1.613188976377952
 21
-1.608267716535433
 31
0.0
  0
LINE
  5
A5C
330
1E
100
AcDbEntity
  8
7
100
AcDbLine
 10
-1.532480314960629
 20
-1.612204724409448
 30
0.0
 11
-1.532480314960629
 21
-1.608267716535433
 31
0.0
  0
LINE
  5
A5D
330
1E
100
AcDbEntity
  8
7
100
AcDbLine
 10
-1.603346456692913
 20
-1.612204724409448
 30
0.0
 11
-1.603346456692913
 21
-1.608267716535433
 31
0.0
  0
LINE
  5
A5E
330
1E
100
AcDbEntity
  8
7
100
AcDbLine
 10
-1.531496062992125
 20
-1.629921259842519
 30
0.0
 11
-1.531496062992125
 21
-1.632874015748031
 31
0.0
  0
LWPOLYLINE
  5
A5F
330
1E
100
AcDbEntity
  8
7
100
AcDbPolyline
 90
        3
 70
     0
 43
0.0098425196850394
 10
-1.521653543307086
 20
-1.632874015748031
 10
-1.531496062992125
 20
-1.632874015748031
 10
-1.531496062992125
 20
-1.633858267716535
  0
LWPOLYLINE
  5
A64
330
1E
100
AcDbEntity
  8
7
100
AcDbPolyline
 90
        3
 70
     0
 43
0.0098425196850394
 10
-1.531496062992125
 20
-1.64763779527559
 10
-1.531496062992125
 20
-1.648622047244094
 10
-1.521653543307086
 20
-1.648622047244094
  0
LINE
  5
A69
330
1E
100
AcDbEntity
  8
7
100
AcDbLine
 10
-1.531496062992125
 20
-1.651574803149606
 30
0.0
 11
-1.531496062992125
 21
-1.648622047244094
 31
0.0
  0
LINE
  5
A6A
330
1E
100
AcDbEntity
  8
7
100
AcDbLine
 10
-1.603346456692913
 20
-1.628937007874015
 30
0.0
 11
-1.603346456692913
 21
-1.633858267716535
 31
0.0
  0
LINE
  5
A6B
330
1E
100
AcDbEntity
  8
7
100
AcDbLine
 10
-1.603346456692913
 20
-1.629921259842519
 30
0.0
 11
-1.604330708661417
 21
-1.632874015748031
 31
0.0
  0
LWPOLYLINE
  5
A6C
330
1E
100
AcDbEntity
  8
7
100
AcDbPolyline
 90
        3
 70
     0
 43
0.0098425196850394
 10
-1.604330708661417
 20
-1.633858267716535
 10
-1.604330708661417
 20
-1.632874015748031
 10
-1.613188976377952
 20
-1.632874015748031
  0
LINE
  5
A71
330
1E
100
AcDbEntity
  8
7
100
AcDbLine
 10
-1.532480314960629
 20
-1.628937007874015
 30
0.0
 11
-1.532480314960629
 21
-1.633858267716535
 31
0.0
  0
LINE
  5
A72
330
1E
100
AcDbEntity
  8
7
100
AcDbLine
 10
-1.603346456692913
 20
-1.651574803149606
 30
0.0
 11
-1.604330708661417
 21
-1.648622047244094
 31
0.0
  0
LWPOLYLINE
  5
A73
330
1E
100
AcDbEntity
  8
7
100
AcDbPolyline
 90
        3
 70
     0
 43
0.0098425196850394
 10
-1.613188976377952
 20
-1.648622047244094
 10
-1.604330708661417
 20
-1.648622047244094
 10
-1.604330708661417
 20
-1.64763779527559
  0
LINE
  5
A78
330
1E
100
AcDbEntity
  8
7
100
AcDbLine
 10
-1.532480314960629
 20
-1.651574803149606
 30
0.0
 11
-1.532480314960629
 21
-1.64763779527559
 31
0.0
  0
LINE
  5
A79
330
1E
100
AcDbEntity
  8
7
100
AcDbLine
 10
-1.603346456692913
 20
-1.651574803149606
 30
0.0
 11
-1.603346456692913
 21
-1.64763779527559
 31
0.0
  0
LINE
  5
A7A
330
1E
100
AcDbEntity
  8
7
100
AcDbLine
 10
-1.531496062992125
 20
-1.669291338582677
 30
0.0
 11
-1.531496062992125
 21
-1.673228346456692
 31
0.0
  0
LINE
  5
A7B
330
1E
100
AcDbEntity
  8
7
100
AcDbLine
 10
-1.521653543307086
 20
-1.673228346456692
 30
0.0
 11
-1.531496062992125
 21
-1.673228346456692
 31
0.0
  0
LINE
  5
A7C
330
1E
100
AcDbEntity
  8
7
100
AcDbLine
 10
-1.531496062992125
 20
-1.687992125984251
 30
0.0
 11
-1.521653543307086
 21
-1.687992125984251
 31
0.0
  0
LINE
  5
A7D
330
1E
100
AcDbEntity
  8
7
100
AcDbLine
 10
-1.531496062992125
 20
-1.691929133858267
 30
0.0
 11
-1.531496062992125
 21
-1.687992125984251
 31
0.0
  0
LINE
  5
A7E
330
1E
100
AcDbEntity
  8
7
100
AcDbLine
 10
-1.603346456692913
 20
-1.669291338582677
 30
0.0
 11
-1.603346456692913
 21
-1.673228346456692
 31
0.0
  0
LWPOLYLINE
  5
A7F
330
1E
100
AcDbEntity
  8
7
100
AcDbPolyline
 90
        3
 70
     0
 43
0.0098425196850394
 10
-1.603346456692913
 20
-1.669291338582677
 10
-1.604330708661417
 20
-1.673228346456692
 10
-1.613188976377952
 20
-1.673228346456692
  0
LINE
  5
A84
330
1E
100
AcDbEntity
  8
7
100
AcDbLine
 10
-1.532480314960629
 20
-1.669291338582677
 30
0.0
 11
-1.532480314960629
 21
-1.673228346456692
 31
0.0
  0
LINE
  5
A85
330
1E
100
AcDbEntity
  8
7
100
AcDbLine
 10
-1.603346456692913
 20
-1.691929133858267
 30
0.0
 11
-1.604330708661417
 21
-1.687992125984251
 31
0.0
  0
LINE
  5
A86
330
1E
100
AcDbEntity
  8
7
100
AcDbLine
 10
-1.613188976377952
 20
-1.687992125984251
 30
0.0
 11
-1.604330708661417
 21
-1.687992125984251
 31
0.0
  0
LINE
  5
A87
330
1E
100
AcDbEntity
  8
7
100
AcDbLine
 10
-1.532480314960629
 20
-1.691929133858267
 30
0.0
 11
-1.532480314960629
 21
-1.687992125984251
 31
0.0
  0
LINE
  5
A88
330
1E
100
AcDbEntity
  8
7
100
AcDbLine
 10
-1.603346456692913
 20
-1.691929133858267
 30
0.0
 11
-1.603346456692913
 21
-1.687992125984251
 31
0.0
  0
LINE
  5
A89
330
1E
100
AcDbEntity
  8
7
100
AcDbLine
 10
-1.531496062992125
 20
-1.75
 30
0.0
 11
-1.531496062992125
 21
-1.752952755905511
 31
0.0
  0
LINE
  5
A8A
330
1E
100
AcDbEntity
  8
7
100
AcDbLine
 10
-1.521653543307086
 20
-1.752952755905511
 30
0.0
 11
-1.531496062992125
 21
-1.752952755905511
 31
0.0
  0
LINE
  5
A8B
330
1E
100
AcDbEntity
  8
7
100
AcDbLine
 10
-1.604330708661417
 20
-1.752952755905511
 30
0.0
 11
-1.603346456692913
 21
-1.752952755905511
 31
0.0
  0
LINE
  5
A8C
330
1E
100
AcDbEntity
  8
7
100
AcDbLine
 10
-1.603346456692913
 20
-1.749015748031496
 30
0.0
 11
-1.603346456692913
 21
-1.752952755905511
 31
0.0
  0
LINE
  5
A8D
330
1E
100
AcDbEntity
  8
7
100
AcDbLine
 10
-1.603346456692913
 20
-1.75
 30
0.0
 11
-1.604330708661417
 21
-1.752952755905511
 31
0.0
  0
LINE
  5
A8E
330
1E
100
AcDbEntity
  8
7
100
AcDbLine
 10
-1.532480314960629
 20
-1.749015748031496
 30
0.0
 11
-1.532480314960629
 21
-1.752952755905511
 31
0.0
  0
LINE
  5
A8F
330
1E
100
AcDbEntity
  8
7
100
AcDbLine
 10
-1.531496062992125
 20
-1.752952755905511
 30
0.0
 11
-1.532480314960629
 21
-1.752952755905511
 31
0.0
  0
LINE
  5
A90
330
1E
100
AcDbEntity
  8
7
100
AcDbLine
 10
-1.604330708661417
 20
-1.752952755905511
 30
0.0
 11
-1.613188976377952
 21
-1.752952755905511
 31
0.0
  0
LWPOLYLINE
  5
A91
330
1E
100
AcDbEntity
  8
7
100
AcDbPolyline
 90
        3
 70
     0
 43
0.0098425196850394
 10
-1.531496062992125
 20
-1.469488188976377
 10
-1.531496062992125
 20
-1.473425196850393
 10
-1.521653543307086
 20
-1.473425196850393
  0
LINE
  5
A96
330
1E
100
AcDbEntity
  8
7
100
AcDbLine
 10
-1.613188976377952
 20
-1.473425196850393
 30
0.0
 11
-1.604330708661417
 21
-1.473425196850393
 31
0.0
  0
LINE
  5
A97
330
1E
100
AcDbEntity
  8
7
100
AcDbLine
 10
-1.603346456692913
 20
-1.469488188976377
 30
0.0
 11
-1.604330708661417
 21
-1.473425196850393
 31
0.0
  0
LINE
  5
A98
330
1E
100
AcDbEntity
  8
7
100
AcDbLine
 10
-1.521653543307086
 20
-1.473425196850393
 30
0.0
 11
-1.531496062992125
 21
-1.473425196850393
 31
0.0
  0
LINE
  5
A99
330
1E
100
AcDbEntity
  8
7
100
AcDbLine
 10
-1.604330708661417
 20
-1.473425196850393
 30
0.0
 11
-1.613188976377952
 21
-1.473425196850393
 31
0.0
  0
LINE
  5
A9A
330
1E
100
AcDbEntity
  8
7
100
AcDbLine
 10
-1.531496062992125
 20
-1.488188976377952
 30
0.0
 11
-1.521653543307086
 21
-1.488188976377952
 31
0.0
  0
LINE
  5
A9B
330
1E
100
AcDbEntity
  8
7
100
AcDbLine
 10
-1.613188976377952
 20
-1.488188976377952
 30
0.0
 11
-1.604330708661417
 21
-1.488188976377952
 31
0.0
  0
LINE
  5
A9C
330
1E
100
AcDbEntity
  8
7
100
AcDbLine
 10
-1.603346456692913
 20
-1.488188976377952
 30
0.0
 11
-1.532480314960629
 21
-1.488188976377952
 31
0.0
  0
LWPOLYLINE
  5
A9D
330
1E
100
AcDbEntity
  8
7
100
AcDbPolyline
 90
        3
 70
     0
 43
0.0098425196850394
 10
-1.531496062992125
 20
-1.473425196850393
 10
-1.532480314960629
 20
-1.473425196850393
 10
-1.603346456692913
 20
-1.473425196850393
  0
LINE
  5
AA2
330
1E
100
AcDbEntity
  8
7
100
AcDbLine
 10
-1.604330708661417
 20
-1.473425196850393
 30
0.0
 11
-1.603346456692913
 21
-1.473425196850393
 31
0.0
  0
LINE
  5
AA3
330
1E
100
AcDbEntity
  8
7
100
AcDbLine
 10
-1.603346456692913
 20
-1.469488188976377
 30
0.0
 11
-1.603346456692913
 21
-1.473425196850393
 31
0.0
  0
LINE
  5
AA4
330
1E
100
AcDbEntity
  8
7
100
AcDbLine
 10
-1.532480314960629
 20
-1.469488188976377
 30
0.0
 11
-1.532480314960629
 21
-1.473425196850393
 31
0.0
  0
LINE
  5
AA5
330
1E
100
AcDbEntity
  8
7
100
AcDbLine
 10
-1.603346456692913
 20
-1.771653543307086
 30
0.0
 11
-1.603346456692913
 21
-1.76771653543307
 31
0.0
  0
LINE
  5
AA6
330
1E
100
AcDbEntity
  8
7
100
AcDbLine
 10
-1.604330708661417
 20
-1.76771653543307
 30
0.0
 11
-1.603346456692913
 21
-1.76771653543307
 31
0.0
  0
LINE
  5
AA7
330
1E
100
AcDbEntity
  8
7
100
AcDbLine
 10
-1.604330708661417
 20
-1.768700787401574
 30
0.0
 11
-1.604330708661417
 21
-1.76771653543307
 31
0.0
  0
LINE
  5
AA8
330
1E
100
AcDbEntity
  8
7
100
AcDbLine
 10
-1.603346456692913
 20
-1.771653543307086
 30
0.0
 11
-1.604330708661417
 21
-1.768700787401574
 31
0.0
  0
LINE
  5
AA9
330
1E
100
AcDbEntity
  8
7
100
AcDbLine
 10
-1.531496062992125
 20
-1.76771653543307
 30
0.0
 11
-1.532480314960629
 21
-1.76771653543307
 31
0.0
  0
LINE
  5
AAA
330
1E
100
AcDbEntity
  8
7
100
AcDbLine
 10
-1.532480314960629
 20
-1.771653543307086
 30
0.0
 11
-1.532480314960629
 21
-1.76771653543307
 31
0.0
  0
LINE
  5
AAB
330
1E
100
AcDbEntity
  8
7
100
AcDbLine
 10
-1.531496062992125
 20
-1.771653543307086
 30
0.0
 11
-1.531496062992125
 21
-1.768700787401574
 31
0.0
  0
LINE
  5
AAC
330
1E
100
AcDbEntity
  8
7
100
AcDbLine
 10
-1.531496062992125
 20
-1.76771653543307
 30
0.0
 11
-1.531496062992125
 21
-1.768700787401574
 31
0.0
  0
LINE
  5
AAD
330
1E
100
AcDbEntity
  8
7
100
AcDbLine
 10
-1.532480314960629
 20
-1.76771653543307
 30
0.0
 11
-1.603346456692913
 21
-1.76771653543307
 31
0.0
  0
LINE
  5
AAE
330
1E
100
AcDbEntity
  8
7
100
AcDbLine
 10
-1.521653543307086
 20
-1.76771653543307
 30
0.0
 11
-1.531496062992125
 21
-1.76771653543307
 31
0.0
  0
LINE
  5
AAF
330
1E
100
AcDbEntity
  8
7
100
AcDbLine
 10
-1.604330708661417
 20
-1.76771653543307
 30
0.0
 11
-1.613188976377952
 21
-1.76771653543307
 31
0.0
  0
LINE
  5
AB0
330
1E
100
AcDbEntity
  8
7
100
AcDbLine
 10
-1.603346456692913
 20
-1.752952755905511
 30
0.0
 11
-1.532480314960629
 21
-1.752952755905511
 31
0.0
  0
LINE
  5
AB1
330
1E
100
AcDbEntity
  8
7
100
AcDbLine
 10
-1.613188976377952
 20
-1.752952755905511
 30
0.0
 11
-1.604330708661417
 21
-1.752952755905511
 31
0.0
  0
LINE
  5
AB2
330
1E
100
AcDbEntity
  8
7
100
AcDbLine
 10
-1.531496062992125
 20
-1.752952755905511
 30
0.0
 11
-1.521653543307086
 21
-1.752952755905511
 31
0.0
  0
LINE
  5
AB3
330
1E
100
AcDbEntity
  8
7
100
AcDbLine
 10
-1.613188976377952
 20
-1.768700787401574
 30
0.0
 11
-1.604330708661417
 21
-1.768700787401574
 31
0.0
  0
LINE
  5
AB4
330
1E
100
AcDbEntity
  8
7
100
AcDbLine
 10
-1.531496062992125
 20
-1.768700787401574
 30
0.0
 11
-1.521653543307086
 21
-1.768700787401574
 31
0.0
  0
LWPOLYLINE
  5
AB5
330
1E
100
AcDbEntity
  8
7
100
AcDbPolyline
 90
        3
 70
     0
 43
0.0098425196850394
 10
-1.558070866141732
 20
-1.850393700787401
 10
-1.562007874015747
 20
-1.850393700787401
 10
-1.562992125984251
 20
-1.850393700787401
  0
LINE
  5
ABA
330
1E
100
AcDbEntity
  8
7
100
AcDbLine
 10
-1.543307086614173
 20
-1.827755905511811
 30
0.0
 11
-1.543307086614173
 21
-1.840551181102362
 31
0.0
  0
LINE
  5
ABB
330
1E
100
AcDbEntity
  8
7
100
AcDbLine
 10
-1.562992125984251
 20
-1.850393700787401
 30
0.0
 11
-1.562992125984251
 21
-1.827755905511811
 31
0.0
  0
LWPOLYLINE
  5
ABC
330
1E
100
AcDbEntity
  8
7
100
AcDbPolyline
 90
        4
 70
     0
 43
0.0098425196850394
 10
-1.51771653543307
 20
-1.838582677165354
 10
-1.513779527559055
 20
-1.838582677165354
 10
-1.516732283464566
 20
-1.835629921259842
 10
-1.523622047244094
 20
-1.827755905511811
  0
LINE
  5
AC2
330
1E
100
AcDbEntity
  8
7
100
AcDbLine
 10
-1.51771653543307
 20
-1.838582677165354
 30
0.0
 11
-1.52755905511811
 21
-1.827755905511811
 31
0.0
  0
LINE
  5
AC3
330
1E
100
AcDbEntity
  8
7
100
AcDbLine
 10
-1.507874015748031
 20
-1.840551181102362
 30
0.0
 11
-1.507874015748031
 21
-1.838582677165354
 31
0.0
  0
LINE
  5
AC4
330
1E
100
AcDbEntity
  8
7
100
AcDbLine
 10
-1.565944881889763
 20
-1.827755905511811
 30
0.0
 11
-1.523622047244094
 21
-1.827755905511811
 31
0.0
  0
LINE
  5
AC5
330
1E
100
AcDbEntity
  8
7
100
AcDbLine
 10
-1.565944881889763
 20
-1.830708661417322
 30
0.0
 11
-1.565944881889763
 21
-1.827755905511811
 31
0.0
  0
LWPOLYLINE
  5
AC6
330
1E
100
AcDbEntity
  8
7
100
AcDbPolyline
 90
        3
 70
     0
 43
0.0098425196850394
 10
-1.565944881889763
 20
-1.850393700787401
 10
-1.565944881889763
 20
-1.844488188976377
 10
-1.565944881889763
 20
-1.830708661417322
  0
LINE
  5
ACB
330
1E
100
AcDbEntity
  8
7
100
AcDbLine
 10
-1.565944881889763
 20
-1.850393700787401
 30
0.0
 11
-1.562992125984251
 21
-1.850393700787401
 31
0.0
  0
LINE
  5
ACC
330
1E
100
AcDbEntity
  8
7
100
AcDbLine
 10
-1.667322834645669
 20
-1.830708661417322
 30
0.0
 11
-1.661417322834645
 21
-1.844488188976377
 31
0.0
  0
LINE
  5
ACD
330
1E
100
AcDbEntity
  8
7
100
AcDbLine
 10
-1.661417322834645
 20
-1.844488188976377
 30
0.0
 11
-1.64763779527559
 21
-1.850393700787401
 31
0.0
  0
LINE
  5
ACE
330
1E
100
AcDbEntity
  8
7
100
AcDbLine
 10
-1.637795275590551
 20
-1.850393700787401
 30
0.0
 11
-1.565944881889763
 21
-1.850393700787401
 31
0.0
  0
LWPOLYLINE
  5
ACF
330
1E
100
AcDbEntity
  8
7
100
AcDbPolyline
 90
        3
 70
     0
 43
0.0098425196850394
 10
-1.64763779527559
 20
-1.850393700787401
 10
-1.644685039370078
 20
-1.850393700787401
 10
-1.637795275590551
 20
-1.850393700787401
  0
LWPOLYLINE
  5
AD4
330
1E
100
AcDbEntity
  8
7
100
AcDbPolyline
 90
        7
 70
     0
 43
0.0098425196850394
 10
-0.937992125984252
 20
-1.838582677165354
 10
-1.118110236220472
 20
-1.838582677165354
 10
-1.125
 20
-1.838582677165354
 10
-1.127952755905511
 20
-1.838582677165354
 10
-1.133858267716535
 20
-1.838582677165354
 10
-1.14763779527559
 20
-1.838582677165354
 10
-1.359251968503937
 20
-1.838582677165354
  0
LINE
  5
ADD
330
1E
100
AcDbEntity
  8
7
100
AcDbLine
 10
-1.359251968503937
 20
-1.838582677165354
 30
0.0
 11
-1.37007874015748
 21
-1.838582677165354
 31
0.0
  0
LWPOLYLINE
  5
ADE
330
1E
100
AcDbEntity
  8
7
100
AcDbPolyline
 90
        3
 70
     0
 43
0.0098425196850394
 10
-1.419291338582677
 20
-1.838582677165354
 10
-1.43011811023622
 20
-1.838582677165354
 10
-1.513779527559055
 20
-1.838582677165354
  0
LINE
  5
AE3
330
1E
100
AcDbEntity
  8
7
100
AcDbLine
 10
-1.085629921259842
 20
-1.809055118110236
 30
0.0
 11
-0.937992125984252
 21
-1.81003937007874
 31
0.0
  0
LWPOLYLINE
  5
AE4
330
1E
100
AcDbEntity
  8
7
100
AcDbPolyline
 90
        3
 70
     0
 43
0.0098425196850394
 10
-1.316929133858267
 20
-1.749015748031496
 10
-1.323818897637795
 20
-1.75
 10
-1.336614173228346
 20
-1.75
  0
LINE
  5
AE9
330
1E
100
AcDbEntity
  8
7
100
AcDbLine
 10
-1.316929133858267
 20
-1.749015748031496
 30
0.0
 11
-1.316929133858267
 21
-1.492125984251968
 31
0.0
  0
LWPOLYLINE
  5
AEA
330
1E
100
AcDbEntity
  8
7
100
AcDbPolyline
 90
        3
 70
     0
 43
0.0098425196850394
 10
-1.336614173228346
 20
-1.491141732283464
 10
-1.323818897637795
 20
-1.492125984251968
 10
-1.316929133858267
 20
-1.492125984251968
  0
LINE
  5
AEF
330
1E
100
AcDbEntity
  8
7
100
AcDbLine
 10
-1.336614173228346
 20
-1.75
 30
0.0
 11
-1.336614173228346
 21
-1.491141732283464
 31
0.0
  0
LWPOLYLINE
  5
AF0
330
1E
100
AcDbEntity
  8
7
100
AcDbPolyline
 90
        5
 70
     0
 43
0.0098425196850394
 10
-1.196850393700787
 20
-1.748031496062992
 10
-1.288385826771653
 20
-1.748031496062992
 10
-1.301181102362204
 20
-1.748031496062992
 10
-1.311023622047243
 20
-1.749015748031496
 10
-1.316929133858267
 20
-1.749015748031496
  0
LWPOLYLINE
  5
AF7
330
1E
100
AcDbEntity
  8
7
100
AcDbPolyline
 90
        3
 70
     0
 43
0.0098425196850394
 10
-1.336614173228346
 20
-1.75
 10
-1.281496062992125
 20
-1.75
 10
-1.273622047244094
 20
-1.75
  0
LINE
  5
AFC
330
1E
100
AcDbEntity
  8
7
100
AcDbLine
 10
-1.221456692913385
 20
-1.749015748031496
 30
0.0
 11
-1.273622047244094
 21
-1.75
 31
0.0
  0
LINE
  5
AFD
330
1E
100
AcDbEntity
  8
7
100
AcDbLine
 10
-1.221456692913385
 20
-1.749015748031496
 30
0.0
 11
-1.196850393700787
 21
-1.748031496062992
 31
0.0
  0
LINE
  5
AFE
330
1E
100
AcDbEntity
  8
7
100
AcDbLine
 10
-1.288385826771653
 20
-1.493110236220472
 30
0.0
 11
-1.288385826771653
 21
-1.748031496062992
 31
0.0
  0
LWPOLYLINE
  5
AFF
330
1E
100
AcDbEntity
  8
7
100
AcDbPolyline
 90
        4
 70
     0
 43
0.0098425196850394
 10
-1.316929133858267
 20
-1.492125984251968
 10
-1.311023622047243
 20
-1.492125984251968
 10
-1.301181102362204
 20
-1.493110236220472
 10
-1.288385826771653
 20
-1.493110236220472
  0
LINE
  5
B05
330
1E
100
AcDbEntity
  8
7
100
AcDbLine
 10
-1.196850393700787
 20
-1.493110236220472
 30
0.0
 11
-1.288385826771653
 21
-1.493110236220472
 31
0.0
  0
LINE
  5
B06
330
1E
100
AcDbEntity
  8
7
100
AcDbLine
 10
-1.196850393700787
 20
-1.493110236220472
 30
0.0
 11
-1.221456692913385
 21
-1.493110236220472
 31
0.0
  0
LINE
  5
B07
330
1E
100
AcDbEntity
  8
7
100
AcDbLine
 10
-1.273622047244094
 20
-1.492125984251968
 30
0.0
 11
-1.221456692913385
 21
-1.493110236220472
 31
0.0
  0
LINE
  5
B08
330
1E
100
AcDbEntity
  8
7
100
AcDbLine
 10
-1.273622047244094
 20
-1.492125984251968
 30
0.0
 11
-1.281496062992125
 21
-1.491141732283464
 31
0.0
  0
LINE
  5
B09
330
1E
100
AcDbEntity
  8
7
100
AcDbLine
 10
-1.336614173228346
 20
-1.491141732283464
 30
0.0
 11
-1.281496062992125
 21
-1.491141732283464
 31
0.0
  0
LINE
  5
B0A
330
1E
100
AcDbEntity
  8
7
100
AcDbLine
 10
-1.273622047244094
 20
-1.46259842519685
 30
0.0
 11
-1.273622047244094
 21
-1.492125984251968
 31
0.0
  0
LINE
  5
B0B
330
1E
100
AcDbEntity
  8
7
100
AcDbLine
 10
-1.281496062992125
 20
-1.491141732283464
 30
0.0
 11
-1.281496062992125
 21
-1.46259842519685
 31
0.0
  0
LINE
  5
B0C
330
1E
100
AcDbEntity
  8
7
100
AcDbLine
 10
-1.196850393700787
 20
-1.460629921259842
 30
0.0
 11
-1.196850393700787
 21
-1.493110236220472
 31
0.0
  0
LINE
  5
B0D
330
1E
100
AcDbEntity
  8
7
100
AcDbLine
 10
-1.221456692913385
 20
-1.493110236220472
 30
0.0
 11
-1.221456692913385
 21
-1.461614173228346
 31
0.0
  0
LINE
  5
B0E
330
1E
100
AcDbEntity
  8
7
100
AcDbLine
 10
-1.472440944881889
 20
-1.492125984251968
 30
0.0
 11
-1.472440944881889
 21
-1.469488188976377
 31
0.0
  0
LINE
  5
B0F
330
1E
100
AcDbEntity
  8
7
100
AcDbLine
 10
-1.472440944881889
 20
-1.531496062992125
 30
0.0
 11
-1.472440944881889
 21
-1.509842519685039
 31
0.0
  0
LINE
  5
B10
330
1E
100
AcDbEntity
  8
7
100
AcDbLine
 10
-1.472440944881889
 20
-1.571850393700787
 30
0.0
 11
-1.472440944881889
 21
-1.549212598425196
 31
0.0
  0
LINE
  5
B11
330
1E
100
AcDbEntity
  8
7
100
AcDbLine
 10
-1.472440944881889
 20
-1.612204724409448
 30
0.0
 11
-1.472440944881889
 21
-1.589566929133858
 31
0.0
  0
LINE
  5
B12
330
1E
100
AcDbEntity
  8
7
100
AcDbLine
 10
-1.472440944881889
 20
-1.651574803149606
 30
0.0
 11
-1.472440944881889
 21
-1.629921259842519
 31
0.0
  0
LINE
  5
B13
330
1E
100
AcDbEntity
  8
7
100
AcDbLine
 10
-1.472440944881889
 20
-1.691929133858267
 30
0.0
 11
-1.472440944881889
 21
-1.669291338582677
 31
0.0
  0
LINE
  5
B14
330
1E
100
AcDbEntity
  8
7
100
AcDbLine
 10
-1.472440944881889
 20
-1.731299212598425
 30
0.0
 11
-1.472440944881889
 21
-1.709645669291338
 31
0.0
  0
LINE
  5
B15
330
1E
100
AcDbEntity
  8
7
100
AcDbLine
 10
-1.472440944881889
 20
-1.771653543307086
 30
0.0
 11
-1.472440944881889
 21
-1.75
 31
0.0
  0
LINE
  5
B16
330
1E
100
AcDbEntity
  8
7
100
AcDbLine
 10
-1.281496062992125
 20
-1.778543307086614
 30
0.0
 11
-1.281496062992125
 21
-1.75
 31
0.0
  0
LINE
  5
B17
330
1E
100
AcDbEntity
  8
7
100
AcDbLine
 10
-1.273622047244094
 20
-1.75
 30
0.0
 11
-1.273622047244094
 21
-1.778543307086614
 31
0.0
  0
LINE
  5
B18
330
1E
100
AcDbEntity
  8
7
100
AcDbLine
 10
-1.221456692913385
 20
-1.779527559055118
 30
0.0
 11
-1.221456692913385
 21
-1.749015748031496
 31
0.0
  0
LINE
  5
B19
330
1E
100
AcDbEntity
  8
7
100
AcDbLine
 10
-1.196850393700787
 20
-1.748031496062992
 30
0.0
 11
-1.196850393700787
 21
-1.780511811023622
 31
0.0
  0
LINE
  5
B1A
330
1E
100
AcDbEntity
  8
7
100
AcDbLine
 10
-1.14763779527559
 20
-1.780511811023622
 30
0.0
 11
-1.14763779527559
 21
-1.460629921259842
 31
0.0
  0
LWPOLYLINE
  5
B1B
330
1E
100
AcDbEntity
  8
7
100
AcDbPolyline
 90
        3
 70
     0
 43
0.0098425196850394
 10
-1.137795275590551
 20
-1.413385826771653
 10
-1.140748031496062
 20
-1.413385826771653
 10
-1.14763779527559
 20
-1.413385826771653
  0
LWPOLYLINE
  5
B20
330
1E
100
AcDbEntity
  8
7
100
AcDbPolyline
 90
        4
 70
     0
 43
0.0098425196850394
 10
-1.14763779527559
 20
-1.460629921259842
 10
-1.14763779527559
 20
-1.413385826771653
 10
-1.359251968503937
 20
-1.413385826771653
 10
-1.359251968503937
 20
-1.460629921259842
  0
LINE
  5
B26
330
1E
100
AcDbEntity
  8
7
100
AcDbLine
 10
-1.359251968503937
 20
-1.413385826771653
 30
0.0
 11
-1.37007874015748
 21
-1.413385826771653
 31
0.0
  0
LINE
  5
B27
330
1E
100
AcDbEntity
  8
7
100
AcDbLine
 10
-1.419291338582677
 20
-1.413385826771653
 30
0.0
 11
-1.43011811023622
 21
-1.413385826771653
 31
0.0
  0
LINE
  5
B28
330
1E
100
AcDbEntity
  8
7
100
AcDbLine
 10
-1.474409448818897
 20
-1.541338582677165
 30
0.0
 11
-1.637795275590551
 21
-1.541338582677165
 31
0.0
  0
LINE
  5
B29
330
1E
100
AcDbEntity
  8
7
100
AcDbLine
 10
-1.637795275590551
 20
-1.540354330708661
 30
0.0
 11
-1.474409448818897
 21
-1.540354330708661
 31
0.0
  0
LINE
  5
B2A
330
1E
100
AcDbEntity
  8
7
100
AcDbLine
 10
-1.637795275590551
 20
-1.540354330708661
 30
0.0
 11
-1.637795275590551
 21
-1.541338582677165
 31
0.0
  0
LINE
  5
B2B
330
1E
100
AcDbEntity
  8
7
100
AcDbLine
 10
-1.637795275590551
 20
-1.579724409448818
 30
0.0
 11
-1.474409448818897
 21
-1.579724409448818
 31
0.0
  0
LINE
  5
B2C
330
1E
100
AcDbEntity
  8
7
100
AcDbLine
 10
-1.637795275590551
 20
-1.579724409448818
 30
0.0
 11
-1.637795275590551
 21
-1.580708661417322
 31
0.0
  0
LINE
  5
B2D
330
1E
100
AcDbEntity
  8
7
100
AcDbLine
 10
-1.474409448818897
 20
-1.580708661417322
 30
0.0
 11
-1.637795275590551
 21
-1.580708661417322
 31
0.0
  0
LINE
  5
B2E
330
1E
100
AcDbEntity
  8
7
100
AcDbLine
 10
-1.637795275590551
 20
-1.62007874015748
 30
0.0
 11
-1.474409448818897
 21
-1.62007874015748
 31
0.0
  0
LINE
  5
B2F
330
1E
100
AcDbEntity
  8
7
100
AcDbLine
 10
-1.637795275590551
 20
-1.621062992125984
 30
0.0
 11
-1.637795275590551
 21
-1.62007874015748
 31
0.0
  0
LINE
  5
B30
330
1E
100
AcDbEntity
  8
7
100
AcDbLine
 10
-1.637795275590551
 20
-1.621062992125984
 30
0.0
 11
-1.474409448818897
 21
-1.621062992125984
 31
0.0
  0
LINE
  5
B31
330
1E
100
AcDbEntity
  8
7
100
AcDbLine
 10
-1.474409448818897
 20
-1.660433070866141
 30
0.0
 11
-1.637795275590551
 21
-1.660433070866141
 31
0.0
  0
LINE
  5
B32
330
1E
100
AcDbEntity
  8
7
100
AcDbLine
 10
-1.637795275590551
 20
-1.661417322834645
 30
0.0
 11
-1.637795275590551
 21
-1.660433070866141
 31
0.0
  0
LINE
  5
B33
330
1E
100
AcDbEntity
  8
7
100
AcDbLine
 10
-1.637795275590551
 20
-1.661417322834645
 30
0.0
 11
-1.474409448818897
 21
-1.661417322834645
 31
0.0
  0
LINE
  5
B34
330
1E
100
AcDbEntity
  8
7
100
AcDbLine
 10
-1.637795275590551
 20
-1.700787401574803
 30
0.0
 11
-1.474409448818897
 21
-1.700787401574803
 31
0.0
  0
LINE
  5
B35
330
1E
100
AcDbEntity
  8
7
100
AcDbLine
 10
-1.474409448818897
 20
-1.699803149606299
 30
0.0
 11
-1.637795275590551
 21
-1.699803149606299
 31
0.0
  0
LINE
  5
B36
330
1E
100
AcDbEntity
  8
7
100
AcDbLine
 10
-1.637795275590551
 20
-1.700787401574803
 30
0.0
 11
-1.637795275590551
 21
-1.699803149606299
 31
0.0
  0
LINE
  5
B37
330
1E
100
AcDbEntity
  8
7
100
AcDbLine
 10
-1.637795275590551
 20
-1.5
 30
0.0
 11
-1.474409448818897
 21
-1.5
 31
0.0
  0
LINE
  5
B38
330
1E
100
AcDbEntity
  8
7
100
AcDbLine
 10
-1.637795275590551
 20
-1.5
 30
0.0
 11
-1.637795275590551
 21
-1.500984251968503
 31
0.0
  0
LINE
  5
B39
330
1E
100
AcDbEntity
  8
7
100
AcDbLine
 10
-1.474409448818897
 20
-1.500984251968503
 30
0.0
 11
-1.637795275590551
 21
-1.500984251968503
 31
0.0
  0
LINE
  5
B3A
330
1E
100
AcDbEntity
  8
7
100
AcDbLine
 10
-1.474409448818897
 20
-1.74015748031496
 30
0.0
 11
-1.637795275590551
 21
-1.74015748031496
 31
0.0
  0
LINE
  5
B3B
330
1E
100
AcDbEntity
  8
7
100
AcDbLine
 10
-1.637795275590551
 20
-1.741141732283464
 30
0.0
 11
-1.637795275590551
 21
-1.74015748031496
 31
0.0
  0
LINE
  5
B3C
330
1E
100
AcDbEntity
  8
7
100
AcDbLine
 10
-1.637795275590551
 20
-1.741141732283464
 30
0.0
 11
-1.474409448818897
 21
-1.741141732283464
 31
0.0
  0
LINE
  5
B3D
330
1E
100
AcDbEntity
  8
7
100
AcDbLine
 10
-1.43011811023622
 20
-1.827755905511811
 30
0.0
 11
-1.419291338582677
 21
-1.827755905511811
 31
0.0
  0
LINE
  5
B3E
330
1E
100
AcDbEntity
  8
7
100
AcDbLine
 10
-1.37007874015748
 20
-1.827755905511811
 30
0.0
 11
-1.359251968503937
 21
-1.827755905511811
 31
0.0
  0
LWPOLYLINE
  5
B3F
330
1E
100
AcDbEntity
  8
7
100
AcDbPolyline
 90
        4
 70
     0
 43
0.0098425196850394
 10
-1.359251968503937
 20
-1.780511811023622
 10
-1.359251968503937
 20
-1.827755905511811
 10
-1.14763779527559
 20
-1.827755905511811
 10
-1.14763779527559
 20
-1.780511811023622
  0
LWPOLYLINE
  5
B45
330
1E
100
AcDbEntity
  8
7
100
AcDbPolyline
 90
        4
 70
     0
 43
0.0098425196850394
 10
-1.14763779527559
 20
-1.827755905511811
 10
-1.140748031496062
 20
-1.827755905511811
 10
-1.137795275590551
 20
-1.827755905511811
 10
-1.137795275590551
 20
-1.413385826771653
  0
LINE
  5
B4B
330
1E
100
AcDbEntity
  8
7
100
AcDbLine
 10
-0.8179133858267716
 20
-1.602362204724409
 30
0.0
 11
-0.8179133858267716
 21
-1.639763779527559
 31
0.0
  0
LINE
  5
B4C
330
1E
100
AcDbEntity
  8
7
100
AcDbLine
 10
-0.9507874015748031
 20
-1.476377952755905
 30
0.0
 11
-0.9507874015748031
 21
-1.765748031496062
 31
0.0
  0
LWPOLYLINE
  5
B4D
330
1E
100
AcDbEntity
  8
7
100
AcDbPolyline
 90
        3
 70
     0
 43
0.0098425196850394
 10
-1.137795275590551
 20
-1.827755905511811
 10
-1.131889763779527
 20
-1.827755905511811
 10
-1.118110236220472
 20
-1.827755905511811
  0
LINE
  5
B52
330
1E
100
AcDbEntity
  8
7
100
AcDbLine
 10
-1.118110236220472
 20
-1.413385826771653
 30
0.0
 11
-1.118110236220472
 21
-1.827755905511811
 31
0.0
  0
LWPOLYLINE
  5
B53
330
1E
100
AcDbEntity
  8
7
100
AcDbPolyline
 90
        3
 70
     0
 43
0.0098425196850394
 10
-1.118110236220472
 20
-1.413385826771653
 10
-1.131889763779527
 20
-1.413385826771653
 10
-1.137795275590551
 20
-1.413385826771653
  0
LWPOLYLINE
  5
B58
330
1E
100
AcDbEntity
  8
7
100
AcDbPolyline
 90
        3
 70
     0
 43
0.0098425196850394
 10
-1.127952755905511
 20
-1.403543307086614
 10
-1.134842519685039
 20
-1.406496062992125
 10
-1.137795275590551
 20
-1.413385826771653
  0
LINE
  5
B5D
330
1E
100
AcDbEntity
  8
7
100
AcDbLine
 10
-1.118110236220472
 20
-1.403543307086614
 30
0.0
 11
-1.118110236220472
 21
-1.406496062992125
 31
0.0
  0
LINE
  5
B5E
330
1E
100
AcDbEntity
  8
7
100
AcDbLine
 10
-1.118110236220472
 20
-1.406496062992125
 30
0.0
 11
-1.118110236220472
 21
-1.413385826771653
 31
0.0
  0
LWPOLYLINE
  5
B5F
330
1E
100
AcDbEntity
  8
7
100
AcDbPolyline
 90
        3
 70
     0
 43
0.0098425196850394
 10
-1.14763779527559
 20
-1.403543307086614
 10
-1.14763779527559
 20
-1.406496062992125
 10
-1.14763779527559
 20
-1.413385826771653
  0
LWPOLYLINE
  5
B64
330
1E
100
AcDbEntity
  8
7
100
AcDbPolyline
 90
        3
 70
     0
 43
0.0098425196850394
 10
-1.359251968503937
 20
-1.413385826771653
 10
-1.359251968503937
 20
-1.406496062992125
 10
-1.359251968503937
 20
-1.403543307086614
  0
LINE
  5
B69
330
1E
100
AcDbEntity
  8
7
100
AcDbLine
 10
-1.43011811023622
 20
-1.413385826771653
 30
0.0
 11
-1.43011811023622
 21
-1.460629921259842
 31
0.0
  0
LWPOLYLINE
  5
B6A
330
1E
100
AcDbEntity
  8
7
100
AcDbPolyline
 90
        4
 70
     0
 43
0.0098425196850394
 10
-1.43011811023622
 20
-1.403543307086614
 10
-1.43011811023622
 20
-1.406496062992125
 10
-1.43011811023622
 20
-1.413385826771653
 10
-1.523622047244094
 20
-1.413385826771653
  0
LINE
  5
B70
330
1E
100
AcDbEntity
  8
7
100
AcDbLine
 10
-0.937992125984252
 20
-1.413385826771653
 30
0.0
 11
-1.118110236220472
 21
-1.413385826771653
 31
0.0
  0
LWPOLYLINE
  5
B71
330
1E
100
AcDbEntity
  8
7
100
AcDbPolyline
 90
        4
 70
     0
 43
0.0098425196850394
 10
-1.637795275590551
 20
-1.410433070866141
 10
-1.65255905511811
 20
-1.410433070866141
 10
-1.664370078740157
 20
-1.410433070866141
 10
-1.668307086614173
 20
-1.410433070866141
  0
LWPOLYLINE
  5
B77
330
1E
100
AcDbEntity
  8
7
100
AcDbPolyline
 90
        3
 70
     0
 43
0.0098425196850394
 10
-1.637795275590551
 20
-1.410433070866141
 10
-1.637795275590551
 20
-1.396653543307086
 10
-1.637795275590551
 20
-1.390748031496062
  0
LINE
  5
B7C
330
1E
100
AcDbEntity
  8
7
100
AcDbLine
 10
-1.565944881889763
 20
-1.410433070866141
 30
0.0
 11
-1.637795275590551
 21
-1.410433070866141
 31
0.0
  0
LINE
  5
B7D
330
1E
100
AcDbEntity
  8
7
100
AcDbLine
 10
-1.637795275590551
 20
-1.461614173228346
 30
0.0
 11
-1.637795275590551
 21
-1.410433070866141
 31
0.0
  0
LINE
  5
B7E
330
1E
100
AcDbEntity
  8
7
100
AcDbLine
 10
-1.474409448818897
 20
-1.461614173228346
 30
0.0
 11
-1.637795275590551
 21
-1.461614173228346
 31
0.0
  0
LINE
  5
B7F
330
1E
100
AcDbEntity
  8
7
100
AcDbLine
 10
-0.9507874015748031
 20
-1.431102362204724
 30
0.0
 11
-0.9507874015748031
 21
-1.476377952755905
 31
0.0
  0
LWPOLYLINE
  5
B80
330
1E
100
AcDbEntity
  8
7
100
AcDbPolyline
 90
        4
 70
     0
 43
0.0098425196850394
 10
-1.637795275590551
 20
-1.780511811023622
 10
-1.65255905511811
 20
-1.780511811023622
 10
-1.664370078740157
 20
-1.780511811023622
 10
-1.668307086614173
 20
-1.779527559055118
  0
LWPOLYLINE
  5
B86
330
1E
100
AcDbEntity
  8
7
100
AcDbPolyline
 90
        4
 70
     0
 43
0.0098425196850394
 10
-1.637795275590551
 20
-1.830708661417322
 10
-1.65255905511811
 20
-1.830708661417322
 10
-1.664370078740157
 20
-1.830708661417322
 10
-1.668307086614173
 20
-1.830708661417322
  0
LINE
  5
B8C
330
1E
100
AcDbEntity
  8
7
100
AcDbLine
 10
-1.637795275590551
 20
-1.780511811023622
 30
0.0
 11
-1.637795275590551
 21
-1.830708661417322
 31
0.0
  0
LWPOLYLINE
  5
B8D
330
1E
100
AcDbEntity
  8
7
100
AcDbPolyline
 90
        4
 70
     0
 43
0.0098425196850394
 10
-1.668307086614173
 20
-1.741141732283464
 10
-1.664370078740157
 20
-1.741141732283464
 10
-1.65255905511811
 20
-1.741141732283464
 10
-1.637795275590551
 20
-1.741141732283464
  0
LWPOLYLINE
  5
B93
330
1E
100
AcDbEntity
  8
7
100
AcDbPolyline
 90
        4
 70
     0
 43
0.0098425196850394
 10
-1.637795275590551
 20
-1.74015748031496
 10
-1.65255905511811
 20
-1.74015748031496
 10
-1.664370078740157
 20
-1.74015748031496
 10
-1.668307086614173
 20
-1.74015748031496
  0
LWPOLYLINE
  5
B99
330
1E
100
AcDbEntity
  8
7
100
AcDbPolyline
 90
        4
 70
     0
 43
0.0098425196850394
 10
-1.668307086614173
 20
-1.701771653543307
 10
-1.664370078740157
 20
-1.700787401574803
 10
-1.65255905511811
 20
-1.700787401574803
 10
-1.637795275590551
 20
-1.700787401574803
  0
LWPOLYLINE
  5
B9F
330
1E
100
AcDbEntity
  8
7
100
AcDbPolyline
 90
        4
 70
     0
 43
0.0098425196850394
 10
-1.637795275590551
 20
-1.699803149606299
 10
-1.65255905511811
 20
-1.699803149606299
 10
-1.664370078740157
 20
-1.699803149606299
 10
-1.668307086614173
 20
-1.699803149606299
  0
LWPOLYLINE
  5
BA5
330
1E
100
AcDbEntity
  8
7
100
AcDbPolyline
 90
        4
 70
     0
 43
0.0098425196850394
 10
-1.668307086614173
 20
-1.661417322834645
 10
-1.664370078740157
 20
-1.661417322834645
 10
-1.65255905511811
 20
-1.661417322834645
 10
-1.637795275590551
 20
-1.661417322834645
  0
LWPOLYLINE
  5
BAB
330
1E
100
AcDbEntity
  8
7
100
AcDbPolyline
 90
        4
 70
     0
 43
0.0098425196850394
 10
-1.637795275590551
 20
-1.660433070866141
 10
-1.65255905511811
 20
-1.660433070866141
 10
-1.664370078740157
 20
-1.660433070866141
 10
-1.668307086614173
 20
-1.660433070866141
  0
LWPOLYLINE
  5
BB1
330
1E
100
AcDbEntity
  8
7
100
AcDbPolyline
 90
        4
 70
     0
 43
0.0098425196850394
 10
-1.668307086614173
 20
-1.621062992125984
 10
-1.664370078740157
 20
-1.621062992125984
 10
-1.65255905511811
 20
-1.621062992125984
 10
-1.637795275590551
 20
-1.621062992125984
  0
LWPOLYLINE
  5
BB7
330
1E
100
AcDbEntity
  8
7
100
AcDbPolyline
 90
        4
 70
     0
 43
0.0098425196850394
 10
-1.668307086614173
 20
-1.62007874015748
 10
-1.664370078740157
 20
-1.62007874015748
 10
-1.65255905511811
 20
-1.62007874015748
 10
-1.637795275590551
 20
-1.62007874015748
  0
LWPOLYLINE
  5
BBD
330
1E
100
AcDbEntity
  8
7
100
AcDbPolyline
 90
        4
 70
     0
 43
0.0098425196850394
 10
-1.637795275590551
 20
-1.580708661417322
 10
-1.65255905511811
 20
-1.580708661417322
 10
-1.664370078740157
 20
-1.581692913385826
 10
-1.668307086614173
 20
-1.581692913385826
  0
LWPOLYLINE
  5
BC3
330
1E
100
AcDbEntity
  8
7
100
AcDbPolyline
 90
        4
 70
     0
 43
0.0098425196850394
 10
-1.668307086614173
 20
-1.579724409448818
 10
-1.664370078740157
 20
-1.579724409448818
 10
-1.65255905511811
 20
-1.579724409448818
 10
-1.637795275590551
 20
-1.579724409448818
  0
LWPOLYLINE
  5
BC9
330
1E
100
AcDbEntity
  8
7
100
AcDbPolyline
 90
        4
 70
     0
 43
0.0098425196850394
 10
-1.637795275590551
 20
-1.541338582677165
 10
-1.65255905511811
 20
-1.541338582677165
 10
-1.664370078740157
 20
-1.541338582677165
 10
-1.668307086614173
 20
-1.541338582677165
  0
LWPOLYLINE
  5
BCF
330
1E
100
AcDbEntity
  8
7
100
AcDbPolyline
 90
        4
 70
     0
 43
0.0098425196850394
 10
-1.668307086614173
 20
-1.540354330708661
 10
-1.664370078740157
 20
-1.540354330708661
 10
-1.65255905511811
 20
-1.540354330708661
 10
-1.637795275590551
 20
-1.540354330708661
  0
LWPOLYLINE
  5
BD5
330
1E
100
AcDbEntity
  8
7
100
AcDbPolyline
 90
        4
 70
     0
 43
0.0098425196850394
 10
-1.637795275590551
 20
-1.500984251968503
 10
-1.65255905511811
 20
-1.500984251968503
 10
-1.664370078740157
 20
-1.500984251968503
 10
-1.668307086614173
 20
-1.500984251968503
  0
LWPOLYLINE
  5
BDB
330
1E
100
AcDbEntity
  8
7
100
AcDbPolyline
 90
        4
 70
     0
 43
0.0098425196850394
 10
-1.668307086614173
 20
-1.5
 10
-1.664370078740157
 20
-1.5
 10
-1.65255905511811
 20
-1.5
 10
-1.637795275590551
 20
-1.5
  0
LWPOLYLINE
  5
BE1
330
1E
100
AcDbEntity
  8
7
100
AcDbPolyline
 90
        4
 70
     0
 43
0.0098425196850394
 10
-1.637795275590551
 20
-1.461614173228346
 10
-1.65255905511811
 20
-1.461614173228346
 10
-1.664370078740157
 20
-1.461614173228346
 10
-1.668307086614173
 20
-1.461614173228346
  0
LWPOLYLINE
  5
BE7
330
1E
100
AcDbEntity
  8
7
100
AcDbPolyline
 90
        3
 70
     0
 43
0.0098425196850394
 10
-1.637795275590551
 20
-1.508858267716535
 10
-1.637795275590551
 20
-1.506889763779527
 10
-1.637795275590551
 20
-1.500984251968503
  0
LINE
  5
BEC
330
1E
100
AcDbEntity
  8
7
100
AcDbLine
 10
-1.532480314960629
 20
-1.513779527559055
 30
0.0
 11
-1.603346456692913
 21
-1.513779527559055
 31
0.0
  0
LINE
  5
BED
330
1E
100
AcDbEntity
  8
7
100
AcDbLine
 10
-1.532480314960629
 20
-1.508858267716535
 30
0.0
 11
-1.532480314960629
 21
-1.513779527559055
 31
0.0
  0
LINE
  5
BEE
330
1E
100
AcDbEntity
  8
7
100
AcDbLine
 10
-1.603346456692913
 20
-1.508858267716535
 30
0.0
 11
-1.603346456692913
 21
-1.513779527559055
 31
0.0
  0
LINE
  5
BEF
330
1E
100
AcDbEntity
  8
7
100
AcDbLine
 10
-1.616141732283464
 20
-1.531496062992125
 30
0.0
 11
-1.616141732283464
 21
-1.52755905511811
 31
0.0
  0
LINE
  5
BF0
330
1E
100
AcDbEntity
  8
7
100
AcDbLine
 10
-1.616141732283464
 20
-1.513779527559055
 30
0.0
 11
-1.616141732283464
 21
-1.509842519685039
 31
0.0
  0
LWPOLYLINE
  5
BF1
330
1E
100
AcDbEntity
  8
7
100
AcDbPolyline
 90
        3
 70
     0
 43
0.0098425196850394
 10
-1.637795275590551
 20
-1.540354330708661
 10
-1.637795275590551
 20
-1.534448818897637
 10
-1.637795275590551
 20
-1.532480314960629
  0
LINE
  5
BF6
330
1E
100
AcDbEntity
  8
7
100
AcDbLine
 10
-1.532480314960629
 20
-1.532480314960629
 30
0.0
 11
-1.532480314960629
 21
-1.52755905511811
 31
0.0
  0
LINE
  5
BF7
330
1E
100
AcDbEntity
  8
7
100
AcDbLine
 10
-1.603346456692913
 20
-1.52755905511811
 30
0.0
 11
-1.532480314960629
 21
-1.52755905511811
 31
0.0
  0
LINE
  5
BF8
330
1E
100
AcDbEntity
  8
7
100
AcDbLine
 10
-1.603346456692913
 20
-1.532480314960629
 30
0.0
 11
-1.603346456692913
 21
-1.52755905511811
 31
0.0
  0
LWPOLYLINE
  5
BF9
330
1E
100
AcDbEntity
  8
7
100
AcDbPolyline
 90
        3
 70
     0
 43
0.0098425196850394
 10
-1.637795275590551
 20
-1.549212598425196
 10
-1.637795275590551
 20
-1.547244094488188
 10
-1.637795275590551
 20
-1.541338582677165
  0
LINE
  5
BFE
330
1E
100
AcDbEntity
  8
7
100
AcDbLine
 10
-1.637795275590551
 20
-1.579724409448818
 30
0.0
 11
-1.637795275590551
 21
-1.574803149606299
 31
0.0
  0
LINE
  5
BFF
330
1E
100
AcDbEntity
  8
7
100
AcDbLine
 10
-1.637795275590551
 20
-1.574803149606299
 30
0.0
 11
-1.637795275590551
 21
-1.571850393700787
 31
0.0
  0
LINE
  5
C00
330
1E
100
AcDbEntity
  8
7
100
AcDbLine
 10
-1.617125984251968
 20
-1.549212598425196
 30
0.0
 11
-1.617125984251968
 21
-1.554133858267716
 31
0.0
  0
LINE
  5
C01
330
1E
100
AcDbEntity
  8
7
100
AcDbLine
 10
-1.617125984251968
 20
-1.567913385826771
 30
0.0
 11
-1.617125984251968
 21
-1.571850393700787
 31
0.0
  0
LWPOLYLINE
  5
C02
330
1E
100
AcDbEntity
  8
7
100
AcDbPolyline
 90
        3
 70
     0
 43
0.0098425196850394
 10
-1.637795275590551
 20
-1.589566929133858
 10
-1.637795275590551
 20
-1.586614173228346
 10
-1.637795275590551
 20
-1.580708661417322
  0
LWPOLYLINE
  5
C07
330
1E
100
AcDbEntity
  8
7
100
AcDbPolyline
 90
        3
 70
     0
 43
0.0098425196850394
 10
-1.637795275590551
 20
-1.62007874015748
 10
-1.637795275590551
 20
-1.614173228346456
 10
-1.637795275590551
 20
-1.612204724409448
  0
LINE
  5
C0C
330
1E
100
AcDbEntity
  8
7
100
AcDbLine
 10
-1.617125984251968
 20
-1.589566929133858
 30
0.0
 11
-1.617125984251968
 21
-1.593503937007874
 31
0.0
  0
LINE
  5
C0D
330
1E
100
AcDbEntity
  8
7
100
AcDbLine
 10
-1.617125984251968
 20
-1.607283464566929
 30
0.0
 11
-1.617125984251968
 21
-1.611220472440944
 31
0.0
  0
LWPOLYLINE
  5
C0E
330
1E
100
AcDbEntity
  8
7
100
AcDbPolyline
 90
        3
 70
     0
 43
0.0098425196850394
 10
-1.637795275590551
 20
-1.621062992125984
 10
-1.637795275590551
 20
-1.626968503937007
 10
-1.637795275590551
 20
-1.628937007874015
  0
LWPOLYLINE
  5
C13
330
1E
100
AcDbEntity
  8
7
100
AcDbPolyline
 90
        3
 70
     0
 43
0.0098425196850394
 10
-1.637795275590551
 20
-1.65255905511811
 10
-1.637795275590551
 20
-1.654527559055118
 10
-1.637795275590551
 20
-1.660433070866141
  0
LINE
  5
C18
330
1E
100
AcDbEntity
  8
7
100
AcDbLine
 10
-1.617125984251968
 20
-1.651574803149606
 30
0.0
 11
-1.617125984251968
 21
-1.64763779527559
 31
0.0
  0
LINE
  5
C19
330
1E
100
AcDbEntity
  8
7
100
AcDbLine
 10
-1.617125984251968
 20
-1.633858267716535
 30
0.0
 11
-1.617125984251968
 21
-1.629921259842519
 31
0.0
  0
LINE
  5
C1A
330
1E
100
AcDbEntity
  8
7
100
AcDbLine
 10
-1.637795275590551
 20
-1.661417322834645
 30
0.0
 11
-1.637795275590551
 21
-1.666338582677165
 31
0.0
  0
LINE
  5
C1B
330
1E
100
AcDbEntity
  8
7
100
AcDbLine
 10
-1.637795275590551
 20
-1.666338582677165
 30
0.0
 11
-1.637795275590551
 21
-1.669291338582677
 31
0.0
  0
LWPOLYLINE
  5
C1C
330
1E
100
AcDbEntity
  8
7
100
AcDbPolyline
 90
        3
 70
     0
 43
0.0098425196850394
 10
-1.637795275590551
 20
-1.691929133858267
 10
-1.637795275590551
 20
-1.694881889763779
 10
-1.637795275590551
 20
-1.699803149606299
  0
LINE
  5
C21
330
1E
100
AcDbEntity
  8
7
100
AcDbLine
 10
-1.617125984251968
 20
-1.691929133858267
 30
0.0
 11
-1.617125984251968
 21
-1.687992125984251
 31
0.0
  0
LINE
  5
C22
330
1E
100
AcDbEntity
  8
7
100
AcDbLine
 10
-1.617125984251968
 20
-1.673228346456692
 30
0.0
 11
-1.617125984251968
 21
-1.669291338582677
 31
0.0
  0
LWPOLYLINE
  5
C23
330
1E
100
AcDbEntity
  8
7
100
AcDbPolyline
 90
        3
 70
     0
 43
0.0098425196850394
 10
-1.532480314960629
 20
-1.732283464566929
 10
-1.532480314960629
 20
-1.728346456692913
 10
-1.603346456692913
 20
-1.728346456692913
  0
LINE
  5
C28
330
1E
100
AcDbEntity
  8
7
100
AcDbLine
 10
-1.603346456692913
 20
-1.732283464566929
 30
0.0
 11
-1.603346456692913
 21
-1.728346456692913
 31
0.0
  0
LWPOLYLINE
  5
C29
330
1E
100
AcDbEntity
  8
7
100
AcDbPolyline
 90
        3
 70
     0
 43
0.0098425196850394
 10
-1.637795275590551
 20
-1.732283464566929
 10
-1.637795275590551
 20
-1.734251968503937
 10
-1.637795275590551
 20
-1.74015748031496
  0
LWPOLYLINE
  5
C2E
330
1E
100
AcDbEntity
  8
7
100
AcDbPolyline
 90
        3
 70
     0
 43
0.0098425196850394
 10
-1.637795275590551
 20
-1.700787401574803
 10
-1.637795275590551
 20
-1.706692913385826
 10
-1.637795275590551
 20
-1.709645669291338
  0
LINE
  5
C33
330
1E
100
AcDbEntity
  8
7
100
AcDbLine
 10
-1.603346456692913
 20
-1.713582677165354
 30
0.0
 11
-1.532480314960629
 21
-1.713582677165354
 31
0.0
  0
LINE
  5
C34
330
1E
100
AcDbEntity
  8
7
100
AcDbLine
 10
-1.532480314960629
 20
-1.709645669291338
 30
0.0
 11
-1.532480314960629
 21
-1.713582677165354
 31
0.0
  0
LINE
  5
C35
330
1E
100
AcDbEntity
  8
7
100
AcDbLine
 10
-1.603346456692913
 20
-1.709645669291338
 30
0.0
 11
-1.603346456692913
 21
-1.713582677165354
 31
0.0
  0
LINE
  5
C36
330
1E
100
AcDbEntity
  8
7
100
AcDbLine
 10
-1.616141732283464
 20
-1.731299212598425
 30
0.0
 11
-1.616141732283464
 21
-1.727362204724409
 31
0.0
  0
LINE
  5
C37
330
1E
100
AcDbEntity
  8
7
100
AcDbLine
 10
-1.616141732283464
 20
-1.713582677165354
 30
0.0
 11
-1.616141732283464
 21
-1.709645669291338
 31
0.0
  0
LWPOLYLINE
  5
C38
330
1E
100
AcDbEntity
  8
7
100
AcDbPolyline
 90
        3
 70
     0
 43
0.0098425196850394
 10
-1.637795275590551
 20
-1.5
 10
-1.637795275590551
 20
-1.494094488188976
 10
-1.637795275590551
 20
-1.492125984251968
  0
LWPOLYLINE
  5
C3D
330
1E
100
AcDbEntity
  8
7
100
AcDbPolyline
 90
        3
 70
     0
 43
0.0098425196850394
 10
-1.637795275590551
 20
-1.741141732283464
 10
-1.637795275590551
 20
-1.747047244094488
 10
-1.637795275590551
 20
-1.749015748031496
  0
LWPOLYLINE
  5
C42
330
1E
100
AcDbEntity
  8
7
100
AcDbPolyline
 90
        3
 70
     0
 43
0.0098425196850394
 10
-1.637795275590551
 20
-1.469488188976377
 10
-1.637795275590551
 20
-1.466535433070866
 10
-1.637795275590551
 20
-1.461614173228346
  0
LINE
  5
C47
330
1E
100
AcDbEntity
  8
7
100
AcDbLine
 10
-1.617125984251968
 20
-1.469488188976377
 30
0.0
 11
-1.617125984251968
 21
-1.473425196850393
 31
0.0
  0
LINE
  5
C48
330
1E
100
AcDbEntity
  8
7
100
AcDbLine
 10
-1.617125984251968
 20
-1.487204724409448
 30
0.0
 11
-1.617125984251968
 21
-1.492125984251968
 31
0.0
  0
LWPOLYLINE
  5
C49
330
1E
100
AcDbEntity
  8
7
100
AcDbPolyline
 90
        3
 70
     0
 43
0.0098425196850394
 10
-1.637795275590551
 20
-1.77263779527559
 10
-1.637795275590551
 20
-1.774606299212598
 10
-1.637795275590551
 20
-1.780511811023622
  0
LINE
  5
C4E
330
1E
100
AcDbEntity
  8
7
100
AcDbLine
 10
-1.474409448818897
 20
-1.780511811023622
 30
0.0
 11
-1.637795275590551
 21
-1.780511811023622
 31
0.0
  0
LINE
  5
C4F
330
1E
100
AcDbEntity
  8
7
100
AcDbLine
 10
-1.617125984251968
 20
-1.771653543307086
 30
0.0
 11
-1.617125984251968
 21
-1.76771653543307
 31
0.0
  0
LINE
  5
C50
330
1E
100
AcDbEntity
  8
7
100
AcDbLine
 10
-1.617125984251968
 20
-1.753937007874015
 30
0.0
 11
-1.617125984251968
 21
-1.75
 31
0.0
  0
LINE
  5
C51
330
1E
100
AcDbEntity
  8
7
100
AcDbLine
 10
-1.565944881889763
 20
-1.830708661417322
 30
0.0
 11
-1.637795275590551
 21
-1.830708661417322
 31
0.0
  0
LINE
  5
C52
330
1E
100
AcDbEntity
  8
7
100
AcDbLine
 10
-1.523622047244094
 20
-1.827755905511811
 30
0.0
 11
-1.43011811023622
 21
-1.827755905511811
 31
0.0
  0
LINE
  5
C53
330
1E
100
AcDbEntity
  8
7
100
AcDbLine
 10
-1.43011811023622
 20
-1.780511811023622
 30
0.0
 11
-1.43011811023622
 21
-1.827755905511811
 31
0.0
  0
LWPOLYLINE
  5
C54
330
1E
100
AcDbEntity
  8
7
100
AcDbPolyline
 90
        3
 70
     0
 43
0.0098425196850394
 10
-1.637795275590551
 20
-1.830708661417322
 10
-1.637795275590551
 20
-1.844488188976377
 10
-1.637795275590551
 20
-1.850393700787401
  0
LWPOLYLINE
  5
C59
330
1E
100
AcDbEntity
  8
7
100
AcDbPolyline
 90
        3
 70
     0
 43
0.0098425196850394
 10
-1.43011811023622
 20
-1.827755905511811
 10
-1.43011811023622
 20
-1.835629921259842
 10
-1.43011811023622
 20
-1.838582677165354
  0
LWPOLYLINE
  5
C5E
330
1E
100
AcDbEntity
  8
7
100
AcDbPolyline
 90
        3
 70
     0
 43
0.0098425196850394
 10
-1.359251968503937
 20
-1.838582677165354
 10
-1.359251968503937
 20
-1.835629921259842
 10
-1.359251968503937
 20
-1.827755905511811
  0
LWPOLYLINE
  5
C63
330
1E
100
AcDbEntity
  8
7
100
AcDbPolyline
 90
        3
 70
     0
 43
0.0098425196850394
 10
-1.14763779527559
 20
-1.838582677165354
 10
-1.14763779527559
 20
-1.835629921259842
 10
-1.14763779527559
 20
-1.827755905511811
  0
LWPOLYLINE
  5
C68
330
1E
100
AcDbEntity
  8
7
100
AcDbPolyline
 90
        3
 70
     0
 43
0.0098425196850394
 10
-1.137795275590551
 20
-1.827755905511811
 10
-1.134842519685039
 20
-1.834645669291338
 10
-1.127952755905511
 20
-1.83759842519685
  0
LWPOLYLINE
  5
C6D
330
1E
100
AcDbEntity
  8
7
100
AcDbPolyline
 90
        4
 70
     0
 43
0.0098425196850394
 10
-1.118110236220472
 20
-1.838582677165354
 10
-1.118110236220472
 20
-1.835629921259842
 10
-1.118110236220472
 20
-1.827755905511811
 10
-0.937992125984252
 20
-1.827755905511811
  0
LINE
  5
C73
330
1E
100
AcDbEntity
  8
7
100
AcDbLine
 10
-0.8277559055118109
 20
-1.635826771653543
 30
0.0
 11
-0.8277559055118109
 21
-1.605314960629921
 31
0.0
  0
LINE
  5
C74
330
1E
100
AcDbEntity
  8
7
100
AcDbLine
 10
-0.9507874015748031
 20
-1.81003937007874
 30
0.0
 11
-0.9507874015748031
 21
-1.765748031496062
 31
0.0
  0
LINE
  5
C75
330
1E
100
AcDbEntity
  8
7
100
AcDbLine
 10
-0.9507874015748031
 20
-1.81003937007874
 30
0.0
 11
-0.9507874015748031
 21
-1.431102362204724
 31
0.0
  0
LINE
  5
C76
330
1E
100
AcDbEntity
  8
7
100
AcDbLine
 10
-0.9350393700787401
 20
-1.602362204724409
 30
0.0
 11
-0.9350393700787401
 21
-1.638779527559055
 31
0.0
  0
LINE
  5
C77
330
1E
100
AcDbEntity
  8
7
100
AcDbLine
 10
-1.085629921259842
 20
-1.809055118110236
 30
0.0
 11
-1.085629921259842
 21
-1.432086614173228
 31
0.0
  0
LINE
  5
C78
330
1E
100
AcDbEntity
  8
7
100
AcDbLine
 10
-1.065944881889763
 20
-1.432086614173228
 30
0.0
 11
-1.065944881889763
 21
-1.809055118110236
 31
0.0
  0
LINE
  5
C79
330
1E
100
AcDbEntity
  8
7
100
AcDbLine
 10
-1.064960629921259
 20
-1.809055118110236
 30
0.0
 11
-1.064960629921259
 21
-1.432086614173228
 31
0.0
  0
LINE
  5
C7A
330
1E
100
AcDbEntity
  8
7
100
AcDbLine
 10
-1.531496062992125
 20
-1.52755905511811
 30
0.0
 11
-1.532480314960629
 21
-1.52755905511811
 31
0.0
  0
LINE
  5
C7B
330
1E
100
AcDbEntity
  8
7
100
AcDbLine
 10
-1.531496062992125
 20
-1.513779527559055
 30
0.0
 11
-1.532480314960629
 21
-1.513779527559055
 31
0.0
  0
LINE
  5
C7C
330
1E
100
AcDbEntity
  8
7
100
AcDbLine
 10
-1.531496062992125
 20
-1.713582677165354
 30
0.0
 11
-1.532480314960629
 21
-1.713582677165354
 31
0.0
  0
LINE
  5
C7D
330
1E
100
AcDbEntity
  8
7
100
AcDbLine
 10
-1.531496062992125
 20
-1.728346456692913
 30
0.0
 11
-1.532480314960629
 21
-1.728346456692913
 31
0.0
  0
LINE
  5
C7E
330
1E
100
AcDbEntity
  8
7
100
AcDbLine
 10
-1.693897637795275
 20
-1.74015748031496
 30
0.0
 11
-1.70767716535433
 21
-1.734251968503937
 31
0.0
  0
LINE
  5
C7F
330
1E
100
AcDbEntity
  8
7
100
AcDbLine
 10
-1.693897637795275
 20
-1.500984251968503
 30
0.0
 11
-1.70767716535433
 21
-1.506889763779527
 31
0.0
  0
LWPOLYLINE
  5
C80
330
1E
100
AcDbEntity
  8
7
100
AcDbPolyline
 90
        3
 70
     0
 43
0.0098425196850394
 10
-0.8179133858267716
 20
-1.410433070866141
 10
-0.8179133858267716
 20
-1.396653543307086
 10
-0.8179133858267716
 20
-1.390748031496062
  0
LINE
  5
C85
330
1E
100
AcDbEntity
  8
7
100
AcDbLine
 10
-0.8179133858267716
 20
-1.450787401574803
 30
0.0
 11
-0.8179133858267716
 21
-1.410433070866141
 31
0.0
  0
LWPOLYLINE
  5
C86
330
1E
100
AcDbEntity
  8
7
100
AcDbPolyline
 90
        3
 70
     0
 43
0.0098425196850394
 10
-1.132874015748031
 20
-1.400590551181102
 10
-1.136811023622047
 20
-1.400590551181102
 10
-1.14763779527559
 20
-1.400590551181102
  0
LWPOLYLINE
  5
C8B
330
1E
100
AcDbEntity
  8
7
100
AcDbPolyline
 90
        3
 70
     0
 43
0.0098425196850394
 10
-1.14763779527559
 20
-1.390748031496062
 10
-1.136811023622047
 20
-1.390748031496062
 10
-1.132874015748031
 20
-1.390748031496062
  0
LINE
  5
C90
330
1E
100
AcDbEntity
  8
7
100
AcDbLine
 10
-1.14763779527559
 20
-1.390748031496062
 30
0.0
 11
-1.14763779527559
 21
-1.400590551181102
 31
0.0
  0
LWPOLYLINE
  5
C91
330
1E
100
AcDbEntity
  8
7
100
AcDbPolyline
 90
        3
 70
     0
 43
0.0098425196850394
 10
-1.123031496062992
 20
-1.390748031496062
 10
-1.129921259842519
 20
-1.390748031496062
 10
-1.132874015748031
 20
-1.390748031496062
  0
LINE
  5
C96
330
1E
100
AcDbEntity
  8
7
100
AcDbLine
 10
-1.123031496062992
 20
-1.390748031496062
 30
0.0
 11
-0.937992125984252
 21
-1.390748031496062
 31
0.0
  0
LINE
  5
C97
330
1E
100
AcDbEntity
  8
7
100
AcDbLine
 10
-0.8179133858267716
 20
-1.390748031496062
 30
0.0
 11
-0.937992125984252
 21
-1.390748031496062
 31
0.0
  0
LWPOLYLINE
  5
C98
330
1E
100
AcDbEntity
  8
7
100
AcDbPolyline
 90
        5
 70
     0
 43
0.0098425196850394
 10
-1.558070866141732
 20
-1.390748031496062
 10
-1.553149606299212
 20
-1.390748031496062
 10
-1.543307086614173
 20
-1.390748031496062
 10
-1.449803149606299
 20
-1.390748031496062
 10
-1.442913385826771
 20
-1.390748031496062
  0
LWPOLYLINE
  5
C9F
330
1E
100
AcDbEntity
  8
7
100
AcDbPolyline
 90
       12
 70
     0
 43
0.0098425196850394
 10
-1.442913385826771
 20
-1.390748031496062
 10
-1.439960629921259
 20
-1.390748031496062
 10
-1.43503937007874
 20
-1.390748031496062
 10
-1.424212598425196
 20
-1.390748031496062
 10
-1.419291338582677
 20
-1.390748031496062
 10
-1.37007874015748
 20
-1.390748031496062
 10
-1.364173228346456
 20
-1.390748031496062
 10
-1.354330708661417
 20
-1.390748031496062
 10
-1.349409448818897
 20
-1.390748031496062
 10
-1.346456692913385
 20
-1.390748031496062
 10
-1.339566929133858
 20
-1.390748031496062
 10
-1.14763779527559
 20
-1.390748031496062
  0
LINE
  5
CAD
330
1E
100
AcDbEntity
  8
7
100
AcDbLine
 10
-0.937992125984252
 20
-1.400590551181102
 30
0.0
 11
-1.123031496062992
 21
-1.400590551181102
 31
0.0
  0
LWPOLYLINE
  5
CAE
330
1E
100
AcDbEntity
  8
7
100
AcDbPolyline
 90
        3
 70
     0
 43
0.0098425196850394
 10
-1.132874015748031
 20
-1.400590551181102
 10
-1.129921259842519
 20
-1.400590551181102
 10
-1.123031496062992
 20
-1.400590551181102
  0
LWPOLYLINE
  5
CB3
330
1E
100
AcDbEntity
  8
7
100
AcDbPolyline
 90
        7
 70
     0
 43
0.0098425196850394
 10
-1.14763779527559
 20
-1.400590551181102
 10
-1.339566929133858
 20
-1.400590551181102
 10
-1.346456692913385
 20
-1.400590551181102
 10
-1.349409448818897
 20
-1.400590551181102
 10
-1.354330708661417
 20
-1.400590551181102
 10
-1.364173228346456
 20
-1.400590551181102
 10
-1.37007874015748
 20
-1.400590551181102
  0
LWPOLYLINE
  5
CBC
330
1E
100
AcDbEntity
  8
7
100
AcDbPolyline
 90
        9
 70
     0
 43
0.0098425196850394
 10
-1.419291338582677
 20
-1.400590551181102
 10
-1.424212598425196
 20
-1.400590551181102
 10
-1.43503937007874
 20
-1.400590551181102
 10
-1.439960629921259
 20
-1.400590551181102
 10
-1.442913385826771
 20
-1.400590551181102
 10
-1.449803149606299
 20
-1.400590551181102
 10
-1.543307086614173
 20
-1.400590551181102
 10
-1.553149606299212
 20
-1.400590551181102
 10
-1.558070866141732
 20
-1.400590551181102
  0
LINE
  5
CC7
330
1E
100
AcDbEntity
  8
7
100
AcDbLine
 10
-1.339566929133858
 20
-1.390748031496062
 30
0.0
 11
-1.339566929133858
 21
-1.400590551181102
 31
0.0
  0
LINE
  5
CC8
330
1E
100
AcDbEntity
  8
7
100
AcDbLine
 10
-0.8080708661417322
 20
-1.600393700787401
 30
0.0
 11
-0.8080708661417322
 21
-1.640748031496062
 31
0.0
  0
LINE
  5
CC9
330
1E
100
AcDbEntity
  8
7
100
AcDbLine
 10
-0.9507874015748031
 20
-1.729330708661417
 30
0.0
 11
-0.9576771653543307
 21
-1.729330708661417
 31
0.0
  0
LINE
  5
CCA
330
1E
100
AcDbEntity
  8
7
100
AcDbLine
 10
-0.9507874015748031
 20
-1.512795275590551
 30
0.0
 11
-0.9576771653543307
 21
-1.512795275590551
 31
0.0
  0
LINE
  5
CCB
330
1E
100
AcDbEntity
  8
7
100
AcDbLine
 10
-1.488188976377952
 20
-1.400590551181102
 30
0.0
 11
-1.488188976377952
 21
-1.403543307086614
 31
0.0
  0
LINE
  5
CCC
330
1E
100
AcDbEntity
  8
7
100
AcDbLine
 10
-1.558070866141732
 20
-1.400590551181102
 30
0.0
 11
-1.558070866141732
 21
-1.390748031496062
 31
0.0
  0
LINE
  5
CCD
330
1E
100
AcDbEntity
  8
7
100
AcDbLine
 10
-1.543307086614173
 20
-1.390748031496062
 30
0.0
 11
-1.543307086614173
 21
-1.400590551181102
 31
0.0
  0
LINE
  5
CCE
330
1E
100
AcDbEntity
  8
7
100
AcDbLine
 10
-1.439960629921259
 20
-1.400590551181102
 30
0.0
 11
-1.439960629921259
 21
-1.390748031496062
 31
0.0
  0
LINE
  5
CCF
330
1E
100
AcDbEntity
  8
7
100
AcDbLine
 10
-1.349409448818897
 20
-1.390748031496062
 30
0.0
 11
-1.349409448818897
 21
-1.400590551181102
 31
0.0
  0
LINE
  5
CD0
330
1E
100
AcDbEntity
  8
7
100
AcDbLine
 10
-1.558070866141732
 20
-1.850393700787401
 30
0.0
 11
-1.558070866141732
 21
-1.840551181102362
 31
0.0
  0
LINE
  5
CD1
330
1E
100
AcDbEntity
  8
7
100
AcDbLine
 10
-1.488188976377952
 20
-1.838582677165354
 30
0.0
 11
-1.488188976377952
 21
-1.840551181102362
 31
0.0
  0
LWPOLYLINE
  5
CD2
330
1E
100
AcDbEntity
  8
7
100
AcDbPolyline
 90
        4
 70
     0
 43
0.0098425196850394
 10
-0.8179133858267716
 20
-1.790354330708661
 10
-0.8179133858267716
 20
-1.830708661417322
 10
-0.8179133858267716
 20
-1.844488188976377
 10
-0.8179133858267716
 20
-1.850393700787401
  0
LWPOLYLINE
  5
CD8
330
1E
100
AcDbEntity
  8
7
100
AcDbPolyline
 90
        9
 70
     0
 43
0.0098425196850394
 10
-1.558070866141732
 20
-1.840551181102362
 10
-1.553149606299212
 20
-1.840551181102362
 10
-1.543307086614173
 20
-1.840551181102362
 10
-1.449803149606299
 20
-1.840551181102362
 10
-1.442913385826771
 20
-1.840551181102362
 10
-1.439960629921259
 20
-1.840551181102362
 10
-1.43503937007874
 20
-1.840551181102362
 10
-1.424212598425196
 20
-1.840551181102362
 10
-1.419291338582677
 20
-1.840551181102362
  0
LWPOLYLINE
  5
CE3
330
1E
100
AcDbEntity
  8
7
100
AcDbPolyline
 90
        4
 70
     0
 43
0.0098425196850394
 10
-1.37007874015748
 20
-1.840551181102362
 10
-1.364173228346456
 20
-1.840551181102362
 10
-1.354330708661417
 20
-1.840551181102362
 10
-1.349409448818897
 20
-1.840551181102362
  0
LWPOLYLINE
  5
CE9
330
1E
100
AcDbEntity
  8
7
100
AcDbPolyline
 90
        9
 70
     0
 43
0.0098425196850394
 10
-1.349409448818897
 20
-1.840551181102362
 10
-1.346456692913385
 20
-1.840551181102362
 10
-1.339566929133858
 20
-1.840551181102362
 10
-1.14763779527559
 20
-1.840551181102362
 10
-1.136811023622047
 20
-1.840551181102362
 10
-1.132874015748031
 20
-1.840551181102362
 10
-1.129921259842519
 20
-1.840551181102362
 10
-1.123031496062992
 20
-1.840551181102362
 10
-0.937992125984252
 20
-1.840551181102362
  0
LWPOLYLINE
  5
CF4
330
1E
100
AcDbEntity
  8
7
100
AcDbPolyline
 90
        7
 70
     0
 43
0.0098425196850394
 10
-0.8179133858267716
 20
-1.850393700787401
 10
-0.937992125984252
 20
-1.850393700787401
 10
-1.123031496062992
 20
-1.850393700787401
 10
-1.129921259842519
 20
-1.850393700787401
 10
-1.132874015748031
 20
-1.850393700787401
 10
-1.136811023622047
 20
-1.850393700787401
 10
-1.14763779527559
 20
-1.850393700787401
  0
LINE
  5
CFD
330
1E
100
AcDbEntity
  8
7
100
AcDbLine
 10
-1.339566929133858
 20
-1.850393700787401
 30
0.0
 11
-1.14763779527559
 21
-1.850393700787401
 31
0.0
  0
LWPOLYLINE
  5
CFE
330
1E
100
AcDbEntity
  8
7
100
AcDbPolyline
 90
       12
 70
     0
 43
0.0098425196850394
 10
-1.339566929133858
 20
-1.850393700787401
 10
-1.346456692913385
 20
-1.850393700787401
 10
-1.349409448818897
 20
-1.850393700787401
 10
-1.354330708661417
 20
-1.850393700787401
 10
-1.364173228346456
 20
-1.850393700787401
 10
-1.37007874015748
 20
-1.850393700787401
 10
-1.419291338582677
 20
-1.850393700787401
 10
-1.424212598425196
 20
-1.850393700787401
 10
-1.43503937007874
 20
-1.850393700787401
 10
-1.439960629921259
 20
-1.850393700787401
 10
-1.442913385826771
 20
-1.850393700787401
 10
-1.449803149606299
 20
-1.850393700787401
  0
LINE
  5
D0C
330
1E
100
AcDbEntity
  8
7
100
AcDbLine
 10
-1.543307086614173
 20
-1.850393700787401
 30
0.0
 11
-1.449803149606299
 21
-1.850393700787401
 31
0.0
  0
LWPOLYLINE
  5
D0D
330
1E
100
AcDbEntity
  8
7
100
AcDbPolyline
 90
        3
 70
     0
 43
0.0098425196850394
 10
-1.543307086614173
 20
-1.850393700787401
 10
-1.553149606299212
 20
-1.850393700787401
 10
-1.558070866141732
 20
-1.850393700787401
  0
LINE
  5
D12
330
1E
100
AcDbEntity
  8
7
100
AcDbLine
 10
-1.37007874015748
 20
-1.390748031496062
 30
0.0
 11
-1.419291338582677
 21
-1.390748031496062
 31
0.0
  0
LINE
  5
D13
330
1E
100
AcDbEntity
  8
7
100
AcDbLine
 10
-1.449803149606299
 20
-1.400590551181102
 30
0.0
 11
-1.449803149606299
 21
-1.390748031496062
 31
0.0
  0
LINE
  5
D14
330
1E
100
AcDbEntity
  8
7
100
AcDbLine
 10
-1.419291338582677
 20
-1.461614173228346
 30
0.0
 11
-1.419291338582677
 21
-1.400590551181102
 31
0.0
  0
LINE
  5
D15
330
1E
100
AcDbEntity
  8
7
100
AcDbLine
 10
-1.419291338582677
 20
-1.461614173228346
 30
0.0
 11
-1.37007874015748
 21
-1.461614173228346
 31
0.0
  0
LINE
  5
D16
330
1E
100
AcDbEntity
  8
7
100
AcDbLine
 10
-1.37007874015748
 20
-1.400590551181102
 30
0.0
 11
-1.37007874015748
 21
-1.461614173228346
 31
0.0
  0
LINE
  5
D17
330
1E
100
AcDbEntity
  8
7
100
AcDbLine
 10
-1.37007874015748
 20
-1.400590551181102
 30
0.0
 11
-1.419291338582677
 21
-1.400590551181102
 31
0.0
  0
LWPOLYLINE
  5
D18
330
1E
100
AcDbEntity
  8
7
100
AcDbPolyline
 90
        4
 70
     0
 43
0.0098425196850394
 10
-1.419291338582677
 20
-1.461614173228346
 10
-1.419291338582677
 20
-1.468503937007874
 10
-1.419291338582677
 20
-1.471456692913385
 10
-1.37007874015748
 20
-1.471456692913385
  0
LWPOLYLINE
  5
D1E
330
1E
100
AcDbEntity
  8
7
100
AcDbPolyline
 90
        3
 70
     0
 43
0.0098425196850394
 10
-1.37007874015748
 20
-1.461614173228346
 10
-1.37007874015748
 20
-1.468503937007874
 10
-1.37007874015748
 20
-1.471456692913385
  0
LWPOLYLINE
  5
D23
330
1E
100
AcDbEntity
  8
7
100
AcDbPolyline
 90
        3
 70
     0
 43
0.0098425196850394
 10
-1.419291338582677
 20
-1.390748031496062
 10
-1.419291338582677
 20
-1.393700787401574
 10
-1.419291338582677
 20
-1.400590551181102
  0
LWPOLYLINE
  5
D28
330
1E
100
AcDbEntity
  8
7
100
AcDbPolyline
 90
        3
 70
     0
 43
0.0098425196850394
 10
-1.37007874015748
 20
-1.390748031496062
 10
-1.37007874015748
 20
-1.393700787401574
 10
-1.37007874015748
 20
-1.400590551181102
  0
LINE
  5
D2D
330
1E
100
AcDbEntity
  8
7
100
AcDbLine
 10
-1.14763779527559
 20
-1.850393700787401
 30
0.0
 11
-1.14763779527559
 21
-1.840551181102362
 31
0.0
  0
LWPOLYLINE
  5
D2E
330
1E
100
AcDbEntity
  8
7
100
AcDbPolyline
 90
        3
 70
     0
 43
0.0098425196850394
 10
-1.419291338582677
 20
-1.780511811023622
 10
-1.419291338582677
 20
-1.77263779527559
 10
-1.419291338582677
 20
-1.769685039370078
  0
LINE
  5
D33
330
1E
100
AcDbEntity
  8
7
100
AcDbLine
 10
-1.37007874015748
 20
-1.780511811023622
 30
0.0
 11
-1.419291338582677
 21
-1.780511811023622
 31
0.0
  0
LWPOLYLINE
  5
D34
330
1E
100
AcDbEntity
  8
7
100
AcDbPolyline
 90
        3
 70
     0
 43
0.0098425196850394
 10
-1.37007874015748
 20
-1.769685039370078
 10
-1.37007874015748
 20
-1.77263779527559
 10
-1.37007874015748
 20
-1.780511811023622
  0
LINE
  5
D39
330
1E
100
AcDbEntity
  8
7
100
AcDbLine
 10
-1.419291338582677
 20
-1.769685039370078
 30
0.0
 11
-1.37007874015748
 21
-1.769685039370078
 31
0.0
  0
LWPOLYLINE
  5
D3A
330
1E
100
AcDbEntity
  8
7
100
AcDbPolyline
 90
        4
 70
     0
 43
0.0098425196850394
 10
-1.419291338582677
 20
-1.780511811023622
 10
-1.419291338582677
 20
-1.840551181102362
 10
-1.37007874015748
 20
-1.840551181102362
 10
-1.37007874015748
 20
-1.780511811023622
  0
LWPOLYLINE
  5
D40
330
1E
100
AcDbEntity
  8
7
100
AcDbPolyline
 90
        3
 70
     0
 43
0.0098425196850394
 10
-1.419291338582677
 20
-1.850393700787401
 10
-1.419291338582677
 20
-1.847440944881889
 10
-1.419291338582677
 20
-1.840551181102362
  0
LWPOLYLINE
  5
D45
330
1E
100
AcDbEntity
  8
7
100
AcDbPolyline
 90
        3
 70
     0
 43
0.0098425196850394
 10
-1.37007874015748
 20
-1.840551181102362
 10
-1.37007874015748
 20
-1.847440944881889
 10
-1.37007874015748
 20
-1.850393700787401
  0
LINE
  5
D4A
330
1E
100
AcDbEntity
  8
7
100
AcDbLine
 10
-1.543307086614173
 20
-1.840551181102362
 30
0.0
 11
-1.543307086614173
 21
-1.850393700787401
 31
0.0
  0
LINE
  5
D4B
330
1E
100
AcDbEntity
  8
7
100
AcDbLine
 10
-1.449803149606299
 20
-1.850393700787401
 30
0.0
 11
-1.449803149606299
 21
-1.840551181102362
 31
0.0
  0
LINE
  5
D4C
330
1E
100
AcDbEntity
  8
7
100
AcDbLine
 10
-1.439960629921259
 20
-1.850393700787401
 30
0.0
 11
-1.439960629921259
 21
-1.840551181102362
 31
0.0
  0
LINE
  5
D4D
330
1E
100
AcDbEntity
  8
7
100
AcDbLine
 10
-1.349409448818897
 20
-1.840551181102362
 30
0.0
 11
-1.349409448818897
 21
-1.850393700787401
 31
0.0
  0
LINE
  5
D4E
330
1E
100
AcDbEntity
  8
7
100
AcDbLine
 10
-1.339566929133858
 20
-1.840551181102362
 30
0.0
 11
-1.339566929133858
 21
-1.850393700787401
 31
0.0
  0
LINE
  5
D4F
330
1E
100
AcDbEntity
  8
7
100
AcDbLine
 10
-0.9281496062992125
 20
-1.635826771653543
 30
0.0
 11
-0.8228346456692912
 21
-1.635826771653543
 31
0.0
  0
LWPOLYLINE
  5
D50
330
1E
100
AcDbEntity
  8
7
100
AcDbPolyline
 90
        3
 70
     0
 43
0.0098425196850394
 10
-0.9281496062992125
 20
-1.635826771653543
 10
-0.9350393700787401
 20
-1.638779527559055
 10
-0.937992125984252
 20
-1.645669291338582
  0
LINE
  5
D55
330
1E
100
AcDbEntity
  8
7
100
AcDbLine
 10
-0.8179133858267716
 20
-1.640748031496062
 30
0.0
 11
-0.8179133858267716
 21
-1.790354330708661
 31
0.0
  0
LWPOLYLINE
  5
D56
330
1E
100
AcDbEntity
  8
7
100
AcDbPolyline
 90
        3
 70
     0
 43
0.0098425196850394
 10
-0.8080708661417322
 20
-1.790354330708661
 10
-0.811023622047244
 20
-1.790354330708661
 10
-0.8179133858267716
 20
-1.790354330708661
  0
LINE
  5
D5B
330
1E
100
AcDbEntity
  8
7
100
AcDbLine
 10
-0.8080708661417322
 20
-1.790354330708661
 30
0.0
 11
-0.8080708661417322
 21
-1.640748031496062
 31
0.0
  0
LWPOLYLINE
  5
D5C
330
1E
100
AcDbEntity
  8
7
100
AcDbPolyline
 90
        3
 70
     0
 43
0.0098425196850394
 10
-0.8179133858267716
 20
-1.640748031496062
 10
-0.811023622047244
 20
-1.640748031496062
 10
-0.8080708661417322
 20
-1.640748031496062
  0
LWPOLYLINE
  5
D61
330
1E
100
AcDbEntity
  8
7
100
AcDbPolyline
 90
        3
 70
     0
 43
0.0098425196850394
 10
-0.8179133858267716
 20
-1.640748031496062
 10
-0.8188976377952755
 20
-1.636811023622047
 10
-0.8228346456692912
 20
-1.635826771653543
  0
LWPOLYLINE
  5
D66
330
1E
100
AcDbEntity
  8
7
100
AcDbPolyline
 90
        3
 70
     0
 43
0.0098425196850394
 10
-0.937992125984252
 20
-1.830708661417322
 10
-0.937992125984252
 20
-1.844488188976377
 10
-0.937992125984252
 20
-1.850393700787401
  0
LINE
  5
D6B
330
1E
100
AcDbEntity
  8
7
100
AcDbLine
 10
-0.937992125984252
 20
-1.645669291338582
 30
0.0
 11
-0.937992125984252
 21
-1.830708661417322
 31
0.0
  0
LINE
  5
D6C
330
1E
100
AcDbEntity
  8
7
100
AcDbLine
 10
-1.132874015748031
 20
-1.850393700787401
 30
0.0
 11
-1.132874015748031
 21
-1.840551181102362
 31
0.0
  0
LINE
  5
D6D
330
1E
100
AcDbEntity
  8
7
100
AcDbLine
 10
-1.123031496062992
 20
-1.840551181102362
 30
0.0
 11
-1.123031496062992
 21
-1.850393700787401
 31
0.0
  0
LINE
  5
D6E
330
1E
100
AcDbEntity
  8
7
100
AcDbLine
 10
-0.937992125984252
 20
-1.830708661417322
 30
0.0
 11
-0.8179133858267716
 21
-1.830708661417322
 31
0.0
  0
LWPOLYLINE
  5
D6F
330
1E
100
AcDbEntity
  8
7
100
AcDbPolyline
 90
        3
 70
     0
 43
0.0098425196850394
 10
-0.937992125984252
 20
-1.595472440944881
 10
-0.9350393700787401
 20
-1.602362204724409
 10
-0.9281496062992125
 20
-1.605314960629921
  0
LINE
  5
D74
330
1E
100
AcDbEntity
  8
7
100
AcDbLine
 10
-0.9281496062992125
 20
-1.605314960629921
 30
0.0
 11
-0.8228346456692912
 21
-1.605314960629921
 31
0.0
  0
LWPOLYLINE
  5
D75
330
1E
100
AcDbEntity
  8
7
100
AcDbPolyline
 90
        3
 70
     0
 43
0.0098425196850394
 10
-0.8228346456692912
 20
-1.605314960629921
 10
-0.8188976377952755
 20
-1.604330708661417
 10
-0.8179133858267716
 20
-1.600393700787401
  0
LINE
  5
D7A
330
1E
100
AcDbEntity
  8
7
100
AcDbLine
 10
-0.8179133858267716
 20
-1.600393700787401
 30
0.0
 11
-0.8179133858267716
 21
-1.450787401574803
 31
0.0
  0
LWPOLYLINE
  5
D7B
330
1E
100
AcDbEntity
  8
7
100
AcDbPolyline
 90
        3
 70
     0
 43
0.0098425196850394
 10
-0.8080708661417322
 20
-1.600393700787401
 10
-0.811023622047244
 20
-1.600393700787401
 10
-0.8179133858267716
 20
-1.600393700787401
  0
LINE
  5
D80
330
1E
100
AcDbEntity
  8
7
100
AcDbLine
 10
-0.8080708661417322
 20
-1.600393700787401
 30
0.0
 11
-0.8080708661417322
 21
-1.450787401574803
 31
0.0
  0
LWPOLYLINE
  5
D81
330
1E
100
AcDbEntity
  8
7
100
AcDbPolyline
 90
        3
 70
     0
 43
0.0098425196850394
 10
-0.8179133858267716
 20
-1.450787401574803
 10
-0.811023622047244
 20
-1.450787401574803
 10
-0.8080708661417322
 20
-1.450787401574803
  0
LINE
  5
D86
330
1E
100
AcDbEntity
  8
7
100
AcDbLine
 10
-0.937992125984252
 20
-1.410433070866141
 30
0.0
 11
-0.8179133858267716
 21
-1.410433070866141
 31
0.0
  0
LWPOLYLINE
  5
D87
330
1E
100
AcDbEntity
  8
7
100
AcDbPolyline
 90
        4
 70
     0
 43
0.0098425196850394
 10
-0.937992125984252
 20
-1.595472440944881
 10
-0.937992125984252
 20
-1.410433070866141
 10
-0.937992125984252
 20
-1.396653543307086
 10
-0.937992125984252
 20
-1.390748031496062
  0
LINE
  5
D8D
330
1E
100
AcDbEntity
  8
7
100
AcDbLine
 10
-1.132874015748031
 20
-1.400590551181102
 30
0.0
 11
-1.132874015748031
 21
-1.390748031496062
 31
0.0
  0
LINE
  5
D8E
330
1E
100
AcDbEntity
  8
7
100
AcDbLine
 10
-1.123031496062992
 20
-1.400590551181102
 30
0.0
 11
-1.123031496062992
 21
-1.390748031496062
 31
0.0
  0
LINE
  5
D8F
330
1E
100
AcDbEntity
  8
7
100
AcDbLine
 10
-0.7962598425196851
 20
-1.74015748031496
 30
0.0
 11
-0.8080708661417322
 21
-1.741141732283464
 31
0.0
  0
LINE
  5
D90
330
1E
100
AcDbEntity
  8
7
100
AcDbLine
 10
-0.8179133858267716
 20
-1.812007874015747
 30
0.0
 11
-0.812992125984252
 21
-1.812007874015747
 31
0.0
  0
LINE
  5
D91
330
1E
100
AcDbEntity
  8
7
100
AcDbLine
 10
-0.625
 20
-1.812992125984251
 30
0.0
 11
-0.6171259842519686
 21
-1.812992125984251
 31
0.0
  0
LINE
  5
D92
330
1E
100
AcDbEntity
  8
7
100
AcDbLine
 10
-1.064960629921259
 20
-1.74015748031496
 30
0.0
 11
-0.951771653543307
 21
-1.742125984251968
 31
0.0
  0
LINE
  5
D93
330
1E
100
AcDbEntity
  8
7
100
AcDbLine
 10
-0.9507874015748031
 20
-1.742125984251968
 30
0.0
 11
-0.951771653543307
 21
-1.742125984251968
 31
0.0
  0
LINE
  5
D94
330
1E
100
AcDbEntity
  8
7
100
AcDbLine
 10
-0.8080708661417322
 20
-1.74507874015748
 30
0.0
 11
-0.7962598425196851
 21
-1.74507874015748
 31
0.0
  0
LINE
  5
D95
330
1E
100
AcDbEntity
  8
7
100
AcDbLine
 10
-0.8179133858267716
 20
-1.43011811023622
 30
0.0
 11
-0.812992125984252
 21
-1.43011811023622
 31
0.0
  0
LINE
  5
D96
330
1E
100
AcDbEntity
  8
7
100
AcDbLine
 10
-0.625
 20
-1.428149606299212
 30
0.0
 11
-0.6171259842519686
 21
-1.428149606299212
 31
0.0
  0
LINE
  5
D97
330
1E
100
AcDbEntity
  8
7
100
AcDbLine
 10
-0.7962598425196851
 20
-1.496062992125984
 30
0.0
 11
-0.8080708661417322
 21
-1.497047244094488
 31
0.0
  0
LINE
  5
D98
330
1E
100
AcDbEntity
  8
7
100
AcDbLine
 10
-0.9507874015748031
 20
-1.499015748031496
 30
0.0
 11
-0.951771653543307
 21
-1.499015748031496
 31
0.0
  0
LINE
  5
D99
330
1E
100
AcDbEntity
  8
7
100
AcDbLine
 10
-1.064960629921259
 20
-1.500984251968503
 30
0.0
 11
-0.951771653543307
 21
-1.499015748031496
 31
0.0
  0
LINE
  5
D9A
330
1E
100
AcDbEntity
  8
7
100
AcDbLine
 10
-0.7962598425196851
 20
-1.500984251968503
 30
0.0
 11
-0.8080708661417322
 21
-1.5
 31
0.0
  0
LINE
  5
D9B
330
1E
100
AcDbEntity
  8
7
100
AcDbLine
 10
-0.812992125984252
 20
-1.851377952755905
 30
0.0
 11
-0.75
 21
-1.852362204724409
 31
0.0
  0
LINE
  5
D9C
330
1E
100
AcDbEntity
  8
7
100
AcDbLine
 10
-0.7962598425196851
 20
-1.802165354330708
 30
0.0
 11
-0.7962598425196851
 21
-1.439960629921259
 31
0.0
  0
LINE
  5
D9D
330
1E
100
AcDbEntity
  8
7
100
AcDbLine
 10
-0.7962598425196851
 20
-1.802165354330708
 30
0.0
 11
-0.812992125984252
 21
-1.802165354330708
 31
0.0
  0
LINE
  5
D9E
330
1E
100
AcDbEntity
  8
7
100
AcDbLine
 10
-0.812992125984252
 20
-1.841535433070866
 30
0.0
 11
-0.812992125984252
 21
-1.802165354330708
 31
0.0
  0
LINE
  5
D9F
330
1E
100
AcDbEntity
  8
7
100
AcDbLine
 10
-0.75
 20
-1.841535433070866
 30
0.0
 11
-0.812992125984252
 21
-1.841535433070866
 31
0.0
  0
LWPOLYLINE
  5
DA0
330
1E
100
AcDbEntity
  8
7
100
AcDbPolyline
 90
        3
 70
     0
 43
0.0098425196850394
 10
-0.75
 20
-1.841535433070866
 10
-0.75
 20
-1.399606299212598
 10
-0.812992125984252
 20
-1.399606299212598
  0
LINE
  5
DA5
330
1E
100
AcDbEntity
  8
7
100
AcDbLine
 10
-0.812992125984252
 20
-1.439960629921259
 30
0.0
 11
-0.812992125984252
 21
-1.399606299212598
 31
0.0
  0
LINE
  5
DA6
330
1E
100
AcDbEntity
  8
7
100
AcDbLine
 10
-0.812992125984252
 20
-1.439960629921259
 30
0.0
 11
-0.7962598425196851
 21
-1.439960629921259
 31
0.0
  0
LINE
  5
DA7
330
1E
100
AcDbEntity
  8
7
100
AcDbLine
 10
-0.812992125984252
 20
-1.389763779527559
 30
0.0
 11
-0.75
 21
-1.389763779527559
 31
0.0
  0
LWPOLYLINE
  5
DA8
330
1E
100
AcDbEntity
  8
7
100
AcDbPolyline
 90
        3
 70
     0
 43
0.0098425196850394
 10
-0.812992125984252
 20
-1.399606299212598
 10
-0.812992125984252
 20
-1.39271653543307
 10
-0.812992125984252
 20
-1.389763779527559
  0
LWPOLYLINE
  5
DAD
330
1E
100
AcDbEntity
  8
7
100
AcDbPolyline
 90
        3
 70
     0
 43
0.0098425196850394
 10
-0.75
 20
-1.389763779527559
 10
-0.75
 20
-1.39271653543307
 10
-0.75
 20
-1.399606299212598
  0
LWPOLYLINE
  5
DB2
330
1E
100
AcDbEntity
  8
7
100
AcDbPolyline
 90
        3
 70
     0
 43
0.0098425196850394
 10
-0.812992125984252
 20
-1.841535433070866
 10
-0.812992125984252
 20
-1.848425196850393
 10
-0.812992125984252
 20
-1.851377952755905
  0
LWPOLYLINE
  5
DB7
330
1E
100
AcDbEntity
  8
7
100
AcDbPolyline
 90
        3
 70
     0
 43
0.0098425196850394
 10
-0.75
 20
-1.841535433070866
 10
-0.75
 20
-1.849409448818897
 10
-0.75
 20
-1.852362204724409
  0
LWPOLYLINE
  5
DBC
330
1E
100
AcDbEntity
  8
7
100
AcDbPolyline
 90
        3
 70
     0
 43
0.0098425196850394
 10
-0.625
 20
-1.841535433070866
 10
-0.625
 20
-1.399606299212598
 10
-0.75
 20
-1.399606299212598
  0
LINE
  5
DC1
330
1E
100
AcDbEntity
  8
7
100
AcDbLine
 10
-0.625
 20
-1.841535433070866
 30
0.0
 11
-0.75
 21
-1.841535433070866
 31
0.0
  0
LWPOLYLINE
  5
DC2
330
1E
100
AcDbEntity
  8
7
100
AcDbPolyline
 90
        3
 70
     0
 43
0.0098425196850394
 10
-0.625
 20
-1.390748031496062
 10
-0.625
 20
-1.39271653543307
 10
-0.625
 20
-1.399606299212598
  0
LWPOLYLINE
  5
DC7
330
1E
100
AcDbEntity
  8
7
100
AcDbPolyline
 90
        3
 70
     0
 43
0.0098425196850394
 10
-0.625
 20
-1.850393700787401
 10
-0.625
 20
-1.848425196850393
 10
-0.625
 20
-1.841535433070866
  0
LINE
  5
DCC
330
1E
100
AcDbEntity
  8
7
100
AcDbLine
 10
-0.625
 20
-1.749015748031496
 30
0.0
 11
-0.6171259842519686
 21
-1.750984251968503
 31
0.0
  0
LINE
  5
DCD
330
1E
100
AcDbEntity
  8
7
100
AcDbLine
 10
-0.75
 20
-1.852362204724409
 30
0.0
 11
-0.625
 21
-1.850393700787401
 31
0.0
  0
LINE
  5
DCE
330
1E
100
AcDbEntity
  8
7
100
AcDbLine
 10
-0.625
 20
-1.492125984251968
 30
0.0
 11
-0.6171259842519686
 21
-1.49015748031496
 31
0.0
  0
LINE
  5
DCF
330
1E
100
AcDbEntity
  8
7
100
AcDbLine
 10
-0.75
 20
-1.389763779527559
 30
0.0
 11
-0.625
 21
-1.390748031496062
 31
0.0
  0
LWPOLYLINE
  5
DD0
330
1E
100
AcDbEntity
  8
7
100
AcDbPolyline
 90
        3
 70
     0
 43
0.0098425196850394
 10
-0.9507874015748031
 20
-1.456692913385826
 10
-0.9596456692913385
 20
-1.456692913385826
 10
-0.9606299212598424
 20
-1.456692913385826
  0
LINE
  5
DD5
330
1E
100
AcDbEntity
  8
7
100
AcDbLine
 10
-0.9783464566929133
 20
-1.456692913385826
 30
0.0
 11
-0.9606299212598424
 21
-1.456692913385826
 31
0.0
  0
LWPOLYLINE
  5
DD6
330
1E
100
AcDbEntity
  8
7
100
AcDbPolyline
 90
        3
 70
     0
 43
0.0098425196850394
 10
-0.9783464566929133
 20
-1.456692913385826
 10
-0.9901574803149607
 20
-1.456692913385826
 10
-1.064960629921259
 20
-1.45767716535433
  0
LINE
  5
DDB
330
1E
100
AcDbEntity
  8
7
100
AcDbLine
 10
-0.951771653543307
 20
-1.45767716535433
 30
0.0
 11
-1.064960629921259
 21
-1.45767716535433
 31
0.0
  0
LINE
  5
DDC
330
1E
100
AcDbEntity
  8
7
100
AcDbLine
 10
-0.951771653543307
 20
-1.45767716535433
 30
0.0
 11
-0.9507874015748031
 21
-1.45767716535433
 31
0.0
  0
LINE
  5
DDD
330
1E
100
AcDbEntity
  8
7
100
AcDbLine
 10
-0.9596456692913385
 20
-1.431102362204724
 30
0.0
 11
-0.9596456692913385
 21
-1.456692913385826
 31
0.0
  0
LINE
  5
DDE
330
1E
100
AcDbEntity
  8
7
100
AcDbLine
 10
-0.9606299212598424
 20
-1.456692913385826
 30
0.0
 11
-0.9606299212598424
 21
-1.431102362204724
 31
0.0
  0
LINE
  5
DDF
330
1E
100
AcDbEntity
  8
7
100
AcDbLine
 10
-0.9783464566929133
 20
-1.431102362204724
 30
0.0
 11
-0.9783464566929133
 21
-1.456692913385826
 31
0.0
  0
LINE
  5
DE0
330
1E
100
AcDbEntity
  8
7
100
AcDbLine
 10
-0.9901574803149607
 20
-1.456692913385826
 30
0.0
 11
-0.9901574803149607
 21
-1.431102362204724
 31
0.0
  0
LINE
  5
DE1
330
1E
100
AcDbEntity
  8
7
100
AcDbLine
 10
-0.951771653543307
 20
-1.499015748031496
 30
0.0
 11
-0.951771653543307
 21
-1.45767716535433
 31
0.0
  0
LWPOLYLINE
  5
DE2
330
1E
100
AcDbEntity
  8
7
100
AcDbPolyline
 90
        3
 70
     0
 43
0.0098425196850394
 10
-1.064960629921259
 20
-1.515748031496062
 10
-0.9616141732283464
 20
-1.514763779527559
 10
-0.9507874015748031
 20
-1.508858267716535
  0
LWPOLYLINE
  5
DE7
330
1E
100
AcDbEntity
  8
7
100
AcDbPolyline
 90
        3
 70
     0
 43
0.0098425196850394
 10
-0.9783464566929133
 20
-1.784448818897637
 10
-0.9901574803149607
 20
-1.784448818897637
 10
-0.9901574803149607
 20
-1.81003937007874
  0
LINE
  5
DEC
330
1E
100
AcDbEntity
  8
7
100
AcDbLine
 10
-0.9783464566929133
 20
-1.81003937007874
 30
0.0
 11
-0.9783464566929133
 21
-1.784448818897637
 31
0.0
  0
LINE
  5
DED
330
1E
100
AcDbEntity
  8
7
100
AcDbLine
 10
-0.9606299212598424
 20
-1.784448818897637
 30
0.0
 11
-0.9606299212598424
 21
-1.81003937007874
 31
0.0
  0
LINE
  5
DEE
330
1E
100
AcDbEntity
  8
7
100
AcDbLine
 10
-0.9783464566929133
 20
-1.784448818897637
 30
0.0
 11
-0.9606299212598424
 21
-1.784448818897637
 31
0.0
  0
LWPOLYLINE
  5
DEF
330
1E
100
AcDbEntity
  8
7
100
AcDbPolyline
 90
        3
 70
     0
 43
0.0098425196850394
 10
-0.9596456692913385
 20
-1.81003937007874
 10
-0.9596456692913385
 20
-1.784448818897637
 10
-0.9606299212598424
 20
-1.784448818897637
  0
LINE
  5
DF4
330
1E
100
AcDbEntity
  8
7
100
AcDbLine
 10
-0.9507874015748031
 20
-1.784448818897637
 30
0.0
 11
-0.9596456692913385
 21
-1.784448818897637
 31
0.0
  0
LINE
  5
DF5
330
1E
100
AcDbEntity
  8
7
100
AcDbLine
 10
-0.951771653543307
 20
-1.783464566929133
 30
0.0
 11
-0.9507874015748031
 21
-1.783464566929133
 31
0.0
  0
LINE
  5
DF6
330
1E
100
AcDbEntity
  8
7
100
AcDbLine
 10
-0.951771653543307
 20
-1.783464566929133
 30
0.0
 11
-1.064960629921259
 21
-1.783464566929133
 31
0.0
  0
LINE
  5
DF7
330
1E
100
AcDbEntity
  8
7
100
AcDbLine
 10
-0.9901574803149607
 20
-1.784448818897637
 30
0.0
 11
-1.064960629921259
 21
-1.784448818897637
 31
0.0
  0
LINE
  5
DF8
330
1E
100
AcDbEntity
  8
7
100
AcDbLine
 10
-0.951771653543307
 20
-1.742125984251968
 30
0.0
 11
-0.951771653543307
 21
-1.783464566929133
 31
0.0
  0
LWPOLYLINE
  5
DF9
330
1E
100
AcDbEntity
  8
7
100
AcDbPolyline
 90
        3
 70
     0
 43
0.0098425196850394
 10
-1.064960629921259
 20
-1.725393700787401
 10
-0.9616141732283464
 20
-1.727362204724409
 10
-0.9507874015748031
 20
-1.732283464566929
  0
LINE
  5
DFE
330
1E
100
AcDbEntity
  8
7
100
AcDbLine
 10
-0.4153543307086614
 20
-1.850393700787401
 30
0.0
 11
-0.6171259842519686
 21
-1.850393700787401
 31
0.0
  0
LINE
  5
DFF
330
1E
100
AcDbEntity
  8
7
100
AcDbLine
 10
-0.3651574803149606
 20
-1.821850393700787
 30
0.0
 11
-0.3149606299212598
 21
-1.812992125984251
 31
0.0
  0
LWPOLYLINE
  5
E00
330
1E
100
AcDbEntity
  8
7
100
AcDbPolyline
 90
        3
 70
     0
 43
0.0098425196850394
 10
-0.3651574803149606
 20
-1.841535433070866
 10
-0.3651574803149606
 20
-1.835629921259842
 10
-0.3651574803149606
 20
-1.821850393700787
  0
LINE
  5
E05
330
1E
100
AcDbEntity
  8
7
100
AcDbLine
 10
-0.3149606299212598
 20
-1.83267716535433
 30
0.0
 11
-0.3651574803149606
 21
-1.841535433070866
 31
0.0
  0
LWPOLYLINE
  5
E06
330
1E
100
AcDbEntity
  8
7
100
AcDbPolyline
 90
        3
 70
     0
 43
0.0098425196850394
 10
-0.3149606299212598
 20
-1.812992125984251
 10
-0.3149606299212598
 20
-1.826771653543307
 10
-0.3149606299212598
 20
-1.83267716535433
  0
LINE
  5
E0B
330
1E
100
AcDbEntity
  8
7
100
AcDbLine
 10
-0.6171259842519686
 20
-1.830708661417322
 30
0.0
 11
-0.4153543307086614
 21
-1.830708661417322
 31
0.0
  0
LWPOLYLINE
  5
E0C
330
1E
100
AcDbEntity
  8
7
100
AcDbPolyline
 90
        3
 70
     0
 43
0.0098425196850394
 10
-0.6171259842519686
 20
-1.850393700787401
 10
-0.6171259842519686
 20
-1.844488188976377
 10
-0.6171259842519686
 20
-1.830708661417322
  0
LWPOLYLINE
  5
E11
330
1E
100
AcDbEntity
  8
7
100
AcDbPolyline
 90
        3
 70
     0
 43
0.0098425196850394
 10
-0.4153543307086614
 20
-1.830708661417322
 10
-0.4153543307086614
 20
-1.844488188976377
 10
-0.4153543307086614
 20
-1.850393700787401
  0
LWPOLYLINE
  5
E16
330
1E
100
AcDbEntity
  8
7
100
AcDbPolyline
 90
        7
 70
     0
 43
0.0098425196850394
 10
-0.3651574803149606
 20
-1.73523622047244
 10
-0.3681102362204724
 20
-1.723425196850393
 10
-0.3779527559055118
 20
-1.713582677165354
 10
-0.389763779527559
 20
-1.710629921259842
 10
-0.4025590551181103
 20
-1.713582677165354
 10
-0.4114173228346457
 20
-1.723425196850393
 10
-0.4153543307086614
 20
-1.73523622047244
  0
LINE
  5
E1F
330
1E
100
AcDbEntity
  8
7
100
AcDbLine
 10
-0.2145669291338582
 20
-1.795275590551181
 30
0.0
 11
-0.2125984251968504
 21
-1.729330708661417
 31
0.0
  0
LWPOLYLINE
  5
E20
330
1E
100
AcDbEntity
  8
7
100
AcDbPolyline
 90
        3
 70
     0
 43
0.0098425196850394
 10
-0.2145669291338582
 20
-1.795275590551181
 10
-0.2145669291338582
 20
-1.809055118110236
 10
-0.2155511811023622
 20
-1.814960629921259
  0
LWPOLYLINE
  5
E25
330
1E
100
AcDbEntity
  8
7
100
AcDbPolyline
 90
        4
 70
     0
 43
0.0098425196850394
 10
-0.1889763779527559
 20
-1.706692913385826
 10
-0.2007874015748031
 20
-1.709645669291338
 10
-0.2086614173228346
 20
-1.718503937007874
 10
-0.2125984251968504
 20
-1.729330708661417
  0
LWPOLYLINE
  5
E2B
330
1E
100
AcDbEntity
  8
7
100
AcDbPolyline
 90
        3
 70
     0
 43
0.0098425196850394
 10
-0.1683070866141732
 20
-1.729330708661417
 10
-0.1742125984251968
 20
-1.713582677165354
 10
-0.1889763779527559
 20
-1.706692913385826
  0
LINE
  5
E30
330
1E
100
AcDbEntity
  8
7
100
AcDbLine
 10
-0.1653543307086614
 20
-1.806102362204724
 30
0.0
 11
-0.1653543307086614
 21
-1.801181102362204
 31
0.0
  0
LWPOLYLINE
  5
E31
330
1E
100
AcDbEntity
  8
7
100
AcDbPolyline
 90
        3
 70
     0
 43
0.0098425196850394
 10
-0.1653543307086614
 20
-1.801181102362204
 10
-0.1653543307086614
 20
-1.786417322834645
 10
-0.1683070866141732
 20
-1.729330708661417
  0
LWPOLYLINE
  5
E36
330
1E
100
AcDbEntity
  8
7
100
AcDbPolyline
 90
        3
 70
     0
 43
0.0098425196850394
 10
-0.264763779527559
 20
-1.823818897637795
 10
-0.264763779527559
 20
-1.817913385826771
 10
-0.264763779527559
 20
-1.804133858267716
  0
LINE
  5
E3B
330
1E
100
AcDbEntity
  8
7
100
AcDbLine
 10
-0.2155511811023622
 20
-1.814960629921259
 30
0.0
 11
-0.264763779527559
 21
-1.823818897637795
 31
0.0
  0
LINE
  5
E3C
330
1E
100
AcDbEntity
  8
7
100
AcDbLine
 10
-0.264763779527559
 20
-1.804133858267716
 30
0.0
 11
-0.2145669291338582
 21
-1.795275590551181
 31
0.0
  0
LWPOLYLINE
  5
E3D
330
1E
100
AcDbEntity
  8
7
100
AcDbPolyline
 90
        5
 70
     0
 43
0.0098425196850394
 10
-0.3149606299212598
 20
-1.83267716535433
 10
-0.312007874015748
 20
-1.83267716535433
 10
-0.3031496062992125
 20
-1.830708661417322
 10
-0.2903543307086614
 20
-1.828740157480314
 10
-0.2775590551181102
 20
-1.826771653543307
  0
LWPOLYLINE
  5
E44
330
1E
100
AcDbEntity
  8
7
100
AcDbPolyline
 90
        3
 70
     0
 43
0.0098425196850394
 10
-0.2775590551181102
 20
-1.826771653543307
 10
-0.2687007874015748
 20
-1.824803149606299
 10
-0.264763779527559
 20
-1.823818897637795
  0
LWPOLYLINE
  5
E49
330
1E
100
AcDbEntity
  8
7
100
AcDbPolyline
 90
       11
 70
     0
 43
0.0098425196850394
 10
-0.264763779527559
 20
-1.683070866141732
 10
-0.2677165354330708
 20
-1.699803149606299
 10
-0.2716535433070866
 20
-1.70767716535433
 10
-0.2775590551181102
 20
-1.71259842519685
 10
-0.2834645669291338
 20
-1.714566929133858
 10
-0.2903543307086614
 20
-1.715551181102362
 10
-0.2972440944881889
 20
-1.715551181102362
 10
-0.3021653543307086
 20
-1.713582677165354
 10
-0.3080708661417323
 20
-1.708661417322834
 10
-0.3129921259842519
 20
-1.700787401574803
 10
-0.3149606299212598
 20
-1.684055118110236
  0
LINE
  5
E56
330
1E
100
AcDbEntity
  8
7
100
AcDbLine
 10
-0.3651574803149606
 20
-1.73523622047244
 30
0.0
 11
-0.3651574803149606
 21
-1.821850393700787
 31
0.0
  0
LINE
  5
E57
330
1E
100
AcDbEntity
  8
7
100
AcDbLine
 10
-0.4153543307086614
 20
-1.73523622047244
 30
0.0
 11
-0.4153543307086614
 21
-1.830708661417322
 31
0.0
  0
LWPOLYLINE
  5
E58
330
1E
100
AcDbEntity
  8
7
100
AcDbPolyline
 90
        3
 70
     0
 43
0.0098425196850394
 10
-0.1141732283464567
 20
-1.77755905511811
 10
-0.1151574803149606
 20
-1.792322834645669
 10
-0.1151574803149606
 20
-1.798228346456692
  0
LINE
  5
E5D
330
1E
100
AcDbEntity
  8
7
100
AcDbLine
 10
-0.1653543307086614
 20
-1.786417322834645
 30
0.0
 11
-0.1141732283464567
 21
-1.77755905511811
 31
0.0
  0
LINE
  5
E5E
330
1E
100
AcDbEntity
  8
7
100
AcDbLine
 10
-0.1151574803149606
 20
-1.798228346456692
 30
0.0
 11
-0.1653543307086614
 21
-1.806102362204724
 31
0.0
  0
LWPOLYLINE
  5
E5F
330
1E
100
AcDbEntity
  8
7
100
AcDbPolyline
 90
        3
 70
     0
 43
0.0098425196850394
 10
-0.1141732283464567
 20
-1.77755905511811
 10
-0.1151574803149606
 20
-1.792322834645669
 10
-0.1151574803149606
 20
-1.798228346456692
  0
LWPOLYLINE
  5
E64
330
1E
100
AcDbEntity
  8
7
100
AcDbPolyline
 90
       13
 70
     0
 43
0.0098425196850394
 10
-0.109251968503937
 20
-1.621062992125984
 10
-0.1102362204724409
 20
-1.651574803149606
 10
-0.1112204724409449
 20
-1.68011811023622
 10
-0.1122047244094488
 20
-1.705708661417322
 10
-0.1122047244094488
 20
-1.726377952755905
 10
-0.1131889763779527
 20
-1.74015748031496
 10
-0.1131889763779527
 20
-1.748031496062992
 10
-0.1131889763779527
 20
-1.74015748031496
 10
-0.1122047244094488
 20
-1.726377952755905
 10
-0.1122047244094488
 20
-1.705708661417322
 10
-0.1112204724409449
 20
-1.68011811023622
 10
-0.1102362204724409
 20
-1.651574803149606
 10
-0.109251968503937
 20
-1.621062992125984
  0
LINE
  5
E73
330
1E
100
AcDbEntity
  8
7
100
AcDbLine
 10
-0.1141732283464567
 20
-1.77755905511811
 30
0.0
 11
-0.109251968503937
 21
-1.621062992125984
 31
0.0
  0
LINE
  5
E74
330
1E
100
AcDbEntity
  8
7
100
AcDbLine
 10
-0.1141732283464567
 20
-1.77755905511811
 30
0.0
 11
-0.109251968503937
 21
-1.621062992125984
 31
0.0
  0
LINE
  5
E75
330
1E
100
AcDbEntity
  8
7
100
AcDbLine
 10
-0.264763779527559
 20
-1.621062992125984
 30
0.0
 11
-0.264763779527559
 21
-1.804133858267716
 31
0.0
  0
LINE
  5
E76
330
1E
100
AcDbEntity
  8
7
100
AcDbLine
 10
-0.109251968503937
 20
-1.621062992125984
 30
0.0
 11
-0.264763779527559
 21
-1.621062992125984
 31
0.0
  0
LWPOLYLINE
  5
E77
330
1E
100
AcDbEntity
  8
7
100
AcDbPolyline
 90
        4
 70
     0
 43
0.0098425196850394
 10
-0.3149606299212598
 20
-1.812992125984251
 10
-0.3149606299212598
 20
-1.621062992125984
 10
-0.6171259842519686
 20
-1.621062992125984
 10
-0.6171259842519686
 20
-1.830708661417322
  0
LINE
  5
E7D
330
1E
100
AcDbEntity
  8
7
100
AcDbLine
 10
-0.6171259842519686
 20
-1.621062992125984
 30
0.0
 11
-0.6171259842519686
 21
-1.410433070866141
 31
0.0
  0
LWPOLYLINE
  5
E7E
330
1E
100
AcDbEntity
  8
7
100
AcDbPolyline
 90
        3
 70
     0
 43
0.0098425196850394
 10
-0.6171259842519686
 20
-1.390748031496062
 10
-0.6171259842519686
 20
-1.396653543307086
 10
-0.6171259842519686
 20
-1.410433070866141
  0
LINE
  5
E83
330
1E
100
AcDbEntity
  8
7
100
AcDbLine
 10
-0.4153543307086614
 20
-1.390748031496062
 30
0.0
 11
-0.6171259842519686
 21
-1.390748031496062
 31
0.0
  0
LWPOLYLINE
  5
E84
330
1E
100
AcDbEntity
  8
7
100
AcDbPolyline
 90
        6
 70
     0
 43
0.0098425196850394
 10
-0.3651574803149606
 20
-1.419291338582677
 10
-0.3149606299212598
 20
-1.428149606299212
 10
-0.3149606299212598
 20
-1.414370078740157
 10
-0.3149606299212598
 20
-1.408464566929133
 10
-0.3651574803149606
 20
-1.399606299212598
 10
-0.3651574803149606
 20
-1.405511811023622
  0
LINE
  5
E8C
330
1E
100
AcDbEntity
  8
7
100
AcDbLine
 10
-0.3651574803149606
 20
-1.405511811023622
 30
0.0
 11
-0.3651574803149606
 21
-1.419291338582677
 31
0.0
  0
LWPOLYLINE
  5
E8D
330
1E
100
AcDbEntity
  8
7
100
AcDbPolyline
 90
        4
 70
     0
 43
0.0098425196850394
 10
-0.6171259842519686
 20
-1.410433070866141
 10
-0.4153543307086614
 20
-1.410433070866141
 10
-0.4153543307086614
 20
-1.396653543307086
 10
-0.4153543307086614
 20
-1.390748031496062
  0
LWPOLYLINE
  5
E93
330
1E
100
AcDbEntity
  8
7
100
AcDbPolyline
 90
        7
 70
     0
 43
0.0098425196850394
 10
-0.3651574803149606
 20
-1.505905511811023
 10
-0.3681102362204724
 20
-1.51771653543307
 10
-0.3779527559055118
 20
-1.52755905511811
 10
-0.389763779527559
 20
-1.530511811023622
 10
-0.4025590551181103
 20
-1.52755905511811
 10
-0.4114173228346457
 20
-1.51771653543307
 10
-0.4153543307086614
 20
-1.505905511811023
  0
LWPOLYLINE
  5
E9C
330
1E
100
AcDbEntity
  8
7
100
AcDbPolyline
 90
        3
 70
     0
 43
0.0098425196850394
 10
-0.2145669291338582
 20
-1.445866141732283
 10
-0.2145669291338582
 20
-1.432086614173228
 10
-0.2155511811023622
 20
-1.426181102362204
  0
LINE
  5
EA1
330
1E
100
AcDbEntity
  8
7
100
AcDbLine
 10
-0.2145669291338582
 20
-1.445866141732283
 30
0.0
 11
-0.2125984251968504
 21
-1.511811023622047
 31
0.0
  0
LWPOLYLINE
  5
EA2
330
1E
100
AcDbEntity
  8
7
100
AcDbPolyline
 90
        4
 70
     0
 43
0.0098425196850394
 10
-0.1889763779527559
 20
-1.534448818897637
 10
-0.2007874015748031
 20
-1.531496062992125
 10
-0.2086614173228346
 20
-1.523622047244094
 10
-0.2125984251968504
 20
-1.511811023622047
  0
LWPOLYLINE
  5
EA8
330
1E
100
AcDbEntity
  8
7
100
AcDbPolyline
 90
        3
 70
     0
 43
0.0098425196850394
 10
-0.1683070866141732
 20
-1.511811023622047
 10
-0.1742125984251968
 20
-1.52755905511811
 10
-0.1889763779527559
 20
-1.534448818897637
  0
LINE
  5
EAD
330
1E
100
AcDbEntity
  8
7
100
AcDbLine
 10
-0.1653543307086614
 20
-1.454724409448818
 30
0.0
 11
-0.1683070866141732
 21
-1.511811023622047
 31
0.0
  0
LWPOLYLINE
  5
EAE
330
1E
100
AcDbEntity
  8
7
100
AcDbPolyline
 90
        3
 70
     0
 43
0.0098425196850394
 10
-0.1653543307086614
 20
-1.43503937007874
 10
-0.1653543307086614
 20
-1.440944881889763
 10
-0.1653543307086614
 20
-1.454724409448818
  0
LWPOLYLINE
  5
EB3
330
1E
100
AcDbEntity
  8
7
100
AcDbPolyline
 90
        4
 70
     0
 43
0.0098425196850394
 10
-0.264763779527559
 20
-1.417322834645669
 10
-0.264763779527559
 20
-1.423228346456692
 10
-0.264763779527559
 20
-1.437007874015747
 10
-0.2145669291338582
 20
-1.445866141732283
  0
LINE
  5
EB9
330
1E
100
AcDbEntity
  8
7
100
AcDbLine
 10
-0.2155511811023622
 20
-1.426181102362204
 30
0.0
 11
-0.264763779527559
 21
-1.417322834645669
 31
0.0
  0
LWPOLYLINE
  5
EBA
330
1E
100
AcDbEntity
  8
7
100
AcDbPolyline
 90
        5
 70
     0
 43
0.0098425196850394
 10
-0.264763779527559
 20
-1.559055118110236
 10
-0.2677165354330708
 20
-1.542322834645669
 10
-0.2716535433070866
 20
-1.534448818897637
 10
-0.2775590551181102
 20
-1.528543307086614
 10
-0.2834645669291338
 20
-1.526574803149606
  0
LWPOLYLINE
  5
EC1
330
1E
100
AcDbEntity
  8
7
100
AcDbPolyline
 90
        7
 70
     0
 43
0.0098425196850394
 10
-0.2834645669291338
 20
-1.526574803149606
 10
-0.2903543307086614
 20
-1.525590551181102
 10
-0.2972440944881889
 20
-1.526574803149606
 10
-0.3021653543307086
 20
-1.528543307086614
 10
-0.3080708661417323
 20
-1.532480314960629
 10
-0.3129921259842519
 20
-1.540354330708661
 10
-0.3149606299212598
 20
-1.557086614173228
  0
LWPOLYLINE
  5
ECA
330
1E
100
AcDbEntity
  8
7
100
AcDbPolyline
 90
        7
 70
     0
 43
0.0098425196850394
 10
-0.3149606299212598
 20
-1.408464566929133
 10
-0.312007874015748
 20
-1.408464566929133
 10
-0.3031496062992125
 20
-1.410433070866141
 10
-0.2903543307086614
 20
-1.412401574803149
 10
-0.2775590551181102
 20
-1.415354330708661
 10
-0.2687007874015748
 20
-1.416338582677165
 10
-0.264763779527559
 20
-1.417322834645669
  0
LINE
  5
ED3
330
1E
100
AcDbEntity
  8
7
100
AcDbLine
 10
-0.3651574803149606
 20
-1.505905511811023
 30
0.0
 11
-0.3651574803149606
 21
-1.419291338582677
 31
0.0
  0
LINE
  5
ED4
330
1E
100
AcDbEntity
  8
7
100
AcDbLine
 10
-0.4153543307086614
 20
-1.505905511811023
 30
0.0
 11
-0.4153543307086614
 21
-1.410433070866141
 31
0.0
  0
LWPOLYLINE
  5
ED5
330
1E
100
AcDbEntity
  8
7
100
AcDbPolyline
 90
        4
 70
     0
 43
0.0098425196850394
 10
-0.1141732283464567
 20
-1.463582677165354
 10
-0.1151574803149606
 20
-1.449803149606299
 10
-0.1151574803149606
 20
-1.443897637795275
 10
-0.1653543307086614
 20
-1.43503937007874
  0
LINE
  5
EDB
330
1E
100
AcDbEntity
  8
7
100
AcDbLine
 10
-0.1653543307086614
 20
-1.454724409448818
 30
0.0
 11
-0.1141732283464567
 21
-1.463582677165354
 31
0.0
  0
LWPOLYLINE
  5
EDC
330
1E
100
AcDbEntity
  8
7
100
AcDbPolyline
 90
        3
 70
     0
 43
0.0098425196850394
 10
-0.1141732283464567
 20
-1.463582677165354
 10
-0.1151574803149606
 20
-1.449803149606299
 10
-0.1151574803149606
 20
-1.443897637795275
  0
LINE
  5
EE1
330
1E
100
AcDbEntity
  8
7
100
AcDbLine
 10
-0.1141732283464567
 20
-1.463582677165354
 30
0.0
 11
-0.109251968503937
 21
-1.621062992125984
 31
0.0
  0
LWPOLYLINE
  5
EE2
330
1E
100
AcDbEntity
  8
7
100
AcDbPolyline
 90
       14
 70
     0
 43
0.0098425196850394
 10
-0.1141732283464567
 20
-1.463582677165354
 10
-0.109251968503937
 20
-1.621062992125984
 10
-0.1102362204724409
 20
-1.589566929133858
 10
-0.1112204724409449
 20
-1.561023622047243
 10
-0.1122047244094488
 20
-1.535433070866141
 10
-0.1122047244094488
 20
-1.515748031496062
 10
-0.1131889763779527
 20
-1.500984251968503
 10
-0.1131889763779527
 20
-1.494094488188976
 10
-0.1131889763779527
 20
-1.500984251968503
 10
-0.1122047244094488
 20
-1.515748031496062
 10
-0.1122047244094488
 20
-1.535433070866141
 10
-0.1112204724409449
 20
-1.561023622047243
 10
-0.1102362204724409
 20
-1.589566929133858
 10
-0.109251968503937
 20
-1.621062992125984
  0
LINE
  5
EF2
330
1E
100
AcDbEntity
  8
7
100
AcDbLine
 10
-0.264763779527559
 20
-1.621062992125984
 30
0.0
 11
-0.264763779527559
 21
-1.437007874015747
 31
0.0
  0
LINE
  5
EF3
330
1E
100
AcDbEntity
  8
7
100
AcDbLine
 10
-0.3149606299212598
 20
-1.428149606299212
 30
0.0
 11
-0.3149606299212598
 21
-1.621062992125984
 31
0.0
  0
ENDSEC
  0
SECTION
  2
OBJECTS
  0
DICTIONARY
  5
C
330
0
100
AcDbDictionary
281
     1
  3
ACAD_GROUP
350
D
  3
ACAD_PLOTSTYLENAME
350
E
  3
ACAD_MLINESTYLE
350
16
  3
ACAD_PLOTSETTINGS
350
18
  3
ACAD_LAYOUT
350
19
  0
DICTIONARY
  5
D
102
{ACAD_REACTORS
330
C
102
}
330
C
100
AcDbDictionary
281
     1
  0
ACDBDICTIONARYWDFLT
  5
E
102
{ACAD_REACTORS
330
C
102
}
330
C
100
AcDbDictionary
281
     1
  3
Normal
350
F
100
AcDbDictionaryWithDefault
340
F
  0
DICTIONARY
  5
16
102
{ACAD_REACTORS
330
C
102
}
330
C
100
AcDbDictionary
281
     1
  3
Standard
350
17
  0
DICTIONARY
  5
18
102
{ACAD_REACTORS
330
C
102
}
330
C
100
AcDbDictionary
281
     1
  0
DICTIONARY
  5
19
102
{ACAD_REACTORS
330
C
102
}
330
C
100
AcDbDictionary
281
     1
  3
Layout1
350
1D
  3
Model
350
21
  0
ACDBPLACEHOLDER
  5
F
102
{ACAD_REACTORS
330
E
102
}
330
E
  0
MLINESTYLE
  5
17
102
{ACAD_REACTORS
330
16
102
}
330
16
100
AcDbMlineStyle
  2
STANDARD
 70
     0
  3

 62
   256
 51
90.0
 52
90.0
 71
     2
 49
0.5
 62
   256
  6
BYLAYER
 49
-0.5
 62
   256
  6
BYLAYER
  0
LAYOUT
  5
1D
102
{ACAD_REACTORS
330
19
102
}
330
19
100
AcDbPlotSettings
  1

  2
\\NSENG\OPLaser1
  4

  6

 40
0.0
 41
0.0
 42
0.0
 43
0.0
 44
0.0
 45
0.0
 46
0.0
 47
0.0
 48
0.0
 49
0.0
140
0.0
141
0.0
142
1.0
143
1.0
 70
   688
 72
     0
 73
     0
 74
     5
  7

 75
    16
147
1.0
148
0.0
149
0.0
100
AcDbLayout
  1
Layout1
 70
     1
 71
     1
 10
0.0
 20
0.0
 11
12.0
 21
9.0
 12
0.0
 22
0.0
 32
0.0
 14
1.000000000000000E+20
 24
1.000000000000000E+20
 34
1.000000000000000E+20
 15
-1.000000000000000E+20
 25
-1.000000000000000E+20
 35
-1.000000000000000E+20
146
0.0
 13
0.0
 23
0.0
 33
0.0
 16
1.0
 26
0.0
 36
0.0
 17
0.0
 27
1.0
 37
0.0
 76
     0
330
1A
  0
LAYOUT
  5
21
102
{ACAD_REACTORS
330
19
102
}
330
19
100
AcDbPlotSettings
  1

  2
\\NSENG\OPLaser1
  4

  6

 40
0.0
 41
0.0
 42
0.0
 43
0.0
 44
0.0
 45
0.0
 46
0.0
 47
0.0
 48
0.0
 49
0.0
140
0.0
141
0.0
142
1.0
143
1.0
 70
  1712
 72
     0
 73
     0
 74
     0
  7

 75
     0
147
1.0
148
0.0
149
0.0
100
AcDbLayout
  1
Model
 70
     1
 71
     0
 10
0.0
 20
0.0
 11
12.0
 21
9.0
 12
0.0
 22
0.0
 32
0.0
 14
0.0
 24
0.0
 34
0.0
 15
0.0
 25
0.0
 35
0.0
146
0.0
 13
0.0
 23
0.0
 33
0.0
 16
1.0
 26
0.0
 36
0.0
 17
0.0
 27
1.0
 37
0.0
 76
     0
330
1E
  0
ENDSEC
  0
EOF
