  0
SECTION
  2
HEADER
  9
$ACADVER
  1
AC1012
  9
$DWGCODEPAGE
  3
ANSI_1252
  9
$INSBASE
 10
0.0
 20
0.0
 30
0.0
  9
$EXTMIN
 10
2.952003015425834
 20
5.011684270106584
 30
-0.0000000349181948
  9
$EXTMAX
 10
11.70772889746986
 20
8.397875648845001
 30
0.0000000814935746
  9
$LIMMIN
 10
0.0
 20
0.0
  9
$LIMMAX
 10
12.0
 20
9.0
  9
$ORTHOMODE
 70
     0
  9
$REGENMODE
 70
     1
  9
$FILLMODE
 70
     1
  9
$QTEXTMODE
 70
     0
  9
$MIRRTEXT
 70
     1
  9
$DRAGMODE
 70
     2
  9
$LTSCALE
 40
1.0
  9
$OSMODE
 70
   547
  9
$ATTMODE
 70
     1
  9
$TEXTSIZE
 40
0.2
  9
$TRACEWID
 40
0.05
  9
$TEXTSTYLE
  7
STANDARD
  9
$CLAYER
  8
0
  9
$CELTYPE
  6
BYLAYER
  9
$CECOLOR
 62
   256
  9
$CELTSCALE
 40
1.0
  9
$DELOBJ
 70
     1
  9
$DISPSILH
 70
     0
  9
$DIMSCALE
 40
1.0
  9
$DIMASZ
 40
0.18
  9
$DIMEXO
 40
0.0625
  9
$DIMDLI
 40
0.38
  9
$DIMRND
 40
0.0
  9
$DIMDLE
 40
0.0
  9
$DIMEXE
 40
0.18
  9
$DIMTP
 40
0.0
  9
$DIMTM
 40
0.0
  9
$DIMTXT
 40
0.18
  9
$DIMCEN
 40
0.09
  9
$DIMTSZ
 40
0.0
  9
$DIMTOL
 70
     0
  9
$DIMLIM
 70
     0
  9
$DIMTIH
 70
     1
  9
$DIMTOH
 70
     1
  9
$DIMSE1
 70
     0
  9
$DIMSE2
 70
     0
  9
$DIMTAD
 70
     0
  9
$DIMZIN
 70
     0
  9
$DIMBLK
  1

  9
$DIMASO
 70
     1
  9
$DIMSHO
 70
     1
  9
$DIMPOST
  1

  9
$DIMAPOST
  1

  9
$DIMALT
 70
     0
  9
$DIMALTD
 70
     2
  9
$DIMALTF
 40
25.4
  9
$DIMLFAC
 40
1.0
  9
$DIMTOFL
 70
     0
  9
$DIMTVP
 40
0.0
  9
$DIMTIX
 70
     0
  9
$DIMSOXD
 70
     0
  9
$DIMSAH
 70
     0
  9
$DIMBLK1
  1

  9
$DIMBLK2
  1

  9
$DIMSTYLE
  2
STANDARD
  9
$DIMCLRD
 70
     0
  9
$DIMCLRE
 70
     0
  9
$DIMCLRT
 70
     0
  9
$DIMTFAC
 40
1.0
  9
$DIMGAP
 40
0.09
  9
$DIMJUST
 70
     0
  9
$DIMSD1
 70
     0
  9
$DIMSD2
 70
     0
  9
$DIMTOLJ
 70
     1
  9
$DIMTZIN
 70
     0
  9
$DIMALTZ
 70
     0
  9
$DIMALTTZ
 70
     0
  9
$DIMFIT
 70
     5
  9
$DIMUPT
 70
     0
  9
$DIMUNIT
 70
     2
  9
$DIMDEC
 70
     4
  9
$DIMTDEC
 70
     4
  9
$DIMALTU
 70
     2
  9
$DIMALTTD
 70
     2
  9
$DIMTXSTY
  7
STANDARD
  9
$DIMAUNIT
 70
     0
  9
$LUNITS
 70
     2
  9
$LUPREC
 70
     4
  9
$SKETCHINC
 40
0.1
  9
$FILLETRAD
 40
0.0
  9
$AUNITS
 70
     0
  9
$AUPREC
 70
     0
  9
$MENU
  1
acad
  9
$ELEVATION
 40
0.0
  9
$PELEVATION
 40
0.0
  9
$THICKNESS
 40
0.0
  9
$LIMCHECK
 70
     0
  9
$BLIPMODE
 70
     0
  9
$CHAMFERA
 40
0.0
  9
$CHAMFERB
 40
0.0
  9
$CHAMFERC
 40
0.0
  9
$CHAMFERD
 40
0.0
  9
$SKPOLY
 70
     0
  9
$TDCREATE
 40
2451908.504791667
  9
$TDUPDATE
 40
2453945.378146122
  9
$TDINDWG
 40
0.0010470833
  9
$TDUSRTIMER
 40
0.0010470833
  9
$USRTIMER
 70
     1
  9
$ANGBASE
 50
0.0
  9
$ANGDIR
 70
     0
  9
$PDMODE
 70
     0
  9
$PDSIZE
 40
0.0
  9
$PLINEWID
 40
0.0
  9
$COORDS
 70
     1
  9
$SPLFRAME
 70
     0
  9
$SPLINETYPE
 70
     6
  9
$SPLINESEGS
 70
     8
  9
$ATTDIA
 70
     0
  9
$ATTREQ
 70
     1
  9
$HANDLING
 70
  4097
  9
$HANDSEED
  5
42FD
  9
$SURFTAB1
 70
     6
  9
$SURFTAB2
 70
     6
  9
$SURFTYPE
 70
     6
  9
$SURFU
 70
     6
  9
$SURFV
 70
     6
  9
$UCSNAME
  2

  9
$UCSORG
 10
0.0
 20
0.0
 30
0.0
  9
$UCSXDIR
 10
1.0
 20
0.0
 30
0.0
  9
$UCSYDIR
 10
0.0
 20
1.0
 30
0.0
  9
$PUCSNAME
  2

  9
$PUCSORG
 10
0.0
 20
0.0
 30
0.0
  9
$PUCSXDIR
 10
1.0
 20
0.0
 30
0.0
  9
$PUCSYDIR
 10
0.0
 20
1.0
 30
0.0
  9
$USERI1
 70
     0
  9
$USERI2
 70
     0
  9
$USERI3
 70
     0
  9
$USERI4
 70
     0
  9
$USERI5
 70
     0
  9
$USERR1
 40
0.0
  9
$USERR2
 40
0.0
  9
$USERR3
 40
0.0
  9
$USERR4
 40
0.0
  9
$USERR5
 40
0.0
  9
$WORLDVIEW
 70
     1
  9
$SHADEDGE
 70
     3
  9
$SHADEDIF
 70
    70
  9
$TILEMODE
 70
     1
  9
$MAXACTVP
 70
    16
  9
$PINSBASE
 10
0.0
 20
0.0
 30
0.0
  9
$PLIMCHECK
 70
     0
  9
$PEXTMIN
 10
1.000000000000000E+20
 20
1.000000000000000E+20
 30
1.000000000000000E+20
  9
$PEXTMAX
 10
-1.000000000000000E+20
 20
-1.000000000000000E+20
 30
-1.000000000000000E+20
  9
$PLIMMIN
 10
0.0
 20
0.0
  9
$PLIMMAX
 10
12.0
 20
9.0
  9
$UNITMODE
 70
     0
  9
$VISRETAIN
 70
     0
  9
$PLINEGEN
 70
     0
  9
$PSLTSCALE
 70
     1
  9
$TREEDEPTH
 70
  3020
  9
$PICKSTYLE
 70
     1
  9
$CMLSTYLE
  2
STANDARD
  9
$CMLJUST
 70
     0
  9
$CMLSCALE
 40
1.0
  9
$SAVEIMAGES
 70
     1
  0
ENDSEC
  0
SECTION
  2
CLASSES
  0
CLASS
  1
ACDBDICTIONARYWDFLT
  2
AcDbDictionaryWithDefault
  3
AutoCAD 2000
 90
    32768
280
     0
281
     0
  0
CLASS
  1
ACDBPLACEHOLDER
  2
AcDbPlaceHolder
  3
AutoCAD 2000
 90
    32768
280
     0
281
     0
  0
CLASS
  1
LAYOUT
  2
AcDbLayout
  3
AutoCAD 2000
 90
    32768
280
     0
281
     0
  0
CLASS
  1
LONG_TRANSACTION
  2
AcDbLongTransaction
  3
AutoCAD 2000
 90
    32768
280
     0
281
     0
  0
CLASS
  1
LWPOLYLINE
  2
AcDbPolyline
  3
AutoCAD 2000
 90
    32768
280
     0
281
     1
  0
CLASS
  1
HATCH
  2
AcDbHatch
  3
AutoCAD 2000
 90
    32768
280
     0
281
     1
  0
CLASS
  1
XRECORD
  2
AcDbXrecord
  3
AutoCAD 2000
 90
    32768
280
     0
281
     0
  0
ENDSEC
  0
SECTION
  2
TABLES
  0
TABLE
  2
VPORT
  5
8
330
0
100
AcDbSymbolTable
 70
     4
  0
VPORT
  5
42F8
330
8
100
AcDbSymbolTableRecord
100
AcDbViewportTableRecord
  2
*ACTIVE
 70
     0
 10
0.0
 20
0.0
 11
1.0
 21
1.0
 12
7.329865956447848
 22
6.704779959475793
 13
0.0
 23
0.0
 14
1.0
 24
1.0
 15
0.0
 25
0.0
 16
0.0
 26
0.0
 36
1.0
 17
0.0
 27
0.0
 37
0.0
 40
5.347870199885295
 41
1.647569444444444
 42
50.0
 43
0.0
 44
0.0
 50
0.0
 51
0.0
 71
     0
 72
   100
 73
     1
 74
     1
 75
     0
 76
     0
 77
     0
 78
     0
  0
ENDTAB
  0
TABLE
  2
LTYPE
  5
5
330
0
100
AcDbSymbolTable
 70
    25
  0
LTYPE
  5
13
330
5
100
AcDbSymbolTableRecord
100
AcDbLinetypeTableRecord
  2
BYBLOCK
 70
     0
  3

 72
    65
 73
     0
 40
0.0
  0
LTYPE
  5
14
330
5
100
AcDbSymbolTableRecord
100
AcDbLinetypeTableRecord
  2
BYLAYER
 70
     0
  3

 72
    65
 73
     0
 40
0.0
  0
LTYPE
  5
15
330
5
100
AcDbSymbolTableRecord
100
AcDbLinetypeTableRecord
  2
CONTINUOUS
 70
     0
  3
Solid line
 72
    65
 73
     0
 40
0.0
  0
LTYPE
  5
22
330
5
100
AcDbSymbolTableRecord
100
AcDbLinetypeTableRecord
  2
BORDER
 70
     0
  3
__ __ . __ __ . __ __ . __ __ . __ __ . __ __ .
 72
    65
 73
     6
 40
1.75
 49
0.5
 74
     0
 49
-0.25
 74
     0
 49
0.5
 74
     0
 49
-0.25
 74
     0
 49
0.5
 74
     0
 49
-0.25
 74
     0
  0
LTYPE
  5
23
330
5
100
AcDbSymbolTableRecord
100
AcDbLinetypeTableRecord
  2
BORDER2
 70
     0
  3
__.__.__.__.__.__.__.__.__.__.__.__.__.__.__.__
 72
    65
 73
     6
 40
0.875
 49
0.25
 74
     0
 49
-0.125
 74
     0
 49
0.25
 74
     0
 49
-0.125
 74
     0
 49
0.25
 74
     0
 49
-0.125
 74
     0
  0
LTYPE
  5
24
330
5
100
AcDbSymbolTableRecord
100
AcDbLinetypeTableRecord
  2
BORDERX2
 70
     0
  3
____  ____  .  ____  ____  .  
 72
    65
 73
     6
 40
3.5
 49
1.0
 74
     0
 49
-0.5
 74
     0
 49
1.0
 74
     0
 49
-0.5
 74
     0
 49
1.0
 74
     0
 49
-0.5
 74
     0
  0
LTYPE
  5
25
330
5
100
AcDbSymbolTableRecord
100
AcDbLinetypeTableRecord
  2
CENTER
 70
     0
  3
____ _ ____ _ ____ _ ____ _ ____ _ ____ _ ____
 72
    65
 73
     4
 40
2.0
 49
1.25
 74
     0
 49
-0.25
 74
     0
 49
0.25
 74
     0
 49
-0.25
 74
     0
  0
LTYPE
  5
26
330
5
100
AcDbSymbolTableRecord
100
AcDbLinetypeTableRecord
  2
CENTER2
 70
     0
  3
____ _ ____ _ ____ _ ____ _ ____ _ ____ _ ____
 72
    65
 73
     4
 40
1.125
 49
0.75
 74
     0
 49
-0.125
 74
     0
 49
0.125
 74
     0
 49
-0.125
 74
     0
  0
LTYPE
  5
27
330
5
100
AcDbSymbolTableRecord
100
AcDbLinetypeTableRecord
  2
CENTERX2
 70
     0
  3
________  __  ________  __  ________  __  
 72
    65
 73
     4
 40
4.0
 49
2.5
 74
     0
 49
-0.5
 74
     0
 49
0.5
 74
     0
 49
-0.5
 74
     0
  0
LTYPE
  5
28
330
5
100
AcDbSymbolTableRecord
100
AcDbLinetypeTableRecord
  2
DASHDOT
 70
     0
  3
__ . __ . __ . __ . __ . __ . __ . 
 72
    65
 73
     4
 40
1.0
 49
0.5
 74
     0
 49
-0.25
 74
     0
 49
0.0
 74
     0
 49
-0.25
 74
     0
  0
LTYPE
  5
29
330
5
100
AcDbSymbolTableRecord
100
AcDbLinetypeTableRecord
  2
DASHDOT2
 70
     0
  3
_._._._._._._._._._._._._._._._.
 72
    65
 73
     4
 40
0.5
 49
0.25
 74
     0
 49
-0.125
 74
     0
 49
0.0
 74
     0
 49
-0.125
 74
     0
  0
LTYPE
  5
2A
330
5
100
AcDbSymbolTableRecord
100
AcDbLinetypeTableRecord
  2
DASHDOTX2
 70
     0
  3
____  .  ____  .  ____  .  ____  .  
 72
    65
 73
     4
 40
2.0
 49
1.0
 74
     0
 49
-0.5
 74
     0
 49
0.0
 74
     0
 49
-0.5
 74
     0
  0
LTYPE
  5
2B
330
5
100
AcDbSymbolTableRecord
100
AcDbLinetypeTableRecord
  2
DASHED
 70
     0
  3
__ __ __ __ __ __ __ __ __ __ __ __ 
 72
    65
 73
     2
 40
0.75
 49
0.5
 74
     0
 49
-0.25
 74
     0
  0
LTYPE
  5
2C
330
5
100
AcDbSymbolTableRecord
100
AcDbLinetypeTableRecord
  2
DASHED2
 70
     0
  3
_ _ _ _ _ _ _ _ _ _ _ _ _ _ _ _ _ _ 
 72
    65
 73
     2
 40
0.375
 49
0.25
 74
     0
 49
-0.125
 74
     0
  0
LTYPE
  5
2D
330
5
100
AcDbSymbolTableRecord
100
AcDbLinetypeTableRecord
  2
DASHEDX2
 70
     0
  3
____  ____  ____  ____  ____  ____  
 72
    65
 73
     2
 40
1.5
 49
1.0
 74
     0
 49
-0.5
 74
     0
  0
LTYPE
  5
2E
330
5
100
AcDbSymbolTableRecord
100
AcDbLinetypeTableRecord
  2
DIVIDE
 70
     0
  3
____ . . ____ . . ____ . . ____ . . 
 72
    65
 73
     6
 40
1.25
 49
0.5
 74
     0
 49
-0.25
 74
     0
 49
0.0
 74
     0
 49
-0.25
 74
     0
 49
0.0
 74
     0
 49
-0.25
 74
     0
  0
LTYPE
  5
2F
330
5
100
AcDbSymbolTableRecord
100
AcDbLinetypeTableRecord
  2
DIVIDE2
 70
     0
  3
__..__..__..__..__..__..__..__..__..
 72
    65
 73
     6
 40
0.625
 49
0.25
 74
     0
 49
-0.125
 74
     0
 49
0.0
 74
     0
 49
-0.125
 74
     0
 49
0.0
 74
     0
 49
-0.125
 74
     0
  0
LTYPE
  5
30
330
5
100
AcDbSymbolTableRecord
100
AcDbLinetypeTableRecord
  2
DIVIDEX2
 70
     0
  3
________  .  .  ________  .  .  ________  .  . 
 72
    65
 73
     6
 40
2.5
 49
1.0
 74
     0
 49
-0.5
 74
     0
 49
0.0
 74
     0
 49
-0.5
 74
     0
 49
0.0
 74
     0
 49
-0.5
 74
     0
  0
LTYPE
  5
31
330
5
100
AcDbSymbolTableRecord
100
AcDbLinetypeTableRecord
  2
DOT
 70
     0
  3
. . . . . . . . . . . . . . . . . . 
 72
    65
 73
     2
 40
0.25
 49
0.0
 74
     0
 49
-0.25
 74
     0
  0
LTYPE
  5
32
330
5
100
AcDbSymbolTableRecord
100
AcDbLinetypeTableRecord
  2
DOT2
 70
     0
  3
....................................
 72
    65
 73
     2
 40
0.125
 49
0.0
 74
     0
 49
-0.125
 74
     0
  0
LTYPE
  5
33
330
5
100
AcDbSymbolTableRecord
100
AcDbLinetypeTableRecord
  2
DOTX2
 70
     0
  3
.  .  .  .  .  .  .  .  .  .  .  .  .  
 72
    65
 73
     2
 40
0.5
 49
0.0
 74
     0
 49
-0.5
 74
     0
  0
LTYPE
  5
34
330
5
100
AcDbSymbolTableRecord
100
AcDbLinetypeTableRecord
  2
HIDDEN
 70
     0
  3
__ __ __ __ __ __ __ __ __ __ __ __ 
 72
    65
 73
     2
 40
0.375
 49
0.25
 74
     0
 49
-0.125
 74
     0
  0
LTYPE
  5
35
330
5
100
AcDbSymbolTableRecord
100
AcDbLinetypeTableRecord
  2
HIDDEN2
 70
     0
  3
_ _ _ _ _ _ _ _ _ _ _ _ _ _ _ _ _ _ 
 72
    65
 73
     2
 40
0.1875
 49
0.125
 74
     0
 49
-0.0625
 74
     0
  0
LTYPE
  5
36
330
5
100
AcDbSymbolTableRecord
100
AcDbLinetypeTableRecord
  2
HIDDENX2
 70
     0
  3
____ ____ ____ ____ ____ ____ ____ 
 72
    65
 73
     2
 40
0.75
 49
0.5
 74
     0
 49
-0.25
 74
     0
  0
LTYPE
  5
37
330
5
100
AcDbSymbolTableRecord
100
AcDbLinetypeTableRecord
  2
PHANTOM
 70
     0
  3
______  __  __  ______  __  __  
 72
    65
 73
     6
 40
2.5
 49
1.25
 74
     0
 49
-0.25
 74
     0
 49
0.25
 74
     0
 49
-0.25
 74
     0
 49
0.25
 74
     0
 49
-0.25
 74
     0
  0
LTYPE
  5
38
330
5
100
AcDbSymbolTableRecord
100
AcDbLinetypeTableRecord
  2
PHANTOM2
 70
     0
  3
___ _ _ ___ _ _ ___ _ _ ___ _ _ 
 72
    65
 73
     6
 40
1.25
 49
0.625
 74
     0
 49
-0.125
 74
     0
 49
0.125
 74
     0
 49
-0.125
 74
     0
 49
0.125
 74
     0
 49
-0.125
 74
     0
  0
LTYPE
  5
39
330
5
100
AcDbSymbolTableRecord
100
AcDbLinetypeTableRecord
  2
PHANTOMX2
 70
     0
  3
___ _ _ ___ _ _ ___ _ _ ___ _ _ 
 72
    65
 73
     6
 40
5.0
 49
2.5
 74
     0
 49
-0.5
 74
     0
 49
0.5
 74
     0
 49
-0.5
 74
     0
 49
0.5
 74
     0
 49
-0.5
 74
     0
  0
ENDTAB
  0
TABLE
  2
LAYER
  5
2
330
0
100
AcDbSymbolTable
 70
   257
  0
LAYER
  5
10
330
2
100
AcDbSymbolTableRecord
100
AcDbLayerTableRecord
  2
0
 70
     0
 62
     7
  6
CONTINUOUS
  0
LAYER
  5
3A
330
2
100
AcDbSymbolTableRecord
100
AcDbLayerTableRecord
  2
1
 70
     0
 62
     1
  6
CONTINUOUS
  0
LAYER
  5
3B
330
2
100
AcDbSymbolTableRecord
100
AcDbLayerTableRecord
  2
2
 70
     0
 62
     2
  6
CONTINUOUS
  0
LAYER
  5
3C
330
2
100
AcDbSymbolTableRecord
100
AcDbLayerTableRecord
  2
3
 70
     0
 62
     3
  6
CONTINUOUS
  0
LAYER
  5
3D
330
2
100
AcDbSymbolTableRecord
100
AcDbLayerTableRecord
  2
4
 70
     0
 62
     4
  6
CONTINUOUS
  0
LAYER
  5
3E
330
2
100
AcDbSymbolTableRecord
100
AcDbLayerTableRecord
  2
5
 70
     0
 62
     5
  6
CONTINUOUS
  0
LAYER
  5
3F
330
2
100
AcDbSymbolTableRecord
100
AcDbLayerTableRecord
  2
6
 70
     0
 62
     6
  6
CONTINUOUS
  0
LAYER
  5
40
330
2
100
AcDbSymbolTableRecord
100
AcDbLayerTableRecord
  2
7
 70
     0
 62
     7
  6
CONTINUOUS
  0
LAYER
  5
41
330
2
100
AcDbSymbolTableRecord
100
AcDbLayerTableRecord
  2
8
 70
     0
 62
     8
  6
CONTINUOUS
  0
LAYER
  5
42
330
2
100
AcDbSymbolTableRecord
100
AcDbLayerTableRecord
  2
9
 70
     0
 62
     9
  6
CONTINUOUS
  0
LAYER
  5
43
330
2
100
AcDbSymbolTableRecord
100
AcDbLayerTableRecord
  2
10
 70
     0
 62
    10
  6
CONTINUOUS
  0
LAYER
  5
44
330
2
100
AcDbSymbolTableRecord
100
AcDbLayerTableRecord
  2
11
 70
     0
 62
    11
  6
CONTINUOUS
  0
LAYER
  5
45
330
2
100
AcDbSymbolTableRecord
100
AcDbLayerTableRecord
  2
12
 70
     0
 62
    12
  6
CONTINUOUS
  0
LAYER
  5
46
330
2
100
AcDbSymbolTableRecord
100
AcDbLayerTableRecord
  2
13
 70
     0
 62
    13
  6
CONTINUOUS
  0
LAYER
  5
47
330
2
100
AcDbSymbolTableRecord
100
AcDbLayerTableRecord
  2
14
 70
     0
 62
    14
  6
CONTINUOUS
  0
LAYER
  5
48
330
2
100
AcDbSymbolTableRecord
100
AcDbLayerTableRecord
  2
15
 70
     0
 62
    15
  6
CONTINUOUS
  0
LAYER
  5
49
330
2
100
AcDbSymbolTableRecord
100
AcDbLayerTableRecord
  2
16
 70
     0
 62
    16
  6
CONTINUOUS
  0
LAYER
  5
4A
330
2
100
AcDbSymbolTableRecord
100
AcDbLayerTableRecord
  2
17
 70
     0
 62
    17
  6
CONTINUOUS
  0
LAYER
  5
4B
330
2
100
AcDbSymbolTableRecord
100
AcDbLayerTableRecord
  2
18
 70
     0
 62
    18
  6
CONTINUOUS
  0
LAYER
  5
4C
330
2
100
AcDbSymbolTableRecord
100
AcDbLayerTableRecord
  2
19
 70
     0
 62
    19
  6
CONTINUOUS
  0
LAYER
  5
4D
330
2
100
AcDbSymbolTableRecord
100
AcDbLayerTableRecord
  2
20
 70
     0
 62
    20
  6
CONTINUOUS
  0
LAYER
  5
4E
330
2
100
AcDbSymbolTableRecord
100
AcDbLayerTableRecord
  2
21
 70
     0
 62
    21
  6
CONTINUOUS
  0
LAYER
  5
4F
330
2
100
AcDbSymbolTableRecord
100
AcDbLayerTableRecord
  2
22
 70
     0
 62
    22
  6
CONTINUOUS
  0
LAYER
  5
50
330
2
100
AcDbSymbolTableRecord
100
AcDbLayerTableRecord
  2
23
 70
     0
 62
    23
  6
CONTINUOUS
  0
LAYER
  5
51
330
2
100
AcDbSymbolTableRecord
100
AcDbLayerTableRecord
  2
24
 70
     0
 62
    24
  6
CONTINUOUS
  0
LAYER
  5
52
330
2
100
AcDbSymbolTableRecord
100
AcDbLayerTableRecord
  2
25
 70
     0
 62
    25
  6
CONTINUOUS
  0
LAYER
  5
53
330
2
100
AcDbSymbolTableRecord
100
AcDbLayerTableRecord
  2
26
 70
     0
 62
    26
  6
CONTINUOUS
  0
LAYER
  5
54
330
2
100
AcDbSymbolTableRecord
100
AcDbLayerTableRecord
  2
27
 70
     0
 62
    27
  6
CONTINUOUS
  0
LAYER
  5
55
330
2
100
AcDbSymbolTableRecord
100
AcDbLayerTableRecord
  2
28
 70
     0
 62
    28
  6
CONTINUOUS
  0
LAYER
  5
56
330
2
100
AcDbSymbolTableRecord
100
AcDbLayerTableRecord
  2
29
 70
     0
 62
    29
  6
CONTINUOUS
  0
LAYER
  5
57
330
2
100
AcDbSymbolTableRecord
100
AcDbLayerTableRecord
  2
30
 70
     0
 62
    30
  6
CONTINUOUS
  0
LAYER
  5
58
330
2
100
AcDbSymbolTableRecord
100
AcDbLayerTableRecord
  2
31
 70
     0
 62
    31
  6
CONTINUOUS
  0
LAYER
  5
59
330
2
100
AcDbSymbolTableRecord
100
AcDbLayerTableRecord
  2
32
 70
     0
 62
    32
  6
CONTINUOUS
  0
LAYER
  5
5A
330
2
100
AcDbSymbolTableRecord
100
AcDbLayerTableRecord
  2
33
 70
     0
 62
    33
  6
CONTINUOUS
  0
LAYER
  5
5B
330
2
100
AcDbSymbolTableRecord
100
AcDbLayerTableRecord
  2
34
 70
     0
 62
    34
  6
CONTINUOUS
  0
LAYER
  5
5C
330
2
100
AcDbSymbolTableRecord
100
AcDbLayerTableRecord
  2
35
 70
     0
 62
    35
  6
CONTINUOUS
  0
LAYER
  5
5D
330
2
100
AcDbSymbolTableRecord
100
AcDbLayerTableRecord
  2
36
 70
     0
 62
    36
  6
CONTINUOUS
  0
LAYER
  5
5E
330
2
100
AcDbSymbolTableRecord
100
AcDbLayerTableRecord
  2
37
 70
     0
 62
    37
  6
CONTINUOUS
  0
LAYER
  5
5F
330
2
100
AcDbSymbolTableRecord
100
AcDbLayerTableRecord
  2
38
 70
     0
 62
    38
  6
CONTINUOUS
  0
LAYER
  5
60
330
2
100
AcDbSymbolTableRecord
100
AcDbLayerTableRecord
  2
39
 70
     0
 62
    39
  6
CONTINUOUS
  0
LAYER
  5
61
330
2
100
AcDbSymbolTableRecord
100
AcDbLayerTableRecord
  2
40
 70
     0
 62
    40
  6
CONTINUOUS
  0
LAYER
  5
62
330
2
100
AcDbSymbolTableRecord
100
AcDbLayerTableRecord
  2
41
 70
     0
 62
    41
  6
CONTINUOUS
  0
LAYER
  5
63
330
2
100
AcDbSymbolTableRecord
100
AcDbLayerTableRecord
  2
42
 70
     0
 62
    42
  6
CONTINUOUS
  0
LAYER
  5
64
330
2
100
AcDbSymbolTableRecord
100
AcDbLayerTableRecord
  2
43
 70
     0
 62
    43
  6
CONTINUOUS
  0
LAYER
  5
65
330
2
100
AcDbSymbolTableRecord
100
AcDbLayerTableRecord
  2
44
 70
     0
 62
    44
  6
CONTINUOUS
  0
LAYER
  5
66
330
2
100
AcDbSymbolTableRecord
100
AcDbLayerTableRecord
  2
45
 70
     0
 62
    45
  6
CONTINUOUS
  0
LAYER
  5
67
330
2
100
AcDbSymbolTableRecord
100
AcDbLayerTableRecord
  2
46
 70
     0
 62
    46
  6
CONTINUOUS
  0
LAYER
  5
68
330
2
100
AcDbSymbolTableRecord
100
AcDbLayerTableRecord
  2
47
 70
     0
 62
    47
  6
CONTINUOUS
  0
LAYER
  5
69
330
2
100
AcDbSymbolTableRecord
100
AcDbLayerTableRecord
  2
48
 70
     0
 62
    48
  6
CONTINUOUS
  0
LAYER
  5
6A
330
2
100
AcDbSymbolTableRecord
100
AcDbLayerTableRecord
  2
49
 70
     0
 62
    49
  6
CONTINUOUS
  0
LAYER
  5
6B
330
2
100
AcDbSymbolTableRecord
100
AcDbLayerTableRecord
  2
50
 70
     0
 62
    50
  6
CONTINUOUS
  0
LAYER
  5
6C
330
2
100
AcDbSymbolTableRecord
100
AcDbLayerTableRecord
  2
51
 70
     0
 62
    51
  6
CONTINUOUS
  0
LAYER
  5
6D
330
2
100
AcDbSymbolTableRecord
100
AcDbLayerTableRecord
  2
52
 70
     0
 62
    52
  6
CONTINUOUS
  0
LAYER
  5
6E
330
2
100
AcDbSymbolTableRecord
100
AcDbLayerTableRecord
  2
53
 70
     0
 62
    53
  6
CONTINUOUS
  0
LAYER
  5
6F
330
2
100
AcDbSymbolTableRecord
100
AcDbLayerTableRecord
  2
54
 70
     0
 62
    54
  6
CONTINUOUS
  0
LAYER
  5
70
330
2
100
AcDbSymbolTableRecord
100
AcDbLayerTableRecord
  2
55
 70
     0
 62
    55
  6
CONTINUOUS
  0
LAYER
  5
71
330
2
100
AcDbSymbolTableRecord
100
AcDbLayerTableRecord
  2
56
 70
     0
 62
    56
  6
CONTINUOUS
  0
LAYER
  5
72
330
2
100
AcDbSymbolTableRecord
100
AcDbLayerTableRecord
  2
57
 70
     0
 62
    57
  6
CONTINUOUS
  0
LAYER
  5
73
330
2
100
AcDbSymbolTableRecord
100
AcDbLayerTableRecord
  2
58
 70
     0
 62
    58
  6
CONTINUOUS
  0
LAYER
  5
74
330
2
100
AcDbSymbolTableRecord
100
AcDbLayerTableRecord
  2
59
 70
     0
 62
    59
  6
CONTINUOUS
  0
LAYER
  5
75
330
2
100
AcDbSymbolTableRecord
100
AcDbLayerTableRecord
  2
60
 70
     0
 62
    60
  6
CONTINUOUS
  0
LAYER
  5
76
330
2
100
AcDbSymbolTableRecord
100
AcDbLayerTableRecord
  2
61
 70
     0
 62
    61
  6
CONTINUOUS
  0
LAYER
  5
77
330
2
100
AcDbSymbolTableRecord
100
AcDbLayerTableRecord
  2
62
 70
     0
 62
    62
  6
CONTINUOUS
  0
LAYER
  5
78
330
2
100
AcDbSymbolTableRecord
100
AcDbLayerTableRecord
  2
63
 70
     0
 62
    63
  6
CONTINUOUS
  0
LAYER
  5
79
330
2
100
AcDbSymbolTableRecord
100
AcDbLayerTableRecord
  2
64
 70
     0
 62
    64
  6
CONTINUOUS
  0
LAYER
  5
7A
330
2
100
AcDbSymbolTableRecord
100
AcDbLayerTableRecord
  2
65
 70
     0
 62
    65
  6
CONTINUOUS
  0
LAYER
  5
7B
330
2
100
AcDbSymbolTableRecord
100
AcDbLayerTableRecord
  2
66
 70
     0
 62
    66
  6
CONTINUOUS
  0
LAYER
  5
7C
330
2
100
AcDbSymbolTableRecord
100
AcDbLayerTableRecord
  2
67
 70
     0
 62
    67
  6
CONTINUOUS
  0
LAYER
  5
7D
330
2
100
AcDbSymbolTableRecord
100
AcDbLayerTableRecord
  2
68
 70
     0
 62
    68
  6
CONTINUOUS
  0
LAYER
  5
7E
330
2
100
AcDbSymbolTableRecord
100
AcDbLayerTableRecord
  2
69
 70
     0
 62
    69
  6
CONTINUOUS
  0
LAYER
  5
7F
330
2
100
AcDbSymbolTableRecord
100
AcDbLayerTableRecord
  2
70
 70
     0
 62
    70
  6
CONTINUOUS
  0
LAYER
  5
80
330
2
100
AcDbSymbolTableRecord
100
AcDbLayerTableRecord
  2
71
 70
     0
 62
    71
  6
CONTINUOUS
  0
LAYER
  5
81
330
2
100
AcDbSymbolTableRecord
100
AcDbLayerTableRecord
  2
72
 70
     0
 62
    72
  6
CONTINUOUS
  0
LAYER
  5
82
330
2
100
AcDbSymbolTableRecord
100
AcDbLayerTableRecord
  2
73
 70
     0
 62
    73
  6
CONTINUOUS
  0
LAYER
  5
83
330
2
100
AcDbSymbolTableRecord
100
AcDbLayerTableRecord
  2
74
 70
     0
 62
    74
  6
CONTINUOUS
  0
LAYER
  5
84
330
2
100
AcDbSymbolTableRecord
100
AcDbLayerTableRecord
  2
75
 70
     0
 62
    75
  6
CONTINUOUS
  0
LAYER
  5
85
330
2
100
AcDbSymbolTableRecord
100
AcDbLayerTableRecord
  2
76
 70
     0
 62
    76
  6
CONTINUOUS
  0
LAYER
  5
86
330
2
100
AcDbSymbolTableRecord
100
AcDbLayerTableRecord
  2
77
 70
     0
 62
    77
  6
CONTINUOUS
  0
LAYER
  5
87
330
2
100
AcDbSymbolTableRecord
100
AcDbLayerTableRecord
  2
78
 70
     0
 62
    78
  6
CONTINUOUS
  0
LAYER
  5
88
330
2
100
AcDbSymbolTableRecord
100
AcDbLayerTableRecord
  2
79
 70
     0
 62
    79
  6
CONTINUOUS
  0
LAYER
  5
89
330
2
100
AcDbSymbolTableRecord
100
AcDbLayerTableRecord
  2
80
 70
     0
 62
    80
  6
CONTINUOUS
  0
LAYER
  5
8A
330
2
100
AcDbSymbolTableRecord
100
AcDbLayerTableRecord
  2
81
 70
     0
 62
    81
  6
CONTINUOUS
  0
LAYER
  5
8B
330
2
100
AcDbSymbolTableRecord
100
AcDbLayerTableRecord
  2
82
 70
     0
 62
    82
  6
CONTINUOUS
  0
LAYER
  5
8C
330
2
100
AcDbSymbolTableRecord
100
AcDbLayerTableRecord
  2
83
 70
     0
 62
    83
  6
CONTINUOUS
  0
LAYER
  5
8D
330
2
100
AcDbSymbolTableRecord
100
AcDbLayerTableRecord
  2
84
 70
     0
 62
    84
  6
CONTINUOUS
  0
LAYER
  5
8E
330
2
100
AcDbSymbolTableRecord
100
AcDbLayerTableRecord
  2
85
 70
     0
 62
    85
  6
CONTINUOUS
  0
LAYER
  5
8F
330
2
100
AcDbSymbolTableRecord
100
AcDbLayerTableRecord
  2
86
 70
     0
 62
    86
  6
CONTINUOUS
  0
LAYER
  5
90
330
2
100
AcDbSymbolTableRecord
100
AcDbLayerTableRecord
  2
87
 70
     0
 62
    87
  6
CONTINUOUS
  0
LAYER
  5
91
330
2
100
AcDbSymbolTableRecord
100
AcDbLayerTableRecord
  2
88
 70
     0
 62
    88
  6
CONTINUOUS
  0
LAYER
  5
92
330
2
100
AcDbSymbolTableRecord
100
AcDbLayerTableRecord
  2
89
 70
     0
 62
    89
  6
CONTINUOUS
  0
LAYER
  5
93
330
2
100
AcDbSymbolTableRecord
100
AcDbLayerTableRecord
  2
90
 70
     0
 62
    90
  6
CONTINUOUS
  0
LAYER
  5
94
330
2
100
AcDbSymbolTableRecord
100
AcDbLayerTableRecord
  2
91
 70
     0
 62
    91
  6
CONTINUOUS
  0
LAYER
  5
95
330
2
100
AcDbSymbolTableRecord
100
AcDbLayerTableRecord
  2
92
 70
     0
 62
    92
  6
CONTINUOUS
  0
LAYER
  5
96
330
2
100
AcDbSymbolTableRecord
100
AcDbLayerTableRecord
  2
93
 70
     0
 62
    93
  6
CONTINUOUS
  0
LAYER
  5
97
330
2
100
AcDbSymbolTableRecord
100
AcDbLayerTableRecord
  2
94
 70
     0
 62
    94
  6
CONTINUOUS
  0
LAYER
  5
98
330
2
100
AcDbSymbolTableRecord
100
AcDbLayerTableRecord
  2
95
 70
     0
 62
    95
  6
CONTINUOUS
  0
LAYER
  5
99
330
2
100
AcDbSymbolTableRecord
100
AcDbLayerTableRecord
  2
96
 70
     0
 62
    96
  6
CONTINUOUS
  0
LAYER
  5
9A
330
2
100
AcDbSymbolTableRecord
100
AcDbLayerTableRecord
  2
97
 70
     0
 62
    97
  6
CONTINUOUS
  0
LAYER
  5
9B
330
2
100
AcDbSymbolTableRecord
100
AcDbLayerTableRecord
  2
98
 70
     0
 62
    98
  6
CONTINUOUS
  0
LAYER
  5
9C
330
2
100
AcDbSymbolTableRecord
100
AcDbLayerTableRecord
  2
99
 70
     0
 62
    99
  6
CONTINUOUS
  0
LAYER
  5
9D
330
2
100
AcDbSymbolTableRecord
100
AcDbLayerTableRecord
  2
100
 70
     0
 62
   100
  6
CONTINUOUS
  0
LAYER
  5
9E
330
2
100
AcDbSymbolTableRecord
100
AcDbLayerTableRecord
  2
101
 70
     0
 62
   101
  6
CONTINUOUS
  0
LAYER
  5
9F
330
2
100
AcDbSymbolTableRecord
100
AcDbLayerTableRecord
  2
102
 70
     0
 62
   102
  6
CONTINUOUS
  0
LAYER
  5
A0
330
2
100
AcDbSymbolTableRecord
100
AcDbLayerTableRecord
  2
103
 70
     0
 62
   103
  6
CONTINUOUS
  0
LAYER
  5
A1
330
2
100
AcDbSymbolTableRecord
100
AcDbLayerTableRecord
  2
104
 70
     0
 62
   104
  6
CONTINUOUS
  0
LAYER
  5
A2
330
2
100
AcDbSymbolTableRecord
100
AcDbLayerTableRecord
  2
105
 70
     0
 62
   105
  6
CONTINUOUS
  0
LAYER
  5
A3
330
2
100
AcDbSymbolTableRecord
100
AcDbLayerTableRecord
  2
106
 70
     0
 62
   106
  6
CONTINUOUS
  0
LAYER
  5
A4
330
2
100
AcDbSymbolTableRecord
100
AcDbLayerTableRecord
  2
107
 70
     0
 62
   107
  6
CONTINUOUS
  0
LAYER
  5
A5
330
2
100
AcDbSymbolTableRecord
100
AcDbLayerTableRecord
  2
108
 70
     0
 62
   108
  6
CONTINUOUS
  0
LAYER
  5
A6
330
2
100
AcDbSymbolTableRecord
100
AcDbLayerTableRecord
  2
109
 70
     0
 62
   109
  6
CONTINUOUS
  0
LAYER
  5
A7
330
2
100
AcDbSymbolTableRecord
100
AcDbLayerTableRecord
  2
110
 70
     0
 62
   110
  6
CONTINUOUS
  0
LAYER
  5
A8
330
2
100
AcDbSymbolTableRecord
100
AcDbLayerTableRecord
  2
111
 70
     0
 62
   111
  6
CONTINUOUS
  0
LAYER
  5
A9
330
2
100
AcDbSymbolTableRecord
100
AcDbLayerTableRecord
  2
112
 70
     0
 62
   112
  6
CONTINUOUS
  0
LAYER
  5
AA
330
2
100
AcDbSymbolTableRecord
100
AcDbLayerTableRecord
  2
113
 70
     0
 62
   113
  6
CONTINUOUS
  0
LAYER
  5
AB
330
2
100
AcDbSymbolTableRecord
100
AcDbLayerTableRecord
  2
114
 70
     0
 62
   114
  6
CONTINUOUS
  0
LAYER
  5
AC
330
2
100
AcDbSymbolTableRecord
100
AcDbLayerTableRecord
  2
115
 70
     0
 62
   115
  6
CONTINUOUS
  0
LAYER
  5
AD
330
2
100
AcDbSymbolTableRecord
100
AcDbLayerTableRecord
  2
116
 70
     0
 62
   116
  6
CONTINUOUS
  0
LAYER
  5
AE
330
2
100
AcDbSymbolTableRecord
100
AcDbLayerTableRecord
  2
117
 70
     0
 62
   117
  6
CONTINUOUS
  0
LAYER
  5
AF
330
2
100
AcDbSymbolTableRecord
100
AcDbLayerTableRecord
  2
118
 70
     0
 62
   118
  6
CONTINUOUS
  0
LAYER
  5
B0
330
2
100
AcDbSymbolTableRecord
100
AcDbLayerTableRecord
  2
119
 70
     0
 62
   119
  6
CONTINUOUS
  0
LAYER
  5
B1
330
2
100
AcDbSymbolTableRecord
100
AcDbLayerTableRecord
  2
120
 70
     0
 62
   120
  6
CONTINUOUS
  0
LAYER
  5
B2
330
2
100
AcDbSymbolTableRecord
100
AcDbLayerTableRecord
  2
121
 70
     0
 62
   121
  6
CONTINUOUS
  0
LAYER
  5
B3
330
2
100
AcDbSymbolTableRecord
100
AcDbLayerTableRecord
  2
122
 70
     0
 62
   122
  6
CONTINUOUS
  0
LAYER
  5
B4
330
2
100
AcDbSymbolTableRecord
100
AcDbLayerTableRecord
  2
123
 70
     0
 62
   123
  6
CONTINUOUS
  0
LAYER
  5
B5
330
2
100
AcDbSymbolTableRecord
100
AcDbLayerTableRecord
  2
124
 70
     0
 62
   124
  6
CONTINUOUS
  0
LAYER
  5
B6
330
2
100
AcDbSymbolTableRecord
100
AcDbLayerTableRecord
  2
125
 70
     0
 62
   125
  6
CONTINUOUS
  0
LAYER
  5
B7
330
2
100
AcDbSymbolTableRecord
100
AcDbLayerTableRecord
  2
126
 70
     0
 62
   126
  6
CONTINUOUS
  0
LAYER
  5
B8
330
2
100
AcDbSymbolTableRecord
100
AcDbLayerTableRecord
  2
127
 70
     0
 62
   127
  6
CONTINUOUS
  0
LAYER
  5
B9
330
2
100
AcDbSymbolTableRecord
100
AcDbLayerTableRecord
  2
128
 70
     0
 62
   128
  6
CONTINUOUS
  0
LAYER
  5
BA
330
2
100
AcDbSymbolTableRecord
100
AcDbLayerTableRecord
  2
129
 70
     0
 62
   129
  6
CONTINUOUS
  0
LAYER
  5
BB
330
2
100
AcDbSymbolTableRecord
100
AcDbLayerTableRecord
  2
130
 70
     0
 62
   130
  6
CONTINUOUS
  0
LAYER
  5
BC
330
2
100
AcDbSymbolTableRecord
100
AcDbLayerTableRecord
  2
131
 70
     0
 62
   131
  6
CONTINUOUS
  0
LAYER
  5
BD
330
2
100
AcDbSymbolTableRecord
100
AcDbLayerTableRecord
  2
132
 70
     0
 62
   132
  6
CONTINUOUS
  0
LAYER
  5
BE
330
2
100
AcDbSymbolTableRecord
100
AcDbLayerTableRecord
  2
133
 70
     0
 62
   133
  6
CONTINUOUS
  0
LAYER
  5
BF
330
2
100
AcDbSymbolTableRecord
100
AcDbLayerTableRecord
  2
134
 70
     0
 62
   134
  6
CONTINUOUS
  0
LAYER
  5
C0
330
2
100
AcDbSymbolTableRecord
100
AcDbLayerTableRecord
  2
135
 70
     0
 62
   135
  6
CONTINUOUS
  0
LAYER
  5
C1
330
2
100
AcDbSymbolTableRecord
100
AcDbLayerTableRecord
  2
136
 70
     0
 62
   136
  6
CONTINUOUS
  0
LAYER
  5
C2
330
2
100
AcDbSymbolTableRecord
100
AcDbLayerTableRecord
  2
137
 70
     0
 62
   137
  6
CONTINUOUS
  0
LAYER
  5
C3
330
2
100
AcDbSymbolTableRecord
100
AcDbLayerTableRecord
  2
138
 70
     0
 62
   138
  6
CONTINUOUS
  0
LAYER
  5
C4
330
2
100
AcDbSymbolTableRecord
100
AcDbLayerTableRecord
  2
139
 70
     0
 62
   139
  6
CONTINUOUS
  0
LAYER
  5
C5
330
2
100
AcDbSymbolTableRecord
100
AcDbLayerTableRecord
  2
140
 70
     0
 62
   140
  6
CONTINUOUS
  0
LAYER
  5
C6
330
2
100
AcDbSymbolTableRecord
100
AcDbLayerTableRecord
  2
141
 70
     0
 62
   141
  6
CONTINUOUS
  0
LAYER
  5
C7
330
2
100
AcDbSymbolTableRecord
100
AcDbLayerTableRecord
  2
142
 70
     0
 62
   142
  6
CONTINUOUS
  0
LAYER
  5
C8
330
2
100
AcDbSymbolTableRecord
100
AcDbLayerTableRecord
  2
143
 70
     0
 62
   143
  6
CONTINUOUS
  0
LAYER
  5
C9
330
2
100
AcDbSymbolTableRecord
100
AcDbLayerTableRecord
  2
144
 70
     0
 62
   144
  6
CONTINUOUS
  0
LAYER
  5
CA
330
2
100
AcDbSymbolTableRecord
100
AcDbLayerTableRecord
  2
145
 70
     0
 62
   145
  6
CONTINUOUS
  0
LAYER
  5
CB
330
2
100
AcDbSymbolTableRecord
100
AcDbLayerTableRecord
  2
146
 70
     0
 62
   146
  6
CONTINUOUS
  0
LAYER
  5
CC
330
2
100
AcDbSymbolTableRecord
100
AcDbLayerTableRecord
  2
147
 70
     0
 62
   147
  6
CONTINUOUS
  0
LAYER
  5
CD
330
2
100
AcDbSymbolTableRecord
100
AcDbLayerTableRecord
  2
148
 70
     0
 62
   148
  6
CONTINUOUS
  0
LAYER
  5
CE
330
2
100
AcDbSymbolTableRecord
100
AcDbLayerTableRecord
  2
149
 70
     0
 62
   149
  6
CONTINUOUS
  0
LAYER
  5
CF
330
2
100
AcDbSymbolTableRecord
100
AcDbLayerTableRecord
  2
150
 70
     0
 62
   150
  6
CONTINUOUS
  0
LAYER
  5
D0
330
2
100
AcDbSymbolTableRecord
100
AcDbLayerTableRecord
  2
151
 70
     0
 62
   151
  6
CONTINUOUS
  0
LAYER
  5
D1
330
2
100
AcDbSymbolTableRecord
100
AcDbLayerTableRecord
  2
152
 70
     0
 62
   152
  6
CONTINUOUS
  0
LAYER
  5
D2
330
2
100
AcDbSymbolTableRecord
100
AcDbLayerTableRecord
  2
153
 70
     0
 62
   153
  6
CONTINUOUS
  0
LAYER
  5
D3
330
2
100
AcDbSymbolTableRecord
100
AcDbLayerTableRecord
  2
154
 70
     0
 62
   154
  6
CONTINUOUS
  0
LAYER
  5
D4
330
2
100
AcDbSymbolTableRecord
100
AcDbLayerTableRecord
  2
155
 70
     0
 62
   155
  6
CONTINUOUS
  0
LAYER
  5
D5
330
2
100
AcDbSymbolTableRecord
100
AcDbLayerTableRecord
  2
156
 70
     0
 62
   156
  6
CONTINUOUS
  0
LAYER
  5
D6
330
2
100
AcDbSymbolTableRecord
100
AcDbLayerTableRecord
  2
157
 70
     0
 62
   157
  6
CONTINUOUS
  0
LAYER
  5
D7
330
2
100
AcDbSymbolTableRecord
100
AcDbLayerTableRecord
  2
158
 70
     0
 62
   158
  6
CONTINUOUS
  0
LAYER
  5
D8
330
2
100
AcDbSymbolTableRecord
100
AcDbLayerTableRecord
  2
159
 70
     0
 62
   159
  6
CONTINUOUS
  0
LAYER
  5
D9
330
2
100
AcDbSymbolTableRecord
100
AcDbLayerTableRecord
  2
160
 70
     0
 62
   160
  6
CONTINUOUS
  0
LAYER
  5
DA
330
2
100
AcDbSymbolTableRecord
100
AcDbLayerTableRecord
  2
161
 70
     0
 62
   161
  6
CONTINUOUS
  0
LAYER
  5
DB
330
2
100
AcDbSymbolTableRecord
100
AcDbLayerTableRecord
  2
162
 70
     0
 62
   162
  6
CONTINUOUS
  0
LAYER
  5
DC
330
2
100
AcDbSymbolTableRecord
100
AcDbLayerTableRecord
  2
163
 70
     0
 62
   163
  6
CONTINUOUS
  0
LAYER
  5
DD
330
2
100
AcDbSymbolTableRecord
100
AcDbLayerTableRecord
  2
164
 70
     0
 62
   164
  6
CONTINUOUS
  0
LAYER
  5
DE
330
2
100
AcDbSymbolTableRecord
100
AcDbLayerTableRecord
  2
165
 70
     0
 62
   165
  6
CONTINUOUS
  0
LAYER
  5
DF
330
2
100
AcDbSymbolTableRecord
100
AcDbLayerTableRecord
  2
166
 70
     0
 62
   166
  6
CONTINUOUS
  0
LAYER
  5
E0
330
2
100
AcDbSymbolTableRecord
100
AcDbLayerTableRecord
  2
167
 70
     0
 62
   167
  6
CONTINUOUS
  0
LAYER
  5
E1
330
2
100
AcDbSymbolTableRecord
100
AcDbLayerTableRecord
  2
168
 70
     0
 62
   168
  6
CONTINUOUS
  0
LAYER
  5
E2
330
2
100
AcDbSymbolTableRecord
100
AcDbLayerTableRecord
  2
169
 70
     0
 62
   169
  6
CONTINUOUS
  0
LAYER
  5
E3
330
2
100
AcDbSymbolTableRecord
100
AcDbLayerTableRecord
  2
170
 70
     0
 62
   170
  6
CONTINUOUS
  0
LAYER
  5
E4
330
2
100
AcDbSymbolTableRecord
100
AcDbLayerTableRecord
  2
171
 70
     0
 62
   171
  6
CONTINUOUS
  0
LAYER
  5
E5
330
2
100
AcDbSymbolTableRecord
100
AcDbLayerTableRecord
  2
172
 70
     0
 62
   172
  6
CONTINUOUS
  0
LAYER
  5
E6
330
2
100
AcDbSymbolTableRecord
100
AcDbLayerTableRecord
  2
173
 70
     0
 62
   173
  6
CONTINUOUS
  0
LAYER
  5
E7
330
2
100
AcDbSymbolTableRecord
100
AcDbLayerTableRecord
  2
174
 70
     0
 62
   174
  6
CONTINUOUS
  0
LAYER
  5
E8
330
2
100
AcDbSymbolTableRecord
100
AcDbLayerTableRecord
  2
175
 70
     0
 62
   175
  6
CONTINUOUS
  0
LAYER
  5
E9
330
2
100
AcDbSymbolTableRecord
100
AcDbLayerTableRecord
  2
176
 70
     0
 62
   176
  6
CONTINUOUS
  0
LAYER
  5
EA
330
2
100
AcDbSymbolTableRecord
100
AcDbLayerTableRecord
  2
177
 70
     0
 62
   177
  6
CONTINUOUS
  0
LAYER
  5
EB
330
2
100
AcDbSymbolTableRecord
100
AcDbLayerTableRecord
  2
178
 70
     0
 62
   178
  6
CONTINUOUS
  0
LAYER
  5
EC
330
2
100
AcDbSymbolTableRecord
100
AcDbLayerTableRecord
  2
179
 70
     0
 62
   179
  6
CONTINUOUS
  0
LAYER
  5
ED
330
2
100
AcDbSymbolTableRecord
100
AcDbLayerTableRecord
  2
180
 70
     0
 62
   180
  6
CONTINUOUS
  0
LAYER
  5
EE
330
2
100
AcDbSymbolTableRecord
100
AcDbLayerTableRecord
  2
181
 70
     0
 62
   181
  6
CONTINUOUS
  0
LAYER
  5
EF
330
2
100
AcDbSymbolTableRecord
100
AcDbLayerTableRecord
  2
182
 70
     0
 62
   182
  6
CONTINUOUS
  0
LAYER
  5
F0
330
2
100
AcDbSymbolTableRecord
100
AcDbLayerTableRecord
  2
183
 70
     0
 62
   183
  6
CONTINUOUS
  0
LAYER
  5
F1
330
2
100
AcDbSymbolTableRecord
100
AcDbLayerTableRecord
  2
184
 70
     0
 62
   184
  6
CONTINUOUS
  0
LAYER
  5
F2
330
2
100
AcDbSymbolTableRecord
100
AcDbLayerTableRecord
  2
185
 70
     0
 62
   185
  6
CONTINUOUS
  0
LAYER
  5
F3
330
2
100
AcDbSymbolTableRecord
100
AcDbLayerTableRecord
  2
186
 70
     0
 62
   186
  6
CONTINUOUS
  0
LAYER
  5
F4
330
2
100
AcDbSymbolTableRecord
100
AcDbLayerTableRecord
  2
187
 70
     0
 62
   187
  6
CONTINUOUS
  0
LAYER
  5
F5
330
2
100
AcDbSymbolTableRecord
100
AcDbLayerTableRecord
  2
188
 70
     0
 62
   188
  6
CONTINUOUS
  0
LAYER
  5
F6
330
2
100
AcDbSymbolTableRecord
100
AcDbLayerTableRecord
  2
189
 70
     0
 62
   189
  6
CONTINUOUS
  0
LAYER
  5
F7
330
2
100
AcDbSymbolTableRecord
100
AcDbLayerTableRecord
  2
190
 70
     0
 62
   190
  6
CONTINUOUS
  0
LAYER
  5
F8
330
2
100
AcDbSymbolTableRecord
100
AcDbLayerTableRecord
  2
191
 70
     0
 62
   191
  6
CONTINUOUS
  0
LAYER
  5
F9
330
2
100
AcDbSymbolTableRecord
100
AcDbLayerTableRecord
  2
192
 70
     0
 62
   192
  6
CONTINUOUS
  0
LAYER
  5
FA
330
2
100
AcDbSymbolTableRecord
100
AcDbLayerTableRecord
  2
193
 70
     0
 62
   193
  6
CONTINUOUS
  0
LAYER
  5
FB
330
2
100
AcDbSymbolTableRecord
100
AcDbLayerTableRecord
  2
194
 70
     0
 62
   194
  6
CONTINUOUS
  0
LAYER
  5
FC
330
2
100
AcDbSymbolTableRecord
100
AcDbLayerTableRecord
  2
195
 70
     0
 62
   195
  6
CONTINUOUS
  0
LAYER
  5
FD
330
2
100
AcDbSymbolTableRecord
100
AcDbLayerTableRecord
  2
196
 70
     0
 62
   196
  6
CONTINUOUS
  0
LAYER
  5
FE
330
2
100
AcDbSymbolTableRecord
100
AcDbLayerTableRecord
  2
197
 70
     0
 62
   197
  6
CONTINUOUS
  0
LAYER
  5
FF
330
2
100
AcDbSymbolTableRecord
100
AcDbLayerTableRecord
  2
198
 70
     0
 62
   198
  6
CONTINUOUS
  0
LAYER
  5
100
330
2
100
AcDbSymbolTableRecord
100
AcDbLayerTableRecord
  2
199
 70
     0
 62
   199
  6
CONTINUOUS
  0
LAYER
  5
101
330
2
100
AcDbSymbolTableRecord
100
AcDbLayerTableRecord
  2
200
 70
     0
 62
   200
  6
CONTINUOUS
  0
LAYER
  5
102
330
2
100
AcDbSymbolTableRecord
100
AcDbLayerTableRecord
  2
201
 70
     0
 62
   201
  6
CONTINUOUS
  0
LAYER
  5
103
330
2
100
AcDbSymbolTableRecord
100
AcDbLayerTableRecord
  2
202
 70
     0
 62
   202
  6
CONTINUOUS
  0
LAYER
  5
104
330
2
100
AcDbSymbolTableRecord
100
AcDbLayerTableRecord
  2
203
 70
     0
 62
   203
  6
CONTINUOUS
  0
LAYER
  5
105
330
2
100
AcDbSymbolTableRecord
100
AcDbLayerTableRecord
  2
204
 70
     0
 62
   204
  6
CONTINUOUS
  0
LAYER
  5
106
330
2
100
AcDbSymbolTableRecord
100
AcDbLayerTableRecord
  2
205
 70
     0
 62
   205
  6
CONTINUOUS
  0
LAYER
  5
107
330
2
100
AcDbSymbolTableRecord
100
AcDbLayerTableRecord
  2
206
 70
     0
 62
   206
  6
CONTINUOUS
  0
LAYER
  5
108
330
2
100
AcDbSymbolTableRecord
100
AcDbLayerTableRecord
  2
207
 70
     0
 62
   207
  6
CONTINUOUS
  0
LAYER
  5
109
330
2
100
AcDbSymbolTableRecord
100
AcDbLayerTableRecord
  2
208
 70
     0
 62
   208
  6
CONTINUOUS
  0
LAYER
  5
10A
330
2
100
AcDbSymbolTableRecord
100
AcDbLayerTableRecord
  2
209
 70
     0
 62
   209
  6
CONTINUOUS
  0
LAYER
  5
10B
330
2
100
AcDbSymbolTableRecord
100
AcDbLayerTableRecord
  2
210
 70
     0
 62
   210
  6
CONTINUOUS
  0
LAYER
  5
10C
330
2
100
AcDbSymbolTableRecord
100
AcDbLayerTableRecord
  2
211
 70
     0
 62
   211
  6
CONTINUOUS
  0
LAYER
  5
10D
330
2
100
AcDbSymbolTableRecord
100
AcDbLayerTableRecord
  2
212
 70
     0
 62
   212
  6
CONTINUOUS
  0
LAYER
  5
10E
330
2
100
AcDbSymbolTableRecord
100
AcDbLayerTableRecord
  2
213
 70
     0
 62
   213
  6
CONTINUOUS
  0
LAYER
  5
10F
330
2
100
AcDbSymbolTableRecord
100
AcDbLayerTableRecord
  2
214
 70
     0
 62
   214
  6
CONTINUOUS
  0
LAYER
  5
110
330
2
100
AcDbSymbolTableRecord
100
AcDbLayerTableRecord
  2
215
 70
     0
 62
   215
  6
CONTINUOUS
  0
LAYER
  5
111
330
2
100
AcDbSymbolTableRecord
100
AcDbLayerTableRecord
  2
216
 70
     0
 62
   216
  6
CONTINUOUS
  0
LAYER
  5
112
330
2
100
AcDbSymbolTableRecord
100
AcDbLayerTableRecord
  2
217
 70
     0
 62
   217
  6
CONTINUOUS
  0
LAYER
  5
113
330
2
100
AcDbSymbolTableRecord
100
AcDbLayerTableRecord
  2
218
 70
     0
 62
   218
  6
CONTINUOUS
  0
LAYER
  5
114
330
2
100
AcDbSymbolTableRecord
100
AcDbLayerTableRecord
  2
219
 70
     0
 62
   219
  6
CONTINUOUS
  0
LAYER
  5
115
330
2
100
AcDbSymbolTableRecord
100
AcDbLayerTableRecord
  2
220
 70
     0
 62
   220
  6
CONTINUOUS
  0
LAYER
  5
116
330
2
100
AcDbSymbolTableRecord
100
AcDbLayerTableRecord
  2
221
 70
     0
 62
   221
  6
CONTINUOUS
  0
LAYER
  5
117
330
2
100
AcDbSymbolTableRecord
100
AcDbLayerTableRecord
  2
222
 70
     0
 62
   222
  6
CONTINUOUS
  0
LAYER
  5
118
330
2
100
AcDbSymbolTableRecord
100
AcDbLayerTableRecord
  2
223
 70
     0
 62
   223
  6
CONTINUOUS
  0
LAYER
  5
119
330
2
100
AcDbSymbolTableRecord
100
AcDbLayerTableRecord
  2
224
 70
     0
 62
   224
  6
CONTINUOUS
  0
LAYER
  5
11A
330
2
100
AcDbSymbolTableRecord
100
AcDbLayerTableRecord
  2
225
 70
     0
 62
   225
  6
CONTINUOUS
  0
LAYER
  5
11B
330
2
100
AcDbSymbolTableRecord
100
AcDbLayerTableRecord
  2
226
 70
     0
 62
   226
  6
CONTINUOUS
  0
LAYER
  5
11C
330
2
100
AcDbSymbolTableRecord
100
AcDbLayerTableRecord
  2
227
 70
     0
 62
   227
  6
CONTINUOUS
  0
LAYER
  5
11D
330
2
100
AcDbSymbolTableRecord
100
AcDbLayerTableRecord
  2
228
 70
     0
 62
   228
  6
CONTINUOUS
  0
LAYER
  5
11E
330
2
100
AcDbSymbolTableRecord
100
AcDbLayerTableRecord
  2
229
 70
     0
 62
   229
  6
CONTINUOUS
  0
LAYER
  5
11F
330
2
100
AcDbSymbolTableRecord
100
AcDbLayerTableRecord
  2
230
 70
     0
 62
   230
  6
CONTINUOUS
  0
LAYER
  5
120
330
2
100
AcDbSymbolTableRecord
100
AcDbLayerTableRecord
  2
231
 70
     0
 62
   231
  6
CONTINUOUS
  0
LAYER
  5
121
330
2
100
AcDbSymbolTableRecord
100
AcDbLayerTableRecord
  2
232
 70
     0
 62
   232
  6
CONTINUOUS
  0
LAYER
  5
122
330
2
100
AcDbSymbolTableRecord
100
AcDbLayerTableRecord
  2
233
 70
     0
 62
   233
  6
CONTINUOUS
  0
LAYER
  5
123
330
2
100
AcDbSymbolTableRecord
100
AcDbLayerTableRecord
  2
234
 70
     0
 62
   234
  6
CONTINUOUS
  0
LAYER
  5
124
330
2
100
AcDbSymbolTableRecord
100
AcDbLayerTableRecord
  2
235
 70
     0
 62
   235
  6
CONTINUOUS
  0
LAYER
  5
125
330
2
100
AcDbSymbolTableRecord
100
AcDbLayerTableRecord
  2
236
 70
     0
 62
   236
  6
CONTINUOUS
  0
LAYER
  5
126
330
2
100
AcDbSymbolTableRecord
100
AcDbLayerTableRecord
  2
237
 70
     0
 62
   237
  6
CONTINUOUS
  0
LAYER
  5
127
330
2
100
AcDbSymbolTableRecord
100
AcDbLayerTableRecord
  2
238
 70
     0
 62
   238
  6
CONTINUOUS
  0
LAYER
  5
128
330
2
100
AcDbSymbolTableRecord
100
AcDbLayerTableRecord
  2
239
 70
     0
 62
   239
  6
CONTINUOUS
  0
LAYER
  5
129
330
2
100
AcDbSymbolTableRecord
100
AcDbLayerTableRecord
  2
240
 70
     0
 62
   240
  6
CONTINUOUS
  0
LAYER
  5
12A
330
2
100
AcDbSymbolTableRecord
100
AcDbLayerTableRecord
  2
241
 70
     0
 62
   241
  6
CONTINUOUS
  0
LAYER
  5
12B
330
2
100
AcDbSymbolTableRecord
100
AcDbLayerTableRecord
  2
242
 70
     0
 62
   242
  6
CONTINUOUS
  0
LAYER
  5
12C
330
2
100
AcDbSymbolTableRecord
100
AcDbLayerTableRecord
  2
243
 70
     0
 62
   243
  6
CONTINUOUS
  0
LAYER
  5
12D
330
2
100
AcDbSymbolTableRecord
100
AcDbLayerTableRecord
  2
244
 70
     0
 62
   244
  6
CONTINUOUS
  0
LAYER
  5
12E
330
2
100
AcDbSymbolTableRecord
100
AcDbLayerTableRecord
  2
245
 70
     0
 62
   245
  6
CONTINUOUS
  0
LAYER
  5
12F
330
2
100
AcDbSymbolTableRecord
100
AcDbLayerTableRecord
  2
246
 70
     0
 62
   246
  6
CONTINUOUS
  0
LAYER
  5
130
330
2
100
AcDbSymbolTableRecord
100
AcDbLayerTableRecord
  2
247
 70
     0
 62
   247
  6
CONTINUOUS
  0
LAYER
  5
131
330
2
100
AcDbSymbolTableRecord
100
AcDbLayerTableRecord
  2
248
 70
     0
 62
   248
  6
CONTINUOUS
  0
LAYER
  5
132
330
2
100
AcDbSymbolTableRecord
100
AcDbLayerTableRecord
  2
249
 70
     0
 62
   249
  6
CONTINUOUS
  0
LAYER
  5
133
330
2
100
AcDbSymbolTableRecord
100
AcDbLayerTableRecord
  2
250
 70
     0
 62
   250
  6
CONTINUOUS
  0
LAYER
  5
134
330
2
100
AcDbSymbolTableRecord
100
AcDbLayerTableRecord
  2
251
 70
     0
 62
   251
  6
CONTINUOUS
  0
LAYER
  5
135
330
2
100
AcDbSymbolTableRecord
100
AcDbLayerTableRecord
  2
252
 70
     0
 62
   252
  6
CONTINUOUS
  0
LAYER
  5
136
330
2
100
AcDbSymbolTableRecord
100
AcDbLayerTableRecord
  2
253
 70
     0
 62
   253
  6
CONTINUOUS
  0
LAYER
  5
137
330
2
100
AcDbSymbolTableRecord
100
AcDbLayerTableRecord
  2
254
 70
     0
 62
   254
  6
CONTINUOUS
  0
LAYER
  5
138
330
2
100
AcDbSymbolTableRecord
100
AcDbLayerTableRecord
  2
255
 70
     0
 62
   255
  6
CONTINUOUS
  0
LAYER
  5
42DE
330
2
100
AcDbSymbolTableRecord
100
AcDbLayerTableRecord
  2
DEFPOINTS
 70
     0
 62
     7
  6
CONTINUOUS
  0
ENDTAB
  0
TABLE
  2
STYLE
  5
3
330
0
100
AcDbSymbolTable
 70
     1
  0
STYLE
  5
11
330
3
100
AcDbSymbolTableRecord
100
AcDbTextStyleTableRecord
  2
STANDARD
 70
     0
 40
0.0
 41
1.0
 50
0.0
 71
     0
 42
0.2
  3
monotxt
  4

  0
ENDTAB
  0
TABLE
  2
VIEW
  5
6
330
0
100
AcDbSymbolTable
 70
     0
  0
ENDTAB
  0
TABLE
  2
UCS
  5
7
330
0
100
AcDbSymbolTable
 70
     0
  0
ENDTAB
  0
TABLE
  2
APPID
  5
9
330
0
100
AcDbSymbolTable
 70
     1
  0
APPID
  5
12
330
9
100
AcDbSymbolTableRecord
100
AcDbRegAppTableRecord
  2
ACAD
 70
     0
  0
ENDTAB
  0
TABLE
  2
DIMSTYLE
  5
A
330
0
100
AcDbSymbolTable
 70
     1
  0
DIMSTYLE
105
38D8
102
{ACAD_REACTORS
330
42DD
102
}
330
A
100
AcDbSymbolTableRecord
100
AcDbDimStyleTableRecord
  2
STANDARD
 70
     0
  3

  4

  5

  6

  7

 40
1.0
 41
0.18
 42
0.0625
 43
0.38
 44
0.18
 45
0.0
 46
0.0
 47
0.0
 48
0.0
140
0.18
141
0.09
142
0.0
143
25.4
144
1.0
145
0.0
146
1.0
147
0.09
 71
     0
 72
     0
 73
     1
 74
     1
 75
     0
 76
     0
 77
     0
 78
     0
170
     0
171
     2
172
     0
173
     0
174
     0
175
     0
176
     0
177
     0
178
     0
270
     2
271
     4
272
     4
273
     2
274
     2
340
11
275
     0
280
     0
281
     0
282
     0
283
     1
284
     0
285
     0
286
     0
287
     3
288
     0
  0
ENDTAB
  0
TABLE
  2
BLOCK_RECORD
  5
1
330
0
100
AcDbSymbolTable
 70
     1
  0
BLOCK_RECORD
  5
1E
102
{ACAD_XDICTIONARY
360
42FB
102
}
330
1
100
AcDbSymbolTableRecord
100
AcDbBlockTableRecord
  2
*MODEL_SPACE
  0
BLOCK_RECORD
  5
1A
102
{ACAD_XDICTIONARY
360
42F9
102
}
330
1
100
AcDbSymbolTableRecord
100
AcDbBlockTableRecord
  2
*PAPER_SPACE
  0
BLOCK_RECORD
  5
42DF
330
1
100
AcDbSymbolTableRecord
100
AcDbBlockTableRecord
  2
*D0
  0
ENDTAB
  0
ENDSEC
  0
SECTION
  2
BLOCKS
  0
BLOCK
  5
13B
330
1E
100
AcDbEntity
  8
0
100
AcDbBlockBegin
  2
*MODEL_SPACE
 70
     0
 10
0.0
 20
0.0
 30
0.0
  3
*MODEL_SPACE
  1

  0
ENDBLK
  5
13C
330
1E
100
AcDbEntity
  8
0
100
AcDbBlockEnd
  0
BLOCK
  5
139
330
1A
100
AcDbEntity
 67
     1
  8
0
100
AcDbBlockBegin
  2
*PAPER_SPACE
 70
     0
 10
0.0
 20
0.0
 30
0.0
  3
*PAPER_SPACE
  1

  0
ENDBLK
  5
13A
330
1A
100
AcDbEntity
 67
     1
  8
0
100
AcDbBlockEnd
  0
BLOCK
  5
42EA
330
42DF
100
AcDbEntity
  8
0
100
AcDbBlockBegin
  2
*D0
 70
     1
 10
0.0
 20
0.0
 30
0.0
  3
*D0
  1

  0
LINE
  5
42EC
330
42DF
100
AcDbEntity
  8
0
 62
     0
100
AcDbLine
 10
2.95275590551181
 20
9.613681102362205
 30
0.0
 11
2.95275590551181
 21
9.935245951749712
 31
0.0
  0
LINE
  5
42ED
330
42DF
100
AcDbEntity
  8
0
 62
     0
100
AcDbLine
 10
8.700787401574803
 20
9.613681102362205
 30
0.0
 11
8.700787401574803
 21
9.935245951749712
 31
0.0
  0
LINE
  5
42EE
330
42DF
100
AcDbEntity
  8
0
 62
     0
100
AcDbLine
 10
3.13275590551181
 20
9.755245951749712
 30
0.0
 11
5.226771653543307
 21
9.755245951749712
 31
0.0
  0
LINE
  5
42EF
330
42DF
100
AcDbEntity
  8
0
 62
     0
100
AcDbLine
 10
8.520787401574803
 20
9.755245951749712
 30
0.0
 11
6.426771653543307
 21
9.755245951749712
 31
0.0
  0
SOLID
  5
42F0
330
42DF
100
AcDbEntity
  8
0
 62
     0
100
AcDbTrace
 10
3.13275590551181
 20
9.785245951749711
 30
0.0
 11
3.13275590551181
 21
9.725245951749712
 31
0.0
 12
2.95275590551181
 22
9.755245951749712
 32
0.0
 13
2.95275590551181
 23
9.755245951749712
 33
0.0
  0
SOLID
  5
42F1
330
42DF
100
AcDbEntity
  8
0
 62
     0
100
AcDbTrace
 10
8.520787401574803
 20
9.785245951749711
 30
0.0
 11
8.520787401574803
 21
9.725245951749712
 31
0.0
 12
8.700787401574803
 22
9.755245951749712
 32
0.0
 13
8.700787401574803
 23
9.755245951749712
 33
0.0
  0
MTEXT
  5
42F2
330
42DF
100
AcDbEntity
  8
0
 62
     0
100
AcDbMText
 10
5.826771653543307
 20
9.755245951749712
 30
0.0
 40
0.18
 41
0.0
 71
     5
 72
     1
  1
\A1;5.7480
1001
ACAD
1000
MTEXTBEGIN
1070
    73
1070
     1
1070
    44
1040
1.0
1070
    74
1070
     0
1000
MTEXTEND
  0
POINT
  5
42F3
330
42DF
100
AcDbEntity
  8
DEFPOINTS
 62
     0
100
AcDbPoint
 10
2.95275590551181
 20
9.551181102362205
 30
0.0
  0
POINT
  5
42F4
330
42DF
100
AcDbEntity
  8
DEFPOINTS
 62
     0
100
AcDbPoint
 10
8.700787401574803
 20
9.551181102362205
 30
0.0
  0
POINT
  5
42F5
330
42DF
100
AcDbEntity
  8
DEFPOINTS
 62
     0
100
AcDbPoint
 10
8.700787401574803
 20
9.755245951749712
 30
0.0
  0
ENDBLK
  5
42EB
330
42DF
100
AcDbEntity
  8
0
100
AcDbBlockEnd
  0
ENDSEC
  0
SECTION
  2
ENTITIES
  0
LINE
  5
87D
330
1E
100
AcDbEntity
  8
3
100
AcDbLine
 10
6.417322834645669
 20
6.383858267716535
 30
0.0
 11
7.543307086614173
 21
6.383858267716535
 31
0.0
  0
LINE
  5
87E
330
1E
100
AcDbEntity
  8
3
100
AcDbLine
 10
6.291338582677165
 20
6.381889763779527
 30
0.0
 11
6.417322834645669
 21
6.381889763779527
 31
0.0
  0
LINE
  5
87F
330
1E
100
AcDbEntity
  8
3
100
AcDbLine
 10
7.543307086614173
 20
6.381889763779527
 30
0.0
 11
7.669291338582676
 21
6.381889763779527
 31
0.0
  0
LINE
  5
880
330
1E
100
AcDbEntity
  8
3
100
AcDbLine
 10
6.893700787401574
 20
5.950787401574801
 30
0.0
 11
7.066929133858267
 21
5.950787401574801
 31
0.0
  0
LINE
  5
881
330
1E
100
AcDbEntity
  8
3
100
AcDbLine
 10
7.643700787401574
 20
6.057086614173227
 30
0.0
 11
7.653543307086613
 21
6.057086614173227
 31
0.0
  0
LINE
  5
882
330
1E
100
AcDbEntity
  8
3
100
AcDbLine
 10
6.307086614173228
 20
6.057086614173227
 30
0.0
 11
6.316929133858267
 21
6.057086614173227
 31
0.0
  0
LINE
  5
883
330
1E
100
AcDbEntity
  8
3
100
AcDbLine
 10
6.161417322834645
 20
6.340551181102361
 30
0.0
 11
6.161417322834645
 21
6.332677165354331
 31
0.0
  0
LINE
  5
884
330
1E
100
AcDbEntity
  8
3
100
AcDbLine
 10
6.236220472440945
 20
6.273622047244094
 30
0.0
 11
6.287401574803149
 21
6.273622047244094
 31
0.0
  0
LINE
  5
885
330
1E
100
AcDbEntity
  8
3
100
AcDbLine
 10
6.842519685039369
 20
5.950787401574801
 30
0.0
 11
6.893700787401574
 21
5.950787401574801
 31
0.0
  0
LINE
  5
886
330
1E
100
AcDbEntity
  8
3
100
AcDbLine
 10
6.336614173228347
 20
5.950787401574801
 30
0.0
 11
6.368110236220473
 21
5.950787401574801
 31
0.0
  0
LINE
  5
887
330
1E
100
AcDbEntity
  8
3
100
AcDbLine
 10
6.316929133858267
 20
6.037401574803148
 30
0.0
 11
6.305118110236219
 21
6.037401574803148
 31
0.0
  0
LINE
  5
888
330
1E
100
AcDbEntity
  8
3
100
AcDbLine
 10
6.303149606299212
 20
5.956692913385825
 30
0.0
 11
6.324803149606299
 21
5.956692913385825
 31
0.0
  0
LINE
  5
889
330
1E
100
AcDbEntity
  8
3
100
AcDbLine
 10
6.368110236220473
 20
5.956692913385825
 30
0.0
 11
6.842519685039369
 21
5.956692913385825
 31
0.0
  0
LINE
  5
88A
330
1E
100
AcDbEntity
  8
3
100
AcDbLine
 10
7.799212598425197
 20
6.332677165354331
 30
0.0
 11
7.799212598425197
 21
6.340551181102361
 31
0.0
  0
LINE
  5
88B
330
1E
100
AcDbEntity
  8
3
100
AcDbLine
 10
7.673228346456693
 20
6.273622047244094
 30
0.0
 11
7.724409448818897
 21
6.273622047244094
 31
0.0
  0
LINE
  5
88C
330
1E
100
AcDbEntity
  8
3
100
AcDbLine
 10
7.066929133858267
 20
5.950787401574801
 30
0.0
 11
7.118110236220473
 21
5.950787401574801
 31
0.0
  0
LINE
  5
88D
330
1E
100
AcDbEntity
  8
3
100
AcDbLine
 10
7.592519685039369
 20
5.950787401574801
 30
0.0
 11
7.624015748031495
 21
5.950787401574801
 31
0.0
  0
LINE
  5
88E
330
1E
100
AcDbEntity
  8
3
100
AcDbLine
 10
7.655511811023621
 20
6.037401574803148
 30
0.0
 11
7.643700787401574
 21
6.037401574803148
 31
0.0
  0
LINE
  5
88F
330
1E
100
AcDbEntity
  8
3
100
AcDbLine
 10
7.635826771653543
 20
5.956692913385825
 30
0.0
 11
7.65748031496063
 21
5.956692913385825
 31
0.0
  0
LINE
  5
890
330
1E
100
AcDbEntity
  8
3
100
AcDbLine
 10
7.118110236220473
 20
5.956692913385825
 30
0.0
 11
7.592519685039369
 21
5.956692913385825
 31
0.0
  0
LINE
  5
891
330
1E
100
AcDbEntity
  8
3
100
AcDbLine
 10
5.437007874015747
 20
6.332677165354331
 30
0.0
 11
5.437007874015747
 21
6.340551181102361
 31
0.0
  0
LINE
  5
892
330
1E
100
AcDbEntity
  8
3
100
AcDbLine
 10
5.311023622047243
 20
6.273622047244094
 30
0.0
 11
5.362204724409449
 21
6.273622047244094
 31
0.0
  0
LINE
  5
893
330
1E
100
AcDbEntity
  8
3
100
AcDbLine
 10
4.706692913385826
 20
5.950787401574801
 30
0.0
 11
4.755905511811023
 21
5.950787401574801
 31
0.0
  0
LINE
  5
894
330
1E
100
AcDbEntity
  8
3
100
AcDbLine
 10
5.232283464566928
 20
5.950787401574801
 30
0.0
 11
5.261811023622047
 21
5.950787401574801
 31
0.0
  0
LINE
  5
895
330
1E
100
AcDbEntity
  8
3
100
AcDbLine
 10
5.293307086614173
 20
6.037401574803148
 30
0.0
 11
5.281496062992125
 21
6.037401574803148
 31
0.0
  0
LINE
  5
896
330
1E
100
AcDbEntity
  8
3
100
AcDbLine
 10
5.275590551181102
 20
5.956692913385825
 30
0.0
 11
5.29527559055118
 21
5.956692913385825
 31
0.0
  0
LINE
  5
897
330
1E
100
AcDbEntity
  8
3
100
AcDbLine
 10
4.755905511811023
 20
5.956692913385825
 30
0.0
 11
5.232283464566928
 21
5.956692913385825
 31
0.0
  0
LINE
  5
898
330
1E
100
AcDbEntity
  8
3
100
AcDbLine
 10
3.799212598425197
 20
6.340551181102361
 30
0.0
 11
3.799212598425197
 21
6.332677165354331
 31
0.0
  0
LINE
  5
899
330
1E
100
AcDbEntity
  8
3
100
AcDbLine
 10
3.874015748031495
 20
6.273622047244094
 30
0.0
 11
3.9251968503937
 21
6.273622047244094
 31
0.0
  0
LINE
  5
89A
330
1E
100
AcDbEntity
  8
3
100
AcDbLine
 10
4.480314960629921
 20
5.950787401574801
 30
0.0
 11
4.531496062992125
 21
5.950787401574801
 31
0.0
  0
LINE
  5
89B
330
1E
100
AcDbEntity
  8
3
100
AcDbLine
 10
3.976377952755904
 20
5.950787401574801
 30
0.0
 11
4.005905511811023
 21
5.950787401574801
 31
0.0
  0
LINE
  5
89C
330
1E
100
AcDbEntity
  8
3
100
AcDbLine
 10
3.954724409448819
 20
6.037401574803148
 30
0.0
 11
3.944881889763778
 21
6.037401574803148
 31
0.0
  0
LINE
  5
89D
330
1E
100
AcDbEntity
  8
3
100
AcDbLine
 10
3.940944881889763
 20
5.956692913385825
 30
0.0
 11
3.96259842519685
 21
5.956692913385825
 31
0.0
  0
LINE
  5
89E
330
1E
100
AcDbEntity
  8
3
100
AcDbLine
 10
4.005905511811023
 20
5.956692913385825
 30
0.0
 11
4.480314960629921
 21
5.956692913385825
 31
0.0
  0
LINE
  5
89F
330
1E
100
AcDbEntity
  8
3
100
AcDbLine
 10
4.055118110236221
 20
6.383858267716535
 30
0.0
 11
5.181102362204724
 21
6.383858267716535
 31
0.0
  0
LINE
  5
8A0
330
1E
100
AcDbEntity
  8
3
100
AcDbLine
 10
5.181102362204724
 20
6.381889763779527
 30
0.0
 11
5.307086614173228
 21
6.381889763779527
 31
0.0
  0
LINE
  5
8A1
330
1E
100
AcDbEntity
  8
3
100
AcDbLine
 10
3.931102362204724
 20
6.381889763779527
 30
0.0
 11
4.055118110236221
 21
6.381889763779527
 31
0.0
  0
LINE
  5
8A2
330
1E
100
AcDbEntity
  8
3
100
AcDbLine
 10
4.531496062992125
 20
5.950787401574801
 30
0.0
 11
4.706692913385826
 21
5.950787401574801
 31
0.0
  0
LINE
  5
8A3
330
1E
100
AcDbEntity
  8
3
100
AcDbLine
 10
5.281496062992125
 20
6.057086614173227
 30
0.0
 11
5.291338582677165
 21
6.057086614173227
 31
0.0
  0
LINE
  5
8A4
330
1E
100
AcDbEntity
  8
3
100
AcDbLine
 10
3.946850393700787
 20
6.057086614173227
 30
0.0
 11
3.954724409448819
 21
6.057086614173227
 31
0.0
  0
LINE
  5
96E
330
1E
100
AcDbEntity
  8
3
100
AcDbLine
 10
5.181102362204724
 20
6.381889763779527
 30
0.0
 11
5.181102362204724
 21
6.383858267716535
 31
0.0
  0
LINE
  5
96F
330
1E
100
AcDbEntity
  8
3
100
AcDbLine
 10
5.181102362204724
 20
6.38779527559055
 30
0.0
 11
5.181102362204724
 21
6.383858267716535
 31
0.0
  0
LINE
  5
975
330
1E
100
AcDbEntity
  8
3
100
AcDbLine
 10
5.307086614173228
 20
6.433070866141731
 30
0.0
 11
5.307086614173228
 21
6.383858267716535
 31
0.0
  0
LINE
  5
97C
330
1E
100
AcDbEntity
  8
3
100
AcDbLine
 10
5.391732283464567
 20
6.42322834645669
 30
0.0
 11
5.391732283464567
 21
6.470472440944879
 31
0.0
  0
LINE
  5
97D
330
1E
100
AcDbEntity
  8
3
100
AcDbLine
 10
5.307086614173228
 20
6.433070866141731
 30
0.0
 11
5.356299212598425
 21
6.442913385826772
 31
0.0
  0
LINE
  5
97E
330
1E
100
AcDbEntity
  8
3
100
AcDbLine
 10
5.356299212598425
 20
6.442913385826772
 30
0.0
 11
5.391732283464567
 21
6.470472440944879
 31
0.0
  0
LINE
  5
999
330
1E
100
AcDbEntity
  8
3
100
AcDbLine
 10
5.399606299212599
 20
6.622047244094487
 30
0.0
 11
5.435039370078739
 21
6.622047244094487
 31
0.0
  0
LINE
  5
99F
330
1E
100
AcDbEntity
  8
3
100
AcDbLine
 10
5.435039370078739
 20
6.356299212598424
 30
0.0
 11
5.435039370078739
 21
6.622047244094487
 31
0.0
  0
LINE
  5
9A0
330
1E
100
AcDbEntity
  8
3
100
AcDbLine
 10
5.399606299212599
 20
6.171259842519683
 30
0.0
 11
5.399606299212599
 21
6.281496062992124
 31
0.0
  0
LINE
  5
9A1
330
1E
100
AcDbEntity
  8
3
100
AcDbLine
 10
5.399606299212599
 20
6.391732283464564
 30
0.0
 11
5.399606299212599
 21
6.49803149606299
 31
0.0
  0
LINE
  5
9A2
330
1E
100
AcDbEntity
  8
3
100
AcDbLine
 10
5.399606299212599
 20
5.996062992125983
 30
0.0
 11
5.399606299212599
 21
6.171259842519683
 31
0.0
  0
LINE
  5
9A8
330
1E
100
AcDbEntity
  8
3
100
AcDbLine
 10
5.399606299212599
 20
5.791338582677164
 30
0.0
 11
5.399606299212599
 21
5.938976377952755
 31
0.0
  0
LINE
  5
9A9
330
1E
100
AcDbEntity
  8
3
100
AcDbLine
 10
5.391732283464567
 20
6.393700787401572
 30
0.0
 11
5.391732283464567
 21
6.42322834645669
 31
0.0
  0
LINE
  5
9AA
330
1E
100
AcDbEntity
  8
3
100
AcDbLine
 10
5.307086614173228
 20
6.246062992125983
 30
0.0
 11
5.3503937007874
 21
6.253937007874016
 31
0.0
  0
LINE
  5
9AB
330
1E
100
AcDbEntity
  8
3
100
AcDbLine
 10
5.3503937007874
 20
6.253937007874016
 30
0.0
 11
5.385826771653543
 21
6.275590551181101
 31
0.0
  0
LINE
  5
9B8
330
1E
100
AcDbEntity
  8
3
100
AcDbLine
 10
5.303149606299212
 20
6.05511811023622
 30
0.0
 11
5.307086614173228
 21
6.05511811023622
 31
0.0
  0
LINE
  5
9B9
330
1E
100
AcDbEntity
  8
3
100
AcDbLine
 10
5.305118110236219
 20
5.996062992125983
 30
0.0
 11
5.303149606299212
 21
6.05511811023622
 31
0.0
  0
LINE
  5
9BA
330
1E
100
AcDbEntity
  8
3
100
AcDbLine
 10
5.383858267716536
 20
5.996062992125983
 30
0.0
 11
5.305118110236219
 21
5.996062992125983
 31
0.0
  0
LINE
  5
9BB
330
1E
100
AcDbEntity
  8
3
100
AcDbLine
 10
5.383858267716536
 20
6.114173228346457
 30
0.0
 11
5.383858267716536
 21
5.996062992125983
 31
0.0
  0
LINE
  5
9BC
330
1E
100
AcDbEntity
  8
3
100
AcDbLine
 10
5.303149606299212
 20
6.244094488188975
 30
0.0
 11
5.305118110236219
 21
6.246062992125983
 31
0.0
  0
LINE
  5
9BD
330
1E
100
AcDbEntity
  8
3
100
AcDbLine
 10
5.303149606299212
 20
6.05511811023622
 30
0.0
 11
5.303149606299212
 21
6.244094488188975
 31
0.0
  0
LINE
  5
9BE
330
1E
100
AcDbEntity
  8
3
100
AcDbLine
 10
5.305118110236219
 20
6.246062992125983
 30
0.0
 11
5.307086614173228
 21
6.246062992125983
 31
0.0
  0
LINE
  5
9CF
330
1E
100
AcDbEntity
  8
3
100
AcDbLine
 10
5.305118110236219
 20
6.259842519685038
 30
0.0
 11
5.293307086614173
 21
6.249999999999998
 31
0.0
  0
LINE
  5
9D0
330
1E
100
AcDbEntity
  8
3
100
AcDbLine
 10
5.289370078740156
 20
6.037401574803148
 30
0.0
 11
5.289370078740156
 21
6.057086614173227
 31
0.0
  0
LINE
  5
9D6
330
1E
100
AcDbEntity
  8
3
100
AcDbLine
 10
5.383858267716536
 20
5.927165354330707
 30
0.0
 11
5.307086614173228
 21
5.927165354330707
 31
0.0
  0
LINE
  5
A09
330
1E
100
AcDbEntity
  8
3
100
AcDbLine
 10
5.305118110236219
 20
6.259842519685038
 30
0.0
 11
5.305118110236219
 21
6.273622047244094
 31
0.0
  0
LINE
  5
A0A
330
1E
100
AcDbEntity
  8
3
100
AcDbLine
 10
5.291338582677165
 20
6.269685039370079
 30
0.0
 11
5.293307086614173
 21
6.249999999999998
 31
0.0
  0
LINE
  5
A0B
330
1E
100
AcDbEntity
  8
3
100
AcDbLine
 10
5.291338582677165
 20
6.059055118110235
 30
0.0
 11
5.291338582677165
 21
6.057086614173227
 31
0.0
  0
LINE
  5
A0C
330
1E
100
AcDbEntity
  8
3
100
AcDbLine
 10
5.291338582677165
 20
6.059055118110235
 30
0.0
 11
5.281496062992125
 21
6.059055118110235
 31
0.0
  0
LINE
  5
A0D
330
1E
100
AcDbEntity
  8
3
100
AcDbLine
 10
5.249999999999999
 20
5.950787401574801
 30
0.0
 11
5.249999999999999
 21
5.938976377952755
 31
0.0
  0
LINE
  5
A0E
330
1E
100
AcDbEntity
  8
3
100
AcDbLine
 10
5.249999999999999
 20
5.946850393700787
 30
0.0
 11
5.249999999999999
 21
5.938976377952755
 31
0.0
  0
LINE
  5
A0F
330
1E
100
AcDbEntity
  8
3
100
AcDbLine
 10
5.249999999999999
 20
5.950787401574801
 30
0.0
 11
5.249999999999999
 21
5.946850393700787
 31
0.0
  0
LINE
  5
A10
330
1E
100
AcDbEntity
  8
3
100
AcDbLine
 10
5.293307086614173
 20
5.946850393700787
 30
0.0
 11
5.249999999999999
 21
5.946850393700787
 31
0.0
  0
LINE
  5
A11
330
1E
100
AcDbEntity
  8
3
100
AcDbLine
 10
5.293307086614173
 20
5.956692913385825
 30
0.0
 11
5.293307086614173
 21
5.946850393700787
 31
0.0
  0
LINE
  5
A12
330
1E
100
AcDbEntity
  8
3
100
AcDbLine
 10
5.293307086614173
 20
5.929133858267714
 30
0.0
 11
5.293307086614173
 21
5.946850393700787
 31
0.0
  0
LINE
  5
A23
330
1E
100
AcDbEntity
  8
3
100
AcDbLine
 10
5.291338582677165
 20
6.059055118110235
 30
0.0
 11
5.291338582677165
 21
6.269685039370079
 31
0.0
  0
LINE
  5
A24
330
1E
100
AcDbEntity
  8
3
100
AcDbLine
 10
5.293307086614173
 20
5.929133858267714
 30
0.0
 11
5.29527559055118
 21
5.929133858267714
 31
0.0
  0
LINE
  5
A25
330
1E
100
AcDbEntity
  8
3
100
AcDbLine
 10
5.293307086614173
 20
5.919291338582675
 30
0.0
 11
5.293307086614173
 21
5.929133858267714
 31
0.0
  0
LINE
  5
A31
330
1E
100
AcDbEntity
  8
3
100
AcDbLine
 10
5.297244094488188
 20
5.791338582677164
 30
0.0
 11
5.29527559055118
 21
5.791338582677164
 31
0.0
  0
LINE
  5
A32
330
1E
100
AcDbEntity
  8
3
100
AcDbLine
 10
5.041338582677165
 20
5.864173228346455
 30
0.0
 11
5.041338582677165
 21
5.86023622047244
 31
0.0
  0
LINE
  5
A33
330
1E
100
AcDbEntity
  8
3
100
AcDbLine
 10
5.039370078740156
 20
5.877952755905511
 30
0.0
 11
5.041338582677165
 21
5.86023622047244
 31
0.0
  0
LINE
  5
A34
330
1E
100
AcDbEntity
  8
3
100
AcDbLine
 10
5.232283464566928
 20
5.954724409448818
 30
0.0
 11
4.755905511811023
 21
5.954724409448818
 31
0.0
  0
LINE
  5
A35
330
1E
100
AcDbEntity
  8
3
100
AcDbLine
 10
5.041338582677165
 20
5.864173228346455
 30
0.0
 11
5.041338582677165
 21
5.877952755905511
 31
0.0
  0
LINE
  5
A36
330
1E
100
AcDbEntity
  8
3
100
AcDbLine
 10
5.249999999999999
 20
5.938976377952755
 30
0.0
 11
4.706692913385826
 21
5.938976377952755
 31
0.0
  0
LINE
  5
A37
330
1E
100
AcDbEntity
  8
3
100
AcDbLine
 10
3.844488188976378
 20
6.393700787401572
 30
0.0
 11
3.844488188976378
 21
6.42322834645669
 31
0.0
  0
LINE
  5
A38
330
1E
100
AcDbEntity
  8
3
100
AcDbLine
 10
3.946850393700787
 20
6.059055118110235
 30
0.0
 11
3.946850393700787
 21
6.269685039370079
 31
0.0
  0
LINE
  5
A39
330
1E
100
AcDbEntity
  8
3
100
AcDbLine
 10
3.946850393700787
 20
6.059055118110235
 30
0.0
 11
3.954724409448819
 21
6.059055118110235
 31
0.0
  0
LINE
  5
A3A
330
1E
100
AcDbEntity
  8
3
100
AcDbLine
 10
4.614173228346456
 20
6.348425196850394
 30
0.0
 11
4.624015748031495
 21
6.348425196850394
 31
0.0
  0
LINE
  5
A3B
330
1E
100
AcDbEntity
  8
3
100
AcDbLine
 10
5.307086614173228
 20
7.125984251968501
 30
0.0
 11
3.931102362204724
 21
7.125984251968501
 31
0.0
  0
LINE
  5
A43
330
1E
100
AcDbEntity
  8
3
100
AcDbLine
 10
5.181102362204724
 20
6.38779527559055
 30
0.0
 11
4.055118110236221
 21
6.38779527559055
 31
0.0
  0
LINE
  5
A44
330
1E
100
AcDbEntity
  8
3
100
AcDbLine
 10
3.931102362204724
 20
6.433070866141731
 30
0.0
 11
5.307086614173228
 21
6.433070866141731
 31
0.0
  0
LINE
  5
A4A
330
1E
100
AcDbEntity
  8
3
100
AcDbLine
 10
4.055118110236221
 20
6.38779527559055
 30
0.0
 11
4.055118110236221
 21
6.383858267716535
 31
0.0
  0
LINE
  5
A4B
330
1E
100
AcDbEntity
  8
3
100
AcDbLine
 10
5.307086614173228
 20
6.56299212598425
 30
0.0
 11
3.931102362204724
 21
6.56299212598425
 31
0.0
  0
LINE
  5
A52
330
1E
100
AcDbEntity
  8
3
100
AcDbLine
 10
3.931102362204724
 20
7.125984251968501
 30
0.0
 11
3.931102362204724
 21
6.56299212598425
 31
0.0
  0
LINE
  5
A53
330
1E
100
AcDbEntity
  8
3
100
AcDbLine
 10
3.942913385826771
 20
5.919291338582675
 30
0.0
 11
5.293307086614173
 21
5.919291338582675
 31
0.0
  0
LINE
  5
A54
330
1E
100
AcDbEntity
  8
3
100
AcDbLine
 10
4.706692913385826
 20
5.94291338582677
 30
0.0
 11
4.706692913385826
 21
5.938976377952755
 31
0.0
  0
LINE
  5
A5A
330
1E
100
AcDbEntity
  8
3
100
AcDbLine
 10
3.988188976377952
 20
5.938976377952755
 30
0.0
 11
4.531496062992125
 21
5.938976377952755
 31
0.0
  0
LINE
  5
A5B
330
1E
100
AcDbEntity
  8
3
100
AcDbLine
 10
3.988188976377952
 20
5.946850393700787
 30
0.0
 11
3.988188976377952
 21
5.938976377952755
 31
0.0
  0
LINE
  5
A5C
330
1E
100
AcDbEntity
  8
3
100
AcDbLine
 10
3.942913385826771
 20
5.946850393700787
 30
0.0
 11
3.988188976377952
 21
5.946850393700787
 31
0.0
  0
LINE
  5
A5D
330
1E
100
AcDbEntity
  8
3
100
AcDbLine
 10
3.942913385826771
 20
5.929133858267714
 30
0.0
 11
3.942913385826771
 21
5.946850393700787
 31
0.0
  0
LINE
  5
A5E
330
1E
100
AcDbEntity
  8
3
100
AcDbLine
 10
3.942913385826771
 20
5.919291338582675
 30
0.0
 11
3.942913385826771
 21
5.929133858267714
 31
0.0
  0
LINE
  5
A5F
330
1E
100
AcDbEntity
  8
3
100
AcDbLine
 10
3.940944881889763
 20
5.791338582677164
 30
0.0
 11
5.29527559055118
 21
5.791338582677164
 31
0.0
  0
LINE
  5
A60
330
1E
100
AcDbEntity
  8
3
100
AcDbLine
 10
5.047244094488188
 20
5.842519685039368
 30
0.0
 11
5.29527559055118
 21
5.842519685039368
 31
0.0
  0
LINE
  5
A66
330
1E
100
AcDbEntity
  8
3
100
AcDbLine
 10
4.822834645669291
 20
5.799212598425196
 30
0.0
 11
5.047244094488188
 21
5.799212598425196
 31
0.0
  0
LINE
  5
A6C
330
1E
100
AcDbEntity
  8
3
100
AcDbLine
 10
4.411417322834645
 20
5.842519685039368
 30
0.0
 11
4.824803149606299
 21
5.842519685039368
 31
0.0
  0
LINE
  5
A78
330
1E
100
AcDbEntity
  8
3
100
AcDbLine
 10
4.188976377952756
 20
5.842519685039368
 30
0.0
 11
3.940944881889763
 21
5.842519685039368
 31
0.0
  0
LINE
  5
A7F
330
1E
100
AcDbEntity
  8
3
100
AcDbLine
 10
3.938976377952756
 20
5.791338582677164
 30
0.0
 11
3.940944881889763
 21
5.791338582677164
 31
0.0
  0
LINE
  5
A80
330
1E
100
AcDbEntity
  8
3
100
AcDbLine
 10
3.938976377952756
 20
5.791338582677164
 30
0.0
 11
3.929133858267715
 21
5.791338582677164
 31
0.0
  0
LINE
  5
A81
330
1E
100
AcDbEntity
  8
3
100
AcDbLine
 10
3.85236220472441
 20
5.791338582677164
 30
0.0
 11
3.929133858267715
 21
5.791338582677164
 31
0.0
  0
LINE
  5
A91
330
1E
100
AcDbEntity
  8
3
100
AcDbLine
 10
4.411417322834645
 20
5.842519685039368
 30
0.0
 11
4.409448818897637
 21
5.877952755905511
 31
0.0
  0
LINE
  5
A92
330
1E
100
AcDbEntity
  8
3
100
AcDbLine
 10
4.824803149606299
 20
5.842519685039368
 30
0.0
 11
4.826771653543306
 21
5.877952755905511
 31
0.0
  0
LINE
  5
A93
330
1E
100
AcDbEntity
  8
3
100
AcDbLine
 10
5.04527559055118
 20
5.877952755905511
 30
0.0
 11
4.826771653543306
 21
5.877952755905511
 31
0.0
  0
LINE
  5
A94
330
1E
100
AcDbEntity
  8
3
100
AcDbLine
 10
5.047244094488188
 20
5.842519685039368
 30
0.0
 11
5.04527559055118
 21
5.877952755905511
 31
0.0
  0
LINE
  5
A95
330
1E
100
AcDbEntity
  8
3
100
AcDbLine
 10
3.942913385826771
 20
5.919291338582675
 30
0.0
 11
3.942913385826771
 21
5.88779527559055
 31
0.0
  0
LINE
  5
AA2
330
1E
100
AcDbEntity
  8
3
100
AcDbLine
 10
5.039370078740156
 20
5.877952755905511
 30
0.0
 11
5.047244094488188
 21
5.799212598425196
 31
0.0
  0
LINE
  5
AA3
330
1E
100
AcDbEntity
  8
3
100
AcDbLine
 10
4.83267716535433
 20
5.877952755905511
 30
0.0
 11
4.822834645669291
 21
5.799212598425196
 31
0.0
  0
LINE
  5
AA4
330
1E
100
AcDbEntity
  8
3
100
AcDbLine
 10
4.828740157480315
 20
5.864173228346455
 30
0.0
 11
4.830708661417323
 21
5.86023622047244
 31
0.0
  0
LINE
  5
AA5
330
1E
100
AcDbEntity
  8
3
100
AcDbLine
 10
4.828740157480315
 20
5.864173228346455
 30
0.0
 11
4.830708661417323
 21
5.877952755905511
 31
0.0
  0
LINE
  5
AA6
330
1E
100
AcDbEntity
  8
3
100
AcDbLine
 10
4.83267716535433
 20
5.877952755905511
 30
0.0
 11
4.830708661417323
 21
5.86023622047244
 31
0.0
  0
LINE
  5
AA7
330
1E
100
AcDbEntity
  8
3
100
AcDbLine
 10
4.40748031496063
 20
5.864173228346455
 30
0.0
 11
4.405511811023621
 21
5.877952755905511
 31
0.0
  0
LINE
  5
AA8
330
1E
100
AcDbEntity
  8
3
100
AcDbLine
 10
4.830708661417323
 20
5.86023622047244
 30
0.0
 11
4.828740157480315
 21
5.86023622047244
 31
0.0
  0
LINE
  5
AA9
330
1E
100
AcDbEntity
  8
3
100
AcDbLine
 10
4.40748031496063
 20
5.864173228346455
 30
0.0
 11
4.40748031496063
 21
5.86023622047244
 31
0.0
  0
LINE
  5
AAA
330
1E
100
AcDbEntity
  8
3
100
AcDbLine
 10
4.405511811023621
 20
5.877952755905511
 30
0.0
 11
4.40748031496063
 21
5.86023622047244
 31
0.0
  0
LINE
  5
AAB
330
1E
100
AcDbEntity
  8
3
100
AcDbLine
 10
4.624015748031495
 20
6.062992125984251
 30
0.0
 11
4.614173228346456
 21
6.062992125984251
 31
0.0
  0
LINE
  5
AAC
330
1E
100
AcDbEntity
  8
3
100
AcDbLine
 10
4.624015748031495
 20
6.027559055118109
 30
0.0
 11
4.612204724409449
 21
6.027559055118109
 31
0.0
  0
LINE
  5
ABD
330
1E
100
AcDbEntity
  8
3
100
AcDbLine
 10
3.801181102362204
 20
6.297244094488187
 30
0.0
 11
3.801181102362204
 21
6.316929133858268
 31
0.0
  0
LINE
  5
ABE
330
1E
100
AcDbEntity
  8
3
100
AcDbLine
 10
3.801181102362204
 20
6.356299212598424
 30
0.0
 11
3.801181102362204
 21
6.622047244094487
 31
0.0
  0
LINE
  5
ABF
330
1E
100
AcDbEntity
  8
3
100
AcDbLine
 10
3.85236220472441
 20
5.996062992125983
 30
0.0
 11
3.931102362204724
 21
5.996062992125983
 31
0.0
  0
LINE
  5
ACD
330
1E
100
AcDbEntity
  8
3
100
AcDbLine
 10
3.931102362204724
 20
6.259842519685038
 30
0.0
 11
3.942913385826771
 21
6.249999999999998
 31
0.0
  0
LINE
  5
AD3
330
1E
100
AcDbEntity
  8
3
100
AcDbLine
 10
3.933070866141732
 20
6.244094488188975
 30
0.0
 11
3.931102362204724
 21
6.246062992125983
 31
0.0
  0
LINE
  5
AD9
330
1E
100
AcDbEntity
  8
3
100
AcDbLine
 10
3.931102362204724
 20
6.246062992125983
 30
0.0
 11
3.931102362204724
 21
6.05511811023622
 31
0.0
  0
LINE
  5
ADA
330
1E
100
AcDbEntity
  8
3
100
AcDbLine
 10
3.933070866141732
 20
6.05511811023622
 30
0.0
 11
3.931102362204724
 21
6.05511811023622
 31
0.0
  0
LINE
  5
ADB
330
1E
100
AcDbEntity
  8
3
100
AcDbLine
 10
3.933070866141732
 20
6.05511811023622
 30
0.0
 11
3.933070866141732
 21
6.244094488188975
 31
0.0
  0
LINE
  5
AE3
330
1E
100
AcDbEntity
  8
3
100
AcDbLine
 10
3.931102362204724
 20
5.996062992125983
 30
0.0
 11
3.933070866141732
 21
6.05511811023622
 31
0.0
  0
LINE
  5
AE4
330
1E
100
AcDbEntity
  8
3
100
AcDbLine
 10
3.836614173228347
 20
6.622047244094487
 30
0.0
 11
3.801181102362204
 21
6.622047244094487
 31
0.0
  0
LINE
  5
AE5
330
1E
100
AcDbEntity
  8
3
100
AcDbLine
 10
3.81496062992126
 20
6.297244094488187
 30
0.0
 11
3.801181102362204
 21
6.297244094488187
 31
0.0
  0
LINE
  5
AE6
330
1E
100
AcDbEntity
  8
3
100
AcDbLine
 10
3.836614173228347
 20
5.996062992125983
 30
0.0
 11
3.836614173228347
 21
6.171259842519683
 31
0.0
  0
LINE
  5
AFB
330
1E
100
AcDbEntity
  8
3
100
AcDbLine
 10
3.946850393700787
 20
6.037401574803148
 30
0.0
 11
3.946850393700787
 21
6.057086614173227
 31
0.0
  0
LINE
  5
B0B
330
1E
100
AcDbEntity
  8
3
100
AcDbLine
 10
3.942913385826771
 20
6.059055118110235
 30
0.0
 11
3.940944881889763
 21
5.996062992125983
 31
0.0
  0
LINE
  5
B0C
330
1E
100
AcDbEntity
  8
3
100
AcDbLine
 10
3.942913385826771
 20
6.059055118110235
 30
0.0
 11
3.933070866141732
 21
6.05511811023622
 31
0.0
  0
LINE
  5
B0D
330
1E
100
AcDbEntity
  8
3
100
AcDbLine
 10
3.942913385826771
 20
6.249999999999998
 30
0.0
 11
3.942913385826771
 21
6.059055118110235
 31
0.0
  0
LINE
  5
B17
330
1E
100
AcDbEntity
  8
3
100
AcDbLine
 10
4.194881889763778
 20
5.864173228346455
 30
0.0
 11
4.194881889763778
 21
5.86023622047244
 31
0.0
  0
LINE
  5
B18
330
1E
100
AcDbEntity
  8
3
100
AcDbLine
 10
4.196850393700787
 20
5.877952755905511
 30
0.0
 11
4.194881889763778
 21
5.86023622047244
 31
0.0
  0
LINE
  5
B29
330
1E
100
AcDbEntity
  8
3
100
AcDbLine
 10
3.85236220472441
 20
5.927165354330707
 30
0.0
 11
3.85236220472441
 21
5.791338582677164
 31
0.0
  0
LINE
  5
B2A
330
1E
100
AcDbEntity
  8
3
100
AcDbLine
 10
3.836614173228347
 20
5.791338582677164
 30
0.0
 11
3.836614173228347
 21
5.938976377952755
 31
0.0
  0
LINE
  5
B2B
330
1E
100
AcDbEntity
  8
3
100
AcDbLine
 10
3.929133858267715
 20
5.791338582677164
 30
0.0
 11
3.929133858267715
 21
5.927165354330707
 31
0.0
  0
LINE
  5
B2C
330
1E
100
AcDbEntity
  8
3
100
AcDbLine
 10
3.938976377952756
 20
5.935039370078738
 30
0.0
 11
3.938976377952756
 21
5.791338582677164
 31
0.0
  0
LINE
  5
B2D
330
1E
100
AcDbEntity
  8
3
100
AcDbLine
 10
4.005905511811023
 20
5.954724409448818
 30
0.0
 11
4.480314960629921
 21
5.954724409448818
 31
0.0
  0
LINE
  5
B2E
330
1E
100
AcDbEntity
  8
3
100
AcDbLine
 10
3.946850393700787
 20
6.059055118110235
 30
0.0
 11
3.946850393700787
 21
6.057086614173227
 31
0.0
  0
LINE
  5
B2F
330
1E
100
AcDbEntity
  8
3
100
AcDbLine
 10
3.931102362204724
 20
6.259842519685038
 30
0.0
 11
3.933070866141732
 21
6.273622047244094
 31
0.0
  0
LINE
  5
B30
330
1E
100
AcDbEntity
  8
3
100
AcDbLine
 10
3.944881889763778
 20
6.269685039370079
 30
0.0
 11
3.942913385826771
 21
6.249999999999998
 31
0.0
  0
LINE
  5
B3B
330
1E
100
AcDbEntity
  8
3
100
AcDbLine
 10
3.844488188976378
 20
6.42322834645669
 30
0.0
 11
3.844488188976378
 21
6.470472440944879
 31
0.0
  0
LINE
  5
B3C
330
1E
100
AcDbEntity
  8
3
100
AcDbLine
 10
3.836614173228347
 20
6.171259842519683
 30
0.0
 11
3.836614173228347
 21
6.281496062992124
 31
0.0
  0
LINE
  5
B3D
330
1E
100
AcDbEntity
  8
3
100
AcDbLine
 10
3.836614173228347
 20
6.391732283464564
 30
0.0
 11
3.836614173228347
 21
6.49803149606299
 31
0.0
  0
LINE
  5
B3E
330
1E
100
AcDbEntity
  8
3
100
AcDbLine
 10
3.931102362204724
 20
6.381889763779527
 30
0.0
 11
3.931102362204724
 21
6.383858267716535
 31
0.0
  0
LINE
  5
B45
330
1E
100
AcDbEntity
  8
3
100
AcDbLine
 10
4.055118110236221
 20
6.381889763779527
 30
0.0
 11
4.055118110236221
 21
6.383858267716535
 31
0.0
  0
LINE
  5
B46
330
1E
100
AcDbEntity
  8
3
100
AcDbLine
 10
3.836614173228347
 20
6.49803149606299
 30
0.0
 11
3.836614173228347
 21
7.125984251968501
 31
0.0
  0
LINE
  5
B47
330
1E
100
AcDbEntity
  8
3
100
AcDbLine
 10
4.194881889763778
 20
5.864173228346455
 30
0.0
 11
4.194881889763778
 21
5.877952755905511
 31
0.0
  0
LINE
  5
B48
330
1E
100
AcDbEntity
  8
3
100
AcDbLine
 10
3.942913385826771
 20
5.956692913385825
 30
0.0
 11
3.942913385826771
 21
5.946850393700787
 31
0.0
  0
LINE
  5
B49
330
1E
100
AcDbEntity
  8
3
100
AcDbLine
 10
3.988188976377952
 20
5.950787401574801
 30
0.0
 11
3.988188976377952
 21
5.946850393700787
 31
0.0
  0
LINE
  5
B4A
330
1E
100
AcDbEntity
  8
3
100
AcDbLine
 10
3.988188976377952
 20
5.950787401574801
 30
0.0
 11
3.988188976377952
 21
5.938976377952755
 31
0.0
  0
LINE
  5
B4B
330
1E
100
AcDbEntity
  8
3
100
AcDbLine
 10
4.198818897637795
 20
5.877952755905511
 30
0.0
 11
4.188976377952756
 21
5.799212598425196
 31
0.0
  0
LINE
  5
B4C
330
1E
100
AcDbEntity
  8
3
100
AcDbLine
 10
4.403543307086613
 20
5.877952755905511
 30
0.0
 11
4.413385826771652
 21
5.799212598425196
 31
0.0
  0
LINE
  5
B4D
330
1E
100
AcDbEntity
  8
3
100
AcDbLine
 10
3.954724409448819
 20
6.177165354330709
 30
0.0
 11
3.964566929133858
 21
6.171259842519683
 31
0.0
  0
LINE
  5
B4E
330
1E
100
AcDbEntity
  8
3
100
AcDbLine
 10
3.964566929133858
 20
6.202755905511809
 30
0.0
 11
3.954724409448819
 21
6.185039370078738
 31
0.0
  0
LINE
  5
B4F
330
1E
100
AcDbEntity
  8
3
100
AcDbLine
 10
3.954724409448819
 20
6.177165354330709
 30
0.0
 11
3.954724409448819
 21
6.185039370078738
 31
0.0
  0
LINE
  5
B50
330
1E
100
AcDbEntity
  8
3
100
AcDbLine
 10
3.964566929133858
 20
6.171259842519683
 30
0.0
 11
3.964566929133858
 21
6.232283464566927
 31
0.0
  0
LINE
  5
B51
330
1E
100
AcDbEntity
  8
3
100
AcDbLine
 10
3.954724409448819
 20
6.251968503937005
 30
0.0
 11
3.964566929133858
 21
6.232283464566927
 31
0.0
  0
LINE
  5
B52
330
1E
100
AcDbEntity
  8
3
100
AcDbLine
 10
3.954724409448819
 20
6.251968503937005
 30
0.0
 11
3.954724409448819
 21
6.257874015748031
 31
0.0
  0
LINE
  5
B68
330
1E
100
AcDbEntity
  8
3
100
AcDbLine
 10
3.956692913385826
 20
5.988188976377951
 30
0.0
 11
3.956692913385826
 21
5.990157480314959
 31
0.0
  0
LINE
  5
B80
330
1E
100
AcDbEntity
  8
3
100
AcDbLine
 10
3.954724409448819
 20
6.021653543307085
 30
0.0
 11
3.954724409448819
 21
6.025590551181101
 31
0.0
  0
LINE
  5
B8B
330
1E
100
AcDbEntity
  8
3
100
AcDbLine
 10
4.005905511811023
 20
6.011811023622046
 30
0.0
 11
3.976377952755904
 21
6.011811023622046
 31
0.0
  0
LINE
  5
B8C
330
1E
100
AcDbEntity
  8
3
100
AcDbLine
 10
4.005905511811023
 20
5.99803149606299
 30
0.0
 11
3.976377952755904
 21
5.99803149606299
 31
0.0
  0
LINE
  5
B8D
330
1E
100
AcDbEntity
  8
3
100
AcDbLine
 10
3.954724409448819
 20
6.025590551181101
 30
0.0
 11
3.954724409448819
 21
6.177165354330709
 31
0.0
  0
LINE
  5
B8E
330
1E
100
AcDbEntity
  8
3
100
AcDbLine
 10
3.940944881889763
 20
5.990157480314959
 30
0.0
 11
3.956692913385826
 21
5.990157480314959
 31
0.0
  0
LINE
  5
B8F
330
1E
100
AcDbEntity
  8
3
100
AcDbLine
 10
3.940944881889763
 20
5.964566929133857
 30
0.0
 11
3.956692913385826
 21
5.964566929133857
 31
0.0
  0
LINE
  5
B95
330
1E
100
AcDbEntity
  8
3
100
AcDbLine
 10
3.940944881889763
 20
5.98031496062992
 30
0.0
 11
3.940944881889763
 21
5.972440944881888
 31
0.0
  0
LINE
  5
B9B
330
1E
100
AcDbEntity
  8
3
100
AcDbLine
 10
4.480314960629921
 20
5.99803149606299
 30
0.0
 11
4.531496062992125
 21
5.99803149606299
 31
0.0
  0
LINE
  5
BA6
330
1E
100
AcDbEntity
  8
3
100
AcDbLine
 10
4.480314960629921
 20
6.011811023622046
 30
0.0
 11
4.531496062992125
 21
6.011811023622046
 31
0.0
  0
LINE
  5
BAC
330
1E
100
AcDbEntity
  8
3
100
AcDbLine
 10
4.592519685039369
 20
6.01771653543307
 30
0.0
 11
4.539370078740156
 21
6.01771653543307
 31
0.0
  0
LINE
  5
BBB
330
1E
100
AcDbEntity
  8
3
100
AcDbLine
 10
4.005905511811023
 20
5.964566929133857
 30
0.0
 11
4.480314960629921
 21
5.964566929133857
 31
0.0
  0
LINE
  5
BD0
330
1E
100
AcDbEntity
  8
3
100
AcDbLine
 10
3.799212598425197
 20
6.332677165354331
 30
0.0
 11
3.809055118110236
 21
6.358267716535431
 31
0.0
  0
LINE
  5
BDB
330
1E
100
AcDbEntity
  8
3
100
AcDbLine
 10
3.874015748031495
 20
6.385826771653542
 30
0.0
 11
3.899606299212599
 21
6.385826771653542
 31
0.0
  0
LINE
  5
BE8
330
1E
100
AcDbEntity
  8
3
100
AcDbLine
 10
4.614173228346456
 20
6.372047244094487
 30
0.0
 11
4.614173228346456
 21
6.031496062992125
 31
0.0
  0
LINE
  5
BEE
330
1E
100
AcDbEntity
  8
3
100
AcDbLine
 10
3.874015748031495
 20
6.393700787401572
 30
0.0
 11
3.874015748031495
 21
6.395669291338583
 31
0.0
  0
LINE
  5
BF5
330
1E
100
AcDbEntity
  8
3
100
AcDbLine
 10
3.809055118110236
 20
6.366141732283464
 30
0.0
 11
3.799212598425197
 21
6.340551181102361
 31
0.0
  0
LINE
  5
BF6
330
1E
100
AcDbEntity
  8
3
100
AcDbLine
 10
4.614173228346456
 20
6.377952755905509
 30
0.0
 11
4.614173228346456
 21
6.372047244094487
 31
0.0
  0
LINE
  5
BF7
330
1E
100
AcDbEntity
  8
3
100
AcDbLine
 10
3.874015748031495
 20
6.393700787401572
 30
0.0
 11
3.874015748031495
 21
6.385826771653542
 31
0.0
  0
LINE
  5
BF8
330
1E
100
AcDbEntity
  8
3
100
AcDbLine
 10
5.281496062992125
 20
6.177165354330709
 30
0.0
 11
5.271653543307086
 21
6.171259842519683
 31
0.0
  0
LINE
  5
BF9
330
1E
100
AcDbEntity
  8
3
100
AcDbLine
 10
5.281496062992125
 20
6.177165354330709
 30
0.0
 11
5.281496062992125
 21
6.185039370078738
 31
0.0
  0
LINE
  5
BFA
330
1E
100
AcDbEntity
  8
3
100
AcDbLine
 10
5.271653543307086
 20
6.202755905511809
 30
0.0
 11
5.281496062992125
 21
6.185039370078738
 31
0.0
  0
LINE
  5
BFB
330
1E
100
AcDbEntity
  8
3
100
AcDbLine
 10
5.271653543307086
 20
6.171259842519683
 30
0.0
 11
5.271653543307086
 21
6.232283464566927
 31
0.0
  0
LINE
  5
BFC
330
1E
100
AcDbEntity
  8
3
100
AcDbLine
 10
5.281496062992125
 20
6.251968503937005
 30
0.0
 11
5.271653543307086
 21
6.232283464566927
 31
0.0
  0
LINE
  5
BFD
330
1E
100
AcDbEntity
  8
3
100
AcDbLine
 10
5.281496062992125
 20
6.251968503937005
 30
0.0
 11
5.281496062992125
 21
6.257874015748031
 31
0.0
  0
LINE
  5
C2F
330
1E
100
AcDbEntity
  8
3
100
AcDbLine
 10
5.232283464566928
 20
6.011811023622046
 30
0.0
 11
5.261811023622047
 21
6.011811023622046
 31
0.0
  0
LINE
  5
C30
330
1E
100
AcDbEntity
  8
3
100
AcDbLine
 10
5.232283464566928
 20
5.99803149606299
 30
0.0
 11
5.261811023622047
 21
5.99803149606299
 31
0.0
  0
LINE
  5
C31
330
1E
100
AcDbEntity
  8
3
100
AcDbLine
 10
5.281496062992125
 20
6.025590551181101
 30
0.0
 11
5.281496062992125
 21
6.177165354330709
 31
0.0
  0
LINE
  5
C32
330
1E
100
AcDbEntity
  8
3
100
AcDbLine
 10
5.29527559055118
 20
5.990157480314959
 30
0.0
 11
5.279527559055117
 21
5.990157480314959
 31
0.0
  0
LINE
  5
C33
330
1E
100
AcDbEntity
  8
3
100
AcDbLine
 10
5.29527559055118
 20
5.964566929133857
 30
0.0
 11
5.279527559055117
 21
5.964566929133857
 31
0.0
  0
LINE
  5
C39
330
1E
100
AcDbEntity
  8
3
100
AcDbLine
 10
5.29527559055118
 20
5.98031496062992
 30
0.0
 11
5.29527559055118
 21
5.972440944881888
 31
0.0
  0
LINE
  5
C3F
330
1E
100
AcDbEntity
  8
3
100
AcDbLine
 10
4.755905511811023
 20
5.99803149606299
 30
0.0
 11
4.706692913385826
 21
5.99803149606299
 31
0.0
  0
LINE
  5
C40
330
1E
100
AcDbEntity
  8
3
100
AcDbLine
 10
4.755905511811023
 20
5.99803149606299
 30
0.0
 11
4.755905511811023
 21
6.005905511811022
 31
0.0
  0
LINE
  5
C4B
330
1E
100
AcDbEntity
  8
3
100
AcDbLine
 10
5.232283464566928
 20
5.964566929133857
 30
0.0
 11
4.755905511811023
 21
5.964566929133857
 31
0.0
  0
LINE
  5
C4C
330
1E
100
AcDbEntity
  8
3
100
AcDbLine
 10
5.261811023622047
 20
6.244094488188975
 30
0.0
 11
5.261811023622047
 21
6.011811023622046
 31
0.0
  0
LINE
  5
C52
330
1E
100
AcDbEntity
  8
3
100
AcDbLine
 10
5.362204724409449
 20
6.279527559055116
 30
0.0
 11
5.311023622047243
 21
6.279527559055116
 31
0.0
  0
LINE
  5
C5B
330
1E
100
AcDbEntity
  8
3
100
AcDbLine
 10
4.643700787401574
 20
6.358267716535431
 30
0.0
 11
5.362204724409449
 21
6.358267716535431
 31
0.0
  0
LINE
  5
C5C
330
1E
100
AcDbEntity
  8
3
100
AcDbLine
 10
4.643700787401574
 20
6.01771653543307
 30
0.0
 11
4.643700787401574
 21
6.358267716535431
 31
0.0
  0
LINE
  5
C7F
330
1E
100
AcDbEntity
  8
3
100
AcDbLine
 10
5.362204724409449
 20
6.385826771653542
 30
0.0
 11
5.336614173228347
 21
6.385826771653542
 31
0.0
  0
LINE
  5
C8F
330
1E
100
AcDbEntity
  8
3
100
AcDbLine
 10
4.624015748031495
 20
6.372047244094487
 30
0.0
 11
4.624015748031495
 21
6.031496062992125
 31
0.0
  0
LINE
  5
CA0
330
1E
100
AcDbEntity
  8
3
100
AcDbLine
 10
4.624015748031495
 20
6.377952755905509
 30
0.0
 11
4.624015748031495
 21
6.372047244094487
 31
0.0
  0
LINE
  5
CA1
330
1E
100
AcDbEntity
  8
3
100
AcDbLine
 10
5.362204724409449
 20
6.393700787401572
 30
0.0
 11
5.362204724409449
 21
6.385826771653542
 31
0.0
  0
LINE
  5
CA2
330
1E
100
AcDbEntity
  8
3
100
AcDbLine
 10
7.643700787401574
 20
6.177165354330709
 30
0.0
 11
7.633858267716536
 21
6.171259842519683
 31
0.0
  0
LINE
  5
CA3
330
1E
100
AcDbEntity
  8
3
100
AcDbLine
 10
7.643700787401574
 20
6.177165354330709
 30
0.0
 11
7.643700787401574
 21
6.185039370078738
 31
0.0
  0
LINE
  5
CA4
330
1E
100
AcDbEntity
  8
3
100
AcDbLine
 10
7.633858267716536
 20
6.202755905511809
 30
0.0
 11
7.643700787401574
 21
6.185039370078738
 31
0.0
  0
LINE
  5
CA5
330
1E
100
AcDbEntity
  8
3
100
AcDbLine
 10
7.633858267716536
 20
6.171259842519683
 30
0.0
 11
7.633858267716536
 21
6.232283464566927
 31
0.0
  0
LINE
  5
CA6
330
1E
100
AcDbEntity
  8
3
100
AcDbLine
 10
7.643700787401574
 20
6.251968503937005
 30
0.0
 11
7.633858267716536
 21
6.232283464566927
 31
0.0
  0
LINE
  5
CA7
330
1E
100
AcDbEntity
  8
3
100
AcDbLine
 10
7.643700787401574
 20
6.251968503937005
 30
0.0
 11
7.643700787401574
 21
6.257874015748031
 31
0.0
  0
LINE
  5
CCB
330
1E
100
AcDbEntity
  8
3
100
AcDbLine
 10
7.643700787401574
 20
6.021653543307085
 30
0.0
 11
7.643700787401574
 21
6.025590551181101
 31
0.0
  0
LINE
  5
CD6
330
1E
100
AcDbEntity
  8
3
100
AcDbLine
 10
7.592519685039369
 20
6.011811023622046
 30
0.0
 11
7.624015748031495
 21
6.011811023622046
 31
0.0
  0
LINE
  5
CD7
330
1E
100
AcDbEntity
  8
3
100
AcDbLine
 10
7.592519685039369
 20
5.99803149606299
 30
0.0
 11
7.624015748031495
 21
5.99803149606299
 31
0.0
  0
LINE
  5
CD8
330
1E
100
AcDbEntity
  8
3
100
AcDbLine
 10
7.643700787401574
 20
6.025590551181101
 30
0.0
 11
7.643700787401574
 21
6.177165354330709
 31
0.0
  0
LINE
  5
CD9
330
1E
100
AcDbEntity
  8
3
100
AcDbLine
 10
7.65748031496063
 20
5.990157480314959
 30
0.0
 11
7.641732283464567
 21
5.990157480314959
 31
0.0
  0
LINE
  5
CDA
330
1E
100
AcDbEntity
  8
3
100
AcDbLine
 10
7.65748031496063
 20
5.964566929133857
 30
0.0
 11
7.641732283464567
 21
5.964566929133857
 31
0.0
  0
LINE
  5
CE0
330
1E
100
AcDbEntity
  8
3
100
AcDbLine
 10
7.65748031496063
 20
5.98031496062992
 30
0.0
 11
7.65748031496063
 21
5.972440944881888
 31
0.0
  0
LINE
  5
CE6
330
1E
100
AcDbEntity
  8
3
100
AcDbLine
 10
7.118110236220473
 20
5.99803149606299
 30
0.0
 11
7.066929133858267
 21
5.99803149606299
 31
0.0
  0
LINE
  5
CF2
330
1E
100
AcDbEntity
  8
3
100
AcDbLine
 10
7.592519685039369
 20
5.964566929133857
 30
0.0
 11
7.118110236220473
 21
5.964566929133857
 31
0.0
  0
LINE
  5
CF3
330
1E
100
AcDbEntity
  8
3
100
AcDbLine
 10
7.624015748031495
 20
6.244094488188975
 30
0.0
 11
7.624015748031495
 21
6.011811023622046
 31
0.0
  0
LINE
  5
CF4
330
1E
100
AcDbEntity
  8
3
100
AcDbLine
 10
7.673228346456693
 20
6.279527559055116
 30
0.0
 11
7.63779527559055
 21
6.269685039370079
 31
0.0
  0
LINE
  5
CF5
330
1E
100
AcDbEntity
  8
3
100
AcDbLine
 10
7.63779527559055
 20
6.269685039370079
 30
0.0
 11
7.624015748031495
 21
6.244094488188975
 31
0.0
  0
LINE
  5
CF6
330
1E
100
AcDbEntity
  8
3
100
AcDbLine
 10
7.724409448818897
 20
6.279527559055116
 30
0.0
 11
7.673228346456693
 21
6.279527559055116
 31
0.0
  0
LINE
  5
CFF
330
1E
100
AcDbEntity
  8
3
100
AcDbLine
 10
7.005905511811023
 20
6.358267716535431
 30
0.0
 11
7.724409448818897
 21
6.358267716535431
 31
0.0
  0
LINE
  5
D00
330
1E
100
AcDbEntity
  8
3
100
AcDbLine
 10
7.005905511811023
 20
6.01771653543307
 30
0.0
 11
7.005905511811023
 21
6.358267716535431
 31
0.0
  0
LINE
  5
D23
330
1E
100
AcDbEntity
  8
3
100
AcDbLine
 10
7.724409448818897
 20
6.385826771653542
 30
0.0
 11
7.698818897637795
 21
6.385826771653542
 31
0.0
  0
LINE
  5
D30
330
1E
100
AcDbEntity
  8
3
100
AcDbLine
 10
6.986220472440945
 20
6.372047244094487
 30
0.0
 11
6.986220472440945
 21
6.031496062992125
 31
0.0
  0
LINE
  5
D3D
330
1E
100
AcDbEntity
  8
3
100
AcDbLine
 10
6.986220472440945
 20
6.377952755905509
 30
0.0
 11
6.986220472440945
 21
6.372047244094487
 31
0.0
  0
LINE
  5
D3E
330
1E
100
AcDbEntity
  8
3
100
AcDbLine
 10
7.724409448818897
 20
6.393700787401572
 30
0.0
 11
7.724409448818897
 21
6.385826771653542
 31
0.0
  0
LINE
  5
D3F
330
1E
100
AcDbEntity
  8
3
100
AcDbLine
 10
6.316929133858267
 20
6.177165354330709
 30
0.0
 11
6.326771653543306
 21
6.171259842519683
 31
0.0
  0
LINE
  5
D40
330
1E
100
AcDbEntity
  8
3
100
AcDbLine
 10
6.326771653543306
 20
6.202755905511809
 30
0.0
 11
6.316929133858267
 21
6.185039370078738
 31
0.0
  0
LINE
  5
D41
330
1E
100
AcDbEntity
  8
3
100
AcDbLine
 10
6.316929133858267
 20
6.177165354330709
 30
0.0
 11
6.316929133858267
 21
6.185039370078738
 31
0.0
  0
LINE
  5
D42
330
1E
100
AcDbEntity
  8
3
100
AcDbLine
 10
6.326771653543306
 20
6.171259842519683
 30
0.0
 11
6.326771653543306
 21
6.232283464566927
 31
0.0
  0
LINE
  5
D43
330
1E
100
AcDbEntity
  8
3
100
AcDbLine
 10
6.316929133858267
 20
6.251968503937005
 30
0.0
 11
6.326771653543306
 21
6.232283464566927
 31
0.0
  0
LINE
  5
D44
330
1E
100
AcDbEntity
  8
3
100
AcDbLine
 10
6.316929133858267
 20
6.251968503937005
 30
0.0
 11
6.316929133858267
 21
6.257874015748031
 31
0.0
  0
LINE
  5
D65
330
1E
100
AcDbEntity
  8
3
100
AcDbLine
 10
6.320866141732284
 20
5.99803149606299
 30
0.0
 11
6.328740157480315
 21
5.99803149606299
 31
0.0
  0
LINE
  5
D66
330
1E
100
AcDbEntity
  8
3
100
AcDbLine
 10
6.328740157480315
 20
5.99803149606299
 30
0.0
 11
6.336614173228347
 21
5.99803149606299
 31
0.0
  0
LINE
  5
D79
330
1E
100
AcDbEntity
  8
3
100
AcDbLine
 10
6.368110236220473
 20
6.011811023622046
 30
0.0
 11
6.336614173228347
 21
6.011811023622046
 31
0.0
  0
LINE
  5
D7A
330
1E
100
AcDbEntity
  8
3
100
AcDbLine
 10
6.368110236220473
 20
5.99803149606299
 30
0.0
 11
6.336614173228347
 21
5.99803149606299
 31
0.0
  0
LINE
  5
D7B
330
1E
100
AcDbEntity
  8
3
100
AcDbLine
 10
6.316929133858267
 20
6.025590551181101
 30
0.0
 11
6.316929133858267
 21
6.177165354330709
 31
0.0
  0
LINE
  5
D7C
330
1E
100
AcDbEntity
  8
3
100
AcDbLine
 10
6.303149606299212
 20
5.990157480314959
 30
0.0
 11
6.318897637795275
 21
5.990157480314959
 31
0.0
  0
LINE
  5
D7D
330
1E
100
AcDbEntity
  8
3
100
AcDbLine
 10
6.303149606299212
 20
5.964566929133857
 30
0.0
 11
6.318897637795275
 21
5.964566929133857
 31
0.0
  0
LINE
  5
D83
330
1E
100
AcDbEntity
  8
3
100
AcDbLine
 10
6.303149606299212
 20
5.98031496062992
 30
0.0
 11
6.303149606299212
 21
5.972440944881888
 31
0.0
  0
LINE
  5
D89
330
1E
100
AcDbEntity
  8
3
100
AcDbLine
 10
6.842519685039369
 20
5.99803149606299
 30
0.0
 11
6.893700787401574
 21
5.99803149606299
 31
0.0
  0
LINE
  5
D94
330
1E
100
AcDbEntity
  8
3
100
AcDbLine
 10
6.842519685039369
 20
6.011811023622046
 30
0.0
 11
6.893700787401574
 21
6.011811023622046
 31
0.0
  0
LINE
  5
D9A
330
1E
100
AcDbEntity
  8
3
100
AcDbLine
 10
6.954724409448819
 20
6.01771653543307
 30
0.0
 11
6.901574803149606
 21
6.01771653543307
 31
0.0
  0
LINE
  5
DAC
330
1E
100
AcDbEntity
  8
3
100
AcDbLine
 10
6.368110236220473
 20
5.964566929133857
 30
0.0
 11
6.842519685039369
 21
5.964566929133857
 31
0.0
  0
LINE
  5
DCC
330
1E
100
AcDbEntity
  8
3
100
AcDbLine
 10
6.236220472440945
 20
6.385826771653542
 30
0.0
 11
6.261811023622047
 21
6.385826771653542
 31
0.0
  0
LINE
  5
DD9
330
1E
100
AcDbEntity
  8
3
100
AcDbLine
 10
6.974409448818897
 20
6.372047244094487
 30
0.0
 11
6.974409448818897
 21
6.031496062992125
 31
0.0
  0
LINE
  5
DE6
330
1E
100
AcDbEntity
  8
3
100
AcDbLine
 10
6.974409448818897
 20
6.377952755905509
 30
0.0
 11
6.974409448818897
 21
6.372047244094487
 31
0.0
  0
LINE
  5
DE7
330
1E
100
AcDbEntity
  8
3
100
AcDbLine
 10
6.236220472440945
 20
6.393700787401572
 30
0.0
 11
6.236220472440945
 21
6.385826771653542
 31
0.0
  0
LINE
  5
DE8
330
1E
100
AcDbEntity
  8
3
100
AcDbLine
 10
7.543307086614173
 20
6.381889763779527
 30
0.0
 11
7.543307086614173
 21
6.383858267716535
 31
0.0
  0
LINE
  5
DE9
330
1E
100
AcDbEntity
  8
3
100
AcDbLine
 10
7.543307086614173
 20
6.38779527559055
 30
0.0
 11
7.543307086614173
 21
6.383858267716535
 31
0.0
  0
LINE
  5
DEF
330
1E
100
AcDbEntity
  8
3
100
AcDbLine
 10
7.669291338582676
 20
6.433070866141731
 30
0.0
 11
7.669291338582676
 21
6.383858267716535
 31
0.0
  0
LINE
  5
DF6
330
1E
100
AcDbEntity
  8
3
100
AcDbLine
 10
7.753937007874015
 20
6.42322834645669
 30
0.0
 11
7.753937007874015
 21
6.470472440944879
 31
0.0
  0
LINE
  5
DF7
330
1E
100
AcDbEntity
  8
3
100
AcDbLine
 10
7.669291338582676
 20
6.433070866141731
 30
0.0
 11
7.718503937007873
 21
6.442913385826772
 31
0.0
  0
LINE
  5
DF8
330
1E
100
AcDbEntity
  8
3
100
AcDbLine
 10
7.718503937007873
 20
6.442913385826772
 30
0.0
 11
7.753937007874015
 21
6.470472440944879
 31
0.0
  0
LINE
  5
E13
330
1E
100
AcDbEntity
  8
3
100
AcDbLine
 10
7.761811023622047
 20
6.622047244094487
 30
0.0
 11
7.797244094488188
 21
6.622047244094487
 31
0.0
  0
LINE
  5
E19
330
1E
100
AcDbEntity
  8
3
100
AcDbLine
 10
7.797244094488188
 20
6.356299212598424
 30
0.0
 11
7.797244094488188
 21
6.622047244094487
 31
0.0
  0
LINE
  5
E1A
330
1E
100
AcDbEntity
  8
3
100
AcDbLine
 10
7.761811023622047
 20
6.171259842519683
 30
0.0
 11
7.761811023622047
 21
6.281496062992124
 31
0.0
  0
LINE
  5
E1B
330
1E
100
AcDbEntity
  8
3
100
AcDbLine
 10
7.761811023622047
 20
6.391732283464564
 30
0.0
 11
7.761811023622047
 21
6.49803149606299
 31
0.0
  0
LINE
  5
E1C
330
1E
100
AcDbEntity
  8
3
100
AcDbLine
 10
7.761811023622047
 20
5.996062992125983
 30
0.0
 11
7.761811023622047
 21
6.171259842519683
 31
0.0
  0
LINE
  5
E22
330
1E
100
AcDbEntity
  8
3
100
AcDbLine
 10
7.761811023622047
 20
5.791338582677164
 30
0.0
 11
7.761811023622047
 21
5.938976377952755
 31
0.0
  0
LINE
  5
E23
330
1E
100
AcDbEntity
  8
3
100
AcDbLine
 10
7.753937007874015
 20
6.393700787401572
 30
0.0
 11
7.753937007874015
 21
6.42322834645669
 31
0.0
  0
LINE
  5
E24
330
1E
100
AcDbEntity
  8
3
100
AcDbLine
 10
7.669291338582676
 20
6.246062992125983
 30
0.0
 11
7.71259842519685
 21
6.253937007874016
 31
0.0
  0
LINE
  5
E25
330
1E
100
AcDbEntity
  8
3
100
AcDbLine
 10
7.71259842519685
 20
6.253937007874016
 30
0.0
 11
7.746062992125984
 21
6.275590551181101
 31
0.0
  0
LINE
  5
E34
330
1E
100
AcDbEntity
  8
3
100
AcDbLine
 10
7.665354330708662
 20
6.05511811023622
 30
0.0
 11
7.669291338582676
 21
6.05511811023622
 31
0.0
  0
LINE
  5
E35
330
1E
100
AcDbEntity
  8
3
100
AcDbLine
 10
7.667322834645669
 20
5.996062992125983
 30
0.0
 11
7.665354330708662
 21
6.05511811023622
 31
0.0
  0
LINE
  5
E36
330
1E
100
AcDbEntity
  8
3
100
AcDbLine
 10
7.746062992125984
 20
5.996062992125983
 30
0.0
 11
7.667322834645669
 21
5.996062992125983
 31
0.0
  0
LINE
  5
E37
330
1E
100
AcDbEntity
  8
3
100
AcDbLine
 10
7.746062992125984
 20
6.114173228346457
 30
0.0
 11
7.746062992125984
 21
5.996062992125983
 31
0.0
  0
LINE
  5
E38
330
1E
100
AcDbEntity
  8
3
100
AcDbLine
 10
7.665354330708662
 20
6.244094488188975
 30
0.0
 11
7.667322834645669
 21
6.246062992125983
 31
0.0
  0
LINE
  5
E39
330
1E
100
AcDbEntity
  8
3
100
AcDbLine
 10
7.665354330708662
 20
6.05511811023622
 30
0.0
 11
7.665354330708662
 21
6.244094488188975
 31
0.0
  0
LINE
  5
E3A
330
1E
100
AcDbEntity
  8
3
100
AcDbLine
 10
7.667322834645669
 20
6.246062992125983
 30
0.0
 11
7.669291338582676
 21
6.246062992125983
 31
0.0
  0
LINE
  5
E4B
330
1E
100
AcDbEntity
  8
3
100
AcDbLine
 10
7.667322834645669
 20
6.259842519685038
 30
0.0
 11
7.655511811023621
 21
6.249999999999998
 31
0.0
  0
LINE
  5
E4C
330
1E
100
AcDbEntity
  8
3
100
AcDbLine
 10
7.651574803149606
 20
6.037401574803148
 30
0.0
 11
7.651574803149606
 21
6.057086614173227
 31
0.0
  0
LINE
  5
E52
330
1E
100
AcDbEntity
  8
3
100
AcDbLine
 10
7.746062992125984
 20
5.927165354330707
 30
0.0
 11
7.669291338582676
 21
5.927165354330707
 31
0.0
  0
LINE
  5
E5D
330
1E
100
AcDbEntity
  8
3
100
AcDbLine
 10
7.655511811023621
 20
6.059055118110235
 30
0.0
 11
7.65748031496063
 21
5.996062992125983
 31
0.0
  0
LINE
  5
E74
330
1E
100
AcDbEntity
  8
3
100
AcDbLine
 10
7.65748031496063
 20
5.929133858267714
 30
0.0
 11
7.65748031496063
 21
5.937007874015746
 31
0.0
  0
LINE
  5
E82
330
1E
100
AcDbEntity
  8
3
100
AcDbLine
 10
7.667322834645669
 20
6.259842519685038
 30
0.0
 11
7.665354330708662
 21
6.273622047244094
 31
0.0
  0
LINE
  5
E83
330
1E
100
AcDbEntity
  8
3
100
AcDbLine
 10
7.653543307086613
 20
6.269685039370079
 30
0.0
 11
7.655511811023621
 21
6.249999999999998
 31
0.0
  0
LINE
  5
E84
330
1E
100
AcDbEntity
  8
3
100
AcDbLine
 10
7.653543307086613
 20
6.059055118110235
 30
0.0
 11
7.653543307086613
 21
6.057086614173227
 31
0.0
  0
LINE
  5
E85
330
1E
100
AcDbEntity
  8
3
100
AcDbLine
 10
7.653543307086613
 20
6.059055118110235
 30
0.0
 11
7.643700787401574
 21
6.059055118110235
 31
0.0
  0
LINE
  5
E86
330
1E
100
AcDbEntity
  8
3
100
AcDbLine
 10
7.610236220472441
 20
5.950787401574801
 30
0.0
 11
7.612204724409449
 21
5.938976377952755
 31
0.0
  0
LINE
  5
E87
330
1E
100
AcDbEntity
  8
3
100
AcDbLine
 10
7.612204724409449
 20
5.946850393700787
 30
0.0
 11
7.612204724409449
 21
5.938976377952755
 31
0.0
  0
LINE
  5
E88
330
1E
100
AcDbEntity
  8
3
100
AcDbLine
 10
7.612204724409449
 20
5.950787401574801
 30
0.0
 11
7.612204724409449
 21
5.946850393700787
 31
0.0
  0
LINE
  5
E89
330
1E
100
AcDbEntity
  8
3
100
AcDbLine
 10
7.655511811023621
 20
5.946850393700787
 30
0.0
 11
7.612204724409449
 21
5.946850393700787
 31
0.0
  0
LINE
  5
E8A
330
1E
100
AcDbEntity
  8
3
100
AcDbLine
 10
7.655511811023621
 20
5.956692913385825
 30
0.0
 11
7.655511811023621
 21
5.946850393700787
 31
0.0
  0
LINE
  5
E8B
330
1E
100
AcDbEntity
  8
3
100
AcDbLine
 10
7.655511811023621
 20
5.929133858267714
 30
0.0
 11
7.655511811023621
 21
5.946850393700787
 31
0.0
  0
LINE
  5
E9C
330
1E
100
AcDbEntity
  8
3
100
AcDbLine
 10
7.653543307086613
 20
6.059055118110235
 30
0.0
 11
7.653543307086613
 21
6.269685039370079
 31
0.0
  0
LINE
  5
E9D
330
1E
100
AcDbEntity
  8
3
100
AcDbLine
 10
7.655511811023621
 20
5.929133858267714
 30
0.0
 11
7.65748031496063
 21
5.929133858267714
 31
0.0
  0
LINE
  5
E9E
330
1E
100
AcDbEntity
  8
3
100
AcDbLine
 10
7.655511811023621
 20
5.919291338582675
 30
0.0
 11
7.655511811023621
 21
5.929133858267714
 31
0.0
  0
LINE
  5
EAA
330
1E
100
AcDbEntity
  8
3
100
AcDbLine
 10
7.659448818897637
 20
5.791338582677164
 30
0.0
 11
7.65748031496063
 21
5.791338582677164
 31
0.0
  0
LINE
  5
EAB
330
1E
100
AcDbEntity
  8
3
100
AcDbLine
 10
7.403543307086613
 20
5.864173228346455
 30
0.0
 11
7.403543307086613
 21
5.86023622047244
 31
0.0
  0
LINE
  5
EAC
330
1E
100
AcDbEntity
  8
3
100
AcDbLine
 10
7.401574803149606
 20
5.877952755905511
 30
0.0
 11
7.403543307086613
 21
5.86023622047244
 31
0.0
  0
LINE
  5
EAD
330
1E
100
AcDbEntity
  8
3
100
AcDbLine
 10
7.592519685039369
 20
5.954724409448818
 30
0.0
 11
7.118110236220473
 21
5.954724409448818
 31
0.0
  0
LINE
  5
EAE
330
1E
100
AcDbEntity
  8
3
100
AcDbLine
 10
7.403543307086613
 20
5.864173228346455
 30
0.0
 11
7.403543307086613
 21
5.877952755905511
 31
0.0
  0
LINE
  5
EAF
330
1E
100
AcDbEntity
  8
3
100
AcDbLine
 10
7.612204724409449
 20
5.938976377952755
 30
0.0
 11
7.066929133858267
 21
5.938976377952755
 31
0.0
  0
LINE
  5
EB0
330
1E
100
AcDbEntity
  8
3
100
AcDbLine
 10
6.206692913385826
 20
6.393700787401572
 30
0.0
 11
6.206692913385826
 21
6.42322834645669
 31
0.0
  0
LINE
  5
EB1
330
1E
100
AcDbEntity
  8
3
100
AcDbLine
 10
6.307086614173228
 20
6.059055118110235
 30
0.0
 11
6.307086614173228
 21
6.269685039370079
 31
0.0
  0
LINE
  5
EB2
330
1E
100
AcDbEntity
  8
3
100
AcDbLine
 10
6.307086614173228
 20
6.059055118110235
 30
0.0
 11
6.316929133858267
 21
6.059055118110235
 31
0.0
  0
LINE
  5
EB3
330
1E
100
AcDbEntity
  8
3
100
AcDbLine
 10
6.974409448818897
 20
6.348425196850394
 30
0.0
 11
6.986220472440945
 21
6.348425196850394
 31
0.0
  0
LINE
  5
EB4
330
1E
100
AcDbEntity
  8
3
100
AcDbLine
 10
7.669291338582676
 20
7.125984251968501
 30
0.0
 11
6.291338582677165
 21
7.125984251968501
 31
0.0
  0
LINE
  5
EBC
330
1E
100
AcDbEntity
  8
3
100
AcDbLine
 10
7.543307086614173
 20
6.38779527559055
 30
0.0
 11
6.417322834645669
 21
6.38779527559055
 31
0.0
  0
LINE
  5
EBD
330
1E
100
AcDbEntity
  8
3
100
AcDbLine
 10
6.291338582677165
 20
6.433070866141731
 30
0.0
 11
7.669291338582676
 21
6.433070866141731
 31
0.0
  0
LINE
  5
EC3
330
1E
100
AcDbEntity
  8
3
100
AcDbLine
 10
6.417322834645669
 20
6.38779527559055
 30
0.0
 11
6.417322834645669
 21
6.383858267716535
 31
0.0
  0
LINE
  5
EC4
330
1E
100
AcDbEntity
  8
3
100
AcDbLine
 10
7.669291338582676
 20
6.56299212598425
 30
0.0
 11
6.291338582677165
 21
6.56299212598425
 31
0.0
  0
LINE
  5
ECB
330
1E
100
AcDbEntity
  8
3
100
AcDbLine
 10
6.291338582677165
 20
7.125984251968501
 30
0.0
 11
6.291338582677165
 21
6.56299212598425
 31
0.0
  0
LINE
  5
ECC
330
1E
100
AcDbEntity
  8
3
100
AcDbLine
 10
6.305118110236219
 20
5.919291338582675
 30
0.0
 11
7.655511811023621
 21
5.919291338582675
 31
0.0
  0
LINE
  5
ECD
330
1E
100
AcDbEntity
  8
3
100
AcDbLine
 10
7.066929133858267
 20
5.94291338582677
 30
0.0
 11
7.066929133858267
 21
5.938976377952755
 31
0.0
  0
LINE
  5
ED3
330
1E
100
AcDbEntity
  8
3
100
AcDbLine
 10
6.3503937007874
 20
5.938976377952755
 30
0.0
 11
6.893700787401574
 21
5.938976377952755
 31
0.0
  0
LINE
  5
ED4
330
1E
100
AcDbEntity
  8
3
100
AcDbLine
 10
6.3503937007874
 20
5.946850393700787
 30
0.0
 11
6.3503937007874
 21
5.938976377952755
 31
0.0
  0
LINE
  5
ED5
330
1E
100
AcDbEntity
  8
3
100
AcDbLine
 10
6.305118110236219
 20
5.946850393700787
 30
0.0
 11
6.3503937007874
 21
5.946850393700787
 31
0.0
  0
LINE
  5
ED6
330
1E
100
AcDbEntity
  8
3
100
AcDbLine
 10
6.305118110236219
 20
5.929133858267714
 30
0.0
 11
6.305118110236219
 21
5.946850393700787
 31
0.0
  0
LINE
  5
ED7
330
1E
100
AcDbEntity
  8
3
100
AcDbLine
 10
6.305118110236219
 20
5.919291338582675
 30
0.0
 11
6.305118110236219
 21
5.929133858267714
 31
0.0
  0
LINE
  5
ED8
330
1E
100
AcDbEntity
  8
3
100
AcDbLine
 10
6.303149606299212
 20
5.791338582677164
 30
0.0
 11
7.65748031496063
 21
5.791338582677164
 31
0.0
  0
LINE
  5
ED9
330
1E
100
AcDbEntity
  8
3
100
AcDbLine
 10
7.409448818897637
 20
5.842519685039368
 30
0.0
 11
7.65748031496063
 21
5.842519685039368
 31
0.0
  0
LINE
  5
EDF
330
1E
100
AcDbEntity
  8
3
100
AcDbLine
 10
7.185039370078739
 20
5.799212598425196
 30
0.0
 11
7.409448818897637
 21
5.799212598425196
 31
0.0
  0
LINE
  5
EE5
330
1E
100
AcDbEntity
  8
3
100
AcDbLine
 10
6.773622047244093
 20
5.842519685039368
 30
0.0
 11
7.187007874015747
 21
5.842519685039368
 31
0.0
  0
LINE
  5
EF1
330
1E
100
AcDbEntity
  8
3
100
AcDbLine
 10
6.551181102362204
 20
5.842519685039368
 30
0.0
 11
6.303149606299212
 21
5.842519685039368
 31
0.0
  0
LINE
  5
EF8
330
1E
100
AcDbEntity
  8
3
100
AcDbLine
 10
6.301181102362204
 20
5.791338582677164
 30
0.0
 11
6.303149606299212
 21
5.791338582677164
 31
0.0
  0
LINE
  5
EF9
330
1E
100
AcDbEntity
  8
3
100
AcDbLine
 10
6.301181102362204
 20
5.791338582677164
 30
0.0
 11
6.291338582677165
 21
5.791338582677164
 31
0.0
  0
LINE
  5
EFA
330
1E
100
AcDbEntity
  8
3
100
AcDbLine
 10
6.214566929133858
 20
5.791338582677164
 30
0.0
 11
6.291338582677165
 21
5.791338582677164
 31
0.0
  0
LINE
  5
F0A
330
1E
100
AcDbEntity
  8
3
100
AcDbLine
 10
6.773622047244093
 20
5.842519685039368
 30
0.0
 11
6.771653543307086
 21
5.877952755905511
 31
0.0
  0
LINE
  5
F0B
330
1E
100
AcDbEntity
  8
3
100
AcDbLine
 10
7.187007874015747
 20
5.842519685039368
 30
0.0
 11
7.188976377952756
 21
5.877952755905511
 31
0.0
  0
LINE
  5
F0C
330
1E
100
AcDbEntity
  8
3
100
AcDbLine
 10
7.40748031496063
 20
5.877952755905511
 30
0.0
 11
7.188976377952756
 21
5.877952755905511
 31
0.0
  0
LINE
  5
F0D
330
1E
100
AcDbEntity
  8
3
100
AcDbLine
 10
7.409448818897637
 20
5.842519685039368
 30
0.0
 11
7.40748031496063
 21
5.877952755905511
 31
0.0
  0
LINE
  5
F0E
330
1E
100
AcDbEntity
  8
3
100
AcDbLine
 10
6.305118110236219
 20
5.919291338582675
 30
0.0
 11
6.305118110236219
 21
5.88779527559055
 31
0.0
  0
LINE
  5
F1B
330
1E
100
AcDbEntity
  8
3
100
AcDbLine
 10
7.399606299212599
 20
5.877952755905511
 30
0.0
 11
7.409448818897637
 21
5.799212598425196
 31
0.0
  0
LINE
  5
F1C
330
1E
100
AcDbEntity
  8
3
100
AcDbLine
 10
7.194881889763778
 20
5.877952755905511
 30
0.0
 11
7.185039370078739
 21
5.799212598425196
 31
0.0
  0
LINE
  5
F1D
330
1E
100
AcDbEntity
  8
3
100
AcDbLine
 10
7.190944881889763
 20
5.864173228346455
 30
0.0
 11
7.190944881889763
 21
5.86023622047244
 31
0.0
  0
LINE
  5
F1E
330
1E
100
AcDbEntity
  8
3
100
AcDbLine
 10
7.190944881889763
 20
5.864173228346455
 30
0.0
 11
7.192913385826771
 21
5.877952755905511
 31
0.0
  0
LINE
  5
F1F
330
1E
100
AcDbEntity
  8
3
100
AcDbLine
 10
7.194881889763778
 20
5.877952755905511
 30
0.0
 11
7.190944881889763
 21
5.86023622047244
 31
0.0
  0
LINE
  5
F20
330
1E
100
AcDbEntity
  8
3
100
AcDbLine
 10
6.769685039370078
 20
5.864173228346455
 30
0.0
 11
6.767716535433071
 21
5.877952755905511
 31
0.0
  0
LINE
  5
F21
330
1E
100
AcDbEntity
  8
3
100
AcDbLine
 10
6.769685039370078
 20
5.864173228346455
 30
0.0
 11
6.769685039370078
 21
5.86023622047244
 31
0.0
  0
LINE
  5
F22
330
1E
100
AcDbEntity
  8
3
100
AcDbLine
 10
6.765748031496062
 20
5.877952755905511
 30
0.0
 11
6.769685039370078
 21
5.86023622047244
 31
0.0
  0
LINE
  5
F23
330
1E
100
AcDbEntity
  8
3
100
AcDbLine
 10
6.986220472440945
 20
6.062992125984251
 30
0.0
 11
6.974409448818897
 21
6.062992125984251
 31
0.0
  0
LINE
  5
F24
330
1E
100
AcDbEntity
  8
3
100
AcDbLine
 10
6.986220472440945
 20
6.027559055118109
 30
0.0
 11
6.974409448818897
 21
6.027559055118109
 31
0.0
  0
LINE
  5
F35
330
1E
100
AcDbEntity
  8
3
100
AcDbLine
 10
6.163385826771652
 20
6.297244094488187
 30
0.0
 11
6.163385826771652
 21
6.316929133858268
 31
0.0
  0
LINE
  5
F36
330
1E
100
AcDbEntity
  8
3
100
AcDbLine
 10
6.163385826771652
 20
6.356299212598424
 30
0.0
 11
6.163385826771652
 21
6.622047244094487
 31
0.0
  0
LINE
  5
F37
330
1E
100
AcDbEntity
  8
3
100
AcDbLine
 10
6.214566929133858
 20
5.996062992125983
 30
0.0
 11
6.293307086614173
 21
5.996062992125983
 31
0.0
  0
LINE
  5
F45
330
1E
100
AcDbEntity
  8
3
100
AcDbLine
 10
6.293307086614173
 20
6.259842519685038
 30
0.0
 11
6.305118110236219
 21
6.249999999999998
 31
0.0
  0
LINE
  5
F4B
330
1E
100
AcDbEntity
  8
3
100
AcDbLine
 10
6.29527559055118
 20
6.244094488188975
 30
0.0
 11
6.293307086614173
 21
6.246062992125983
 31
0.0
  0
LINE
  5
F4C
330
1E
100
AcDbEntity
  8
3
100
AcDbLine
 10
6.291338582677165
 20
6.259842519685038
 30
0.0
 11
6.293307086614173
 21
6.259842519685038
 31
0.0
  0
LINE
  5
F57
330
1E
100
AcDbEntity
  8
3
100
AcDbLine
 10
6.29527559055118
 20
6.05511811023622
 30
0.0
 11
6.291338582677165
 21
6.05511811023622
 31
0.0
  0
LINE
  5
F58
330
1E
100
AcDbEntity
  8
3
100
AcDbLine
 10
6.29527559055118
 20
6.05511811023622
 30
0.0
 11
6.29527559055118
 21
6.244094488188975
 31
0.0
  0
LINE
  5
F60
330
1E
100
AcDbEntity
  8
3
100
AcDbLine
 10
6.293307086614173
 20
5.996062992125983
 30
0.0
 11
6.29527559055118
 21
6.05511811023622
 31
0.0
  0
LINE
  5
F61
330
1E
100
AcDbEntity
  8
3
100
AcDbLine
 10
6.198818897637795
 20
6.622047244094487
 30
0.0
 11
6.163385826771652
 21
6.622047244094487
 31
0.0
  0
LINE
  5
F62
330
1E
100
AcDbEntity
  8
3
100
AcDbLine
 10
6.177165354330708
 20
6.297244094488187
 30
0.0
 11
6.163385826771652
 21
6.297244094488187
 31
0.0
  0
LINE
  5
F63
330
1E
100
AcDbEntity
  8
3
100
AcDbLine
 10
6.198818897637795
 20
5.996062992125983
 30
0.0
 11
6.198818897637795
 21
6.171259842519683
 31
0.0
  0
LINE
  5
F7A
330
1E
100
AcDbEntity
  8
3
100
AcDbLine
 10
6.309055118110236
 20
6.037401574803148
 30
0.0
 11
6.309055118110236
 21
6.057086614173227
 31
0.0
  0
LINE
  5
F8A
330
1E
100
AcDbEntity
  8
3
100
AcDbLine
 10
6.305118110236219
 20
6.059055118110235
 30
0.0
 11
6.303149606299212
 21
5.996062992125983
 31
0.0
  0
LINE
  5
F8B
330
1E
100
AcDbEntity
  8
3
100
AcDbLine
 10
6.305118110236219
 20
6.059055118110235
 30
0.0
 11
6.29527559055118
 21
6.05511811023622
 31
0.0
  0
LINE
  5
F8C
330
1E
100
AcDbEntity
  8
3
100
AcDbLine
 10
6.305118110236219
 20
6.249999999999998
 30
0.0
 11
6.305118110236219
 21
6.059055118110235
 31
0.0
  0
LINE
  5
F96
330
1E
100
AcDbEntity
  8
3
100
AcDbLine
 10
6.557086614173228
 20
5.864173228346455
 30
0.0
 11
6.557086614173228
 21
5.86023622047244
 31
0.0
  0
LINE
  5
F97
330
1E
100
AcDbEntity
  8
3
100
AcDbLine
 10
6.559055118110236
 20
5.877952755905511
 30
0.0
 11
6.557086614173228
 21
5.86023622047244
 31
0.0
  0
LINE
  5
FA8
330
1E
100
AcDbEntity
  8
3
100
AcDbLine
 10
6.305118110236219
 20
5.929133858267714
 30
0.0
 11
6.303149606299212
 21
5.929133858267714
 31
0.0
  0
LINE
  5
FA9
330
1E
100
AcDbEntity
  8
3
100
AcDbLine
 10
6.214566929133858
 20
5.927165354330707
 30
0.0
 11
6.214566929133858
 21
5.791338582677164
 31
0.0
  0
LINE
  5
FAA
330
1E
100
AcDbEntity
  8
3
100
AcDbLine
 10
6.198818897637795
 20
5.791338582677164
 30
0.0
 11
6.198818897637795
 21
5.938976377952755
 31
0.0
  0
LINE
  5
FAB
330
1E
100
AcDbEntity
  8
3
100
AcDbLine
 10
6.291338582677165
 20
5.791338582677164
 30
0.0
 11
6.291338582677165
 21
5.927165354330707
 31
0.0
  0
LINE
  5
FAC
330
1E
100
AcDbEntity
  8
3
100
AcDbLine
 10
6.301181102362204
 20
5.935039370078738
 30
0.0
 11
6.301181102362204
 21
5.791338582677164
 31
0.0
  0
LINE
  5
FAD
330
1E
100
AcDbEntity
  8
3
100
AcDbLine
 10
6.368110236220473
 20
5.954724409448818
 30
0.0
 11
6.842519685039369
 21
5.954724409448818
 31
0.0
  0
LINE
  5
FAE
330
1E
100
AcDbEntity
  8
3
100
AcDbLine
 10
6.307086614173228
 20
6.059055118110235
 30
0.0
 11
6.307086614173228
 21
6.057086614173227
 31
0.0
  0
LINE
  5
FAF
330
1E
100
AcDbEntity
  8
3
100
AcDbLine
 10
6.293307086614173
 20
6.259842519685038
 30
0.0
 11
6.29527559055118
 21
6.273622047244094
 31
0.0
  0
LINE
  5
FB0
330
1E
100
AcDbEntity
  8
3
100
AcDbLine
 10
6.307086614173228
 20
6.269685039370079
 30
0.0
 11
6.305118110236219
 21
6.249999999999998
 31
0.0
  0
LINE
  5
FBB
330
1E
100
AcDbEntity
  8
3
100
AcDbLine
 10
6.206692913385826
 20
6.42322834645669
 30
0.0
 11
6.206692913385826
 21
6.470472440944879
 31
0.0
  0
LINE
  5
FBC
330
1E
100
AcDbEntity
  8
3
100
AcDbLine
 10
6.198818897637795
 20
6.171259842519683
 30
0.0
 11
6.198818897637795
 21
6.281496062992124
 31
0.0
  0
LINE
  5
FBD
330
1E
100
AcDbEntity
  8
3
100
AcDbLine
 10
6.198818897637795
 20
6.391732283464564
 30
0.0
 11
6.198818897637795
 21
6.49803149606299
 31
0.0
  0
LINE
  5
FBE
330
1E
100
AcDbEntity
  8
3
100
AcDbLine
 10
6.291338582677165
 20
6.381889763779527
 30
0.0
 11
6.291338582677165
 21
6.383858267716535
 31
0.0
  0
LINE
  5
FC5
330
1E
100
AcDbEntity
  8
3
100
AcDbLine
 10
6.417322834645669
 20
6.381889763779527
 30
0.0
 11
6.417322834645669
 21
6.383858267716535
 31
0.0
  0
LINE
  5
FC6
330
1E
100
AcDbEntity
  8
3
100
AcDbLine
 10
6.198818897637795
 20
6.49803149606299
 30
0.0
 11
6.198818897637795
 21
7.125984251968501
 31
0.0
  0
LINE
  5
FC7
330
1E
100
AcDbEntity
  8
3
100
AcDbLine
 10
6.557086614173228
 20
5.864173228346455
 30
0.0
 11
6.557086614173228
 21
5.877952755905511
 31
0.0
  0
LINE
  5
FC8
330
1E
100
AcDbEntity
  8
3
100
AcDbLine
 10
6.305118110236219
 20
5.956692913385825
 30
0.0
 11
6.305118110236219
 21
5.946850393700787
 31
0.0
  0
LINE
  5
FC9
330
1E
100
AcDbEntity
  8
3
100
AcDbLine
 10
6.3503937007874
 20
5.950787401574801
 30
0.0
 11
6.3503937007874
 21
5.946850393700787
 31
0.0
  0
LINE
  5
FCA
330
1E
100
AcDbEntity
  8
3
100
AcDbLine
 10
6.3503937007874
 20
5.950787401574801
 30
0.0
 11
6.3503937007874
 21
5.938976377952755
 31
0.0
  0
LINE
  5
FCB
330
1E
100
AcDbEntity
  8
3
100
AcDbLine
 10
6.561023622047243
 20
5.877952755905511
 30
0.0
 11
6.551181102362204
 21
5.799212598425196
 31
0.0
  0
LINE
  5
FCC
330
1E
100
AcDbEntity
  8
3
100
AcDbLine
 10
6.765748031496062
 20
5.877952755905511
 30
0.0
 11
6.775590551181102
 21
5.799212598425196
 31
0.0
  0
LINE
  5
FCD
330
1E
100
AcDbEntity
  8
3
100
AcDbLine
 10
6.297244094488188
 20
7.271653543307087
 30
0.0
 11
6.336614173228347
 21
7.271653543307087
 31
0.0
  0
LINE
  5
FCE
330
1E
100
AcDbEntity
  8
3
100
AcDbLine
 10
3.923228346456693
 20
7.281496062992124
 30
0.0
 11
3.9251968503937
 21
7.281496062992124
 31
0.0
  0
LINE
  5
FCF
330
1E
100
AcDbEntity
  8
3
100
AcDbLine
 10
7.718503937007873
 20
7.631889763779527
 30
0.0
 11
7.677165354330708
 21
7.631889763779527
 31
0.0
  0
LINE
  5
FD0
330
1E
100
AcDbEntity
  8
3
100
AcDbLine
 10
5.356299212598425
 20
7.631889763779527
 30
0.0
 11
3.935039370078739
 21
7.631889763779527
 31
0.0
  0
LINE
  5
FD1
330
1E
100
AcDbEntity
  8
3
100
AcDbLine
 10
3.935039370078739
 20
7.271653543307087
 30
0.0
 11
5.356299212598425
 21
7.271653543307087
 31
0.0
  0
LINE
  5
FD2
330
1E
100
AcDbEntity
  8
3
100
AcDbLine
 10
8.6751968503937
 20
8.342519685039368
 30
0.0
 11
8.6751968503937
 21
5.066929133858266
 31
0.0
  0
LINE
  5
FD3
330
1E
100
AcDbEntity
  8
3
100
AcDbLine
 10
6.287401574803149
 20
7.622047244094487
 30
0.0
 11
6.285433070866141
 21
7.622047244094487
 31
0.0
  0
LINE
  5
FD4
330
1E
100
AcDbEntity
  8
3
100
AcDbLine
 10
8.643700787401574
 20
5.037401574803148
 30
0.0
 11
3.00787401574803
 21
5.037401574803148
 31
0.0
  0
LINE
  5
FD5
330
1E
100
AcDbEntity
  8
3
100
AcDbLine
 10
2.984251968503936
 20
5.011811023622046
 30
0.0
 11
8.669291338582677
 21
5.011811023622046
 31
0.0
  0
LINE
  5
FD6
330
1E
100
AcDbEntity
  8
3
100
AcDbLine
 10
2.976377952755904
 20
8.342519685039368
 30
0.0
 11
2.95275590551181
 21
8.366141732283464
 31
0.0
  0
LINE
  5
FD7
330
1E
100
AcDbEntity
  8
3
100
AcDbLine
 10
8.669291338582677
 20
8.39763779527559
 30
0.0
 11
2.984251968503936
 21
8.39763779527559
 31
0.0
  0
LINE
  5
FD8
330
1E
100
AcDbEntity
  8
3
100
AcDbLine
 10
3.935039370078739
 20
7.631889763779527
 30
0.0
 11
3.974409448818897
 21
7.631889763779527
 31
0.0
  0
LINE
  5
FD9
330
1E
100
AcDbEntity
  8
3
100
AcDbLine
 10
7.6751968503937
 20
7.273622047244094
 30
0.0
 11
7.6751968503937
 21
7.62992125984252
 31
0.0
  0
LINE
  5
FDA
330
1E
100
AcDbEntity
  8
3
100
AcDbLine
 10
7.6751968503937
 20
7.273622047244094
 30
0.0
 11
7.677165354330708
 21
7.271653543307087
 31
0.0
  0
LINE
  5
FDB
330
1E
100
AcDbEntity
  8
3
100
AcDbLine
 10
5.312992125984252
 20
7.273622047244094
 30
0.0
 11
5.31496062992126
 21
7.271653543307087
 31
0.0
  0
LINE
  5
FDC
330
1E
100
AcDbEntity
  8
3
100
AcDbLine
 10
3.9251968503937
 20
7.622047244094487
 30
0.0
 11
3.923228346456693
 21
7.622047244094487
 31
0.0
  0
LINE
  5
FDD
330
1E
100
AcDbEntity
  8
3
100
AcDbLine
 10
3.923228346456693
 20
7.281496062992124
 30
0.0
 11
3.923228346456693
 21
7.622047244094487
 31
0.0
  0
LINE
  5
FDE
330
1E
100
AcDbEntity
  8
3
100
AcDbLine
 10
7.718503937007873
 20
7.631889763779527
 30
0.0
 11
6.29527559055118
 21
7.631889763779527
 31
0.0
  0
LINE
  5
FDF
330
1E
100
AcDbEntity
  8
3
100
AcDbLine
 10
6.285433070866141
 20
7.281496062992124
 30
0.0
 11
6.285433070866141
 21
7.622047244094487
 31
0.0
  0
LINE
  5
FE0
330
1E
100
AcDbEntity
  8
3
100
AcDbLine
 10
5.356299212598425
 20
7.271653543307087
 30
0.0
 11
5.31496062992126
 21
7.271653543307087
 31
0.0
  0
LINE
  5
FE1
330
1E
100
AcDbEntity
  8
3
100
AcDbLine
 10
2.992125984251967
 20
8.342519685039368
 30
0.0
 11
2.992125984251967
 21
5.066929133858266
 31
0.0
  0
LINE
  5
FE2
330
1E
100
AcDbEntity
  8
3
100
AcDbLine
 10
8.700787401574803
 20
8.366141732283464
 30
0.0
 11
8.6751968503937
 21
8.342519685039368
 31
0.0
  0
LINE
  5
FE3
330
1E
100
AcDbEntity
  8
3
100
AcDbLine
 10
3.978346456692913
 20
7.273622047244094
 30
0.0
 11
3.974409448818897
 21
7.271653543307087
 31
0.0
  0
LINE
  5
FE4
330
1E
100
AcDbEntity
  8
3
100
AcDbLine
 10
5.366141732283463
 20
7.281496062992124
 30
0.0
 11
5.366141732283463
 21
7.622047244094487
 31
0.0
  0
LINE
  5
FE5
330
1E
100
AcDbEntity
  8
3
100
AcDbLine
 10
5.356299212598425
 20
7.631889763779527
 30
0.0
 11
5.31496062992126
 21
7.631889763779527
 31
0.0
  0
LINE
  5
FE6
330
1E
100
AcDbEntity
  8
3
100
AcDbLine
 10
3.935039370078739
 20
7.271653543307087
 30
0.0
 11
3.974409448818897
 21
7.271653543307087
 31
0.0
  0
LINE
  5
FE7
330
1E
100
AcDbEntity
  8
3
100
AcDbLine
 10
8.643700787401574
 20
8.374015748031494
 30
0.0
 11
8.669291338582677
 21
8.39763779527559
 31
0.0
  0
LINE
  5
FE8
330
1E
100
AcDbEntity
  8
3
100
AcDbLine
 10
3.00787401574803
 20
8.374015748031494
 30
0.0
 11
8.643700787401574
 21
8.374015748031494
 31
0.0
  0
LINE
  5
FE9
330
1E
100
AcDbEntity
  8
3
100
AcDbLine
 10
6.285433070866141
 20
7.281496062992124
 30
0.0
 11
6.287401574803149
 21
7.281496062992124
 31
0.0
  0
LINE
  5
FEA
330
1E
100
AcDbEntity
  8
3
100
AcDbLine
 10
7.728346456692913
 20
7.281496062992124
 30
0.0
 11
7.728346456692913
 21
7.622047244094487
 31
0.0
  0
LINE
  5
FEB
330
1E
100
AcDbEntity
  8
3
100
AcDbLine
 10
6.287401574803149
 20
7.622047244094487
 30
0.0
 11
6.287401574803149
 21
7.281496062992124
 31
0.0
  0
LINE
  5
FEC
330
1E
100
AcDbEntity
  8
3
100
AcDbLine
 10
7.718503937007873
 20
7.271653543307087
 30
0.0
 11
7.677165354330708
 21
7.271653543307087
 31
0.0
  0
LINE
  5
FED
330
1E
100
AcDbEntity
  8
3
100
AcDbLine
 10
3.00787401574803
 20
5.037401574803148
 30
0.0
 11
2.984251968503936
 21
5.011811023622046
 31
0.0
  0
LINE
  5
FEE
330
1E
100
AcDbEntity
  8
3
100
AcDbLine
 10
2.984251968503936
 20
8.39763779527559
 30
0.0
 11
3.00787401574803
 21
8.374015748031494
 31
0.0
  0
LINE
  5
FEF
330
1E
100
AcDbEntity
  8
3
100
AcDbLine
 10
6.340551181102362
 20
7.273622047244094
 30
0.0
 11
7.6751968503937
 21
7.273622047244094
 31
0.0
  0
LINE
  5
FF0
330
1E
100
AcDbEntity
  8
3
100
AcDbLine
 10
6.340551181102362
 20
7.273622047244094
 30
0.0
 11
6.336614173228347
 21
7.271653543307087
 31
0.0
  0
LINE
  5
FF1
330
1E
100
AcDbEntity
  8
3
100
AcDbLine
 10
8.6751968503937
 20
5.066929133858266
 30
0.0
 11
8.700787401574803
 21
5.043307086614172
 31
0.0
  0
LINE
  5
FF2
330
1E
100
AcDbEntity
  8
3
100
AcDbLine
 10
3.978346456692913
 20
7.273622047244094
 30
0.0
 11
5.312992125984252
 21
7.273622047244094
 31
0.0
  0
LINE
  5
FF3
330
1E
100
AcDbEntity
  8
3
100
AcDbLine
 10
8.643700787401574
 20
8.358267716535431
 30
0.0
 11
3.00787401574803
 21
8.358267716535431
 31
0.0
  0
LINE
  5
FF4
330
1E
100
AcDbEntity
  8
3
100
AcDbLine
 10
8.659448818897637
 20
5.066929133858266
 30
0.0
 11
8.659448818897637
 21
8.342519685039368
 31
0.0
  0
LINE
  5
FF5
330
1E
100
AcDbEntity
  8
3
100
AcDbLine
 10
6.340551181102362
 20
7.62992125984252
 30
0.0
 11
6.340551181102362
 21
7.273622047244094
 31
0.0
  0
LINE
  5
FF6
330
1E
100
AcDbEntity
  8
3
100
AcDbLine
 10
7.728346456692913
 20
7.622047244094487
 30
0.0
 11
7.728346456692913
 21
7.281496062992124
 31
0.0
  0
LINE
  5
FF7
330
1E
100
AcDbEntity
  8
3
100
AcDbLine
 10
3.00787401574803
 20
5.053149606299211
 30
0.0
 11
8.643700787401574
 21
5.053149606299211
 31
0.0
  0
LINE
  5
FF8
330
1E
100
AcDbEntity
  8
3
100
AcDbLine
 10
5.312992125984252
 20
7.273622047244094
 30
0.0
 11
5.312992125984252
 21
7.62992125984252
 31
0.0
  0
LINE
  5
FF9
330
1E
100
AcDbEntity
  8
3
100
AcDbLine
 10
2.95275590551181
 20
5.043307086614172
 30
0.0
 11
2.95275590551181
 21
8.366141732283464
 31
0.0
  0
LINE
  5
FFA
330
1E
100
AcDbEntity
  8
3
100
AcDbLine
 10
6.297244094488188
 20
7.631889763779527
 30
0.0
 11
6.336614173228347
 21
7.631889763779527
 31
0.0
  0
LINE
  5
FFB
330
1E
100
AcDbEntity
  8
3
100
AcDbLine
 10
3.978346456692913
 20
7.62992125984252
 30
0.0
 11
3.978346456692913
 21
7.273622047244094
 31
0.0
  0
LINE
  5
FFC
330
1E
100
AcDbEntity
  8
3
100
AcDbLine
 10
8.669291338582677
 20
5.011811023622046
 30
0.0
 11
8.643700787401574
 21
5.037401574803148
 31
0.0
  0
LINE
  5
FFD
330
1E
100
AcDbEntity
  8
3
100
AcDbLine
 10
6.29527559055118
 20
7.631889763779527
 30
0.0
 11
6.297244094488188
 21
7.631889763779527
 31
0.0
  0
LINE
  5
1003
330
1E
100
AcDbEntity
  8
3
100
AcDbLine
 10
8.700787401574803
 20
5.043307086614172
 30
0.0
 11
8.700787401574803
 21
8.366141732283464
 31
0.0
  0
LINE
  5
1004
330
1E
100
AcDbEntity
  8
3
100
AcDbLine
 10
3.9251968503937
 20
7.622047244094487
 30
0.0
 11
3.9251968503937
 21
7.281496062992124
 31
0.0
  0
LINE
  5
1078
330
1E
100
AcDbEntity
  8
3
100
AcDbLine
 10
3.45275590551181
 20
6.627952755905509
 30
0.0
 11
3.45275590551181
 21
6.62992125984252
 31
0.0
  0
LINE
  5
1103
330
1E
100
AcDbEntity
  8
3
100
AcDbLine
 10
8.6751968503937
 20
5.066929133858266
 30
0.0
 11
8.66732283464567
 21
5.045275590551179
 31
0.0
  0
LINE
  5
1104
330
1E
100
AcDbEntity
  8
3
100
AcDbLine
 10
8.66732283464567
 20
5.045275590551179
 30
0.0
 11
8.643700787401574
 21
5.037401574803148
 31
0.0
  0
LINE
  5
1114
330
1E
100
AcDbEntity
  8
3
100
AcDbLine
 10
8.669291338582677
 20
5.011811023622046
 30
0.0
 11
8.690944881889762
 21
5.021653543307085
 31
0.0
  0
LINE
  5
1115
330
1E
100
AcDbEntity
  8
3
100
AcDbLine
 10
8.690944881889762
 20
5.021653543307085
 30
0.0
 11
8.700787401574803
 21
5.043307086614172
 31
0.0
  0
LINE
  5
37BE
330
1E
100
AcDbEntity
  8
3
100
AcDbLine
 10
10.86023622047244
 20
6.289370078740157
 30
0.0
 11
10.84251968503937
 21
6.309055118110235
 31
0.0
  0
LINE
  5
37BF
330
1E
100
AcDbEntity
  8
3
100
AcDbLine
 10
10.84251968503937
 20
6.309055118110235
 30
0.0
 11
10.83661417322834
 21
6.314960629921257
 31
0.0
  0
LINE
  5
37D2
330
1E
100
AcDbEntity
  8
3
100
AcDbLine
 10
10.73031496062992
 20
6.377952755905509
 30
0.0
 11
10.72244094488189
 21
6.385826771653542
 31
0.0
  0
LINE
  5
37F3
330
1E
100
AcDbEntity
  8
3
100
AcDbLine
 10
10.73031496062992
 20
6.393700787401572
 30
0.0
 11
10.72244094488189
 21
6.385826771653542
 31
0.0
  0
LINE
  5
37F4
330
1E
100
AcDbEntity
  8
3
100
AcDbLine
 10
10.83661417322834
 20
6.287401574803149
 30
0.0
 11
10.82874015748031
 21
6.279527559055116
 31
0.0
  0
LINE
  5
37FA
330
1E
100
AcDbEntity
  8
3
100
AcDbLine
 10
10.64370078740157
 20
6.433070866141731
 30
0.0
 11
10.69291338582677
 21
6.383858267716535
 31
0.0
  0
LINE
  5
3801
330
1E
100
AcDbEntity
  8
3
100
AcDbLine
 10
10.73228346456692
 20
6.42322834645669
 30
0.0
 11
10.68307086614173
 21
6.470472440944879
 31
0.0
  0
LINE
  5
3818
330
1E
100
AcDbEntity
  8
3
100
AcDbLine
 10
10.71062992125984
 20
6.49803149606299
 30
0.0
 11
11.19291338582677
 21
6.99803149606299
 31
0.0
  0
LINE
  5
381E
330
1E
100
AcDbEntity
  8
3
100
AcDbLine
 10
11.5767716535433
 20
6.622047244094487
 30
0.0
 11
11.55905511811023
 21
6.622047244094487
 31
0.0
  0
LINE
  5
381F
330
1E
100
AcDbEntity
  8
3
100
AcDbLine
 10
11.5767716535433
 20
6.622047244094487
 30
0.0
 11
11.70669291338582
 21
6.622047244094487
 31
0.0
  0
LINE
  5
3826
330
1E
100
AcDbEntity
  8
3
100
AcDbLine
 10
11.5767716535433
 20
6.622047244094487
 30
0.0
 11
11.5767716535433
 21
6.297244094488187
 31
0.0
  0
LINE
  5
3827
330
1E
100
AcDbEntity
  8
3
100
AcDbLine
 10
11.55905511811023
 20
6.297244094488187
 30
0.0
 11
11.5767716535433
 21
6.297244094488187
 31
0.0
  0
LINE
  5
3828
330
1E
100
AcDbEntity
  8
3
100
AcDbLine
 10
11.70669291338582
 20
6.297244094488187
 30
0.0
 11
11.5767716535433
 21
6.297244094488187
 31
0.0
  0
LINE
  5
3829
330
1E
100
AcDbEntity
  8
3
100
AcDbLine
 10
11.70669291338582
 20
6.297244094488187
 30
0.0
 11
11.70669291338582
 21
6.622047244094487
 31
0.0
  0
LINE
  5
382A
330
1E
100
AcDbEntity
  8
3
100
AcDbLine
 10
11.03740157480315
 20
6.171259842519683
 30
0.0
 11
10.71062992125984
 21
6.49803149606299
 31
0.0
  0
LINE
  5
382B
330
1E
100
AcDbEntity
  8
3
100
AcDbLine
 10
11.03740157480315
 20
5.996062992125983
 30
0.0
 11
11.03740157480315
 21
6.171259842519683
 31
0.0
  0
LINE
  5
3831
330
1E
100
AcDbEntity
  8
3
100
AcDbLine
 10
11.20866141732283
 20
5.791338582677164
 30
0.0
 11
11.06102362204724
 21
5.938976377952755
 31
0.0
  0
LINE
  5
3832
330
1E
100
AcDbEntity
  8
3
100
AcDbLine
 10
10.87007874015748
 20
6.285433070866142
 30
0.0
 11
10.73228346456692
 21
6.42322834645669
 31
0.0
  0
LINE
  5
3839
330
1E
100
AcDbEntity
  8
3
100
AcDbLine
 10
10.83070866141732
 20
6.246062992125983
 30
0.0
 11
11.02165354330708
 21
6.05511811023622
 31
0.0
  0
LINE
  5
385C
330
1E
100
AcDbEntity
  8
3
100
AcDbLine
 10
11.04921259842519
 20
5.927165354330707
 30
0.0
 11
11.18503937007874
 21
5.791338582677164
 31
0.0
  0
LINE
  5
385D
330
1E
100
AcDbEntity
  8
3
100
AcDbLine
 10
11.19291338582677
 20
5.791338582677164
 30
0.0
 11
11.19291338582677
 21
6.364173228346457
 31
0.0
  0
LINE
  5
385E
330
1E
100
AcDbEntity
  8
3
100
AcDbLine
 10
11.19291338582677
 20
5.791338582677164
 30
0.0
 11
11.19291338582677
 21
6.364173228346457
 31
0.0
  0
LINE
  5
385F
330
1E
100
AcDbEntity
  8
3
100
AcDbLine
 10
11.20866141732283
 20
8.342519685039368
 30
0.0
 11
11.20866141732283
 21
5.066929133858266
 31
0.0
  0
LINE
  5
3860
330
1E
100
AcDbEntity
  8
3
100
AcDbLine
 10
11.20866141732283
 20
8.342519685039368
 30
0.0
 11
11.55905511811023
 21
8.366141732283464
 31
0.0
  0
LINE
  5
3861
330
1E
100
AcDbEntity
  8
3
100
AcDbLine
 10
11.19291338582677
 20
7.281496062992124
 30
0.0
 11
11.19291338582677
 21
7.622047244094487
 31
0.0
  0
LINE
  5
3862
330
1E
100
AcDbEntity
  8
3
100
AcDbLine
 10
11.19291338582677
 20
7.281496062992124
 30
0.0
 11
11.19291338582677
 21
7.622047244094487
 31
0.0
  0
LINE
  5
3863
330
1E
100
AcDbEntity
  8
3
100
AcDbLine
 10
11.19291338582677
 20
8.342519685039368
 30
0.0
 11
11.19291338582677
 21
5.066929133858266
 31
0.0
  0
LINE
  5
3864
330
1E
100
AcDbEntity
  8
3
100
AcDbLine
 10
11.55905511811023
 20
8.366141732283464
 30
0.0
 11
11.20866141732283
 21
8.342519685039368
 31
0.0
  0
LINE
  5
3865
330
1E
100
AcDbEntity
  8
3
100
AcDbLine
 10
11.19291338582677
 20
6.55511811023622
 30
0.0
 11
11.19291338582677
 21
7.125984251968501
 31
0.0
  0
LINE
  5
3866
330
1E
100
AcDbEntity
  8
3
100
AcDbLine
 10
11.19291338582677
 20
7.281496062992124
 30
0.0
 11
11.19291338582677
 21
7.622047244094487
 31
0.0
  0
LINE
  5
3867
330
1E
100
AcDbEntity
  8
3
100
AcDbLine
 10
11.20866141732283
 20
8.374015748031494
 30
0.0
 11
11.55905511811023
 21
8.39763779527559
 31
0.0
  0
LINE
  5
3868
330
1E
100
AcDbEntity
  8
3
100
AcDbLine
 10
11.19291338582677
 20
5.791338582677164
 30
0.0
 11
11.19291338582677
 21
6.364173228346457
 31
0.0
  0
LINE
  5
3869
330
1E
100
AcDbEntity
  8
3
100
AcDbLine
 10
11.19291338582677
 20
6.55511811023622
 30
0.0
 11
11.19291338582677
 21
7.125984251968501
 31
0.0
  0
LINE
  5
386A
330
1E
100
AcDbEntity
  8
3
100
AcDbLine
 10
11.19291338582677
 20
7.281496062992124
 30
0.0
 11
11.19291338582677
 21
7.622047244094487
 31
0.0
  0
LINE
  5
386B
330
1E
100
AcDbEntity
  8
3
100
AcDbLine
 10
11.20866141732283
 20
5.037401574803148
 30
0.0
 11
11.55905511811023
 21
5.011811023622046
 31
0.0
  0
LINE
  5
386C
330
1E
100
AcDbEntity
  8
3
100
AcDbLine
 10
11.55905511811023
 20
8.39763779527559
 30
0.0
 11
11.20866141732283
 21
8.374015748031494
 31
0.0
  0
LINE
  5
386D
330
1E
100
AcDbEntity
  8
3
100
AcDbLine
 10
11.20866141732283
 20
5.066929133858266
 30
0.0
 11
11.55905511811023
 21
5.043307086614172
 31
0.0
  0
LINE
  5
386E
330
1E
100
AcDbEntity
  8
3
100
AcDbLine
 10
11.19291338582677
 20
5.066929133858266
 30
0.0
 11
11.19291338582677
 21
8.342519685039368
 31
0.0
  0
LINE
  5
386F
330
1E
100
AcDbEntity
  8
3
100
AcDbLine
 10
11.19291338582677
 20
6.55511811023622
 30
0.0
 11
11.19291338582677
 21
7.125984251968501
 31
0.0
  0
LINE
  5
3870
330
1E
100
AcDbEntity
  8
3
100
AcDbLine
 10
11.55905511811023
 20
5.043307086614172
 30
0.0
 11
11.55905511811023
 21
8.366141732283464
 31
0.0
  0
LINE
  5
3871
330
1E
100
AcDbEntity
  8
3
100
AcDbLine
 10
11.55905511811023
 20
5.011811023622046
 30
0.0
 11
11.20866141732283
 21
5.037401574803148
 31
0.0
  0
LINE
  5
3872
330
1E
100
AcDbEntity
  8
3
100
AcDbLine
 10
11.19291338582677
 20
6.55511811023622
 30
0.0
 11
11.19291338582677
 21
7.125984251968501
 31
0.0
  0
LINE
  5
3873
330
1E
100
AcDbEntity
  8
3
100
AcDbLine
 10
11.19291338582677
 20
5.791338582677164
 30
0.0
 11
11.19291338582677
 21
6.364173228346457
 31
0.0
  0
LINE
  5
3879
330
1E
100
AcDbEntity
  8
3
100
AcDbLine
 10
11.55905511811023
 20
5.043307086614172
 30
0.0
 11
11.55905511811023
 21
8.366141732283464
 31
0.0
  0
LINE
  5
3884
330
1E
100
AcDbEntity
  8
3
100
AcDbLine
 10
11.20866141732283
 20
8.372047244094487
 30
0.0
 11
11.19881889763779
 21
8.368110236220472
 31
0.0
  0
LINE
  5
3885
330
1E
100
AcDbEntity
  8
3
100
AcDbLine
 10
11.19881889763779
 20
8.368110236220472
 30
0.0
 11
11.19488188976378
 21
8.358267716535431
 31
0.0
  0
LINE
  5
38DF
330
1E
100
AcDbEntity
  8
3
100
AcDbLine
 10
11.55905511811023
 20
5.011811023622046
 30
0.0
 11
11.55905511811023
 21
5.021653543307085
 31
0.0
  0
LINE
  5
38E0
330
1E
100
AcDbEntity
  8
3
100
AcDbLine
 10
11.55905511811023
 20
5.021653543307085
 30
0.0
 11
11.55905511811023
 21
5.043307086614172
 31
0.0
  0
LINE
  5
38E1
330
1E
100
AcDbEntity
  8
3
100
AcDbLine
 10
11.20866141732283
 20
5.037401574803148
 30
0.0
 11
11.20866141732283
 21
5.045275590551179
 31
0.0
  0
LINE
  5
38E2
330
1E
100
AcDbEntity
  8
3
100
AcDbLine
 10
11.20866141732283
 20
5.045275590551179
 30
0.0
 11
11.20866141732283
 21
5.066929133858266
 31
0.0
  0
LINE
  5
38E3
330
1E
100
AcDbEntity
  8
3
100
AcDbLine
 10
11.19291338582677
 20
8.342519685039368
 30
0.0
 11
11.19291338582677
 21
8.352362204724409
 31
0.0
  0
LINE
  5
38E4
330
1E
100
AcDbEntity
  8
3
100
AcDbLine
 10
11.19291338582677
 20
8.352362204724409
 30
0.0
 11
11.19291338582677
 21
8.358267716535431
 31
0.0
  0
LINE
  5
38E5
330
1E
100
AcDbEntity
  8
3
100
AcDbLine
 10
11.55905511811023
 20
8.39763779527559
 30
0.0
 11
11.55905511811023
 21
8.389763779527557
 31
0.0
  0
LINE
  5
38E6
330
1E
100
AcDbEntity
  8
3
100
AcDbLine
 10
11.55905511811023
 20
8.389763779527557
 30
0.0
 11
11.55905511811023
 21
8.366141732283464
 31
0.0
  0
LINE
  5
38E7
330
1E
100
AcDbEntity
  8
3
100
AcDbLine
 10
11.19291338582677
 20
5.066929133858266
 30
0.0
 11
11.19291338582677
 21
5.057086614173227
 31
0.0
  0
LINE
  5
38E8
330
1E
100
AcDbEntity
  8
3
100
AcDbLine
 10
11.19291338582677
 20
5.057086614173227
 30
0.0
 11
11.19291338582677
 21
5.053149606299211
 31
0.0
  0
LINE
  5
38E9
330
1E
100
AcDbEntity
  8
3
100
AcDbLine
 10
11.55905511811023
 20
5.011811023622046
 30
0.0
 11
11.55905511811023
 21
5.021653543307085
 31
0.0
  0
LINE
  5
38EA
330
1E
100
AcDbEntity
  8
3
100
AcDbLine
 10
11.55905511811023
 20
5.021653543307085
 30
0.0
 11
11.55905511811023
 21
5.043307086614172
 31
0.0
  0
LINE
  5
38EB
330
1E
100
AcDbEntity
  8
3
100
AcDbLine
 10
11.19291338582677
 20
5.053149606299211
 30
0.0
 11
11.19291338582677
 21
5.057086614173227
 31
0.0
  0
LINE
  5
38EC
330
1E
100
AcDbEntity
  8
3
100
AcDbLine
 10
11.19291338582677
 20
5.057086614173227
 30
0.0
 11
11.19291338582677
 21
5.066929133858266
 31
0.0
  0
LINE
  5
38ED
330
1E
100
AcDbEntity
  8
3
100
AcDbLine
 10
11.20866141732283
 20
8.342519685039368
 30
0.0
 11
11.20866141732283
 21
8.364173228346457
 31
0.0
  0
LINE
  5
38EE
330
1E
100
AcDbEntity
  8
3
100
AcDbLine
 10
11.20866141732283
 20
8.364173228346457
 30
0.0
 11
11.20866141732283
 21
8.374015748031494
 31
0.0
  0
LINE
  5
38EF
330
1E
100
AcDbEntity
  8
3
100
AcDbLine
 10
11.20866141732283
 20
8.374015748031494
 30
0.0
 11
11.20866141732283
 21
8.364173228346457
 31
0.0
  0
LINE
  5
38F0
330
1E
100
AcDbEntity
  8
3
100
AcDbLine
 10
11.20866141732283
 20
8.364173228346457
 30
0.0
 11
11.20866141732283
 21
8.342519685039368
 31
0.0
  0
LINE
  5
38F1
330
1E
100
AcDbEntity
  8
3
100
AcDbLine
 10
11.20866141732283
 20
5.066929133858266
 30
0.0
 11
11.20866141732283
 21
5.045275590551179
 31
0.0
  0
LINE
  5
38F2
330
1E
100
AcDbEntity
  8
3
100
AcDbLine
 10
11.20866141732283
 20
5.045275590551179
 30
0.0
 11
11.20866141732283
 21
5.037401574803148
 31
0.0
  0
LINE
  5
38F3
330
1E
100
AcDbEntity
  8
3
100
AcDbLine
 10
11.19291338582677
 20
8.358267716535431
 30
0.0
 11
11.19291338582677
 21
8.352362204724409
 31
0.0
  0
LINE
  5
38F4
330
1E
100
AcDbEntity
  8
3
100
AcDbLine
 10
11.19291338582677
 20
8.352362204724409
 30
0.0
 11
11.19291338582677
 21
8.342519685039368
 31
0.0
  0
LINE
  5
38F5
330
1E
100
AcDbEntity
  8
3
100
AcDbLine
 10
11.55905511811023
 20
8.39763779527559
 30
0.0
 11
11.55905511811023
 21
8.389763779527557
 31
0.0
  0
LINE
  5
38F6
330
1E
100
AcDbEntity
  8
3
100
AcDbLine
 10
11.55905511811023
 20
8.389763779527557
 30
0.0
 11
11.55905511811023
 21
8.366141732283464
 31
0.0
  0
LINE
  5
38F7
330
1E
100
AcDbEntity
  8
3
100
AcDbLine
 10
11.20866141732283
 20
8.372047244094487
 30
0.0
 11
11.19881889763779
 21
8.368110236220472
 31
0.0
  0
LINE
  5
38F8
330
1E
100
AcDbEntity
  8
3
100
AcDbLine
 10
11.19881889763779
 20
8.368110236220472
 30
0.0
 11
11.19488188976378
 21
8.358267716535431
 31
0.0
  0
LINE
  5
38F9
330
1E
100
AcDbEntity
  8
3
100
AcDbLine
 10
11.20866141732283
 20
5.066929133858266
 30
0.0
 11
11.19881889763779
 21
5.066929133858266
 31
0.0
  0
LINE
  5
38FA
330
1E
100
AcDbEntity
  8
3
100
AcDbLine
 10
11.19881889763779
 20
5.066929133858266
 30
0.0
 11
11.19291338582677
 21
5.066929133858266
 31
0.0
  0
LINE
  5
38FB
330
1E
100
AcDbEntity
  8
3
100
AcDbLine
 10
11.19488188976378
 20
5.053149606299211
 30
0.0
 11
11.19881889763779
 21
5.043307086614172
 31
0.0
  0
LINE
  5
38FC
330
1E
100
AcDbEntity
  8
3
100
AcDbLine
 10
11.19881889763779
 20
5.043307086614172
 30
0.0
 11
11.20866141732283
 21
5.039370078740157
 31
0.0
  0
LINE
  5
38FD
330
1E
100
AcDbEntity
  8
3
100
AcDbLine
 10
11.19291338582677
 20
5.066929133858266
 30
0.0
 11
11.19881889763779
 21
5.066929133858266
 31
0.0
  0
LINE
  5
38FE
330
1E
100
AcDbEntity
  8
3
100
AcDbLine
 10
11.19881889763779
 20
5.066929133858266
 30
0.0
 11
11.20866141732283
 21
5.066929133858266
 31
0.0
  0
LINE
  5
38FF
330
1E
100
AcDbEntity
  8
3
100
AcDbLine
 10
11.19291338582677
 20
8.342519685039368
 30
0.0
 11
11.19881889763779
 21
8.342519685039368
 31
0.0
  0
LINE
  5
3900
330
1E
100
AcDbEntity
  8
3
100
AcDbLine
 10
11.19881889763779
 20
8.342519685039368
 30
0.0
 11
11.20866141732283
 21
8.342519685039368
 31
0.0
  0
LINE
  5
3901
330
1E
100
AcDbEntity
  8
3
100
AcDbLine
 10
11.19488188976378
 20
5.053149606299211
 30
0.0
 11
11.19881889763779
 21
5.043307086614172
 31
0.0
  0
LINE
  5
3902
330
1E
100
AcDbEntity
  8
3
100
AcDbLine
 10
11.19881889763779
 20
5.043307086614172
 30
0.0
 11
11.20866141732283
 21
5.039370078740157
 31
0.0
  0
LINE
  5
3903
330
1E
100
AcDbEntity
  8
3
100
AcDbLine
 10
11.20866141732283
 20
8.342519685039368
 30
0.0
 11
11.19881889763779
 21
8.342519685039368
 31
0.0
  0
LINE
  5
3904
330
1E
100
AcDbEntity
  8
3
100
AcDbLine
 10
11.19881889763779
 20
8.342519685039368
 30
0.0
 11
11.19291338582677
 21
8.342519685039368
 31
0.0
  0
LINE
  5
3905
330
1E
100
AcDbEntity
  8
3
100
AcDbLine
 10
11.55905511811023
 20
5.043307086614172
 30
0.0
 11
11.20866141732283
 21
5.066929133858266
 31
0.0
  0
LINE
  5
3906
330
1E
100
AcDbEntity
  8
3
100
AcDbLine
 10
11.20866141732283
 20
5.066929133858266
 30
0.0
 11
11.20866141732283
 21
8.342519685039368
 31
0.0
  0
LINE
  5
3907
330
1E
100
AcDbEntity
  8
3
100
AcDbLine
 10
10.86220472440944
 20
6.291338582677164
 30
0.0
 11
10.84645669291338
 21
6.275590551181101
 31
0.0
  0
LINE
  5
3908
330
1E
100
AcDbEntity
  8
3
100
AcDbLine
 10
10.84645669291338
 20
6.275590551181101
 30
0.0
 11
10.83464566929134
 21
6.263779527559053
 31
0.0
  0
LINE
  5
3909
330
1E
100
AcDbEntity
  8
3
100
AcDbLine
 10
10.83464566929134
 20
6.263779527559053
 30
0.0
 11
10.83070866141732
 21
6.259842519685038
 31
0.0
  0
LINE
  5
390A
330
1E
100
AcDbEntity
  8
3
100
AcDbLine
 10
11.03740157480315
 20
5.996062992125983
 30
0.0
 11
11.0255905511811
 21
5.996062992125983
 31
0.0
  0
LINE
  5
390B
330
1E
100
AcDbEntity
  8
3
100
AcDbLine
 10
11.0255905511811
 20
5.996062992125983
 30
0.0
 11
11.02165354330708
 21
5.996062992125983
 31
0.0
  0
LINE
  5
390C
330
1E
100
AcDbEntity
  8
3
100
AcDbLine
 10
11.06102362204724
 20
5.938976377952755
 30
0.0
 11
11.05314960629921
 21
5.931102362204724
 31
0.0
  0
LINE
  5
390D
330
1E
100
AcDbEntity
  8
3
100
AcDbLine
 10
11.05314960629921
 20
5.931102362204724
 30
0.0
 11
11.04921259842519
 21
5.927165354330707
 31
0.0
  0
LINE
  5
390E
330
1E
100
AcDbEntity
  8
3
100
AcDbLine
 10
11.02165354330708
 20
5.996062992125983
 30
0.0
 11
11.02952755905511
 21
5.958661417322833
 31
0.0
  0
LINE
  5
390F
330
1E
100
AcDbEntity
  8
3
100
AcDbLine
 10
11.02952755905511
 20
5.958661417322833
 30
0.0
 11
11.04921259842519
 21
5.927165354330707
 31
0.0
  0
LINE
  5
3910
330
1E
100
AcDbEntity
  8
3
100
AcDbLine
 10
10.83070866141732
 20
6.257874015748031
 30
0.0
 11
10.82874015748031
 21
6.251968503937005
 31
0.0
  0
LINE
  5
3911
330
1E
100
AcDbEntity
  8
3
100
AcDbLine
 10
10.82874015748031
 20
6.251968503937005
 30
0.0
 11
10.83070866141732
 21
6.244094488188975
 31
0.0
  0
LINE
  5
3912
330
1E
100
AcDbEntity
  8
3
100
AcDbLine
 10
11.03740157480315
 20
6.171259842519683
 30
0.0
 11
11.03149606299212
 21
6.15551181102362
 31
0.0
  0
LINE
  5
3913
330
1E
100
AcDbEntity
  8
3
100
AcDbLine
 10
11.03149606299212
 20
6.15551181102362
 30
0.0
 11
11.0255905511811
 21
6.141732283464564
 31
0.0
  0
LINE
  5
3914
330
1E
100
AcDbEntity
  8
3
100
AcDbLine
 10
11.0255905511811
 20
6.141732283464564
 30
0.0
 11
11.02165354330708
 21
6.127952755905509
 31
0.0
  0
LINE
  5
3915
330
1E
100
AcDbEntity
  8
3
100
AcDbLine
 10
11.02165354330708
 20
6.127952755905509
 30
0.0
 11
11.02165354330708
 21
6.114173228346457
 31
0.0
  0
LINE
  5
3916
330
1E
100
AcDbEntity
  8
3
100
AcDbLine
 10
11.02165354330708
 20
6.114173228346457
 30
0.0
 11
11.02165354330708
 21
5.996062992125983
 31
0.0
  0
LINE
  5
3917
330
1E
100
AcDbEntity
  8
3
100
AcDbLine
 10
10.83070866141732
 20
6.246062992125983
 30
0.0
 11
10.83661417322834
 21
6.249999999999998
 31
0.0
  0
LINE
  5
3918
330
1E
100
AcDbEntity
  8
3
100
AcDbLine
 10
10.83661417322834
 20
6.249999999999998
 30
0.0
 11
10.84842519685039
 21
6.263779527559053
 31
0.0
  0
LINE
  5
3919
330
1E
100
AcDbEntity
  8
3
100
AcDbLine
 10
10.84842519685039
 20
6.263779527559053
 30
0.0
 11
10.87007874015748
 21
6.285433070866142
 31
0.0
  0
LINE
  5
391A
330
1E
100
AcDbEntity
  8
3
100
AcDbLine
 10
11.03740157480315
 20
5.996062992125983
 30
0.0
 11
11.04330708661417
 21
5.964566929133857
 31
0.0
  0
LINE
  5
391B
330
1E
100
AcDbEntity
  8
3
100
AcDbLine
 10
11.04330708661417
 20
5.964566929133857
 30
0.0
 11
11.06102362204724
 21
5.938976377952755
 31
0.0
  0
LINE
  5
391C
330
1E
100
AcDbEntity
  8
3
100
AcDbLine
 10
10.70669291338582
 20
6.383858267716535
 30
0.0
 11
10.71062992125984
 21
6.38779527559055
 31
0.0
  0
LINE
  5
391D
330
1E
100
AcDbEntity
  8
3
100
AcDbLine
 10
10.71062992125984
 20
6.38779527559055
 30
0.0
 11
10.72047244094488
 21
6.399606299212598
 31
0.0
  0
LINE
  5
391E
330
1E
100
AcDbEntity
  8
3
100
AcDbLine
 10
10.72047244094488
 20
6.399606299212598
 30
0.0
 11
10.73818897637795
 21
6.415354330708661
 31
0.0
  0
LINE
  5
391F
330
1E
100
AcDbEntity
  8
3
100
AcDbLine
 10
11.19291338582677
 20
7.125984251968501
 30
0.0
 11
11.18700787401574
 21
7.125984251968501
 31
0.0
  0
LINE
  5
3920
330
1E
100
AcDbEntity
  8
3
100
AcDbLine
 10
11.18700787401574
 20
7.125984251968501
 30
0.0
 11
10.64370078740157
 21
6.56299212598425
 31
0.0
  0
LINE
  5
3921
330
1E
100
AcDbEntity
  8
3
100
AcDbLine
 10
10.71062992125984
 20
6.49803149606299
 30
0.0
 11
10.67716535433071
 21
6.529527559055116
 31
0.0
  0
LINE
  5
3922
330
1E
100
AcDbEntity
  8
3
100
AcDbLine
 10
10.67716535433071
 20
6.529527559055116
 30
0.0
 11
10.6515748031496
 21
6.553149606299212
 31
0.0
  0
LINE
  5
3923
330
1E
100
AcDbEntity
  8
3
100
AcDbLine
 10
10.6515748031496
 20
6.553149606299212
 30
0.0
 11
10.64370078740157
 21
6.56299212598425
 31
0.0
  0
LINE
  5
3924
330
1E
100
AcDbEntity
  8
3
100
AcDbLine
 10
10.68307086614173
 20
6.470472440944879
 30
0.0
 11
10.69685039370078
 21
6.484251968503935
 31
0.0
  0
LINE
  5
3925
330
1E
100
AcDbEntity
  8
3
100
AcDbLine
 10
10.69685039370078
 20
6.484251968503935
 30
0.0
 11
10.71062992125984
 21
6.49803149606299
 31
0.0
  0
LINE
  5
3926
330
1E
100
AcDbEntity
  8
3
100
AcDbLine
 10
10.64370078740157
 20
6.56299212598425
 30
0.0
 11
10.62007874015748
 21
6.521653543307087
 31
0.0
  0
LINE
  5
3927
330
1E
100
AcDbEntity
  8
3
100
AcDbLine
 10
10.62007874015748
 20
6.521653543307087
 30
0.0
 11
10.62204724409449
 21
6.474409448818898
 31
0.0
  0
LINE
  5
3928
330
1E
100
AcDbEntity
  8
3
100
AcDbLine
 10
10.62204724409449
 20
6.474409448818898
 30
0.0
 11
10.64566929133858
 21
6.433070866141731
 31
0.0
  0
LINE
  5
3929
330
1E
100
AcDbEntity
  8
3
100
AcDbLine
 10
10.64370078740157
 20
6.433070866141731
 30
0.0
 11
10.65551181102362
 21
6.442913385826772
 31
0.0
  0
LINE
  5
392A
330
1E
100
AcDbEntity
  8
3
100
AcDbLine
 10
10.65551181102362
 20
6.442913385826772
 30
0.0
 11
10.68307086614173
 21
6.470472440944879
 31
0.0
  0
LINE
  5
392B
330
1E
100
AcDbEntity
  8
3
100
AcDbLine
 10
10.73228346456692
 20
6.42322834645669
 30
0.0
 11
10.71062992125984
 21
6.401574803149605
 31
0.0
  0
LINE
  5
392C
330
1E
100
AcDbEntity
  8
3
100
AcDbLine
 10
10.71062992125984
 20
6.401574803149605
 30
0.0
 11
10.69685039370078
 21
6.389763779527557
 31
0.0
  0
LINE
  5
392D
330
1E
100
AcDbEntity
  8
3
100
AcDbLine
 10
10.69685039370078
 20
6.389763779527557
 30
0.0
 11
10.69291338582677
 21
6.383858267716535
 31
0.0
  0
LINE
  5
392E
330
1E
100
AcDbEntity
  8
3
100
AcDbLine
 10
10.69094488188976
 20
6.383858267716535
 30
0.0
 11
10.69881889763779
 21
6.381889763779527
 31
0.0
  0
LINE
  5
392F
330
1E
100
AcDbEntity
  8
3
100
AcDbLine
 10
10.69881889763779
 20
6.381889763779527
 30
0.0
 11
10.70472440944881
 21
6.383858267716535
 31
0.0
  0
LINE
  5
3930
330
1E
100
AcDbEntity
  8
3
100
AcDbLine
 10
10.83661417322834
 20
6.287401574803149
 30
0.0
 11
10.83858267716535
 21
6.283464566929131
 31
0.0
  0
LINE
  5
3931
330
1E
100
AcDbEntity
  8
3
100
AcDbLine
 10
10.83858267716535
 20
6.283464566929131
 30
0.0
 11
10.84645669291338
 21
6.275590551181101
 31
0.0
  0
LINE
  5
3932
330
1E
100
AcDbEntity
  8
3
100
AcDbLine
 10
10.83464566929134
 20
6.287401574803149
 30
0.0
 11
10.84055118110236
 21
6.301181102362205
 31
0.0
  0
LINE
  5
3933
330
1E
100
AcDbEntity
  8
3
100
AcDbLine
 10
10.84055118110236
 20
6.301181102362205
 30
0.0
 11
10.83464566929134
 21
6.314960629921257
 31
0.0
  0
LINE
  5
3934
330
1E
100
AcDbEntity
  8
3
100
AcDbLine
 10
10.78346456692913
 20
6.340551181102361
 30
0.0
 11
10.80905511811023
 21
6.31299212598425
 31
0.0
  0
LINE
  5
3935
330
1E
100
AcDbEntity
  8
3
100
AcDbLine
 10
10.80905511811023
 20
6.31299212598425
 30
0.0
 11
10.82874015748031
 21
6.293307086614172
 31
0.0
  0
LINE
  5
3936
330
1E
100
AcDbEntity
  8
3
100
AcDbLine
 10
10.82874015748031
 20
6.293307086614172
 30
0.0
 11
10.83661417322834
 21
6.287401574803149
 31
0.0
  0
LINE
  5
3937
330
1E
100
AcDbEntity
  8
3
100
AcDbLine
 10
10.73031496062992
 20
6.393700787401572
 30
0.0
 11
10.73622047244094
 21
6.385826771653542
 31
0.0
  0
LINE
  5
3938
330
1E
100
AcDbEntity
  8
3
100
AcDbLine
 10
10.73622047244094
 20
6.385826771653542
 30
0.0
 11
10.75590551181102
 21
6.366141732283464
 31
0.0
  0
LINE
  5
3939
330
1E
100
AcDbEntity
  8
3
100
AcDbLine
 10
10.75590551181102
 20
6.366141732283464
 30
0.0
 11
10.78346456692913
 21
6.340551181102361
 31
0.0
  0
LINE
  5
393A
330
1E
100
AcDbEntity
  8
3
100
AcDbLine
 10
10.75787401574803
 20
6.391732283464564
 30
0.0
 11
10.74409448818897
 21
6.39763779527559
 31
0.0
  0
LINE
  5
393B
330
1E
100
AcDbEntity
  8
3
100
AcDbLine
 10
10.74409448818897
 20
6.39763779527559
 30
0.0
 11
10.73031496062992
 21
6.391732283464564
 31
0.0
  0
LINE
  5
393C
330
1E
100
AcDbEntity
  8
3
100
AcDbLine
 10
10.72244094488189
 20
6.385826771653542
 30
0.0
 11
10.71653543307086
 21
6.372047244094487
 31
0.0
  0
LINE
  5
393D
330
1E
100
AcDbEntity
  8
3
100
AcDbLine
 10
10.71653543307086
 20
6.372047244094487
 30
0.0
 11
10.72244094488189
 21
6.358267716535431
 31
0.0
  0
LINE
  5
393E
330
1E
100
AcDbEntity
  8
3
100
AcDbLine
 10
10.82874015748031
 20
6.279527559055116
 30
0.0
 11
10.82086614173228
 21
6.287401574803149
 31
0.0
  0
LINE
  5
393F
330
1E
100
AcDbEntity
  8
3
100
AcDbLine
 10
10.82086614173228
 20
6.287401574803149
 30
0.0
 11
10.80314960629921
 21
6.307086614173227
 31
0.0
  0
LINE
  5
3940
330
1E
100
AcDbEntity
  8
3
100
AcDbLine
 10
10.80314960629921
 20
6.307086614173227
 30
0.0
 11
10.7755905511811
 21
6.332677165354331
 31
0.0
  0
LINE
  5
3941
330
1E
100
AcDbEntity
  8
3
100
AcDbLine
 10
10.7755905511811
 20
6.332677165354331
 30
0.0
 11
10.74999999999999
 21
6.358267716535431
 31
0.0
  0
LINE
  5
3942
330
1E
100
AcDbEntity
  8
3
100
AcDbLine
 10
10.74999999999999
 20
6.358267716535431
 30
0.0
 11
10.73031496062992
 21
6.377952755905509
 31
0.0
  0
LINE
  5
3943
330
1E
100
AcDbEntity
  8
3
100
AcDbLine
 10
10.8011811023622
 20
6.279527559055116
 30
0.0
 11
10.81496062992125
 21
6.273622047244094
 31
0.0
  0
LINE
  5
3944
330
1E
100
AcDbEntity
  8
3
100
AcDbLine
 10
10.81496062992125
 20
6.273622047244094
 30
0.0
 11
10.82874015748031
 21
6.279527559055116
 31
0.0
  0
LINE
  5
3945
330
1E
100
AcDbEntity
  8
3
100
AcDbLine
 10
10.84055118110236
 20
6.267716535433068
 30
0.0
 11
10.83267716535432
 21
6.277559055118109
 31
0.0
  0
LINE
  5
3946
330
1E
100
AcDbEntity
  8
3
100
AcDbLine
 10
10.83267716535432
 20
6.277559055118109
 30
0.0
 11
10.82874015748031
 21
6.279527559055116
 31
0.0
  0
LINE
  5
3947
330
1E
100
AcDbEntity
  8
3
100
AcDbLine
 10
10.83661417322834
 20
6.314960629921257
 30
0.0
 11
10.82874015748031
 21
6.32283464566929
 31
0.0
  0
LINE
  5
3948
330
1E
100
AcDbEntity
  8
3
100
AcDbLine
 10
10.82874015748031
 20
6.32283464566929
 30
0.0
 11
10.80905511811023
 21
6.342519685039368
 31
0.0
  0
LINE
  5
3949
330
1E
100
AcDbEntity
  8
3
100
AcDbLine
 10
10.80905511811023
 20
6.342519685039368
 30
0.0
 11
10.78543307086614
 21
6.366141732283464
 31
0.0
  0
LINE
  5
394A
330
1E
100
AcDbEntity
  8
3
100
AcDbLine
 10
10.78543307086614
 20
6.366141732283464
 30
0.0
 11
10.76574803149606
 21
6.385826771653542
 31
0.0
  0
LINE
  5
394B
330
1E
100
AcDbEntity
  8
3
100
AcDbLine
 10
10.76574803149606
 20
6.385826771653542
 30
0.0
 11
10.75787401574803
 21
6.393700787401572
 31
0.0
  0
LINE
  5
394C
330
1E
100
AcDbEntity
  8
3
100
AcDbLine
 10
10.72244094488189
 20
6.358267716535431
 30
0.0
 11
10.73031496062992
 21
6.350393700787401
 31
0.0
  0
LINE
  5
394D
330
1E
100
AcDbEntity
  8
3
100
AcDbLine
 10
10.73031496062992
 20
6.350393700787401
 30
0.0
 11
10.74999999999999
 21
6.33070866141732
 31
0.0
  0
LINE
  5
394E
330
1E
100
AcDbEntity
  8
3
100
AcDbLine
 10
10.74999999999999
 20
6.33070866141732
 30
0.0
 11
10.77362204724409
 21
6.307086614173227
 31
0.0
  0
LINE
  5
394F
330
1E
100
AcDbEntity
  8
3
100
AcDbLine
 10
10.77362204724409
 20
6.307086614173227
 30
0.0
 11
10.79330708661417
 21
6.287401574803149
 31
0.0
  0
LINE
  5
3950
330
1E
100
AcDbEntity
  8
3
100
AcDbLine
 10
10.79330708661417
 20
6.287401574803149
 30
0.0
 11
10.8011811023622
 21
6.279527559055116
 31
0.0
  0
LINE
  5
3951
330
1E
100
AcDbEntity
  8
3
100
AcDbLine
 10
10.8011811023622
 20
6.279527559055116
 30
0.0
 11
10.80905511811023
 21
6.271653543307087
 31
0.0
  0
LINE
  5
3952
330
1E
100
AcDbEntity
  8
3
100
AcDbLine
 10
10.80905511811023
 20
6.271653543307087
 30
0.0
 11
10.82874015748031
 21
6.251968503937005
 31
0.0
  0
LINE
  5
3C8A
330
1E
100
AcDbEntity
  8
3
100
AcDbLine
 10
2.984251968503936
 20
5.011811023622046
 30
0.0
 11
2.960629921259841
 21
5.021653543307085
 31
0.0
  0
LINE
  5
3C8B
330
1E
100
AcDbEntity
  8
3
100
AcDbLine
 10
2.960629921259841
 20
5.021653543307085
 30
0.0
 11
2.95275590551181
 21
5.043307086614172
 31
0.0
  0
LINE
  5
3C8C
330
1E
100
AcDbEntity
  8
3
100
AcDbLine
 10
3.00787401574803
 20
5.037401574803148
 30
0.0
 11
2.986220472440945
 21
5.045275590551179
 31
0.0
  0
LINE
  5
3C8D
330
1E
100
AcDbEntity
  8
3
100
AcDbLine
 10
2.986220472440945
 20
5.045275590551179
 30
0.0
 11
2.976377952755904
 21
5.066929133858266
 31
0.0
  0
LINE
  5
3C8E
330
1E
100
AcDbEntity
  8
3
100
AcDbLine
 10
8.659448818897637
 20
8.342519685039368
 30
0.0
 11
8.655511811023622
 21
8.352362204724409
 31
0.0
  0
LINE
  5
3C8F
330
1E
100
AcDbEntity
  8
3
100
AcDbLine
 10
8.655511811023622
 20
8.352362204724409
 30
0.0
 11
8.643700787401574
 21
8.358267716535431
 31
0.0
  0
LINE
  5
3C90
330
1E
100
AcDbEntity
  8
3
100
AcDbLine
 10
8.669291338582677
 20
8.39763779527559
 30
0.0
 11
8.690944881889762
 21
8.389763779527557
 31
0.0
  0
LINE
  5
3C91
330
1E
100
AcDbEntity
  8
3
100
AcDbLine
 10
8.690944881889762
 20
8.389763779527557
 30
0.0
 11
8.700787401574803
 21
8.366141732283464
 31
0.0
  0
LINE
  5
3C92
330
1E
100
AcDbEntity
  8
3
100
AcDbLine
 10
2.992125984251967
 20
5.066929133858266
 30
0.0
 11
2.996062992125984
 21
5.057086614173227
 31
0.0
  0
LINE
  5
3C93
330
1E
100
AcDbEntity
  8
3
100
AcDbLine
 10
2.996062992125984
 20
5.057086614173227
 30
0.0
 11
3.00787401574803
 21
5.053149606299211
 31
0.0
  0
LINE
  5
3C94
330
1E
100
AcDbEntity
  8
3
100
AcDbLine
 10
8.643700787401574
 20
5.053149606299211
 30
0.0
 11
8.655511811023622
 21
5.057086614173227
 31
0.0
  0
LINE
  5
3C95
330
1E
100
AcDbEntity
  8
3
100
AcDbLine
 10
8.655511811023622
 20
5.057086614173227
 30
0.0
 11
8.659448818897637
 21
5.066929133858266
 31
0.0
  0
LINE
  5
3C96
330
1E
100
AcDbEntity
  8
3
100
AcDbLine
 10
8.643700787401574
 20
8.374015748031494
 30
0.0
 11
8.66732283464567
 21
8.364173228346457
 31
0.0
  0
LINE
  5
3C97
330
1E
100
AcDbEntity
  8
3
100
AcDbLine
 10
8.66732283464567
 20
8.364173228346457
 30
0.0
 11
8.6751968503937
 21
8.342519685039368
 31
0.0
  0
LINE
  5
3C98
330
1E
100
AcDbEntity
  8
3
100
AcDbLine
 10
2.976377952755904
 20
8.342519685039368
 30
0.0
 11
2.986220472440945
 21
8.364173228346457
 31
0.0
  0
LINE
  5
3C99
330
1E
100
AcDbEntity
  8
3
100
AcDbLine
 10
2.986220472440945
 20
8.364173228346457
 30
0.0
 11
3.00787401574803
 21
8.374015748031494
 31
0.0
  0
LINE
  5
3C9A
330
1E
100
AcDbEntity
  8
3
100
AcDbLine
 10
3.00787401574803
 20
8.358267716535431
 30
0.0
 11
2.996062992125984
 21
8.352362204724409
 31
0.0
  0
LINE
  5
3C9B
330
1E
100
AcDbEntity
  8
3
100
AcDbLine
 10
2.996062992125984
 20
8.352362204724409
 30
0.0
 11
2.992125984251967
 21
8.342519685039368
 31
0.0
  0
LINE
  5
3C9C
330
1E
100
AcDbEntity
  8
3
100
AcDbLine
 10
2.984251968503936
 20
8.39763779527559
 30
0.0
 11
2.960629921259841
 21
8.389763779527557
 31
0.0
  0
LINE
  5
3C9D
330
1E
100
AcDbEntity
  8
3
100
AcDbLine
 10
2.960629921259841
 20
8.389763779527557
 30
0.0
 11
2.95275590551181
 21
8.366141732283464
 31
0.0
  0
LINE
  5
3C9E
330
1E
100
AcDbEntity
  8
3
100
AcDbLine
 10
8.643700787401574
 20
8.374015748031494
 30
0.0
 11
8.643700787401574
 21
8.368110236220472
 31
0.0
  0
LINE
  5
3C9F
330
1E
100
AcDbEntity
  8
3
100
AcDbLine
 10
8.643700787401574
 20
8.368110236220472
 30
0.0
 11
8.643700787401574
 21
8.358267716535431
 31
0.0
  0
LINE
  5
3CA0
330
1E
100
AcDbEntity
  8
3
100
AcDbLine
 10
5.356299212598425
 20
7.271653543307087
 30
0.0
 11
5.364173228346456
 21
7.273622047244094
 31
0.0
  0
LINE
  5
3CA1
330
1E
100
AcDbEntity
  8
3
100
AcDbLine
 10
5.364173228346456
 20
7.273622047244094
 30
0.0
 11
5.366141732283463
 21
7.281496062992124
 31
0.0
  0
LINE
  5
3CA2
330
1E
100
AcDbEntity
  8
3
100
AcDbLine
 10
3.509842519685039
 20
6.653543307086613
 30
0.0
 11
3.52755905511811
 21
6.687007874015746
 31
0.0
  0
LINE
  5
3CA3
330
1E
100
AcDbEntity
  8
3
100
AcDbLine
 10
3.52755905511811
 20
6.687007874015746
 30
0.0
 11
3.52755905511811
 21
6.722440944881887
 31
0.0
  0
LINE
  5
3CA4
330
1E
100
AcDbEntity
  8
3
100
AcDbLine
 10
3.52755905511811
 20
6.722440944881887
 30
0.0
 11
3.509842519685039
 21
6.755905511811024
 31
0.0
  0
LINE
  5
3CA5
330
1E
100
AcDbEntity
  8
3
100
AcDbLine
 10
3.509842519685039
 20
6.755905511811024
 30
0.0
 11
3.480314960629921
 21
6.775590551181101
 31
0.0
  0
LINE
  5
3CA6
330
1E
100
AcDbEntity
  8
3
100
AcDbLine
 10
3.480314960629921
 20
6.775590551181101
 30
0.0
 11
3.442913385826771
 21
6.781496062992124
 31
0.0
  0
LINE
  5
3CA7
330
1E
100
AcDbEntity
  8
3
100
AcDbLine
 10
3.442913385826771
 20
6.781496062992124
 30
0.0
 11
3.409448818897637
 21
6.767716535433068
 31
0.0
  0
LINE
  5
3CA8
330
1E
100
AcDbEntity
  8
3
100
AcDbLine
 10
3.409448818897637
 20
6.767716535433068
 30
0.0
 11
3.383858267716536
 21
6.740157480314961
 31
0.0
  0
LINE
  5
3CA9
330
1E
100
AcDbEntity
  8
3
100
AcDbLine
 10
3.383858267716536
 20
6.740157480314961
 30
0.0
 11
3.375984251968504
 21
6.704724409448816
 31
0.0
  0
LINE
  5
3CAA
330
1E
100
AcDbEntity
  8
3
100
AcDbLine
 10
3.375984251968504
 20
6.704724409448816
 30
0.0
 11
3.383858267716536
 21
6.669291338582675
 31
0.0
  0
LINE
  5
3CAB
330
1E
100
AcDbEntity
  8
3
100
AcDbLine
 10
3.383858267716536
 20
6.669291338582675
 30
0.0
 11
3.409448818897637
 21
6.641732283464564
 31
0.0
  0
LINE
  5
3CAC
330
1E
100
AcDbEntity
  8
3
100
AcDbLine
 10
3.409448818897637
 20
6.641732283464564
 30
0.0
 11
3.442913385826771
 21
6.627952755905509
 31
0.0
  0
LINE
  5
3CAD
330
1E
100
AcDbEntity
  8
3
100
AcDbLine
 10
3.442913385826771
 20
6.627952755905509
 30
0.0
 11
3.480314960629921
 21
6.633858267716535
 31
0.0
  0
LINE
  5
3CAE
330
1E
100
AcDbEntity
  8
3
100
AcDbLine
 10
3.480314960629921
 20
6.633858267716535
 30
0.0
 11
3.509842519685039
 21
6.653543307086613
 31
0.0
  0
LINE
  5
3CAF
330
1E
100
AcDbEntity
  8
3
100
AcDbLine
 10
8.6751968503937
 20
5.066929133858266
 30
0.0
 11
8.671259842519685
 21
5.066929133858266
 31
0.0
  0
LINE
  5
3CB0
330
1E
100
AcDbEntity
  8
3
100
AcDbLine
 10
8.671259842519685
 20
5.066929133858266
 30
0.0
 11
8.659448818897637
 21
5.066929133858266
 31
0.0
  0
LINE
  5
3CB1
330
1E
100
AcDbEntity
  8
3
100
AcDbLine
 10
6.297244094488188
 20
7.631889763779527
 30
0.0
 11
6.289370078740156
 21
7.62992125984252
 31
0.0
  0
LINE
  5
3CB2
330
1E
100
AcDbEntity
  8
3
100
AcDbLine
 10
6.289370078740156
 20
7.62992125984252
 30
0.0
 11
6.287401574803149
 21
7.622047244094487
 31
0.0
  0
LINE
  5
3CB3
330
1E
100
AcDbEntity
  8
3
100
AcDbLine
 10
8.096456692913385
 20
6.816929133858268
 30
0.0
 11
8.064960629921259
 21
6.777559055118109
 31
0.0
  0
LINE
  5
3CB4
330
1E
100
AcDbEntity
  8
3
100
AcDbLine
 10
8.064960629921259
 20
6.777559055118109
 30
0.0
 11
8.049212598425196
 21
6.73031496062992
 31
0.0
  0
LINE
  5
3CB5
330
1E
100
AcDbEntity
  8
3
100
AcDbLine
 10
8.049212598425196
 20
6.73031496062992
 30
0.0
 11
8.049212598425196
 21
6.679133858267716
 31
0.0
  0
LINE
  5
3CB6
330
1E
100
AcDbEntity
  8
3
100
AcDbLine
 10
8.049212598425196
 20
6.679133858267716
 30
0.0
 11
8.064960629921259
 21
6.631889763779527
 31
0.0
  0
LINE
  5
3CB7
330
1E
100
AcDbEntity
  8
3
100
AcDbLine
 10
8.064960629921259
 20
6.631889763779527
 30
0.0
 11
8.096456692913385
 21
6.592519685039368
 31
0.0
  0
LINE
  5
3CB8
330
1E
100
AcDbEntity
  8
3
100
AcDbLine
 10
8.096456692913385
 20
6.592519685039368
 30
0.0
 11
8.139763779527559
 21
6.564960629921257
 31
0.0
  0
LINE
  5
3CB9
330
1E
100
AcDbEntity
  8
3
100
AcDbLine
 10
8.139763779527559
 20
6.564960629921257
 30
0.0
 11
8.188976377952755
 21
6.551181102362205
 31
0.0
  0
LINE
  5
3CBA
330
1E
100
AcDbEntity
  8
3
100
AcDbLine
 10
8.188976377952755
 20
6.551181102362205
 30
0.0
 11
8.238188976377951
 21
6.55511811023622
 31
0.0
  0
LINE
  5
3CBB
330
1E
100
AcDbEntity
  8
3
100
AcDbLine
 10
8.238188976377951
 20
6.55511811023622
 30
0.0
 11
8.28543307086614
 21
6.576771653543305
 31
0.0
  0
LINE
  5
3CBC
330
1E
100
AcDbEntity
  8
3
100
AcDbLine
 10
8.28543307086614
 20
6.576771653543305
 30
0.0
 11
8.322834645669292
 21
6.610236220472438
 31
0.0
  0
LINE
  5
3CBD
330
1E
100
AcDbEntity
  8
3
100
AcDbLine
 10
8.322834645669292
 20
6.610236220472438
 30
0.0
 11
8.346456692913385
 21
6.65551181102362
 31
0.0
  0
LINE
  5
3CBE
330
1E
100
AcDbEntity
  8
3
100
AcDbLine
 10
8.346456692913385
 20
6.65551181102362
 30
0.0
 11
8.354330708661418
 21
6.704724409448816
 31
0.0
  0
LINE
  5
3CBF
330
1E
100
AcDbEntity
  8
3
100
AcDbLine
 10
8.354330708661418
 20
6.704724409448816
 30
0.0
 11
8.346456692913385
 21
6.753937007874016
 31
0.0
  0
LINE
  5
3CC0
330
1E
100
AcDbEntity
  8
3
100
AcDbLine
 10
8.346456692913385
 20
6.753937007874016
 30
0.0
 11
8.322834645669292
 21
6.799212598425194
 31
0.0
  0
LINE
  5
3CC1
330
1E
100
AcDbEntity
  8
3
100
AcDbLine
 10
8.322834645669292
 20
6.799212598425194
 30
0.0
 11
8.28543307086614
 21
6.832677165354331
 31
0.0
  0
LINE
  5
3CC2
330
1E
100
AcDbEntity
  8
3
100
AcDbLine
 10
8.28543307086614
 20
6.832677165354331
 30
0.0
 11
8.238188976377951
 21
6.854330708661416
 31
0.0
  0
LINE
  5
3CC3
330
1E
100
AcDbEntity
  8
3
100
AcDbLine
 10
8.238188976377951
 20
6.854330708661416
 30
0.0
 11
8.188976377952755
 21
6.858267716535431
 31
0.0
  0
LINE
  5
3CC4
330
1E
100
AcDbEntity
  8
3
100
AcDbLine
 10
8.188976377952755
 20
6.858267716535431
 30
0.0
 11
8.139763779527559
 21
6.844488188976376
 31
0.0
  0
LINE
  5
3CC5
330
1E
100
AcDbEntity
  8
3
100
AcDbLine
 10
8.139763779527559
 20
6.844488188976376
 30
0.0
 11
8.096456692913385
 21
6.816929133858268
 31
0.0
  0
LINE
  5
3CC6
330
1E
100
AcDbEntity
  8
3
100
AcDbLine
 10
8.143700787401574
 20
6.653543307086613
 30
0.0
 11
8.173228346456692
 21
6.633858267716535
 31
0.0
  0
LINE
  5
3CC7
330
1E
100
AcDbEntity
  8
3
100
AcDbLine
 10
8.173228346456692
 20
6.633858267716535
 30
0.0
 11
8.21062992125984
 21
6.627952755905509
 31
0.0
  0
LINE
  5
3CC8
330
1E
100
AcDbEntity
  8
3
100
AcDbLine
 10
8.21062992125984
 20
6.627952755905509
 30
0.0
 11
8.244094488188977
 21
6.641732283464564
 31
0.0
  0
LINE
  5
3CC9
330
1E
100
AcDbEntity
  8
3
100
AcDbLine
 10
8.244094488188977
 20
6.641732283464564
 30
0.0
 11
8.269685039370077
 21
6.669291338582675
 31
0.0
  0
LINE
  5
3CCA
330
1E
100
AcDbEntity
  8
3
100
AcDbLine
 10
8.269685039370077
 20
6.669291338582675
 30
0.0
 11
8.277559055118111
 21
6.704724409448816
 31
0.0
  0
LINE
  5
3CCB
330
1E
100
AcDbEntity
  8
3
100
AcDbLine
 10
8.277559055118111
 20
6.704724409448816
 30
0.0
 11
8.269685039370077
 21
6.740157480314961
 31
0.0
  0
LINE
  5
3CCC
330
1E
100
AcDbEntity
  8
3
100
AcDbLine
 10
8.269685039370077
 20
6.740157480314961
 30
0.0
 11
8.244094488188977
 21
6.767716535433068
 31
0.0
  0
LINE
  5
3CCD
330
1E
100
AcDbEntity
  8
3
100
AcDbLine
 10
8.244094488188977
 20
6.767716535433068
 30
0.0
 11
8.21062992125984
 21
6.781496062992124
 31
0.0
  0
LINE
  5
3CCE
330
1E
100
AcDbEntity
  8
3
100
AcDbLine
 10
8.21062992125984
 20
6.781496062992124
 30
0.0
 11
8.173228346456692
 21
6.775590551181101
 31
0.0
  0
LINE
  5
3CCF
330
1E
100
AcDbEntity
  8
3
100
AcDbLine
 10
8.173228346456692
 20
6.775590551181101
 30
0.0
 11
8.143700787401574
 21
6.755905511811024
 31
0.0
  0
LINE
  5
3CD0
330
1E
100
AcDbEntity
  8
3
100
AcDbLine
 10
8.143700787401574
 20
6.755905511811024
 30
0.0
 11
8.125984251968503
 21
6.722440944881887
 31
0.0
  0
LINE
  5
3CD1
330
1E
100
AcDbEntity
  8
3
100
AcDbLine
 10
8.125984251968503
 20
6.722440944881887
 30
0.0
 11
8.125984251968503
 21
6.687007874015746
 31
0.0
  0
LINE
  5
3CD2
330
1E
100
AcDbEntity
  8
3
100
AcDbLine
 10
8.125984251968503
 20
6.687007874015746
 30
0.0
 11
8.143700787401574
 21
6.653543307086613
 31
0.0
  0
LINE
  5
3CD3
330
1E
100
AcDbEntity
  8
3
100
AcDbLine
 10
3.9251968503937
 20
7.281496062992124
 30
0.0
 11
3.927165354330708
 21
7.273622047244094
 31
0.0
  0
LINE
  5
3CD4
330
1E
100
AcDbEntity
  8
3
100
AcDbLine
 10
3.927165354330708
 20
7.273622047244094
 30
0.0
 11
3.935039370078739
 21
7.271653543307087
 31
0.0
  0
LINE
  5
3CD5
330
1E
100
AcDbEntity
  8
3
100
AcDbLine
 10
3.557086614173228
 20
6.592519685039368
 30
0.0
 11
3.588582677165354
 21
6.631889763779527
 31
0.0
  0
LINE
  5
3CD6
330
1E
100
AcDbEntity
  8
3
100
AcDbLine
 10
3.588582677165354
 20
6.631889763779527
 30
0.0
 11
3.604330708661417
 21
6.679133858267716
 31
0.0
  0
LINE
  5
3CD7
330
1E
100
AcDbEntity
  8
3
100
AcDbLine
 10
3.604330708661417
 20
6.679133858267716
 30
0.0
 11
3.604330708661417
 21
6.73031496062992
 31
0.0
  0
LINE
  5
3CD8
330
1E
100
AcDbEntity
  8
3
100
AcDbLine
 10
3.604330708661417
 20
6.73031496062992
 30
0.0
 11
3.588582677165354
 21
6.777559055118109
 31
0.0
  0
LINE
  5
3CD9
330
1E
100
AcDbEntity
  8
3
100
AcDbLine
 10
3.588582677165354
 20
6.777559055118109
 30
0.0
 11
3.557086614173228
 21
6.816929133858268
 31
0.0
  0
LINE
  5
3CDA
330
1E
100
AcDbEntity
  8
3
100
AcDbLine
 10
3.557086614173228
 20
6.816929133858268
 30
0.0
 11
3.513779527559054
 21
6.844488188976376
 31
0.0
  0
LINE
  5
3CDB
330
1E
100
AcDbEntity
  8
3
100
AcDbLine
 10
3.513779527559054
 20
6.844488188976376
 30
0.0
 11
3.464566929133858
 21
6.858267716535431
 31
0.0
  0
LINE
  5
3CDC
330
1E
100
AcDbEntity
  8
3
100
AcDbLine
 10
3.464566929133858
 20
6.858267716535431
 30
0.0
 11
3.415354330708662
 21
6.854330708661416
 31
0.0
  0
LINE
  5
3CDD
330
1E
100
AcDbEntity
  8
3
100
AcDbLine
 10
3.415354330708662
 20
6.854330708661416
 30
0.0
 11
3.368110236220473
 21
6.832677165354331
 31
0.0
  0
LINE
  5
3CDE
330
1E
100
AcDbEntity
  8
3
100
AcDbLine
 10
3.368110236220473
 20
6.832677165354331
 30
0.0
 11
3.330708661417323
 21
6.799212598425194
 31
0.0
  0
LINE
  5
3CDF
330
1E
100
AcDbEntity
  8
3
100
AcDbLine
 10
3.330708661417323
 20
6.799212598425194
 30
0.0
 11
3.307086614173228
 21
6.753937007874016
 31
0.0
  0
LINE
  5
3CE0
330
1E
100
AcDbEntity
  8
3
100
AcDbLine
 10
3.307086614173228
 20
6.753937007874016
 30
0.0
 11
3.299212598425197
 21
6.704724409448816
 31
0.0
  0
LINE
  5
3CE1
330
1E
100
AcDbEntity
  8
3
100
AcDbLine
 10
3.299212598425197
 20
6.704724409448816
 30
0.0
 11
3.307086614173228
 21
6.65551181102362
 31
0.0
  0
LINE
  5
3CE2
330
1E
100
AcDbEntity
  8
3
100
AcDbLine
 10
3.307086614173228
 20
6.65551181102362
 30
0.0
 11
3.330708661417323
 21
6.610236220472438
 31
0.0
  0
LINE
  5
3CE3
330
1E
100
AcDbEntity
  8
3
100
AcDbLine
 10
3.330708661417323
 20
6.610236220472438
 30
0.0
 11
3.368110236220473
 21
6.576771653543305
 31
0.0
  0
LINE
  5
3CE4
330
1E
100
AcDbEntity
  8
3
100
AcDbLine
 10
3.368110236220473
 20
6.576771653543305
 30
0.0
 11
3.415354330708662
 21
6.55511811023622
 31
0.0
  0
LINE
  5
3CE5
330
1E
100
AcDbEntity
  8
3
100
AcDbLine
 10
3.415354330708662
 20
6.55511811023622
 30
0.0
 11
3.464566929133858
 21
6.551181102362205
 31
0.0
  0
LINE
  5
3CE6
330
1E
100
AcDbEntity
  8
3
100
AcDbLine
 10
3.464566929133858
 20
6.551181102362205
 30
0.0
 11
3.513779527559054
 21
6.564960629921257
 31
0.0
  0
LINE
  5
3CE7
330
1E
100
AcDbEntity
  8
3
100
AcDbLine
 10
3.513779527559054
 20
6.564960629921257
 30
0.0
 11
3.557086614173228
 21
6.592519685039368
 31
0.0
  0
LINE
  5
3CE8
330
1E
100
AcDbEntity
  8
3
100
AcDbLine
 10
7.718503937007873
 20
7.271653543307087
 30
0.0
 11
7.726377952755904
 21
7.273622047244094
 31
0.0
  0
LINE
  5
3CE9
330
1E
100
AcDbEntity
  8
3
100
AcDbLine
 10
7.726377952755904
 20
7.273622047244094
 30
0.0
 11
7.728346456692913
 21
7.281496062992124
 31
0.0
  0
LINE
  5
3CEA
330
1E
100
AcDbEntity
  8
3
100
AcDbLine
 10
6.285433070866141
 20
7.281496062992124
 30
0.0
 11
6.287401574803149
 21
7.273622047244094
 31
0.0
  0
LINE
  5
3CEB
330
1E
100
AcDbEntity
  8
3
100
AcDbLine
 10
6.287401574803149
 20
7.273622047244094
 30
0.0
 11
6.29527559055118
 21
7.271653543307087
 31
0.0
  0
LINE
  5
3CEC
330
1E
100
AcDbEntity
  8
3
100
AcDbLine
 10
3.9251968503937
 20
7.281496062992124
 30
0.0
 11
3.927165354330708
 21
7.273622047244094
 31
0.0
  0
LINE
  5
3CED
330
1E
100
AcDbEntity
  8
3
100
AcDbLine
 10
3.927165354330708
 20
7.273622047244094
 30
0.0
 11
3.935039370078739
 21
7.271653543307087
 31
0.0
  0
LINE
  5
3CEE
330
1E
100
AcDbEntity
  8
3
100
AcDbLine
 10
3.00787401574803
 20
5.053149606299211
 30
0.0
 11
3.00787401574803
 21
5.041338582677164
 31
0.0
  0
LINE
  5
3CEF
330
1E
100
AcDbEntity
  8
3
100
AcDbLine
 10
3.00787401574803
 20
5.041338582677164
 30
0.0
 11
3.00787401574803
 21
5.037401574803148
 31
0.0
  0
LINE
  5
3CF0
330
1E
100
AcDbEntity
  8
3
100
AcDbLine
 10
7.728346456692913
 20
7.622047244094487
 30
0.0
 11
7.726377952755904
 21
7.62992125984252
 31
0.0
  0
LINE
  5
3CF1
330
1E
100
AcDbEntity
  8
3
100
AcDbLine
 10
7.726377952755904
 20
7.62992125984252
 30
0.0
 11
7.718503937007873
 21
7.631889763779527
 31
0.0
  0
LINE
  5
3CF2
330
1E
100
AcDbEntity
  8
3
100
AcDbLine
 10
5.356299212598425
 20
7.271653543307087
 30
0.0
 11
5.364173228346456
 21
7.273622047244094
 31
0.0
  0
LINE
  5
3CF3
330
1E
100
AcDbEntity
  8
3
100
AcDbLine
 10
5.364173228346456
 20
7.273622047244094
 30
0.0
 11
5.366141732283463
 21
7.281496062992124
 31
0.0
  0
LINE
  5
3CF4
330
1E
100
AcDbEntity
  8
3
100
AcDbLine
 10
5.366141732283463
 20
7.622047244094487
 30
0.0
 11
5.364173228346456
 21
7.62992125984252
 31
0.0
  0
LINE
  5
3CF5
330
1E
100
AcDbEntity
  8
3
100
AcDbLine
 10
5.364173228346456
 20
7.62992125984252
 30
0.0
 11
5.356299212598425
 21
7.631889763779527
 31
0.0
  0
LINE
  5
3CF6
330
1E
100
AcDbEntity
  8
3
100
AcDbLine
 10
8.275590551181103
 20
6.704724409448816
 30
0.0
 11
8.26771653543307
 21
6.740157480314961
 31
0.0
  0
LINE
  5
3CF7
330
1E
100
AcDbEntity
  8
3
100
AcDbLine
 10
8.26771653543307
 20
6.740157480314961
 30
0.0
 11
8.244094488188977
 21
6.765748031496061
 31
0.0
  0
LINE
  5
3CF8
330
1E
100
AcDbEntity
  8
3
100
AcDbLine
 10
8.244094488188977
 20
6.765748031496061
 30
0.0
 11
8.21062992125984
 21
6.779527559055116
 31
0.0
  0
LINE
  5
3CF9
330
1E
100
AcDbEntity
  8
3
100
AcDbLine
 10
8.21062992125984
 20
6.779527559055116
 30
0.0
 11
8.1751968503937
 21
6.775590551181101
 31
0.0
  0
LINE
  5
3CFA
330
1E
100
AcDbEntity
  8
3
100
AcDbLine
 10
8.1751968503937
 20
6.775590551181101
 30
0.0
 11
8.145669291338581
 21
6.753937007874016
 31
0.0
  0
LINE
  5
3CFB
330
1E
100
AcDbEntity
  8
3
100
AcDbLine
 10
8.145669291338581
 20
6.753937007874016
 30
0.0
 11
8.127952755905511
 21
6.722440944881887
 31
0.0
  0
LINE
  5
3CFC
330
1E
100
AcDbEntity
  8
3
100
AcDbLine
 10
8.127952755905511
 20
6.722440944881887
 30
0.0
 11
8.127952755905511
 21
6.687007874015746
 31
0.0
  0
LINE
  5
3CFD
330
1E
100
AcDbEntity
  8
3
100
AcDbLine
 10
8.127952755905511
 20
6.687007874015746
 30
0.0
 11
8.145669291338581
 21
6.65551181102362
 31
0.0
  0
LINE
  5
3CFE
330
1E
100
AcDbEntity
  8
3
100
AcDbLine
 10
8.145669291338581
 20
6.65551181102362
 30
0.0
 11
8.1751968503937
 21
6.633858267716535
 31
0.0
  0
LINE
  5
3CFF
330
1E
100
AcDbEntity
  8
3
100
AcDbLine
 10
8.1751968503937
 20
6.633858267716535
 30
0.0
 11
8.21062992125984
 21
6.62992125984252
 31
0.0
  0
LINE
  5
3D00
330
1E
100
AcDbEntity
  8
3
100
AcDbLine
 10
8.21062992125984
 20
6.62992125984252
 30
0.0
 11
8.244094488188977
 21
6.643700787401572
 31
0.0
  0
LINE
  5
3D01
330
1E
100
AcDbEntity
  8
3
100
AcDbLine
 10
8.244094488188977
 20
6.643700787401572
 30
0.0
 11
8.26771653543307
 21
6.669291338582675
 31
0.0
  0
LINE
  5
3D02
330
1E
100
AcDbEntity
  8
3
100
AcDbLine
 10
8.26771653543307
 20
6.669291338582675
 30
0.0
 11
8.275590551181103
 21
6.704724409448816
 31
0.0
  0
LINE
  5
3D03
330
1E
100
AcDbEntity
  8
3
100
AcDbLine
 10
3.935039370078739
 20
7.631889763779527
 30
0.0
 11
3.927165354330708
 21
7.62992125984252
 31
0.0
  0
LINE
  5
3D04
330
1E
100
AcDbEntity
  8
3
100
AcDbLine
 10
3.927165354330708
 20
7.62992125984252
 30
0.0
 11
3.9251968503937
 21
7.622047244094487
 31
0.0
  0
LINE
  5
3D05
330
1E
100
AcDbEntity
  8
3
100
AcDbLine
 10
2.992125984251967
 20
5.066929133858266
 30
0.0
 11
2.982283464566928
 21
5.066929133858266
 31
0.0
  0
LINE
  5
3D06
330
1E
100
AcDbEntity
  8
3
100
AcDbLine
 10
2.982283464566928
 20
5.066929133858266
 30
0.0
 11
2.976377952755904
 21
5.066929133858266
 31
0.0
  0
LINE
  5
3D07
330
1E
100
AcDbEntity
  8
3
100
AcDbLine
 10
2.992125984251967
 20
8.342519685039368
 30
0.0
 11
2.982283464566928
 21
8.342519685039368
 31
0.0
  0
LINE
  5
3D08
330
1E
100
AcDbEntity
  8
3
100
AcDbLine
 10
2.982283464566928
 20
8.342519685039368
 30
0.0
 11
2.976377952755904
 21
8.342519685039368
 31
0.0
  0
LINE
  5
3D09
330
1E
100
AcDbEntity
  8
3
100
AcDbLine
 10
7.718503937007873
 20
7.271653543307087
 30
0.0
 11
7.726377952755904
 21
7.273622047244094
 31
0.0
  0
LINE
  5
3D0A
330
1E
100
AcDbEntity
  8
3
100
AcDbLine
 10
7.726377952755904
 20
7.273622047244094
 30
0.0
 11
7.728346456692913
 21
7.281496062992124
 31
0.0
  0
LINE
  5
3D0B
330
1E
100
AcDbEntity
  8
3
100
AcDbLine
 10
5.366141732283463
 20
7.622047244094487
 30
0.0
 11
5.364173228346456
 21
7.62992125984252
 31
0.0
  0
LINE
  5
3D0C
330
1E
100
AcDbEntity
  8
3
100
AcDbLine
 10
5.364173228346456
 20
7.62992125984252
 30
0.0
 11
5.356299212598425
 21
7.631889763779527
 31
0.0
  0
LINE
  5
3D0D
330
1E
100
AcDbEntity
  8
3
100
AcDbLine
 10
3.442913385826771
 20
6.779527559055116
 30
0.0
 11
3.409448818897637
 21
6.765748031496061
 31
0.0
  0
LINE
  5
3D0E
330
1E
100
AcDbEntity
  8
3
100
AcDbLine
 10
3.409448818897637
 20
6.765748031496061
 30
0.0
 11
3.385826771653543
 21
6.740157480314961
 31
0.0
  0
LINE
  5
3D0F
330
1E
100
AcDbEntity
  8
3
100
AcDbLine
 10
3.385826771653543
 20
6.740157480314961
 30
0.0
 11
3.377952755905512
 21
6.704724409448816
 31
0.0
  0
LINE
  5
3D10
330
1E
100
AcDbEntity
  8
3
100
AcDbLine
 10
3.377952755905512
 20
6.704724409448816
 30
0.0
 11
3.385826771653543
 21
6.669291338582675
 31
0.0
  0
LINE
  5
3D11
330
1E
100
AcDbEntity
  8
3
100
AcDbLine
 10
3.385826771653543
 20
6.669291338582675
 30
0.0
 11
3.409448818897637
 21
6.643700787401572
 31
0.0
  0
LINE
  5
3D12
330
1E
100
AcDbEntity
  8
3
100
AcDbLine
 10
3.409448818897637
 20
6.643700787401572
 30
0.0
 11
3.442913385826771
 21
6.62992125984252
 31
0.0
  0
LINE
  5
3D13
330
1E
100
AcDbEntity
  8
3
100
AcDbLine
 10
3.442913385826771
 20
6.62992125984252
 30
0.0
 11
3.478346456692913
 21
6.633858267716535
 31
0.0
  0
LINE
  5
3D14
330
1E
100
AcDbEntity
  8
3
100
AcDbLine
 10
3.478346456692913
 20
6.633858267716535
 30
0.0
 11
3.50787401574803
 21
6.65551181102362
 31
0.0
  0
LINE
  5
3D15
330
1E
100
AcDbEntity
  8
3
100
AcDbLine
 10
3.50787401574803
 20
6.65551181102362
 30
0.0
 11
3.525590551181102
 21
6.687007874015746
 31
0.0
  0
LINE
  5
3D16
330
1E
100
AcDbEntity
  8
3
100
AcDbLine
 10
3.525590551181102
 20
6.687007874015746
 30
0.0
 11
3.525590551181102
 21
6.722440944881887
 31
0.0
  0
LINE
  5
3D17
330
1E
100
AcDbEntity
  8
3
100
AcDbLine
 10
3.525590551181102
 20
6.722440944881887
 30
0.0
 11
3.50787401574803
 21
6.753937007874016
 31
0.0
  0
LINE
  5
3D18
330
1E
100
AcDbEntity
  8
3
100
AcDbLine
 10
3.50787401574803
 20
6.753937007874016
 30
0.0
 11
3.478346456692913
 21
6.775590551181101
 31
0.0
  0
LINE
  5
3D19
330
1E
100
AcDbEntity
  8
3
100
AcDbLine
 10
3.478346456692913
 20
6.775590551181101
 30
0.0
 11
3.442913385826771
 21
6.779527559055116
 31
0.0
  0
LINE
  5
3D1A
330
1E
100
AcDbEntity
  8
3
100
AcDbLine
 10
7.728346456692913
 20
7.622047244094487
 30
0.0
 11
7.726377952755904
 21
7.62992125984252
 31
0.0
  0
LINE
  5
3D1B
330
1E
100
AcDbEntity
  8
3
100
AcDbLine
 10
7.726377952755904
 20
7.62992125984252
 30
0.0
 11
7.718503937007873
 21
7.631889763779527
 31
0.0
  0
LINE
  5
3D1C
330
1E
100
AcDbEntity
  8
3
100
AcDbLine
 10
3.00787401574803
 20
8.374015748031494
 30
0.0
 11
3.00787401574803
 21
8.368110236220472
 31
0.0
  0
LINE
  5
3D1D
330
1E
100
AcDbEntity
  8
3
100
AcDbLine
 10
3.00787401574803
 20
8.368110236220472
 30
0.0
 11
3.00787401574803
 21
8.358267716535431
 31
0.0
  0
LINE
  5
3D1E
330
1E
100
AcDbEntity
  8
3
100
AcDbLine
 10
6.287401574803149
 20
7.281496062992124
 30
0.0
 11
6.289370078740156
 21
7.273622047244094
 31
0.0
  0
LINE
  5
3D1F
330
1E
100
AcDbEntity
  8
3
100
AcDbLine
 10
6.289370078740156
 20
7.273622047244094
 30
0.0
 11
6.297244094488188
 21
7.271653543307087
 31
0.0
  0
LINE
  5
3D20
330
1E
100
AcDbEntity
  8
3
100
AcDbLine
 10
3.935039370078739
 20
7.631889763779527
 30
0.0
 11
3.927165354330708
 21
7.62992125984252
 31
0.0
  0
LINE
  5
3D21
330
1E
100
AcDbEntity
  8
3
100
AcDbLine
 10
3.927165354330708
 20
7.62992125984252
 30
0.0
 11
3.9251968503937
 21
7.622047244094487
 31
0.0
  0
LINE
  5
3D22
330
1E
100
AcDbEntity
  8
3
100
AcDbLine
 10
8.643700787401574
 20
5.053149606299211
 30
0.0
 11
8.643700787401574
 21
5.041338582677164
 31
0.0
  0
LINE
  5
3D23
330
1E
100
AcDbEntity
  8
3
100
AcDbLine
 10
8.643700787401574
 20
5.041338582677164
 30
0.0
 11
8.643700787401574
 21
5.037401574803148
 31
0.0
  0
LINE
  5
3D24
330
1E
100
AcDbEntity
  8
3
100
AcDbLine
 10
6.29527559055118
 20
7.631889763779527
 30
0.0
 11
6.287401574803149
 21
7.62992125984252
 31
0.0
  0
LINE
  5
3D25
330
1E
100
AcDbEntity
  8
3
100
AcDbLine
 10
6.287401574803149
 20
7.62992125984252
 30
0.0
 11
6.285433070866141
 21
7.622047244094487
 31
0.0
  0
LINE
  5
3D26
330
1E
100
AcDbEntity
  8
3
100
AcDbLine
 10
8.6751968503937
 20
8.342519685039368
 30
0.0
 11
8.671259842519685
 21
8.342519685039368
 31
0.0
  0
LINE
  5
3D27
330
1E
100
AcDbEntity
  8
3
100
AcDbLine
 10
8.671259842519685
 20
8.342519685039368
 30
0.0
 11
8.659448818897637
 21
8.342519685039368
 31
0.0
  0
LINE
  5
3D28
330
1E
100
AcDbEntity
  8
3
100
AcDbLine
 10
2.95275590551181
 20
5.043307086614172
 30
0.0
 11
2.976377952755904
 21
5.066929133858266
 31
0.0
  0
LINE
  5
3D29
330
1E
100
AcDbEntity
  8
3
100
AcDbLine
 10
2.976377952755904
 20
5.066929133858266
 30
0.0
 11
2.976377952755904
 21
8.342519685039368
 31
0.0
  0
LINE
  5
3D2A
330
1E
100
AcDbEntity
  8
3
100
AcDbLine
 10
6.206692913385826
 20
6.42322834645669
 30
0.0
 11
6.228346456692913
 21
6.401574803149605
 31
0.0
  0
LINE
  5
3D2B
330
1E
100
AcDbEntity
  8
3
100
AcDbLine
 10
6.228346456692913
 20
6.401574803149605
 30
0.0
 11
6.25787401574803
 21
6.389763779527557
 31
0.0
  0
LINE
  5
3D2C
330
1E
100
AcDbEntity
  8
3
100
AcDbLine
 10
6.25787401574803
 20
6.389763779527557
 30
0.0
 11
6.291338582677165
 21
6.383858267716535
 31
0.0
  0
LINE
  5
3D2D
330
1E
100
AcDbEntity
  8
3
100
AcDbLine
 10
6.291338582677165
 20
6.246062992125983
 30
0.0
 11
6.248031496062991
 21
6.253937007874016
 31
0.0
  0
LINE
  5
3D2E
330
1E
100
AcDbEntity
  8
3
100
AcDbLine
 10
6.248031496062991
 20
6.253937007874016
 30
0.0
 11
6.214566929133858
 21
6.275590551181101
 31
0.0
  0
LINE
  5
3D2F
330
1E
100
AcDbEntity
  8
3
100
AcDbLine
 10
6.238188976377952
 20
6.273622047244094
 30
0.0
 11
6.263779527559054
 21
6.263779527559053
 31
0.0
  0
LINE
  5
3D30
330
1E
100
AcDbEntity
  8
3
100
AcDbLine
 10
6.263779527559054
 20
6.263779527559053
 30
0.0
 11
6.291338582677165
 21
6.259842519685038
 31
0.0
  0
LINE
  5
3D31
330
1E
100
AcDbEntity
  8
3
100
AcDbLine
 10
6.291338582677165
 20
6.433070866141731
 30
0.0
 11
6.242125984251967
 21
6.442913385826772
 31
0.0
  0
LINE
  5
3D32
330
1E
100
AcDbEntity
  8
3
100
AcDbLine
 10
6.242125984251967
 20
6.442913385826772
 30
0.0
 11
6.206692913385826
 21
6.470472440944879
 31
0.0
  0
LINE
  5
3D33
330
1E
100
AcDbEntity
  8
3
100
AcDbLine
 10
6.206692913385826
 20
6.470472440944879
 30
0.0
 11
6.200787401574802
 21
6.484251968503935
 31
0.0
  0
LINE
  5
3D34
330
1E
100
AcDbEntity
  8
3
100
AcDbLine
 10
6.200787401574802
 20
6.484251968503935
 30
0.0
 11
6.198818897637795
 21
6.49803149606299
 31
0.0
  0
LINE
  5
3D35
330
1E
100
AcDbEntity
  8
3
100
AcDbLine
 10
6.198818897637795
 20
6.49803149606299
 30
0.0
 11
6.210629921259841
 21
6.529527559055116
 31
0.0
  0
LINE
  5
3D36
330
1E
100
AcDbEntity
  8
3
100
AcDbLine
 10
6.210629921259841
 20
6.529527559055116
 30
0.0
 11
6.246062992125984
 21
6.553149606299212
 31
0.0
  0
LINE
  5
3D37
330
1E
100
AcDbEntity
  8
3
100
AcDbLine
 10
6.246062992125984
 20
6.553149606299212
 30
0.0
 11
6.291338582677165
 21
6.56299212598425
 31
0.0
  0
LINE
  5
3D38
330
1E
100
AcDbEntity
  8
3
100
AcDbLine
 10
6.303149606299212
 20
5.929133858267714
 30
0.0
 11
6.303149606299212
 21
5.937007874015746
 31
0.0
  0
LINE
  5
3D39
330
1E
100
AcDbEntity
  8
3
100
AcDbLine
 10
6.303149606299212
 20
5.937007874015746
 30
0.0
 11
6.303149606299212
 21
5.956692913385825
 31
0.0
  0
LINE
  5
3D3A
330
1E
100
AcDbEntity
  8
3
100
AcDbLine
 10
6.303149606299212
 20
5.956692913385825
 30
0.0
 11
6.303149606299212
 21
5.984251968503937
 31
0.0
  0
LINE
  5
3D3B
330
1E
100
AcDbEntity
  8
3
100
AcDbLine
 10
6.303149606299212
 20
5.984251968503937
 30
0.0
 11
6.305118110236219
 21
6.015748031496062
 31
0.0
  0
LINE
  5
3D3C
330
1E
100
AcDbEntity
  8
3
100
AcDbLine
 10
6.305118110236219
 20
6.015748031496062
 30
0.0
 11
6.307086614173228
 21
6.041338582677164
 31
0.0
  0
LINE
  5
3D3D
330
1E
100
AcDbEntity
  8
3
100
AcDbLine
 10
6.307086614173228
 20
6.041338582677164
 30
0.0
 11
6.307086614173228
 21
6.059055118110235
 31
0.0
  0
LINE
  5
3D3E
330
1E
100
AcDbEntity
  8
3
100
AcDbLine
 10
6.303149606299212
 20
5.996062992125983
 30
0.0
 11
6.303149606299212
 21
5.96259842519685
 31
0.0
  0
LINE
  5
3D3F
330
1E
100
AcDbEntity
  8
3
100
AcDbLine
 10
6.303149606299212
 20
5.96259842519685
 30
0.0
 11
6.301181102362204
 21
5.935039370078738
 31
0.0
  0
LINE
  5
3D40
330
1E
100
AcDbEntity
  8
3
100
AcDbLine
 10
6.301181102362204
 20
5.935039370078738
 30
0.0
 11
6.299212598425197
 21
5.929133858267714
 31
0.0
  0
LINE
  5
3D41
330
1E
100
AcDbEntity
  8
3
100
AcDbLine
 10
6.299212598425197
 20
5.929133858267714
 30
0.0
 11
6.291338582677165
 21
5.927165354330707
 31
0.0
  0
LINE
  5
3D42
330
1E
100
AcDbEntity
  8
3
100
AcDbLine
 10
6.303149606299212
 20
5.996062992125983
 30
0.0
 11
6.299212598425197
 21
5.996062992125983
 31
0.0
  0
LINE
  5
3D43
330
1E
100
AcDbEntity
  8
3
100
AcDbLine
 10
6.299212598425197
 20
5.996062992125983
 30
0.0
 11
6.293307086614173
 21
5.996062992125983
 31
0.0
  0
LINE
  5
3D44
330
1E
100
AcDbEntity
  8
3
100
AcDbLine
 10
6.198818897637795
 20
5.938976377952755
 30
0.0
 11
6.198818897637795
 21
5.964566929133857
 31
0.0
  0
LINE
  5
3D45
330
1E
100
AcDbEntity
  8
3
100
AcDbLine
 10
6.198818897637795
 20
5.964566929133857
 30
0.0
 11
6.198818897637795
 21
5.996062992125983
 31
0.0
  0
LINE
  5
3D46
330
1E
100
AcDbEntity
  8
3
100
AcDbLine
 10
6.198818897637795
 20
5.938976377952755
 30
0.0
 11
6.20275590551181
 21
5.931102362204724
 31
0.0
  0
LINE
  5
3D47
330
1E
100
AcDbEntity
  8
3
100
AcDbLine
 10
6.20275590551181
 20
5.931102362204724
 30
0.0
 11
6.214566929133858
 21
5.927165354330707
 31
0.0
  0
LINE
  5
3D48
330
1E
100
AcDbEntity
  8
3
100
AcDbLine
 10
6.198818897637795
 20
6.171259842519683
 30
0.0
 11
6.200787401574802
 21
6.15551181102362
 31
0.0
  0
LINE
  5
3D49
330
1E
100
AcDbEntity
  8
3
100
AcDbLine
 10
6.200787401574802
 20
6.15551181102362
 30
0.0
 11
6.20275590551181
 21
6.141732283464564
 31
0.0
  0
LINE
  5
3D4A
330
1E
100
AcDbEntity
  8
3
100
AcDbLine
 10
6.20275590551181
 20
6.141732283464564
 30
0.0
 11
6.208661417322834
 21
6.127952755905509
 31
0.0
  0
LINE
  5
3D4B
330
1E
100
AcDbEntity
  8
3
100
AcDbLine
 10
6.208661417322834
 20
6.127952755905509
 30
0.0
 11
6.214566929133858
 21
6.114173228346457
 31
0.0
  0
LINE
  5
3D4C
330
1E
100
AcDbEntity
  8
3
100
AcDbLine
 10
6.198818897637795
 20
5.996062992125983
 30
0.0
 11
6.20275590551181
 21
5.996062992125983
 31
0.0
  0
LINE
  5
3D4D
330
1E
100
AcDbEntity
  8
3
100
AcDbLine
 10
6.20275590551181
 20
5.996062992125983
 30
0.0
 11
6.214566929133858
 21
5.996062992125983
 31
0.0
  0
LINE
  5
3D4E
330
1E
100
AcDbEntity
  8
3
100
AcDbLine
 10
6.291338582677165
 20
6.05511811023622
 30
0.0
 11
6.261811023622047
 21
6.062992125984251
 31
0.0
  0
LINE
  5
3D4F
330
1E
100
AcDbEntity
  8
3
100
AcDbLine
 10
6.261811023622047
 20
6.062992125984251
 30
0.0
 11
6.236220472440945
 21
6.082677165354329
 31
0.0
  0
LINE
  5
3D50
330
1E
100
AcDbEntity
  8
3
100
AcDbLine
 10
6.236220472440945
 20
6.082677165354329
 30
0.0
 11
6.214566929133858
 21
6.114173228346457
 31
0.0
  0
LINE
  5
3D51
330
1E
100
AcDbEntity
  8
3
100
AcDbLine
 10
6.214566929133858
 20
6.114173228346457
 30
0.0
 11
6.214566929133858
 21
5.996062992125983
 31
0.0
  0
LINE
  5
3D52
330
1E
100
AcDbEntity
  8
3
100
AcDbLine
 10
6.293307086614173
 20
6.246062992125983
 30
0.0
 11
6.291338582677165
 21
6.246062992125983
 31
0.0
  0
LINE
  5
3D53
330
1E
100
AcDbEntity
  8
3
100
AcDbLine
 10
6.291338582677165
 20
6.246062992125983
 30
0.0
 11
6.291338582677165
 21
6.05511811023622
 31
0.0
  0
LINE
  5
3D54
330
1E
100
AcDbEntity
  8
3
100
AcDbLine
 10
6.291338582677165
 20
6.246062992125983
 30
0.0
 11
6.291338582677165
 21
6.251968503937005
 31
0.0
  0
LINE
  5
3D55
330
1E
100
AcDbEntity
  8
3
100
AcDbLine
 10
6.291338582677165
 20
6.251968503937005
 30
0.0
 11
6.291338582677165
 21
6.259842519685038
 31
0.0
  0
LINE
  5
3D56
330
1E
100
AcDbEntity
  8
3
100
AcDbLine
 10
6.293307086614173
 20
6.246062992125983
 30
0.0
 11
6.293307086614173
 21
6.251968503937005
 31
0.0
  0
LINE
  5
3D57
330
1E
100
AcDbEntity
  8
3
100
AcDbLine
 10
6.293307086614173
 20
6.251968503937005
 30
0.0
 11
6.293307086614173
 21
6.259842519685038
 31
0.0
  0
LINE
  5
3D58
330
1E
100
AcDbEntity
  8
3
100
AcDbLine
 10
6.29527559055118
 20
6.244094488188975
 30
0.0
 11
6.303149606299212
 21
6.246062992125983
 31
0.0
  0
LINE
  5
3D59
330
1E
100
AcDbEntity
  8
3
100
AcDbLine
 10
6.303149606299212
 20
6.246062992125983
 30
0.0
 11
6.305118110236219
 21
6.249999999999998
 31
0.0
  0
LINE
  5
3D5A
330
1E
100
AcDbEntity
  8
3
100
AcDbLine
 10
6.214566929133858
 20
5.996062992125983
 30
0.0
 11
6.214566929133858
 21
5.958661417322833
 31
0.0
  0
LINE
  5
3D5B
330
1E
100
AcDbEntity
  8
3
100
AcDbLine
 10
6.214566929133858
 20
5.958661417322833
 30
0.0
 11
6.214566929133858
 21
5.927165354330707
 31
0.0
  0
LINE
  5
3D5C
330
1E
100
AcDbEntity
  8
3
100
AcDbLine
 10
6.214566929133858
 20
5.927165354330707
 30
0.0
 11
6.291338582677165
 21
5.927165354330707
 31
0.0
  0
LINE
  5
3D5D
330
1E
100
AcDbEntity
  8
3
100
AcDbLine
 10
6.291338582677165
 20
5.927165354330707
 30
0.0
 11
6.291338582677165
 21
5.958661417322833
 31
0.0
  0
LINE
  5
3D5E
330
1E
100
AcDbEntity
  8
3
100
AcDbLine
 10
6.291338582677165
 20
5.958661417322833
 30
0.0
 11
6.293307086614173
 21
5.996062992125983
 31
0.0
  0
LINE
  5
3D5F
330
1E
100
AcDbEntity
  8
3
100
AcDbLine
 10
6.893700787401574
 20
5.94291338582677
 30
0.0
 11
6.893700787401574
 21
5.948818897637794
 31
0.0
  0
LINE
  5
3D60
330
1E
100
AcDbEntity
  8
3
100
AcDbLine
 10
6.893700787401574
 20
5.948818897637794
 30
0.0
 11
6.893700787401574
 21
5.950787401574801
 31
0.0
  0
LINE
  5
3D61
330
1E
100
AcDbEntity
  8
3
100
AcDbLine
 10
7.066929133858267
 20
5.964566929133857
 30
0.0
 11
6.893700787401574
 21
5.964566929133857
 31
0.0
  0
LINE
  5
3D62
330
1E
100
AcDbEntity
  8
3
100
AcDbLine
 10
6.893700787401574
 20
5.964566929133857
 30
0.0
 11
6.893700787401574
 21
5.954724409448818
 31
0.0
  0
LINE
  5
3D63
330
1E
100
AcDbEntity
  8
3
100
AcDbLine
 10
6.893700787401574
 20
5.954724409448818
 30
0.0
 11
6.893700787401574
 21
5.950787401574801
 31
0.0
  0
LINE
  5
3D64
330
1E
100
AcDbEntity
  8
3
100
AcDbLine
 10
6.893700787401574
 20
6.0
 30
0.0
 11
6.893700787401574
 21
5.98031496062992
 31
0.0
  0
LINE
  5
3D65
330
1E
100
AcDbEntity
  8
3
100
AcDbLine
 10
6.893700787401574
 20
5.98031496062992
 30
0.0
 11
6.893700787401574
 21
5.964566929133857
 31
0.0
  0
LINE
  5
3D66
330
1E
100
AcDbEntity
  8
3
100
AcDbLine
 10
7.066929133858267
 20
5.94291338582677
 30
0.0
 11
7.066929133858267
 21
5.948818897637794
 31
0.0
  0
LINE
  5
3D67
330
1E
100
AcDbEntity
  8
3
100
AcDbLine
 10
7.066929133858267
 20
5.948818897637794
 30
0.0
 11
7.066929133858267
 21
5.950787401574801
 31
0.0
  0
LINE
  5
3D68
330
1E
100
AcDbEntity
  8
3
100
AcDbLine
 10
7.066929133858267
 20
6.0
 30
0.0
 11
7.066929133858267
 21
5.98031496062992
 31
0.0
  0
LINE
  5
3D69
330
1E
100
AcDbEntity
  8
3
100
AcDbLine
 10
7.066929133858267
 20
5.98031496062992
 30
0.0
 11
7.066929133858267
 21
5.964566929133857
 31
0.0
  0
LINE
  5
3D6A
330
1E
100
AcDbEntity
  8
3
100
AcDbLine
 10
7.066929133858267
 20
5.964566929133857
 30
0.0
 11
7.066929133858267
 21
5.954724409448818
 31
0.0
  0
LINE
  5
3D6B
330
1E
100
AcDbEntity
  8
3
100
AcDbLine
 10
7.066929133858267
 20
5.954724409448818
 30
0.0
 11
7.066929133858267
 21
5.950787401574801
 31
0.0
  0
LINE
  5
3D6C
330
1E
100
AcDbEntity
  8
3
100
AcDbLine
 10
6.551181102362204
 20
5.842519685039368
 30
0.0
 11
6.553149606299212
 21
5.877952755905511
 31
0.0
  0
LINE
  5
3D6D
330
1E
100
AcDbEntity
  8
3
100
AcDbLine
 10
6.553149606299212
 20
5.877952755905511
 30
0.0
 11
6.771653543307086
 21
5.877952755905511
 31
0.0
  0
LINE
  5
3D6E
330
1E
100
AcDbEntity
  8
3
100
AcDbLine
 10
7.655511811023621
 20
5.88779527559055
 30
0.0
 11
6.305118110236219
 21
5.88779527559055
 31
0.0
  0
LINE
  5
3D6F
330
1E
100
AcDbEntity
  8
3
100
AcDbLine
 10
6.305118110236219
 20
5.88779527559055
 30
0.0
 11
6.303149606299212
 21
5.842519685039368
 31
0.0
  0
LINE
  5
3D70
330
1E
100
AcDbEntity
  8
3
100
AcDbLine
 10
6.214566929133858
 20
5.791338582677164
 30
0.0
 11
6.20275590551181
 21
5.791338582677164
 31
0.0
  0
LINE
  5
3D71
330
1E
100
AcDbEntity
  8
3
100
AcDbLine
 10
6.20275590551181
 20
5.791338582677164
 30
0.0
 11
6.198818897637795
 21
5.791338582677164
 31
0.0
  0
LINE
  5
3D72
330
1E
100
AcDbEntity
  8
3
100
AcDbLine
 10
6.303149606299212
 20
5.791338582677164
 30
0.0
 11
6.303149606299212
 21
5.799212598425196
 31
0.0
  0
LINE
  5
3D73
330
1E
100
AcDbEntity
  8
3
100
AcDbLine
 10
6.303149606299212
 20
5.799212598425196
 30
0.0
 11
6.303149606299212
 21
5.816929133858266
 31
0.0
  0
LINE
  5
3D74
330
1E
100
AcDbEntity
  8
3
100
AcDbLine
 10
6.303149606299212
 20
5.816929133858266
 30
0.0
 11
6.303149606299212
 21
5.842519685039368
 31
0.0
  0
LINE
  5
3D75
330
1E
100
AcDbEntity
  8
3
100
AcDbLine
 10
6.551181102362204
 20
5.842519685039368
 30
0.0
 11
6.551181102362204
 21
5.816929133858266
 31
0.0
  0
LINE
  5
3D76
330
1E
100
AcDbEntity
  8
3
100
AcDbLine
 10
6.551181102362204
 20
5.816929133858266
 30
0.0
 11
6.551181102362204
 21
5.799212598425196
 31
0.0
  0
LINE
  5
3D77
330
1E
100
AcDbEntity
  8
3
100
AcDbLine
 10
6.773622047244093
 20
5.842519685039368
 30
0.0
 11
6.775590551181102
 21
5.816929133858266
 31
0.0
  0
LINE
  5
3D78
330
1E
100
AcDbEntity
  8
3
100
AcDbLine
 10
6.775590551181102
 20
5.816929133858266
 30
0.0
 11
6.775590551181102
 21
5.799212598425196
 31
0.0
  0
LINE
  5
3D79
330
1E
100
AcDbEntity
  8
3
100
AcDbLine
 10
6.775590551181102
 20
5.799212598425196
 30
0.0
 11
6.551181102362204
 21
5.799212598425196
 31
0.0
  0
LINE
  5
3D7A
330
1E
100
AcDbEntity
  8
3
100
AcDbLine
 10
7.187007874015747
 20
5.842519685039368
 30
0.0
 11
7.185039370078739
 21
5.816929133858266
 31
0.0
  0
LINE
  5
3D7B
330
1E
100
AcDbEntity
  8
3
100
AcDbLine
 10
7.185039370078739
 20
5.816929133858266
 30
0.0
 11
7.185039370078739
 21
5.799212598425196
 31
0.0
  0
LINE
  5
3D7C
330
1E
100
AcDbEntity
  8
3
100
AcDbLine
 10
7.409448818897637
 20
5.842519685039368
 30
0.0
 11
7.409448818897637
 21
5.816929133858266
 31
0.0
  0
LINE
  5
3D7D
330
1E
100
AcDbEntity
  8
3
100
AcDbLine
 10
7.409448818897637
 20
5.816929133858266
 30
0.0
 11
7.409448818897637
 21
5.799212598425196
 31
0.0
  0
LINE
  5
3D7E
330
1E
100
AcDbEntity
  8
3
100
AcDbLine
 10
7.066929133858267
 20
5.94291338582677
 30
0.0
 11
6.893700787401574
 21
5.94291338582677
 31
0.0
  0
LINE
  5
3D7F
330
1E
100
AcDbEntity
  8
3
100
AcDbLine
 10
6.893700787401574
 20
5.94291338582677
 30
0.0
 11
6.893700787401574
 21
5.938976377952755
 31
0.0
  0
LINE
  5
3D80
330
1E
100
AcDbEntity
  8
3
100
AcDbLine
 10
6.291338582677165
 20
6.433070866141731
 30
0.0
 11
6.291338582677165
 21
6.472440944881887
 31
0.0
  0
LINE
  5
3D81
330
1E
100
AcDbEntity
  8
3
100
AcDbLine
 10
6.291338582677165
 20
6.472440944881887
 30
0.0
 11
6.291338582677165
 21
6.521653543307087
 31
0.0
  0
LINE
  5
3D82
330
1E
100
AcDbEntity
  8
3
100
AcDbLine
 10
6.291338582677165
 20
6.521653543307087
 30
0.0
 11
6.291338582677165
 21
6.56299212598425
 31
0.0
  0
LINE
  5
3D83
330
1E
100
AcDbEntity
  8
3
100
AcDbLine
 10
6.291338582677165
 20
6.433070866141731
 30
0.0
 11
6.291338582677165
 21
6.383858267716535
 31
0.0
  0
LINE
  5
3D84
330
1E
100
AcDbEntity
  8
3
100
AcDbLine
 10
6.291338582677165
 20
6.383858267716535
 30
0.0
 11
6.417322834645669
 21
6.383858267716535
 31
0.0
  0
LINE
  5
3D85
330
1E
100
AcDbEntity
  8
3
100
AcDbLine
 10
6.198818897637795
 20
7.125984251968501
 30
0.0
 11
6.206692913385826
 21
7.125984251968501
 31
0.0
  0
LINE
  5
3D86
330
1E
100
AcDbEntity
  8
3
100
AcDbLine
 10
6.206692913385826
 20
7.125984251968501
 30
0.0
 11
6.226377952755904
 21
7.125984251968501
 31
0.0
  0
LINE
  5
3D87
330
1E
100
AcDbEntity
  8
3
100
AcDbLine
 10
6.226377952755904
 20
7.125984251968501
 30
0.0
 11
6.255905511811023
 21
7.125984251968501
 31
0.0
  0
LINE
  5
3D88
330
1E
100
AcDbEntity
  8
3
100
AcDbLine
 10
6.255905511811023
 20
7.125984251968501
 30
0.0
 11
6.291338582677165
 21
7.125984251968501
 31
0.0
  0
LINE
  5
3D89
330
1E
100
AcDbEntity
  8
3
100
AcDbLine
 10
7.65748031496063
 20
5.791338582677164
 30
0.0
 11
7.65748031496063
 21
5.799212598425196
 31
0.0
  0
LINE
  5
3D8A
330
1E
100
AcDbEntity
  8
3
100
AcDbLine
 10
7.65748031496063
 20
5.799212598425196
 30
0.0
 11
7.65748031496063
 21
5.816929133858266
 31
0.0
  0
LINE
  5
3D8B
330
1E
100
AcDbEntity
  8
3
100
AcDbLine
 10
7.65748031496063
 20
5.816929133858266
 30
0.0
 11
7.65748031496063
 21
5.842519685039368
 31
0.0
  0
LINE
  5
3D8C
330
1E
100
AcDbEntity
  8
3
100
AcDbLine
 10
7.655511811023621
 20
5.919291338582675
 30
0.0
 11
7.655511811023621
 21
5.88779527559055
 31
0.0
  0
LINE
  5
3D8D
330
1E
100
AcDbEntity
  8
3
100
AcDbLine
 10
7.655511811023621
 20
5.88779527559055
 30
0.0
 11
7.65748031496063
 21
5.842519685039368
 31
0.0
  0
LINE
  5
3D8E
330
1E
100
AcDbEntity
  8
3
100
AcDbLine
 10
7.746062992125984
 20
5.791338582677164
 30
0.0
 11
7.75787401574803
 21
5.791338582677164
 31
0.0
  0
LINE
  5
3D8F
330
1E
100
AcDbEntity
  8
3
100
AcDbLine
 10
7.75787401574803
 20
5.791338582677164
 30
0.0
 11
7.761811023622047
 21
5.791338582677164
 31
0.0
  0
LINE
  5
3D90
330
1E
100
AcDbEntity
  8
3
100
AcDbLine
 10
7.746062992125984
 20
5.927165354330707
 30
0.0
 11
7.746062992125984
 21
5.791338582677164
 31
0.0
  0
LINE
  5
3D91
330
1E
100
AcDbEntity
  8
3
100
AcDbLine
 10
7.746062992125984
 20
5.791338582677164
 30
0.0
 11
7.669291338582676
 21
5.791338582677164
 31
0.0
  0
LINE
  5
3D92
330
1E
100
AcDbEntity
  8
3
100
AcDbLine
 10
7.659448818897637
 20
5.935039370078738
 30
0.0
 11
7.659448818897637
 21
5.791338582677164
 31
0.0
  0
LINE
  5
3D93
330
1E
100
AcDbEntity
  8
3
100
AcDbLine
 10
7.659448818897637
 20
5.791338582677164
 30
0.0
 11
7.669291338582676
 21
5.791338582677164
 31
0.0
  0
LINE
  5
3D94
330
1E
100
AcDbEntity
  8
3
100
AcDbLine
 10
7.669291338582676
 20
5.791338582677164
 30
0.0
 11
7.669291338582676
 21
5.927165354330707
 31
0.0
  0
LINE
  5
3D95
330
1E
100
AcDbEntity
  8
3
100
AcDbLine
 10
7.722440944881889
 20
6.273622047244094
 30
0.0
 11
7.696850393700787
 21
6.263779527559053
 31
0.0
  0
LINE
  5
3D96
330
1E
100
AcDbEntity
  8
3
100
AcDbLine
 10
7.696850393700787
 20
6.263779527559053
 30
0.0
 11
7.669291338582676
 21
6.259842519685038
 31
0.0
  0
LINE
  5
3D97
330
1E
100
AcDbEntity
  8
3
100
AcDbLine
 10
7.65748031496063
 20
5.937007874015746
 30
0.0
 11
7.65748031496063
 21
5.956692913385825
 31
0.0
  0
LINE
  5
3D98
330
1E
100
AcDbEntity
  8
3
100
AcDbLine
 10
7.65748031496063
 20
5.956692913385825
 30
0.0
 11
7.65748031496063
 21
5.984251968503937
 31
0.0
  0
LINE
  5
3D99
330
1E
100
AcDbEntity
  8
3
100
AcDbLine
 10
7.65748031496063
 20
5.984251968503937
 30
0.0
 11
7.655511811023621
 21
6.015748031496062
 31
0.0
  0
LINE
  5
3D9A
330
1E
100
AcDbEntity
  8
3
100
AcDbLine
 10
7.655511811023621
 20
6.015748031496062
 30
0.0
 11
7.653543307086613
 21
6.041338582677164
 31
0.0
  0
LINE
  5
3D9B
330
1E
100
AcDbEntity
  8
3
100
AcDbLine
 10
7.653543307086613
 20
6.041338582677164
 30
0.0
 11
7.653543307086613
 21
6.059055118110235
 31
0.0
  0
LINE
  5
3D9C
330
1E
100
AcDbEntity
  8
3
100
AcDbLine
 10
7.761811023622047
 20
5.996062992125983
 30
0.0
 11
7.75787401574803
 21
5.996062992125983
 31
0.0
  0
LINE
  5
3D9D
330
1E
100
AcDbEntity
  8
3
100
AcDbLine
 10
7.75787401574803
 20
5.996062992125983
 30
0.0
 11
7.746062992125984
 21
5.996062992125983
 31
0.0
  0
LINE
  5
3D9E
330
1E
100
AcDbEntity
  8
3
100
AcDbLine
 10
7.761811023622047
 20
5.938976377952755
 30
0.0
 11
7.75787401574803
 21
5.931102362204724
 31
0.0
  0
LINE
  5
3D9F
330
1E
100
AcDbEntity
  8
3
100
AcDbLine
 10
7.75787401574803
 20
5.931102362204724
 30
0.0
 11
7.746062992125984
 21
5.927165354330707
 31
0.0
  0
LINE
  5
3DA0
330
1E
100
AcDbEntity
  8
3
100
AcDbLine
 10
7.65748031496063
 20
5.996062992125983
 30
0.0
 11
7.659448818897637
 21
5.96259842519685
 31
0.0
  0
LINE
  5
3DA1
330
1E
100
AcDbEntity
  8
3
100
AcDbLine
 10
7.659448818897637
 20
5.96259842519685
 30
0.0
 11
7.659448818897637
 21
5.935039370078738
 31
0.0
  0
LINE
  5
3DA2
330
1E
100
AcDbEntity
  8
3
100
AcDbLine
 10
7.659448818897637
 20
5.935039370078738
 30
0.0
 11
7.661417322834645
 21
5.929133858267714
 31
0.0
  0
LINE
  5
3DA3
330
1E
100
AcDbEntity
  8
3
100
AcDbLine
 10
7.661417322834645
 20
5.929133858267714
 30
0.0
 11
7.669291338582676
 21
5.927165354330707
 31
0.0
  0
LINE
  5
3DA4
330
1E
100
AcDbEntity
  8
3
100
AcDbLine
 10
7.65748031496063
 20
5.996062992125983
 30
0.0
 11
7.661417322834645
 21
5.996062992125983
 31
0.0
  0
LINE
  5
3DA5
330
1E
100
AcDbEntity
  8
3
100
AcDbLine
 10
7.661417322834645
 20
5.996062992125983
 30
0.0
 11
7.667322834645669
 21
5.996062992125983
 31
0.0
  0
LINE
  5
3DA6
330
1E
100
AcDbEntity
  8
3
100
AcDbLine
 10
7.655511811023621
 20
6.249999999999998
 30
0.0
 11
7.655511811023621
 21
6.059055118110235
 31
0.0
  0
LINE
  5
3DA7
330
1E
100
AcDbEntity
  8
3
100
AcDbLine
 10
7.655511811023621
 20
6.059055118110235
 30
0.0
 11
7.665354330708662
 21
6.05511811023622
 31
0.0
  0
LINE
  5
3DA8
330
1E
100
AcDbEntity
  8
3
100
AcDbLine
 10
7.746062992125984
 20
5.996062992125983
 30
0.0
 11
7.746062992125984
 21
5.958661417322833
 31
0.0
  0
LINE
  5
3DA9
330
1E
100
AcDbEntity
  8
3
100
AcDbLine
 10
7.746062992125984
 20
5.958661417322833
 30
0.0
 11
7.746062992125984
 21
5.927165354330707
 31
0.0
  0
LINE
  5
3DAA
330
1E
100
AcDbEntity
  8
3
100
AcDbLine
 10
7.669291338582676
 20
5.927165354330707
 30
0.0
 11
7.669291338582676
 21
5.958661417322833
 31
0.0
  0
LINE
  5
3DAB
330
1E
100
AcDbEntity
  8
3
100
AcDbLine
 10
7.669291338582676
 20
5.958661417322833
 30
0.0
 11
7.667322834645669
 21
5.996062992125983
 31
0.0
  0
LINE
  5
3DAC
330
1E
100
AcDbEntity
  8
3
100
AcDbLine
 10
7.665354330708662
 20
6.244094488188975
 30
0.0
 11
7.65748031496063
 21
6.246062992125983
 31
0.0
  0
LINE
  5
3DAD
330
1E
100
AcDbEntity
  8
3
100
AcDbLine
 10
7.65748031496063
 20
6.246062992125983
 30
0.0
 11
7.655511811023621
 21
6.249999999999998
 31
0.0
  0
LINE
  5
3DAE
330
1E
100
AcDbEntity
  8
3
100
AcDbLine
 10
7.669291338582676
 20
6.246062992125983
 30
0.0
 11
7.669291338582676
 21
6.251968503937005
 31
0.0
  0
LINE
  5
3DAF
330
1E
100
AcDbEntity
  8
3
100
AcDbLine
 10
7.669291338582676
 20
6.251968503937005
 30
0.0
 11
7.669291338582676
 21
6.259842519685038
 31
0.0
  0
LINE
  5
3DB0
330
1E
100
AcDbEntity
  8
3
100
AcDbLine
 10
7.669291338582676
 20
6.259842519685038
 30
0.0
 11
7.667322834645669
 21
6.259842519685038
 31
0.0
  0
LINE
  5
3DB1
330
1E
100
AcDbEntity
  8
3
100
AcDbLine
 10
7.667322834645669
 20
6.246062992125983
 30
0.0
 11
7.667322834645669
 21
6.251968503937005
 31
0.0
  0
LINE
  5
3DB2
330
1E
100
AcDbEntity
  8
3
100
AcDbLine
 10
7.667322834645669
 20
6.251968503937005
 30
0.0
 11
7.667322834645669
 21
6.259842519685038
 31
0.0
  0
LINE
  5
3DB3
330
1E
100
AcDbEntity
  8
3
100
AcDbLine
 10
7.761811023622047
 20
6.171259842519683
 30
0.0
 11
7.759842519685039
 21
6.15551181102362
 31
0.0
  0
LINE
  5
3DB4
330
1E
100
AcDbEntity
  8
3
100
AcDbLine
 10
7.759842519685039
 20
6.15551181102362
 30
0.0
 11
7.75787401574803
 21
6.141732283464564
 31
0.0
  0
LINE
  5
3DB5
330
1E
100
AcDbEntity
  8
3
100
AcDbLine
 10
7.75787401574803
 20
6.141732283464564
 30
0.0
 11
7.751968503937008
 21
6.127952755905509
 31
0.0
  0
LINE
  5
3DB6
330
1E
100
AcDbEntity
  8
3
100
AcDbLine
 10
7.751968503937008
 20
6.127952755905509
 30
0.0
 11
7.746062992125984
 21
6.114173228346457
 31
0.0
  0
LINE
  5
3DB7
330
1E
100
AcDbEntity
  8
3
100
AcDbLine
 10
7.669291338582676
 20
6.246062992125983
 30
0.0
 11
7.669291338582676
 21
6.05511811023622
 31
0.0
  0
LINE
  5
3DB8
330
1E
100
AcDbEntity
  8
3
100
AcDbLine
 10
7.669291338582676
 20
6.05511811023622
 30
0.0
 11
7.698818897637795
 21
6.062992125984251
 31
0.0
  0
LINE
  5
3DB9
330
1E
100
AcDbEntity
  8
3
100
AcDbLine
 10
7.698818897637795
 20
6.062992125984251
 30
0.0
 11
7.724409448818897
 21
6.082677165354329
 31
0.0
  0
LINE
  5
3DBA
330
1E
100
AcDbEntity
  8
3
100
AcDbLine
 10
7.724409448818897
 20
6.082677165354329
 30
0.0
 11
7.746062992125984
 21
6.114173228346457
 31
0.0
  0
LINE
  5
3DBB
330
1E
100
AcDbEntity
  8
3
100
AcDbLine
 10
7.761811023622047
 20
5.938976377952755
 30
0.0
 11
7.761811023622047
 21
5.964566929133857
 31
0.0
  0
LINE
  5
3DBC
330
1E
100
AcDbEntity
  8
3
100
AcDbLine
 10
7.761811023622047
 20
5.964566929133857
 30
0.0
 11
7.761811023622047
 21
5.996062992125983
 31
0.0
  0
LINE
  5
3DBD
330
1E
100
AcDbEntity
  8
3
100
AcDbLine
 10
7.783464566929134
 20
6.297244094488187
 30
0.0
 11
7.797244094488188
 21
6.297244094488187
 31
0.0
  0
LINE
  5
3DBE
330
1E
100
AcDbEntity
  8
3
100
AcDbLine
 10
7.797244094488188
 20
6.297244094488187
 30
0.0
 11
7.797244094488188
 21
6.314960629921257
 31
0.0
  0
LINE
  5
3DBF
330
1E
100
AcDbEntity
  8
3
100
AcDbLine
 10
7.753937007874015
 20
7.125984251968501
 30
0.0
 11
7.734251968503936
 21
7.125984251968501
 31
0.0
  0
LINE
  5
3DC0
330
1E
100
AcDbEntity
  8
3
100
AcDbLine
 10
7.734251968503936
 20
7.125984251968501
 30
0.0
 11
7.704724409448819
 21
7.125984251968501
 31
0.0
  0
LINE
  5
3DC1
330
1E
100
AcDbEntity
  8
3
100
AcDbLine
 10
7.704724409448819
 20
7.125984251968501
 30
0.0
 11
7.669291338582676
 21
7.125984251968501
 31
0.0
  0
LINE
  5
3DC2
330
1E
100
AcDbEntity
  8
3
100
AcDbLine
 10
7.669291338582676
 20
7.125984251968501
 30
0.0
 11
7.669291338582676
 21
6.56299212598425
 31
0.0
  0
LINE
  5
3DC3
330
1E
100
AcDbEntity
  8
3
100
AcDbLine
 10
7.761811023622047
 20
6.49803149606299
 30
0.0
 11
7.761811023622047
 21
7.125984251968501
 31
0.0
  0
LINE
  5
3DC4
330
1E
100
AcDbEntity
  8
3
100
AcDbLine
 10
7.761811023622047
 20
7.125984251968501
 30
0.0
 11
7.753937007874015
 21
7.125984251968501
 31
0.0
  0
LINE
  5
3DC5
330
1E
100
AcDbEntity
  8
3
100
AcDbLine
 10
7.753937007874015
 20
6.470472440944879
 30
0.0
 11
7.759842519685039
 21
6.484251968503935
 31
0.0
  0
LINE
  5
3DC6
330
1E
100
AcDbEntity
  8
3
100
AcDbLine
 10
7.759842519685039
 20
6.484251968503935
 30
0.0
 11
7.761811023622047
 21
6.49803149606299
 31
0.0
  0
LINE
  5
3DC7
330
1E
100
AcDbEntity
  8
3
100
AcDbLine
 10
7.761811023622047
 20
6.49803149606299
 30
0.0
 11
7.749999999999999
 21
6.529527559055116
 31
0.0
  0
LINE
  5
3DC8
330
1E
100
AcDbEntity
  8
3
100
AcDbLine
 10
7.749999999999999
 20
6.529527559055116
 30
0.0
 11
7.714566929133858
 21
6.553149606299212
 31
0.0
  0
LINE
  5
3DC9
330
1E
100
AcDbEntity
  8
3
100
AcDbLine
 10
7.714566929133858
 20
6.553149606299212
 30
0.0
 11
7.669291338582676
 21
6.56299212598425
 31
0.0
  0
LINE
  5
3DCA
330
1E
100
AcDbEntity
  8
3
100
AcDbLine
 10
7.669291338582676
 20
6.433070866141731
 30
0.0
 11
7.669291338582676
 21
6.472440944881887
 31
0.0
  0
LINE
  5
3DCB
330
1E
100
AcDbEntity
  8
3
100
AcDbLine
 10
7.669291338582676
 20
6.472440944881887
 30
0.0
 11
7.669291338582676
 21
6.521653543307087
 31
0.0
  0
LINE
  5
3DCC
330
1E
100
AcDbEntity
  8
3
100
AcDbLine
 10
7.669291338582676
 20
6.521653543307087
 30
0.0
 11
7.669291338582676
 21
6.56299212598425
 31
0.0
  0
LINE
  5
3DCD
330
1E
100
AcDbEntity
  8
3
100
AcDbLine
 10
7.753937007874015
 20
6.42322834645669
 30
0.0
 11
7.732283464566928
 21
6.401574803149605
 31
0.0
  0
LINE
  5
3DCE
330
1E
100
AcDbEntity
  8
3
100
AcDbLine
 10
7.732283464566928
 20
6.401574803149605
 30
0.0
 11
7.70275590551181
 21
6.389763779527557
 31
0.0
  0
LINE
  5
3DCF
330
1E
100
AcDbEntity
  8
3
100
AcDbLine
 10
7.70275590551181
 20
6.389763779527557
 30
0.0
 11
7.669291338582676
 21
6.383858267716535
 31
0.0
  0
LINE
  5
3DD0
330
1E
100
AcDbEntity
  8
3
100
AcDbLine
 10
7.669291338582676
 20
6.381889763779527
 30
0.0
 11
7.669291338582676
 21
6.383858267716535
 31
0.0
  0
LINE
  5
3DD1
330
1E
100
AcDbEntity
  8
3
100
AcDbLine
 10
7.669291338582676
 20
6.383858267716535
 30
0.0
 11
7.543307086614173
 21
6.383858267716535
 31
0.0
  0
LINE
  5
3DD2
330
1E
100
AcDbEntity
  8
3
100
AcDbLine
 10
6.24015748031496
 20
6.393700787401572
 30
0.0
 11
6.236220472440945
 21
6.393700787401572
 31
0.0
  0
LINE
  5
3DD3
330
1E
100
AcDbEntity
  8
3
100
AcDbLine
 10
6.236220472440945
 20
6.393700787401572
 30
0.0
 11
6.198818897637795
 21
6.385826771653542
 31
0.0
  0
LINE
  5
3DD4
330
1E
100
AcDbEntity
  8
3
100
AcDbLine
 10
6.198818897637795
 20
6.385826771653542
 30
0.0
 11
6.171259842519684
 21
6.366141732283464
 31
0.0
  0
LINE
  5
3DD5
330
1E
100
AcDbEntity
  8
3
100
AcDbLine
 10
6.171259842519684
 20
6.366141732283464
 30
0.0
 11
6.161417322834645
 21
6.340551181102361
 31
0.0
  0
LINE
  5
3DD6
330
1E
100
AcDbEntity
  8
3
100
AcDbLine
 10
6.974409448818897
 20
6.377952755905509
 30
0.0
 11
6.974409448818897
 21
6.381889763779527
 31
0.0
  0
LINE
  5
3DD7
330
1E
100
AcDbEntity
  8
3
100
AcDbLine
 10
6.974409448818897
 20
6.381889763779527
 30
0.0
 11
6.974409448818897
 21
6.383858267716535
 31
0.0
  0
LINE
  5
3DD8
330
1E
100
AcDbEntity
  8
3
100
AcDbLine
 10
6.974409448818897
 20
6.031496062992125
 30
0.0
 11
6.970472440944882
 21
6.021653543307085
 31
0.0
  0
LINE
  5
3DD9
330
1E
100
AcDbEntity
  8
3
100
AcDbLine
 10
6.970472440944882
 20
6.021653543307085
 30
0.0
 11
6.954724409448819
 21
6.01771653543307
 31
0.0
  0
LINE
  5
3DDA
330
1E
100
AcDbEntity
  8
3
100
AcDbLine
 10
6.966535433070865
 20
6.383858267716535
 30
0.0
 11
6.972440944881889
 21
6.377952755905509
 31
0.0
  0
LINE
  5
3DDB
330
1E
100
AcDbEntity
  8
3
100
AcDbLine
 10
6.972440944881889
 20
6.377952755905509
 30
0.0
 11
6.974409448818897
 21
6.372047244094487
 31
0.0
  0
LINE
  5
3DDC
330
1E
100
AcDbEntity
  8
3
100
AcDbLine
 10
6.974409448818897
 20
6.372047244094487
 30
0.0
 11
6.970472440944882
 21
6.362204724409446
 31
0.0
  0
LINE
  5
3DDD
330
1E
100
AcDbEntity
  8
3
100
AcDbLine
 10
6.970472440944882
 20
6.362204724409446
 30
0.0
 11
6.954724409448819
 21
6.358267716535431
 31
0.0
  0
LINE
  5
3DDE
330
1E
100
AcDbEntity
  8
3
100
AcDbLine
 10
6.954724409448819
 20
6.383858267716535
 30
0.0
 11
6.954724409448819
 21
6.370078740157479
 31
0.0
  0
LINE
  5
3DDF
330
1E
100
AcDbEntity
  8
3
100
AcDbLine
 10
6.954724409448819
 20
6.370078740157479
 30
0.0
 11
6.954724409448819
 21
6.358267716535431
 31
0.0
  0
LINE
  5
3DE0
330
1E
100
AcDbEntity
  8
3
100
AcDbLine
 10
6.161417322834645
 20
6.332677165354331
 30
0.0
 11
6.171259842519684
 21
6.358267716535431
 31
0.0
  0
LINE
  5
3DE1
330
1E
100
AcDbEntity
  8
3
100
AcDbLine
 10
6.171259842519684
 20
6.358267716535431
 30
0.0
 11
6.198818897637795
 21
6.377952755905509
 31
0.0
  0
LINE
  5
3DE2
330
1E
100
AcDbEntity
  8
3
100
AcDbLine
 10
6.198818897637795
 20
6.377952755905509
 30
0.0
 11
6.236220472440945
 21
6.385826771653542
 31
0.0
  0
LINE
  5
3DE3
330
1E
100
AcDbEntity
  8
3
100
AcDbLine
 10
6.236220472440945
 20
6.385826771653542
 30
0.0
 11
6.236220472440945
 21
6.372047244094487
 31
0.0
  0
LINE
  5
3DE4
330
1E
100
AcDbEntity
  8
3
100
AcDbLine
 10
6.236220472440945
 20
6.372047244094487
 30
0.0
 11
6.236220472440945
 21
6.358267716535431
 31
0.0
  0
LINE
  5
3DE5
330
1E
100
AcDbEntity
  8
3
100
AcDbLine
 10
6.236220472440945
 20
6.273622047244094
 30
0.0
 11
6.236220472440945
 21
6.275590551181101
 31
0.0
  0
LINE
  5
3DE6
330
1E
100
AcDbEntity
  8
3
100
AcDbLine
 10
6.236220472440945
 20
6.275590551181101
 30
0.0
 11
6.236220472440945
 21
6.279527559055116
 31
0.0
  0
LINE
  5
3DE7
330
1E
100
AcDbEntity
  8
3
100
AcDbLine
 10
6.287401574803149
 20
6.273622047244094
 30
0.0
 11
6.287401574803149
 21
6.275590551181101
 31
0.0
  0
LINE
  5
3DE8
330
1E
100
AcDbEntity
  8
3
100
AcDbLine
 10
6.287401574803149
 20
6.275590551181101
 30
0.0
 11
6.287401574803149
 21
6.279527559055116
 31
0.0
  0
LINE
  5
3DE9
330
1E
100
AcDbEntity
  8
3
100
AcDbLine
 10
6.316929133858267
 20
6.257874015748031
 30
0.0
 11
6.322834645669291
 21
6.24803149606299
 31
0.0
  0
LINE
  5
3DEA
330
1E
100
AcDbEntity
  8
3
100
AcDbLine
 10
6.322834645669291
 20
6.24803149606299
 30
0.0
 11
6.336614173228347
 21
6.244094488188975
 31
0.0
  0
LINE
  5
3DEB
330
1E
100
AcDbEntity
  8
3
100
AcDbLine
 10
6.322834645669291
 20
6.269685039370079
 30
0.0
 11
6.336614173228347
 21
6.244094488188975
 31
0.0
  0
LINE
  5
3DEC
330
1E
100
AcDbEntity
  8
3
100
AcDbLine
 10
6.336614173228347
 20
6.244094488188975
 30
0.0
 11
6.336614173228347
 21
6.011811023622046
 31
0.0
  0
LINE
  5
3DED
330
1E
100
AcDbEntity
  8
3
100
AcDbLine
 10
6.954724409448819
 20
6.01771653543307
 30
0.0
 11
6.954724409448819
 21
6.358267716535431
 31
0.0
  0
LINE
  5
3DEE
330
1E
100
AcDbEntity
  8
3
100
AcDbLine
 10
6.954724409448819
 20
6.358267716535431
 30
0.0
 11
6.236220472440945
 21
6.358267716535431
 31
0.0
  0
LINE
  5
3DEF
330
1E
100
AcDbEntity
  8
3
100
AcDbLine
 10
6.236220472440945
 20
6.358267716535431
 30
0.0
 11
6.20275590551181
 21
6.350393700787401
 31
0.0
  0
LINE
  5
3DF0
330
1E
100
AcDbEntity
  8
3
100
AcDbLine
 10
6.20275590551181
 20
6.350393700787401
 30
0.0
 11
6.183070866141732
 21
6.33070866141732
 31
0.0
  0
LINE
  5
3DF1
330
1E
100
AcDbEntity
  8
3
100
AcDbLine
 10
6.183070866141732
 20
6.33070866141732
 30
0.0
 11
6.183070866141732
 21
6.307086614173227
 31
0.0
  0
LINE
  5
3DF2
330
1E
100
AcDbEntity
  8
3
100
AcDbLine
 10
6.183070866141732
 20
6.307086614173227
 30
0.0
 11
6.20275590551181
 21
6.287401574803149
 31
0.0
  0
LINE
  5
3DF3
330
1E
100
AcDbEntity
  8
3
100
AcDbLine
 10
6.20275590551181
 20
6.287401574803149
 30
0.0
 11
6.236220472440945
 21
6.279527559055116
 31
0.0
  0
LINE
  5
3DF4
330
1E
100
AcDbEntity
  8
3
100
AcDbLine
 10
6.236220472440945
 20
6.279527559055116
 30
0.0
 11
6.287401574803149
 21
6.279527559055116
 31
0.0
  0
LINE
  5
3DF5
330
1E
100
AcDbEntity
  8
3
100
AcDbLine
 10
6.287401574803149
 20
6.279527559055116
 30
0.0
 11
6.322834645669291
 21
6.269685039370079
 31
0.0
  0
LINE
  5
3DF6
330
1E
100
AcDbEntity
  8
3
100
AcDbLine
 10
6.901574803149606
 20
6.01771653543307
 30
0.0
 11
6.895669291338582
 21
6.015748031496062
 31
0.0
  0
LINE
  5
3DF7
330
1E
100
AcDbEntity
  8
3
100
AcDbLine
 10
6.895669291338582
 20
6.015748031496062
 30
0.0
 11
6.893700787401574
 21
6.011811023622046
 31
0.0
  0
LINE
  5
3DF8
330
1E
100
AcDbEntity
  8
3
100
AcDbLine
 10
6.893700787401574
 20
6.0
 30
0.0
 11
6.893700787401574
 21
6.005905511811022
 31
0.0
  0
LINE
  5
3DF9
330
1E
100
AcDbEntity
  8
3
100
AcDbLine
 10
6.893700787401574
 20
6.005905511811022
 30
0.0
 11
6.893700787401574
 21
6.011811023622046
 31
0.0
  0
LINE
  5
3DFA
330
1E
100
AcDbEntity
  8
3
100
AcDbLine
 10
6.842519685039369
 20
5.99803149606299
 30
0.0
 11
6.842519685039369
 21
6.005905511811022
 31
0.0
  0
LINE
  5
3DFB
330
1E
100
AcDbEntity
  8
3
100
AcDbLine
 10
6.842519685039369
 20
6.005905511811022
 30
0.0
 11
6.842519685039369
 21
6.011811023622046
 31
0.0
  0
LINE
  5
3DFC
330
1E
100
AcDbEntity
  8
3
100
AcDbLine
 10
6.842519685039369
 20
5.99803149606299
 30
0.0
 11
6.842519685039369
 21
5.964566929133857
 31
0.0
  0
LINE
  5
3DFD
330
1E
100
AcDbEntity
  8
3
100
AcDbLine
 10
6.842519685039369
 20
5.964566929133857
 30
0.0
 11
6.842519685039369
 21
5.950787401574801
 31
0.0
  0
LINE
  5
3DFE
330
1E
100
AcDbEntity
  8
3
100
AcDbLine
 10
6.303149606299212
 20
5.972440944881888
 30
0.0
 11
6.311023622047243
 21
5.976377952755903
 31
0.0
  0
LINE
  5
3DFF
330
1E
100
AcDbEntity
  8
3
100
AcDbLine
 10
6.311023622047243
 20
5.976377952755903
 30
0.0
 11
6.303149606299212
 21
5.982283464566927
 31
0.0
  0
LINE
  5
3E00
330
1E
100
AcDbEntity
  8
3
100
AcDbLine
 10
6.336614173228347
 20
6.011811023622046
 30
0.0
 11
6.322834645669291
 21
6.015748031496062
 31
0.0
  0
LINE
  5
3E01
330
1E
100
AcDbEntity
  8
3
100
AcDbLine
 10
6.322834645669291
 20
6.015748031496062
 30
0.0
 11
6.316929133858267
 21
6.025590551181101
 31
0.0
  0
LINE
  5
3E02
330
1E
100
AcDbEntity
  8
3
100
AcDbLine
 10
6.336614173228347
 20
6.011811023622046
 30
0.0
 11
6.336614173228347
 21
6.005905511811022
 31
0.0
  0
LINE
  5
3E03
330
1E
100
AcDbEntity
  8
3
100
AcDbLine
 10
6.336614173228347
 20
6.005905511811022
 30
0.0
 11
6.336614173228347
 21
5.99803149606299
 31
0.0
  0
LINE
  5
3E04
330
1E
100
AcDbEntity
  8
3
100
AcDbLine
 10
6.320866141732284
 20
5.99803149606299
 30
0.0
 11
6.322834645669291
 21
6.001968503937007
 31
0.0
  0
LINE
  5
3E05
330
1E
100
AcDbEntity
  8
3
100
AcDbLine
 10
6.322834645669291
 20
6.001968503937007
 30
0.0
 11
6.322834645669291
 21
6.007874015748031
 31
0.0
  0
LINE
  5
3E06
330
1E
100
AcDbEntity
  8
3
100
AcDbLine
 10
6.322834645669291
 20
6.007874015748031
 30
0.0
 11
6.318897637795275
 21
6.015748031496062
 31
0.0
  0
LINE
  5
3E07
330
1E
100
AcDbEntity
  8
3
100
AcDbLine
 10
6.318897637795275
 20
6.015748031496062
 30
0.0
 11
6.316929133858267
 21
6.021653543307085
 31
0.0
  0
LINE
  5
3E08
330
1E
100
AcDbEntity
  8
3
100
AcDbLine
 10
6.316929133858267
 20
6.021653543307085
 30
0.0
 11
6.316929133858267
 21
6.025590551181101
 31
0.0
  0
LINE
  5
3E09
330
1E
100
AcDbEntity
  8
3
100
AcDbLine
 10
6.336614173228347
 20
5.99803149606299
 30
0.0
 11
6.336614173228347
 21
5.964566929133857
 31
0.0
  0
LINE
  5
3E0A
330
1E
100
AcDbEntity
  8
3
100
AcDbLine
 10
6.336614173228347
 20
5.964566929133857
 30
0.0
 11
6.336614173228347
 21
5.950787401574801
 31
0.0
  0
LINE
  5
3E0B
330
1E
100
AcDbEntity
  8
3
100
AcDbLine
 10
6.320866141732284
 20
5.96062992125984
 30
0.0
 11
6.318897637795275
 21
5.96259842519685
 31
0.0
  0
LINE
  5
3E0C
330
1E
100
AcDbEntity
  8
3
100
AcDbLine
 10
6.318897637795275
 20
5.96259842519685
 30
0.0
 11
6.318897637795275
 21
5.964566929133857
 31
0.0
  0
LINE
  5
3E0D
330
1E
100
AcDbEntity
  8
3
100
AcDbLine
 10
6.318897637795275
 20
5.964566929133857
 30
0.0
 11
6.316929133858267
 21
5.974409448818896
 31
0.0
  0
LINE
  5
3E0E
330
1E
100
AcDbEntity
  8
3
100
AcDbLine
 10
6.316929133858267
 20
5.974409448818896
 30
0.0
 11
6.316929133858267
 21
5.976377952755903
 31
0.0
  0
LINE
  5
3E0F
330
1E
100
AcDbEntity
  8
3
100
AcDbLine
 10
6.316929133858267
 20
5.976377952755903
 30
0.0
 11
6.318897637795275
 21
5.988188976377951
 31
0.0
  0
LINE
  5
3E10
330
1E
100
AcDbEntity
  8
3
100
AcDbLine
 10
6.318897637795275
 20
5.988188976377951
 30
0.0
 11
6.318897637795275
 21
5.990157480314959
 31
0.0
  0
LINE
  5
3E11
330
1E
100
AcDbEntity
  8
3
100
AcDbLine
 10
6.318897637795275
 20
5.990157480314959
 30
0.0
 11
6.320866141732284
 21
5.996062992125983
 31
0.0
  0
LINE
  5
3E12
330
1E
100
AcDbEntity
  8
3
100
AcDbLine
 10
6.320866141732284
 20
5.996062992125983
 30
0.0
 11
6.320866141732284
 21
5.99803149606299
 31
0.0
  0
LINE
  5
3E13
330
1E
100
AcDbEntity
  8
3
100
AcDbLine
 10
6.368110236220473
 20
5.99803149606299
 30
0.0
 11
6.368110236220473
 21
5.964566929133857
 31
0.0
  0
LINE
  5
3E14
330
1E
100
AcDbEntity
  8
3
100
AcDbLine
 10
6.368110236220473
 20
5.964566929133857
 30
0.0
 11
6.368110236220473
 21
5.950787401574801
 31
0.0
  0
LINE
  5
3E15
330
1E
100
AcDbEntity
  8
3
100
AcDbLine
 10
6.368110236220473
 20
5.99803149606299
 30
0.0
 11
6.368110236220473
 21
6.005905511811022
 31
0.0
  0
LINE
  5
3E16
330
1E
100
AcDbEntity
  8
3
100
AcDbLine
 10
6.368110236220473
 20
6.005905511811022
 30
0.0
 11
6.368110236220473
 21
6.011811023622046
 31
0.0
  0
LINE
  5
3E17
330
1E
100
AcDbEntity
  8
3
100
AcDbLine
 10
7.720472440944882
 20
6.393700787401572
 30
0.0
 11
7.724409448818897
 21
6.393700787401572
 31
0.0
  0
LINE
  5
3E18
330
1E
100
AcDbEntity
  8
3
100
AcDbLine
 10
7.724409448818897
 20
6.393700787401572
 30
0.0
 11
7.761811023622047
 21
6.385826771653542
 31
0.0
  0
LINE
  5
3E19
330
1E
100
AcDbEntity
  8
3
100
AcDbLine
 10
7.761811023622047
 20
6.385826771653542
 30
0.0
 11
7.789370078740156
 21
6.366141732283464
 31
0.0
  0
LINE
  5
3E1A
330
1E
100
AcDbEntity
  8
3
100
AcDbLine
 10
7.789370078740156
 20
6.366141732283464
 30
0.0
 11
7.799212598425197
 21
6.340551181102361
 31
0.0
  0
LINE
  5
3E1B
330
1E
100
AcDbEntity
  8
3
100
AcDbLine
 10
6.986220472440945
 20
6.377952755905509
 30
0.0
 11
6.986220472440945
 21
6.381889763779527
 31
0.0
  0
LINE
  5
3E1C
330
1E
100
AcDbEntity
  8
3
100
AcDbLine
 10
6.986220472440945
 20
6.381889763779527
 30
0.0
 11
6.986220472440945
 21
6.383858267716535
 31
0.0
  0
LINE
  5
3E1D
330
1E
100
AcDbEntity
  8
3
100
AcDbLine
 10
6.986220472440945
 20
6.031496062992125
 30
0.0
 11
6.992125984251967
 21
6.021653543307085
 31
0.0
  0
LINE
  5
3E1E
330
1E
100
AcDbEntity
  8
3
100
AcDbLine
 10
6.992125984251967
 20
6.021653543307085
 30
0.0
 11
7.005905511811023
 21
6.01771653543307
 31
0.0
  0
LINE
  5
3E1F
330
1E
100
AcDbEntity
  8
3
100
AcDbLine
 10
6.996062992125984
 20
6.383858267716535
 30
0.0
 11
6.988188976377952
 21
6.377952755905509
 31
0.0
  0
LINE
  5
3E20
330
1E
100
AcDbEntity
  8
3
100
AcDbLine
 10
6.988188976377952
 20
6.377952755905509
 30
0.0
 11
6.986220472440945
 21
6.372047244094487
 31
0.0
  0
LINE
  5
3E21
330
1E
100
AcDbEntity
  8
3
100
AcDbLine
 10
6.986220472440945
 20
6.372047244094487
 30
0.0
 11
6.992125984251967
 21
6.362204724409446
 31
0.0
  0
LINE
  5
3E22
330
1E
100
AcDbEntity
  8
3
100
AcDbLine
 10
6.992125984251967
 20
6.362204724409446
 30
0.0
 11
7.005905511811023
 21
6.358267716535431
 31
0.0
  0
LINE
  5
3E23
330
1E
100
AcDbEntity
  8
3
100
AcDbLine
 10
7.005905511811023
 20
6.383858267716535
 30
0.0
 11
7.005905511811023
 21
6.370078740157479
 31
0.0
  0
LINE
  5
3E24
330
1E
100
AcDbEntity
  8
3
100
AcDbLine
 10
7.005905511811023
 20
6.370078740157479
 30
0.0
 11
7.005905511811023
 21
6.358267716535431
 31
0.0
  0
LINE
  5
3E25
330
1E
100
AcDbEntity
  8
3
100
AcDbLine
 10
7.799212598425197
 20
6.332677165354331
 30
0.0
 11
7.789370078740156
 21
6.358267716535431
 31
0.0
  0
LINE
  5
3E26
330
1E
100
AcDbEntity
  8
3
100
AcDbLine
 10
7.789370078740156
 20
6.358267716535431
 30
0.0
 11
7.761811023622047
 21
6.377952755905509
 31
0.0
  0
LINE
  5
3E27
330
1E
100
AcDbEntity
  8
3
100
AcDbLine
 10
7.761811023622047
 20
6.377952755905509
 30
0.0
 11
7.724409448818897
 21
6.385826771653542
 31
0.0
  0
LINE
  5
3E28
330
1E
100
AcDbEntity
  8
3
100
AcDbLine
 10
7.724409448818897
 20
6.385826771653542
 30
0.0
 11
7.724409448818897
 21
6.372047244094487
 31
0.0
  0
LINE
  5
3E29
330
1E
100
AcDbEntity
  8
3
100
AcDbLine
 10
7.724409448818897
 20
6.372047244094487
 30
0.0
 11
7.724409448818897
 21
6.358267716535431
 31
0.0
  0
LINE
  5
3E2A
330
1E
100
AcDbEntity
  8
3
100
AcDbLine
 10
7.724409448818897
 20
6.273622047244094
 30
0.0
 11
7.724409448818897
 21
6.275590551181101
 31
0.0
  0
LINE
  5
3E2B
330
1E
100
AcDbEntity
  8
3
100
AcDbLine
 10
7.724409448818897
 20
6.275590551181101
 30
0.0
 11
7.724409448818897
 21
6.279527559055116
 31
0.0
  0
LINE
  5
3E2C
330
1E
100
AcDbEntity
  8
3
100
AcDbLine
 10
7.673228346456693
 20
6.273622047244094
 30
0.0
 11
7.673228346456693
 21
6.275590551181101
 31
0.0
  0
LINE
  5
3E2D
330
1E
100
AcDbEntity
  8
3
100
AcDbLine
 10
7.673228346456693
 20
6.275590551181101
 30
0.0
 11
7.673228346456693
 21
6.279527559055116
 31
0.0
  0
LINE
  5
3E2E
330
1E
100
AcDbEntity
  8
3
100
AcDbLine
 10
7.643700787401574
 20
6.257874015748031
 30
0.0
 11
7.63779527559055
 21
6.24803149606299
 31
0.0
  0
LINE
  5
3E2F
330
1E
100
AcDbEntity
  8
3
100
AcDbLine
 10
7.63779527559055
 20
6.24803149606299
 30
0.0
 11
7.624015748031495
 21
6.244094488188975
 31
0.0
  0
LINE
  5
3E30
330
1E
100
AcDbEntity
  8
3
100
AcDbLine
 10
7.005905511811023
 20
6.01771653543307
 30
0.0
 11
7.059055118110236
 21
6.01771653543307
 31
0.0
  0
LINE
  5
3E31
330
1E
100
AcDbEntity
  8
3
100
AcDbLine
 10
7.059055118110236
 20
6.01771653543307
 30
0.0
 11
7.06496062992126
 21
6.015748031496062
 31
0.0
  0
LINE
  5
3E32
330
1E
100
AcDbEntity
  8
3
100
AcDbLine
 10
7.06496062992126
 20
6.015748031496062
 30
0.0
 11
7.066929133858267
 21
6.011811023622046
 31
0.0
  0
LINE
  5
3E33
330
1E
100
AcDbEntity
  8
3
100
AcDbLine
 10
7.724409448818897
 20
6.358267716535431
 30
0.0
 11
7.75787401574803
 21
6.350393700787401
 31
0.0
  0
LINE
  5
3E34
330
1E
100
AcDbEntity
  8
3
100
AcDbLine
 10
7.75787401574803
 20
6.350393700787401
 30
0.0
 11
7.77755905511811
 21
6.33070866141732
 31
0.0
  0
LINE
  5
3E35
330
1E
100
AcDbEntity
  8
3
100
AcDbLine
 10
7.77755905511811
 20
6.33070866141732
 30
0.0
 11
7.77755905511811
 21
6.307086614173227
 31
0.0
  0
LINE
  5
3E36
330
1E
100
AcDbEntity
  8
3
100
AcDbLine
 10
7.77755905511811
 20
6.307086614173227
 30
0.0
 11
7.75787401574803
 21
6.287401574803149
 31
0.0
  0
LINE
  5
3E37
330
1E
100
AcDbEntity
  8
3
100
AcDbLine
 10
7.75787401574803
 20
6.287401574803149
 30
0.0
 11
7.724409448818897
 21
6.279527559055116
 31
0.0
  0
LINE
  5
3E38
330
1E
100
AcDbEntity
  8
3
100
AcDbLine
 10
7.066929133858267
 20
6.0
 30
0.0
 11
7.066929133858267
 21
6.005905511811022
 31
0.0
  0
LINE
  5
3E39
330
1E
100
AcDbEntity
  8
3
100
AcDbLine
 10
7.066929133858267
 20
6.005905511811022
 30
0.0
 11
7.066929133858267
 21
6.011811023622046
 31
0.0
  0
LINE
  5
3E3A
330
1E
100
AcDbEntity
  8
3
100
AcDbLine
 10
7.118110236220473
 20
5.99803149606299
 30
0.0
 11
7.118110236220473
 21
6.005905511811022
 31
0.0
  0
LINE
  5
3E3B
330
1E
100
AcDbEntity
  8
3
100
AcDbLine
 10
7.118110236220473
 20
6.005905511811022
 30
0.0
 11
7.118110236220473
 21
6.011811023622046
 31
0.0
  0
LINE
  5
3E3C
330
1E
100
AcDbEntity
  8
3
100
AcDbLine
 10
7.118110236220473
 20
6.011811023622046
 30
0.0
 11
7.066929133858267
 21
6.011811023622046
 31
0.0
  0
LINE
  5
3E3D
330
1E
100
AcDbEntity
  8
3
100
AcDbLine
 10
7.118110236220473
 20
5.99803149606299
 30
0.0
 11
7.118110236220473
 21
5.964566929133857
 31
0.0
  0
LINE
  5
3E3E
330
1E
100
AcDbEntity
  8
3
100
AcDbLine
 10
7.118110236220473
 20
5.964566929133857
 30
0.0
 11
7.118110236220473
 21
5.950787401574801
 31
0.0
  0
LINE
  5
3E3F
330
1E
100
AcDbEntity
  8
3
100
AcDbLine
 10
7.65748031496063
 20
5.972440944881888
 30
0.0
 11
7.649606299212599
 21
5.976377952755903
 31
0.0
  0
LINE
  5
3E40
330
1E
100
AcDbEntity
  8
3
100
AcDbLine
 10
7.649606299212599
 20
5.976377952755903
 30
0.0
 11
7.65748031496063
 21
5.982283464566927
 31
0.0
  0
LINE
  5
3E41
330
1E
100
AcDbEntity
  8
3
100
AcDbLine
 10
7.624015748031495
 20
6.011811023622046
 30
0.0
 11
7.624015748031495
 21
6.005905511811022
 31
0.0
  0
LINE
  5
3E42
330
1E
100
AcDbEntity
  8
3
100
AcDbLine
 10
7.624015748031495
 20
6.005905511811022
 30
0.0
 11
7.624015748031495
 21
5.99803149606299
 31
0.0
  0
LINE
  5
3E43
330
1E
100
AcDbEntity
  8
3
100
AcDbLine
 10
7.624015748031495
 20
6.011811023622046
 30
0.0
 11
7.63779527559055
 21
6.015748031496062
 31
0.0
  0
LINE
  5
3E44
330
1E
100
AcDbEntity
  8
3
100
AcDbLine
 10
7.63779527559055
 20
6.015748031496062
 30
0.0
 11
7.643700787401574
 21
6.025590551181101
 31
0.0
  0
LINE
  5
3E45
330
1E
100
AcDbEntity
  8
3
100
AcDbLine
 10
7.639763779527558
 20
5.99803149606299
 30
0.0
 11
7.63779527559055
 21
6.001968503937007
 31
0.0
  0
LINE
  5
3E46
330
1E
100
AcDbEntity
  8
3
100
AcDbLine
 10
7.63779527559055
 20
6.001968503937007
 30
0.0
 11
7.63779527559055
 21
6.007874015748031
 31
0.0
  0
LINE
  5
3E47
330
1E
100
AcDbEntity
  8
3
100
AcDbLine
 10
7.63779527559055
 20
6.007874015748031
 30
0.0
 11
7.641732283464567
 21
6.015748031496062
 31
0.0
  0
LINE
  5
3E48
330
1E
100
AcDbEntity
  8
3
100
AcDbLine
 10
7.641732283464567
 20
6.015748031496062
 30
0.0
 11
7.643700787401574
 21
6.021653543307085
 31
0.0
  0
LINE
  5
3E49
330
1E
100
AcDbEntity
  8
3
100
AcDbLine
 10
7.639763779527558
 20
5.96062992125984
 30
0.0
 11
7.641732283464567
 21
5.96259842519685
 31
0.0
  0
LINE
  5
3E4A
330
1E
100
AcDbEntity
  8
3
100
AcDbLine
 10
7.641732283464567
 20
5.96259842519685
 30
0.0
 11
7.641732283464567
 21
5.964566929133857
 31
0.0
  0
LINE
  5
3E4B
330
1E
100
AcDbEntity
  8
3
100
AcDbLine
 10
7.641732283464567
 20
5.964566929133857
 30
0.0
 11
7.643700787401574
 21
5.974409448818896
 31
0.0
  0
LINE
  5
3E4C
330
1E
100
AcDbEntity
  8
3
100
AcDbLine
 10
7.643700787401574
 20
5.974409448818896
 30
0.0
 11
7.643700787401574
 21
5.976377952755903
 31
0.0
  0
LINE
  5
3E4D
330
1E
100
AcDbEntity
  8
3
100
AcDbLine
 10
7.643700787401574
 20
5.976377952755903
 30
0.0
 11
7.641732283464567
 21
5.988188976377951
 31
0.0
  0
LINE
  5
3E4E
330
1E
100
AcDbEntity
  8
3
100
AcDbLine
 10
7.641732283464567
 20
5.988188976377951
 30
0.0
 11
7.641732283464567
 21
5.990157480314959
 31
0.0
  0
LINE
  5
3E4F
330
1E
100
AcDbEntity
  8
3
100
AcDbLine
 10
7.641732283464567
 20
5.990157480314959
 30
0.0
 11
7.639763779527558
 21
5.996062992125983
 31
0.0
  0
LINE
  5
3E50
330
1E
100
AcDbEntity
  8
3
100
AcDbLine
 10
7.639763779527558
 20
5.996062992125983
 30
0.0
 11
7.639763779527558
 21
5.99803149606299
 31
0.0
  0
LINE
  5
3E51
330
1E
100
AcDbEntity
  8
3
100
AcDbLine
 10
7.639763779527558
 20
5.99803149606299
 30
0.0
 11
7.631889763779526
 21
5.99803149606299
 31
0.0
  0
LINE
  5
3E52
330
1E
100
AcDbEntity
  8
3
100
AcDbLine
 10
7.631889763779526
 20
5.99803149606299
 30
0.0
 11
7.624015748031495
 21
5.99803149606299
 31
0.0
  0
LINE
  5
3E53
330
1E
100
AcDbEntity
  8
3
100
AcDbLine
 10
7.624015748031495
 20
5.99803149606299
 30
0.0
 11
7.624015748031495
 21
5.964566929133857
 31
0.0
  0
LINE
  5
3E54
330
1E
100
AcDbEntity
  8
3
100
AcDbLine
 10
7.624015748031495
 20
5.964566929133857
 30
0.0
 11
7.624015748031495
 21
5.950787401574801
 31
0.0
  0
LINE
  5
3E55
330
1E
100
AcDbEntity
  8
3
100
AcDbLine
 10
7.592519685039369
 20
5.99803149606299
 30
0.0
 11
7.592519685039369
 21
6.005905511811022
 31
0.0
  0
LINE
  5
3E56
330
1E
100
AcDbEntity
  8
3
100
AcDbLine
 10
7.592519685039369
 20
6.005905511811022
 30
0.0
 11
7.592519685039369
 21
6.011811023622046
 31
0.0
  0
LINE
  5
3E57
330
1E
100
AcDbEntity
  8
3
100
AcDbLine
 10
7.592519685039369
 20
5.99803149606299
 30
0.0
 11
7.592519685039369
 21
5.964566929133857
 31
0.0
  0
LINE
  5
3E58
330
1E
100
AcDbEntity
  8
3
100
AcDbLine
 10
7.592519685039369
 20
5.964566929133857
 30
0.0
 11
7.592519685039369
 21
5.950787401574801
 31
0.0
  0
LINE
  5
3E59
330
1E
100
AcDbEntity
  8
3
100
AcDbLine
 10
5.362204724409449
 20
6.393700787401572
 30
0.0
 11
5.399606299212599
 21
6.385826771653542
 31
0.0
  0
LINE
  5
3E5A
330
1E
100
AcDbEntity
  8
3
100
AcDbLine
 10
5.399606299212599
 20
6.385826771653542
 30
0.0
 11
5.427165354330708
 21
6.366141732283464
 31
0.0
  0
LINE
  5
3E5B
330
1E
100
AcDbEntity
  8
3
100
AcDbLine
 10
5.427165354330708
 20
6.366141732283464
 30
0.0
 11
5.437007874015747
 21
6.340551181102361
 31
0.0
  0
LINE
  5
3E5C
330
1E
100
AcDbEntity
  8
3
100
AcDbLine
 10
5.358267716535432
 20
6.393700787401572
 30
0.0
 11
5.362204724409449
 21
6.393700787401572
 31
0.0
  0
LINE
  5
3E5D
330
1E
100
AcDbEntity
  8
3
100
AcDbLine
 10
5.362204724409449
 20
6.393700787401572
 30
0.0
 11
5.362204724409449
 21
6.395669291338583
 31
0.0
  0
LINE
  5
3E5E
330
1E
100
AcDbEntity
  8
3
100
AcDbLine
 10
4.624015748031495
 20
6.377952755905509
 30
0.0
 11
4.624015748031495
 21
6.381889763779527
 31
0.0
  0
LINE
  5
3E5F
330
1E
100
AcDbEntity
  8
3
100
AcDbLine
 10
4.624015748031495
 20
6.381889763779527
 30
0.0
 11
4.624015748031495
 21
6.383858267716535
 31
0.0
  0
LINE
  5
3E60
330
1E
100
AcDbEntity
  8
3
100
AcDbLine
 10
4.624015748031495
 20
6.031496062992125
 30
0.0
 11
4.629921259842519
 21
6.021653543307085
 31
0.0
  0
LINE
  5
3E61
330
1E
100
AcDbEntity
  8
3
100
AcDbLine
 10
4.629921259842519
 20
6.021653543307085
 30
0.0
 11
4.643700787401574
 21
6.01771653543307
 31
0.0
  0
LINE
  5
3E62
330
1E
100
AcDbEntity
  8
3
100
AcDbLine
 10
4.624015748031495
 20
6.372047244094487
 30
0.0
 11
4.629921259842519
 21
6.362204724409446
 31
0.0
  0
LINE
  5
3E63
330
1E
100
AcDbEntity
  8
3
100
AcDbLine
 10
4.629921259842519
 20
6.362204724409446
 30
0.0
 11
4.643700787401574
 21
6.358267716535431
 31
0.0
  0
LINE
  5
3E64
330
1E
100
AcDbEntity
  8
3
100
AcDbLine
 10
4.633858267716536
 20
6.383858267716535
 30
0.0
 11
4.625984251968504
 21
6.377952755905509
 31
0.0
  0
LINE
  5
3E65
330
1E
100
AcDbEntity
  8
3
100
AcDbLine
 10
4.625984251968504
 20
6.377952755905509
 30
0.0
 11
4.624015748031495
 21
6.372047244094487
 31
0.0
  0
LINE
  5
3E66
330
1E
100
AcDbEntity
  8
3
100
AcDbLine
 10
4.643700787401574
 20
6.383858267716535
 30
0.0
 11
4.643700787401574
 21
6.370078740157479
 31
0.0
  0
LINE
  5
3E67
330
1E
100
AcDbEntity
  8
3
100
AcDbLine
 10
4.643700787401574
 20
6.370078740157479
 30
0.0
 11
4.643700787401574
 21
6.358267716535431
 31
0.0
  0
LINE
  5
3E68
330
1E
100
AcDbEntity
  8
3
100
AcDbLine
 10
5.437007874015747
 20
6.332677165354331
 30
0.0
 11
5.427165354330708
 21
6.358267716535431
 31
0.0
  0
LINE
  5
3E69
330
1E
100
AcDbEntity
  8
3
100
AcDbLine
 10
5.427165354330708
 20
6.358267716535431
 30
0.0
 11
5.399606299212599
 21
6.377952755905509
 31
0.0
  0
LINE
  5
3E6A
330
1E
100
AcDbEntity
  8
3
100
AcDbLine
 10
5.399606299212599
 20
6.377952755905509
 30
0.0
 11
5.362204724409449
 21
6.385826771653542
 31
0.0
  0
LINE
  5
3E6B
330
1E
100
AcDbEntity
  8
3
100
AcDbLine
 10
5.362204724409449
 20
6.385826771653542
 30
0.0
 11
5.362204724409449
 21
6.372047244094487
 31
0.0
  0
LINE
  5
3E6C
330
1E
100
AcDbEntity
  8
3
100
AcDbLine
 10
5.362204724409449
 20
6.372047244094487
 30
0.0
 11
5.362204724409449
 21
6.358267716535431
 31
0.0
  0
LINE
  5
3E6D
330
1E
100
AcDbEntity
  8
3
100
AcDbLine
 10
5.362204724409449
 20
6.273622047244094
 30
0.0
 11
5.362204724409449
 21
6.275590551181101
 31
0.0
  0
LINE
  5
3E6E
330
1E
100
AcDbEntity
  8
3
100
AcDbLine
 10
5.362204724409449
 20
6.275590551181101
 30
0.0
 11
5.362204724409449
 21
6.279527559055116
 31
0.0
  0
LINE
  5
3E6F
330
1E
100
AcDbEntity
  8
3
100
AcDbLine
 10
5.311023622047243
 20
6.273622047244094
 30
0.0
 11
5.311023622047243
 21
6.275590551181101
 31
0.0
  0
LINE
  5
3E70
330
1E
100
AcDbEntity
  8
3
100
AcDbLine
 10
5.311023622047243
 20
6.275590551181101
 30
0.0
 11
5.311023622047243
 21
6.279527559055116
 31
0.0
  0
LINE
  5
3E71
330
1E
100
AcDbEntity
  8
3
100
AcDbLine
 10
5.281496062992125
 20
6.257874015748031
 30
0.0
 11
5.275590551181102
 21
6.24803149606299
 31
0.0
  0
LINE
  5
3E72
330
1E
100
AcDbEntity
  8
3
100
AcDbLine
 10
5.275590551181102
 20
6.24803149606299
 30
0.0
 11
5.261811023622047
 21
6.244094488188975
 31
0.0
  0
LINE
  5
3E73
330
1E
100
AcDbEntity
  8
3
100
AcDbLine
 10
4.643700787401574
 20
6.01771653543307
 30
0.0
 11
4.698818897637795
 21
6.01771653543307
 31
0.0
  0
LINE
  5
3E74
330
1E
100
AcDbEntity
  8
3
100
AcDbLine
 10
4.698818897637795
 20
6.01771653543307
 30
0.0
 11
4.70275590551181
 21
6.015748031496062
 31
0.0
  0
LINE
  5
3E75
330
1E
100
AcDbEntity
  8
3
100
AcDbLine
 10
4.70275590551181
 20
6.015748031496062
 30
0.0
 11
4.706692913385826
 21
6.011811023622046
 31
0.0
  0
LINE
  5
3E76
330
1E
100
AcDbEntity
  8
3
100
AcDbLine
 10
5.362204724409449
 20
6.358267716535431
 30
0.0
 11
5.395669291338582
 21
6.350393700787401
 31
0.0
  0
LINE
  5
3E77
330
1E
100
AcDbEntity
  8
3
100
AcDbLine
 10
5.395669291338582
 20
6.350393700787401
 30
0.0
 11
5.415354330708662
 21
6.33070866141732
 31
0.0
  0
LINE
  5
3E78
330
1E
100
AcDbEntity
  8
3
100
AcDbLine
 10
5.415354330708662
 20
6.33070866141732
 30
0.0
 11
5.415354330708662
 21
6.307086614173227
 31
0.0
  0
LINE
  5
3E79
330
1E
100
AcDbEntity
  8
3
100
AcDbLine
 10
5.415354330708662
 20
6.307086614173227
 30
0.0
 11
5.395669291338582
 21
6.287401574803149
 31
0.0
  0
LINE
  5
3E7A
330
1E
100
AcDbEntity
  8
3
100
AcDbLine
 10
5.395669291338582
 20
6.287401574803149
 30
0.0
 11
5.362204724409449
 21
6.279527559055116
 31
0.0
  0
LINE
  5
3E7B
330
1E
100
AcDbEntity
  8
3
100
AcDbLine
 10
5.311023622047243
 20
6.279527559055116
 30
0.0
 11
5.275590551181102
 21
6.269685039370079
 31
0.0
  0
LINE
  5
3E7C
330
1E
100
AcDbEntity
  8
3
100
AcDbLine
 10
5.275590551181102
 20
6.269685039370079
 30
0.0
 11
5.261811023622047
 21
6.244094488188975
 31
0.0
  0
LINE
  5
3E7D
330
1E
100
AcDbEntity
  8
3
100
AcDbLine
 10
4.706692913385826
 20
6.0
 30
0.0
 11
4.706692913385826
 21
6.005905511811022
 31
0.0
  0
LINE
  5
3E7E
330
1E
100
AcDbEntity
  8
3
100
AcDbLine
 10
4.706692913385826
 20
6.005905511811022
 30
0.0
 11
4.706692913385826
 21
6.011811023622046
 31
0.0
  0
LINE
  5
3E7F
330
1E
100
AcDbEntity
  8
3
100
AcDbLine
 10
4.755905511811023
 20
6.005905511811022
 30
0.0
 11
4.755905511811023
 21
6.011811023622046
 31
0.0
  0
LINE
  5
3E80
330
1E
100
AcDbEntity
  8
3
100
AcDbLine
 10
4.755905511811023
 20
6.011811023622046
 30
0.0
 11
4.706692913385826
 21
6.011811023622046
 31
0.0
  0
LINE
  5
3E81
330
1E
100
AcDbEntity
  8
3
100
AcDbLine
 10
4.755905511811023
 20
5.99803149606299
 30
0.0
 11
4.755905511811023
 21
5.964566929133857
 31
0.0
  0
LINE
  5
3E82
330
1E
100
AcDbEntity
  8
3
100
AcDbLine
 10
4.755905511811023
 20
5.964566929133857
 30
0.0
 11
4.755905511811023
 21
5.950787401574801
 31
0.0
  0
LINE
  5
3E83
330
1E
100
AcDbEntity
  8
3
100
AcDbLine
 10
5.29527559055118
 20
5.972440944881888
 30
0.0
 11
5.287401574803149
 21
5.976377952755903
 31
0.0
  0
LINE
  5
3E84
330
1E
100
AcDbEntity
  8
3
100
AcDbLine
 10
5.287401574803149
 20
5.976377952755903
 30
0.0
 11
5.29527559055118
 21
5.982283464566927
 31
0.0
  0
LINE
  5
3E85
330
1E
100
AcDbEntity
  8
3
100
AcDbLine
 10
5.261811023622047
 20
6.011811023622046
 30
0.0
 11
5.261811023622047
 21
6.005905511811022
 31
0.0
  0
LINE
  5
3E86
330
1E
100
AcDbEntity
  8
3
100
AcDbLine
 10
5.261811023622047
 20
6.005905511811022
 30
0.0
 11
5.261811023622047
 21
5.99803149606299
 31
0.0
  0
LINE
  5
3E87
330
1E
100
AcDbEntity
  8
3
100
AcDbLine
 10
5.261811023622047
 20
6.011811023622046
 30
0.0
 11
5.275590551181102
 21
6.015748031496062
 31
0.0
  0
LINE
  5
3E88
330
1E
100
AcDbEntity
  8
3
100
AcDbLine
 10
5.275590551181102
 20
6.015748031496062
 30
0.0
 11
5.281496062992125
 21
6.025590551181101
 31
0.0
  0
LINE
  5
3E89
330
1E
100
AcDbEntity
  8
3
100
AcDbLine
 10
5.27755905511811
 20
5.99803149606299
 30
0.0
 11
5.275590551181102
 21
6.001968503937007
 31
0.0
  0
LINE
  5
3E8A
330
1E
100
AcDbEntity
  8
3
100
AcDbLine
 10
5.275590551181102
 20
6.001968503937007
 30
0.0
 11
5.275590551181102
 21
6.007874015748031
 31
0.0
  0
LINE
  5
3E8B
330
1E
100
AcDbEntity
  8
3
100
AcDbLine
 10
5.275590551181102
 20
6.007874015748031
 30
0.0
 11
5.279527559055117
 21
6.015748031496062
 31
0.0
  0
LINE
  5
3E8C
330
1E
100
AcDbEntity
  8
3
100
AcDbLine
 10
5.279527559055117
 20
6.015748031496062
 30
0.0
 11
5.281496062992125
 21
6.021653543307085
 31
0.0
  0
LINE
  5
3E8D
330
1E
100
AcDbEntity
  8
3
100
AcDbLine
 10
5.281496062992125
 20
6.021653543307085
 30
0.0
 11
5.281496062992125
 21
6.025590551181101
 31
0.0
  0
LINE
  5
3E8E
330
1E
100
AcDbEntity
  8
3
100
AcDbLine
 10
5.27755905511811
 20
5.96062992125984
 30
0.0
 11
5.279527559055117
 21
5.96259842519685
 31
0.0
  0
LINE
  5
3E8F
330
1E
100
AcDbEntity
  8
3
100
AcDbLine
 10
5.279527559055117
 20
5.96259842519685
 30
0.0
 11
5.279527559055117
 21
5.964566929133857
 31
0.0
  0
LINE
  5
3E90
330
1E
100
AcDbEntity
  8
3
100
AcDbLine
 10
5.279527559055117
 20
5.964566929133857
 30
0.0
 11
5.281496062992125
 21
5.974409448818896
 31
0.0
  0
LINE
  5
3E91
330
1E
100
AcDbEntity
  8
3
100
AcDbLine
 10
5.281496062992125
 20
5.974409448818896
 30
0.0
 11
5.281496062992125
 21
5.976377952755903
 31
0.0
  0
LINE
  5
3E92
330
1E
100
AcDbEntity
  8
3
100
AcDbLine
 10
5.281496062992125
 20
5.976377952755903
 30
0.0
 11
5.279527559055117
 21
5.988188976377951
 31
0.0
  0
LINE
  5
3E93
330
1E
100
AcDbEntity
  8
3
100
AcDbLine
 10
5.279527559055117
 20
5.988188976377951
 30
0.0
 11
5.279527559055117
 21
5.990157480314959
 31
0.0
  0
LINE
  5
3E94
330
1E
100
AcDbEntity
  8
3
100
AcDbLine
 10
5.27755905511811
 20
5.99803149606299
 30
0.0
 11
5.269685039370078
 21
5.99803149606299
 31
0.0
  0
LINE
  5
3E95
330
1E
100
AcDbEntity
  8
3
100
AcDbLine
 10
5.269685039370078
 20
5.99803149606299
 30
0.0
 11
5.261811023622047
 21
5.99803149606299
 31
0.0
  0
LINE
  5
3E96
330
1E
100
AcDbEntity
  8
3
100
AcDbLine
 10
5.261811023622047
 20
5.99803149606299
 30
0.0
 11
5.261811023622047
 21
5.964566929133857
 31
0.0
  0
LINE
  5
3E97
330
1E
100
AcDbEntity
  8
3
100
AcDbLine
 10
5.261811023622047
 20
5.964566929133857
 30
0.0
 11
5.261811023622047
 21
5.950787401574801
 31
0.0
  0
LINE
  5
3E98
330
1E
100
AcDbEntity
  8
3
100
AcDbLine
 10
5.279527559055117
 20
5.990157480314959
 30
0.0
 11
5.27755905511811
 21
5.996062992125983
 31
0.0
  0
LINE
  5
3E99
330
1E
100
AcDbEntity
  8
3
100
AcDbLine
 10
5.27755905511811
 20
5.996062992125983
 30
0.0
 11
5.27755905511811
 21
5.99803149606299
 31
0.0
  0
LINE
  5
3E9A
330
1E
100
AcDbEntity
  8
3
100
AcDbLine
 10
5.232283464566928
 20
5.99803149606299
 30
0.0
 11
5.232283464566928
 21
6.005905511811022
 31
0.0
  0
LINE
  5
3E9B
330
1E
100
AcDbEntity
  8
3
100
AcDbLine
 10
5.232283464566928
 20
6.005905511811022
 30
0.0
 11
5.232283464566928
 21
6.011811023622046
 31
0.0
  0
LINE
  5
3E9C
330
1E
100
AcDbEntity
  8
3
100
AcDbLine
 10
5.232283464566928
 20
5.99803149606299
 30
0.0
 11
5.232283464566928
 21
5.964566929133857
 31
0.0
  0
LINE
  5
3E9D
330
1E
100
AcDbEntity
  8
3
100
AcDbLine
 10
5.232283464566928
 20
5.964566929133857
 30
0.0
 11
5.232283464566928
 21
5.950787401574801
 31
0.0
  0
LINE
  5
3E9E
330
1E
100
AcDbEntity
  8
3
100
AcDbLine
 10
3.879921259842519
 20
6.393700787401572
 30
0.0
 11
3.874015748031495
 21
6.393700787401572
 31
0.0
  0
LINE
  5
3E9F
330
1E
100
AcDbEntity
  8
3
100
AcDbLine
 10
3.874015748031495
 20
6.393700787401572
 30
0.0
 11
3.836614173228347
 21
6.385826771653542
 31
0.0
  0
LINE
  5
3EA0
330
1E
100
AcDbEntity
  8
3
100
AcDbLine
 10
3.836614173228347
 20
6.385826771653542
 30
0.0
 11
3.809055118110236
 21
6.366141732283464
 31
0.0
  0
LINE
  5
3EA1
330
1E
100
AcDbEntity
  8
3
100
AcDbLine
 10
4.614173228346456
 20
6.377952755905509
 30
0.0
 11
4.612204724409449
 21
6.381889763779527
 31
0.0
  0
LINE
  5
3EA2
330
1E
100
AcDbEntity
  8
3
100
AcDbLine
 10
4.612204724409449
 20
6.381889763779527
 30
0.0
 11
4.612204724409449
 21
6.383858267716535
 31
0.0
  0
LINE
  5
3EA3
330
1E
100
AcDbEntity
  8
3
100
AcDbLine
 10
4.614173228346456
 20
6.031496062992125
 30
0.0
 11
4.608267716535432
 21
6.021653543307085
 31
0.0
  0
LINE
  5
3EA4
330
1E
100
AcDbEntity
  8
3
100
AcDbLine
 10
4.608267716535432
 20
6.021653543307085
 30
0.0
 11
4.592519685039369
 21
6.01771653543307
 31
0.0
  0
LINE
  5
3EA5
330
1E
100
AcDbEntity
  8
3
100
AcDbLine
 10
4.604330708661417
 20
6.383858267716535
 30
0.0
 11
4.610236220472441
 21
6.377952755905509
 31
0.0
  0
LINE
  5
3EA6
330
1E
100
AcDbEntity
  8
3
100
AcDbLine
 10
4.610236220472441
 20
6.377952755905509
 30
0.0
 11
4.614173228346456
 21
6.372047244094487
 31
0.0
  0
LINE
  5
3EA7
330
1E
100
AcDbEntity
  8
3
100
AcDbLine
 10
4.614173228346456
 20
6.372047244094487
 30
0.0
 11
4.608267716535432
 21
6.362204724409446
 31
0.0
  0
LINE
  5
3EA8
330
1E
100
AcDbEntity
  8
3
100
AcDbLine
 10
4.608267716535432
 20
6.362204724409446
 30
0.0
 11
4.592519685039369
 21
6.358267716535431
 31
0.0
  0
LINE
  5
3EA9
330
1E
100
AcDbEntity
  8
3
100
AcDbLine
 10
4.592519685039369
 20
6.383858267716535
 30
0.0
 11
4.592519685039369
 21
6.370078740157479
 31
0.0
  0
LINE
  5
3EAA
330
1E
100
AcDbEntity
  8
3
100
AcDbLine
 10
4.592519685039369
 20
6.370078740157479
 30
0.0
 11
4.592519685039369
 21
6.358267716535431
 31
0.0
  0
LINE
  5
3EAB
330
1E
100
AcDbEntity
  8
3
100
AcDbLine
 10
3.809055118110236
 20
6.358267716535431
 30
0.0
 11
3.836614173228347
 21
6.377952755905509
 31
0.0
  0
LINE
  5
3EAC
330
1E
100
AcDbEntity
  8
3
100
AcDbLine
 10
3.836614173228347
 20
6.377952755905509
 30
0.0
 11
3.874015748031495
 21
6.385826771653542
 31
0.0
  0
LINE
  5
3EAD
330
1E
100
AcDbEntity
  8
3
100
AcDbLine
 10
3.874015748031495
 20
6.385826771653542
 30
0.0
 11
3.874015748031495
 21
6.372047244094487
 31
0.0
  0
LINE
  5
3EAE
330
1E
100
AcDbEntity
  8
3
100
AcDbLine
 10
3.874015748031495
 20
6.372047244094487
 30
0.0
 11
3.874015748031495
 21
6.358267716535431
 31
0.0
  0
LINE
  5
3EAF
330
1E
100
AcDbEntity
  8
3
100
AcDbLine
 10
3.874015748031495
 20
6.273622047244094
 30
0.0
 11
3.874015748031495
 21
6.275590551181101
 31
0.0
  0
LINE
  5
3EB0
330
1E
100
AcDbEntity
  8
3
100
AcDbLine
 10
3.874015748031495
 20
6.275590551181101
 30
0.0
 11
3.874015748031495
 21
6.279527559055116
 31
0.0
  0
LINE
  5
3EB1
330
1E
100
AcDbEntity
  8
3
100
AcDbLine
 10
3.9251968503937
 20
6.273622047244094
 30
0.0
 11
3.9251968503937
 21
6.275590551181101
 31
0.0
  0
LINE
  5
3EB2
330
1E
100
AcDbEntity
  8
3
100
AcDbLine
 10
3.9251968503937
 20
6.275590551181101
 30
0.0
 11
3.9251968503937
 21
6.279527559055116
 31
0.0
  0
LINE
  5
3EB3
330
1E
100
AcDbEntity
  8
3
100
AcDbLine
 10
3.954724409448819
 20
6.257874015748031
 30
0.0
 11
3.960629921259841
 21
6.24803149606299
 31
0.0
  0
LINE
  5
3EB4
330
1E
100
AcDbEntity
  8
3
100
AcDbLine
 10
3.960629921259841
 20
6.24803149606299
 30
0.0
 11
3.976377952755904
 21
6.244094488188975
 31
0.0
  0
LINE
  5
3EB5
330
1E
100
AcDbEntity
  8
3
100
AcDbLine
 10
4.592519685039369
 20
6.01771653543307
 30
0.0
 11
4.592519685039369
 21
6.358267716535431
 31
0.0
  0
LINE
  5
3EB6
330
1E
100
AcDbEntity
  8
3
100
AcDbLine
 10
4.592519685039369
 20
6.358267716535431
 30
0.0
 11
3.874015748031495
 21
6.358267716535431
 31
0.0
  0
LINE
  5
3EB7
330
1E
100
AcDbEntity
  8
3
100
AcDbLine
 10
3.874015748031495
 20
6.358267716535431
 30
0.0
 11
3.842519685039369
 21
6.350393700787401
 31
0.0
  0
LINE
  5
3EB8
330
1E
100
AcDbEntity
  8
3
100
AcDbLine
 10
3.842519685039369
 20
6.350393700787401
 30
0.0
 11
3.820866141732284
 21
6.33070866141732
 31
0.0
  0
LINE
  5
3EB9
330
1E
100
AcDbEntity
  8
3
100
AcDbLine
 10
3.820866141732284
 20
6.33070866141732
 30
0.0
 11
3.820866141732284
 21
6.307086614173227
 31
0.0
  0
LINE
  5
3EBA
330
1E
100
AcDbEntity
  8
3
100
AcDbLine
 10
3.820866141732284
 20
6.307086614173227
 30
0.0
 11
3.842519685039369
 21
6.287401574803149
 31
0.0
  0
LINE
  5
3EBB
330
1E
100
AcDbEntity
  8
3
100
AcDbLine
 10
3.842519685039369
 20
6.287401574803149
 30
0.0
 11
3.874015748031495
 21
6.279527559055116
 31
0.0
  0
LINE
  5
3EBC
330
1E
100
AcDbEntity
  8
3
100
AcDbLine
 10
3.874015748031495
 20
6.279527559055116
 30
0.0
 11
3.9251968503937
 21
6.279527559055116
 31
0.0
  0
LINE
  5
3EBD
330
1E
100
AcDbEntity
  8
3
100
AcDbLine
 10
3.9251968503937
 20
6.279527559055116
 30
0.0
 11
3.960629921259841
 21
6.269685039370079
 31
0.0
  0
LINE
  5
3EBE
330
1E
100
AcDbEntity
  8
3
100
AcDbLine
 10
3.960629921259841
 20
6.269685039370079
 30
0.0
 11
3.976377952755904
 21
6.244094488188975
 31
0.0
  0
LINE
  5
3EBF
330
1E
100
AcDbEntity
  8
3
100
AcDbLine
 10
3.976377952755904
 20
6.244094488188975
 30
0.0
 11
3.976377952755904
 21
6.011811023622046
 31
0.0
  0
LINE
  5
3EC0
330
1E
100
AcDbEntity
  8
3
100
AcDbLine
 10
4.539370078740156
 20
6.01771653543307
 30
0.0
 11
4.533464566929134
 21
6.015748031496062
 31
0.0
  0
LINE
  5
3EC1
330
1E
100
AcDbEntity
  8
3
100
AcDbLine
 10
4.533464566929134
 20
6.015748031496062
 30
0.0
 11
4.531496062992125
 21
6.011811023622046
 31
0.0
  0
LINE
  5
3EC2
330
1E
100
AcDbEntity
  8
3
100
AcDbLine
 10
4.531496062992125
 20
6.0
 30
0.0
 11
4.531496062992125
 21
6.005905511811022
 31
0.0
  0
LINE
  5
3EC3
330
1E
100
AcDbEntity
  8
3
100
AcDbLine
 10
4.531496062992125
 20
6.005905511811022
 30
0.0
 11
4.531496062992125
 21
6.011811023622046
 31
0.0
  0
LINE
  5
3EC4
330
1E
100
AcDbEntity
  8
3
100
AcDbLine
 10
4.480314960629921
 20
5.99803149606299
 30
0.0
 11
4.480314960629921
 21
6.005905511811022
 31
0.0
  0
LINE
  5
3EC5
330
1E
100
AcDbEntity
  8
3
100
AcDbLine
 10
4.480314960629921
 20
6.005905511811022
 30
0.0
 11
4.480314960629921
 21
6.011811023622046
 31
0.0
  0
LINE
  5
3EC6
330
1E
100
AcDbEntity
  8
3
100
AcDbLine
 10
4.480314960629921
 20
5.99803149606299
 30
0.0
 11
4.480314960629921
 21
5.964566929133857
 31
0.0
  0
LINE
  5
3EC7
330
1E
100
AcDbEntity
  8
3
100
AcDbLine
 10
4.480314960629921
 20
5.964566929133857
 30
0.0
 11
4.480314960629921
 21
5.950787401574801
 31
0.0
  0
LINE
  5
3EC8
330
1E
100
AcDbEntity
  8
3
100
AcDbLine
 10
3.940944881889763
 20
5.972440944881888
 30
0.0
 11
3.948818897637795
 21
5.976377952755903
 31
0.0
  0
LINE
  5
3EC9
330
1E
100
AcDbEntity
  8
3
100
AcDbLine
 10
3.948818897637795
 20
5.976377952755903
 30
0.0
 11
3.940944881889763
 21
5.982283464566927
 31
0.0
  0
LINE
  5
3ECA
330
1E
100
AcDbEntity
  8
3
100
AcDbLine
 10
3.976377952755904
 20
6.011811023622046
 30
0.0
 11
3.960629921259841
 21
6.015748031496062
 31
0.0
  0
LINE
  5
3ECB
330
1E
100
AcDbEntity
  8
3
100
AcDbLine
 10
3.960629921259841
 20
6.015748031496062
 30
0.0
 11
3.954724409448819
 21
6.025590551181101
 31
0.0
  0
LINE
  5
3ECC
330
1E
100
AcDbEntity
  8
3
100
AcDbLine
 10
3.976377952755904
 20
6.011811023622046
 30
0.0
 11
3.976377952755904
 21
6.005905511811022
 31
0.0
  0
LINE
  5
3ECD
330
1E
100
AcDbEntity
  8
3
100
AcDbLine
 10
3.976377952755904
 20
6.005905511811022
 30
0.0
 11
3.976377952755904
 21
5.99803149606299
 31
0.0
  0
LINE
  5
3ECE
330
1E
100
AcDbEntity
  8
3
100
AcDbLine
 10
3.958661417322834
 20
5.99803149606299
 30
0.0
 11
3.960629921259841
 21
5.99803149606299
 31
0.0
  0
LINE
  5
3ECF
330
1E
100
AcDbEntity
  8
3
100
AcDbLine
 10
3.960629921259841
 20
5.99803149606299
 30
0.0
 11
3.960629921259841
 21
6.001968503937007
 31
0.0
  0
LINE
  5
3ED0
330
1E
100
AcDbEntity
  8
3
100
AcDbLine
 10
3.960629921259841
 20
6.001968503937007
 30
0.0
 11
3.960629921259841
 21
6.007874015748031
 31
0.0
  0
LINE
  5
3ED1
330
1E
100
AcDbEntity
  8
3
100
AcDbLine
 10
3.960629921259841
 20
6.007874015748031
 30
0.0
 11
3.956692913385826
 21
6.015748031496062
 31
0.0
  0
LINE
  5
3ED2
330
1E
100
AcDbEntity
  8
3
100
AcDbLine
 10
3.956692913385826
 20
6.015748031496062
 30
0.0
 11
3.954724409448819
 21
6.021653543307085
 31
0.0
  0
LINE
  5
3ED3
330
1E
100
AcDbEntity
  8
3
100
AcDbLine
 10
3.958661417322834
 20
5.99803149606299
 30
0.0
 11
3.966535433070865
 21
5.99803149606299
 31
0.0
  0
LINE
  5
3ED4
330
1E
100
AcDbEntity
  8
3
100
AcDbLine
 10
3.966535433070865
 20
5.99803149606299
 30
0.0
 11
3.976377952755904
 21
5.99803149606299
 31
0.0
  0
LINE
  5
3ED5
330
1E
100
AcDbEntity
  8
3
100
AcDbLine
 10
3.976377952755904
 20
5.99803149606299
 30
0.0
 11
3.976377952755904
 21
5.964566929133857
 31
0.0
  0
LINE
  5
3ED6
330
1E
100
AcDbEntity
  8
3
100
AcDbLine
 10
3.976377952755904
 20
5.964566929133857
 30
0.0
 11
3.976377952755904
 21
5.950787401574801
 31
0.0
  0
LINE
  5
3ED7
330
1E
100
AcDbEntity
  8
3
100
AcDbLine
 10
3.958661417322834
 20
5.96062992125984
 30
0.0
 11
3.956692913385826
 21
5.96259842519685
 31
0.0
  0
LINE
  5
3ED8
330
1E
100
AcDbEntity
  8
3
100
AcDbLine
 10
3.956692913385826
 20
5.96259842519685
 30
0.0
 11
3.956692913385826
 21
5.964566929133857
 31
0.0
  0
LINE
  5
3ED9
330
1E
100
AcDbEntity
  8
3
100
AcDbLine
 10
3.956692913385826
 20
5.964566929133857
 30
0.0
 11
3.954724409448819
 21
5.974409448818896
 31
0.0
  0
LINE
  5
3EDA
330
1E
100
AcDbEntity
  8
3
100
AcDbLine
 10
3.954724409448819
 20
5.974409448818896
 30
0.0
 11
3.954724409448819
 21
5.976377952755903
 31
0.0
  0
LINE
  5
3EDB
330
1E
100
AcDbEntity
  8
3
100
AcDbLine
 10
3.954724409448819
 20
5.976377952755903
 30
0.0
 11
3.956692913385826
 21
5.988188976377951
 31
0.0
  0
LINE
  5
3EDC
330
1E
100
AcDbEntity
  8
3
100
AcDbLine
 10
3.956692913385826
 20
5.990157480314959
 30
0.0
 11
3.958661417322834
 21
5.996062992125983
 31
0.0
  0
LINE
  5
3EDD
330
1E
100
AcDbEntity
  8
3
100
AcDbLine
 10
3.958661417322834
 20
5.996062992125983
 30
0.0
 11
3.958661417322834
 21
5.99803149606299
 31
0.0
  0
LINE
  5
3EDE
330
1E
100
AcDbEntity
  8
3
100
AcDbLine
 10
4.005905511811023
 20
5.99803149606299
 30
0.0
 11
4.005905511811023
 21
5.964566929133857
 31
0.0
  0
LINE
  5
3EDF
330
1E
100
AcDbEntity
  8
3
100
AcDbLine
 10
4.005905511811023
 20
5.964566929133857
 30
0.0
 11
4.005905511811023
 21
5.950787401574801
 31
0.0
  0
LINE
  5
3EE0
330
1E
100
AcDbEntity
  8
3
100
AcDbLine
 10
4.005905511811023
 20
5.99803149606299
 30
0.0
 11
4.005905511811023
 21
6.005905511811022
 31
0.0
  0
LINE
  5
3EE1
330
1E
100
AcDbEntity
  8
3
100
AcDbLine
 10
4.005905511811023
 20
6.005905511811022
 30
0.0
 11
4.005905511811023
 21
6.011811023622046
 31
0.0
  0
LINE
  5
3EE2
330
1E
100
AcDbEntity
  8
3
100
AcDbLine
 10
3.844488188976378
 20
6.42322834645669
 30
0.0
 11
3.866141732283463
 21
6.401574803149605
 31
0.0
  0
LINE
  5
3EE3
330
1E
100
AcDbEntity
  8
3
100
AcDbLine
 10
3.866141732283463
 20
6.401574803149605
 30
0.0
 11
3.895669291338582
 21
6.389763779527557
 31
0.0
  0
LINE
  5
3EE4
330
1E
100
AcDbEntity
  8
3
100
AcDbLine
 10
3.895669291338582
 20
6.389763779527557
 30
0.0
 11
3.931102362204724
 21
6.383858267716535
 31
0.0
  0
LINE
  5
3EE5
330
1E
100
AcDbEntity
  8
3
100
AcDbLine
 10
3.931102362204724
 20
6.246062992125983
 30
0.0
 11
3.885826771653543
 21
6.253937007874016
 31
0.0
  0
LINE
  5
3EE6
330
1E
100
AcDbEntity
  8
3
100
AcDbLine
 10
3.885826771653543
 20
6.253937007874016
 30
0.0
 11
3.85236220472441
 21
6.275590551181101
 31
0.0
  0
LINE
  5
3EE7
330
1E
100
AcDbEntity
  8
3
100
AcDbLine
 10
3.875984251968504
 20
6.273622047244094
 30
0.0
 11
3.901574803149606
 21
6.263779527559053
 31
0.0
  0
LINE
  5
3EE8
330
1E
100
AcDbEntity
  8
3
100
AcDbLine
 10
3.901574803149606
 20
6.263779527559053
 30
0.0
 11
3.931102362204724
 21
6.259842519685038
 31
0.0
  0
LINE
  5
3EE9
330
1E
100
AcDbEntity
  8
3
100
AcDbLine
 10
3.931102362204724
 20
6.433070866141731
 30
0.0
 11
3.879921259842519
 21
6.442913385826772
 31
0.0
  0
LINE
  5
3EEA
330
1E
100
AcDbEntity
  8
3
100
AcDbLine
 10
3.879921259842519
 20
6.442913385826772
 30
0.0
 11
3.844488188976378
 21
6.470472440944879
 31
0.0
  0
LINE
  5
3EEB
330
1E
100
AcDbEntity
  8
3
100
AcDbLine
 10
3.844488188976378
 20
6.470472440944879
 30
0.0
 11
3.838582677165354
 21
6.484251968503935
 31
0.0
  0
LINE
  5
3EEC
330
1E
100
AcDbEntity
  8
3
100
AcDbLine
 10
3.838582677165354
 20
6.484251968503935
 30
0.0
 11
3.836614173228347
 21
6.49803149606299
 31
0.0
  0
LINE
  5
3EED
330
1E
100
AcDbEntity
  8
3
100
AcDbLine
 10
3.836614173228347
 20
6.49803149606299
 30
0.0
 11
3.8503937007874
 21
6.529527559055116
 31
0.0
  0
LINE
  5
3EEE
330
1E
100
AcDbEntity
  8
3
100
AcDbLine
 10
3.8503937007874
 20
6.529527559055116
 30
0.0
 11
3.883858267716536
 21
6.553149606299212
 31
0.0
  0
LINE
  5
3EEF
330
1E
100
AcDbEntity
  8
3
100
AcDbLine
 10
3.883858267716536
 20
6.553149606299212
 30
0.0
 11
3.931102362204724
 21
6.56299212598425
 31
0.0
  0
LINE
  5
3EF0
330
1E
100
AcDbEntity
  8
3
100
AcDbLine
 10
3.942913385826771
 20
5.929133858267714
 30
0.0
 11
3.940944881889763
 21
5.937007874015746
 31
0.0
  0
LINE
  5
3EF1
330
1E
100
AcDbEntity
  8
3
100
AcDbLine
 10
3.940944881889763
 20
5.937007874015746
 30
0.0
 11
3.940944881889763
 21
5.956692913385825
 31
0.0
  0
LINE
  5
3EF2
330
1E
100
AcDbEntity
  8
3
100
AcDbLine
 10
3.940944881889763
 20
5.956692913385825
 30
0.0
 11
3.940944881889763
 21
5.984251968503937
 31
0.0
  0
LINE
  5
3EF3
330
1E
100
AcDbEntity
  8
3
100
AcDbLine
 10
3.940944881889763
 20
5.984251968503937
 30
0.0
 11
3.942913385826771
 21
6.015748031496062
 31
0.0
  0
LINE
  5
3EF4
330
1E
100
AcDbEntity
  8
3
100
AcDbLine
 10
3.942913385826771
 20
6.015748031496062
 30
0.0
 11
3.944881889763778
 21
6.041338582677164
 31
0.0
  0
LINE
  5
3EF5
330
1E
100
AcDbEntity
  8
3
100
AcDbLine
 10
3.944881889763778
 20
6.041338582677164
 30
0.0
 11
3.946850393700787
 21
6.059055118110235
 31
0.0
  0
LINE
  5
3EF6
330
1E
100
AcDbEntity
  8
3
100
AcDbLine
 10
3.940944881889763
 20
5.996062992125983
 30
0.0
 11
3.940944881889763
 21
5.96259842519685
 31
0.0
  0
LINE
  5
3EF7
330
1E
100
AcDbEntity
  8
3
100
AcDbLine
 10
3.940944881889763
 20
5.96259842519685
 30
0.0
 11
3.938976377952756
 21
5.935039370078738
 31
0.0
  0
LINE
  5
3EF8
330
1E
100
AcDbEntity
  8
3
100
AcDbLine
 10
3.938976377952756
 20
5.935039370078738
 30
0.0
 11
3.937007874015747
 21
5.929133858267714
 31
0.0
  0
LINE
  5
3EF9
330
1E
100
AcDbEntity
  8
3
100
AcDbLine
 10
3.937007874015747
 20
5.929133858267714
 30
0.0
 11
3.929133858267715
 21
5.927165354330707
 31
0.0
  0
LINE
  5
3EFA
330
1E
100
AcDbEntity
  8
3
100
AcDbLine
 10
3.940944881889763
 20
5.996062992125983
 30
0.0
 11
3.938976377952756
 21
5.996062992125983
 31
0.0
  0
LINE
  5
3EFB
330
1E
100
AcDbEntity
  8
3
100
AcDbLine
 10
3.938976377952756
 20
5.996062992125983
 30
0.0
 11
3.931102362204724
 21
5.996062992125983
 31
0.0
  0
LINE
  5
3EFC
330
1E
100
AcDbEntity
  8
3
100
AcDbLine
 10
3.836614173228347
 20
5.938976377952755
 30
0.0
 11
3.836614173228347
 21
5.964566929133857
 31
0.0
  0
LINE
  5
3EFD
330
1E
100
AcDbEntity
  8
3
100
AcDbLine
 10
3.836614173228347
 20
5.964566929133857
 30
0.0
 11
3.836614173228347
 21
5.996062992125983
 31
0.0
  0
LINE
  5
3EFE
330
1E
100
AcDbEntity
  8
3
100
AcDbLine
 10
3.836614173228347
 20
5.938976377952755
 30
0.0
 11
3.842519685039369
 21
5.931102362204724
 31
0.0
  0
LINE
  5
3EFF
330
1E
100
AcDbEntity
  8
3
100
AcDbLine
 10
3.842519685039369
 20
5.931102362204724
 30
0.0
 11
3.85236220472441
 21
5.927165354330707
 31
0.0
  0
LINE
  5
3F00
330
1E
100
AcDbEntity
  8
3
100
AcDbLine
 10
3.836614173228347
 20
6.171259842519683
 30
0.0
 11
3.842519685039369
 21
6.141732283464564
 31
0.0
  0
LINE
  5
3F01
330
1E
100
AcDbEntity
  8
3
100
AcDbLine
 10
3.842519685039369
 20
6.141732283464564
 30
0.0
 11
3.85236220472441
 21
6.114173228346457
 31
0.0
  0
LINE
  5
3F02
330
1E
100
AcDbEntity
  8
3
100
AcDbLine
 10
3.836614173228347
 20
5.996062992125983
 30
0.0
 11
3.842519685039369
 21
5.996062992125983
 31
0.0
  0
LINE
  5
3F03
330
1E
100
AcDbEntity
  8
3
100
AcDbLine
 10
3.842519685039369
 20
5.996062992125983
 30
0.0
 11
3.85236220472441
 21
5.996062992125983
 31
0.0
  0
LINE
  5
3F04
330
1E
100
AcDbEntity
  8
3
100
AcDbLine
 10
3.931102362204724
 20
6.05511811023622
 30
0.0
 11
3.899606299212599
 21
6.062992125984251
 31
0.0
  0
LINE
  5
3F05
330
1E
100
AcDbEntity
  8
3
100
AcDbLine
 10
3.899606299212599
 20
6.062992125984251
 30
0.0
 11
3.874015748031495
 21
6.082677165354329
 31
0.0
  0
LINE
  5
3F06
330
1E
100
AcDbEntity
  8
3
100
AcDbLine
 10
3.874015748031495
 20
6.082677165354329
 30
0.0
 11
3.85236220472441
 21
6.114173228346457
 31
0.0
  0
LINE
  5
3F07
330
1E
100
AcDbEntity
  8
3
100
AcDbLine
 10
3.85236220472441
 20
6.114173228346457
 30
0.0
 11
3.85236220472441
 21
5.996062992125983
 31
0.0
  0
LINE
  5
3F08
330
1E
100
AcDbEntity
  8
3
100
AcDbLine
 10
3.931102362204724
 20
6.246062992125983
 30
0.0
 11
3.931102362204724
 21
6.251968503937005
 31
0.0
  0
LINE
  5
3F09
330
1E
100
AcDbEntity
  8
3
100
AcDbLine
 10
3.931102362204724
 20
6.251968503937005
 30
0.0
 11
3.931102362204724
 21
6.259842519685038
 31
0.0
  0
LINE
  5
3F0A
330
1E
100
AcDbEntity
  8
3
100
AcDbLine
 10
3.931102362204724
 20
6.246062992125983
 30
0.0
 11
3.931102362204724
 21
6.251968503937005
 31
0.0
  0
LINE
  5
3F0B
330
1E
100
AcDbEntity
  8
3
100
AcDbLine
 10
3.931102362204724
 20
6.251968503937005
 30
0.0
 11
3.931102362204724
 21
6.259842519685038
 31
0.0
  0
LINE
  5
3F0C
330
1E
100
AcDbEntity
  8
3
100
AcDbLine
 10
3.933070866141732
 20
6.244094488188975
 30
0.0
 11
3.940944881889763
 21
6.246062992125983
 31
0.0
  0
LINE
  5
3F0D
330
1E
100
AcDbEntity
  8
3
100
AcDbLine
 10
3.940944881889763
 20
6.246062992125983
 30
0.0
 11
3.942913385826771
 21
6.249999999999998
 31
0.0
  0
LINE
  5
3F0E
330
1E
100
AcDbEntity
  8
3
100
AcDbLine
 10
3.85236220472441
 20
5.996062992125983
 30
0.0
 11
3.85236220472441
 21
5.958661417322833
 31
0.0
  0
LINE
  5
3F0F
330
1E
100
AcDbEntity
  8
3
100
AcDbLine
 10
3.85236220472441
 20
5.958661417322833
 30
0.0
 11
3.85236220472441
 21
5.927165354330707
 31
0.0
  0
LINE
  5
3F10
330
1E
100
AcDbEntity
  8
3
100
AcDbLine
 10
3.85236220472441
 20
5.927165354330707
 30
0.0
 11
3.929133858267715
 21
5.927165354330707
 31
0.0
  0
LINE
  5
3F11
330
1E
100
AcDbEntity
  8
3
100
AcDbLine
 10
3.929133858267715
 20
5.927165354330707
 30
0.0
 11
3.931102362204724
 21
5.958661417322833
 31
0.0
  0
LINE
  5
3F12
330
1E
100
AcDbEntity
  8
3
100
AcDbLine
 10
3.931102362204724
 20
5.958661417322833
 30
0.0
 11
3.931102362204724
 21
5.996062992125983
 31
0.0
  0
LINE
  5
3F13
330
1E
100
AcDbEntity
  8
3
100
AcDbLine
 10
4.531496062992125
 20
5.94291338582677
 30
0.0
 11
4.531496062992125
 21
5.948818897637794
 31
0.0
  0
LINE
  5
3F14
330
1E
100
AcDbEntity
  8
3
100
AcDbLine
 10
4.531496062992125
 20
5.948818897637794
 30
0.0
 11
4.531496062992125
 21
5.950787401574801
 31
0.0
  0
LINE
  5
3F15
330
1E
100
AcDbEntity
  8
3
100
AcDbLine
 10
4.706692913385826
 20
5.964566929133857
 30
0.0
 11
4.531496062992125
 21
5.964566929133857
 31
0.0
  0
LINE
  5
3F16
330
1E
100
AcDbEntity
  8
3
100
AcDbLine
 10
4.531496062992125
 20
5.964566929133857
 30
0.0
 11
4.531496062992125
 21
5.954724409448818
 31
0.0
  0
LINE
  5
3F17
330
1E
100
AcDbEntity
  8
3
100
AcDbLine
 10
4.531496062992125
 20
5.954724409448818
 30
0.0
 11
4.531496062992125
 21
5.950787401574801
 31
0.0
  0
LINE
  5
3F18
330
1E
100
AcDbEntity
  8
3
100
AcDbLine
 10
4.531496062992125
 20
6.0
 30
0.0
 11
4.531496062992125
 21
5.98031496062992
 31
0.0
  0
LINE
  5
3F19
330
1E
100
AcDbEntity
  8
3
100
AcDbLine
 10
4.531496062992125
 20
5.98031496062992
 30
0.0
 11
4.531496062992125
 21
5.964566929133857
 31
0.0
  0
LINE
  5
3F1A
330
1E
100
AcDbEntity
  8
3
100
AcDbLine
 10
4.706692913385826
 20
5.94291338582677
 30
0.0
 11
4.706692913385826
 21
5.948818897637794
 31
0.0
  0
LINE
  5
3F1B
330
1E
100
AcDbEntity
  8
3
100
AcDbLine
 10
4.706692913385826
 20
5.948818897637794
 30
0.0
 11
4.706692913385826
 21
5.950787401574801
 31
0.0
  0
LINE
  5
3F1C
330
1E
100
AcDbEntity
  8
3
100
AcDbLine
 10
4.706692913385826
 20
6.0
 30
0.0
 11
4.706692913385826
 21
5.98031496062992
 31
0.0
  0
LINE
  5
3F1D
330
1E
100
AcDbEntity
  8
3
100
AcDbLine
 10
4.706692913385826
 20
5.98031496062992
 30
0.0
 11
4.706692913385826
 21
5.964566929133857
 31
0.0
  0
LINE
  5
3F1E
330
1E
100
AcDbEntity
  8
3
100
AcDbLine
 10
4.706692913385826
 20
5.964566929133857
 30
0.0
 11
4.706692913385826
 21
5.954724409448818
 31
0.0
  0
LINE
  5
3F1F
330
1E
100
AcDbEntity
  8
3
100
AcDbLine
 10
4.706692913385826
 20
5.954724409448818
 30
0.0
 11
4.706692913385826
 21
5.950787401574801
 31
0.0
  0
LINE
  5
3F20
330
1E
100
AcDbEntity
  8
3
100
AcDbLine
 10
4.188976377952756
 20
5.842519685039368
 30
0.0
 11
4.192913385826771
 21
5.877952755905511
 31
0.0
  0
LINE
  5
3F21
330
1E
100
AcDbEntity
  8
3
100
AcDbLine
 10
4.192913385826771
 20
5.877952755905511
 30
0.0
 11
4.409448818897637
 21
5.877952755905511
 31
0.0
  0
LINE
  5
3F22
330
1E
100
AcDbEntity
  8
3
100
AcDbLine
 10
5.293307086614173
 20
5.88779527559055
 30
0.0
 11
3.942913385826771
 21
5.88779527559055
 31
0.0
  0
LINE
  5
3F23
330
1E
100
AcDbEntity
  8
3
100
AcDbLine
 10
3.942913385826771
 20
5.88779527559055
 30
0.0
 11
3.940944881889763
 21
5.842519685039368
 31
0.0
  0
LINE
  5
3F24
330
1E
100
AcDbEntity
  8
3
100
AcDbLine
 10
3.85236220472441
 20
5.791338582677164
 30
0.0
 11
3.842519685039369
 21
5.791338582677164
 31
0.0
  0
LINE
  5
3F25
330
1E
100
AcDbEntity
  8
3
100
AcDbLine
 10
3.842519685039369
 20
5.791338582677164
 30
0.0
 11
3.836614173228347
 21
5.791338582677164
 31
0.0
  0
LINE
  5
3F26
330
1E
100
AcDbEntity
  8
3
100
AcDbLine
 10
3.940944881889763
 20
5.791338582677164
 30
0.0
 11
3.940944881889763
 21
5.799212598425196
 31
0.0
  0
LINE
  5
3F27
330
1E
100
AcDbEntity
  8
3
100
AcDbLine
 10
3.940944881889763
 20
5.799212598425196
 30
0.0
 11
3.940944881889763
 21
5.816929133858266
 31
0.0
  0
LINE
  5
3F28
330
1E
100
AcDbEntity
  8
3
100
AcDbLine
 10
3.940944881889763
 20
5.816929133858266
 30
0.0
 11
3.940944881889763
 21
5.842519685039368
 31
0.0
  0
LINE
  5
3F29
330
1E
100
AcDbEntity
  8
3
100
AcDbLine
 10
4.188976377952756
 20
5.842519685039368
 30
0.0
 11
4.188976377952756
 21
5.816929133858266
 31
0.0
  0
LINE
  5
3F2A
330
1E
100
AcDbEntity
  8
3
100
AcDbLine
 10
4.188976377952756
 20
5.816929133858266
 30
0.0
 11
4.188976377952756
 21
5.799212598425196
 31
0.0
  0
LINE
  5
3F2B
330
1E
100
AcDbEntity
  8
3
100
AcDbLine
 10
4.411417322834645
 20
5.842519685039368
 30
0.0
 11
4.413385826771652
 21
5.816929133858266
 31
0.0
  0
LINE
  5
3F2C
330
1E
100
AcDbEntity
  8
3
100
AcDbLine
 10
4.413385826771652
 20
5.816929133858266
 30
0.0
 11
4.413385826771652
 21
5.799212598425196
 31
0.0
  0
LINE
  5
3F2D
330
1E
100
AcDbEntity
  8
3
100
AcDbLine
 10
4.413385826771652
 20
5.799212598425196
 30
0.0
 11
4.188976377952756
 21
5.799212598425196
 31
0.0
  0
LINE
  5
3F2E
330
1E
100
AcDbEntity
  8
3
100
AcDbLine
 10
4.824803149606299
 20
5.842519685039368
 30
0.0
 11
4.822834645669291
 21
5.816929133858266
 31
0.0
  0
LINE
  5
3F2F
330
1E
100
AcDbEntity
  8
3
100
AcDbLine
 10
4.822834645669291
 20
5.816929133858266
 30
0.0
 11
4.822834645669291
 21
5.799212598425196
 31
0.0
  0
LINE
  5
3F30
330
1E
100
AcDbEntity
  8
3
100
AcDbLine
 10
5.047244094488188
 20
5.842519685039368
 30
0.0
 11
5.047244094488188
 21
5.816929133858266
 31
0.0
  0
LINE
  5
3F31
330
1E
100
AcDbEntity
  8
3
100
AcDbLine
 10
5.047244094488188
 20
5.816929133858266
 30
0.0
 11
5.047244094488188
 21
5.799212598425196
 31
0.0
  0
LINE
  5
3F32
330
1E
100
AcDbEntity
  8
3
100
AcDbLine
 10
4.706692913385826
 20
5.94291338582677
 30
0.0
 11
4.531496062992125
 21
5.94291338582677
 31
0.0
  0
LINE
  5
3F33
330
1E
100
AcDbEntity
  8
3
100
AcDbLine
 10
4.531496062992125
 20
5.94291338582677
 30
0.0
 11
4.531496062992125
 21
5.938976377952755
 31
0.0
  0
LINE
  5
3F34
330
1E
100
AcDbEntity
  8
3
100
AcDbLine
 10
3.931102362204724
 20
6.433070866141731
 30
0.0
 11
3.931102362204724
 21
6.472440944881887
 31
0.0
  0
LINE
  5
3F35
330
1E
100
AcDbEntity
  8
3
100
AcDbLine
 10
3.931102362204724
 20
6.472440944881887
 30
0.0
 11
3.931102362204724
 21
6.521653543307087
 31
0.0
  0
LINE
  5
3F36
330
1E
100
AcDbEntity
  8
3
100
AcDbLine
 10
3.931102362204724
 20
6.521653543307087
 30
0.0
 11
3.931102362204724
 21
6.56299212598425
 31
0.0
  0
LINE
  5
3F37
330
1E
100
AcDbEntity
  8
3
100
AcDbLine
 10
3.931102362204724
 20
6.433070866141731
 30
0.0
 11
3.931102362204724
 21
6.383858267716535
 31
0.0
  0
LINE
  5
3F38
330
1E
100
AcDbEntity
  8
3
100
AcDbLine
 10
3.931102362204724
 20
6.383858267716535
 30
0.0
 11
4.055118110236221
 21
6.383858267716535
 31
0.0
  0
LINE
  5
3F39
330
1E
100
AcDbEntity
  8
3
100
AcDbLine
 10
3.836614173228347
 20
7.125984251968501
 30
0.0
 11
3.844488188976378
 21
7.125984251968501
 31
0.0
  0
LINE
  5
3F3A
330
1E
100
AcDbEntity
  8
3
100
AcDbLine
 10
3.844488188976378
 20
7.125984251968501
 30
0.0
 11
3.864173228346456
 21
7.125984251968501
 31
0.0
  0
LINE
  5
3F3B
330
1E
100
AcDbEntity
  8
3
100
AcDbLine
 10
3.864173228346456
 20
7.125984251968501
 30
0.0
 11
3.893700787401574
 21
7.125984251968501
 31
0.0
  0
LINE
  5
3F3C
330
1E
100
AcDbEntity
  8
3
100
AcDbLine
 10
3.893700787401574
 20
7.125984251968501
 30
0.0
 11
3.931102362204724
 21
7.125984251968501
 31
0.0
  0
LINE
  5
3F3D
330
1E
100
AcDbEntity
  8
3
100
AcDbLine
 10
5.29527559055118
 20
5.791338582677164
 30
0.0
 11
5.29527559055118
 21
5.799212598425196
 31
0.0
  0
LINE
  5
3F3E
330
1E
100
AcDbEntity
  8
3
100
AcDbLine
 10
5.29527559055118
 20
5.799212598425196
 30
0.0
 11
5.29527559055118
 21
5.816929133858266
 31
0.0
  0
LINE
  5
3F3F
330
1E
100
AcDbEntity
  8
3
100
AcDbLine
 10
5.29527559055118
 20
5.816929133858266
 30
0.0
 11
5.29527559055118
 21
5.842519685039368
 31
0.0
  0
LINE
  5
3F40
330
1E
100
AcDbEntity
  8
3
100
AcDbLine
 10
5.293307086614173
 20
5.919291338582675
 30
0.0
 11
5.293307086614173
 21
5.88779527559055
 31
0.0
  0
LINE
  5
3F41
330
1E
100
AcDbEntity
  8
3
100
AcDbLine
 10
5.293307086614173
 20
5.88779527559055
 30
0.0
 11
5.29527559055118
 21
5.842519685039368
 31
0.0
  0
LINE
  5
3F42
330
1E
100
AcDbEntity
  8
3
100
AcDbLine
 10
5.383858267716536
 20
5.791338582677164
 30
0.0
 11
5.395669291338582
 21
5.791338582677164
 31
0.0
  0
LINE
  5
3F43
330
1E
100
AcDbEntity
  8
3
100
AcDbLine
 10
5.395669291338582
 20
5.791338582677164
 30
0.0
 11
5.399606299212599
 21
5.791338582677164
 31
0.0
  0
LINE
  5
3F44
330
1E
100
AcDbEntity
  8
3
100
AcDbLine
 10
5.383858267716536
 20
5.927165354330707
 30
0.0
 11
5.383858267716536
 21
5.791338582677164
 31
0.0
  0
LINE
  5
3F45
330
1E
100
AcDbEntity
  8
3
100
AcDbLine
 10
5.383858267716536
 20
5.791338582677164
 30
0.0
 11
5.307086614173228
 21
5.791338582677164
 31
0.0
  0
LINE
  5
3F46
330
1E
100
AcDbEntity
  8
3
100
AcDbLine
 10
5.297244094488188
 20
5.935039370078738
 30
0.0
 11
5.297244094488188
 21
5.791338582677164
 31
0.0
  0
LINE
  5
3F47
330
1E
100
AcDbEntity
  8
3
100
AcDbLine
 10
5.297244094488188
 20
5.791338582677164
 30
0.0
 11
5.307086614173228
 21
5.791338582677164
 31
0.0
  0
LINE
  5
3F48
330
1E
100
AcDbEntity
  8
3
100
AcDbLine
 10
5.307086614173228
 20
5.791338582677164
 30
0.0
 11
5.307086614173228
 21
5.927165354330707
 31
0.0
  0
LINE
  5
3F49
330
1E
100
AcDbEntity
  8
3
100
AcDbLine
 10
5.360236220472441
 20
6.273622047244094
 30
0.0
 11
5.334645669291337
 21
6.263779527559053
 31
0.0
  0
LINE
  5
3F4A
330
1E
100
AcDbEntity
  8
3
100
AcDbLine
 10
5.334645669291337
 20
6.263779527559053
 30
0.0
 11
5.307086614173228
 21
6.259842519685038
 31
0.0
  0
LINE
  5
3F4B
330
1E
100
AcDbEntity
  8
3
100
AcDbLine
 10
5.29527559055118
 20
5.984251968503937
 30
0.0
 11
5.293307086614173
 21
6.015748031496062
 31
0.0
  0
LINE
  5
3F4C
330
1E
100
AcDbEntity
  8
3
100
AcDbLine
 10
5.293307086614173
 20
6.015748031496062
 30
0.0
 11
5.293307086614173
 21
6.041338582677164
 31
0.0
  0
LINE
  5
3F4D
330
1E
100
AcDbEntity
  8
3
100
AcDbLine
 10
5.293307086614173
 20
6.041338582677164
 30
0.0
 11
5.291338582677165
 21
6.059055118110235
 31
0.0
  0
LINE
  5
3F4E
330
1E
100
AcDbEntity
  8
3
100
AcDbLine
 10
5.29527559055118
 20
5.929133858267714
 30
0.0
 11
5.29527559055118
 21
5.937007874015746
 31
0.0
  0
LINE
  5
3F4F
330
1E
100
AcDbEntity
  8
3
100
AcDbLine
 10
5.29527559055118
 20
5.937007874015746
 30
0.0
 11
5.29527559055118
 21
5.956692913385825
 31
0.0
  0
LINE
  5
3F50
330
1E
100
AcDbEntity
  8
3
100
AcDbLine
 10
5.29527559055118
 20
5.956692913385825
 30
0.0
 11
5.29527559055118
 21
5.984251968503937
 31
0.0
  0
LINE
  5
3F51
330
1E
100
AcDbEntity
  8
3
100
AcDbLine
 10
5.399606299212599
 20
5.996062992125983
 30
0.0
 11
5.395669291338582
 21
5.996062992125983
 31
0.0
  0
LINE
  5
3F52
330
1E
100
AcDbEntity
  8
3
100
AcDbLine
 10
5.395669291338582
 20
5.996062992125983
 30
0.0
 11
5.383858267716536
 21
5.996062992125983
 31
0.0
  0
LINE
  5
3F53
330
1E
100
AcDbEntity
  8
3
100
AcDbLine
 10
5.399606299212599
 20
5.938976377952755
 30
0.0
 11
5.395669291338582
 21
5.931102362204724
 31
0.0
  0
LINE
  5
3F54
330
1E
100
AcDbEntity
  8
3
100
AcDbLine
 10
5.395669291338582
 20
5.931102362204724
 30
0.0
 11
5.383858267716536
 21
5.927165354330707
 31
0.0
  0
LINE
  5
3F55
330
1E
100
AcDbEntity
  8
3
100
AcDbLine
 10
5.29527559055118
 20
5.996062992125983
 30
0.0
 11
5.297244094488188
 21
5.96259842519685
 31
0.0
  0
LINE
  5
3F56
330
1E
100
AcDbEntity
  8
3
100
AcDbLine
 10
5.297244094488188
 20
5.96259842519685
 30
0.0
 11
5.297244094488188
 21
5.935039370078738
 31
0.0
  0
LINE
  5
3F57
330
1E
100
AcDbEntity
  8
3
100
AcDbLine
 10
5.297244094488188
 20
5.935039370078738
 30
0.0
 11
5.299212598425197
 21
5.929133858267714
 31
0.0
  0
LINE
  5
3F58
330
1E
100
AcDbEntity
  8
3
100
AcDbLine
 10
5.299212598425197
 20
5.929133858267714
 30
0.0
 11
5.307086614173228
 21
5.927165354330707
 31
0.0
  0
LINE
  5
3F59
330
1E
100
AcDbEntity
  8
3
100
AcDbLine
 10
5.293307086614173
 20
6.059055118110235
 30
0.0
 11
5.29527559055118
 21
5.996062992125983
 31
0.0
  0
LINE
  5
3F5A
330
1E
100
AcDbEntity
  8
3
100
AcDbLine
 10
5.29527559055118
 20
5.996062992125983
 30
0.0
 11
5.299212598425197
 21
5.996062992125983
 31
0.0
  0
LINE
  5
3F5B
330
1E
100
AcDbEntity
  8
3
100
AcDbLine
 10
5.299212598425197
 20
5.996062992125983
 30
0.0
 11
5.305118110236219
 21
5.996062992125983
 31
0.0
  0
LINE
  5
3F5C
330
1E
100
AcDbEntity
  8
3
100
AcDbLine
 10
5.293307086614173
 20
6.249999999999998
 30
0.0
 11
5.293307086614173
 21
6.059055118110235
 31
0.0
  0
LINE
  5
3F5D
330
1E
100
AcDbEntity
  8
3
100
AcDbLine
 10
5.293307086614173
 20
6.059055118110235
 30
0.0
 11
5.303149606299212
 21
6.05511811023622
 31
0.0
  0
LINE
  5
3F5E
330
1E
100
AcDbEntity
  8
3
100
AcDbLine
 10
5.383858267716536
 20
5.996062992125983
 30
0.0
 11
5.383858267716536
 21
5.958661417322833
 31
0.0
  0
LINE
  5
3F5F
330
1E
100
AcDbEntity
  8
3
100
AcDbLine
 10
5.383858267716536
 20
5.958661417322833
 30
0.0
 11
5.383858267716536
 21
5.927165354330707
 31
0.0
  0
LINE
  5
3F60
330
1E
100
AcDbEntity
  8
3
100
AcDbLine
 10
5.307086614173228
 20
5.927165354330707
 30
0.0
 11
5.307086614173228
 21
5.958661417322833
 31
0.0
  0
LINE
  5
3F61
330
1E
100
AcDbEntity
  8
3
100
AcDbLine
 10
5.307086614173228
 20
5.958661417322833
 30
0.0
 11
5.305118110236219
 21
5.996062992125983
 31
0.0
  0
LINE
  5
3F62
330
1E
100
AcDbEntity
  8
3
100
AcDbLine
 10
5.303149606299212
 20
6.244094488188975
 30
0.0
 11
5.297244094488188
 21
6.246062992125983
 31
0.0
  0
LINE
  5
3F63
330
1E
100
AcDbEntity
  8
3
100
AcDbLine
 10
5.297244094488188
 20
6.246062992125983
 30
0.0
 11
5.293307086614173
 21
6.249999999999998
 31
0.0
  0
LINE
  5
3F64
330
1E
100
AcDbEntity
  8
3
100
AcDbLine
 10
5.307086614173228
 20
6.246062992125983
 30
0.0
 11
5.307086614173228
 21
6.251968503937005
 31
0.0
  0
LINE
  5
3F65
330
1E
100
AcDbEntity
  8
3
100
AcDbLine
 10
5.307086614173228
 20
6.251968503937005
 30
0.0
 11
5.307086614173228
 21
6.259842519685038
 31
0.0
  0
LINE
  5
3F66
330
1E
100
AcDbEntity
  8
3
100
AcDbLine
 10
5.307086614173228
 20
6.259842519685038
 30
0.0
 11
5.305118110236219
 21
6.259842519685038
 31
0.0
  0
LINE
  5
3F67
330
1E
100
AcDbEntity
  8
3
100
AcDbLine
 10
5.305118110236219
 20
6.246062992125983
 30
0.0
 11
5.305118110236219
 21
6.251968503937005
 31
0.0
  0
LINE
  5
3F68
330
1E
100
AcDbEntity
  8
3
100
AcDbLine
 10
5.305118110236219
 20
6.251968503937005
 30
0.0
 11
5.305118110236219
 21
6.259842519685038
 31
0.0
  0
LINE
  5
3F69
330
1E
100
AcDbEntity
  8
3
100
AcDbLine
 10
5.399606299212599
 20
6.171259842519683
 30
0.0
 11
5.395669291338582
 21
6.141732283464564
 31
0.0
  0
LINE
  5
3F6A
330
1E
100
AcDbEntity
  8
3
100
AcDbLine
 10
5.395669291338582
 20
6.141732283464564
 30
0.0
 11
5.383858267716536
 21
6.114173228346457
 31
0.0
  0
LINE
  5
3F6B
330
1E
100
AcDbEntity
  8
3
100
AcDbLine
 10
5.307086614173228
 20
6.246062992125983
 30
0.0
 11
5.307086614173228
 21
6.05511811023622
 31
0.0
  0
LINE
  5
3F6C
330
1E
100
AcDbEntity
  8
3
100
AcDbLine
 10
5.307086614173228
 20
6.05511811023622
 30
0.0
 11
5.336614173228347
 21
6.062992125984251
 31
0.0
  0
LINE
  5
3F6D
330
1E
100
AcDbEntity
  8
3
100
AcDbLine
 10
5.336614173228347
 20
6.062992125984251
 30
0.0
 11
5.364173228346456
 21
6.082677165354329
 31
0.0
  0
LINE
  5
3F6E
330
1E
100
AcDbEntity
  8
3
100
AcDbLine
 10
5.364173228346456
 20
6.082677165354329
 30
0.0
 11
5.383858267716536
 21
6.114173228346457
 31
0.0
  0
LINE
  5
3F6F
330
1E
100
AcDbEntity
  8
3
100
AcDbLine
 10
5.399606299212599
 20
5.938976377952755
 30
0.0
 11
5.399606299212599
 21
5.964566929133857
 31
0.0
  0
LINE
  5
3F70
330
1E
100
AcDbEntity
  8
3
100
AcDbLine
 10
5.399606299212599
 20
5.964566929133857
 30
0.0
 11
5.399606299212599
 21
5.996062992125983
 31
0.0
  0
LINE
  5
3F71
330
1E
100
AcDbEntity
  8
3
100
AcDbLine
 10
5.421259842519684
 20
6.297244094488187
 30
0.0
 11
5.435039370078739
 21
6.297244094488187
 31
0.0
  0
LINE
  5
3F72
330
1E
100
AcDbEntity
  8
3
100
AcDbLine
 10
5.435039370078739
 20
6.297244094488187
 30
0.0
 11
5.435039370078739
 21
6.314960629921257
 31
0.0
  0
LINE
  5
3F73
330
1E
100
AcDbEntity
  8
3
100
AcDbLine
 10
5.391732283464567
 20
7.125984251968501
 30
0.0
 11
5.372047244094487
 21
7.125984251968501
 31
0.0
  0
LINE
  5
3F74
330
1E
100
AcDbEntity
  8
3
100
AcDbLine
 10
5.372047244094487
 20
7.125984251968501
 30
0.0
 11
5.342519685039369
 21
7.125984251968501
 31
0.0
  0
LINE
  5
3F75
330
1E
100
AcDbEntity
  8
3
100
AcDbLine
 10
5.342519685039369
 20
7.125984251968501
 30
0.0
 11
5.307086614173228
 21
7.125984251968501
 31
0.0
  0
LINE
  5
3F76
330
1E
100
AcDbEntity
  8
3
100
AcDbLine
 10
5.307086614173228
 20
7.125984251968501
 30
0.0
 11
5.307086614173228
 21
6.56299212598425
 31
0.0
  0
LINE
  5
3F77
330
1E
100
AcDbEntity
  8
3
100
AcDbLine
 10
5.399606299212599
 20
6.49803149606299
 30
0.0
 11
5.399606299212599
 21
7.125984251968501
 31
0.0
  0
LINE
  5
3F78
330
1E
100
AcDbEntity
  8
3
100
AcDbLine
 10
5.399606299212599
 20
7.125984251968501
 30
0.0
 11
5.391732283464567
 21
7.125984251968501
 31
0.0
  0
LINE
  5
3F79
330
1E
100
AcDbEntity
  8
3
100
AcDbLine
 10
5.391732283464567
 20
6.470472440944879
 30
0.0
 11
5.397637795275589
 21
6.484251968503935
 31
0.0
  0
LINE
  5
3F7A
330
1E
100
AcDbEntity
  8
3
100
AcDbLine
 10
5.397637795275589
 20
6.484251968503935
 30
0.0
 11
5.399606299212599
 21
6.49803149606299
 31
0.0
  0
LINE
  5
3F7B
330
1E
100
AcDbEntity
  8
3
100
AcDbLine
 10
5.399606299212599
 20
6.49803149606299
 30
0.0
 11
5.38779527559055
 21
6.529527559055116
 31
0.0
  0
LINE
  5
3F7C
330
1E
100
AcDbEntity
  8
3
100
AcDbLine
 10
5.38779527559055
 20
6.529527559055116
 30
0.0
 11
5.35236220472441
 21
6.553149606299212
 31
0.0
  0
LINE
  5
3F7D
330
1E
100
AcDbEntity
  8
3
100
AcDbLine
 10
5.35236220472441
 20
6.553149606299212
 30
0.0
 11
5.307086614173228
 21
6.56299212598425
 31
0.0
  0
LINE
  5
3F7E
330
1E
100
AcDbEntity
  8
3
100
AcDbLine
 10
5.307086614173228
 20
6.433070866141731
 30
0.0
 11
5.307086614173228
 21
6.472440944881887
 31
0.0
  0
LINE
  5
3F7F
330
1E
100
AcDbEntity
  8
3
100
AcDbLine
 10
5.307086614173228
 20
6.472440944881887
 30
0.0
 11
5.307086614173228
 21
6.521653543307087
 31
0.0
  0
LINE
  5
3F80
330
1E
100
AcDbEntity
  8
3
100
AcDbLine
 10
5.307086614173228
 20
6.521653543307087
 30
0.0
 11
5.307086614173228
 21
6.56299212598425
 31
0.0
  0
LINE
  5
3F81
330
1E
100
AcDbEntity
  8
3
100
AcDbLine
 10
5.391732283464567
 20
6.42322834645669
 30
0.0
 11
5.372047244094487
 21
6.401574803149605
 31
0.0
  0
LINE
  5
3F82
330
1E
100
AcDbEntity
  8
3
100
AcDbLine
 10
5.372047244094487
 20
6.401574803149605
 30
0.0
 11
5.340551181102362
 21
6.389763779527557
 31
0.0
  0
LINE
  5
3F83
330
1E
100
AcDbEntity
  8
3
100
AcDbLine
 10
5.340551181102362
 20
6.389763779527557
 30
0.0
 11
5.307086614173228
 21
6.383858267716535
 31
0.0
  0
LINE
  5
3F84
330
1E
100
AcDbEntity
  8
3
100
AcDbLine
 10
5.307086614173228
 20
6.381889763779527
 30
0.0
 11
5.307086614173228
 21
6.383858267716535
 31
0.0
  0
LINE
  5
3F85
330
1E
100
AcDbEntity
  8
3
100
AcDbLine
 10
5.307086614173228
 20
6.383858267716535
 30
0.0
 11
5.181102362204724
 21
6.383858267716535
 31
0.0
  0
LINE
  5
3F86
330
1E
100
AcDbEntity
  8
3
100
AcDbLine
 10
3.846456692913386
 20
6.421259842519683
 30
0.0
 11
3.860236220472441
 21
6.403543307086613
 31
0.0
  0
LINE
  5
3F87
330
1E
100
AcDbEntity
  8
3
100
AcDbLine
 10
3.860236220472441
 20
6.403543307086613
 30
0.0
 11
3.879921259842519
 21
6.391732283464564
 31
0.0
  0
LINE
  5
3F88
330
1E
100
AcDbEntity
  8
3
100
AcDbLine
 10
3.879921259842519
 20
6.391732283464564
 30
0.0
 11
3.903543307086613
 21
6.383858267716535
 31
0.0
  0
LINE
  5
3F89
330
1E
100
AcDbEntity
  8
3
100
AcDbLine
 10
3.903543307086613
 20
6.383858267716535
 30
0.0
 11
3.931102362204724
 21
6.381889763779527
 31
0.0
  0
LINE
  5
3F8A
330
1E
100
AcDbEntity
  8
3
100
AcDbLine
 10
5.307086614173228
 20
6.381889763779527
 30
0.0
 11
5.33267716535433
 21
6.383858267716535
 31
0.0
  0
LINE
  5
3F8B
330
1E
100
AcDbEntity
  8
3
100
AcDbLine
 10
5.33267716535433
 20
6.383858267716535
 30
0.0
 11
5.356299212598425
 21
6.391732283464564
 31
0.0
  0
LINE
  5
3F8C
330
1E
100
AcDbEntity
  8
3
100
AcDbLine
 10
5.356299212598425
 20
6.391732283464564
 30
0.0
 11
5.375984251968504
 21
6.403543307086613
 31
0.0
  0
LINE
  5
3F8D
330
1E
100
AcDbEntity
  8
3
100
AcDbLine
 10
5.375984251968504
 20
6.403543307086613
 30
0.0
 11
5.391732283464567
 21
6.421259842519683
 31
0.0
  0
LINE
  5
3F8E
330
1E
100
AcDbEntity
  8
3
100
AcDbLine
 10
3.9251968503937
 20
6.273622047244094
 30
0.0
 11
3.931102362204724
 21
6.273622047244094
 31
0.0
  0
LINE
  5
3F8F
330
1E
100
AcDbEntity
  8
3
100
AcDbLine
 10
3.931102362204724
 20
6.273622047244094
 30
0.0
 11
3.940944881889763
 21
6.271653543307087
 31
0.0
  0
LINE
  5
3F90
330
1E
100
AcDbEntity
  8
3
100
AcDbLine
 10
3.940944881889763
 20
6.271653543307087
 30
0.0
 11
3.948818897637795
 21
6.267716535433068
 31
0.0
  0
LINE
  5
3F91
330
1E
100
AcDbEntity
  8
3
100
AcDbLine
 10
3.948818897637795
 20
6.267716535433068
 30
0.0
 11
3.95275590551181
 21
6.263779527559053
 31
0.0
  0
LINE
  5
3F92
330
1E
100
AcDbEntity
  8
3
100
AcDbLine
 10
3.95275590551181
 20
6.263779527559053
 30
0.0
 11
3.954724409448819
 21
6.259842519685038
 31
0.0
  0
LINE
  5
3F93
330
1E
100
AcDbEntity
  8
3
100
AcDbLine
 10
3.954724409448819
 20
6.259842519685038
 30
0.0
 11
3.954724409448819
 21
6.257874015748031
 31
0.0
  0
LINE
  5
3F94
330
1E
100
AcDbEntity
  8
3
100
AcDbLine
 10
3.874015748031495
 20
6.39763779527559
 30
0.0
 11
3.864173228346456
 21
6.39763779527559
 31
0.0
  0
LINE
  5
3F95
330
1E
100
AcDbEntity
  8
3
100
AcDbLine
 10
3.864173228346456
 20
6.39763779527559
 30
0.0
 11
3.848425196850393
 21
6.395669291338583
 31
0.0
  0
LINE
  5
3F96
330
1E
100
AcDbEntity
  8
3
100
AcDbLine
 10
3.848425196850393
 20
6.395669291338583
 30
0.0
 11
3.83267716535433
 21
6.38779527559055
 31
0.0
  0
LINE
  5
3F97
330
1E
100
AcDbEntity
  8
3
100
AcDbLine
 10
3.83267716535433
 20
6.38779527559055
 30
0.0
 11
3.818897637795275
 21
6.37992125984252
 31
0.0
  0
LINE
  5
3F98
330
1E
100
AcDbEntity
  8
3
100
AcDbLine
 10
3.818897637795275
 20
6.37992125984252
 30
0.0
 11
3.809055118110236
 21
6.368110236220472
 31
0.0
  0
LINE
  5
3F99
330
1E
100
AcDbEntity
  8
3
100
AcDbLine
 10
3.809055118110236
 20
6.368110236220472
 30
0.0
 11
3.803149606299212
 21
6.356299212598424
 31
0.0
  0
LINE
  5
3F9A
330
1E
100
AcDbEntity
  8
3
100
AcDbLine
 10
3.803149606299212
 20
6.356299212598424
 30
0.0
 11
3.799212598425197
 21
6.342519685039368
 31
0.0
  0
LINE
  5
3F9B
330
1E
100
AcDbEntity
  8
3
100
AcDbLine
 10
3.799212598425197
 20
6.342519685039368
 30
0.0
 11
3.799212598425197
 21
6.340551181102361
 31
0.0
  0
LINE
  5
3F9C
330
1E
100
AcDbEntity
  8
3
100
AcDbLine
 10
3.799212598425197
 20
6.332677165354331
 30
0.0
 11
3.799212598425197
 21
6.32283464566929
 31
0.0
  0
LINE
  5
3F9D
330
1E
100
AcDbEntity
  8
3
100
AcDbLine
 10
3.799212598425197
 20
6.32283464566929
 30
0.0
 11
3.805118110236221
 21
6.309055118110235
 31
0.0
  0
LINE
  5
3F9E
330
1E
100
AcDbEntity
  8
3
100
AcDbLine
 10
3.805118110236221
 20
6.309055118110235
 30
0.0
 11
3.812992125984252
 21
6.299212598425194
 31
0.0
  0
LINE
  5
3F9F
330
1E
100
AcDbEntity
  8
3
100
AcDbLine
 10
3.812992125984252
 20
6.299212598425194
 30
0.0
 11
3.822834645669291
 21
6.289370078740157
 31
0.0
  0
LINE
  5
3FA0
330
1E
100
AcDbEntity
  8
3
100
AcDbLine
 10
3.822834645669291
 20
6.289370078740157
 30
0.0
 11
3.836614173228347
 21
6.281496062992124
 31
0.0
  0
LINE
  5
3FA1
330
1E
100
AcDbEntity
  8
3
100
AcDbLine
 10
3.836614173228347
 20
6.281496062992124
 30
0.0
 11
3.85236220472441
 21
6.275590551181101
 31
0.0
  0
LINE
  5
3FA2
330
1E
100
AcDbEntity
  8
3
100
AcDbLine
 10
3.85236220472441
 20
6.275590551181101
 30
0.0
 11
3.868110236220473
 21
6.273622047244094
 31
0.0
  0
LINE
  5
3FA3
330
1E
100
AcDbEntity
  8
3
100
AcDbLine
 10
3.868110236220473
 20
6.273622047244094
 30
0.0
 11
3.874015748031495
 21
6.273622047244094
 31
0.0
  0
LINE
  5
3FA4
330
1E
100
AcDbEntity
  8
3
100
AcDbLine
 10
5.281496062992125
 20
6.257874015748031
 30
0.0
 11
5.281496062992125
 21
6.259842519685038
 31
0.0
  0
LINE
  5
3FA5
330
1E
100
AcDbEntity
  8
3
100
AcDbLine
 10
5.281496062992125
 20
6.259842519685038
 30
0.0
 11
5.283464566929134
 21
6.261811023622046
 31
0.0
  0
LINE
  5
3FA6
330
1E
100
AcDbEntity
  8
3
100
AcDbLine
 10
5.283464566929134
 20
6.261811023622046
 30
0.0
 11
5.287401574803149
 21
6.265748031496061
 31
0.0
  0
LINE
  5
3FA7
330
1E
100
AcDbEntity
  8
3
100
AcDbLine
 10
5.287401574803149
 20
6.265748031496061
 30
0.0
 11
5.293307086614173
 21
6.269685039370079
 31
0.0
  0
LINE
  5
3FA8
330
1E
100
AcDbEntity
  8
3
100
AcDbLine
 10
5.293307086614173
 20
6.269685039370079
 30
0.0
 11
5.303149606299212
 21
6.273622047244094
 31
0.0
  0
LINE
  5
3FA9
330
1E
100
AcDbEntity
  8
3
100
AcDbLine
 10
5.303149606299212
 20
6.273622047244094
 30
0.0
 11
5.311023622047243
 21
6.273622047244094
 31
0.0
  0
LINE
  5
3FAA
330
1E
100
AcDbEntity
  8
3
100
AcDbLine
 10
5.437007874015747
 20
6.340551181102361
 30
0.0
 11
5.437007874015747
 21
6.350393700787401
 31
0.0
  0
LINE
  5
3FAB
330
1E
100
AcDbEntity
  8
3
100
AcDbLine
 10
5.437007874015747
 20
6.350393700787401
 30
0.0
 11
5.433070866141732
 21
6.362204724409446
 31
0.0
  0
LINE
  5
3FAC
330
1E
100
AcDbEntity
  8
3
100
AcDbLine
 10
5.433070866141732
 20
6.362204724409446
 30
0.0
 11
5.4251968503937
 21
6.374015748031494
 31
0.0
  0
LINE
  5
3FAD
330
1E
100
AcDbEntity
  8
3
100
AcDbLine
 10
5.4251968503937
 20
6.374015748031494
 30
0.0
 11
5.413385826771652
 21
6.383858267716535
 31
0.0
  0
LINE
  5
3FAE
330
1E
100
AcDbEntity
  8
3
100
AcDbLine
 10
5.413385826771652
 20
6.383858267716535
 30
0.0
 11
5.399606299212599
 21
6.391732283464564
 31
0.0
  0
LINE
  5
3FAF
330
1E
100
AcDbEntity
  8
3
100
AcDbLine
 10
5.399606299212599
 20
6.391732283464564
 30
0.0
 11
5.383858267716536
 21
6.395669291338583
 31
0.0
  0
LINE
  5
3FB0
330
1E
100
AcDbEntity
  8
3
100
AcDbLine
 10
5.383858267716536
 20
6.395669291338583
 30
0.0
 11
5.368110236220473
 21
6.39763779527559
 31
0.0
  0
LINE
  5
3FB1
330
1E
100
AcDbEntity
  8
3
100
AcDbLine
 10
5.368110236220473
 20
6.39763779527559
 30
0.0
 11
5.362204724409449
 21
6.39763779527559
 31
0.0
  0
LINE
  5
3FB2
330
1E
100
AcDbEntity
  8
3
100
AcDbLine
 10
5.362204724409449
 20
6.273622047244094
 30
0.0
 11
5.372047244094487
 21
6.273622047244094
 31
0.0
  0
LINE
  5
3FB3
330
1E
100
AcDbEntity
  8
3
100
AcDbLine
 10
5.372047244094487
 20
6.273622047244094
 30
0.0
 11
5.389763779527558
 21
6.277559055118109
 31
0.0
  0
LINE
  5
3FB4
330
1E
100
AcDbEntity
  8
3
100
AcDbLine
 10
5.389763779527558
 20
6.277559055118109
 30
0.0
 11
5.405511811023621
 21
6.283464566929131
 31
0.0
  0
LINE
  5
3FB5
330
1E
100
AcDbEntity
  8
3
100
AcDbLine
 10
5.405511811023621
 20
6.283464566929131
 30
0.0
 11
5.419291338582676
 21
6.293307086614172
 31
0.0
  0
LINE
  5
3FB6
330
1E
100
AcDbEntity
  8
3
100
AcDbLine
 10
5.419291338582676
 20
6.293307086614172
 30
0.0
 11
5.427165354330708
 21
6.303149606299212
 31
0.0
  0
LINE
  5
3FB7
330
1E
100
AcDbEntity
  8
3
100
AcDbLine
 10
5.427165354330708
 20
6.303149606299212
 30
0.0
 11
5.435039370078739
 21
6.314960629921257
 31
0.0
  0
LINE
  5
3FB8
330
1E
100
AcDbEntity
  8
3
100
AcDbLine
 10
5.435039370078739
 20
6.314960629921257
 30
0.0
 11
5.437007874015747
 21
6.328740157480313
 31
0.0
  0
LINE
  5
3FB9
330
1E
100
AcDbEntity
  8
3
100
AcDbLine
 10
5.437007874015747
 20
6.328740157480313
 30
0.0
 11
5.437007874015747
 21
6.332677165354331
 31
0.0
  0
LINE
  5
3FBA
330
1E
100
AcDbEntity
  8
3
100
AcDbLine
 10
7.643700787401574
 20
6.257874015748031
 30
0.0
 11
7.643700787401574
 21
6.259842519685038
 31
0.0
  0
LINE
  5
3FBB
330
1E
100
AcDbEntity
  8
3
100
AcDbLine
 10
7.643700787401574
 20
6.259842519685038
 30
0.0
 11
7.645669291338582
 21
6.261811023622046
 31
0.0
  0
LINE
  5
3FBC
330
1E
100
AcDbEntity
  8
3
100
AcDbLine
 10
7.645669291338582
 20
6.261811023622046
 30
0.0
 11
7.649606299212599
 21
6.265748031496061
 31
0.0
  0
LINE
  5
3FBD
330
1E
100
AcDbEntity
  8
3
100
AcDbLine
 10
7.649606299212599
 20
6.265748031496061
 30
0.0
 11
7.655511811023621
 21
6.269685039370079
 31
0.0
  0
LINE
  5
3FBE
330
1E
100
AcDbEntity
  8
3
100
AcDbLine
 10
7.655511811023621
 20
6.269685039370079
 30
0.0
 11
7.665354330708662
 21
6.273622047244094
 31
0.0
  0
LINE
  5
3FBF
330
1E
100
AcDbEntity
  8
3
100
AcDbLine
 10
7.665354330708662
 20
6.273622047244094
 30
0.0
 11
7.673228346456693
 21
6.273622047244094
 31
0.0
  0
LINE
  5
3FC0
330
1E
100
AcDbEntity
  8
3
100
AcDbLine
 10
7.799212598425197
 20
6.340551181102361
 30
0.0
 11
7.799212598425197
 21
6.350393700787401
 31
0.0
  0
LINE
  5
3FC1
330
1E
100
AcDbEntity
  8
3
100
AcDbLine
 10
7.799212598425197
 20
6.350393700787401
 30
0.0
 11
7.793307086614173
 21
6.362204724409446
 31
0.0
  0
LINE
  5
3FC2
330
1E
100
AcDbEntity
  8
3
100
AcDbLine
 10
7.793307086614173
 20
6.362204724409446
 30
0.0
 11
7.785433070866141
 21
6.374015748031494
 31
0.0
  0
LINE
  5
3FC3
330
1E
100
AcDbEntity
  8
3
100
AcDbLine
 10
7.785433070866141
 20
6.374015748031494
 30
0.0
 11
7.775590551181102
 21
6.383858267716535
 31
0.0
  0
LINE
  5
3FC4
330
1E
100
AcDbEntity
  8
3
100
AcDbLine
 10
7.775590551181102
 20
6.383858267716535
 30
0.0
 11
7.761811023622047
 21
6.391732283464564
 31
0.0
  0
LINE
  5
3FC5
330
1E
100
AcDbEntity
  8
3
100
AcDbLine
 10
7.761811023622047
 20
6.391732283464564
 30
0.0
 11
7.746062992125984
 21
6.395669291338583
 31
0.0
  0
LINE
  5
3FC6
330
1E
100
AcDbEntity
  8
3
100
AcDbLine
 10
7.746062992125984
 20
6.395669291338583
 30
0.0
 11
7.730314960629921
 21
6.39763779527559
 31
0.0
  0
LINE
  5
3FC7
330
1E
100
AcDbEntity
  8
3
100
AcDbLine
 10
7.730314960629921
 20
6.39763779527559
 30
0.0
 11
7.724409448818897
 21
6.39763779527559
 31
0.0
  0
LINE
  5
3FC8
330
1E
100
AcDbEntity
  8
3
100
AcDbLine
 10
7.789370078740156
 20
6.303149606299212
 30
0.0
 11
7.797244094488188
 21
6.314960629921257
 31
0.0
  0
LINE
  5
3FC9
330
1E
100
AcDbEntity
  8
3
100
AcDbLine
 10
7.797244094488188
 20
6.314960629921257
 30
0.0
 11
7.799212598425197
 21
6.328740157480313
 31
0.0
  0
LINE
  5
3FCA
330
1E
100
AcDbEntity
  8
3
100
AcDbLine
 10
7.799212598425197
 20
6.328740157480313
 30
0.0
 11
7.799212598425197
 21
6.332677165354331
 31
0.0
  0
LINE
  5
3FCB
330
1E
100
AcDbEntity
  8
3
100
AcDbLine
 10
7.724409448818897
 20
6.273622047244094
 30
0.0
 11
7.734251968503936
 21
6.273622047244094
 31
0.0
  0
LINE
  5
3FCC
330
1E
100
AcDbEntity
  8
3
100
AcDbLine
 10
7.734251968503936
 20
6.273622047244094
 30
0.0
 11
7.751968503937008
 21
6.277559055118109
 31
0.0
  0
LINE
  5
3FCD
330
1E
100
AcDbEntity
  8
3
100
AcDbLine
 10
7.751968503937008
 20
6.277559055118109
 30
0.0
 11
7.767716535433071
 21
6.283464566929131
 31
0.0
  0
LINE
  5
3FCE
330
1E
100
AcDbEntity
  8
3
100
AcDbLine
 10
7.767716535433071
 20
6.283464566929131
 30
0.0
 11
7.779527559055117
 21
6.293307086614172
 31
0.0
  0
LINE
  5
3FCF
330
1E
100
AcDbEntity
  8
3
100
AcDbLine
 10
7.779527559055117
 20
6.293307086614172
 30
0.0
 11
7.789370078740156
 21
6.303149606299212
 31
0.0
  0
LINE
  5
3FD0
330
1E
100
AcDbEntity
  8
3
100
AcDbLine
 10
6.287401574803149
 20
6.273622047244094
 30
0.0
 11
6.293307086614173
 21
6.273622047244094
 31
0.0
  0
LINE
  5
3FD1
330
1E
100
AcDbEntity
  8
3
100
AcDbLine
 10
6.293307086614173
 20
6.273622047244094
 30
0.0
 11
6.303149606299212
 21
6.271653543307087
 31
0.0
  0
LINE
  5
3FD2
330
1E
100
AcDbEntity
  8
3
100
AcDbLine
 10
6.303149606299212
 20
6.271653543307087
 30
0.0
 11
6.311023622047243
 21
6.267716535433068
 31
0.0
  0
LINE
  5
3FD3
330
1E
100
AcDbEntity
  8
3
100
AcDbLine
 10
6.311023622047243
 20
6.267716535433068
 30
0.0
 11
6.31496062992126
 21
6.263779527559053
 31
0.0
  0
LINE
  5
3FD4
330
1E
100
AcDbEntity
  8
3
100
AcDbLine
 10
6.31496062992126
 20
6.263779527559053
 30
0.0
 11
6.316929133858267
 21
6.259842519685038
 31
0.0
  0
LINE
  5
3FD5
330
1E
100
AcDbEntity
  8
3
100
AcDbLine
 10
6.316929133858267
 20
6.259842519685038
 30
0.0
 11
6.316929133858267
 21
6.257874015748031
 31
0.0
  0
LINE
  5
3FD6
330
1E
100
AcDbEntity
  8
3
100
AcDbLine
 10
6.181102362204724
 20
6.37992125984252
 30
0.0
 11
6.171259842519684
 21
6.368110236220472
 31
0.0
  0
LINE
  5
3FD7
330
1E
100
AcDbEntity
  8
3
100
AcDbLine
 10
6.171259842519684
 20
6.368110236220472
 30
0.0
 11
6.163385826771652
 21
6.356299212598424
 31
0.0
  0
LINE
  5
3FD8
330
1E
100
AcDbEntity
  8
3
100
AcDbLine
 10
6.163385826771652
 20
6.356299212598424
 30
0.0
 11
6.161417322834645
 21
6.342519685039368
 31
0.0
  0
LINE
  5
3FD9
330
1E
100
AcDbEntity
  8
3
100
AcDbLine
 10
6.161417322834645
 20
6.342519685039368
 30
0.0
 11
6.161417322834645
 21
6.340551181102361
 31
0.0
  0
LINE
  5
3FDA
330
1E
100
AcDbEntity
  8
3
100
AcDbLine
 10
6.236220472440945
 20
6.39763779527559
 30
0.0
 11
6.226377952755904
 21
6.39763779527559
 31
0.0
  0
LINE
  5
3FDB
330
1E
100
AcDbEntity
  8
3
100
AcDbLine
 10
6.226377952755904
 20
6.39763779527559
 30
0.0
 11
6.208661417322834
 21
6.395669291338583
 31
0.0
  0
LINE
  5
3FDC
330
1E
100
AcDbEntity
  8
3
100
AcDbLine
 10
6.208661417322834
 20
6.395669291338583
 30
0.0
 11
6.192913385826771
 21
6.38779527559055
 31
0.0
  0
LINE
  5
3FDD
330
1E
100
AcDbEntity
  8
3
100
AcDbLine
 10
6.192913385826771
 20
6.38779527559055
 30
0.0
 11
6.181102362204724
 21
6.37992125984252
 31
0.0
  0
LINE
  5
3FDE
330
1E
100
AcDbEntity
  8
3
100
AcDbLine
 10
6.161417322834645
 20
6.332677165354331
 30
0.0
 11
6.161417322834645
 21
6.32283464566929
 31
0.0
  0
LINE
  5
3FDF
330
1E
100
AcDbEntity
  8
3
100
AcDbLine
 10
6.161417322834645
 20
6.32283464566929
 30
0.0
 11
6.167322834645669
 21
6.309055118110235
 31
0.0
  0
LINE
  5
3FE0
330
1E
100
AcDbEntity
  8
3
100
AcDbLine
 10
6.167322834645669
 20
6.309055118110235
 30
0.0
 11
6.1751968503937
 21
6.299212598425194
 31
0.0
  0
LINE
  5
3FE1
330
1E
100
AcDbEntity
  8
3
100
AcDbLine
 10
6.1751968503937
 20
6.299212598425194
 30
0.0
 11
6.185039370078739
 21
6.289370078740157
 31
0.0
  0
LINE
  5
3FE2
330
1E
100
AcDbEntity
  8
3
100
AcDbLine
 10
6.185039370078739
 20
6.289370078740157
 30
0.0
 11
6.198818897637795
 21
6.281496062992124
 31
0.0
  0
LINE
  5
3FE3
330
1E
100
AcDbEntity
  8
3
100
AcDbLine
 10
6.198818897637795
 20
6.281496062992124
 30
0.0
 11
6.214566929133858
 21
6.275590551181101
 31
0.0
  0
LINE
  5
3FE4
330
1E
100
AcDbEntity
  8
3
100
AcDbLine
 10
6.214566929133858
 20
6.275590551181101
 30
0.0
 11
6.230314960629921
 21
6.273622047244094
 31
0.0
  0
LINE
  5
3FE5
330
1E
100
AcDbEntity
  8
3
100
AcDbLine
 10
6.230314960629921
 20
6.273622047244094
 30
0.0
 11
6.236220472440945
 21
6.273622047244094
 31
0.0
  0
LINE
  5
3FE6
330
1E
100
AcDbEntity
  8
3
100
AcDbLine
 10
6.242125984251967
 20
6.391732283464564
 30
0.0
 11
6.265748031496062
 21
6.383858267716535
 31
0.0
  0
LINE
  5
3FE7
330
1E
100
AcDbEntity
  8
3
100
AcDbLine
 10
6.265748031496062
 20
6.383858267716535
 30
0.0
 11
6.291338582677165
 21
6.381889763779527
 31
0.0
  0
LINE
  5
3FE8
330
1E
100
AcDbEntity
  8
3
100
AcDbLine
 10
6.208661417322834
 20
6.421259842519683
 30
0.0
 11
6.222440944881889
 21
6.403543307086613
 31
0.0
  0
LINE
  5
3FE9
330
1E
100
AcDbEntity
  8
3
100
AcDbLine
 10
6.222440944881889
 20
6.403543307086613
 30
0.0
 11
6.242125984251967
 21
6.391732283464564
 31
0.0
  0
LINE
  5
3FEA
330
1E
100
AcDbEntity
  8
3
100
AcDbLine
 10
7.669291338582676
 20
6.381889763779527
 30
0.0
 11
7.694881889763778
 21
6.383858267716535
 31
0.0
  0
LINE
  5
3FEB
330
1E
100
AcDbEntity
  8
3
100
AcDbLine
 10
7.694881889763778
 20
6.383858267716535
 30
0.0
 11
7.718503937007873
 21
6.391732283464564
 31
0.0
  0
LINE
  5
3FEC
330
1E
100
AcDbEntity
  8
3
100
AcDbLine
 10
7.718503937007873
 20
6.391732283464564
 30
0.0
 11
7.738188976377952
 21
6.403543307086613
 31
0.0
  0
LINE
  5
3FED
330
1E
100
AcDbEntity
  8
3
100
AcDbLine
 10
7.738188976377952
 20
6.403543307086613
 30
0.0
 11
7.753937007874015
 21
6.421259842519683
 31
0.0
  0
LINE
  5
3FEE
330
1E
100
AcDbEntity
  8
3
100
AcDbLine
 10
3.960629921259841
 20
5.96062992125984
 30
0.0
 11
3.966535433070865
 21
5.954724409448818
 31
0.0
  0
LINE
  5
3FEF
330
1E
100
AcDbEntity
  8
3
100
AcDbLine
 10
3.966535433070865
 20
5.954724409448818
 30
0.0
 11
3.976377952755904
 21
5.952755905511809
 31
0.0
  0
LINE
  5
3FF0
330
1E
100
AcDbEntity
  8
3
100
AcDbLine
 10
4.612204724409449
 20
6.377952755905509
 30
0.0
 11
4.612204724409449
 21
6.37992125984252
 31
0.0
  0
LINE
  5
3FF1
330
1E
100
AcDbEntity
  8
3
100
AcDbLine
 10
4.612204724409449
 20
6.37992125984252
 30
0.0
 11
4.612204724409449
 21
6.383858267716535
 31
0.0
  0
LINE
  5
3FF2
330
1E
100
AcDbEntity
  8
3
100
AcDbLine
 10
5.261811023622047
 20
5.952755905511809
 30
0.0
 11
5.271653543307086
 21
5.954724409448818
 31
0.0
  0
LINE
  5
3FF3
330
1E
100
AcDbEntity
  8
3
100
AcDbLine
 10
5.271653543307086
 20
5.954724409448818
 30
0.0
 11
5.27755905511811
 21
5.96062992125984
 31
0.0
  0
LINE
  5
3FF4
330
1E
100
AcDbEntity
  8
3
100
AcDbLine
 10
4.624015748031495
 20
6.383858267716535
 30
0.0
 11
4.624015748031495
 21
6.37992125984252
 31
0.0
  0
LINE
  5
3FF5
330
1E
100
AcDbEntity
  8
3
100
AcDbLine
 10
4.624015748031495
 20
6.37992125984252
 30
0.0
 11
4.624015748031495
 21
6.377952755905509
 31
0.0
  0
LINE
  5
3FF6
330
1E
100
AcDbEntity
  8
3
100
AcDbLine
 10
7.624015748031495
 20
5.952755905511809
 30
0.0
 11
7.633858267716536
 21
5.954724409448818
 31
0.0
  0
LINE
  5
3FF7
330
1E
100
AcDbEntity
  8
3
100
AcDbLine
 10
7.633858267716536
 20
5.954724409448818
 30
0.0
 11
7.639763779527558
 21
5.96062992125984
 31
0.0
  0
LINE
  5
3FF8
330
1E
100
AcDbEntity
  8
3
100
AcDbLine
 10
6.986220472440945
 20
6.383858267716535
 30
0.0
 11
6.986220472440945
 21
6.37992125984252
 31
0.0
  0
LINE
  5
3FF9
330
1E
100
AcDbEntity
  8
3
100
AcDbLine
 10
6.986220472440945
 20
6.37992125984252
 30
0.0
 11
6.986220472440945
 21
6.377952755905509
 31
0.0
  0
LINE
  5
3FFA
330
1E
100
AcDbEntity
  8
3
100
AcDbLine
 10
6.320866141732284
 20
5.96062992125984
 30
0.0
 11
6.326771653543306
 21
5.954724409448818
 31
0.0
  0
LINE
  5
3FFB
330
1E
100
AcDbEntity
  8
3
100
AcDbLine
 10
6.326771653543306
 20
5.954724409448818
 30
0.0
 11
6.336614173228347
 21
5.952755905511809
 31
0.0
  0
LINE
  5
3FFC
330
1E
100
AcDbEntity
  8
3
100
AcDbLine
 10
6.974409448818897
 20
6.377952755905509
 30
0.0
 11
6.974409448818897
 21
6.37992125984252
 31
0.0
  0
LINE
  5
3FFD
330
1E
100
AcDbEntity
  8
3
100
AcDbLine
 10
6.974409448818897
 20
6.37992125984252
 30
0.0
 11
6.974409448818897
 21
6.383858267716535
 31
0.0
  0
ENDSEC
  0
SECTION
  2
OBJECTS
  0
DICTIONARY
  5
C
330
0
100
AcDbDictionary
  3
ACAD_GROUP
350
D
  3
ACAD_LAYOUT
350
19
  3
ACAD_MLINESTYLE
350
16
  3
ACAD_PLOTSETTINGS
350
18
1001
ACAD
1000
TREAT_AS_HARD
1070
     0
  0
DICTIONARY
  5
42FB
330
1E
100
AcDbDictionary
  3
ACAD_LAYOUTSELFREF
350
42FC
  0
DICTIONARY
  5
42F9
330
1A
100
AcDbDictionary
  3
ACAD_LAYOUTSELFREF
350
42FA
  0
DICTIONARY
  5
D
102
{ACAD_REACTORS
330
C
102
}
330
C
100
AcDbDictionary
1001
ACAD
1000
TREAT_AS_HARD
1070
     0
  0
DICTIONARY
  5
19
102
{ACAD_REACTORS
330
C
102
}
330
C
100
AcDbDictionary
1001
ACAD
1000
TREAT_AS_HARD
1070
     0
  0
DICTIONARY
  5
16
102
{ACAD_REACTORS
330
C
102
}
330
C
100
AcDbDictionary
  3
STANDARD
350
17
1001
ACAD
1000
TREAT_AS_HARD
1070
     0
  0
DICTIONARY
  5
18
102
{ACAD_REACTORS
330
C
102
}
330
C
100
AcDbDictionary
1001
ACAD
1000
TREAT_AS_HARD
1070
     0
  0
XRECORD
  5
42FC
102
{ACAD_REACTORS
330
42FB
102
}
330
42FB
100
AcDbXrecord
340
1E
  0
XRECORD
  5
42FA
102
{ACAD_REACTORS
330
42F9
102
}
330
42F9
100
AcDbXrecord
340
1A
  0
MLINESTYLE
  5
17
102
{ACAD_REACTORS
330
16
102
}
330
16
100
AcDbMlineStyle
  2
STANDARD
 70
     0
  3

 62
   256
 51
90.0
 52
90.0
 71
     2
 49
0.5
 62
   256
  6
BYLAYER
 49
-0.5
 62
   256
  6
BYLAYER
  0
ENDSEC
  0
EOF
