  0
SECTION
  2
HEADER
  9
$ACADVER
  1
AC1012
  9
$DWGCODEPAGE
  3
ANSI_1252
  9
$INSBASE
 10
0.0
 20
0.0
 30
0.0
  9
$EXTMIN
 10
1.706176787738428
 20
3.741943384685953
 30
-0.0000000349181948
  9
$EXTMAX
 10
5.747314473785593
 20
6.824981707875828
 30
0.0000000814935746
  9
$LIMMIN
 10
0.0
 20
0.0
  9
$LIMMAX
 10
12.0
 20
9.0
  9
$ORTHOMODE
 70
     0
  9
$REGENMODE
 70
     1
  9
$FILLMODE
 70
     1
  9
$QTEXTMODE
 70
     0
  9
$MIRRTEXT
 70
     1
  9
$DRAGMODE
 70
     2
  9
$LTSCALE
 40
1.0
  9
$OSMODE
 70
   547
  9
$ATTMODE
 70
     1
  9
$TEXTSIZE
 40
0.2
  9
$TRACEWID
 40
0.05
  9
$TEXTSTYLE
  7
STANDARD
  9
$CLAYER
  8
0
  9
$CELTYPE
  6
BYLAYER
  9
$CECOLOR
 62
   256
  9
$CELTSCALE
 40
1.0
  9
$DELOBJ
 70
     1
  9
$DISPSILH
 70
     0
  9
$DIMSCALE
 40
1.0
  9
$DIMASZ
 40
0.18
  9
$DIMEXO
 40
0.0625
  9
$DIMDLI
 40
0.38
  9
$DIMRND
 40
0.0
  9
$DIMDLE
 40
0.0
  9
$DIMEXE
 40
0.18
  9
$DIMTP
 40
0.0
  9
$DIMTM
 40
0.0
  9
$DIMTXT
 40
0.18
  9
$DIMCEN
 40
0.09
  9
$DIMTSZ
 40
0.0
  9
$DIMTOL
 70
     0
  9
$DIMLIM
 70
     0
  9
$DIMTIH
 70
     1
  9
$DIMTOH
 70
     1
  9
$DIMSE1
 70
     0
  9
$DIMSE2
 70
     0
  9
$DIMTAD
 70
     0
  9
$DIMZIN
 70
     0
  9
$DIMBLK
  1

  9
$DIMASO
 70
     1
  9
$DIMSHO
 70
     1
  9
$DIMPOST
  1

  9
$DIMAPOST
  1

  9
$DIMALT
 70
     0
  9
$DIMALTD
 70
     2
  9
$DIMALTF
 40
25.4
  9
$DIMLFAC
 40
1.0
  9
$DIMTOFL
 70
     0
  9
$DIMTVP
 40
0.0
  9
$DIMTIX
 70
     0
  9
$DIMSOXD
 70
     0
  9
$DIMSAH
 70
     0
  9
$DIMBLK1
  1

  9
$DIMBLK2
  1

  9
$DIMSTYLE
  2
STANDARD
  9
$DIMCLRD
 70
     0
  9
$DIMCLRE
 70
     0
  9
$DIMCLRT
 70
     0
  9
$DIMTFAC
 40
1.0
  9
$DIMGAP
 40
0.09
  9
$DIMJUST
 70
     0
  9
$DIMSD1
 70
     0
  9
$DIMSD2
 70
     0
  9
$DIMTOLJ
 70
     1
  9
$DIMTZIN
 70
     0
  9
$DIMALTZ
 70
     0
  9
$DIMALTTZ
 70
     0
  9
$DIMFIT
 70
     5
  9
$DIMUPT
 70
     0
  9
$DIMUNIT
 70
     2
  9
$DIMDEC
 70
     4
  9
$DIMTDEC
 70
     4
  9
$DIMALTU
 70
     2
  9
$DIMALTTD
 70
     2
  9
$DIMTXSTY
  7
STANDARD
  9
$DIMAUNIT
 70
     0
  9
$LUNITS
 70
     2
  9
$LUPREC
 70
     4
  9
$SKETCHINC
 40
0.1
  9
$FILLETRAD
 40
0.0
  9
$AUNITS
 70
     0
  9
$AUPREC
 70
     0
  9
$MENU
  1
acad
  9
$ELEVATION
 40
0.0
  9
$PELEVATION
 40
0.0
  9
$THICKNESS
 40
0.0
  9
$LIMCHECK
 70
     0
  9
$BLIPMODE
 70
     0
  9
$CHAMFERA
 40
0.0
  9
$CHAMFERB
 40
0.0
  9
$CHAMFERC
 40
0.0
  9
$CHAMFERD
 40
0.0
  9
$SKPOLY
 70
     0
  9
$TDCREATE
 40
2453529.562916667
  9
$TDUPDATE
 40
2453944.578441342
  9
$TDINDWG
 40
0.0013057639
  9
$TDUSRTIMER
 40
0.0013057639
  9
$USRTIMER
 70
     1
  9
$ANGBASE
 50
0.0
  9
$ANGDIR
 70
     0
  9
$PDMODE
 70
     0
  9
$PDSIZE
 40
0.0
  9
$PLINEWID
 40
0.0
  9
$COORDS
 70
     1
  9
$SPLFRAME
 70
     0
  9
$SPLINETYPE
 70
     6
  9
$SPLINESEGS
 70
     8
  9
$ATTDIA
 70
     0
  9
$ATTREQ
 70
     1
  9
$HANDLING
 70
  4097
  9
$HANDSEED
  5
545B
  9
$SURFTAB1
 70
     6
  9
$SURFTAB2
 70
     6
  9
$SURFTYPE
 70
     6
  9
$SURFU
 70
     6
  9
$SURFV
 70
     6
  9
$UCSNAME
  2

  9
$UCSORG
 10
0.0
 20
0.0
 30
0.0
  9
$UCSXDIR
 10
1.0
 20
0.0
 30
0.0
  9
$UCSYDIR
 10
0.0
 20
1.0
 30
0.0
  9
$PUCSNAME
  2

  9
$PUCSORG
 10
0.0
 20
0.0
 30
0.0
  9
$PUCSXDIR
 10
1.0
 20
0.0
 30
0.0
  9
$PUCSYDIR
 10
0.0
 20
1.0
 30
0.0
  9
$USERI1
 70
     0
  9
$USERI2
 70
     0
  9
$USERI3
 70
     0
  9
$USERI4
 70
     0
  9
$USERI5
 70
     0
  9
$USERR1
 40
0.0
  9
$USERR2
 40
0.0
  9
$USERR3
 40
0.0
  9
$USERR4
 40
0.0
  9
$USERR5
 40
0.0
  9
$WORLDVIEW
 70
     1
  9
$SHADEDGE
 70
     3
  9
$SHADEDIF
 70
    70
  9
$TILEMODE
 70
     1
  9
$MAXACTVP
 70
    16
  9
$PINSBASE
 10
0.0
 20
0.0
 30
0.0
  9
$PLIMCHECK
 70
     0
  9
$PEXTMIN
 10
1.000000000000000E+20
 20
1.000000000000000E+20
 30
1.000000000000000E+20
  9
$PEXTMAX
 10
-1.000000000000000E+20
 20
-1.000000000000000E+20
 30
-1.000000000000000E+20
  9
$PLIMMIN
 10
0.0
 20
0.0
  9
$PLIMMAX
 10
12.0
 20
9.0
  9
$UNITMODE
 70
     0
  9
$VISRETAIN
 70
     0
  9
$PLINEGEN
 70
     0
  9
$PSLTSCALE
 70
     1
  9
$TREEDEPTH
 70
  3020
  9
$PICKSTYLE
 70
     1
  9
$CMLSTYLE
  2
STANDARD
  9
$CMLJUST
 70
     0
  9
$CMLSCALE
 40
1.0
  9
$SAVEIMAGES
 70
     1
  0
ENDSEC
  0
SECTION
  2
CLASSES
  0
CLASS
  1
ACDBDICTIONARYWDFLT
  2
AcDbDictionaryWithDefault
  3
AutoCAD 2000
 90
    32768
280
     0
281
     0
  0
CLASS
  1
ACDBPLACEHOLDER
  2
AcDbPlaceHolder
  3
AutoCAD 2000
 90
    32768
280
     0
281
     0
  0
CLASS
  1
LAYOUT
  2
AcDbLayout
  3
AutoCAD 2000
 90
    32768
280
     0
281
     0
  0
CLASS
  1
LONG_TRANSACTION
  2
AcDbLongTransaction
  3
AutoCAD 2000
 90
    32768
280
     0
281
     0
  0
CLASS
  1
LWPOLYLINE
  2
AcDbPolyline
  3
AutoCAD 2000
 90
    32768
280
     0
281
     1
  0
CLASS
  1
HATCH
  2
AcDbHatch
  3
AutoCAD 2000
 90
    32768
280
     0
281
     1
  0
CLASS
  1
XRECORD
  2
AcDbXrecord
  3
AutoCAD 2000
 90
    32768
280
     0
281
     0
  0
CLASS
  1
LONG_TRANSACTION
  2
AcDbLongTransaction
  3
AutoCAD 2000
 90
    32768
280
     0
281
     0
  0
CLASS
  1
LWPOLYLINE
  2
AcDbPolyline
  3
AutoCAD 2000
 90
    32768
280
     0
281
     1
  0
CLASS
  1
HATCH
  2
AcDbHatch
  3
AutoCAD 2000
 90
    32768
280
     0
281
     1
  0
CLASS
  1
XRECORD
  2
AcDbXrecord
  3
AutoCAD 2000
 90
    32768
280
     0
281
     0
  0
ENDSEC
  0
SECTION
  2
TABLES
  0
TABLE
  2
VPORT
  5
8
330
0
100
AcDbSymbolTable
 70
     3
  0
VPORT
  5
5458
330
8
100
AcDbSymbolTableRecord
100
AcDbViewportTableRecord
  2
*ACTIVE
 70
     0
 10
0.0
 20
0.0
 11
1.0
 21
1.0
 12
3.726745630762011
 22
5.28346254628089
 13
0.0
 23
0.0
 14
1.0
 24
1.0
 15
0.0
 25
0.0
 16
0.0
 26
0.0
 36
1.0
 17
0.0
 27
0.0
 37
0.0
 40
3.115097647174518
 41
1.647569444444444
 42
50.0
 43
0.0
 44
0.0
 50
0.0
 51
0.0
 71
     0
 72
   100
 73
     1
 74
     1
 75
     0
 76
     0
 77
     0
 78
     0
  0
ENDTAB
  0
TABLE
  2
LTYPE
  5
5
330
0
100
AcDbSymbolTable
 70
    25
  0
LTYPE
  5
13
330
5
100
AcDbSymbolTableRecord
100
AcDbLinetypeTableRecord
  2
BYBLOCK
 70
     0
  3

 72
    65
 73
     0
 40
0.0
  0
LTYPE
  5
14
330
5
100
AcDbSymbolTableRecord
100
AcDbLinetypeTableRecord
  2
BYLAYER
 70
     0
  3

 72
    65
 73
     0
 40
0.0
  0
LTYPE
  5
15
330
5
100
AcDbSymbolTableRecord
100
AcDbLinetypeTableRecord
  2
CONTINUOUS
 70
     0
  3
Solid line
 72
    65
 73
     0
 40
0.0
  0
LTYPE
  5
22
330
5
100
AcDbSymbolTableRecord
100
AcDbLinetypeTableRecord
  2
BORDER
 70
     0
  3
__ __ . __ __ . __ __ . __ __ . __ __ . __ __ .
 72
    65
 73
     6
 40
1.75
 49
0.5
 74
     0
 49
-0.25
 74
     0
 49
0.5
 74
     0
 49
-0.25
 74
     0
 49
0.5
 74
     0
 49
-0.25
 74
     0
  0
LTYPE
  5
23
330
5
100
AcDbSymbolTableRecord
100
AcDbLinetypeTableRecord
  2
BORDER2
 70
     0
  3
__.__.__.__.__.__.__.__.__.__.__.__.__.__.__.__
 72
    65
 73
     6
 40
0.875
 49
0.25
 74
     0
 49
-0.125
 74
     0
 49
0.25
 74
     0
 49
-0.125
 74
     0
 49
0.25
 74
     0
 49
-0.125
 74
     0
  0
LTYPE
  5
24
330
5
100
AcDbSymbolTableRecord
100
AcDbLinetypeTableRecord
  2
BORDERX2
 70
     0
  3
____  ____  .  ____  ____  .  
 72
    65
 73
     6
 40
3.5
 49
1.0
 74
     0
 49
-0.5
 74
     0
 49
1.0
 74
     0
 49
-0.5
 74
     0
 49
1.0
 74
     0
 49
-0.5
 74
     0
  0
LTYPE
  5
25
330
5
100
AcDbSymbolTableRecord
100
AcDbLinetypeTableRecord
  2
CENTER
 70
     0
  3
____ _ ____ _ ____ _ ____ _ ____ _ ____ _ ____
 72
    65
 73
     4
 40
2.0
 49
1.25
 74
     0
 49
-0.25
 74
     0
 49
0.25
 74
     0
 49
-0.25
 74
     0
  0
LTYPE
  5
26
330
5
100
AcDbSymbolTableRecord
100
AcDbLinetypeTableRecord
  2
CENTER2
 70
     0
  3
____ _ ____ _ ____ _ ____ _ ____ _ ____ _ ____
 72
    65
 73
     4
 40
1.125
 49
0.75
 74
     0
 49
-0.125
 74
     0
 49
0.125
 74
     0
 49
-0.125
 74
     0
  0
LTYPE
  5
27
330
5
100
AcDbSymbolTableRecord
100
AcDbLinetypeTableRecord
  2
CENTERX2
 70
     0
  3
________  __  ________  __  ________  __  
 72
    65
 73
     4
 40
4.0
 49
2.5
 74
     0
 49
-0.5
 74
     0
 49
0.5
 74
     0
 49
-0.5
 74
     0
  0
LTYPE
  5
28
330
5
100
AcDbSymbolTableRecord
100
AcDbLinetypeTableRecord
  2
DASHDOT
 70
     0
  3
__ . __ . __ . __ . __ . __ . __ . 
 72
    65
 73
     4
 40
1.0
 49
0.5
 74
     0
 49
-0.25
 74
     0
 49
0.0
 74
     0
 49
-0.25
 74
     0
  0
LTYPE
  5
29
330
5
100
AcDbSymbolTableRecord
100
AcDbLinetypeTableRecord
  2
DASHDOT2
 70
     0
  3
_._._._._._._._._._._._._._._._.
 72
    65
 73
     4
 40
0.5
 49
0.25
 74
     0
 49
-0.125
 74
     0
 49
0.0
 74
     0
 49
-0.125
 74
     0
  0
LTYPE
  5
2A
330
5
100
AcDbSymbolTableRecord
100
AcDbLinetypeTableRecord
  2
DASHDOTX2
 70
     0
  3
____  .  ____  .  ____  .  ____  .  
 72
    65
 73
     4
 40
2.0
 49
1.0
 74
     0
 49
-0.5
 74
     0
 49
0.0
 74
     0
 49
-0.5
 74
     0
  0
LTYPE
  5
2B
330
5
100
AcDbSymbolTableRecord
100
AcDbLinetypeTableRecord
  2
DASHED
 70
     0
  3
__ __ __ __ __ __ __ __ __ __ __ __ 
 72
    65
 73
     2
 40
0.75
 49
0.5
 74
     0
 49
-0.25
 74
     0
  0
LTYPE
  5
2C
330
5
100
AcDbSymbolTableRecord
100
AcDbLinetypeTableRecord
  2
DASHED2
 70
     0
  3
_ _ _ _ _ _ _ _ _ _ _ _ _ _ _ _ _ _ 
 72
    65
 73
     2
 40
0.375
 49
0.25
 74
     0
 49
-0.125
 74
     0
  0
LTYPE
  5
2D
330
5
100
AcDbSymbolTableRecord
100
AcDbLinetypeTableRecord
  2
DASHEDX2
 70
     0
  3
____  ____  ____  ____  ____  ____  
 72
    65
 73
     2
 40
1.5
 49
1.0
 74
     0
 49
-0.5
 74
     0
  0
LTYPE
  5
2E
330
5
100
AcDbSymbolTableRecord
100
AcDbLinetypeTableRecord
  2
DIVIDE
 70
     0
  3
____ . . ____ . . ____ . . ____ . . 
 72
    65
 73
     6
 40
1.25
 49
0.5
 74
     0
 49
-0.25
 74
     0
 49
0.0
 74
     0
 49
-0.25
 74
     0
 49
0.0
 74
     0
 49
-0.25
 74
     0
  0
LTYPE
  5
2F
330
5
100
AcDbSymbolTableRecord
100
AcDbLinetypeTableRecord
  2
DIVIDE2
 70
     0
  3
__..__..__..__..__..__..__..__..__..
 72
    65
 73
     6
 40
0.625
 49
0.25
 74
     0
 49
-0.125
 74
     0
 49
0.0
 74
     0
 49
-0.125
 74
     0
 49
0.0
 74
     0
 49
-0.125
 74
     0
  0
LTYPE
  5
30
330
5
100
AcDbSymbolTableRecord
100
AcDbLinetypeTableRecord
  2
DIVIDEX2
 70
     0
  3
________  .  .  ________  .  .  ________  .  . 
 72
    65
 73
     6
 40
2.5
 49
1.0
 74
     0
 49
-0.5
 74
     0
 49
0.0
 74
     0
 49
-0.5
 74
     0
 49
0.0
 74
     0
 49
-0.5
 74
     0
  0
LTYPE
  5
31
330
5
100
AcDbSymbolTableRecord
100
AcDbLinetypeTableRecord
  2
DOT
 70
     0
  3
. . . . . . . . . . . . . . . . . . 
 72
    65
 73
     2
 40
0.25
 49
0.0
 74
     0
 49
-0.25
 74
     0
  0
LTYPE
  5
32
330
5
100
AcDbSymbolTableRecord
100
AcDbLinetypeTableRecord
  2
DOT2
 70
     0
  3
....................................
 72
    65
 73
     2
 40
0.125
 49
0.0
 74
     0
 49
-0.125
 74
     0
  0
LTYPE
  5
33
330
5
100
AcDbSymbolTableRecord
100
AcDbLinetypeTableRecord
  2
DOTX2
 70
     0
  3
.  .  .  .  .  .  .  .  .  .  .  .  .  
 72
    65
 73
     2
 40
0.5
 49
0.0
 74
     0
 49
-0.5
 74
     0
  0
LTYPE
  5
34
330
5
100
AcDbSymbolTableRecord
100
AcDbLinetypeTableRecord
  2
HIDDEN
 70
     0
  3
__ __ __ __ __ __ __ __ __ __ __ __ 
 72
    65
 73
     2
 40
0.375
 49
0.25
 74
     0
 49
-0.125
 74
     0
  0
LTYPE
  5
35
330
5
100
AcDbSymbolTableRecord
100
AcDbLinetypeTableRecord
  2
HIDDEN2
 70
     0
  3
_ _ _ _ _ _ _ _ _ _ _ _ _ _ _ _ _ _ 
 72
    65
 73
     2
 40
0.1875
 49
0.125
 74
     0
 49
-0.0625
 74
     0
  0
LTYPE
  5
36
330
5
100
AcDbSymbolTableRecord
100
AcDbLinetypeTableRecord
  2
HIDDENX2
 70
     0
  3
____ ____ ____ ____ ____ ____ ____ 
 72
    65
 73
     2
 40
0.75
 49
0.5
 74
     0
 49
-0.25
 74
     0
  0
LTYPE
  5
37
330
5
100
AcDbSymbolTableRecord
100
AcDbLinetypeTableRecord
  2
PHANTOM
 70
     0
  3
______  __  __  ______  __  __  
 72
    65
 73
     6
 40
2.5
 49
1.25
 74
     0
 49
-0.25
 74
     0
 49
0.25
 74
     0
 49
-0.25
 74
     0
 49
0.25
 74
     0
 49
-0.25
 74
     0
  0
LTYPE
  5
38
330
5
100
AcDbSymbolTableRecord
100
AcDbLinetypeTableRecord
  2
PHANTOM2
 70
     0
  3
___ _ _ ___ _ _ ___ _ _ ___ _ _ 
 72
    65
 73
     6
 40
1.25
 49
0.625
 74
     0
 49
-0.125
 74
     0
 49
0.125
 74
     0
 49
-0.125
 74
     0
 49
0.125
 74
     0
 49
-0.125
 74
     0
  0
LTYPE
  5
39
330
5
100
AcDbSymbolTableRecord
100
AcDbLinetypeTableRecord
  2
PHANTOMX2
 70
     0
  3
___ _ _ ___ _ _ ___ _ _ ___ _ _ 
 72
    65
 73
     6
 40
5.0
 49
2.5
 74
     0
 49
-0.5
 74
     0
 49
0.5
 74
     0
 49
-0.5
 74
     0
 49
0.5
 74
     0
 49
-0.5
 74
     0
  0
ENDTAB
  0
TABLE
  2
LAYER
  5
2
330
0
100
AcDbSymbolTable
 70
   256
  0
LAYER
  5
10
330
2
100
AcDbSymbolTableRecord
100
AcDbLayerTableRecord
  2
0
 70
     0
 62
     7
  6
CONTINUOUS
  0
LAYER
  5
3A
330
2
100
AcDbSymbolTableRecord
100
AcDbLayerTableRecord
  2
1
 70
     0
 62
     1
  6
CONTINUOUS
  0
LAYER
  5
3B
330
2
100
AcDbSymbolTableRecord
100
AcDbLayerTableRecord
  2
2
 70
     0
 62
     2
  6
CONTINUOUS
  0
LAYER
  5
3C
330
2
100
AcDbSymbolTableRecord
100
AcDbLayerTableRecord
  2
3
 70
     0
 62
     3
  6
CONTINUOUS
  0
LAYER
  5
3D
330
2
100
AcDbSymbolTableRecord
100
AcDbLayerTableRecord
  2
4
 70
     0
 62
     4
  6
CONTINUOUS
  0
LAYER
  5
3E
330
2
100
AcDbSymbolTableRecord
100
AcDbLayerTableRecord
  2
5
 70
     0
 62
     5
  6
CONTINUOUS
  0
LAYER
  5
3F
330
2
100
AcDbSymbolTableRecord
100
AcDbLayerTableRecord
  2
6
 70
     0
 62
     6
  6
CONTINUOUS
  0
LAYER
  5
40
330
2
100
AcDbSymbolTableRecord
100
AcDbLayerTableRecord
  2
7
 70
     0
 62
     7
  6
CONTINUOUS
  0
LAYER
  5
41
330
2
100
AcDbSymbolTableRecord
100
AcDbLayerTableRecord
  2
8
 70
     0
 62
     8
  6
CONTINUOUS
  0
LAYER
  5
42
330
2
100
AcDbSymbolTableRecord
100
AcDbLayerTableRecord
  2
9
 70
     0
 62
     9
  6
CONTINUOUS
  0
LAYER
  5
43
330
2
100
AcDbSymbolTableRecord
100
AcDbLayerTableRecord
  2
10
 70
     0
 62
    10
  6
CONTINUOUS
  0
LAYER
  5
44
330
2
100
AcDbSymbolTableRecord
100
AcDbLayerTableRecord
  2
11
 70
     0
 62
    11
  6
CONTINUOUS
  0
LAYER
  5
45
330
2
100
AcDbSymbolTableRecord
100
AcDbLayerTableRecord
  2
12
 70
     0
 62
    12
  6
CONTINUOUS
  0
LAYER
  5
46
330
2
100
AcDbSymbolTableRecord
100
AcDbLayerTableRecord
  2
13
 70
     0
 62
    13
  6
CONTINUOUS
  0
LAYER
  5
47
330
2
100
AcDbSymbolTableRecord
100
AcDbLayerTableRecord
  2
14
 70
     0
 62
    14
  6
CONTINUOUS
  0
LAYER
  5
48
330
2
100
AcDbSymbolTableRecord
100
AcDbLayerTableRecord
  2
15
 70
     0
 62
    15
  6
CONTINUOUS
  0
LAYER
  5
49
330
2
100
AcDbSymbolTableRecord
100
AcDbLayerTableRecord
  2
16
 70
     0
 62
    16
  6
CONTINUOUS
  0
LAYER
  5
4A
330
2
100
AcDbSymbolTableRecord
100
AcDbLayerTableRecord
  2
17
 70
     0
 62
    17
  6
CONTINUOUS
  0
LAYER
  5
4B
330
2
100
AcDbSymbolTableRecord
100
AcDbLayerTableRecord
  2
18
 70
     0
 62
    18
  6
CONTINUOUS
  0
LAYER
  5
4C
330
2
100
AcDbSymbolTableRecord
100
AcDbLayerTableRecord
  2
19
 70
     0
 62
    19
  6
CONTINUOUS
  0
LAYER
  5
4D
330
2
100
AcDbSymbolTableRecord
100
AcDbLayerTableRecord
  2
20
 70
     0
 62
    20
  6
CONTINUOUS
  0
LAYER
  5
4E
330
2
100
AcDbSymbolTableRecord
100
AcDbLayerTableRecord
  2
21
 70
     0
 62
    21
  6
CONTINUOUS
  0
LAYER
  5
4F
330
2
100
AcDbSymbolTableRecord
100
AcDbLayerTableRecord
  2
22
 70
     0
 62
    22
  6
CONTINUOUS
  0
LAYER
  5
50
330
2
100
AcDbSymbolTableRecord
100
AcDbLayerTableRecord
  2
23
 70
     0
 62
    23
  6
CONTINUOUS
  0
LAYER
  5
51
330
2
100
AcDbSymbolTableRecord
100
AcDbLayerTableRecord
  2
24
 70
     0
 62
    24
  6
CONTINUOUS
  0
LAYER
  5
52
330
2
100
AcDbSymbolTableRecord
100
AcDbLayerTableRecord
  2
25
 70
     0
 62
    25
  6
CONTINUOUS
  0
LAYER
  5
53
330
2
100
AcDbSymbolTableRecord
100
AcDbLayerTableRecord
  2
26
 70
     0
 62
    26
  6
CONTINUOUS
  0
LAYER
  5
54
330
2
100
AcDbSymbolTableRecord
100
AcDbLayerTableRecord
  2
27
 70
     0
 62
    27
  6
CONTINUOUS
  0
LAYER
  5
55
330
2
100
AcDbSymbolTableRecord
100
AcDbLayerTableRecord
  2
28
 70
     0
 62
    28
  6
CONTINUOUS
  0
LAYER
  5
56
330
2
100
AcDbSymbolTableRecord
100
AcDbLayerTableRecord
  2
29
 70
     0
 62
    29
  6
CONTINUOUS
  0
LAYER
  5
57
330
2
100
AcDbSymbolTableRecord
100
AcDbLayerTableRecord
  2
30
 70
     0
 62
    30
  6
CONTINUOUS
  0
LAYER
  5
58
330
2
100
AcDbSymbolTableRecord
100
AcDbLayerTableRecord
  2
31
 70
     0
 62
    31
  6
CONTINUOUS
  0
LAYER
  5
59
330
2
100
AcDbSymbolTableRecord
100
AcDbLayerTableRecord
  2
32
 70
     0
 62
    32
  6
CONTINUOUS
  0
LAYER
  5
5A
330
2
100
AcDbSymbolTableRecord
100
AcDbLayerTableRecord
  2
33
 70
     0
 62
    33
  6
CONTINUOUS
  0
LAYER
  5
5B
330
2
100
AcDbSymbolTableRecord
100
AcDbLayerTableRecord
  2
34
 70
     0
 62
    34
  6
CONTINUOUS
  0
LAYER
  5
5C
330
2
100
AcDbSymbolTableRecord
100
AcDbLayerTableRecord
  2
35
 70
     0
 62
    35
  6
CONTINUOUS
  0
LAYER
  5
5D
330
2
100
AcDbSymbolTableRecord
100
AcDbLayerTableRecord
  2
36
 70
     0
 62
    36
  6
CONTINUOUS
  0
LAYER
  5
5E
330
2
100
AcDbSymbolTableRecord
100
AcDbLayerTableRecord
  2
37
 70
     0
 62
    37
  6
CONTINUOUS
  0
LAYER
  5
5F
330
2
100
AcDbSymbolTableRecord
100
AcDbLayerTableRecord
  2
38
 70
     0
 62
    38
  6
CONTINUOUS
  0
LAYER
  5
60
330
2
100
AcDbSymbolTableRecord
100
AcDbLayerTableRecord
  2
39
 70
     0
 62
    39
  6
CONTINUOUS
  0
LAYER
  5
61
330
2
100
AcDbSymbolTableRecord
100
AcDbLayerTableRecord
  2
40
 70
     0
 62
    40
  6
CONTINUOUS
  0
LAYER
  5
62
330
2
100
AcDbSymbolTableRecord
100
AcDbLayerTableRecord
  2
41
 70
     0
 62
    41
  6
CONTINUOUS
  0
LAYER
  5
63
330
2
100
AcDbSymbolTableRecord
100
AcDbLayerTableRecord
  2
42
 70
     0
 62
    42
  6
CONTINUOUS
  0
LAYER
  5
64
330
2
100
AcDbSymbolTableRecord
100
AcDbLayerTableRecord
  2
43
 70
     0
 62
    43
  6
CONTINUOUS
  0
LAYER
  5
65
330
2
100
AcDbSymbolTableRecord
100
AcDbLayerTableRecord
  2
44
 70
     0
 62
    44
  6
CONTINUOUS
  0
LAYER
  5
66
330
2
100
AcDbSymbolTableRecord
100
AcDbLayerTableRecord
  2
45
 70
     0
 62
    45
  6
CONTINUOUS
  0
LAYER
  5
67
330
2
100
AcDbSymbolTableRecord
100
AcDbLayerTableRecord
  2
46
 70
     0
 62
    46
  6
CONTINUOUS
  0
LAYER
  5
68
330
2
100
AcDbSymbolTableRecord
100
AcDbLayerTableRecord
  2
47
 70
     0
 62
    47
  6
CONTINUOUS
  0
LAYER
  5
69
330
2
100
AcDbSymbolTableRecord
100
AcDbLayerTableRecord
  2
48
 70
     0
 62
    48
  6
CONTINUOUS
  0
LAYER
  5
6A
330
2
100
AcDbSymbolTableRecord
100
AcDbLayerTableRecord
  2
49
 70
     0
 62
    49
  6
CONTINUOUS
  0
LAYER
  5
6B
330
2
100
AcDbSymbolTableRecord
100
AcDbLayerTableRecord
  2
50
 70
     0
 62
    50
  6
CONTINUOUS
  0
LAYER
  5
6C
330
2
100
AcDbSymbolTableRecord
100
AcDbLayerTableRecord
  2
51
 70
     0
 62
    51
  6
CONTINUOUS
  0
LAYER
  5
6D
330
2
100
AcDbSymbolTableRecord
100
AcDbLayerTableRecord
  2
52
 70
     0
 62
    52
  6
CONTINUOUS
  0
LAYER
  5
6E
330
2
100
AcDbSymbolTableRecord
100
AcDbLayerTableRecord
  2
53
 70
     0
 62
    53
  6
CONTINUOUS
  0
LAYER
  5
6F
330
2
100
AcDbSymbolTableRecord
100
AcDbLayerTableRecord
  2
54
 70
     0
 62
    54
  6
CONTINUOUS
  0
LAYER
  5
70
330
2
100
AcDbSymbolTableRecord
100
AcDbLayerTableRecord
  2
55
 70
     0
 62
    55
  6
CONTINUOUS
  0
LAYER
  5
71
330
2
100
AcDbSymbolTableRecord
100
AcDbLayerTableRecord
  2
56
 70
     0
 62
    56
  6
CONTINUOUS
  0
LAYER
  5
72
330
2
100
AcDbSymbolTableRecord
100
AcDbLayerTableRecord
  2
57
 70
     0
 62
    57
  6
CONTINUOUS
  0
LAYER
  5
73
330
2
100
AcDbSymbolTableRecord
100
AcDbLayerTableRecord
  2
58
 70
     0
 62
    58
  6
CONTINUOUS
  0
LAYER
  5
74
330
2
100
AcDbSymbolTableRecord
100
AcDbLayerTableRecord
  2
59
 70
     0
 62
    59
  6
CONTINUOUS
  0
LAYER
  5
75
330
2
100
AcDbSymbolTableRecord
100
AcDbLayerTableRecord
  2
60
 70
     0
 62
    60
  6
CONTINUOUS
  0
LAYER
  5
76
330
2
100
AcDbSymbolTableRecord
100
AcDbLayerTableRecord
  2
61
 70
     0
 62
    61
  6
CONTINUOUS
  0
LAYER
  5
77
330
2
100
AcDbSymbolTableRecord
100
AcDbLayerTableRecord
  2
62
 70
     0
 62
    62
  6
CONTINUOUS
  0
LAYER
  5
78
330
2
100
AcDbSymbolTableRecord
100
AcDbLayerTableRecord
  2
63
 70
     0
 62
    63
  6
CONTINUOUS
  0
LAYER
  5
79
330
2
100
AcDbSymbolTableRecord
100
AcDbLayerTableRecord
  2
64
 70
     0
 62
    64
  6
CONTINUOUS
  0
LAYER
  5
7A
330
2
100
AcDbSymbolTableRecord
100
AcDbLayerTableRecord
  2
65
 70
     0
 62
    65
  6
CONTINUOUS
  0
LAYER
  5
7B
330
2
100
AcDbSymbolTableRecord
100
AcDbLayerTableRecord
  2
66
 70
     0
 62
    66
  6
CONTINUOUS
  0
LAYER
  5
7C
330
2
100
AcDbSymbolTableRecord
100
AcDbLayerTableRecord
  2
67
 70
     0
 62
    67
  6
CONTINUOUS
  0
LAYER
  5
7D
330
2
100
AcDbSymbolTableRecord
100
AcDbLayerTableRecord
  2
68
 70
     0
 62
    68
  6
CONTINUOUS
  0
LAYER
  5
7E
330
2
100
AcDbSymbolTableRecord
100
AcDbLayerTableRecord
  2
69
 70
     0
 62
    69
  6
CONTINUOUS
  0
LAYER
  5
7F
330
2
100
AcDbSymbolTableRecord
100
AcDbLayerTableRecord
  2
70
 70
     0
 62
    70
  6
CONTINUOUS
  0
LAYER
  5
80
330
2
100
AcDbSymbolTableRecord
100
AcDbLayerTableRecord
  2
71
 70
     0
 62
    71
  6
CONTINUOUS
  0
LAYER
  5
81
330
2
100
AcDbSymbolTableRecord
100
AcDbLayerTableRecord
  2
72
 70
     0
 62
    72
  6
CONTINUOUS
  0
LAYER
  5
82
330
2
100
AcDbSymbolTableRecord
100
AcDbLayerTableRecord
  2
73
 70
     0
 62
    73
  6
CONTINUOUS
  0
LAYER
  5
83
330
2
100
AcDbSymbolTableRecord
100
AcDbLayerTableRecord
  2
74
 70
     0
 62
    74
  6
CONTINUOUS
  0
LAYER
  5
84
330
2
100
AcDbSymbolTableRecord
100
AcDbLayerTableRecord
  2
75
 70
     0
 62
    75
  6
CONTINUOUS
  0
LAYER
  5
85
330
2
100
AcDbSymbolTableRecord
100
AcDbLayerTableRecord
  2
76
 70
     0
 62
    76
  6
CONTINUOUS
  0
LAYER
  5
86
330
2
100
AcDbSymbolTableRecord
100
AcDbLayerTableRecord
  2
77
 70
     0
 62
    77
  6
CONTINUOUS
  0
LAYER
  5
87
330
2
100
AcDbSymbolTableRecord
100
AcDbLayerTableRecord
  2
78
 70
     0
 62
    78
  6
CONTINUOUS
  0
LAYER
  5
88
330
2
100
AcDbSymbolTableRecord
100
AcDbLayerTableRecord
  2
79
 70
     0
 62
    79
  6
CONTINUOUS
  0
LAYER
  5
89
330
2
100
AcDbSymbolTableRecord
100
AcDbLayerTableRecord
  2
80
 70
     0
 62
    80
  6
CONTINUOUS
  0
LAYER
  5
8A
330
2
100
AcDbSymbolTableRecord
100
AcDbLayerTableRecord
  2
81
 70
     0
 62
    81
  6
CONTINUOUS
  0
LAYER
  5
8B
330
2
100
AcDbSymbolTableRecord
100
AcDbLayerTableRecord
  2
82
 70
     0
 62
    82
  6
CONTINUOUS
  0
LAYER
  5
8C
330
2
100
AcDbSymbolTableRecord
100
AcDbLayerTableRecord
  2
83
 70
     0
 62
    83
  6
CONTINUOUS
  0
LAYER
  5
8D
330
2
100
AcDbSymbolTableRecord
100
AcDbLayerTableRecord
  2
84
 70
     0
 62
    84
  6
CONTINUOUS
  0
LAYER
  5
8E
330
2
100
AcDbSymbolTableRecord
100
AcDbLayerTableRecord
  2
85
 70
     0
 62
    85
  6
CONTINUOUS
  0
LAYER
  5
8F
330
2
100
AcDbSymbolTableRecord
100
AcDbLayerTableRecord
  2
86
 70
     0
 62
    86
  6
CONTINUOUS
  0
LAYER
  5
90
330
2
100
AcDbSymbolTableRecord
100
AcDbLayerTableRecord
  2
87
 70
     0
 62
    87
  6
CONTINUOUS
  0
LAYER
  5
91
330
2
100
AcDbSymbolTableRecord
100
AcDbLayerTableRecord
  2
88
 70
     0
 62
    88
  6
CONTINUOUS
  0
LAYER
  5
92
330
2
100
AcDbSymbolTableRecord
100
AcDbLayerTableRecord
  2
89
 70
     0
 62
    89
  6
CONTINUOUS
  0
LAYER
  5
93
330
2
100
AcDbSymbolTableRecord
100
AcDbLayerTableRecord
  2
90
 70
     0
 62
    90
  6
CONTINUOUS
  0
LAYER
  5
94
330
2
100
AcDbSymbolTableRecord
100
AcDbLayerTableRecord
  2
91
 70
     0
 62
    91
  6
CONTINUOUS
  0
LAYER
  5
95
330
2
100
AcDbSymbolTableRecord
100
AcDbLayerTableRecord
  2
92
 70
     0
 62
    92
  6
CONTINUOUS
  0
LAYER
  5
96
330
2
100
AcDbSymbolTableRecord
100
AcDbLayerTableRecord
  2
93
 70
     0
 62
    93
  6
CONTINUOUS
  0
LAYER
  5
97
330
2
100
AcDbSymbolTableRecord
100
AcDbLayerTableRecord
  2
94
 70
     0
 62
    94
  6
CONTINUOUS
  0
LAYER
  5
98
330
2
100
AcDbSymbolTableRecord
100
AcDbLayerTableRecord
  2
95
 70
     0
 62
    95
  6
CONTINUOUS
  0
LAYER
  5
99
330
2
100
AcDbSymbolTableRecord
100
AcDbLayerTableRecord
  2
96
 70
     0
 62
    96
  6
CONTINUOUS
  0
LAYER
  5
9A
330
2
100
AcDbSymbolTableRecord
100
AcDbLayerTableRecord
  2
97
 70
     0
 62
    97
  6
CONTINUOUS
  0
LAYER
  5
9B
330
2
100
AcDbSymbolTableRecord
100
AcDbLayerTableRecord
  2
98
 70
     0
 62
    98
  6
CONTINUOUS
  0
LAYER
  5
9C
330
2
100
AcDbSymbolTableRecord
100
AcDbLayerTableRecord
  2
99
 70
     0
 62
    99
  6
CONTINUOUS
  0
LAYER
  5
9D
330
2
100
AcDbSymbolTableRecord
100
AcDbLayerTableRecord
  2
100
 70
     0
 62
   100
  6
CONTINUOUS
  0
LAYER
  5
9E
330
2
100
AcDbSymbolTableRecord
100
AcDbLayerTableRecord
  2
101
 70
     0
 62
   101
  6
CONTINUOUS
  0
LAYER
  5
9F
330
2
100
AcDbSymbolTableRecord
100
AcDbLayerTableRecord
  2
102
 70
     0
 62
   102
  6
CONTINUOUS
  0
LAYER
  5
A0
330
2
100
AcDbSymbolTableRecord
100
AcDbLayerTableRecord
  2
103
 70
     0
 62
   103
  6
CONTINUOUS
  0
LAYER
  5
A1
330
2
100
AcDbSymbolTableRecord
100
AcDbLayerTableRecord
  2
104
 70
     0
 62
   104
  6
CONTINUOUS
  0
LAYER
  5
A2
330
2
100
AcDbSymbolTableRecord
100
AcDbLayerTableRecord
  2
105
 70
     0
 62
   105
  6
CONTINUOUS
  0
LAYER
  5
A3
330
2
100
AcDbSymbolTableRecord
100
AcDbLayerTableRecord
  2
106
 70
     0
 62
   106
  6
CONTINUOUS
  0
LAYER
  5
A4
330
2
100
AcDbSymbolTableRecord
100
AcDbLayerTableRecord
  2
107
 70
     0
 62
   107
  6
CONTINUOUS
  0
LAYER
  5
A5
330
2
100
AcDbSymbolTableRecord
100
AcDbLayerTableRecord
  2
108
 70
     0
 62
   108
  6
CONTINUOUS
  0
LAYER
  5
A6
330
2
100
AcDbSymbolTableRecord
100
AcDbLayerTableRecord
  2
109
 70
     0
 62
   109
  6
CONTINUOUS
  0
LAYER
  5
A7
330
2
100
AcDbSymbolTableRecord
100
AcDbLayerTableRecord
  2
110
 70
     0
 62
   110
  6
CONTINUOUS
  0
LAYER
  5
A8
330
2
100
AcDbSymbolTableRecord
100
AcDbLayerTableRecord
  2
111
 70
     0
 62
   111
  6
CONTINUOUS
  0
LAYER
  5
A9
330
2
100
AcDbSymbolTableRecord
100
AcDbLayerTableRecord
  2
112
 70
     0
 62
   112
  6
CONTINUOUS
  0
LAYER
  5
AA
330
2
100
AcDbSymbolTableRecord
100
AcDbLayerTableRecord
  2
113
 70
     0
 62
   113
  6
CONTINUOUS
  0
LAYER
  5
AB
330
2
100
AcDbSymbolTableRecord
100
AcDbLayerTableRecord
  2
114
 70
     0
 62
   114
  6
CONTINUOUS
  0
LAYER
  5
AC
330
2
100
AcDbSymbolTableRecord
100
AcDbLayerTableRecord
  2
115
 70
     0
 62
   115
  6
CONTINUOUS
  0
LAYER
  5
AD
330
2
100
AcDbSymbolTableRecord
100
AcDbLayerTableRecord
  2
116
 70
     0
 62
   116
  6
CONTINUOUS
  0
LAYER
  5
AE
330
2
100
AcDbSymbolTableRecord
100
AcDbLayerTableRecord
  2
117
 70
     0
 62
   117
  6
CONTINUOUS
  0
LAYER
  5
AF
330
2
100
AcDbSymbolTableRecord
100
AcDbLayerTableRecord
  2
118
 70
     0
 62
   118
  6
CONTINUOUS
  0
LAYER
  5
B0
330
2
100
AcDbSymbolTableRecord
100
AcDbLayerTableRecord
  2
119
 70
     0
 62
   119
  6
CONTINUOUS
  0
LAYER
  5
B1
330
2
100
AcDbSymbolTableRecord
100
AcDbLayerTableRecord
  2
120
 70
     0
 62
   120
  6
CONTINUOUS
  0
LAYER
  5
B2
330
2
100
AcDbSymbolTableRecord
100
AcDbLayerTableRecord
  2
121
 70
     0
 62
   121
  6
CONTINUOUS
  0
LAYER
  5
B3
330
2
100
AcDbSymbolTableRecord
100
AcDbLayerTableRecord
  2
122
 70
     0
 62
   122
  6
CONTINUOUS
  0
LAYER
  5
B4
330
2
100
AcDbSymbolTableRecord
100
AcDbLayerTableRecord
  2
123
 70
     0
 62
   123
  6
CONTINUOUS
  0
LAYER
  5
B5
330
2
100
AcDbSymbolTableRecord
100
AcDbLayerTableRecord
  2
124
 70
     0
 62
   124
  6
CONTINUOUS
  0
LAYER
  5
B6
330
2
100
AcDbSymbolTableRecord
100
AcDbLayerTableRecord
  2
125
 70
     0
 62
   125
  6
CONTINUOUS
  0
LAYER
  5
B7
330
2
100
AcDbSymbolTableRecord
100
AcDbLayerTableRecord
  2
126
 70
     0
 62
   126
  6
CONTINUOUS
  0
LAYER
  5
B8
330
2
100
AcDbSymbolTableRecord
100
AcDbLayerTableRecord
  2
127
 70
     0
 62
   127
  6
CONTINUOUS
  0
LAYER
  5
B9
330
2
100
AcDbSymbolTableRecord
100
AcDbLayerTableRecord
  2
128
 70
     0
 62
   128
  6
CONTINUOUS
  0
LAYER
  5
BA
330
2
100
AcDbSymbolTableRecord
100
AcDbLayerTableRecord
  2
129
 70
     0
 62
   129
  6
CONTINUOUS
  0
LAYER
  5
BB
330
2
100
AcDbSymbolTableRecord
100
AcDbLayerTableRecord
  2
130
 70
     0
 62
   130
  6
CONTINUOUS
  0
LAYER
  5
BC
330
2
100
AcDbSymbolTableRecord
100
AcDbLayerTableRecord
  2
131
 70
     0
 62
   131
  6
CONTINUOUS
  0
LAYER
  5
BD
330
2
100
AcDbSymbolTableRecord
100
AcDbLayerTableRecord
  2
132
 70
     0
 62
   132
  6
CONTINUOUS
  0
LAYER
  5
BE
330
2
100
AcDbSymbolTableRecord
100
AcDbLayerTableRecord
  2
133
 70
     0
 62
   133
  6
CONTINUOUS
  0
LAYER
  5
BF
330
2
100
AcDbSymbolTableRecord
100
AcDbLayerTableRecord
  2
134
 70
     0
 62
   134
  6
CONTINUOUS
  0
LAYER
  5
C0
330
2
100
AcDbSymbolTableRecord
100
AcDbLayerTableRecord
  2
135
 70
     0
 62
   135
  6
CONTINUOUS
  0
LAYER
  5
C1
330
2
100
AcDbSymbolTableRecord
100
AcDbLayerTableRecord
  2
136
 70
     0
 62
   136
  6
CONTINUOUS
  0
LAYER
  5
C2
330
2
100
AcDbSymbolTableRecord
100
AcDbLayerTableRecord
  2
137
 70
     0
 62
   137
  6
CONTINUOUS
  0
LAYER
  5
C3
330
2
100
AcDbSymbolTableRecord
100
AcDbLayerTableRecord
  2
138
 70
     0
 62
   138
  6
CONTINUOUS
  0
LAYER
  5
C4
330
2
100
AcDbSymbolTableRecord
100
AcDbLayerTableRecord
  2
139
 70
     0
 62
   139
  6
CONTINUOUS
  0
LAYER
  5
C5
330
2
100
AcDbSymbolTableRecord
100
AcDbLayerTableRecord
  2
140
 70
     0
 62
   140
  6
CONTINUOUS
  0
LAYER
  5
C6
330
2
100
AcDbSymbolTableRecord
100
AcDbLayerTableRecord
  2
141
 70
     0
 62
   141
  6
CONTINUOUS
  0
LAYER
  5
C7
330
2
100
AcDbSymbolTableRecord
100
AcDbLayerTableRecord
  2
142
 70
     0
 62
   142
  6
CONTINUOUS
  0
LAYER
  5
C8
330
2
100
AcDbSymbolTableRecord
100
AcDbLayerTableRecord
  2
143
 70
     0
 62
   143
  6
CONTINUOUS
  0
LAYER
  5
C9
330
2
100
AcDbSymbolTableRecord
100
AcDbLayerTableRecord
  2
144
 70
     0
 62
   144
  6
CONTINUOUS
  0
LAYER
  5
CA
330
2
100
AcDbSymbolTableRecord
100
AcDbLayerTableRecord
  2
145
 70
     0
 62
   145
  6
CONTINUOUS
  0
LAYER
  5
CB
330
2
100
AcDbSymbolTableRecord
100
AcDbLayerTableRecord
  2
146
 70
     0
 62
   146
  6
CONTINUOUS
  0
LAYER
  5
CC
330
2
100
AcDbSymbolTableRecord
100
AcDbLayerTableRecord
  2
147
 70
     0
 62
   147
  6
CONTINUOUS
  0
LAYER
  5
CD
330
2
100
AcDbSymbolTableRecord
100
AcDbLayerTableRecord
  2
148
 70
     0
 62
   148
  6
CONTINUOUS
  0
LAYER
  5
CE
330
2
100
AcDbSymbolTableRecord
100
AcDbLayerTableRecord
  2
149
 70
     0
 62
   149
  6
CONTINUOUS
  0
LAYER
  5
CF
330
2
100
AcDbSymbolTableRecord
100
AcDbLayerTableRecord
  2
150
 70
     0
 62
   150
  6
CONTINUOUS
  0
LAYER
  5
D0
330
2
100
AcDbSymbolTableRecord
100
AcDbLayerTableRecord
  2
151
 70
     0
 62
   151
  6
CONTINUOUS
  0
LAYER
  5
D1
330
2
100
AcDbSymbolTableRecord
100
AcDbLayerTableRecord
  2
152
 70
     0
 62
   152
  6
CONTINUOUS
  0
LAYER
  5
D2
330
2
100
AcDbSymbolTableRecord
100
AcDbLayerTableRecord
  2
153
 70
     0
 62
   153
  6
CONTINUOUS
  0
LAYER
  5
D3
330
2
100
AcDbSymbolTableRecord
100
AcDbLayerTableRecord
  2
154
 70
     0
 62
   154
  6
CONTINUOUS
  0
LAYER
  5
D4
330
2
100
AcDbSymbolTableRecord
100
AcDbLayerTableRecord
  2
155
 70
     0
 62
   155
  6
CONTINUOUS
  0
LAYER
  5
D5
330
2
100
AcDbSymbolTableRecord
100
AcDbLayerTableRecord
  2
156
 70
     0
 62
   156
  6
CONTINUOUS
  0
LAYER
  5
D6
330
2
100
AcDbSymbolTableRecord
100
AcDbLayerTableRecord
  2
157
 70
     0
 62
   157
  6
CONTINUOUS
  0
LAYER
  5
D7
330
2
100
AcDbSymbolTableRecord
100
AcDbLayerTableRecord
  2
158
 70
     0
 62
   158
  6
CONTINUOUS
  0
LAYER
  5
D8
330
2
100
AcDbSymbolTableRecord
100
AcDbLayerTableRecord
  2
159
 70
     0
 62
   159
  6
CONTINUOUS
  0
LAYER
  5
D9
330
2
100
AcDbSymbolTableRecord
100
AcDbLayerTableRecord
  2
160
 70
     0
 62
   160
  6
CONTINUOUS
  0
LAYER
  5
DA
330
2
100
AcDbSymbolTableRecord
100
AcDbLayerTableRecord
  2
161
 70
     0
 62
   161
  6
CONTINUOUS
  0
LAYER
  5
DB
330
2
100
AcDbSymbolTableRecord
100
AcDbLayerTableRecord
  2
162
 70
     0
 62
   162
  6
CONTINUOUS
  0
LAYER
  5
DC
330
2
100
AcDbSymbolTableRecord
100
AcDbLayerTableRecord
  2
163
 70
     0
 62
   163
  6
CONTINUOUS
  0
LAYER
  5
DD
330
2
100
AcDbSymbolTableRecord
100
AcDbLayerTableRecord
  2
164
 70
     0
 62
   164
  6
CONTINUOUS
  0
LAYER
  5
DE
330
2
100
AcDbSymbolTableRecord
100
AcDbLayerTableRecord
  2
165
 70
     0
 62
   165
  6
CONTINUOUS
  0
LAYER
  5
DF
330
2
100
AcDbSymbolTableRecord
100
AcDbLayerTableRecord
  2
166
 70
     0
 62
   166
  6
CONTINUOUS
  0
LAYER
  5
E0
330
2
100
AcDbSymbolTableRecord
100
AcDbLayerTableRecord
  2
167
 70
     0
 62
   167
  6
CONTINUOUS
  0
LAYER
  5
E1
330
2
100
AcDbSymbolTableRecord
100
AcDbLayerTableRecord
  2
168
 70
     0
 62
   168
  6
CONTINUOUS
  0
LAYER
  5
E2
330
2
100
AcDbSymbolTableRecord
100
AcDbLayerTableRecord
  2
169
 70
     0
 62
   169
  6
CONTINUOUS
  0
LAYER
  5
E3
330
2
100
AcDbSymbolTableRecord
100
AcDbLayerTableRecord
  2
170
 70
     0
 62
   170
  6
CONTINUOUS
  0
LAYER
  5
E4
330
2
100
AcDbSymbolTableRecord
100
AcDbLayerTableRecord
  2
171
 70
     0
 62
   171
  6
CONTINUOUS
  0
LAYER
  5
E5
330
2
100
AcDbSymbolTableRecord
100
AcDbLayerTableRecord
  2
172
 70
     0
 62
   172
  6
CONTINUOUS
  0
LAYER
  5
E6
330
2
100
AcDbSymbolTableRecord
100
AcDbLayerTableRecord
  2
173
 70
     0
 62
   173
  6
CONTINUOUS
  0
LAYER
  5
E7
330
2
100
AcDbSymbolTableRecord
100
AcDbLayerTableRecord
  2
174
 70
     0
 62
   174
  6
CONTINUOUS
  0
LAYER
  5
E8
330
2
100
AcDbSymbolTableRecord
100
AcDbLayerTableRecord
  2
175
 70
     0
 62
   175
  6
CONTINUOUS
  0
LAYER
  5
E9
330
2
100
AcDbSymbolTableRecord
100
AcDbLayerTableRecord
  2
176
 70
     0
 62
   176
  6
CONTINUOUS
  0
LAYER
  5
EA
330
2
100
AcDbSymbolTableRecord
100
AcDbLayerTableRecord
  2
177
 70
     0
 62
   177
  6
CONTINUOUS
  0
LAYER
  5
EB
330
2
100
AcDbSymbolTableRecord
100
AcDbLayerTableRecord
  2
178
 70
     0
 62
   178
  6
CONTINUOUS
  0
LAYER
  5
EC
330
2
100
AcDbSymbolTableRecord
100
AcDbLayerTableRecord
  2
179
 70
     0
 62
   179
  6
CONTINUOUS
  0
LAYER
  5
ED
330
2
100
AcDbSymbolTableRecord
100
AcDbLayerTableRecord
  2
180
 70
     0
 62
   180
  6
CONTINUOUS
  0
LAYER
  5
EE
330
2
100
AcDbSymbolTableRecord
100
AcDbLayerTableRecord
  2
181
 70
     0
 62
   181
  6
CONTINUOUS
  0
LAYER
  5
EF
330
2
100
AcDbSymbolTableRecord
100
AcDbLayerTableRecord
  2
182
 70
     0
 62
   182
  6
CONTINUOUS
  0
LAYER
  5
F0
330
2
100
AcDbSymbolTableRecord
100
AcDbLayerTableRecord
  2
183
 70
     0
 62
   183
  6
CONTINUOUS
  0
LAYER
  5
F1
330
2
100
AcDbSymbolTableRecord
100
AcDbLayerTableRecord
  2
184
 70
     0
 62
   184
  6
CONTINUOUS
  0
LAYER
  5
F2
330
2
100
AcDbSymbolTableRecord
100
AcDbLayerTableRecord
  2
185
 70
     0
 62
   185
  6
CONTINUOUS
  0
LAYER
  5
F3
330
2
100
AcDbSymbolTableRecord
100
AcDbLayerTableRecord
  2
186
 70
     0
 62
   186
  6
CONTINUOUS
  0
LAYER
  5
F4
330
2
100
AcDbSymbolTableRecord
100
AcDbLayerTableRecord
  2
187
 70
     0
 62
   187
  6
CONTINUOUS
  0
LAYER
  5
F5
330
2
100
AcDbSymbolTableRecord
100
AcDbLayerTableRecord
  2
188
 70
     0
 62
   188
  6
CONTINUOUS
  0
LAYER
  5
F6
330
2
100
AcDbSymbolTableRecord
100
AcDbLayerTableRecord
  2
189
 70
     0
 62
   189
  6
CONTINUOUS
  0
LAYER
  5
F7
330
2
100
AcDbSymbolTableRecord
100
AcDbLayerTableRecord
  2
190
 70
     0
 62
   190
  6
CONTINUOUS
  0
LAYER
  5
F8
330
2
100
AcDbSymbolTableRecord
100
AcDbLayerTableRecord
  2
191
 70
     0
 62
   191
  6
CONTINUOUS
  0
LAYER
  5
F9
330
2
100
AcDbSymbolTableRecord
100
AcDbLayerTableRecord
  2
192
 70
     0
 62
   192
  6
CONTINUOUS
  0
LAYER
  5
FA
330
2
100
AcDbSymbolTableRecord
100
AcDbLayerTableRecord
  2
193
 70
     0
 62
   193
  6
CONTINUOUS
  0
LAYER
  5
FB
330
2
100
AcDbSymbolTableRecord
100
AcDbLayerTableRecord
  2
194
 70
     0
 62
   194
  6
CONTINUOUS
  0
LAYER
  5
FC
330
2
100
AcDbSymbolTableRecord
100
AcDbLayerTableRecord
  2
195
 70
     0
 62
   195
  6
CONTINUOUS
  0
LAYER
  5
FD
330
2
100
AcDbSymbolTableRecord
100
AcDbLayerTableRecord
  2
196
 70
     0
 62
   196
  6
CONTINUOUS
  0
LAYER
  5
FE
330
2
100
AcDbSymbolTableRecord
100
AcDbLayerTableRecord
  2
197
 70
     0
 62
   197
  6
CONTINUOUS
  0
LAYER
  5
FF
330
2
100
AcDbSymbolTableRecord
100
AcDbLayerTableRecord
  2
198
 70
     0
 62
   198
  6
CONTINUOUS
  0
LAYER
  5
100
330
2
100
AcDbSymbolTableRecord
100
AcDbLayerTableRecord
  2
199
 70
     0
 62
   199
  6
CONTINUOUS
  0
LAYER
  5
101
330
2
100
AcDbSymbolTableRecord
100
AcDbLayerTableRecord
  2
200
 70
     0
 62
   200
  6
CONTINUOUS
  0
LAYER
  5
102
330
2
100
AcDbSymbolTableRecord
100
AcDbLayerTableRecord
  2
201
 70
     0
 62
   201
  6
CONTINUOUS
  0
LAYER
  5
103
330
2
100
AcDbSymbolTableRecord
100
AcDbLayerTableRecord
  2
202
 70
     0
 62
   202
  6
CONTINUOUS
  0
LAYER
  5
104
330
2
100
AcDbSymbolTableRecord
100
AcDbLayerTableRecord
  2
203
 70
     0
 62
   203
  6
CONTINUOUS
  0
LAYER
  5
105
330
2
100
AcDbSymbolTableRecord
100
AcDbLayerTableRecord
  2
204
 70
     0
 62
   204
  6
CONTINUOUS
  0
LAYER
  5
106
330
2
100
AcDbSymbolTableRecord
100
AcDbLayerTableRecord
  2
205
 70
     0
 62
   205
  6
CONTINUOUS
  0
LAYER
  5
107
330
2
100
AcDbSymbolTableRecord
100
AcDbLayerTableRecord
  2
206
 70
     0
 62
   206
  6
CONTINUOUS
  0
LAYER
  5
108
330
2
100
AcDbSymbolTableRecord
100
AcDbLayerTableRecord
  2
207
 70
     0
 62
   207
  6
CONTINUOUS
  0
LAYER
  5
109
330
2
100
AcDbSymbolTableRecord
100
AcDbLayerTableRecord
  2
208
 70
     0
 62
   208
  6
CONTINUOUS
  0
LAYER
  5
10A
330
2
100
AcDbSymbolTableRecord
100
AcDbLayerTableRecord
  2
209
 70
     0
 62
   209
  6
CONTINUOUS
  0
LAYER
  5
10B
330
2
100
AcDbSymbolTableRecord
100
AcDbLayerTableRecord
  2
210
 70
     0
 62
   210
  6
CONTINUOUS
  0
LAYER
  5
10C
330
2
100
AcDbSymbolTableRecord
100
AcDbLayerTableRecord
  2
211
 70
     0
 62
   211
  6
CONTINUOUS
  0
LAYER
  5
10D
330
2
100
AcDbSymbolTableRecord
100
AcDbLayerTableRecord
  2
212
 70
     0
 62
   212
  6
CONTINUOUS
  0
LAYER
  5
10E
330
2
100
AcDbSymbolTableRecord
100
AcDbLayerTableRecord
  2
213
 70
     0
 62
   213
  6
CONTINUOUS
  0
LAYER
  5
10F
330
2
100
AcDbSymbolTableRecord
100
AcDbLayerTableRecord
  2
214
 70
     0
 62
   214
  6
CONTINUOUS
  0
LAYER
  5
110
330
2
100
AcDbSymbolTableRecord
100
AcDbLayerTableRecord
  2
215
 70
     0
 62
   215
  6
CONTINUOUS
  0
LAYER
  5
111
330
2
100
AcDbSymbolTableRecord
100
AcDbLayerTableRecord
  2
216
 70
     0
 62
   216
  6
CONTINUOUS
  0
LAYER
  5
112
330
2
100
AcDbSymbolTableRecord
100
AcDbLayerTableRecord
  2
217
 70
     0
 62
   217
  6
CONTINUOUS
  0
LAYER
  5
113
330
2
100
AcDbSymbolTableRecord
100
AcDbLayerTableRecord
  2
218
 70
     0
 62
   218
  6
CONTINUOUS
  0
LAYER
  5
114
330
2
100
AcDbSymbolTableRecord
100
AcDbLayerTableRecord
  2
219
 70
     0
 62
   219
  6
CONTINUOUS
  0
LAYER
  5
115
330
2
100
AcDbSymbolTableRecord
100
AcDbLayerTableRecord
  2
220
 70
     0
 62
   220
  6
CONTINUOUS
  0
LAYER
  5
116
330
2
100
AcDbSymbolTableRecord
100
AcDbLayerTableRecord
  2
221
 70
     0
 62
   221
  6
CONTINUOUS
  0
LAYER
  5
117
330
2
100
AcDbSymbolTableRecord
100
AcDbLayerTableRecord
  2
222
 70
     0
 62
   222
  6
CONTINUOUS
  0
LAYER
  5
118
330
2
100
AcDbSymbolTableRecord
100
AcDbLayerTableRecord
  2
223
 70
     0
 62
   223
  6
CONTINUOUS
  0
LAYER
  5
119
330
2
100
AcDbSymbolTableRecord
100
AcDbLayerTableRecord
  2
224
 70
     0
 62
   224
  6
CONTINUOUS
  0
LAYER
  5
11A
330
2
100
AcDbSymbolTableRecord
100
AcDbLayerTableRecord
  2
225
 70
     0
 62
   225
  6
CONTINUOUS
  0
LAYER
  5
11B
330
2
100
AcDbSymbolTableRecord
100
AcDbLayerTableRecord
  2
226
 70
     0
 62
   226
  6
CONTINUOUS
  0
LAYER
  5
11C
330
2
100
AcDbSymbolTableRecord
100
AcDbLayerTableRecord
  2
227
 70
     0
 62
   227
  6
CONTINUOUS
  0
LAYER
  5
11D
330
2
100
AcDbSymbolTableRecord
100
AcDbLayerTableRecord
  2
228
 70
     0
 62
   228
  6
CONTINUOUS
  0
LAYER
  5
11E
330
2
100
AcDbSymbolTableRecord
100
AcDbLayerTableRecord
  2
229
 70
     0
 62
   229
  6
CONTINUOUS
  0
LAYER
  5
11F
330
2
100
AcDbSymbolTableRecord
100
AcDbLayerTableRecord
  2
230
 70
     0
 62
   230
  6
CONTINUOUS
  0
LAYER
  5
120
330
2
100
AcDbSymbolTableRecord
100
AcDbLayerTableRecord
  2
231
 70
     0
 62
   231
  6
CONTINUOUS
  0
LAYER
  5
121
330
2
100
AcDbSymbolTableRecord
100
AcDbLayerTableRecord
  2
232
 70
     0
 62
   232
  6
CONTINUOUS
  0
LAYER
  5
122
330
2
100
AcDbSymbolTableRecord
100
AcDbLayerTableRecord
  2
233
 70
     0
 62
   233
  6
CONTINUOUS
  0
LAYER
  5
123
330
2
100
AcDbSymbolTableRecord
100
AcDbLayerTableRecord
  2
234
 70
     0
 62
   234
  6
CONTINUOUS
  0
LAYER
  5
124
330
2
100
AcDbSymbolTableRecord
100
AcDbLayerTableRecord
  2
235
 70
     0
 62
   235
  6
CONTINUOUS
  0
LAYER
  5
125
330
2
100
AcDbSymbolTableRecord
100
AcDbLayerTableRecord
  2
236
 70
     0
 62
   236
  6
CONTINUOUS
  0
LAYER
  5
126
330
2
100
AcDbSymbolTableRecord
100
AcDbLayerTableRecord
  2
237
 70
     0
 62
   237
  6
CONTINUOUS
  0
LAYER
  5
127
330
2
100
AcDbSymbolTableRecord
100
AcDbLayerTableRecord
  2
238
 70
     0
 62
   238
  6
CONTINUOUS
  0
LAYER
  5
128
330
2
100
AcDbSymbolTableRecord
100
AcDbLayerTableRecord
  2
239
 70
     0
 62
   239
  6
CONTINUOUS
  0
LAYER
  5
129
330
2
100
AcDbSymbolTableRecord
100
AcDbLayerTableRecord
  2
240
 70
     0
 62
   240
  6
CONTINUOUS
  0
LAYER
  5
12A
330
2
100
AcDbSymbolTableRecord
100
AcDbLayerTableRecord
  2
241
 70
     0
 62
   241
  6
CONTINUOUS
  0
LAYER
  5
12B
330
2
100
AcDbSymbolTableRecord
100
AcDbLayerTableRecord
  2
242
 70
     0
 62
   242
  6
CONTINUOUS
  0
LAYER
  5
12C
330
2
100
AcDbSymbolTableRecord
100
AcDbLayerTableRecord
  2
243
 70
     0
 62
   243
  6
CONTINUOUS
  0
LAYER
  5
12D
330
2
100
AcDbSymbolTableRecord
100
AcDbLayerTableRecord
  2
244
 70
     0
 62
   244
  6
CONTINUOUS
  0
LAYER
  5
12E
330
2
100
AcDbSymbolTableRecord
100
AcDbLayerTableRecord
  2
245
 70
     0
 62
   245
  6
CONTINUOUS
  0
LAYER
  5
12F
330
2
100
AcDbSymbolTableRecord
100
AcDbLayerTableRecord
  2
246
 70
     0
 62
   246
  6
CONTINUOUS
  0
LAYER
  5
130
330
2
100
AcDbSymbolTableRecord
100
AcDbLayerTableRecord
  2
247
 70
     0
 62
   247
  6
CONTINUOUS
  0
LAYER
  5
131
330
2
100
AcDbSymbolTableRecord
100
AcDbLayerTableRecord
  2
248
 70
     0
 62
   248
  6
CONTINUOUS
  0
LAYER
  5
132
330
2
100
AcDbSymbolTableRecord
100
AcDbLayerTableRecord
  2
249
 70
     0
 62
   249
  6
CONTINUOUS
  0
LAYER
  5
133
330
2
100
AcDbSymbolTableRecord
100
AcDbLayerTableRecord
  2
250
 70
     0
 62
   250
  6
CONTINUOUS
  0
LAYER
  5
134
330
2
100
AcDbSymbolTableRecord
100
AcDbLayerTableRecord
  2
251
 70
     0
 62
   251
  6
CONTINUOUS
  0
LAYER
  5
135
330
2
100
AcDbSymbolTableRecord
100
AcDbLayerTableRecord
  2
252
 70
     0
 62
   252
  6
CONTINUOUS
  0
LAYER
  5
136
330
2
100
AcDbSymbolTableRecord
100
AcDbLayerTableRecord
  2
253
 70
     0
 62
   253
  6
CONTINUOUS
  0
LAYER
  5
137
330
2
100
AcDbSymbolTableRecord
100
AcDbLayerTableRecord
  2
254
 70
     0
 62
   254
  6
CONTINUOUS
  0
LAYER
  5
138
330
2
100
AcDbSymbolTableRecord
100
AcDbLayerTableRecord
  2
255
 70
     0
 62
   255
  6
CONTINUOUS
  0
ENDTAB
  0
TABLE
  2
STYLE
  5
3
330
0
100
AcDbSymbolTable
 70
     1
  0
STYLE
  5
11
330
3
100
AcDbSymbolTableRecord
100
AcDbTextStyleTableRecord
  2
STANDARD
 70
     0
 40
0.0
 41
1.0
 50
0.0
 71
     0
 42
0.2
  3
monotxt
  4

  0
ENDTAB
  0
TABLE
  2
VIEW
  5
6
330
0
100
AcDbSymbolTable
 70
     0
  0
ENDTAB
  0
TABLE
  2
UCS
  5
7
330
0
100
AcDbSymbolTable
 70
     0
  0
ENDTAB
  0
TABLE
  2
APPID
  5
9
330
0
100
AcDbSymbolTable
 70
     1
  0
APPID
  5
12
330
9
100
AcDbSymbolTableRecord
100
AcDbRegAppTableRecord
  2
ACAD
 70
     0
  0
ENDTAB
  0
TABLE
  2
DIMSTYLE
  5
A
330
0
100
AcDbSymbolTable
 70
     1
  0
DIMSTYLE
105
39E5
330
A
100
AcDbSymbolTableRecord
100
AcDbDimStyleTableRecord
  2
STANDARD
 70
     0
  3

  4

  5

  6

  7

 40
1.0
 41
0.18
 42
0.0625
 43
0.38
 44
0.18
 45
0.0
 46
0.0
 47
0.0
 48
0.0
140
0.18
141
0.09
142
0.0
143
25.4
144
1.0
145
0.0
146
1.0
147
0.09
 71
     0
 72
     0
 73
     1
 74
     1
 75
     0
 76
     0
 77
     0
 78
     0
170
     0
171
     2
172
     0
173
     0
174
     0
175
     0
176
     0
177
     0
178
     0
270
     2
271
     4
272
     4
273
     2
274
     2
340
11
275
     0
280
     0
281
     0
282
     0
283
     1
284
     0
285
     0
286
     0
287
     3
288
     0
  0
ENDTAB
  0
TABLE
  2
BLOCK_RECORD
  5
1
330
0
100
AcDbSymbolTable
 70
     0
  0
BLOCK_RECORD
  5
1E
102
{ACAD_XDICTIONARY
360
5421
102
}
330
1
100
AcDbSymbolTableRecord
100
AcDbBlockTableRecord
  2
*MODEL_SPACE
  0
BLOCK_RECORD
  5
1A
102
{ACAD_XDICTIONARY
360
5423
102
}
330
1
100
AcDbSymbolTableRecord
100
AcDbBlockTableRecord
  2
*PAPER_SPACE
  0
ENDTAB
  0
ENDSEC
  0
SECTION
  2
BLOCKS
  0
BLOCK
  5
13B
330
1E
100
AcDbEntity
  8
0
100
AcDbBlockBegin
  2
*MODEL_SPACE
 70
     0
 10
0.0
 20
0.0
 30
0.0
  3
*MODEL_SPACE
  1

  0
ENDBLK
  5
13C
330
1E
100
AcDbEntity
  8
0
100
AcDbBlockEnd
  0
BLOCK
  5
139
330
1A
100
AcDbEntity
 67
     1
  8
0
100
AcDbBlockBegin
  2
*PAPER_SPACE
 70
     0
 10
0.0
 20
0.0
 30
0.0
  3
*PAPER_SPACE
  1

  0
ENDBLK
  5
13A
330
1A
100
AcDbEntity
 67
     1
  8
0
100
AcDbBlockEnd
  0
ENDSEC
  0
SECTION
  2
ENTITIES
  0
LINE
  5
26B7
330
1E
100
AcDbEntity
  8
7
100
AcDbLine
 10
1.938976377952755
 20
5.45767716535433
 30
0.0
 11
1.938976377952755
 21
5.308070866141732
 31
0.0
  0
LINE
  5
26B8
330
1E
100
AcDbEntity
  8
7
100
AcDbLine
 10
2.125984251968503
 20
5.308070866141732
 30
0.0
 11
2.125984251968503
 21
5.45767716535433
 31
0.0
  0
LINE
  5
26B9
330
1E
100
AcDbEntity
  8
7
100
AcDbLine
 10
2.923228346456692
 20
5.45767716535433
 30
0.0
 11
2.923228346456692
 21
5.308070866141732
 31
0.0
  0
LINE
  5
26BA
330
1E
100
AcDbEntity
  8
7
100
AcDbLine
 10
3.11023622047244
 20
5.308070866141732
 30
0.0
 11
3.11023622047244
 21
5.45767716535433
 31
0.0
  0
LINE
  5
26BB
330
1E
100
AcDbEntity
  8
7
100
AcDbLine
 10
2.196850393700787
 20
5.45767716535433
 30
0.0
 11
2.196850393700787
 21
5.295275590551181
 31
0.0
  0
LINE
  5
26BC
330
1E
100
AcDbEntity
  8
7
100
AcDbLine
 10
2.852362204724409
 20
5.295275590551181
 30
0.0
 11
2.852362204724409
 21
5.45767716535433
 31
0.0
  0
LINE
  5
26BD
330
1E
100
AcDbEntity
  8
7
100
AcDbLine
 10
2.224409448818897
 20
6.100393700787401
 30
0.0
 11
2.224409448818897
 21
6.085629921259842
 31
0.0
  0
LINE
  5
26BE
330
1E
100
AcDbEntity
  8
7
100
AcDbLine
 10
2.169291338582677
 20
6.129921259842519
 30
0.0
 11
2.169291338582677
 21
6.080708661417323
 31
0.0
  0
LINE
  5
26BF
330
1E
100
AcDbEntity
  8
7
100
AcDbLine
 10
2.838582677165354
 20
6.081692913385826
 30
0.0
 11
2.838582677165354
 21
6.130905511811023
 31
0.0
  0
LINE
  5
26C0
330
1E
100
AcDbEntity
  8
7
100
AcDbLine
 10
2.770669291338582
 20
6.780511811023622
 30
0.0
 11
2.761811023622047
 21
6.770669291338582
 31
0.0
  0
LINE
  5
26C1
330
1E
100
AcDbEntity
  8
7
100
AcDbLine
 10
1.961614173228346
 20
6.234251968503937
 30
0.0
 11
1.95767716535433
 21
6.230314960629921
 31
0.0
  0
LINE
  5
26C2
330
1E
100
AcDbEntity
  8
7
100
AcDbLine
 10
2.066929133858267
 20
6.274606299212598
 30
0.0
 11
2.061023622047243
 21
6.259842519685038
 31
0.0
  0
LINE
  5
26C3
330
1E
100
AcDbEntity
  8
7
100
AcDbLine
 10
2.312007874015748
 20
6.770669291338582
 30
0.0
 11
2.321850393700787
 21
6.775590551181101
 31
0.0
  0
LINE
  5
26C4
330
1E
100
AcDbEntity
  8
7
100
AcDbLine
 10
2.741141732283464
 20
6.770669291338582
 30
0.0
 11
2.731299212598425
 21
6.780511811023622
 31
0.0
  0
LINE
  5
26C5
330
1E
100
AcDbEntity
  8
7
100
AcDbLine
 10
2.741141732283464
 20
6.790354330708661
 30
0.0
 11
2.731299212598425
 21
6.8001968503937
 31
0.0
  0
LINE
  5
26CB
330
1E
100
AcDbEntity
  8
7
100
AcDbLine
 10
2.171259842519685
 20
6.775590551181101
 30
0.0
 11
2.161417322834645
 21
6.770669291338582
 31
0.0
  0
LINE
  5
26CC
330
1E
100
AcDbEntity
  8
7
100
AcDbLine
 10
2.731299212598425
 20
6.810039370078739
 30
0.0
 11
2.741141732283464
 21
6.819881889763779
 31
0.0
  0
LINE
  5
26CD
330
1E
100
AcDbEntity
  8
7
100
AcDbLine
 10
2.581692913385826
 20
6.785433070866141
 30
0.0
 11
2.622047244094487
 21
6.810039370078739
 31
0.0
  0
LINE
  5
26CE
330
1E
100
AcDbEntity
  8
7
100
AcDbLine
 10
2.194881889763779
 20
6.43011811023622
 30
0.0
 11
2.18503937007874
 21
6.4251968503937
 31
0.0
  0
LINE
  5
26CF
330
1E
100
AcDbEntity
  8
7
100
AcDbLine
 10
2.214566929133858
 20
6.105314960629921
 30
0.0
 11
2.224409448818897
 21
6.100393700787401
 31
0.0
  0
LINE
  5
26D0
330
1E
100
AcDbEntity
  8
7
100
AcDbLine
 10
1.95767716535433
 20
6.230314960629921
 30
0.0
 11
1.95767716535433
 21
6.279527559055117
 31
0.0
  0
LINE
  5
26D1
330
1E
100
AcDbEntity
  8
7
100
AcDbLine
 10
2.224409448818897
 20
6.085629921259842
 30
0.0
 11
2.214566929133858
 21
6.080708661417323
 31
0.0
  0
LINE
  5
26D2
330
1E
100
AcDbEntity
  8
7
100
AcDbLine
 10
2.18503937007874
 20
6.125
 30
0.0
 11
2.18503937007874
 21
6.11023622047244
 31
0.0
  0
LINE
  5
26D3
330
1E
100
AcDbEntity
  8
7
100
AcDbLine
 10
2.131889763779527
 20
6.775590551181101
 30
0.0
 11
2.131889763779527
 21
6.790354330708661
 31
0.0
  0
LINE
  5
26D4
330
1E
100
AcDbEntity
  8
7
100
AcDbLine
 10
2.18503937007874
 20
6.4251968503937
 30
0.0
 11
2.18503937007874
 21
6.405511811023622
 31
0.0
  0
LINE
  5
26D5
330
1E
100
AcDbEntity
  8
7
100
AcDbLine
 10
2.827755905511811
 20
6.23523622047244
 30
0.0
 11
2.83759842519685
 21
6.230314960629921
 31
0.0
  0
LINE
  5
26D6
330
1E
100
AcDbEntity
  8
7
100
AcDbLine
 10
2.612204724409448
 20
6.770669291338582
 30
0.0
 11
2.591535433070866
 21
6.770669291338582
 31
0.0
  0
LINE
  5
26D7
330
1E
100
AcDbEntity
  8
7
100
AcDbLine
 10
2.224409448818897
 20
6.404527559055117
 30
0.0
 11
2.224409448818897
 21
6.380905511811023
 31
0.0
  0
LINE
  5
26D8
330
1E
100
AcDbEntity
  8
7
100
AcDbLine
 10
2.432086614173228
 20
6.770669291338582
 30
0.0
 11
2.471456692913385
 21
6.770669291338582
 31
0.0
  0
LINE
  5
26D9
330
1E
100
AcDbEntity
  8
7
100
AcDbLine
 10
2.171259842519685
 20
6.81496062992126
 30
0.0
 11
2.161417322834645
 21
6.819881889763779
 31
0.0
  0
LINE
  5
26DA
330
1E
100
AcDbEntity
  8
7
100
AcDbLine
 10
2.901574803149606
 20
6.770669291338582
 30
0.0
 11
2.901574803149606
 21
6.819881889763779
 31
0.0
  0
LINE
  5
26DB
330
1E
100
AcDbEntity
  8
7
100
AcDbLine
 10
2.621062992125984
 20
6.775590551181101
 30
0.0
 11
2.612204724409448
 21
6.770669291338582
 31
0.0
  0
LINE
  5
26DC
330
1E
100
AcDbEntity
  8
7
100
AcDbLine
 10
2.741141732283464
 20
6.819881889763779
 30
0.0
 11
2.761811023622047
 21
6.819881889763779
 31
0.0
  0
LINE
  5
26DD
330
1E
100
AcDbEntity
  8
7
100
AcDbLine
 10
2.869094488188976
 20
6.43011811023622
 30
0.0
 11
2.829724409448818
 21
6.43011811023622
 31
0.0
  0
LINE
  5
26DE
330
1E
100
AcDbEntity
  8
7
100
AcDbLine
 10
2.908464566929133
 20
6.279527559055117
 30
0.0
 11
2.895669291338582
 21
6.279527559055117
 31
0.0
  0
LINE
  5
26DF
330
1E
100
AcDbEntity
  8
7
100
AcDbLine
 10
2.869094488188976
 20
6.384842519685038
 30
0.0
 11
2.86023622047244
 21
6.380905511811023
 31
0.0
  0
LINE
  5
26E0
330
1E
100
AcDbEntity
  8
7
100
AcDbLine
 10
2.828740157480314
 20
6.111220472440944
 30
0.0
 11
2.868110236220472
 21
6.111220472440944
 31
0.0
  0
LINE
  5
26E1
330
1E
100
AcDbEntity
  8
7
100
AcDbLine
 10
2.171259842519685
 20
6.790354330708661
 30
0.0
 11
2.171259842519685
 21
6.775590551181101
 31
0.0
  0
LINE
  5
26E2
330
1E
100
AcDbEntity
  8
7
100
AcDbLine
 10
2.827755905511811
 20
6.259842519685038
 30
0.0
 11
2.83759842519685
 21
6.254921259842519
 31
0.0
  0
LINE
  5
26E3
330
1E
100
AcDbEntity
  8
7
100
AcDbLine
 10
2.18503937007874
 20
6.259842519685038
 30
0.0
 11
2.224409448818897
 21
6.259842519685038
 31
0.0
  0
LINE
  5
26E4
330
1E
100
AcDbEntity
  8
7
100
AcDbLine
 10
2.291338582677165
 20
6.79527559055118
 30
0.0
 11
2.281496062992125
 21
6.790354330708661
 31
0.0
  0
LINE
  5
26E5
330
1E
100
AcDbEntity
  8
7
100
AcDbLine
 10
2.161417322834645
 20
6.79527559055118
 30
0.0
 11
2.171259842519685
 21
6.790354330708661
 31
0.0
  0
LINE
  5
26E6
330
1E
100
AcDbEntity
  8
7
100
AcDbLine
 10
2.281496062992125
 20
6.8001968503937
 30
0.0
 11
2.291338582677165
 21
6.79527559055118
 31
0.0
  0
LINE
  5
26E7
330
1E
100
AcDbEntity
  8
7
100
AcDbLine
 10
2.194881889763779
 20
6.400590551181101
 30
0.0
 11
2.214566929133858
 21
6.400590551181101
 31
0.0
  0
LINE
  5
26E8
330
1E
100
AcDbEntity
  8
7
100
AcDbLine
 10
2.18503937007874
 20
6.405511811023622
 30
0.0
 11
2.194881889763779
 21
6.400590551181101
 31
0.0
  0
LINE
  5
26E9
330
1E
100
AcDbEntity
  8
7
100
AcDbLine
 10
2.101377952755905
 20
6.259842519685038
 30
0.0
 11
2.096456692913385
 21
6.274606299212598
 31
0.0
  0
LINE
  5
26EA
330
1E
100
AcDbEntity
  8
7
100
AcDbLine
 10
2.224409448818897
 20
6.125
 30
0.0
 11
2.214566929133858
 21
6.129921259842519
 31
0.0
  0
LINE
  5
26EB
330
1E
100
AcDbEntity
  8
7
100
AcDbLine
 10
2.281496062992125
 20
6.775590551181101
 30
0.0
 11
2.291338582677165
 21
6.770669291338582
 31
0.0
  0
LINE
  5
26EC
330
1E
100
AcDbEntity
  8
7
100
AcDbLine
 10
2.1751968503937
 20
6.279527559055117
 30
0.0
 11
2.1751968503937
 21
6.269685039370078
 31
0.0
  0
LINE
  5
26ED
330
1E
100
AcDbEntity
  8
7
100
AcDbLine
 10
2.908464566929133
 20
6.384842519685038
 30
0.0
 11
2.903543307086614
 21
6.380905511811023
 31
0.0
  0
LINE
  5
26EE
330
1E
100
AcDbEntity
  8
7
100
AcDbLine
 10
2.829724409448818
 20
6.394685039370078
 30
0.0
 11
2.87007874015748
 21
6.42027559055118
 31
0.0
  0
LINE
  5
26EF
330
1E
100
AcDbEntity
  8
7
100
AcDbLine
 10
2.827755905511811
 20
6.25
 30
0.0
 11
2.827755905511811
 21
6.23523622047244
 31
0.0
  0
LINE
  5
26F0
330
1E
100
AcDbEntity
  8
7
100
AcDbLine
 10
2.761811023622047
 20
6.819881889763779
 30
0.0
 11
2.770669291338582
 21
6.810039370078739
 31
0.0
  0
LINE
  5
26F1
330
1E
100
AcDbEntity
  8
7
100
AcDbLine
 10
2.129921259842519
 20
6.105314960629921
 30
0.0
 11
2.169291338582677
 21
6.105314960629921
 31
0.0
  0
LINE
  5
26F2
330
1E
100
AcDbEntity
  8
7
100
AcDbLine
 10
2.868110236220472
 20
6.111220472440944
 30
0.0
 11
2.838582677165354
 21
6.081692913385826
 31
0.0
  0
LINE
  5
26F3
330
1E
100
AcDbEntity
  8
7
100
AcDbLine
 10
2.83759842519685
 20
6.254921259842519
 30
0.0
 11
2.853346456692913
 21
6.254921259842519
 31
0.0
  0
LINE
  5
26F4
330
1E
100
AcDbEntity
  8
7
100
AcDbLine
 10
2.868110236220472
 20
6.275590551181101
 30
0.0
 11
2.858267716535432
 21
6.279527559055117
 31
0.0
  0
LINE
  5
26F5
330
1E
100
AcDbEntity
  8
7
100
AcDbLine
 10
2.591535433070866
 20
6.770669291338582
 30
0.0
 11
2.581692913385826
 21
6.775590551181101
 31
0.0
  0
LINE
  5
26F6
330
1E
100
AcDbEntity
  8
7
100
AcDbLine
 10
2.907480314960629
 20
6.085629921259842
 30
0.0
 11
2.903543307086614
 21
6.081692913385826
 31
0.0
  0
LINE
  5
26F7
330
1E
100
AcDbEntity
  8
7
100
AcDbLine
 10
2.291338582677165
 20
6.770669291338582
 30
0.0
 11
2.312007874015748
 21
6.770669291338582
 31
0.0
  0
LINE
  5
26F8
330
1E
100
AcDbEntity
  8
7
100
AcDbLine
 10
2.042322834645669
 20
6.284448818897637
 30
0.0
 11
2.052165354330708
 21
6.290354330708661
 31
0.0
  0
LINE
  5
26F9
330
1E
100
AcDbEntity
  8
7
100
AcDbLine
 10
2.622047244094487
 20
6.810039370078739
 30
0.0
 11
2.621062992125984
 21
6.819881889763779
 31
0.0
  0
LINE
  5
26FA
330
1E
100
AcDbEntity
  8
7
100
AcDbLine
 10
2.839566929133858
 20
6.380905511811023
 30
0.0
 11
2.829724409448818
 21
6.384842519685038
 31
0.0
  0
LINE
  5
26FB
330
1E
100
AcDbEntity
  8
7
100
AcDbLine
 10
2.131889763779527
 20
6.8001968503937
 30
0.0
 11
2.141732283464567
 21
6.79527559055118
 31
0.0
  0
LINE
  5
26FC
330
1E
100
AcDbEntity
  8
7
100
AcDbLine
 10
2.903543307086614
 20
6.081692913385826
 30
0.0
 11
2.903543307086614
 21
6.130905511811023
 31
0.0
  0
LINE
  5
26FD
330
1E
100
AcDbEntity
  8
7
100
AcDbLine
 10
2.194881889763779
 20
6.080708661417323
 30
0.0
 11
2.18503937007874
 21
6.085629921259842
 31
0.0
  0
LINE
  5
26FE
330
1E
100
AcDbEntity
  8
7
100
AcDbLine
 10
2.141732283464567
 20
6.279527559055117
 30
0.0
 11
2.128937007874015
 21
6.279527559055117
 31
0.0
  0
LINE
  5
26FF
330
1E
100
AcDbEntity
  8
7
100
AcDbLine
 10
2.858267716535432
 20
6.230314960629921
 30
0.0
 11
2.868110236220472
 21
6.23523622047244
 31
0.0
  0
LINE
  5
2700
330
1E
100
AcDbEntity
  8
7
100
AcDbLine
 10
2.214566929133858
 20
6.43011811023622
 30
0.0
 11
2.194881889763779
 21
6.43011811023622
 31
0.0
  0
LINE
  5
2701
330
1E
100
AcDbEntity
  8
7
100
AcDbLine
 10
2.141732283464567
 20
6.819881889763779
 30
0.0
 11
2.131889763779527
 21
6.81496062992126
 31
0.0
  0
LINE
  5
2702
330
1E
100
AcDbEntity
  8
7
100
AcDbLine
 10
2.052165354330708
 20
6.279527559055117
 30
0.0
 11
2.052165354330708
 21
6.269685039370078
 31
0.0
  0
LINE
  5
2703
330
1E
100
AcDbEntity
  8
7
100
AcDbLine
 10
2.731299212598425
 20
6.8001968503937
 30
0.0
 11
2.731299212598425
 21
6.810039370078739
 31
0.0
  0
LINE
  5
2704
330
1E
100
AcDbEntity
  8
7
100
AcDbLine
 10
2.135826771653543
 20
6.230314960629921
 30
0.0
 11
2.135826771653543
 21
6.279527559055117
 31
0.0
  0
LINE
  5
2705
330
1E
100
AcDbEntity
  8
7
100
AcDbLine
 10
2.905511811023622
 20
6.774606299212598
 30
0.0
 11
2.901574803149606
 21
6.770669291338582
 31
0.0
  0
LINE
  5
2706
330
1E
100
AcDbEntity
  8
7
100
AcDbLine
 10
2.141732283464567
 20
6.770669291338582
 30
0.0
 11
2.131889763779527
 21
6.775590551181101
 31
0.0
  0
LINE
  5
2707
330
1E
100
AcDbEntity
  8
7
100
AcDbLine
 10
2.086614173228346
 20
6.230314960629921
 30
0.0
 11
2.096456692913385
 21
6.23523622047244
 31
0.0
  0
LINE
  5
2708
330
1E
100
AcDbEntity
  8
7
100
AcDbLine
 10
2.171259842519685
 20
6.8001968503937
 30
0.0
 11
2.171259842519685
 21
6.81496062992126
 31
0.0
  0
LINE
  5
2709
330
1E
100
AcDbEntity
  8
7
100
AcDbLine
 10
2.291338582677165
 20
6.819881889763779
 30
0.0
 11
2.281496062992125
 21
6.81496062992126
 31
0.0
  0
LINE
  5
270A
330
1E
100
AcDbEntity
  8
7
100
AcDbLine
 10
2.1751968503937
 20
6.269685039370078
 30
0.0
 11
2.165354330708661
 21
6.269685039370078
 31
0.0
  0
LINE
  5
270B
330
1E
100
AcDbEntity
  8
7
100
AcDbLine
 10
2.456692913385826
 20
6.819881889763779
 30
0.0
 11
2.432086614173228
 21
6.770669291338582
 31
0.0
  0
LINE
  5
270C
330
1E
100
AcDbEntity
  8
7
100
AcDbLine
 10
2.139763779527559
 20
6.234251968503937
 30
0.0
 11
2.135826771653543
 21
6.230314960629921
 31
0.0
  0
LINE
  5
270D
330
1E
100
AcDbEntity
  8
7
100
AcDbLine
 10
2.858267716535432
 20
6.279527559055117
 30
0.0
 11
2.83759842519685
 21
6.279527559055117
 31
0.0
  0
LINE
  5
270E
330
1E
100
AcDbEntity
  8
7
100
AcDbLine
 10
2.291338582677165
 20
6.79527559055118
 30
0.0
 11
2.306102362204724
 21
6.79527559055118
 31
0.0
  0
LINE
  5
270F
330
1E
100
AcDbEntity
  8
7
100
AcDbLine
 10
2.281496062992125
 20
6.81496062992126
 30
0.0
 11
2.281496062992125
 21
6.8001968503937
 31
0.0
  0
LINE
  5
2710
330
1E
100
AcDbEntity
  8
7
100
AcDbLine
 10
2.061023622047243
 20
6.259842519685038
 30
0.0
 11
2.061023622047243
 21
6.25
 31
0.0
  0
LINE
  5
2711
330
1E
100
AcDbEntity
  8
7
100
AcDbLine
 10
2.907480314960629
 20
6.819881889763779
 30
0.0
 11
2.895669291338582
 21
6.819881889763779
 31
0.0
  0
LINE
  5
2712
330
1E
100
AcDbEntity
  8
7
100
AcDbLine
 10
2.161417322834645
 20
6.819881889763779
 30
0.0
 11
2.141732283464567
 21
6.819881889763779
 31
0.0
  0
LINE
  5
2713
330
1E
100
AcDbEntity
  8
7
100
AcDbLine
 10
2.87007874015748
 20
6.42027559055118
 30
0.0
 11
2.869094488188976
 21
6.43011811023622
 31
0.0
  0
LINE
  5
2714
330
1E
100
AcDbEntity
  8
7
100
AcDbLine
 10
2.903543307086614
 20
6.380905511811023
 30
0.0
 11
2.903543307086614
 21
6.43011811023622
 31
0.0
  0
LINE
  5
2715
330
1E
100
AcDbEntity
  8
7
100
AcDbLine
 10
2.076771653543306
 20
6.230314960629921
 30
0.0
 11
2.086614173228346
 21
6.230314960629921
 31
0.0
  0
LINE
  5
2716
330
1E
100
AcDbEntity
  8
7
100
AcDbLine
 10
2.214566929133858
 20
6.400590551181101
 30
0.0
 11
2.224409448818897
 21
6.404527559055117
 31
0.0
  0
LINE
  5
2717
330
1E
100
AcDbEntity
  8
7
100
AcDbLine
 10
2.224409448818897
 20
6.259842519685038
 30
0.0
 11
2.194881889763779
 21
6.230314960629921
 31
0.0
  0
LINE
  5
2718
330
1E
100
AcDbEntity
  8
7
100
AcDbLine
 10
2.90255905511811
 20
6.230314960629921
 30
0.0
 11
2.90255905511811
 21
6.279527559055117
 31
0.0
  0
LINE
  5
2719
330
1E
100
AcDbEntity
  8
7
100
AcDbLine
 10
1.963582677165354
 20
6.279527559055117
 30
0.0
 11
1.951771653543307
 21
6.279527559055117
 31
0.0
  0
LINE
  5
271A
330
1E
100
AcDbEntity
  8
7
100
AcDbLine
 10
2.11515748031496
 20
6.129921259842519
 30
0.0
 11
2.075787401574803
 21
6.129921259842519
 31
0.0
  0
LINE
  5
271B
330
1E
100
AcDbEntity
  8
7
100
AcDbLine
 10
2.076771653543306
 20
6.279527559055117
 30
0.0
 11
2.066929133858267
 21
6.274606299212598
 31
0.0
  0
LINE
  5
271C
330
1E
100
AcDbEntity
  8
7
100
AcDbLine
 10
2.827755905511811
 20
6.275590551181101
 30
0.0
 11
2.827755905511811
 21
6.259842519685038
 31
0.0
  0
LINE
  5
271D
330
1E
100
AcDbEntity
  8
7
100
AcDbLine
 10
2.131889763779527
 20
6.790354330708661
 30
0.0
 11
2.141732283464567
 21
6.79527559055118
 31
0.0
  0
LINE
  5
271E
330
1E
100
AcDbEntity
  8
7
100
AcDbLine
 10
2.129921259842519
 20
6.129921259842519
 30
0.0
 11
2.129921259842519
 21
6.080708661417323
 31
0.0
  0
LINE
  5
271F
330
1E
100
AcDbEntity
  8
7
100
AcDbLine
 10
2.581692913385826
 20
6.775590551181101
 30
0.0
 11
2.581692913385826
 21
6.785433070866141
 31
0.0
  0
LINE
  5
2720
330
1E
100
AcDbEntity
  8
7
100
AcDbLine
 10
2.224409448818897
 20
6.4251968503937
 30
0.0
 11
2.214566929133858
 21
6.43011811023622
 31
0.0
  0
LINE
  5
2721
330
1E
100
AcDbEntity
  8
7
100
AcDbLine
 10
2.83759842519685
 20
6.279527559055117
 30
0.0
 11
2.827755905511811
 21
6.275590551181101
 31
0.0
  0
LINE
  5
2722
330
1E
100
AcDbEntity
  8
7
100
AcDbLine
 10
2.770669291338582
 20
6.8001968503937
 30
0.0
 11
2.761811023622047
 21
6.790354330708661
 31
0.0
  0
LINE
  5
2723
330
1E
100
AcDbEntity
  8
7
100
AcDbLine
 10
2.061023622047243
 20
6.25
 30
0.0
 11
2.066929133858267
 21
6.23523622047244
 31
0.0
  0
LINE
  5
2724
330
1E
100
AcDbEntity
  8
7
100
AcDbLine
 10
2.812007874015748
 20
6.025590551181101
 30
0.0
 11
2.812007874015748
 21
6.035433070866141
 31
0.0
  0
LINE
  5
2725
330
1E
100
AcDbEntity
  8
7
100
AcDbLine
 10
2.161417322834645
 20
6.79527559055118
 30
0.0
 11
2.171259842519685
 21
6.8001968503937
 31
0.0
  0
LINE
  5
2726
330
1E
100
AcDbEntity
  8
7
100
AcDbLine
 10
2.194881889763779
 20
6.230314960629921
 30
0.0
 11
2.194881889763779
 21
6.279527559055117
 31
0.0
  0
LINE
  5
2727
330
1E
100
AcDbEntity
  8
7
100
AcDbLine
 10
2.214566929133858
 20
6.129921259842519
 30
0.0
 11
2.194881889763779
 21
6.129921259842519
 31
0.0
  0
LINE
  5
2728
330
1E
100
AcDbEntity
  8
7
100
AcDbLine
 10
2.042322834645669
 20
6.279527559055117
 30
0.0
 11
2.052165354330708
 21
6.279527559055117
 31
0.0
  0
LINE
  5
2729
330
1E
100
AcDbEntity
  8
7
100
AcDbLine
 10
2.131889763779527
 20
6.81496062992126
 30
0.0
 11
2.131889763779527
 21
6.8001968503937
 31
0.0
  0
LINE
  5
272A
330
1E
100
AcDbEntity
  8
7
100
AcDbLine
 10
2.11515748031496
 20
6.080708661417323
 30
0.0
 11
2.11515748031496
 21
6.129921259842519
 31
0.0
  0
LINE
  5
272B
330
1E
100
AcDbEntity
  8
7
100
AcDbLine
 10
2.042322834645669
 20
6.269685039370078
 30
0.0
 11
2.042322834645669
 21
6.284448818897637
 31
0.0
  0
LINE
  5
272C
330
1E
100
AcDbEntity
  8
7
100
AcDbLine
 10
2.016732283464567
 20
6.234251968503937
 30
0.0
 11
2.011811023622047
 21
6.230314960629921
 31
0.0
  0
LINE
  5
272D
330
1E
100
AcDbEntity
  8
7
100
AcDbLine
 10
2.066929133858267
 20
6.23523622047244
 30
0.0
 11
2.076771653543306
 21
6.230314960629921
 31
0.0
  0
LINE
  5
272E
330
1E
100
AcDbEntity
  8
7
100
AcDbLine
 10
2.829724409448818
 20
6.384842519685038
 30
0.0
 11
2.829724409448818
 21
6.394685039370078
 31
0.0
  0
LINE
  5
272F
330
1E
100
AcDbEntity
  8
7
100
AcDbLine
 10
2.101377952755905
 20
6.25
 30
0.0
 11
2.101377952755905
 21
6.259842519685038
 31
0.0
  0
LINE
  5
2730
330
1E
100
AcDbEntity
  8
7
100
AcDbLine
 10
2.096456692913385
 20
6.274606299212598
 30
0.0
 11
2.086614173228346
 21
6.279527559055117
 31
0.0
  0
LINE
  5
2731
330
1E
100
AcDbEntity
  8
7
100
AcDbLine
 10
2.214566929133858
 20
6.080708661417323
 30
0.0
 11
2.194881889763779
 21
6.080708661417323
 31
0.0
  0
LINE
  5
2732
330
1E
100
AcDbEntity
  8
7
100
AcDbLine
 10
2.281496062992125
 20
6.790354330708661
 30
0.0
 11
2.281496062992125
 21
6.775590551181101
 31
0.0
  0
LINE
  5
2733
330
1E
100
AcDbEntity
  8
7
100
AcDbLine
 10
2.761811023622047
 20
6.790354330708661
 30
0.0
 11
2.741141732283464
 21
6.790354330708661
 31
0.0
  0
LINE
  5
2734
330
1E
100
AcDbEntity
  8
7
100
AcDbLine
 10
2.086614173228346
 20
6.279527559055117
 30
0.0
 11
2.076771653543306
 21
6.279527559055117
 31
0.0
  0
LINE
  5
2735
330
1E
100
AcDbEntity
  8
7
100
AcDbLine
 10
2.761811023622047
 20
6.770669291338582
 30
0.0
 11
2.741141732283464
 21
6.770669291338582
 31
0.0
  0
LINE
  5
2736
330
1E
100
AcDbEntity
  8
7
100
AcDbLine
 10
2.224409448818897
 20
6.380905511811023
 30
0.0
 11
2.18503937007874
 21
6.380905511811023
 31
0.0
  0
LINE
  5
2737
330
1E
100
AcDbEntity
  8
7
100
AcDbLine
 10
2.83759842519685
 20
6.254921259842519
 30
0.0
 11
2.827755905511811
 21
6.25
 31
0.0
  0
LINE
  5
2738
330
1E
100
AcDbEntity
  8
7
100
AcDbLine
 10
2.909448818897637
 20
6.130905511811023
 30
0.0
 11
2.896653543307086
 21
6.130905511811023
 31
0.0
  0
LINE
  5
2739
330
1E
100
AcDbEntity
  8
7
100
AcDbLine
 10
2.011811023622047
 20
6.230314960629921
 30
0.0
 11
2.011811023622047
 21
6.279527559055117
 31
0.0
  0
LINE
  5
273A
330
1E
100
AcDbEntity
  8
7
100
AcDbLine
 10
2.018700787401574
 20
6.279527559055117
 30
0.0
 11
2.005905511811023
 21
6.279527559055117
 31
0.0
  0
LINE
  5
273B
330
1E
100
AcDbEntity
  8
7
100
AcDbLine
 10
2.161417322834645
 20
6.770669291338582
 30
0.0
 11
2.141732283464567
 21
6.770669291338582
 31
0.0
  0
LINE
  5
273C
330
1E
100
AcDbEntity
  8
7
100
AcDbLine
 10
2.910433070866141
 20
6.43011811023622
 30
0.0
 11
2.89763779527559
 21
6.43011811023622
 31
0.0
  0
LINE
  5
273D
330
1E
100
AcDbEntity
  8
7
100
AcDbLine
 10
2.312007874015748
 20
6.819881889763779
 30
0.0
 11
2.291338582677165
 21
6.819881889763779
 31
0.0
  0
LINE
  5
273E
330
1E
100
AcDbEntity
  8
7
100
AcDbLine
 10
2.18503937007874
 20
6.11023622047244
 30
0.0
 11
2.194881889763779
 21
6.105314960629921
 31
0.0
  0
LINE
  5
273F
330
1E
100
AcDbEntity
  8
7
100
AcDbLine
 10
2.141732283464567
 20
6.79527559055118
 30
0.0
 11
2.161417322834645
 21
6.79527559055118
 31
0.0
  0
LINE
  5
2740
330
1E
100
AcDbEntity
  8
7
100
AcDbLine
 10
2.165354330708661
 20
6.279527559055117
 30
0.0
 11
2.1751968503937
 21
6.279527559055117
 31
0.0
  0
LINE
  5
2741
330
1E
100
AcDbEntity
  8
7
100
AcDbLine
 10
2.83759842519685
 20
6.230314960629921
 30
0.0
 11
2.858267716535432
 21
6.230314960629921
 31
0.0
  0
LINE
  5
2742
330
1E
100
AcDbEntity
  8
7
100
AcDbLine
 10
2.86023622047244
 20
6.380905511811023
 30
0.0
 11
2.839566929133858
 21
6.380905511811023
 31
0.0
  0
LINE
  5
2743
330
1E
100
AcDbEntity
  8
7
100
AcDbLine
 10
2.194881889763779
 20
6.129921259842519
 30
0.0
 11
2.18503937007874
 21
6.125
 31
0.0
  0
LINE
  5
2744
330
1E
100
AcDbEntity
  8
7
100
AcDbLine
 10
2.096456692913385
 20
6.23523622047244
 30
0.0
 11
2.101377952755905
 21
6.25
 31
0.0
  0
LINE
  5
2745
330
1E
100
AcDbEntity
  8
7
100
AcDbLine
 10
2.906496062992125
 20
6.234251968503937
 30
0.0
 11
2.90255905511811
 21
6.230314960629921
 31
0.0
  0
LINE
  5
2746
330
1E
100
AcDbEntity
  8
7
100
AcDbLine
 10
2.194881889763779
 20
6.105314960629921
 30
0.0
 11
2.214566929133858
 21
6.105314960629921
 31
0.0
  0
LINE
  5
2747
330
1E
100
AcDbEntity
  8
7
100
AcDbLine
 10
2.052165354330708
 20
6.269685039370078
 30
0.0
 11
2.042322834645669
 21
6.269685039370078
 31
0.0
  0
LINE
  5
2748
330
1E
100
AcDbEntity
  8
7
100
AcDbLine
 10
2.320866141732283
 20
6.81496062992126
 30
0.0
 11
2.312007874015748
 21
6.819881889763779
 31
0.0
  0
LINE
  5
2749
330
1E
100
AcDbEntity
  8
7
100
AcDbLine
 10
2.621062992125984
 20
6.819881889763779
 30
0.0
 11
2.581692913385826
 21
6.819881889763779
 31
0.0
  0
LINE
  5
274A
330
1E
100
AcDbEntity
  8
7
100
AcDbLine
 10
2.770669291338582
 20
6.810039370078739
 30
0.0
 11
2.770669291338582
 21
6.780511811023622
 31
0.0
  0
LINE
  5
274B
330
1E
100
AcDbEntity
  8
7
100
AcDbLine
 10
3.307086614173228
 20
5.45767716535433
 30
0.0
 11
1.742125984251968
 21
5.45767716535433
 31
0.0
  0
LINE
  5
274C
330
1E
100
AcDbEntity
  8
7
100
AcDbLine
 10
3.295275590551181
 20
5.645669291338582
 30
0.0
 11
1.753937007874015
 21
5.645669291338582
 31
0.0
  0
LINE
  5
274D
330
1E
100
AcDbEntity
  8
7
100
AcDbLine
 10
3.30511811023622
 20
5.645669291338582
 30
0.0
 11
3.295275590551181
 21
5.645669291338582
 31
0.0
  0
LINE
  5
274E
330
1E
100
AcDbEntity
  8
7
100
AcDbLine
 10
1.744094488188976
 20
5.645669291338582
 30
0.0
 11
1.753937007874015
 21
5.645669291338582
 31
0.0
  0
LINE
  5
274F
330
1E
100
AcDbEntity
  8
7
100
AcDbLine
 10
3.306102362204724
 20
5.544291338582676
 30
0.0
 11
3.307086614173228
 21
5.45767716535433
 31
0.0
  0
LINE
  5
2750
330
1E
100
AcDbEntity
  8
7
100
AcDbLine
 10
3.30511811023622
 20
5.645669291338582
 30
0.0
 11
3.306102362204724
 21
5.544291338582676
 31
0.0
  0
LINE
  5
2751
330
1E
100
AcDbEntity
  8
7
100
AcDbLine
 10
1.742125984251968
 20
5.45767716535433
 30
0.0
 11
1.743110236220472
 21
5.544291338582676
 31
0.0
  0
LINE
  5
2752
330
1E
100
AcDbEntity
  8
7
100
AcDbLine
 10
1.744094488188976
 20
5.645669291338582
 30
0.0
 11
1.743110236220472
 21
5.544291338582676
 31
0.0
  0
LINE
  5
275D
330
1E
100
AcDbEntity
  8
7
100
AcDbLine
 10
3.236220472440944
 20
5.976377952755905
 30
0.0
 11
3.230314960629921
 21
5.645669291338582
 31
0.0
  0
LINE
  5
275E
330
1E
100
AcDbEntity
  8
7
100
AcDbLine
 10
1.812992125984251
 20
5.976377952755905
 30
0.0
 11
1.818897637795275
 21
5.645669291338582
 31
0.0
  0
LINE
  5
275F
330
1E
100
AcDbEntity
  8
7
100
AcDbLine
 10
3.307086614173228
 20
5.826771653543307
 30
0.0
 11
3.304133858267716
 21
5.645669291338582
 31
0.0
  0
LINE
  5
2765
330
1E
100
AcDbEntity
  8
7
100
AcDbLine
 10
3.26771653543307
 20
5.976377952755905
 30
0.0
 11
3.342519685039369
 21
5.846456692913386
 31
0.0
  0
LINE
  5
2766
330
1E
100
AcDbEntity
  8
7
100
AcDbLine
 10
3.236220472440944
 20
5.976377952755905
 30
0.0
 11
3.26771653543307
 21
5.976377952755905
 31
0.0
  0
LINE
  5
276C
330
1E
100
AcDbEntity
  8
7
100
AcDbLine
 10
1.706692913385826
 20
5.826771653543307
 30
0.0
 11
1.706692913385826
 21
5.846456692913386
 31
0.0
  0
LINE
  5
276D
330
1E
100
AcDbEntity
  8
7
100
AcDbLine
 10
1.742125984251968
 20
5.826771653543307
 30
0.0
 11
1.706692913385826
 21
5.826771653543307
 31
0.0
  0
LINE
  5
276E
330
1E
100
AcDbEntity
  8
7
100
AcDbLine
 10
1.74507874015748
 20
5.645669291338582
 30
0.0
 11
1.742125984251968
 21
5.826771653543307
 31
0.0
  0
LINE
  5
276F
330
1E
100
AcDbEntity
  8
7
100
AcDbLine
 10
2.456692913385826
 20
6.605314960629921
 30
0.0
 11
2.456692913385826
 21
6.575787401574802
 31
0.0
  0
LINE
  5
277F
330
1E
100
AcDbEntity
  8
7
100
AcDbLine
 10
2.456692913385826
 20
6.605314960629921
 30
0.0
 11
2.476377952755905
 21
6.605314960629921
 31
0.0
  0
LINE
  5
27A2
330
1E
100
AcDbEntity
  8
7
100
AcDbLine
 10
2.426181102362204
 20
6.605314960629921
 30
0.0
 11
2.446850393700787
 21
6.605314960629921
 31
0.0
  0
LINE
  5
27A3
330
1E
100
AcDbEntity
  8
7
100
AcDbLine
 10
2.426181102362204
 20
6.61515748031496
 30
0.0
 11
2.426181102362204
 21
6.605314960629921
 31
0.0
  0
LINE
  5
27A4
330
1E
100
AcDbEntity
  8
7
100
AcDbLine
 10
2.426181102362204
 20
6.61515748031496
 30
0.0
 11
2.446850393700787
 21
6.61515748031496
 31
0.0
  0
LINE
  5
27A5
330
1E
100
AcDbEntity
  8
7
100
AcDbLine
 10
2.446850393700787
 20
6.644685039370078
 30
0.0
 11
2.446850393700787
 21
6.61515748031496
 31
0.0
  0
LINE
  5
27C8
330
1E
100
AcDbEntity
  8
7
100
AcDbLine
 10
2.781496062992125
 20
6.030511811023622
 30
0.0
 11
2.739173228346456
 21
6.030511811023622
 31
0.0
  0
LINE
  5
27C9
330
1E
100
AcDbEntity
  8
7
100
AcDbLine
 10
2.781496062992125
 20
6.480314960629921
 30
0.0
 11
2.781496062992125
 21
6.030511811023622
 31
0.0
  0
LINE
  5
27CF
330
1E
100
AcDbEntity
  8
7
100
AcDbLine
 10
2.781496062992125
 20
6.030511811023622
 30
0.0
 11
2.812007874015748
 21
6.030511811023622
 31
0.0
  0
LINE
  5
27D0
330
1E
100
AcDbEntity
  8
7
100
AcDbLine
 10
2.812007874015748
 20
6.480314960629921
 30
0.0
 11
2.812007874015748
 21
6.030511811023622
 31
0.0
  0
LINE
  5
27D1
330
1E
100
AcDbEntity
  8
7
100
AcDbLine
 10
2.781496062992125
 20
6.480314960629921
 30
0.0
 11
2.812007874015748
 21
6.480314960629921
 31
0.0
  0
LINE
  5
27D2
330
1E
100
AcDbEntity
  8
7
100
AcDbLine
 10
2.574803149606299
 20
6.030511811023622
 30
0.0
 11
2.531496062992125
 21
6.030511811023622
 31
0.0
  0
LINE
  5
27D9
330
1E
100
AcDbEntity
  8
7
100
AcDbLine
 10
2.739173228346456
 20
6.030511811023622
 30
0.0
 11
2.574803149606299
 21
6.030511811023622
 31
0.0
  0
LINE
  5
27DA
330
1E
100
AcDbEntity
  8
7
100
AcDbLine
 10
2.739173228346456
 20
6.480314960629921
 30
0.0
 11
2.574803149606299
 21
6.480314960629921
 31
0.0
  0
LINE
  5
281D
330
1E
100
AcDbEntity
  8
7
100
AcDbLine
 10
2.661417322834645
 20
6.410433070866141
 30
0.0
 11
2.690944881889763
 21
6.410433070866141
 31
0.0
  0
LINE
  5
282F
330
1E
100
AcDbEntity
  8
7
100
AcDbLine
 10
2.661417322834645
 20
6.410433070866141
 30
0.0
 11
2.661417322834645
 21
6.43011811023622
 31
0.0
  0
LINE
  5
283E
330
1E
100
AcDbEntity
  8
7
100
AcDbLine
 10
2.622047244094487
 20
6.410433070866141
 30
0.0
 11
2.621062992125984
 21
6.410433070866141
 31
0.0
  0
LINE
  5
284F
330
1E
100
AcDbEntity
  8
7
100
AcDbLine
 10
2.661417322834645
 20
6.379921259842519
 30
0.0
 11
2.661417322834645
 21
6.400590551181101
 31
0.0
  0
LINE
  5
2850
330
1E
100
AcDbEntity
  8
7
100
AcDbLine
 10
2.651574803149606
 20
6.379921259842519
 30
0.0
 11
2.661417322834645
 21
6.379921259842519
 31
0.0
  0
LINE
  5
2851
330
1E
100
AcDbEntity
  8
7
100
AcDbLine
 10
2.651574803149606
 20
6.379921259842519
 30
0.0
 11
2.651574803149606
 21
6.400590551181101
 31
0.0
  0
LINE
  5
2852
330
1E
100
AcDbEntity
  8
7
100
AcDbLine
 10
2.622047244094487
 20
6.400590551181101
 30
0.0
 11
2.651574803149606
 21
6.400590551181101
 31
0.0
  0
LINE
  5
2869
330
1E
100
AcDbEntity
  8
7
100
AcDbLine
 10
2.700787401574803
 20
6.400590551181101
 30
0.0
 11
2.700787401574803
 21
6.405511811023622
 31
0.0
  0
LINE
  5
286A
330
1E
100
AcDbEntity
  8
7
100
AcDbLine
 10
2.700787401574803
 20
6.405511811023622
 30
0.0
 11
2.700787401574803
 21
6.410433070866141
 31
0.0
  0
LINE
  5
2872
330
1E
100
AcDbEntity
  8
7
100
AcDbLine
 10
2.391732283464567
 20
6.11023622047244
 30
0.0
 11
2.362204724409448
 21
6.11023622047244
 31
0.0
  0
LINE
  5
2881
330
1E
100
AcDbEntity
  8
7
100
AcDbLine
 10
2.391732283464567
 20
6.100393700787401
 30
0.0
 11
2.362204724409448
 21
6.100393700787401
 31
0.0
  0
LINE
  5
2882
330
1E
100
AcDbEntity
  8
7
100
AcDbLine
 10
2.391732283464567
 20
6.11023622047244
 30
0.0
 11
2.391732283464567
 21
6.129921259842519
 31
0.0
  0
LINE
  5
2883
330
1E
100
AcDbEntity
  8
7
100
AcDbLine
 10
2.401574803149606
 20
6.129921259842519
 30
0.0
 11
2.391732283464567
 21
6.129921259842519
 31
0.0
  0
LINE
  5
2884
330
1E
100
AcDbEntity
  8
7
100
AcDbLine
 10
2.401574803149606
 20
6.11023622047244
 30
0.0
 11
2.401574803149606
 21
6.129921259842519
 31
0.0
  0
LINE
  5
2885
330
1E
100
AcDbEntity
  8
7
100
AcDbLine
 10
2.431102362204724
 20
6.11023622047244
 30
0.0
 11
2.401574803149606
 21
6.11023622047244
 31
0.0
  0
LINE
  5
289F
330
1E
100
AcDbEntity
  8
7
100
AcDbLine
 10
2.391732283464567
 20
6.080708661417323
 30
0.0
 11
2.391732283464567
 21
6.100393700787401
 31
0.0
  0
LINE
  5
28A0
330
1E
100
AcDbEntity
  8
7
100
AcDbLine
 10
2.362204724409448
 20
6.100393700787401
 30
0.0
 11
2.371062992125984
 21
6.08267716535433
 31
0.0
  0
LINE
  5
28A8
330
1E
100
AcDbEntity
  8
7
100
AcDbLine
 10
2.431102362204724
 20
6.100393700787401
 30
0.0
 11
2.401574803149606
 21
6.100393700787401
 31
0.0
  0
LINE
  5
28A9
330
1E
100
AcDbEntity
  8
7
100
AcDbLine
 10
2.401574803149606
 20
6.080708661417323
 30
0.0
 11
2.401574803149606
 21
6.100393700787401
 31
0.0
  0
LINE
  5
28AA
330
1E
100
AcDbEntity
  8
7
100
AcDbLine
 10
2.401574803149606
 20
6.080708661417323
 30
0.0
 11
2.391732283464567
 21
6.080708661417323
 31
0.0
  0
LINE
  5
28C5
330
1E
100
AcDbEntity
  8
7
100
AcDbLine
 10
2.307086614173228
 20
6.605314960629921
 30
0.0
 11
2.307086614173228
 21
6.575787401574802
 31
0.0
  0
LINE
  5
28D8
330
1E
100
AcDbEntity
  8
7
100
AcDbLine
 10
2.307086614173228
 20
6.605314960629921
 30
0.0
 11
2.326771653543306
 21
6.605314960629921
 31
0.0
  0
LINE
  5
28F7
330
1E
100
AcDbEntity
  8
7
100
AcDbLine
 10
2.325787401574803
 20
6.646653543307086
 30
0.0
 11
2.306102362204724
 21
6.654527559055117
 31
0.0
  0
LINE
  5
28F8
330
1E
100
AcDbEntity
  8
7
100
AcDbLine
 10
2.276574803149606
 20
6.605314960629921
 30
0.0
 11
2.296259842519685
 21
6.605314960629921
 31
0.0
  0
LINE
  5
28F9
330
1E
100
AcDbEntity
  8
7
100
AcDbLine
 10
2.276574803149606
 20
6.61515748031496
 30
0.0
 11
2.276574803149606
 21
6.605314960629921
 31
0.0
  0
LINE
  5
28FA
330
1E
100
AcDbEntity
  8
7
100
AcDbLine
 10
2.276574803149606
 20
6.61515748031496
 30
0.0
 11
2.296259842519685
 21
6.61515748031496
 31
0.0
  0
LINE
  5
28FB
330
1E
100
AcDbEntity
  8
7
100
AcDbLine
 10
2.296259842519685
 20
6.644685039370078
 30
0.0
 11
2.296259842519685
 21
6.61515748031496
 31
0.0
  0
LINE
  5
291E
330
1E
100
AcDbEntity
  8
7
100
AcDbLine
 10
2.265748031496062
 20
5.295275590551181
 30
0.0
 11
2.783464566929133
 21
5.295275590551181
 31
0.0
  0
LINE
  5
292D
330
1E
100
AcDbEntity
  8
7
100
AcDbLine
 10
2.265748031496062
 20
5.45767716535433
 30
0.0
 11
2.265748031496062
 21
5.295275590551181
 31
0.0
  0
LINE
  5
292E
330
1E
100
AcDbEntity
  8
7
100
AcDbLine
 10
2.783464566929133
 20
5.295275590551181
 30
0.0
 11
2.783464566929133
 21
5.45767716535433
 31
0.0
  0
LINE
  5
292F
330
1E
100
AcDbEntity
  8
7
100
AcDbLine
 10
3.133858267716535
 20
5.715551181102362
 30
0.0
 11
3.133858267716535
 21
5.645669291338582
 31
0.0
  0
LINE
  5
2930
330
1E
100
AcDbEntity
  8
7
100
AcDbLine
 10
1.915354330708661
 20
5.715551181102362
 30
0.0
 11
1.915354330708661
 21
5.645669291338582
 31
0.0
  0
LINE
  5
2931
330
1E
100
AcDbEntity
  8
7
100
AcDbLine
 10
1.915354330708661
 20
5.715551181102362
 30
0.0
 11
3.133858267716535
 21
5.715551181102362
 31
0.0
  0
LINE
  5
2932
330
1E
100
AcDbEntity
  8
7
100
AcDbLine
 10
2.661417322834645
 20
6.11023622047244
 30
0.0
 11
2.690944881889763
 21
6.11023622047244
 31
0.0
  0
LINE
  5
2944
330
1E
100
AcDbEntity
  8
7
100
AcDbLine
 10
2.661417322834645
 20
6.11023622047244
 30
0.0
 11
2.661417322834645
 21
6.129921259842519
 31
0.0
  0
LINE
  5
2967
330
1E
100
AcDbEntity
  8
7
100
AcDbLine
 10
2.661417322834645
 20
6.080708661417323
 30
0.0
 11
2.661417322834645
 21
6.100393700787401
 31
0.0
  0
LINE
  5
2968
330
1E
100
AcDbEntity
  8
7
100
AcDbLine
 10
2.651574803149606
 20
6.080708661417323
 30
0.0
 11
2.661417322834645
 21
6.080708661417323
 31
0.0
  0
LINE
  5
2969
330
1E
100
AcDbEntity
  8
7
100
AcDbLine
 10
2.651574803149606
 20
6.080708661417323
 30
0.0
 11
2.651574803149606
 21
6.100393700787401
 31
0.0
  0
LINE
  5
296A
330
1E
100
AcDbEntity
  8
7
100
AcDbLine
 10
2.622047244094487
 20
6.100393700787401
 30
0.0
 11
2.651574803149606
 21
6.100393700787401
 31
0.0
  0
LINE
  5
2993
330
1E
100
AcDbEntity
  8
7
100
AcDbLine
 10
2.117125984251968
 20
5.84251968503937
 30
0.0
 11
2.117125984251968
 21
5.972440944881889
 31
0.0
  0
LINE
  5
299A
330
1E
100
AcDbEntity
  8
7
100
AcDbLine
 10
1.96751968503937
 20
5.792322834645669
 30
0.0
 11
2.067913385826771
 21
5.792322834645669
 31
0.0
  0
LINE
  5
29A1
330
1E
100
AcDbEntity
  8
7
100
AcDbLine
 10
1.917322834645669
 20
5.715551181102362
 30
0.0
 11
1.917322834645669
 21
5.743110236220472
 31
0.0
  0
LINE
  5
29A2
330
1E
100
AcDbEntity
  8
7
100
AcDbLine
 10
3.135826771653543
 20
5.645669291338582
 30
0.0
 11
3.135826771653543
 21
5.743110236220472
 31
0.0
  0
LINE
  5
29A9
330
1E
100
AcDbEntity
  8
7
100
AcDbLine
 10
2.98523622047244
 20
5.792322834645669
 30
0.0
 11
3.085629921259842
 21
5.792322834645669
 31
0.0
  0
LINE
  5
29B0
330
1E
100
AcDbEntity
  8
7
100
AcDbLine
 10
2.936023622047244
 20
5.972440944881889
 30
0.0
 11
2.936023622047244
 21
5.84251968503937
 31
0.0
  0
LINE
  5
29B6
330
1E
100
AcDbEntity
  8
7
100
AcDbLine
 10
2.942913385826771
 20
5.997047244094487
 30
0.0
 11
2.936023622047244
 21
5.972440944881889
 31
0.0
  0
LINE
  5
29B7
330
1E
100
AcDbEntity
  8
7
100
AcDbLine
 10
3.085629921259842
 20
6.02263779527559
 30
0.0
 11
2.98523622047244
 21
6.02263779527559
 31
0.0
  0
LINE
  5
29BE
330
1E
100
AcDbEntity
  8
7
100
AcDbLine
 10
3.135826771653543
 20
6.072834645669291
 30
0.0
 11
3.135826771653543
 21
6.775590551181101
 31
0.0
  0
LINE
  5
29C5
330
1E
100
AcDbEntity
  8
7
100
AcDbLine
 10
1.96751968503937
 20
6.824803149606299
 30
0.0
 11
3.085629921259842
 21
6.824803149606299
 31
0.0
  0
LINE
  5
29CC
330
1E
100
AcDbEntity
  8
7
100
AcDbLine
 10
1.917322834645669
 20
6.072834645669291
 30
0.0
 11
1.917322834645669
 21
6.775590551181101
 31
0.0
  0
LINE
  5
29D3
330
1E
100
AcDbEntity
  8
7
100
AcDbLine
 10
2.067913385826771
 20
6.02263779527559
 30
0.0
 11
1.96751968503937
 21
6.02263779527559
 31
0.0
  0
LINE
  5
29D4
330
1E
100
AcDbEntity
  8
7
100
AcDbLine
 10
2.606299212598425
 20
6.605314960629921
 30
0.0
 11
2.606299212598425
 21
6.575787401574802
 31
0.0
  0
LINE
  5
29E4
330
1E
100
AcDbEntity
  8
7
100
AcDbLine
 10
2.606299212598425
 20
6.605314960629921
 30
0.0
 11
2.626968503937007
 21
6.605314960629921
 31
0.0
  0
LINE
  5
29FA
330
1E
100
AcDbEntity
  8
7
100
AcDbLine
 10
2.606299212598425
 20
6.653543307086613
 30
0.0
 11
2.606299212598425
 21
6.654527559055117
 31
0.0
  0
LINE
  5
2A04
330
1E
100
AcDbEntity
  8
7
100
AcDbLine
 10
2.576771653543306
 20
6.605314960629921
 30
0.0
 11
2.596456692913385
 21
6.605314960629921
 31
0.0
  0
LINE
  5
2A05
330
1E
100
AcDbEntity
  8
7
100
AcDbLine
 10
2.576771653543306
 20
6.61515748031496
 30
0.0
 11
2.576771653543306
 21
6.605314960629921
 31
0.0
  0
LINE
  5
2A06
330
1E
100
AcDbEntity
  8
7
100
AcDbLine
 10
2.576771653543306
 20
6.61515748031496
 30
0.0
 11
2.596456692913385
 21
6.61515748031496
 31
0.0
  0
LINE
  5
2A07
330
1E
100
AcDbEntity
  8
7
100
AcDbLine
 10
2.596456692913385
 20
6.644685039370078
 30
0.0
 11
2.596456692913385
 21
6.61515748031496
 31
0.0
  0
LINE
  5
2A2A
330
1E
100
AcDbEntity
  8
7
100
AcDbLine
 10
2.391732283464567
 20
6.259842519685038
 30
0.0
 11
2.362204724409448
 21
6.259842519685038
 31
0.0
  0
LINE
  5
2A32
330
1E
100
AcDbEntity
  8
7
100
AcDbLine
 10
2.362204724409448
 20
6.25
 30
0.0
 11
2.359251968503937
 21
6.25
 31
0.0
  0
LINE
  5
2A39
330
1E
100
AcDbEntity
  8
7
100
AcDbLine
 10
2.391732283464567
 20
6.25
 30
0.0
 11
2.362204724409448
 21
6.25
 31
0.0
  0
LINE
  5
2A3A
330
1E
100
AcDbEntity
  8
7
100
AcDbLine
 10
2.391732283464567
 20
6.259842519685038
 30
0.0
 11
2.391732283464567
 21
6.280511811023622
 31
0.0
  0
LINE
  5
2A3B
330
1E
100
AcDbEntity
  8
7
100
AcDbLine
 10
2.401574803149606
 20
6.280511811023622
 30
0.0
 11
2.391732283464567
 21
6.280511811023622
 31
0.0
  0
LINE
  5
2A3C
330
1E
100
AcDbEntity
  8
7
100
AcDbLine
 10
2.401574803149606
 20
6.259842519685038
 30
0.0
 11
2.401574803149606
 21
6.280511811023622
 31
0.0
  0
LINE
  5
2A3D
330
1E
100
AcDbEntity
  8
7
100
AcDbLine
 10
2.431102362204724
 20
6.259842519685038
 30
0.0
 11
2.401574803149606
 21
6.259842519685038
 31
0.0
  0
LINE
  5
2A57
330
1E
100
AcDbEntity
  8
7
100
AcDbLine
 10
2.391732283464567
 20
6.230314960629921
 30
0.0
 11
2.391732283464567
 21
6.25
 31
0.0
  0
LINE
  5
2A63
330
1E
100
AcDbEntity
  8
7
100
AcDbLine
 10
2.431102362204724
 20
6.25
 30
0.0
 11
2.401574803149606
 21
6.25
 31
0.0
  0
LINE
  5
2A64
330
1E
100
AcDbEntity
  8
7
100
AcDbLine
 10
2.401574803149606
 20
6.230314960629921
 30
0.0
 11
2.401574803149606
 21
6.25
 31
0.0
  0
LINE
  5
2A65
330
1E
100
AcDbEntity
  8
7
100
AcDbLine
 10
2.401574803149606
 20
6.230314960629921
 30
0.0
 11
2.391732283464567
 21
6.230314960629921
 31
0.0
  0
LINE
  5
2A7C
330
1E
100
AcDbEntity
  8
7
100
AcDbLine
 10
2.440944881889763
 20
6.25
 30
0.0
 11
2.439960629921259
 21
6.25
 31
0.0
  0
LINE
  5
2A83
330
1E
100
AcDbEntity
  8
7
100
AcDbLine
 10
2.391732283464567
 20
6.410433070866141
 30
0.0
 11
2.362204724409448
 21
6.410433070866141
 31
0.0
  0
LINE
  5
2A92
330
1E
100
AcDbEntity
  8
7
100
AcDbLine
 10
2.391732283464567
 20
6.400590551181101
 30
0.0
 11
2.362204724409448
 21
6.400590551181101
 31
0.0
  0
LINE
  5
2A93
330
1E
100
AcDbEntity
  8
7
100
AcDbLine
 10
2.391732283464567
 20
6.410433070866141
 30
0.0
 11
2.391732283464567
 21
6.43011811023622
 31
0.0
  0
LINE
  5
2A94
330
1E
100
AcDbEntity
  8
7
100
AcDbLine
 10
2.401574803149606
 20
6.43011811023622
 30
0.0
 11
2.391732283464567
 21
6.43011811023622
 31
0.0
  0
LINE
  5
2A95
330
1E
100
AcDbEntity
  8
7
100
AcDbLine
 10
2.401574803149606
 20
6.410433070866141
 30
0.0
 11
2.401574803149606
 21
6.43011811023622
 31
0.0
  0
LINE
  5
2A96
330
1E
100
AcDbEntity
  8
7
100
AcDbLine
 10
2.431102362204724
 20
6.410433070866141
 30
0.0
 11
2.401574803149606
 21
6.410433070866141
 31
0.0
  0
LINE
  5
2A97
330
1E
100
AcDbEntity
  8
7
100
AcDbLine
 10
2.431102362204724
 20
6.410433070866141
 30
0.0
 11
2.422244094488188
 21
6.428149606299212
 31
0.0
  0
LINE
  5
2AB3
330
1E
100
AcDbEntity
  8
7
100
AcDbLine
 10
2.391732283464567
 20
6.379921259842519
 30
0.0
 11
2.391732283464567
 21
6.400590551181101
 31
0.0
  0
LINE
  5
2ABC
330
1E
100
AcDbEntity
  8
7
100
AcDbLine
 10
2.431102362204724
 20
6.400590551181101
 30
0.0
 11
2.401574803149606
 21
6.400590551181101
 31
0.0
  0
LINE
  5
2ABD
330
1E
100
AcDbEntity
  8
7
100
AcDbLine
 10
2.401574803149606
 20
6.379921259842519
 30
0.0
 11
2.401574803149606
 21
6.400590551181101
 31
0.0
  0
LINE
  5
2ABE
330
1E
100
AcDbEntity
  8
7
100
AcDbLine
 10
2.401574803149606
 20
6.379921259842519
 30
0.0
 11
2.391732283464567
 21
6.379921259842519
 31
0.0
  0
LINE
  5
2AC7
330
1E
100
AcDbEntity
  8
7
100
AcDbLine
 10
2.433070866141732
 20
6.380905511811023
 30
0.0
 11
2.440944881889763
 21
6.400590551181101
 31
0.0
  0
LINE
  5
2AD9
330
1E
100
AcDbEntity
  8
7
100
AcDbLine
 10
2.661417322834645
 20
6.259842519685038
 30
0.0
 11
2.690944881889763
 21
6.259842519685038
 31
0.0
  0
LINE
  5
2AEB
330
1E
100
AcDbEntity
  8
7
100
AcDbLine
 10
2.661417322834645
 20
6.259842519685038
 30
0.0
 11
2.661417322834645
 21
6.280511811023622
 31
0.0
  0
LINE
  5
2B0B
330
1E
100
AcDbEntity
  8
7
100
AcDbLine
 10
2.661417322834645
 20
6.230314960629921
 30
0.0
 11
2.661417322834645
 21
6.25
 31
0.0
  0
LINE
  5
2B0C
330
1E
100
AcDbEntity
  8
7
100
AcDbLine
 10
2.651574803149606
 20
6.230314960629921
 30
0.0
 11
2.661417322834645
 21
6.230314960629921
 31
0.0
  0
LINE
  5
2B0D
330
1E
100
AcDbEntity
  8
7
100
AcDbLine
 10
2.651574803149606
 20
6.230314960629921
 30
0.0
 11
2.651574803149606
 21
6.25
 31
0.0
  0
LINE
  5
2B0E
330
1E
100
AcDbEntity
  8
7
100
AcDbLine
 10
2.622047244094487
 20
6.25
 30
0.0
 11
2.651574803149606
 21
6.25
 31
0.0
  0
LINE
  5
2B76
330
1E
100
AcDbEntity
  8
7
100
AcDbLine
 10
2.076771653543306
 20
6.528543307086613
 30
0.0
 11
2.976377952755905
 21
6.528543307086613
 31
0.0
  0
LINE
  5
2B77
330
1E
100
AcDbEntity
  8
7
100
AcDbLine
 10
2.976377952755905
 20
6.691929133858267
 30
0.0
 11
2.976377952755905
 21
6.528543307086613
 31
0.0
  0
LINE
  5
2B78
330
1E
100
AcDbEntity
  8
7
100
AcDbLine
 10
2.976377952755905
 20
6.691929133858267
 30
0.0
 11
2.076771653543306
 21
6.691929133858267
 31
0.0
  0
LINE
  5
2B79
330
1E
100
AcDbEntity
  8
7
100
AcDbLine
 10
2.076771653543306
 20
6.528543307086613
 30
0.0
 11
2.076771653543306
 21
6.691929133858267
 31
0.0
  0
LINE
  5
2BC1
330
1E
100
AcDbEntity
  8
7
100
AcDbLine
 10
2.076771653543306
 20
6.691929133858267
 30
0.0
 11
2.076771653543306
 21
6.73523622047244
 31
0.0
  0
LINE
  5
2BC2
330
1E
100
AcDbEntity
  8
7
100
AcDbLine
 10
2.076771653543306
 20
6.765748031496062
 30
0.0
 11
2.076771653543306
 21
6.73523622047244
 31
0.0
  0
LINE
  5
2BC3
330
1E
100
AcDbEntity
  8
7
100
AcDbLine
 10
2.976377952755905
 20
6.765748031496062
 30
0.0
 11
2.076771653543306
 21
6.765748031496062
 31
0.0
  0
LINE
  5
2BC4
330
1E
100
AcDbEntity
  8
7
100
AcDbLine
 10
2.976377952755905
 20
6.528543307086613
 30
0.0
 11
2.976377952755905
 21
6.48523622047244
 31
0.0
  0
LINE
  5
2BC5
330
1E
100
AcDbEntity
  8
7
100
AcDbLine
 10
2.976377952755905
 20
6.73523622047244
 30
0.0
 11
2.076771653543306
 21
6.73523622047244
 31
0.0
  0
LINE
  5
2BC6
330
1E
100
AcDbEntity
  8
7
100
AcDbLine
 10
2.976377952755905
 20
6.73523622047244
 30
0.0
 11
2.976377952755905
 21
6.765748031496062
 31
0.0
  0
LINE
  5
2BC7
330
1E
100
AcDbEntity
  8
7
100
AcDbLine
 10
2.976377952755905
 20
6.73523622047244
 30
0.0
 11
2.976377952755905
 21
6.691929133858267
 31
0.0
  0
LINE
  5
2BC8
330
1E
100
AcDbEntity
  8
7
100
AcDbLine
 10
2.156496062992125
 20
6.605314960629921
 30
0.0
 11
2.156496062992125
 21
6.575787401574802
 31
0.0
  0
LINE
  5
2BD8
330
1E
100
AcDbEntity
  8
7
100
AcDbLine
 10
2.156496062992125
 20
6.605314960629921
 30
0.0
 11
2.176181102362204
 21
6.605314960629921
 31
0.0
  0
LINE
  5
2BEE
330
1E
100
AcDbEntity
  8
7
100
AcDbLine
 10
2.156496062992125
 20
6.653543307086613
 30
0.0
 11
2.156496062992125
 21
6.654527559055117
 31
0.0
  0
LINE
  5
2BF8
330
1E
100
AcDbEntity
  8
7
100
AcDbLine
 10
2.126968503937007
 20
6.605314960629921
 30
0.0
 11
2.146653543307086
 21
6.605314960629921
 31
0.0
  0
LINE
  5
2BF9
330
1E
100
AcDbEntity
  8
7
100
AcDbLine
 10
2.126968503937007
 20
6.61515748031496
 30
0.0
 11
2.126968503937007
 21
6.605314960629921
 31
0.0
  0
LINE
  5
2BFA
330
1E
100
AcDbEntity
  8
7
100
AcDbLine
 10
2.126968503937007
 20
6.61515748031496
 30
0.0
 11
2.146653543307086
 21
6.61515748031496
 31
0.0
  0
LINE
  5
2BFB
330
1E
100
AcDbEntity
  8
7
100
AcDbLine
 10
2.146653543307086
 20
6.644685039370078
 30
0.0
 11
2.146653543307086
 21
6.61515748031496
 31
0.0
  0
LINE
  5
2C1E
330
1E
100
AcDbEntity
  8
7
100
AcDbLine
 10
2.906496062992125
 20
6.605314960629921
 30
0.0
 11
2.906496062992125
 21
6.575787401574802
 31
0.0
  0
LINE
  5
2C26
330
1E
100
AcDbEntity
  8
7
100
AcDbLine
 10
2.896653543307086
 20
6.605314960629921
 30
0.0
 11
2.896653543307086
 21
6.575787401574802
 31
0.0
  0
LINE
  5
2C2E
330
1E
100
AcDbEntity
  8
7
100
AcDbLine
 10
2.906496062992125
 20
6.605314960629921
 30
0.0
 11
2.926181102362204
 21
6.605314960629921
 31
0.0
  0
LINE
  5
2C4D
330
1E
100
AcDbEntity
  8
7
100
AcDbLine
 10
2.926181102362204
 20
6.646653543307086
 30
0.0
 11
2.906496062992125
 21
6.654527559055117
 31
0.0
  0
LINE
  5
2C4E
330
1E
100
AcDbEntity
  8
7
100
AcDbLine
 10
2.876968503937007
 20
6.605314960629921
 30
0.0
 11
2.896653543307086
 21
6.605314960629921
 31
0.0
  0
LINE
  5
2C4F
330
1E
100
AcDbEntity
  8
7
100
AcDbLine
 10
2.876968503937007
 20
6.61515748031496
 30
0.0
 11
2.876968503937007
 21
6.605314960629921
 31
0.0
  0
LINE
  5
2C50
330
1E
100
AcDbEntity
  8
7
100
AcDbLine
 10
2.876968503937007
 20
6.61515748031496
 30
0.0
 11
2.896653543307086
 21
6.61515748031496
 31
0.0
  0
LINE
  5
2C51
330
1E
100
AcDbEntity
  8
7
100
AcDbLine
 10
2.896653543307086
 20
6.644685039370078
 30
0.0
 11
2.896653543307086
 21
6.61515748031496
 31
0.0
  0
LINE
  5
2C74
330
1E
100
AcDbEntity
  8
7
100
AcDbLine
 10
2.314960629921259
 20
6.030511811023622
 30
0.0
 11
2.271653543307086
 21
6.030511811023622
 31
0.0
  0
LINE
  5
2C75
330
1E
100
AcDbEntity
  8
7
100
AcDbLine
 10
2.314960629921259
 20
6.480314960629921
 30
0.0
 11
2.314960629921259
 21
6.030511811023622
 31
0.0
  0
LINE
  5
2C76
330
1E
100
AcDbEntity
  8
7
100
AcDbLine
 10
2.271653543307086
 20
6.480314960629921
 30
0.0
 11
2.314960629921259
 21
6.480314960629921
 31
0.0
  0
LINE
  5
2C77
330
1E
100
AcDbEntity
  8
7
100
AcDbLine
 10
2.271653543307086
 20
6.480314960629921
 30
0.0
 11
2.271653543307086
 21
6.030511811023622
 31
0.0
  0
LINE
  5
2C7D
330
1E
100
AcDbEntity
  8
7
100
AcDbLine
 10
2.271653543307086
 20
6.480314960629921
 30
0.0
 11
2.241141732283464
 21
6.480314960629921
 31
0.0
  0
LINE
  5
2C7E
330
1E
100
AcDbEntity
  8
7
100
AcDbLine
 10
2.521653543307086
 20
6.030511811023622
 30
0.0
 11
2.478346456692913
 21
6.030511811023622
 31
0.0
  0
LINE
  5
2C7F
330
1E
100
AcDbEntity
  8
7
100
AcDbLine
 10
2.521653543307086
 20
6.480314960629921
 30
0.0
 11
2.521653543307086
 21
6.030511811023622
 31
0.0
  0
LINE
  5
2C80
330
1E
100
AcDbEntity
  8
7
100
AcDbLine
 10
2.478346456692913
 20
6.480314960629921
 30
0.0
 11
2.521653543307086
 21
6.480314960629921
 31
0.0
  0
LINE
  5
2C81
330
1E
100
AcDbEntity
  8
7
100
AcDbLine
 10
2.478346456692913
 20
6.030511811023622
 30
0.0
 11
2.478346456692913
 21
6.480314960629921
 31
0.0
  0
LINE
  5
2C82
330
1E
100
AcDbEntity
  8
7
100
AcDbLine
 10
2.478346456692913
 20
6.030511811023622
 30
0.0
 11
2.314960629921259
 21
6.030511811023622
 31
0.0
  0
LINE
  5
2C83
330
1E
100
AcDbEntity
  8
7
100
AcDbLine
 10
2.314960629921259
 20
6.480314960629921
 30
0.0
 11
2.478346456692913
 21
6.480314960629921
 31
0.0
  0
LINE
  5
2CC6
330
1E
100
AcDbEntity
  8
7
100
AcDbLine
 10
2.756889763779527
 20
6.605314960629921
 30
0.0
 11
2.756889763779527
 21
6.575787401574802
 31
0.0
  0
LINE
  5
2CD9
330
1E
100
AcDbEntity
  8
7
100
AcDbLine
 10
2.756889763779527
 20
6.605314960629921
 30
0.0
 11
2.776574803149606
 21
6.605314960629921
 31
0.0
  0
LINE
  5
2CF8
330
1E
100
AcDbEntity
  8
7
100
AcDbLine
 10
2.776574803149606
 20
6.646653543307086
 30
0.0
 11
2.756889763779527
 21
6.654527559055117
 31
0.0
  0
LINE
  5
2CF9
330
1E
100
AcDbEntity
  8
7
100
AcDbLine
 10
2.726377952755905
 20
6.605314960629921
 30
0.0
 11
2.747047244094487
 21
6.605314960629921
 31
0.0
  0
LINE
  5
2CFA
330
1E
100
AcDbEntity
  8
7
100
AcDbLine
 10
2.726377952755905
 20
6.61515748031496
 30
0.0
 11
2.726377952755905
 21
6.605314960629921
 31
0.0
  0
LINE
  5
2CFB
330
1E
100
AcDbEntity
  8
7
100
AcDbLine
 10
2.726377952755905
 20
6.61515748031496
 30
0.0
 11
2.747047244094487
 21
6.61515748031496
 31
0.0
  0
LINE
  5
2CFC
330
1E
100
AcDbEntity
  8
7
100
AcDbLine
 10
2.747047244094487
 20
6.644685039370078
 30
0.0
 11
2.747047244094487
 21
6.61515748031496
 31
0.0
  0
LINE
  5
2D2D
330
1E
100
AcDbEntity
  8
7
100
AcDbLine
 10
2.996062992125984
 20
5.347440944881889
 30
0.0
 11
2.996062992125984
 21
5.308070866141732
 31
0.0
  0
LINE
  5
2D33
330
1E
100
AcDbEntity
  8
7
100
AcDbLine
 10
3.037401574803149
 20
5.308070866141732
 30
0.0
 11
3.037401574803149
 21
5.347440944881889
 31
0.0
  0
LINE
  5
2D42
330
1E
100
AcDbEntity
  8
7
100
AcDbLine
 10
2.011811023622047
 20
5.347440944881889
 30
0.0
 11
2.011811023622047
 21
5.308070866141732
 31
0.0
  0
LINE
  5
2D48
330
1E
100
AcDbEntity
  8
7
100
AcDbLine
 10
2.053149606299212
 20
5.308070866141732
 30
0.0
 11
2.053149606299212
 21
5.347440944881889
 31
0.0
  0
LINE
  5
2D49
330
1E
100
AcDbEntity
  8
7
100
AcDbLine
 10
3.307086614173228
 20
4.633858267716535
 30
0.0
 11
3.307086614173228
 21
4.38779527559055
 31
0.0
  0
LINE
  5
2D4A
330
1E
100
AcDbEntity
  8
7
100
AcDbLine
 10
3.307086614173228
 20
4.633858267716535
 30
0.0
 11
1.742125984251968
 21
4.633858267716535
 31
0.0
  0
LINE
  5
2D4B
330
1E
100
AcDbEntity
  8
7
100
AcDbLine
 10
1.742125984251968
 20
4.38779527559055
 30
0.0
 11
1.742125984251968
 21
4.633858267716535
 31
0.0
  0
LINE
  5
2D52
330
1E
100
AcDbEntity
  8
7
100
AcDbLine
 10
1.742125984251968
 20
3.742125984251968
 30
0.0
 11
1.742125984251968
 21
3.988188976377952
 31
0.0
  0
LINE
  5
2D53
330
1E
100
AcDbEntity
  8
7
100
AcDbLine
 10
3.307086614173228
 20
3.742125984251968
 30
0.0
 11
1.742125984251968
 21
3.742125984251968
 31
0.0
  0
LINE
  5
2D54
330
1E
100
AcDbEntity
  8
7
100
AcDbLine
 10
3.307086614173228
 20
3.988188976377952
 30
0.0
 11
3.307086614173228
 21
3.742125984251968
 31
0.0
  0
LINE
  5
2D55
330
1E
100
AcDbEntity
  8
7
100
AcDbLine
 10
3.301181102362204
 20
3.988188976377952
 30
0.0
 11
3.307086614173228
 21
3.988188976377952
 31
0.0
  0
LINE
  5
2D56
330
1E
100
AcDbEntity
  8
7
100
AcDbLine
 10
3.301181102362204
 20
4.38779527559055
 30
0.0
 11
3.301181102362204
 21
3.988188976377952
 31
0.0
  0
LINE
  5
2D57
330
1E
100
AcDbEntity
  8
7
100
AcDbLine
 10
3.307086614173228
 20
4.38779527559055
 30
0.0
 11
3.301181102362204
 21
4.38779527559055
 31
0.0
  0
LINE
  5
2D58
330
1E
100
AcDbEntity
  8
7
100
AcDbLine
 10
2.913385826771653
 20
4.289370078740157
 30
0.0
 11
2.921259842519685
 21
4.333661417322834
 31
0.0
  0
LINE
  5
2D5F
330
1E
100
AcDbEntity
  8
7
100
AcDbLine
 10
2.944881889763779
 20
4.253937007874015
 30
0.0
 11
2.942913385826771
 21
4.253937007874015
 31
0.0
  0
LINE
  5
2D6E
330
1E
100
AcDbEntity
  8
7
100
AcDbLine
 10
2.906496062992125
 20
4.121062992125984
 30
0.0
 11
2.944881889763779
 21
4.121062992125984
 31
0.0
  0
LINE
  5
2D74
330
1E
100
AcDbEntity
  8
7
100
AcDbLine
 10
2.866141732283464
 20
4.018700787401574
 30
0.0
 11
2.879921259842519
 21
4.098425196850393
 31
0.0
  0
LINE
  5
2D7C
330
1E
100
AcDbEntity
  8
7
100
AcDbLine
 10
2.249015748031495
 20
3.963582677165354
 30
0.0
 11
2.8001968503937
 21
3.963582677165354
 31
0.0
  0
LINE
  5
2D84
330
1E
100
AcDbEntity
  8
7
100
AcDbLine
 10
2.169291338582677
 20
4.098425196850393
 30
0.0
 11
2.183070866141732
 21
4.018700787401574
 31
0.0
  0
LINE
  5
2D8A
330
1E
100
AcDbEntity
  8
7
100
AcDbLine
 10
2.104330708661417
 20
4.121062992125984
 30
0.0
 11
2.14271653543307
 21
4.121062992125984
 31
0.0
  0
LINE
  5
2D9C
330
1E
100
AcDbEntity
  8
7
100
AcDbLine
 10
2.106299212598425
 20
4.253937007874015
 30
0.0
 11
2.104330708661417
 21
4.253937007874015
 31
0.0
  0
LINE
  5
2DA3
330
1E
100
AcDbEntity
  8
7
100
AcDbLine
 10
2.127952755905511
 20
4.333661417322834
 30
0.0
 11
2.135826771653543
 21
4.289370078740157
 31
0.0
  0
LINE
  5
2DAC
330
1E
100
AcDbEntity
  8
7
100
AcDbLine
 10
2.856299212598425
 20
4.412401574803149
 30
0.0
 11
2.192913385826771
 21
4.412401574803149
 31
0.0
  0
LINE
  5
2DB8
330
1E
100
AcDbEntity
  8
7
100
AcDbLine
 10
2.942913385826771
 20
4.253937007874015
 30
0.0
 11
2.939960629921259
 21
4.251968503937007
 31
0.0
  0
LINE
  5
2DB9
330
1E
100
AcDbEntity
  8
7
100
AcDbLine
 10
2.948818897637795
 20
4.251968503937007
 30
0.0
 11
2.939960629921259
 21
4.251968503937007
 31
0.0
  0
LINE
  5
2DBA
330
1E
100
AcDbEntity
  8
7
100
AcDbLine
 10
2.949803149606299
 20
4.252952755905512
 30
0.0
 11
2.944881889763779
 21
4.252952755905512
 31
0.0
  0
LINE
  5
2DBB
330
1E
100
AcDbEntity
  8
7
100
AcDbLine
 10
2.944881889763779
 20
4.253937007874015
 30
0.0
 11
2.944881889763779
 21
4.252952755905512
 31
0.0
  0
LINE
  5
2DBC
330
1E
100
AcDbEntity
  8
7
100
AcDbLine
 10
2.944881889763779
 20
4.123031496062991
 30
0.0
 11
2.944881889763779
 21
4.121062992125984
 31
0.0
  0
LINE
  5
2DBD
330
1E
100
AcDbEntity
  8
7
100
AcDbLine
 10
2.944881889763779
 20
4.123031496062991
 30
0.0
 11
2.949803149606299
 21
4.123031496062991
 31
0.0
  0
LINE
  5
2DBE
330
1E
100
AcDbEntity
  8
7
100
AcDbLine
 10
2.906496062992125
 20
4.124015748031496
 30
0.0
 11
2.948818897637795
 21
4.124015748031496
 31
0.0
  0
LINE
  5
2DBF
330
1E
100
AcDbEntity
  8
7
100
AcDbLine
 10
2.906496062992125
 20
4.124015748031496
 30
0.0
 11
2.906496062992125
 21
4.121062992125984
 31
0.0
  0
LINE
  5
2DC0
330
1E
100
AcDbEntity
  8
7
100
AcDbLine
 10
2.104330708661417
 20
4.121062992125984
 30
0.0
 11
2.104330708661417
 21
4.123031496062991
 31
0.0
  0
LINE
  5
2DC1
330
1E
100
AcDbEntity
  8
7
100
AcDbLine
 10
2.14271653543307
 20
4.124015748031496
 30
0.0
 11
2.14271653543307
 21
4.121062992125984
 31
0.0
  0
LINE
  5
2DC2
330
1E
100
AcDbEntity
  8
7
100
AcDbLine
 10
2.100393700787401
 20
4.124015748031496
 30
0.0
 11
2.14271653543307
 21
4.124015748031496
 31
0.0
  0
LINE
  5
2DC3
330
1E
100
AcDbEntity
  8
7
100
AcDbLine
 10
2.099409448818897
 20
4.123031496062991
 30
0.0
 11
2.104330708661417
 21
4.123031496062991
 31
0.0
  0
LINE
  5
2DC4
330
1E
100
AcDbEntity
  8
7
100
AcDbLine
 10
2.109251968503937
 20
4.251968503937007
 30
0.0
 11
2.100393700787401
 21
4.251968503937007
 31
0.0
  0
LINE
  5
2DC5
330
1E
100
AcDbEntity
  8
7
100
AcDbLine
 10
2.109251968503937
 20
4.251968503937007
 30
0.0
 11
2.106299212598425
 21
4.253937007874015
 31
0.0
  0
LINE
  5
2DC6
330
1E
100
AcDbEntity
  8
7
100
AcDbLine
 10
2.104330708661417
 20
4.252952755905512
 30
0.0
 11
2.104330708661417
 21
4.253937007874015
 31
0.0
  0
LINE
  5
2DC7
330
1E
100
AcDbEntity
  8
7
100
AcDbLine
 10
2.104330708661417
 20
4.252952755905512
 30
0.0
 11
2.099409448818897
 21
4.252952755905512
 31
0.0
  0
LINE
  5
2DD9
330
1E
100
AcDbEntity
  8
7
100
AcDbLine
 10
2.856299212598425
 20
4.409448818897637
 30
0.0
 11
2.192913385826771
 21
4.409448818897637
 31
0.0
  0
LINE
  5
2DED
330
1E
100
AcDbEntity
  8
7
100
AcDbLine
 10
2.171259842519685
 20
4.099409448818897
 30
0.0
 11
2.186023622047243
 21
4.019685039370078
 31
0.0
  0
LINE
  5
2DF4
330
1E
100
AcDbEntity
  8
7
100
AcDbLine
 10
2.249015748031495
 20
3.966535433070866
 30
0.0
 11
2.8001968503937
 21
3.966535433070866
 31
0.0
  0
LINE
  5
2DFB
330
1E
100
AcDbEntity
  8
7
100
AcDbLine
 10
2.863188976377952
 20
4.019685039370078
 30
0.0
 11
2.877952755905511
 21
4.099409448818897
 31
0.0
  0
LINE
  5
2E01
330
1E
100
AcDbEntity
  8
7
100
AcDbLine
 10
3.30511811023622
 20
4.382874015748031
 30
0.0
 11
3.307086614173228
 21
4.38779527559055
 31
0.0
  0
LINE
  5
2E02
330
1E
100
AcDbEntity
  8
7
100
AcDbLine
 10
1.742125984251968
 20
4.38779527559055
 30
0.0
 11
1.744094488188976
 21
4.382874015748031
 31
0.0
  0
LINE
  5
2E03
330
1E
100
AcDbEntity
  8
7
100
AcDbLine
 10
3.303149606299212
 20
4.382874015748031
 30
0.0
 11
3.30511811023622
 21
4.382874015748031
 31
0.0
  0
LINE
  5
2E04
330
1E
100
AcDbEntity
  8
7
100
AcDbLine
 10
3.303149606299212
 20
4.349409448818897
 30
0.0
 11
3.303149606299212
 21
4.382874015748031
 31
0.0
  0
LINE
  5
2E0A
330
1E
100
AcDbEntity
  8
7
100
AcDbLine
 10
1.746062992125984
 20
3.992125984251968
 30
0.0
 11
1.744094488188976
 21
3.992125984251968
 31
0.0
  0
LINE
  5
2E0B
330
1E
100
AcDbEntity
  8
7
100
AcDbLine
 10
1.746062992125984
 20
3.992125984251968
 30
0.0
 11
1.746062992125984
 21
4.025590551181101
 31
0.0
  0
LINE
  5
2E0C
330
1E
100
AcDbEntity
  8
7
100
AcDbLine
 10
3.303149606299212
 20
3.992125984251968
 30
0.0
 11
3.303149606299212
 21
4.025590551181101
 31
0.0
  0
LINE
  5
2E0D
330
1E
100
AcDbEntity
  8
7
100
AcDbLine
 10
3.303149606299212
 20
3.992125984251968
 30
0.0
 11
3.30511811023622
 21
3.992125984251968
 31
0.0
  0
LINE
  5
2E0E
330
1E
100
AcDbEntity
  8
7
100
AcDbLine
 10
3.307086614173228
 20
4.341535433070865
 30
0.0
 11
3.303149606299212
 21
4.349409448818897
 31
0.0
  0
LINE
  5
2E0F
330
1E
100
AcDbEntity
  8
7
100
AcDbLine
 10
3.307086614173228
 20
4.341535433070865
 30
0.0
 11
3.342519685039369
 21
4.341535433070865
 31
0.0
  0
LINE
  5
2E10
330
1E
100
AcDbEntity
  8
7
100
AcDbLine
 10
3.342519685039369
 20
4.034448818897637
 30
0.0
 11
3.307086614173228
 21
4.034448818897637
 31
0.0
  0
LINE
  5
2E11
330
1E
100
AcDbEntity
  8
7
100
AcDbLine
 10
3.303149606299212
 20
4.025590551181101
 30
0.0
 11
3.307086614173228
 21
4.034448818897637
 31
0.0
  0
LINE
  5
2E12
330
1E
100
AcDbEntity
  8
7
100
AcDbLine
 10
1.742125984251968
 20
4.034448818897637
 30
0.0
 11
1.746062992125984
 21
4.025590551181101
 31
0.0
  0
LINE
  5
2E13
330
1E
100
AcDbEntity
  8
7
100
AcDbLine
 10
1.706692913385826
 20
4.034448818897637
 30
0.0
 11
1.742125984251968
 21
4.034448818897637
 31
0.0
  0
LINE
  5
2E14
330
1E
100
AcDbEntity
  8
7
100
AcDbLine
 10
1.742125984251968
 20
4.341535433070865
 30
0.0
 11
1.706692913385826
 21
4.341535433070865
 31
0.0
  0
LINE
  5
2E15
330
1E
100
AcDbEntity
  8
7
100
AcDbLine
 10
1.746062992125984
 20
4.349409448818897
 30
0.0
 11
1.742125984251968
 21
4.341535433070865
 31
0.0
  0
LINE
  5
2E16
330
1E
100
AcDbEntity
  8
7
100
AcDbLine
 10
3.307086614173228
 20
4.341535433070865
 30
0.0
 11
3.307086614173228
 21
4.034448818897637
 31
0.0
  0
LINE
  5
2E17
330
1E
100
AcDbEntity
  8
7
100
AcDbLine
 10
3.342519685039369
 20
4.341535433070865
 30
0.0
 11
3.342519685039369
 21
4.034448818897637
 31
0.0
  0
LINE
  5
2E18
330
1E
100
AcDbEntity
  8
7
100
AcDbLine
 10
1.706692913385826
 20
4.341535433070865
 30
0.0
 11
1.706692913385826
 21
4.034448818897637
 31
0.0
  0
LINE
  5
2E19
330
1E
100
AcDbEntity
  8
7
100
AcDbLine
 10
1.742125984251968
 20
4.341535433070865
 30
0.0
 11
1.742125984251968
 21
4.034448818897637
 31
0.0
  0
LINE
  5
2E1A
330
1E
100
AcDbEntity
  8
7
100
AcDbLine
 10
1.746062992125984
 20
3.992125984251968
 30
0.0
 11
1.748031496062992
 21
3.988188976377952
 31
0.0
  0
LINE
  5
2E1B
330
1E
100
AcDbEntity
  8
7
100
AcDbLine
 10
1.746062992125984
 20
4.382874015748031
 30
0.0
 11
1.748031496062992
 21
4.38779527559055
 31
0.0
  0
LINE
  5
2E1C
330
1E
100
AcDbEntity
  8
7
100
AcDbLine
 10
3.303149606299212
 20
4.382874015748031
 30
0.0
 11
3.301181102362204
 21
4.38779527559055
 31
0.0
  0
LINE
  5
2E1D
330
1E
100
AcDbEntity
  8
7
100
AcDbLine
 10
3.303149606299212
 20
3.992125984251968
 30
0.0
 11
3.301181102362204
 21
3.988188976377952
 31
0.0
  0
LINE
  5
2E1E
330
1E
100
AcDbEntity
  8
7
100
AcDbLine
 10
1.744094488188976
 20
3.992125984251968
 30
0.0
 11
1.742125984251968
 21
3.988188976377952
 31
0.0
  0
LINE
  5
2E1F
330
1E
100
AcDbEntity
  8
7
100
AcDbLine
 10
3.307086614173228
 20
3.988188976377952
 30
0.0
 11
3.30511811023622
 21
3.992125984251968
 31
0.0
  0
LINE
  5
2E20
330
1E
100
AcDbEntity
  8
7
100
AcDbLine
 10
2.8001968503937
 20
3.966535433070866
 30
0.0
 11
2.8001968503937
 21
3.963582677165354
 31
0.0
  0
LINE
  5
2E21
330
1E
100
AcDbEntity
  8
7
100
AcDbLine
 10
2.863188976377952
 20
4.019685039370078
 30
0.0
 11
2.866141732283464
 21
4.018700787401574
 31
0.0
  0
LINE
  5
2E22
330
1E
100
AcDbEntity
  8
7
100
AcDbLine
 10
2.249015748031495
 20
3.966535433070866
 30
0.0
 11
2.249015748031495
 21
3.963582677165354
 31
0.0
  0
LINE
  5
2E23
330
1E
100
AcDbEntity
  8
7
100
AcDbLine
 10
2.186023622047243
 20
4.019685039370078
 30
0.0
 11
2.183070866141732
 21
4.018700787401574
 31
0.0
  0
LINE
  5
2E24
330
1E
100
AcDbEntity
  8
7
100
AcDbLine
 10
2.171259842519685
 20
4.099409448818897
 30
0.0
 11
2.169291338582677
 21
4.098425196850393
 31
0.0
  0
LINE
  5
2E25
330
1E
100
AcDbEntity
  8
7
100
AcDbLine
 10
2.135826771653543
 20
4.289370078740157
 30
0.0
 11
2.138779527559055
 21
4.286417322834645
 31
0.0
  0
LINE
  5
2E26
330
1E
100
AcDbEntity
  8
7
100
AcDbLine
 10
2.129921259842519
 20
4.334645669291338
 30
0.0
 11
2.127952755905511
 21
4.333661417322834
 31
0.0
  0
LINE
  5
2E27
330
1E
100
AcDbEntity
  8
7
100
AcDbLine
 10
2.192913385826771
 20
4.409448818897637
 30
0.0
 11
2.192913385826771
 21
4.412401574803149
 31
0.0
  0
LINE
  5
2E28
330
1E
100
AcDbEntity
  8
7
100
AcDbLine
 10
2.856299212598425
 20
4.409448818897637
 30
0.0
 11
2.856299212598425
 21
4.412401574803149
 31
0.0
  0
LINE
  5
2E29
330
1E
100
AcDbEntity
  8
7
100
AcDbLine
 10
2.919291338582677
 20
4.334645669291338
 30
0.0
 11
2.921259842519685
 21
4.333661417322834
 31
0.0
  0
LINE
  5
2E2A
330
1E
100
AcDbEntity
  8
7
100
AcDbLine
 10
2.910433070866141
 20
4.286417322834645
 30
0.0
 11
2.913385826771653
 21
4.289370078740157
 31
0.0
  0
LINE
  5
2E2B
330
1E
100
AcDbEntity
  8
7
100
AcDbLine
 10
2.877952755905511
 20
4.099409448818897
 30
0.0
 11
2.879921259842519
 21
4.098425196850393
 31
0.0
  0
LINE
  5
2E36
330
1E
100
AcDbEntity
  8
7
100
AcDbLine
 10
2.08267716535433
 20
4.09251968503937
 30
0.0
 11
1.982283464566929
 21
4.09251968503937
 31
0.0
  0
LINE
  5
2E37
330
1E
100
AcDbEntity
  8
7
100
AcDbLine
 10
2.08267716535433
 20
4.09251968503937
 30
0.0
 11
2.089566929133858
 21
4.096456692913386
 31
0.0
  0
LINE
  5
2E38
330
1E
100
AcDbEntity
  8
7
100
AcDbLine
 10
2.089566929133858
 20
4.278543307086613
 30
0.0
 11
2.08267716535433
 21
4.282480314960629
 31
0.0
  0
LINE
  5
2E39
330
1E
100
AcDbEntity
  8
7
100
AcDbLine
 10
1.982283464566929
 20
4.282480314960629
 30
0.0
 11
2.08267716535433
 21
4.282480314960629
 31
0.0
  0
LINE
  5
2E3A
330
1E
100
AcDbEntity
  8
7
100
AcDbLine
 10
1.982283464566929
 20
4.282480314960629
 30
0.0
 11
1.975393700787401
 21
4.278543307086613
 31
0.0
  0
LINE
  5
2E3B
330
1E
100
AcDbEntity
  8
7
100
AcDbLine
 10
1.9251968503937
 20
4.191929133858267
 30
0.0
 11
1.975393700787401
 21
4.278543307086613
 31
0.0
  0
LINE
  5
2E3C
330
1E
100
AcDbEntity
  8
7
100
AcDbLine
 10
1.9251968503937
 20
4.191929133858267
 30
0.0
 11
1.9251968503937
 21
4.184055118110236
 31
0.0
  0
LINE
  5
2E3D
330
1E
100
AcDbEntity
  8
7
100
AcDbLine
 10
1.975393700787401
 20
4.096456692913386
 30
0.0
 11
1.9251968503937
 21
4.184055118110236
 31
0.0
  0
LINE
  5
2E3E
330
1E
100
AcDbEntity
  8
7
100
AcDbLine
 10
1.975393700787401
 20
4.096456692913386
 30
0.0
 11
1.982283464566929
 21
4.09251968503937
 31
0.0
  0
LINE
  5
2E3F
330
1E
100
AcDbEntity
  8
7
100
AcDbLine
 10
2.08267716535433
 20
4.282480314960629
 30
0.0
 11
2.083661417322834
 21
4.283464566929133
 31
0.0
  0
LINE
  5
2E40
330
1E
100
AcDbEntity
  8
7
100
AcDbLine
 10
1.982283464566929
 20
4.283464566929133
 30
0.0
 11
1.982283464566929
 21
4.282480314960629
 31
0.0
  0
LINE
  5
2E41
330
1E
100
AcDbEntity
  8
7
100
AcDbLine
 10
2.083661417322834
 20
4.09251968503937
 30
0.0
 11
2.08267716535433
 21
4.09251968503937
 31
0.0
  0
LINE
  5
2E42
330
1E
100
AcDbEntity
  8
7
100
AcDbLine
 10
1.9251968503937
 20
4.184055118110236
 30
0.0
 11
1.924212598425196
 21
4.184055118110236
 31
0.0
  0
LINE
  5
2E43
330
1E
100
AcDbEntity
  8
7
100
AcDbLine
 10
1.924212598425196
 20
4.191929133858267
 30
0.0
 11
1.9251968503937
 21
4.191929133858267
 31
0.0
  0
LINE
  5
2E44
330
1E
100
AcDbEntity
  8
7
100
AcDbLine
 10
1.975393700787401
 20
4.278543307086613
 30
0.0
 11
1.975393700787401
 21
4.279527559055117
 31
0.0
  0
LINE
  5
2E4F
330
1E
100
AcDbEntity
  8
7
100
AcDbLine
 10
2.959645669291338
 20
4.096456692913386
 30
0.0
 11
2.966535433070866
 21
4.09251968503937
 31
0.0
  0
LINE
  5
2E50
330
1E
100
AcDbEntity
  8
7
100
AcDbLine
 10
3.066929133858267
 20
4.09251968503937
 30
0.0
 11
2.966535433070866
 21
4.09251968503937
 31
0.0
  0
LINE
  5
2E51
330
1E
100
AcDbEntity
  8
7
100
AcDbLine
 10
3.066929133858267
 20
4.09251968503937
 30
0.0
 11
3.073818897637795
 21
4.096456692913386
 31
0.0
  0
LINE
  5
2E52
330
1E
100
AcDbEntity
  8
7
100
AcDbLine
 10
3.124015748031495
 20
4.184055118110236
 30
0.0
 11
3.073818897637795
 21
4.096456692913386
 31
0.0
  0
LINE
  5
2E53
330
1E
100
AcDbEntity
  8
7
100
AcDbLine
 10
3.124015748031495
 20
4.184055118110236
 30
0.0
 11
3.124015748031495
 21
4.191929133858267
 31
0.0
  0
LINE
  5
2E54
330
1E
100
AcDbEntity
  8
7
100
AcDbLine
 10
3.073818897637795
 20
4.278543307086613
 30
0.0
 11
3.124015748031495
 21
4.191929133858267
 31
0.0
  0
LINE
  5
2E55
330
1E
100
AcDbEntity
  8
7
100
AcDbLine
 10
3.073818897637795
 20
4.278543307086613
 30
0.0
 11
3.066929133858267
 21
4.282480314960629
 31
0.0
  0
LINE
  5
2E56
330
1E
100
AcDbEntity
  8
7
100
AcDbLine
 10
2.966535433070866
 20
4.282480314960629
 30
0.0
 11
3.066929133858267
 21
4.282480314960629
 31
0.0
  0
LINE
  5
2E57
330
1E
100
AcDbEntity
  8
7
100
AcDbLine
 10
2.966535433070866
 20
4.282480314960629
 30
0.0
 11
2.959645669291338
 21
4.278543307086613
 31
0.0
  0
LINE
  5
2E58
330
1E
100
AcDbEntity
  8
7
100
AcDbLine
 10
3.125
 20
4.184055118110236
 30
0.0
 11
3.124015748031495
 21
4.184055118110236
 31
0.0
  0
LINE
  5
2E59
330
1E
100
AcDbEntity
  8
7
100
AcDbLine
 10
2.966535433070866
 20
4.09251968503937
 30
0.0
 11
2.965551181102362
 21
4.09251968503937
 31
0.0
  0
LINE
  5
2E5A
330
1E
100
AcDbEntity
  8
7
100
AcDbLine
 10
3.066929133858267
 20
4.282480314960629
 30
0.0
 11
3.066929133858267
 21
4.283464566929133
 31
0.0
  0
LINE
  5
2E5B
330
1E
100
AcDbEntity
  8
7
100
AcDbLine
 10
2.965551181102362
 20
4.283464566929133
 30
0.0
 11
2.966535433070866
 21
4.282480314960629
 31
0.0
  0
LINE
  5
2E5C
330
1E
100
AcDbEntity
  8
7
100
AcDbLine
 10
3.124015748031495
 20
4.191929133858267
 30
0.0
 11
3.125
 21
4.191929133858267
 31
0.0
  0
LINE
  5
2E5D
330
1E
100
AcDbEntity
  8
7
100
AcDbLine
 10
3.073818897637795
 20
4.279527559055117
 30
0.0
 11
3.073818897637795
 21
4.278543307086613
 31
0.0
  0
LINE
  5
2E5E
330
1E
100
AcDbEntity
  8
7
100
AcDbLine
 10
2.754921259842519
 20
4.053149606299212
 30
0.0
 11
2.298228346456693
 21
4.053149606299212
 31
0.0
  0
LINE
  5
2E5F
330
1E
100
AcDbEntity
  8
7
100
AcDbLine
 10
2.252952755905511
 20
4.091535433070865
 30
0.0
 11
2.221456692913385
 21
4.268700787401574
 31
0.0
  0
LINE
  5
2E60
330
1E
100
AcDbEntity
  8
7
100
AcDbLine
 10
2.8001968503937
 20
4.091535433070865
 30
0.0
 11
2.831692913385826
 21
4.268700787401574
 31
0.0
  0
LINE
  5
2E61
330
1E
100
AcDbEntity
  8
7
100
AcDbLine
 10
2.266732283464567
 20
4.322834645669291
 30
0.0
 11
2.786417322834645
 21
4.322834645669291
 31
0.0
  0
LINE
  5
2E85
330
1E
100
AcDbEntity
  8
7
100
AcDbLine
 10
2.49507874015748
 20
4.270669291338582
 30
0.0
 11
2.484251968503937
 21
4.274606299212598
 31
0.0
  0
LINE
  5
2EC0
330
1E
100
AcDbEntity
  8
7
100
AcDbLine
 10
2.441929133858267
 20
4.202755905511811
 30
0.0
 11
2.431102362204724
 21
4.198818897637795
 31
0.0
  0
LINE
  5
2F30
330
1E
100
AcDbEntity
  8
7
100
AcDbLine
 10
2.187992125984251
 20
4.26279527559055
 30
0.0
 11
2.218503937007874
 21
4.085629921259842
 31
0.0
  0
LINE
  5
2F39
330
1E
100
AcDbEntity
  8
7
100
AcDbLine
 10
2.783464566929133
 20
4.355314960629921
 30
0.0
 11
2.265748031496062
 21
4.355314960629921
 31
0.0
  0
LINE
  5
2F42
330
1E
100
AcDbEntity
  8
7
100
AcDbLine
 10
2.830708661417322
 20
4.085629921259842
 30
0.0
 11
2.861220472440944
 21
4.26279527559055
 31
0.0
  0
LINE
  5
2F4D
330
1E
100
AcDbEntity
  8
7
100
AcDbLine
 10
2.296259842519685
 20
4.020669291338582
 30
0.0
 11
2.752952755905511
 21
4.020669291338582
 31
0.0
  0
LINE
  5
2F55
330
1E
100
AcDbEntity
  8
7
100
AcDbLine
 10
2.296259842519685
 20
4.031496062992125
 30
0.0
 11
2.752952755905511
 21
4.031496062992125
 31
0.0
  0
LINE
  5
2F5D
330
1E
100
AcDbEntity
  8
7
100
AcDbLine
 10
2.798228346456693
 20
4.091535433070865
 30
0.0
 11
2.829724409448818
 21
4.268700787401574
 31
0.0
  0
LINE
  5
2F64
330
1E
100
AcDbEntity
  8
7
100
AcDbLine
 10
2.296259842519685
 20
4.053149606299212
 30
0.0
 11
2.752952755905511
 21
4.053149606299212
 31
0.0
  0
LINE
  5
2F6B
330
1E
100
AcDbEntity
  8
7
100
AcDbLine
 10
2.250984251968503
 20
4.091535433070865
 30
0.0
 11
2.219488188976377
 21
4.268700787401574
 31
0.0
  0
LINE
  5
2F73
330
1E
100
AcDbEntity
  8
7
100
AcDbLine
 10
2.784448818897637
 20
4.322834645669291
 30
0.0
 11
2.264763779527559
 21
4.322834645669291
 31
0.0
  0
LINE
  5
2F74
330
1E
100
AcDbEntity
  8
7
100
AcDbLine
 10
2.265748031496062
 20
4.344488188976377
 30
0.0
 11
2.783464566929133
 21
4.344488188976377
 31
0.0
  0
LINE
  5
2F7D
330
1E
100
AcDbEntity
  8
7
100
AcDbLine
 10
2.229330708661417
 20
4.08759842519685
 30
0.0
 11
2.198818897637795
 21
4.264763779527559
 31
0.0
  0
LINE
  5
2F8C
330
1E
100
AcDbEntity
  8
7
100
AcDbLine
 10
2.819881889763779
 20
4.08759842519685
 30
0.0
 11
2.850393700787401
 21
4.264763779527559
 31
0.0
  0
LINE
  5
2FBD
330
1E
100
AcDbEntity
  8
7
100
AcDbLine
 10
2.996062992125984
 20
4.247047244094487
 30
0.0
 11
2.996062992125984
 21
4.278543307086613
 31
0.0
  0
LINE
  5
2FCD
330
1E
100
AcDbEntity
  8
7
100
AcDbLine
 10
2.996062992125984
 20
4.096456692913386
 30
0.0
 11
2.996062992125984
 21
4.128937007874015
 31
0.0
  0
LINE
  5
2FDA
330
1E
100
AcDbEntity
  8
7
100
AcDbLine
 10
3.037401574803149
 20
4.096456692913386
 30
0.0
 11
3.037401574803149
 21
4.128937007874015
 31
0.0
  0
LINE
  5
2FEA
330
1E
100
AcDbEntity
  8
7
100
AcDbLine
 10
3.037401574803149
 20
4.247047244094487
 30
0.0
 11
3.037401574803149
 21
4.278543307086613
 31
0.0
  0
LINE
  5
300B
330
1E
100
AcDbEntity
  8
7
100
AcDbLine
 10
2.011811023622047
 20
4.247047244094487
 30
0.0
 11
2.011811023622047
 21
4.278543307086613
 31
0.0
  0
LINE
  5
300C
330
1E
100
AcDbEntity
  8
7
100
AcDbLine
 10
2.011811023622047
 20
4.278543307086613
 30
0.0
 11
1.986220472440944
 21
4.26771653543307
 31
0.0
  0
LINE
  5
3018
330
1E
100
AcDbEntity
  8
7
100
AcDbLine
 10
2.011811023622047
 20
4.096456692913386
 30
0.0
 11
2.011811023622047
 21
4.128937007874015
 31
0.0
  0
LINE
  5
3022
330
1E
100
AcDbEntity
  8
7
100
AcDbLine
 10
2.053149606299212
 20
4.096456692913386
 30
0.0
 11
2.053149606299212
 21
4.128937007874015
 31
0.0
  0
LINE
  5
3032
330
1E
100
AcDbEntity
  8
7
100
AcDbLine
 10
2.053149606299212
 20
4.247047244094487
 30
0.0
 11
2.053149606299212
 21
4.278543307086613
 31
0.0
  0
LINE
  5
3033
330
1E
100
AcDbEntity
  8
7
100
AcDbLine
 10
2.053149606299212
 20
4.129921259842519
 30
0.0
 11
2.074803149606299
 21
4.14271653543307
 31
0.0
  0
LINE
  5
3050
330
1E
100
AcDbEntity
  8
7
100
AcDbLine
 10
4.553149606299212
 20
3.99015748031496
 30
0.0
 11
4.552165354330708
 21
3.982283464566929
 31
0.0
  0
LINE
  5
3051
330
1E
100
AcDbEntity
  8
7
100
AcDbLine
 10
5.557086614173227
 20
3.93011811023622
 30
0.0
 11
5.557086614173227
 21
3.99015748031496
 31
0.0
  0
LINE
  5
3052
330
1E
100
AcDbEntity
  8
7
100
AcDbLine
 10
5.557086614173227
 20
4.019685039370078
 30
0.0
 11
5.557086614173227
 21
4.030511811023622
 31
0.0
  0
LINE
  5
3053
330
1E
100
AcDbEntity
  8
7
100
AcDbLine
 10
5.537401574803149
 20
4.030511811023622
 30
0.0
 11
5.537401574803149
 21
4.019685039370078
 31
0.0
  0
LINE
  5
3054
330
1E
100
AcDbEntity
  8
7
100
AcDbLine
 10
5.537401574803149
 20
3.99015748031496
 30
0.0
 11
5.537401574803149
 21
3.93011811023622
 31
0.0
  0
LINE
  5
3055
330
1E
100
AcDbEntity
  8
7
100
AcDbLine
 10
4.379921259842519
 20
4.281496062992125
 30
0.0
 11
4.269685039370077
 21
4.281496062992125
 31
0.0
  0
LINE
  5
3056
330
1E
100
AcDbEntity
  8
7
100
AcDbLine
 10
4.269685039370077
 20
4.094488188976377
 30
0.0
 11
4.379921259842519
 21
4.094488188976377
 31
0.0
  0
LINE
  5
3057
330
1E
100
AcDbEntity
  8
7
100
AcDbLine
 10
5.336614173228346
 20
3.93011811023622
 30
0.0
 11
5.336614173228346
 21
3.99015748031496
 31
0.0
  0
LINE
  5
3058
330
1E
100
AcDbEntity
  8
7
100
AcDbLine
 10
5.316929133858267
 20
3.99015748031496
 30
0.0
 11
5.316929133858267
 21
3.93011811023622
 31
0.0
  0
LINE
  5
3059
330
1E
100
AcDbEntity
  8
7
100
AcDbLine
 10
5.187007874015747
 20
3.93011811023622
 30
0.0
 11
5.187007874015747
 21
3.99015748031496
 31
0.0
  0
LINE
  5
305A
330
1E
100
AcDbEntity
  8
7
100
AcDbLine
 10
5.167322834645668
 20
3.99015748031496
 30
0.0
 11
5.167322834645668
 21
3.93011811023622
 31
0.0
  0
LINE
  5
305B
330
1E
100
AcDbEntity
  8
7
100
AcDbLine
 10
5.037401574803149
 20
3.93011811023622
 30
0.0
 11
5.037401574803149
 21
3.99015748031496
 31
0.0
  0
LINE
  5
305C
330
1E
100
AcDbEntity
  8
7
100
AcDbLine
 10
5.016732283464566
 20
3.99015748031496
 30
0.0
 11
5.016732283464566
 21
3.93011811023622
 31
0.0
  0
LINE
  5
3062
330
1E
100
AcDbEntity
  8
7
100
AcDbLine
 10
4.379921259842519
 20
4.633858267716535
 30
0.0
 11
4.379921259842519
 21
4.38779527559055
 31
0.0
  0
LINE
  5
3063
330
1E
100
AcDbEntity
  8
7
100
AcDbLine
 10
4.379921259842519
 20
3.988188976377952
 30
0.0
 11
4.379921259842519
 21
3.742125984251968
 31
0.0
  0
LINE
  5
3064
330
1E
100
AcDbEntity
  8
7
100
AcDbLine
 10
4.379921259842519
 20
4.38779527559055
 30
0.0
 11
4.379921259842519
 21
3.988188976377952
 31
0.0
  0
LINE
  5
3065
330
1E
100
AcDbEntity
  8
7
100
AcDbLine
 10
4.566929133858267
 20
4.631889763779527
 30
0.0
 11
4.566929133858267
 21
4.507874015748031
 31
0.0
  0
LINE
  5
3066
330
1E
100
AcDbEntity
  8
7
100
AcDbLine
 10
4.566929133858267
 20
4.412401574803149
 30
0.0
 11
4.566929133858267
 21
4.507874015748031
 31
0.0
  0
LINE
  5
3067
330
1E
100
AcDbEntity
  8
7
100
AcDbLine
 10
4.465551181102362
 20
4.632874015748031
 30
0.0
 11
4.465551181102362
 21
4.508858267716535
 31
0.0
  0
LINE
  5
3068
330
1E
100
AcDbEntity
  8
7
100
AcDbLine
 10
4.465551181102362
 20
4.632874015748031
 30
0.0
 11
4.379921259842519
 21
4.633858267716535
 31
0.0
  0
LINE
  5
3069
330
1E
100
AcDbEntity
  8
7
100
AcDbLine
 10
4.509842519685038
 20
4.382874015748031
 30
0.0
 11
4.379921259842519
 21
4.38779527559055
 31
0.0
  0
LINE
  5
306A
330
1E
100
AcDbEntity
  8
7
100
AcDbLine
 10
4.509842519685038
 20
4.411417322834645
 30
0.0
 11
4.509842519685038
 21
4.382874015748031
 31
0.0
  0
LINE
  5
306B
330
1E
100
AcDbEntity
  8
7
100
AcDbLine
 10
4.509842519685038
 20
4.411417322834645
 30
0.0
 11
4.566929133858267
 21
4.412401574803149
 31
0.0
  0
LINE
  5
306C
330
1E
100
AcDbEntity
  8
7
100
AcDbLine
 10
4.566929133858267
 20
4.507874015748031
 30
0.0
 11
4.465551181102362
 21
4.508858267716535
 31
0.0
  0
LINE
  5
3072
330
1E
100
AcDbEntity
  8
7
100
AcDbLine
 10
4.476377952755904
 20
4.632874015748031
 30
0.0
 11
4.465551181102362
 21
4.632874015748031
 31
0.0
  0
LINE
  5
3073
330
1E
100
AcDbEntity
  8
7
100
AcDbLine
 10
4.509842519685038
 20
4.349409448818897
 30
0.0
 11
4.509842519685038
 21
4.382874015748031
 31
0.0
  0
LINE
  5
3074
330
1E
100
AcDbEntity
  8
7
100
AcDbLine
 10
4.509842519685038
 20
3.992125984251968
 30
0.0
 11
4.509842519685038
 21
4.025590551181101
 31
0.0
  0
LINE
  5
3075
330
1E
100
AcDbEntity
  8
7
100
AcDbLine
 10
4.509842519685038
 20
3.992125984251968
 30
0.0
 11
4.509842519685038
 21
3.964566929133858
 31
0.0
  0
LINE
  5
3076
330
1E
100
AcDbEntity
  8
7
100
AcDbLine
 10
4.749015748031495
 20
4.341535433070865
 30
0.0
 11
4.509842519685038
 21
4.349409448818897
 31
0.0
  0
LINE
  5
3077
330
1E
100
AcDbEntity
  8
7
100
AcDbLine
 10
4.749015748031495
 20
4.341535433070865
 30
0.0
 11
4.76771653543307
 21
4.340551181102362
 31
0.0
  0
LINE
  5
3078
330
1E
100
AcDbEntity
  8
7
100
AcDbLine
 10
4.897637795275589
 20
4.336614173228346
 30
0.0
 11
4.76771653543307
 21
4.340551181102362
 31
0.0
  0
LINE
  5
3079
330
1E
100
AcDbEntity
  8
7
100
AcDbLine
 10
4.76771653543307
 20
4.034448818897637
 30
0.0
 11
4.897637795275589
 21
4.039370078740157
 31
0.0
  0
LINE
  5
307A
330
1E
100
AcDbEntity
  8
7
100
AcDbLine
 10
4.76771653543307
 20
4.034448818897637
 30
0.0
 11
4.749015748031495
 21
4.034448818897637
 31
0.0
  0
LINE
  5
307B
330
1E
100
AcDbEntity
  8
7
100
AcDbLine
 10
4.509842519685038
 20
4.025590551181101
 30
0.0
 11
4.749015748031495
 21
4.034448818897637
 31
0.0
  0
LINE
  5
307C
330
1E
100
AcDbEntity
  8
7
100
AcDbLine
 10
4.509842519685038
 20
3.964566929133858
 30
0.0
 11
4.566929133858267
 21
3.963582677165354
 31
0.0
  0
LINE
  5
307D
330
1E
100
AcDbEntity
  8
7
100
AcDbLine
 10
4.749015748031495
 20
4.341535433070865
 30
0.0
 11
4.749015748031495
 21
4.034448818897637
 31
0.0
  0
LINE
  5
307E
330
1E
100
AcDbEntity
  8
7
100
AcDbLine
 10
4.76771653543307
 20
4.340551181102362
 30
0.0
 11
4.76771653543307
 21
4.034448818897637
 31
0.0
  0
LINE
  5
307F
330
1E
100
AcDbEntity
  8
7
100
AcDbLine
 10
4.897637795275589
 20
4.336614173228346
 30
0.0
 11
4.897637795275589
 21
4.039370078740157
 31
0.0
  0
LINE
  5
3080
330
1E
100
AcDbEntity
  8
7
100
AcDbLine
 10
4.566929133858267
 20
3.743110236220472
 30
0.0
 11
4.566929133858267
 21
3.963582677165354
 31
0.0
  0
LINE
  5
3081
330
1E
100
AcDbEntity
  8
7
100
AcDbLine
 10
4.379921259842519
 20
3.988188976377952
 30
0.0
 11
4.509842519685038
 21
3.992125984251968
 31
0.0
  0
LINE
  5
3082
330
1E
100
AcDbEntity
  8
7
100
AcDbLine
 10
4.566929133858267
 20
3.743110236220472
 30
0.0
 11
4.379921259842519
 21
3.742125984251968
 31
0.0
  0
LINE
  5
3089
330
1E
100
AcDbEntity
  8
7
100
AcDbLine
 10
4.569881889763778
 20
3.944881889763779
 30
0.0
 11
4.566929133858267
 21
3.954724409448818
 31
0.0
  0
LINE
  5
3095
330
1E
100
AcDbEntity
  8
7
100
AcDbLine
 10
4.569881889763778
 20
3.944881889763779
 30
0.0
 11
4.566929133858267
 21
3.944881889763779
 31
0.0
  0
LINE
  5
309D
330
1E
100
AcDbEntity
  8
7
100
AcDbLine
 10
4.614173228346456
 20
3.944881889763779
 30
0.0
 11
4.613188976377951
 21
3.944881889763779
 31
0.0
  0
LINE
  5
309E
330
1E
100
AcDbEntity
  8
7
100
AcDbLine
 10
4.616141732283463
 20
3.96259842519685
 30
0.0
 11
4.614173228346456
 21
3.944881889763779
 31
0.0
  0
LINE
  5
30A4
330
1E
100
AcDbEntity
  8
7
100
AcDbLine
 10
4.616141732283463
 20
3.99015748031496
 30
0.0
 11
4.616141732283463
 21
3.982283464566929
 31
0.0
  0
LINE
  5
30AA
330
1E
100
AcDbEntity
  8
7
100
AcDbLine
 10
4.646653543307086
 20
3.96259842519685
 30
0.0
 11
4.641732283464566
 21
3.944881889763779
 31
0.0
  0
LINE
  5
30B0
330
1E
100
AcDbEntity
  8
7
100
AcDbLine
 10
4.646653543307086
 20
3.99015748031496
 30
0.0
 11
4.648622047244093
 21
3.982283464566929
 31
0.0
  0
LINE
  5
30BB
330
1E
100
AcDbEntity
  8
7
100
AcDbLine
 10
4.951771653543306
 20
4.204724409448818
 30
0.0
 11
4.951771653543306
 21
4.36515748031496
 31
0.0
  0
LINE
  5
30C1
330
1E
100
AcDbEntity
  8
7
100
AcDbLine
 10
5.401574803149605
 20
4.204724409448818
 30
0.0
 11
4.951771653543306
 21
4.204724409448818
 31
0.0
  0
LINE
  5
30C2
330
1E
100
AcDbEntity
  8
7
100
AcDbLine
 10
4.951771653543306
 20
4.019685039370078
 30
0.0
 11
4.951771653543306
 21
4.204724409448818
 31
0.0
  0
LINE
  5
30C3
330
1E
100
AcDbEntity
  8
7
100
AcDbLine
 10
5.401574803149605
 20
4.019685039370078
 30
0.0
 11
5.401574803149605
 21
4.204724409448818
 31
0.0
  0
LINE
  5
30C4
330
1E
100
AcDbEntity
  8
7
100
AcDbLine
 10
4.956692913385825
 20
4.172244094488188
 30
0.0
 11
4.956692913385825
 21
4.062992125984251
 31
0.0
  0
LINE
  5
30C5
330
1E
100
AcDbEntity
  8
7
100
AcDbLine
 10
5.097440944881888
 20
4.172244094488188
 30
0.0
 11
4.956692913385825
 21
4.172244094488188
 31
0.0
  0
LINE
  5
30C6
330
1E
100
AcDbEntity
  8
7
100
AcDbLine
 10
5.097440944881888
 20
4.062992125984251
 30
0.0
 11
5.097440944881888
 21
4.172244094488188
 31
0.0
  0
LINE
  5
30C7
330
1E
100
AcDbEntity
  8
7
100
AcDbLine
 10
4.956692913385825
 20
4.062992125984251
 30
0.0
 11
5.097440944881888
 21
4.062992125984251
 31
0.0
  0
LINE
  5
30C8
330
1E
100
AcDbEntity
  8
7
100
AcDbLine
 10
5.107283464566928
 20
4.172244094488188
 30
0.0
 11
5.107283464566928
 21
4.062992125984251
 31
0.0
  0
LINE
  5
30C9
330
1E
100
AcDbEntity
  8
7
100
AcDbLine
 10
5.247047244094487
 20
4.172244094488188
 30
0.0
 11
5.107283464566928
 21
4.172244094488188
 31
0.0
  0
LINE
  5
30CA
330
1E
100
AcDbEntity
  8
7
100
AcDbLine
 10
5.247047244094487
 20
4.062992125984251
 30
0.0
 11
5.247047244094487
 21
4.172244094488188
 31
0.0
  0
LINE
  5
30CB
330
1E
100
AcDbEntity
  8
7
100
AcDbLine
 10
5.107283464566928
 20
4.062992125984251
 30
0.0
 11
5.247047244094487
 21
4.062992125984251
 31
0.0
  0
LINE
  5
30CC
330
1E
100
AcDbEntity
  8
7
100
AcDbLine
 10
5.256889763779526
 20
4.172244094488188
 30
0.0
 11
5.256889763779526
 21
4.062992125984251
 31
0.0
  0
LINE
  5
30CD
330
1E
100
AcDbEntity
  8
7
100
AcDbLine
 10
5.396653543307086
 20
4.172244094488188
 30
0.0
 11
5.256889763779526
 21
4.172244094488188
 31
0.0
  0
LINE
  5
30CE
330
1E
100
AcDbEntity
  8
7
100
AcDbLine
 10
5.396653543307086
 20
4.062992125984251
 30
0.0
 11
5.396653543307086
 21
4.172244094488188
 31
0.0
  0
LINE
  5
30CF
330
1E
100
AcDbEntity
  8
7
100
AcDbLine
 10
5.256889763779526
 20
4.062992125984251
 30
0.0
 11
5.396653543307086
 21
4.062992125984251
 31
0.0
  0
LINE
  5
3106
330
1E
100
AcDbEntity
  8
7
100
AcDbLine
 10
4.987204724409448
 20
4.09251968503937
 30
0.0
 11
4.956692913385825
 21
4.062992125984251
 31
0.0
  0
LINE
  5
3107
330
1E
100
AcDbEntity
  8
7
100
AcDbLine
 10
4.956692913385825
 20
4.172244094488188
 30
0.0
 11
4.987204724409448
 21
4.14271653543307
 31
0.0
  0
LINE
  5
3108
330
1E
100
AcDbEntity
  8
7
100
AcDbLine
 10
5.136811023622046
 20
4.09251968503937
 30
0.0
 11
5.107283464566928
 21
4.062992125984251
 31
0.0
  0
LINE
  5
3109
330
1E
100
AcDbEntity
  8
7
100
AcDbLine
 10
5.107283464566928
 20
4.172244094488188
 30
0.0
 11
5.136811023622046
 21
4.14271653543307
 31
0.0
  0
LINE
  5
310A
330
1E
100
AcDbEntity
  8
7
100
AcDbLine
 10
5.287401574803149
 20
4.09251968503937
 30
0.0
 11
5.256889763779526
 21
4.062992125984251
 31
0.0
  0
LINE
  5
310B
330
1E
100
AcDbEntity
  8
7
100
AcDbLine
 10
5.256889763779526
 20
4.172244094488188
 30
0.0
 11
5.287401574803149
 21
4.14271653543307
 31
0.0
  0
LINE
  5
310C
330
1E
100
AcDbEntity
  8
7
100
AcDbLine
 10
5.247047244094487
 20
4.062992125984251
 30
0.0
 11
5.216535433070865
 21
4.09251968503937
 31
0.0
  0
LINE
  5
310D
330
1E
100
AcDbEntity
  8
7
100
AcDbLine
 10
5.216535433070865
 20
4.14271653543307
 30
0.0
 11
5.247047244094487
 21
4.172244094488188
 31
0.0
  0
LINE
  5
310E
330
1E
100
AcDbEntity
  8
7
100
AcDbLine
 10
5.097440944881888
 20
4.062992125984251
 30
0.0
 11
5.066929133858267
 21
4.09251968503937
 31
0.0
  0
LINE
  5
310F
330
1E
100
AcDbEntity
  8
7
100
AcDbLine
 10
5.066929133858267
 20
4.14271653543307
 30
0.0
 11
5.097440944881888
 21
4.172244094488188
 31
0.0
  0
LINE
  5
3110
330
1E
100
AcDbEntity
  8
7
100
AcDbLine
 10
5.396653543307086
 20
4.062992125984251
 30
0.0
 11
5.367125984251967
 21
4.09251968503937
 31
0.0
  0
LINE
  5
3111
330
1E
100
AcDbEntity
  8
7
100
AcDbLine
 10
5.367125984251967
 20
4.14271653543307
 30
0.0
 11
5.396653543307086
 21
4.172244094488188
 31
0.0
  0
LINE
  5
3120
330
1E
100
AcDbEntity
  8
7
100
AcDbLine
 10
4.229330708661416
 20
4.264763779527559
 30
0.0
 11
4.216535433070865
 21
4.264763779527559
 31
0.0
  0
LINE
  5
3121
330
1E
100
AcDbEntity
  8
7
100
AcDbLine
 10
4.216535433070865
 20
4.08759842519685
 30
0.0
 11
4.379921259842519
 21
4.08759842519685
 31
0.0
  0
LINE
  5
3122
330
1E
100
AcDbEntity
  8
7
100
AcDbLine
 10
4.216535433070865
 20
4.344488188976377
 30
0.0
 11
4.379921259842519
 21
4.344488188976377
 31
0.0
  0
LINE
  5
3123
330
1E
100
AcDbEntity
  8
7
100
AcDbLine
 10
4.531496062992125
 20
4.384842519685038
 30
0.0
 11
4.509842519685038
 21
4.384842519685038
 31
0.0
  0
LINE
  5
3129
330
1E
100
AcDbEntity
  8
7
100
AcDbLine
 10
4.636811023622046
 20
4.36023622047244
 30
0.0
 11
4.636811023622046
 21
4.345472440944881
 31
0.0
  0
LINE
  5
312A
330
1E
100
AcDbEntity
  8
7
100
AcDbLine
 10
4.636811023622046
 20
4.030511811023622
 30
0.0
 11
4.636811023622046
 21
4.019685039370078
 31
0.0
  0
LINE
  5
3136
330
1E
100
AcDbEntity
  8
7
100
AcDbLine
 10
4.994094488188975
 20
3.99015748031496
 30
0.0
 11
5.696850393700787
 21
3.99015748031496
 31
0.0
  0
LINE
  5
3147
330
1E
100
AcDbEntity
  8
7
100
AcDbLine
 10
4.509842519685038
 20
3.99015748031496
 30
0.0
 11
4.664370078740157
 21
3.99015748031496
 31
0.0
  0
LINE
  5
3152
330
1E
100
AcDbEntity
  8
7
100
AcDbLine
 10
4.894685039370077
 20
4.019685039370078
 30
0.0
 11
4.764763779527558
 21
4.019685039370078
 31
0.0
  0
LINE
  5
3163
330
1E
100
AcDbEntity
  8
7
100
AcDbLine
 10
4.994094488188975
 20
4.019685039370078
 30
0.0
 11
4.994094488188975
 21
3.99015748031496
 31
0.0
  0
LINE
  5
3164
330
1E
100
AcDbEntity
  8
7
100
AcDbLine
 10
5.696850393700787
 20
3.99015748031496
 30
0.0
 11
5.696850393700787
 21
4.019685039370078
 31
0.0
  0
LINE
  5
3165
330
1E
100
AcDbEntity
  8
7
100
AcDbLine
 10
4.664370078740157
 20
3.99015748031496
 30
0.0
 11
4.664370078740157
 21
4.019685039370078
 31
0.0
  0
LINE
  5
3166
330
1E
100
AcDbEntity
  8
7
100
AcDbLine
 10
5.747047244094487
 20
4.019685039370078
 30
0.0
 11
5.747047244094487
 21
3.99015748031496
 31
0.0
  0
LINE
  5
3167
330
1E
100
AcDbEntity
  8
7
100
AcDbLine
 10
4.894685039370077
 20
3.99015748031496
 30
0.0
 11
4.894685039370077
 21
4.019685039370078
 31
0.0
  0
LINE
  5
3168
330
1E
100
AcDbEntity
  8
7
100
AcDbLine
 10
4.764763779527558
 20
4.019685039370078
 30
0.0
 11
4.764763779527558
 21
3.99015748031496
 31
0.0
  0
LINE
  5
3169
330
1E
100
AcDbEntity
  8
7
100
AcDbLine
 10
4.714566929133857
 20
4.019685039370078
 30
0.0
 11
4.714566929133857
 21
3.99015748031496
 31
0.0
  0
LINE
  5
316A
330
1E
100
AcDbEntity
  8
7
100
AcDbLine
 10
4.944881889763778
 20
3.99015748031496
 30
0.0
 11
4.944881889763778
 21
4.019685039370078
 31
0.0
  0
LINE
  5
316B
330
1E
100
AcDbEntity
  8
7
100
AcDbLine
 10
5.614173228346456
 20
4.36515748031496
 30
0.0
 11
5.449803149606299
 21
4.36515748031496
 31
0.0
  0
LINE
  5
316C
330
1E
100
AcDbEntity
  8
7
100
AcDbLine
 10
5.406496062992125
 20
4.019685039370078
 30
0.0
 11
5.406496062992125
 21
4.204724409448818
 31
0.0
  0
LINE
  5
316D
330
1E
100
AcDbEntity
  8
7
100
AcDbLine
 10
5.687007874015747
 20
4.019685039370078
 30
0.0
 11
5.687007874015747
 21
4.204724409448818
 31
0.0
  0
LINE
  5
316E
330
1E
100
AcDbEntity
  8
7
100
AcDbLine
 10
5.449803149606299
 20
4.36515748031496
 30
0.0
 11
5.406496062992125
 21
4.204724409448818
 31
0.0
  0
LINE
  5
316F
330
1E
100
AcDbEntity
  8
7
100
AcDbLine
 10
5.656496062992125
 20
4.204724409448818
 30
0.0
 11
5.687007874015747
 21
4.204724409448818
 31
0.0
  0
LINE
  5
3170
330
1E
100
AcDbEntity
  8
7
100
AcDbLine
 10
5.656496062992125
 20
4.204724409448818
 30
0.0
 11
5.614173228346456
 21
4.36515748031496
 31
0.0
  0
LINE
  5
3171
330
1E
100
AcDbEntity
  8
7
100
AcDbLine
 10
5.466535433070865
 20
4.030511811023622
 30
0.0
 11
5.466535433070865
 21
4.019685039370078
 31
0.0
  0
LINE
  5
3172
330
1E
100
AcDbEntity
  8
7
100
AcDbLine
 10
5.626968503937007
 20
4.030511811023622
 30
0.0
 11
5.466535433070865
 21
4.030511811023622
 31
0.0
  0
LINE
  5
3173
330
1E
100
AcDbEntity
  8
7
100
AcDbLine
 10
5.626968503937007
 20
4.019685039370078
 30
0.0
 11
5.626968503937007
 21
4.030511811023622
 31
0.0
  0
LINE
  5
318B
330
1E
100
AcDbEntity
  8
7
100
AcDbLine
 10
4.229330708661416
 20
4.278543307086613
 30
0.0
 11
4.269685039370077
 21
4.278543307086613
 31
0.0
  0
LINE
  5
318C
330
1E
100
AcDbEntity
  8
7
100
AcDbLine
 10
4.269685039370077
 20
4.096456692913386
 30
0.0
 11
4.229330708661416
 21
4.096456692913386
 31
0.0
  0
LINE
  5
318D
330
1E
100
AcDbEntity
  8
7
100
AcDbLine
 10
4.269685039370077
 20
4.094488188976377
 30
0.0
 11
4.269685039370077
 21
4.096456692913386
 31
0.0
  0
LINE
  5
3E2A
330
1E
100
AcDbEntity
  8
7
100
AcDbLine
 10
4.269685039370077
 20
4.278543307086613
 30
0.0
 11
4.269685039370077
 21
4.280511811023622
 31
0.0
  0
LINE
  5
3E2B
330
1E
100
AcDbEntity
  8
7
100
AcDbLine
 10
4.269685039370077
 20
4.280511811023622
 30
0.0
 11
4.269685039370077
 21
4.281496062992125
 31
0.0
  0
LINE
  5
3E2C
330
1E
100
AcDbEntity
  8
7
100
AcDbLine
 10
4.229330708661416
 20
4.278543307086613
 30
0.0
 11
4.229330708661416
 21
4.268700787401574
 31
0.0
  0
LINE
  5
3E2D
330
1E
100
AcDbEntity
  8
7
100
AcDbLine
 10
4.229330708661416
 20
4.268700787401574
 30
0.0
 11
4.229330708661416
 21
4.250984251968503
 31
0.0
  0
LINE
  5
3E2E
330
1E
100
AcDbEntity
  8
7
100
AcDbLine
 10
4.229330708661416
 20
4.250984251968503
 30
0.0
 11
4.229330708661416
 21
4.228346456692912
 31
0.0
  0
LINE
  5
3E2F
330
1E
100
AcDbEntity
  8
7
100
AcDbLine
 10
4.229330708661416
 20
4.228346456692912
 30
0.0
 11
4.229330708661416
 21
4.201771653543307
 31
0.0
  0
LINE
  5
3E30
330
1E
100
AcDbEntity
  8
7
100
AcDbLine
 10
4.229330708661416
 20
4.201771653543307
 30
0.0
 11
4.229330708661416
 21
4.174212598425197
 31
0.0
  0
LINE
  5
3E31
330
1E
100
AcDbEntity
  8
7
100
AcDbLine
 10
4.229330708661416
 20
4.174212598425197
 30
0.0
 11
4.229330708661416
 21
4.14763779527559
 31
0.0
  0
LINE
  5
3E32
330
1E
100
AcDbEntity
  8
7
100
AcDbLine
 10
4.229330708661416
 20
4.14763779527559
 30
0.0
 11
4.229330708661416
 21
4.124015748031496
 31
0.0
  0
LINE
  5
3E33
330
1E
100
AcDbEntity
  8
7
100
AcDbLine
 10
4.229330708661416
 20
4.124015748031496
 30
0.0
 11
4.229330708661416
 21
4.107283464566928
 31
0.0
  0
LINE
  5
3E34
330
1E
100
AcDbEntity
  8
7
100
AcDbLine
 10
4.229330708661416
 20
4.107283464566928
 30
0.0
 11
4.229330708661416
 21
4.096456692913386
 31
0.0
  0
LINE
  5
3E35
330
1E
100
AcDbEntity
  8
7
100
AcDbLine
 10
5.557086614173227
 20
3.93011811023622
 30
0.0
 11
5.552165354330708
 21
3.93011811023622
 31
0.0
  0
LINE
  5
3E36
330
1E
100
AcDbEntity
  8
7
100
AcDbLine
 10
5.552165354330708
 20
3.93011811023622
 30
0.0
 11
5.542322834645668
 21
3.93011811023622
 31
0.0
  0
LINE
  5
3E37
330
1E
100
AcDbEntity
  8
7
100
AcDbLine
 10
5.542322834645668
 20
3.93011811023622
 30
0.0
 11
5.537401574803149
 21
3.93011811023622
 31
0.0
  0
LINE
  5
3E38
330
1E
100
AcDbEntity
  8
7
100
AcDbLine
 10
4.944881889763778
 20
4.019685039370078
 30
0.0
 11
4.950787401574802
 21
4.019685039370078
 31
0.0
  0
LINE
  5
3E39
330
1E
100
AcDbEntity
  8
7
100
AcDbLine
 10
4.950787401574802
 20
4.019685039370078
 30
0.0
 11
4.969488188976377
 21
4.019685039370078
 31
0.0
  0
LINE
  5
3E3A
330
1E
100
AcDbEntity
  8
7
100
AcDbLine
 10
4.969488188976377
 20
4.019685039370078
 30
0.0
 11
4.994094488188975
 21
4.019685039370078
 31
0.0
  0
LINE
  5
3E3B
330
1E
100
AcDbEntity
  8
7
100
AcDbLine
 10
4.994094488188975
 20
4.019685039370078
 30
0.0
 11
5.696850393700787
 21
4.019685039370078
 31
0.0
  0
LINE
  5
3E3C
330
1E
100
AcDbEntity
  8
7
100
AcDbLine
 10
5.696850393700787
 20
4.019685039370078
 30
0.0
 11
5.722440944881888
 21
4.019685039370078
 31
0.0
  0
LINE
  5
3E3D
330
1E
100
AcDbEntity
  8
7
100
AcDbLine
 10
5.722440944881888
 20
4.019685039370078
 30
0.0
 11
5.74015748031496
 21
4.019685039370078
 31
0.0
  0
LINE
  5
3E3E
330
1E
100
AcDbEntity
  8
7
100
AcDbLine
 10
5.74015748031496
 20
4.019685039370078
 30
0.0
 11
5.747047244094487
 21
4.019685039370078
 31
0.0
  0
LINE
  5
3E3F
330
1E
100
AcDbEntity
  8
7
100
AcDbLine
 10
4.894685039370077
 20
4.019685039370078
 30
0.0
 11
4.919291338582676
 21
4.019685039370078
 31
0.0
  0
LINE
  5
3E40
330
1E
100
AcDbEntity
  8
7
100
AcDbLine
 10
4.919291338582676
 20
4.019685039370078
 30
0.0
 11
4.937992125984251
 21
4.019685039370078
 31
0.0
  0
LINE
  5
3E41
330
1E
100
AcDbEntity
  8
7
100
AcDbLine
 10
4.937992125984251
 20
4.019685039370078
 30
0.0
 11
4.944881889763778
 21
4.019685039370078
 31
0.0
  0
LINE
  5
3E42
330
1E
100
AcDbEntity
  8
7
100
AcDbLine
 10
4.509842519685038
 20
4.019685039370078
 30
0.0
 11
4.664370078740157
 21
4.019685039370078
 31
0.0
  0
LINE
  5
3E43
330
1E
100
AcDbEntity
  8
7
100
AcDbLine
 10
4.664370078740157
 20
4.019685039370078
 30
0.0
 11
4.689960629921259
 21
4.019685039370078
 31
0.0
  0
LINE
  5
3E44
330
1E
100
AcDbEntity
  8
7
100
AcDbLine
 10
4.689960629921259
 20
4.019685039370078
 30
0.0
 11
4.70767716535433
 21
4.019685039370078
 31
0.0
  0
LINE
  5
3E45
330
1E
100
AcDbEntity
  8
7
100
AcDbLine
 10
4.70767716535433
 20
4.019685039370078
 30
0.0
 11
4.714566929133857
 21
4.019685039370078
 31
0.0
  0
LINE
  5
3E46
330
1E
100
AcDbEntity
  8
7
100
AcDbLine
 10
4.714566929133857
 20
4.019685039370078
 30
0.0
 11
4.721456692913385
 21
4.019685039370078
 31
0.0
  0
LINE
  5
3E47
330
1E
100
AcDbEntity
  8
7
100
AcDbLine
 10
4.721456692913385
 20
4.019685039370078
 30
0.0
 11
4.739173228346456
 21
4.019685039370078
 31
0.0
  0
LINE
  5
3E48
330
1E
100
AcDbEntity
  8
7
100
AcDbLine
 10
4.739173228346456
 20
4.019685039370078
 30
0.0
 11
4.764763779527558
 21
4.019685039370078
 31
0.0
  0
LINE
  5
3E49
330
1E
100
AcDbEntity
  8
7
100
AcDbLine
 10
4.994094488188975
 20
3.99015748031496
 30
0.0
 11
4.969488188976377
 21
3.99015748031496
 31
0.0
  0
LINE
  5
3E4A
330
1E
100
AcDbEntity
  8
7
100
AcDbLine
 10
4.969488188976377
 20
3.99015748031496
 30
0.0
 11
4.950787401574802
 21
3.99015748031496
 31
0.0
  0
LINE
  5
3E4B
330
1E
100
AcDbEntity
  8
7
100
AcDbLine
 10
4.950787401574802
 20
3.99015748031496
 30
0.0
 11
4.944881889763778
 21
3.99015748031496
 31
0.0
  0
LINE
  5
3E4C
330
1E
100
AcDbEntity
  8
7
100
AcDbLine
 10
4.944881889763778
 20
3.99015748031496
 30
0.0
 11
4.937992125984251
 21
3.99015748031496
 31
0.0
  0
LINE
  5
3E4D
330
1E
100
AcDbEntity
  8
7
100
AcDbLine
 10
4.937992125984251
 20
3.99015748031496
 30
0.0
 11
4.919291338582676
 21
3.99015748031496
 31
0.0
  0
LINE
  5
3E4E
330
1E
100
AcDbEntity
  8
7
100
AcDbLine
 10
4.919291338582676
 20
3.99015748031496
 30
0.0
 11
4.894685039370077
 21
3.99015748031496
 31
0.0
  0
LINE
  5
3E4F
330
1E
100
AcDbEntity
  8
7
100
AcDbLine
 10
4.894685039370077
 20
3.99015748031496
 30
0.0
 11
4.764763779527558
 21
3.99015748031496
 31
0.0
  0
LINE
  5
3E50
330
1E
100
AcDbEntity
  8
7
100
AcDbLine
 10
4.764763779527558
 20
3.99015748031496
 30
0.0
 11
4.739173228346456
 21
3.99015748031496
 31
0.0
  0
LINE
  5
3E51
330
1E
100
AcDbEntity
  8
7
100
AcDbLine
 10
4.739173228346456
 20
3.99015748031496
 30
0.0
 11
4.721456692913385
 21
3.99015748031496
 31
0.0
  0
LINE
  5
3E52
330
1E
100
AcDbEntity
  8
7
100
AcDbLine
 10
4.721456692913385
 20
3.99015748031496
 30
0.0
 11
4.714566929133857
 21
3.99015748031496
 31
0.0
  0
LINE
  5
3E53
330
1E
100
AcDbEntity
  8
7
100
AcDbLine
 10
4.714566929133857
 20
3.99015748031496
 30
0.0
 11
4.70767716535433
 21
3.99015748031496
 31
0.0
  0
LINE
  5
3E54
330
1E
100
AcDbEntity
  8
7
100
AcDbLine
 10
4.70767716535433
 20
3.99015748031496
 30
0.0
 11
4.689960629921259
 21
3.99015748031496
 31
0.0
  0
LINE
  5
3E55
330
1E
100
AcDbEntity
  8
7
100
AcDbLine
 10
4.689960629921259
 20
3.99015748031496
 30
0.0
 11
4.664370078740157
 21
3.99015748031496
 31
0.0
  0
LINE
  5
3E56
330
1E
100
AcDbEntity
  8
7
100
AcDbLine
 10
5.747047244094487
 20
3.99015748031496
 30
0.0
 11
5.74015748031496
 21
3.99015748031496
 31
0.0
  0
LINE
  5
3E57
330
1E
100
AcDbEntity
  8
7
100
AcDbLine
 10
5.74015748031496
 20
3.99015748031496
 30
0.0
 11
5.722440944881888
 21
3.99015748031496
 31
0.0
  0
LINE
  5
3E58
330
1E
100
AcDbEntity
  8
7
100
AcDbLine
 10
5.722440944881888
 20
3.99015748031496
 30
0.0
 11
5.696850393700787
 21
3.99015748031496
 31
0.0
  0
LINE
  5
3E59
330
1E
100
AcDbEntity
  8
7
100
AcDbLine
 10
4.636811023622046
 20
4.36023622047244
 30
0.0
 11
4.531496062992125
 21
4.36023622047244
 31
0.0
  0
LINE
  5
3E5A
330
1E
100
AcDbEntity
  8
7
100
AcDbLine
 10
4.531496062992125
 20
4.36023622047244
 30
0.0
 11
4.531496062992125
 21
4.384842519685038
 31
0.0
  0
LINE
  5
3E5B
330
1E
100
AcDbEntity
  8
7
100
AcDbLine
 10
4.531496062992125
 20
4.384842519685038
 30
0.0
 11
4.531496062992125
 21
4.398622047244094
 31
0.0
  0
LINE
  5
3E5C
330
1E
100
AcDbEntity
  8
7
100
AcDbLine
 10
4.531496062992125
 20
4.398622047244094
 30
0.0
 11
4.531496062992125
 21
4.412401574803149
 31
0.0
  0
LINE
  5
3E5D
330
1E
100
AcDbEntity
  8
7
100
AcDbLine
 10
4.379921259842519
 20
4.031496062992125
 30
0.0
 11
4.216535433070865
 21
4.031496062992125
 31
0.0
  0
LINE
  5
3E5E
330
1E
100
AcDbEntity
  8
7
100
AcDbLine
 10
4.216535433070865
 20
4.031496062992125
 30
0.0
 11
4.216535433070865
 21
4.035433070866141
 31
0.0
  0
LINE
  5
3E5F
330
1E
100
AcDbEntity
  8
7
100
AcDbLine
 10
4.216535433070865
 20
4.035433070866141
 30
0.0
 11
4.216535433070865
 21
4.047244094488188
 31
0.0
  0
LINE
  5
3E60
330
1E
100
AcDbEntity
  8
7
100
AcDbLine
 10
4.216535433070865
 20
4.047244094488188
 30
0.0
 11
4.216535433070865
 21
4.06496062992126
 31
0.0
  0
LINE
  5
3E61
330
1E
100
AcDbEntity
  8
7
100
AcDbLine
 10
4.216535433070865
 20
4.06496062992126
 30
0.0
 11
4.216535433070865
 21
4.08759842519685
 31
0.0
  0
LINE
  5
3E62
330
1E
100
AcDbEntity
  8
7
100
AcDbLine
 10
4.216535433070865
 20
4.08759842519685
 30
0.0
 11
4.216535433070865
 21
4.264763779527559
 31
0.0
  0
LINE
  5
3E63
330
1E
100
AcDbEntity
  8
7
100
AcDbLine
 10
4.216535433070865
 20
4.264763779527559
 30
0.0
 11
4.216535433070865
 21
4.288385826771653
 31
0.0
  0
LINE
  5
3E64
330
1E
100
AcDbEntity
  8
7
100
AcDbLine
 10
4.216535433070865
 20
4.288385826771653
 30
0.0
 11
4.216535433070865
 21
4.310039370078739
 31
0.0
  0
LINE
  5
3E65
330
1E
100
AcDbEntity
  8
7
100
AcDbLine
 10
4.216535433070865
 20
4.310039370078739
 30
0.0
 11
4.216535433070865
 21
4.328740157480314
 31
0.0
  0
LINE
  5
3E66
330
1E
100
AcDbEntity
  8
7
100
AcDbLine
 10
4.216535433070865
 20
4.328740157480314
 30
0.0
 11
4.216535433070865
 21
4.340551181102362
 31
0.0
  0
LINE
  5
3E67
330
1E
100
AcDbEntity
  8
7
100
AcDbLine
 10
4.216535433070865
 20
4.340551181102362
 30
0.0
 11
4.216535433070865
 21
4.344488188976377
 31
0.0
  0
LINE
  5
3E68
330
1E
100
AcDbEntity
  8
7
100
AcDbLine
 10
5.016732283464566
 20
3.93011811023622
 30
0.0
 11
5.019685039370077
 21
3.93011811023622
 31
0.0
  0
LINE
  5
3E69
330
1E
100
AcDbEntity
  8
7
100
AcDbLine
 10
5.019685039370077
 20
3.93011811023622
 30
0.0
 11
5.026574803149605
 21
3.93011811023622
 31
0.0
  0
LINE
  5
3E6A
330
1E
100
AcDbEntity
  8
7
100
AcDbLine
 10
5.026574803149605
 20
3.93011811023622
 30
0.0
 11
5.034448818897637
 21
3.93011811023622
 31
0.0
  0
LINE
  5
3E6B
330
1E
100
AcDbEntity
  8
7
100
AcDbLine
 10
5.034448818897637
 20
3.93011811023622
 30
0.0
 11
5.037401574803149
 21
3.93011811023622
 31
0.0
  0
LINE
  5
3E6C
330
1E
100
AcDbEntity
  8
7
100
AcDbLine
 10
5.167322834645668
 20
3.93011811023622
 30
0.0
 11
5.17027559055118
 21
3.93011811023622
 31
0.0
  0
LINE
  5
3E6D
330
1E
100
AcDbEntity
  8
7
100
AcDbLine
 10
5.17027559055118
 20
3.93011811023622
 30
0.0
 11
5.177165354330708
 21
3.93011811023622
 31
0.0
  0
LINE
  5
3E6E
330
1E
100
AcDbEntity
  8
7
100
AcDbLine
 10
5.177165354330708
 20
3.93011811023622
 30
0.0
 11
5.184055118110236
 21
3.93011811023622
 31
0.0
  0
LINE
  5
3E6F
330
1E
100
AcDbEntity
  8
7
100
AcDbLine
 10
5.184055118110236
 20
3.93011811023622
 30
0.0
 11
5.187007874015747
 21
3.93011811023622
 31
0.0
  0
LINE
  5
3E70
330
1E
100
AcDbEntity
  8
7
100
AcDbLine
 10
4.987204724409448
 20
4.09251968503937
 30
0.0
 11
4.987204724409448
 21
4.14271653543307
 31
0.0
  0
LINE
  5
3E71
330
1E
100
AcDbEntity
  8
7
100
AcDbLine
 10
4.987204724409448
 20
4.14271653543307
 30
0.0
 11
5.066929133858267
 21
4.14271653543307
 31
0.0
  0
LINE
  5
3E72
330
1E
100
AcDbEntity
  8
7
100
AcDbLine
 10
5.066929133858267
 20
4.14271653543307
 30
0.0
 11
5.066929133858267
 21
4.09251968503937
 31
0.0
  0
LINE
  5
3E73
330
1E
100
AcDbEntity
  8
7
100
AcDbLine
 10
5.066929133858267
 20
4.09251968503937
 30
0.0
 11
4.987204724409448
 21
4.09251968503937
 31
0.0
  0
LINE
  5
3E74
330
1E
100
AcDbEntity
  8
7
100
AcDbLine
 10
5.216535433070865
 20
4.14271653543307
 30
0.0
 11
5.216535433070865
 21
4.09251968503937
 31
0.0
  0
LINE
  5
3E75
330
1E
100
AcDbEntity
  8
7
100
AcDbLine
 10
5.216535433070865
 20
4.09251968503937
 30
0.0
 11
5.136811023622046
 21
4.09251968503937
 31
0.0
  0
LINE
  5
3E76
330
1E
100
AcDbEntity
  8
7
100
AcDbLine
 10
5.136811023622046
 20
4.09251968503937
 30
0.0
 11
5.136811023622046
 21
4.14271653543307
 31
0.0
  0
LINE
  5
3E77
330
1E
100
AcDbEntity
  8
7
100
AcDbLine
 10
5.136811023622046
 20
4.14271653543307
 30
0.0
 11
5.216535433070865
 21
4.14271653543307
 31
0.0
  0
LINE
  5
3E78
330
1E
100
AcDbEntity
  8
7
100
AcDbLine
 10
5.316929133858267
 20
3.93011811023622
 30
0.0
 11
5.319881889763778
 21
3.93011811023622
 31
0.0
  0
LINE
  5
3E79
330
1E
100
AcDbEntity
  8
7
100
AcDbLine
 10
5.319881889763778
 20
3.93011811023622
 30
0.0
 11
5.326771653543306
 21
3.93011811023622
 31
0.0
  0
LINE
  5
3E7A
330
1E
100
AcDbEntity
  8
7
100
AcDbLine
 10
5.326771653543306
 20
3.93011811023622
 30
0.0
 11
5.333661417322834
 21
3.93011811023622
 31
0.0
  0
LINE
  5
3E7B
330
1E
100
AcDbEntity
  8
7
100
AcDbLine
 10
5.333661417322834
 20
3.93011811023622
 30
0.0
 11
5.336614173228346
 21
3.93011811023622
 31
0.0
  0
LINE
  5
3E7C
330
1E
100
AcDbEntity
  8
7
100
AcDbLine
 10
5.367125984251967
 20
4.14271653543307
 30
0.0
 11
5.367125984251967
 21
4.09251968503937
 31
0.0
  0
LINE
  5
3E7D
330
1E
100
AcDbEntity
  8
7
100
AcDbLine
 10
5.367125984251967
 20
4.09251968503937
 30
0.0
 11
5.287401574803149
 21
4.09251968503937
 31
0.0
  0
LINE
  5
3E7E
330
1E
100
AcDbEntity
  8
7
100
AcDbLine
 10
5.287401574803149
 20
4.09251968503937
 30
0.0
 11
5.287401574803149
 21
4.14271653543307
 31
0.0
  0
LINE
  5
3E7F
330
1E
100
AcDbEntity
  8
7
100
AcDbLine
 10
5.287401574803149
 20
4.14271653543307
 30
0.0
 11
5.367125984251967
 21
4.14271653543307
 31
0.0
  0
LINE
  5
3E80
330
1E
100
AcDbEntity
  8
7
100
AcDbLine
 10
5.401574803149605
 20
4.204724409448818
 30
0.0
 11
5.401574803149605
 21
4.36515748031496
 31
0.0
  0
LINE
  5
3E81
330
1E
100
AcDbEntity
  8
7
100
AcDbLine
 10
5.401574803149605
 20
4.36515748031496
 30
0.0
 11
4.951771653543306
 21
4.36515748031496
 31
0.0
  0
LINE
  5
3E82
330
1E
100
AcDbEntity
  8
7
100
AcDbLine
 10
4.648622047244093
 20
3.982283464566929
 30
0.0
 11
4.648622047244093
 21
3.972440944881889
 31
0.0
  0
LINE
  5
3E83
330
1E
100
AcDbEntity
  8
7
100
AcDbLine
 10
4.648622047244093
 20
3.972440944881889
 30
0.0
 11
4.646653543307086
 21
3.96259842519685
 31
0.0
  0
LINE
  5
3E84
330
1E
100
AcDbEntity
  8
7
100
AcDbLine
 10
4.616141732283463
 20
3.982283464566929
 30
0.0
 11
4.633858267716535
 21
3.982283464566929
 31
0.0
  0
LINE
  5
3E85
330
1E
100
AcDbEntity
  8
7
100
AcDbLine
 10
4.633858267716535
 20
3.982283464566929
 30
0.0
 11
4.648622047244093
 21
3.982283464566929
 31
0.0
  0
LINE
  5
3E86
330
1E
100
AcDbEntity
  8
7
100
AcDbLine
 10
4.646653543307086
 20
3.96259842519685
 30
0.0
 11
4.63287401574803
 21
3.96259842519685
 31
0.0
  0
LINE
  5
3E87
330
1E
100
AcDbEntity
  8
7
100
AcDbLine
 10
4.63287401574803
 20
3.96259842519685
 30
0.0
 11
4.616141732283463
 21
3.96259842519685
 31
0.0
  0
LINE
  5
3E88
330
1E
100
AcDbEntity
  8
7
100
AcDbLine
 10
4.641732283464566
 20
3.944881889763779
 30
0.0
 11
4.629921259842519
 21
3.944881889763779
 31
0.0
  0
LINE
  5
3E89
330
1E
100
AcDbEntity
  8
7
100
AcDbLine
 10
4.629921259842519
 20
3.944881889763779
 30
0.0
 11
4.614173228346456
 21
3.944881889763779
 31
0.0
  0
LINE
  5
3E8A
330
1E
100
AcDbEntity
  8
7
100
AcDbLine
 10
4.616141732283463
 20
3.982283464566929
 30
0.0
 11
4.616141732283463
 21
3.972440944881889
 31
0.0
  0
LINE
  5
3E8B
330
1E
100
AcDbEntity
  8
7
100
AcDbLine
 10
4.616141732283463
 20
3.972440944881889
 30
0.0
 11
4.616141732283463
 21
3.96259842519685
 31
0.0
  0
LINE
  5
3E8C
330
1E
100
AcDbEntity
  8
7
100
AcDbLine
 10
4.614173228346456
 20
3.99015748031496
 30
0.0
 11
4.614173228346456
 21
3.982283464566929
 31
0.0
  0
LINE
  5
3E8D
330
1E
100
AcDbEntity
  8
7
100
AcDbLine
 10
4.614173228346456
 20
3.982283464566929
 30
0.0
 11
4.61515748031496
 21
3.972440944881889
 31
0.0
  0
LINE
  5
3E8E
330
1E
100
AcDbEntity
  8
7
100
AcDbLine
 10
4.61515748031496
 20
3.972440944881889
 30
0.0
 11
4.614173228346456
 21
3.963582677165354
 31
0.0
  0
LINE
  5
3E8F
330
1E
100
AcDbEntity
  8
7
100
AcDbLine
 10
4.614173228346456
 20
3.963582677165354
 30
0.0
 11
4.613188976377951
 21
3.944881889763779
 31
0.0
  0
LINE
  5
3E90
330
1E
100
AcDbEntity
  8
7
100
AcDbLine
 10
4.552165354330708
 20
3.982283464566929
 30
0.0
 11
4.553149606299212
 21
3.982283464566929
 31
0.0
  0
LINE
  5
3E91
330
1E
100
AcDbEntity
  8
7
100
AcDbLine
 10
4.553149606299212
 20
3.982283464566929
 30
0.0
 11
4.55511811023622
 21
3.982283464566929
 31
0.0
  0
LINE
  5
3E92
330
1E
100
AcDbEntity
  8
7
100
AcDbLine
 10
4.55511811023622
 20
3.982283464566929
 30
0.0
 11
4.557086614173227
 21
3.99015748031496
 31
0.0
  0
LINE
  5
3E93
330
1E
100
AcDbEntity
  8
7
100
AcDbLine
 10
4.557086614173227
 20
3.963582677165354
 30
0.0
 11
4.55511811023622
 21
3.972440944881889
 31
0.0
  0
LINE
  5
3E94
330
1E
100
AcDbEntity
  8
7
100
AcDbLine
 10
4.55511811023622
 20
3.972440944881889
 30
0.0
 11
4.55511811023622
 21
3.982283464566929
 31
0.0
  0
LINE
  5
3E95
330
1E
100
AcDbEntity
  8
7
100
AcDbLine
 10
4.563976377952755
 20
3.963582677165354
 30
0.0
 11
4.562007874015747
 21
3.972440944881889
 31
0.0
  0
LINE
  5
3E96
330
1E
100
AcDbEntity
  8
7
100
AcDbLine
 10
4.562007874015747
 20
3.972440944881889
 30
0.0
 11
4.562992125984251
 21
3.982283464566929
 31
0.0
  0
LINE
  5
3E97
330
1E
100
AcDbEntity
  8
7
100
AcDbLine
 10
4.562992125984251
 20
3.982283464566929
 30
0.0
 11
4.563976377952755
 21
3.99015748031496
 31
0.0
  0
LINE
  5
3E98
330
1E
100
AcDbEntity
  8
7
100
AcDbLine
 10
4.566929133858267
 20
4.631889763779527
 30
0.0
 11
4.476377952755904
 21
4.632874015748031
 31
0.0
  0
LINE
  5
3E99
330
1E
100
AcDbEntity
  8
7
100
AcDbLine
 10
4.476377952755904
 20
4.632874015748031
 30
0.0
 11
4.476377952755904
 21
4.507874015748031
 31
0.0
  0
LINE
  5
3E9A
330
1E
100
AcDbEntity
  8
7
100
AcDbLine
 10
4.552165354330708
 20
3.982283464566929
 30
0.0
 11
4.551181102362204
 21
3.972440944881889
 31
0.0
  0
LINE
  5
3E9B
330
1E
100
AcDbEntity
  8
7
100
AcDbLine
 10
4.551181102362204
 20
3.972440944881889
 30
0.0
 11
4.553149606299212
 21
3.963582677165354
 31
0.0
  0
LINE
  5
3E9C
330
1E
100
AcDbEntity
  8
7
100
AcDbLine
 10
2.053149606299212
 20
4.246062992125984
 30
0.0
 11
2.03248031496063
 21
4.25
 31
0.0
  0
LINE
  5
3E9D
330
1E
100
AcDbEntity
  8
7
100
AcDbLine
 10
2.03248031496063
 20
4.25
 30
0.0
 11
2.011811023622047
 21
4.246062992125984
 31
0.0
  0
LINE
  5
3E9E
330
1E
100
AcDbEntity
  8
7
100
AcDbLine
 10
2.011811023622047
 20
4.129921259842519
 30
0.0
 11
2.03248031496063
 21
4.125984251968503
 31
0.0
  0
LINE
  5
3E9F
330
1E
100
AcDbEntity
  8
7
100
AcDbLine
 10
2.03248031496063
 20
4.125984251968503
 30
0.0
 11
2.053149606299212
 21
4.129921259842519
 31
0.0
  0
LINE
  5
3EA0
330
1E
100
AcDbEntity
  8
7
100
AcDbLine
 10
2.011811023622047
 20
4.097440944881889
 30
0.0
 11
2.03248031496063
 21
4.095472440944881
 31
0.0
  0
LINE
  5
3EA1
330
1E
100
AcDbEntity
  8
7
100
AcDbLine
 10
2.03248031496063
 20
4.095472440944881
 30
0.0
 11
2.053149606299212
 21
4.097440944881889
 31
0.0
  0
LINE
  5
3EA2
330
1E
100
AcDbEntity
  8
7
100
AcDbLine
 10
2.053149606299212
 20
4.278543307086613
 30
0.0
 11
2.03248031496063
 21
4.280511811023622
 31
0.0
  0
LINE
  5
3EA3
330
1E
100
AcDbEntity
  8
7
100
AcDbLine
 10
2.03248031496063
 20
4.280511811023622
 30
0.0
 11
2.011811023622047
 21
4.278543307086613
 31
0.0
  0
LINE
  5
3EA4
330
1E
100
AcDbEntity
  8
7
100
AcDbLine
 10
2.074803149606299
 20
4.14271653543307
 30
0.0
 11
2.089566929133858
 21
4.163385826771653
 31
0.0
  0
LINE
  5
3EA5
330
1E
100
AcDbEntity
  8
7
100
AcDbLine
 10
2.089566929133858
 20
4.163385826771653
 30
0.0
 11
2.094488188976377
 21
4.187992125984251
 31
0.0
  0
LINE
  5
3EA6
330
1E
100
AcDbEntity
  8
7
100
AcDbLine
 10
2.094488188976377
 20
4.187992125984251
 30
0.0
 11
2.089566929133858
 21
4.21259842519685
 31
0.0
  0
LINE
  5
3EA7
330
1E
100
AcDbEntity
  8
7
100
AcDbLine
 10
2.089566929133858
 20
4.21259842519685
 30
0.0
 11
2.074803149606299
 21
4.233267716535433
 31
0.0
  0
LINE
  5
3EA8
330
1E
100
AcDbEntity
  8
7
100
AcDbLine
 10
2.074803149606299
 20
4.233267716535433
 30
0.0
 11
2.053149606299212
 21
4.246062992125984
 31
0.0
  0
LINE
  5
3EA9
330
1E
100
AcDbEntity
  8
7
100
AcDbLine
 10
2.100393700787401
 20
4.125
 30
0.0
 11
2.116141732283464
 21
4.14763779527559
 31
0.0
  0
LINE
  5
3EAA
330
1E
100
AcDbEntity
  8
7
100
AcDbLine
 10
2.116141732283464
 20
4.14763779527559
 30
0.0
 11
2.124015748031495
 21
4.174212598425197
 31
0.0
  0
LINE
  5
3EAB
330
1E
100
AcDbEntity
  8
7
100
AcDbLine
 10
2.124015748031495
 20
4.174212598425197
 30
0.0
 11
2.124015748031495
 21
4.201771653543307
 31
0.0
  0
LINE
  5
3EAC
330
1E
100
AcDbEntity
  8
7
100
AcDbLine
 10
2.124015748031495
 20
4.201771653543307
 30
0.0
 11
2.116141732283464
 21
4.228346456692912
 31
0.0
  0
LINE
  5
3EAD
330
1E
100
AcDbEntity
  8
7
100
AcDbLine
 10
2.116141732283464
 20
4.228346456692912
 30
0.0
 11
2.100393700787401
 21
4.250984251968503
 31
0.0
  0
LINE
  5
3EAE
330
1E
100
AcDbEntity
  8
7
100
AcDbLine
 10
2.100393700787401
 20
4.250984251968503
 30
0.0
 11
2.078740157480314
 21
4.26771653543307
 31
0.0
  0
LINE
  5
3EAF
330
1E
100
AcDbEntity
  8
7
100
AcDbLine
 10
2.078740157480314
 20
4.26771653543307
 30
0.0
 11
2.053149606299212
 21
4.278543307086613
 31
0.0
  0
LINE
  5
3EB0
330
1E
100
AcDbEntity
  8
7
100
AcDbLine
 10
2.053149606299212
 20
4.097440944881889
 30
0.0
 11
2.078740157480314
 21
4.108267716535433
 31
0.0
  0
LINE
  5
3EB1
330
1E
100
AcDbEntity
  8
7
100
AcDbLine
 10
2.078740157480314
 20
4.108267716535433
 30
0.0
 11
2.100393700787401
 21
4.125
 31
0.0
  0
LINE
  5
3EB2
330
1E
100
AcDbEntity
  8
7
100
AcDbLine
 10
2.011811023622047
 20
4.246062992125984
 30
0.0
 11
1.99015748031496
 21
4.233267716535433
 31
0.0
  0
LINE
  5
3EB3
330
1E
100
AcDbEntity
  8
7
100
AcDbLine
 10
1.99015748031496
 20
4.233267716535433
 30
0.0
 11
1.975393700787401
 21
4.21259842519685
 31
0.0
  0
LINE
  5
3EB4
330
1E
100
AcDbEntity
  8
7
100
AcDbLine
 10
1.975393700787401
 20
4.21259842519685
 30
0.0
 11
1.970472440944881
 21
4.187992125984251
 31
0.0
  0
LINE
  5
3EB5
330
1E
100
AcDbEntity
  8
7
100
AcDbLine
 10
1.970472440944881
 20
4.187992125984251
 30
0.0
 11
1.975393700787401
 21
4.163385826771653
 31
0.0
  0
LINE
  5
3EB6
330
1E
100
AcDbEntity
  8
7
100
AcDbLine
 10
1.975393700787401
 20
4.163385826771653
 30
0.0
 11
1.99015748031496
 21
4.14271653543307
 31
0.0
  0
LINE
  5
3EB7
330
1E
100
AcDbEntity
  8
7
100
AcDbLine
 10
1.99015748031496
 20
4.14271653543307
 30
0.0
 11
2.011811023622047
 21
4.129921259842519
 31
0.0
  0
LINE
  5
3EB8
330
1E
100
AcDbEntity
  8
7
100
AcDbLine
 10
1.986220472440944
 20
4.26771653543307
 30
0.0
 11
1.964566929133858
 21
4.250984251968503
 31
0.0
  0
LINE
  5
3EB9
330
1E
100
AcDbEntity
  8
7
100
AcDbLine
 10
1.964566929133858
 20
4.250984251968503
 30
0.0
 11
1.948818897637795
 21
4.228346456692912
 31
0.0
  0
LINE
  5
3EBA
330
1E
100
AcDbEntity
  8
7
100
AcDbLine
 10
1.948818897637795
 20
4.228346456692912
 30
0.0
 11
1.940944881889763
 21
4.201771653543307
 31
0.0
  0
LINE
  5
3EBB
330
1E
100
AcDbEntity
  8
7
100
AcDbLine
 10
1.940944881889763
 20
4.201771653543307
 30
0.0
 11
1.940944881889763
 21
4.174212598425197
 31
0.0
  0
LINE
  5
3EBC
330
1E
100
AcDbEntity
  8
7
100
AcDbLine
 10
1.940944881889763
 20
4.174212598425197
 30
0.0
 11
1.948818897637795
 21
4.14763779527559
 31
0.0
  0
LINE
  5
3EBD
330
1E
100
AcDbEntity
  8
7
100
AcDbLine
 10
1.948818897637795
 20
4.14763779527559
 30
0.0
 11
1.964566929133858
 21
4.125
 31
0.0
  0
LINE
  5
3EBE
330
1E
100
AcDbEntity
  8
7
100
AcDbLine
 10
1.964566929133858
 20
4.125
 30
0.0
 11
1.986220472440944
 21
4.108267716535433
 31
0.0
  0
LINE
  5
3EBF
330
1E
100
AcDbEntity
  8
7
100
AcDbLine
 10
1.986220472440944
 20
4.108267716535433
 30
0.0
 11
2.011811023622047
 21
4.097440944881889
 31
0.0
  0
LINE
  5
3EC0
330
1E
100
AcDbEntity
  8
7
100
AcDbLine
 10
3.037401574803149
 20
4.246062992125984
 30
0.0
 11
3.016732283464566
 21
4.25
 31
0.0
  0
LINE
  5
3EC1
330
1E
100
AcDbEntity
  8
7
100
AcDbLine
 10
3.016732283464566
 20
4.25
 30
0.0
 11
2.996062992125984
 21
4.246062992125984
 31
0.0
  0
LINE
  5
3EC2
330
1E
100
AcDbEntity
  8
7
100
AcDbLine
 10
2.996062992125984
 20
4.129921259842519
 30
0.0
 11
3.016732283464566
 21
4.125984251968503
 31
0.0
  0
LINE
  5
3EC3
330
1E
100
AcDbEntity
  8
7
100
AcDbLine
 10
3.016732283464566
 20
4.125984251968503
 30
0.0
 11
3.037401574803149
 21
4.129921259842519
 31
0.0
  0
LINE
  5
3EC4
330
1E
100
AcDbEntity
  8
7
100
AcDbLine
 10
2.996062992125984
 20
4.097440944881889
 30
0.0
 11
3.016732283464566
 21
4.095472440944881
 31
0.0
  0
LINE
  5
3EC5
330
1E
100
AcDbEntity
  8
7
100
AcDbLine
 10
3.016732283464566
 20
4.095472440944881
 30
0.0
 11
3.037401574803149
 21
4.097440944881889
 31
0.0
  0
LINE
  5
3EC6
330
1E
100
AcDbEntity
  8
7
100
AcDbLine
 10
3.037401574803149
 20
4.278543307086613
 30
0.0
 11
3.016732283464566
 21
4.280511811023622
 31
0.0
  0
LINE
  5
3EC7
330
1E
100
AcDbEntity
  8
7
100
AcDbLine
 10
3.016732283464566
 20
4.280511811023622
 30
0.0
 11
2.996062992125984
 21
4.278543307086613
 31
0.0
  0
LINE
  5
3EC8
330
1E
100
AcDbEntity
  8
7
100
AcDbLine
 10
3.073818897637795
 20
4.21259842519685
 30
0.0
 11
3.059055118110236
 21
4.233267716535433
 31
0.0
  0
LINE
  5
3EC9
330
1E
100
AcDbEntity
  8
7
100
AcDbLine
 10
3.059055118110236
 20
4.233267716535433
 30
0.0
 11
3.037401574803149
 21
4.246062992125984
 31
0.0
  0
LINE
  5
3ECA
330
1E
100
AcDbEntity
  8
7
100
AcDbLine
 10
3.037401574803149
 20
4.129921259842519
 30
0.0
 11
3.059055118110236
 21
4.14271653543307
 31
0.0
  0
LINE
  5
3ECB
330
1E
100
AcDbEntity
  8
7
100
AcDbLine
 10
3.059055118110236
 20
4.14271653543307
 30
0.0
 11
3.073818897637795
 21
4.163385826771653
 31
0.0
  0
LINE
  5
3ECC
330
1E
100
AcDbEntity
  8
7
100
AcDbLine
 10
3.073818897637795
 20
4.163385826771653
 30
0.0
 11
3.078740157480314
 21
4.187992125984251
 31
0.0
  0
LINE
  5
3ECD
330
1E
100
AcDbEntity
  8
7
100
AcDbLine
 10
3.078740157480314
 20
4.187992125984251
 30
0.0
 11
3.073818897637795
 21
4.21259842519685
 31
0.0
  0
LINE
  5
3ECE
330
1E
100
AcDbEntity
  8
7
100
AcDbLine
 10
3.108267716535432
 20
4.201771653543307
 30
0.0
 11
3.100393700787401
 21
4.228346456692912
 31
0.0
  0
LINE
  5
3ECF
330
1E
100
AcDbEntity
  8
7
100
AcDbLine
 10
3.100393700787401
 20
4.228346456692912
 30
0.0
 11
3.084645669291338
 21
4.250984251968503
 31
0.0
  0
LINE
  5
3ED0
330
1E
100
AcDbEntity
  8
7
100
AcDbLine
 10
3.084645669291338
 20
4.250984251968503
 30
0.0
 11
3.062992125984251
 21
4.26771653543307
 31
0.0
  0
LINE
  5
3ED1
330
1E
100
AcDbEntity
  8
7
100
AcDbLine
 10
3.062992125984251
 20
4.26771653543307
 30
0.0
 11
3.037401574803149
 21
4.278543307086613
 31
0.0
  0
LINE
  5
3ED2
330
1E
100
AcDbEntity
  8
7
100
AcDbLine
 10
3.037401574803149
 20
4.097440944881889
 30
0.0
 11
3.062992125984251
 21
4.108267716535433
 31
0.0
  0
LINE
  5
3ED3
330
1E
100
AcDbEntity
  8
7
100
AcDbLine
 10
3.062992125984251
 20
4.108267716535433
 30
0.0
 11
3.084645669291338
 21
4.125
 31
0.0
  0
LINE
  5
3ED4
330
1E
100
AcDbEntity
  8
7
100
AcDbLine
 10
3.084645669291338
 20
4.125
 30
0.0
 11
3.100393700787401
 21
4.14763779527559
 31
0.0
  0
LINE
  5
3ED5
330
1E
100
AcDbEntity
  8
7
100
AcDbLine
 10
3.100393700787401
 20
4.14763779527559
 30
0.0
 11
3.108267716535432
 21
4.174212598425197
 31
0.0
  0
LINE
  5
3ED6
330
1E
100
AcDbEntity
  8
7
100
AcDbLine
 10
3.108267716535432
 20
4.174212598425197
 30
0.0
 11
3.108267716535432
 21
4.201771653543307
 31
0.0
  0
LINE
  5
3ED7
330
1E
100
AcDbEntity
  8
7
100
AcDbLine
 10
2.959645669291338
 20
4.21259842519685
 30
0.0
 11
2.954724409448818
 21
4.187992125984251
 31
0.0
  0
LINE
  5
3ED8
330
1E
100
AcDbEntity
  8
7
100
AcDbLine
 10
2.954724409448818
 20
4.187992125984251
 30
0.0
 11
2.959645669291338
 21
4.163385826771653
 31
0.0
  0
LINE
  5
3ED9
330
1E
100
AcDbEntity
  8
7
100
AcDbLine
 10
2.959645669291338
 20
4.163385826771653
 30
0.0
 11
2.974409448818897
 21
4.14271653543307
 31
0.0
  0
LINE
  5
3EDA
330
1E
100
AcDbEntity
  8
7
100
AcDbLine
 10
2.974409448818897
 20
4.14271653543307
 30
0.0
 11
2.996062992125984
 21
4.129921259842519
 31
0.0
  0
LINE
  5
3EDB
330
1E
100
AcDbEntity
  8
7
100
AcDbLine
 10
2.996062992125984
 20
4.246062992125984
 30
0.0
 11
2.974409448818897
 21
4.233267716535433
 31
0.0
  0
LINE
  5
3EDC
330
1E
100
AcDbEntity
  8
7
100
AcDbLine
 10
2.974409448818897
 20
4.233267716535433
 30
0.0
 11
2.959645669291338
 21
4.21259842519685
 31
0.0
  0
LINE
  5
3EDD
330
1E
100
AcDbEntity
  8
7
100
AcDbLine
 10
2.933070866141732
 20
4.228346456692912
 30
0.0
 11
2.9251968503937
 21
4.201771653543307
 31
0.0
  0
LINE
  5
3EDE
330
1E
100
AcDbEntity
  8
7
100
AcDbLine
 10
2.9251968503937
 20
4.201771653543307
 30
0.0
 11
2.9251968503937
 21
4.174212598425197
 31
0.0
  0
LINE
  5
3EDF
330
1E
100
AcDbEntity
  8
7
100
AcDbLine
 10
2.9251968503937
 20
4.174212598425197
 30
0.0
 11
2.933070866141732
 21
4.14763779527559
 31
0.0
  0
LINE
  5
3EE0
330
1E
100
AcDbEntity
  8
7
100
AcDbLine
 10
2.933070866141732
 20
4.14763779527559
 30
0.0
 11
2.948818897637795
 21
4.125
 31
0.0
  0
LINE
  5
3EE1
330
1E
100
AcDbEntity
  8
7
100
AcDbLine
 10
2.948818897637795
 20
4.125
 30
0.0
 11
2.970472440944881
 21
4.108267716535433
 31
0.0
  0
LINE
  5
3EE2
330
1E
100
AcDbEntity
  8
7
100
AcDbLine
 10
2.970472440944881
 20
4.108267716535433
 30
0.0
 11
2.996062992125984
 21
4.097440944881889
 31
0.0
  0
LINE
  5
3EE3
330
1E
100
AcDbEntity
  8
7
100
AcDbLine
 10
2.996062992125984
 20
4.278543307086613
 30
0.0
 11
2.970472440944881
 21
4.26771653543307
 31
0.0
  0
LINE
  5
3EE4
330
1E
100
AcDbEntity
  8
7
100
AcDbLine
 10
2.970472440944881
 20
4.26771653543307
 30
0.0
 11
2.948818897637795
 21
4.250984251968503
 31
0.0
  0
LINE
  5
3EE5
330
1E
100
AcDbEntity
  8
7
100
AcDbLine
 10
2.948818897637795
 20
4.250984251968503
 30
0.0
 11
2.933070866141732
 21
4.228346456692912
 31
0.0
  0
LINE
  5
3EE6
330
1E
100
AcDbEntity
  8
7
100
AcDbLine
 10
2.218503937007874
 20
4.085629921259842
 30
0.0
 11
2.226377952755905
 21
4.086614173228346
 31
0.0
  0
LINE
  5
3EE7
330
1E
100
AcDbEntity
  8
7
100
AcDbLine
 10
2.226377952755905
 20
4.086614173228346
 30
0.0
 11
2.229330708661417
 21
4.08759842519685
 31
0.0
  0
LINE
  5
3EE8
330
1E
100
AcDbEntity
  8
7
100
AcDbLine
 10
2.296259842519685
 20
4.031496062992125
 30
0.0
 11
2.296259842519685
 21
4.028543307086613
 31
0.0
  0
LINE
  5
3EE9
330
1E
100
AcDbEntity
  8
7
100
AcDbLine
 10
2.296259842519685
 20
4.028543307086613
 30
0.0
 11
2.296259842519685
 21
4.020669291338582
 31
0.0
  0
LINE
  5
3EEA
330
1E
100
AcDbEntity
  8
7
100
AcDbLine
 10
2.187992125984251
 20
4.26279527559055
 30
0.0
 11
2.194881889763779
 21
4.263779527559054
 31
0.0
  0
LINE
  5
3EEB
330
1E
100
AcDbEntity
  8
7
100
AcDbLine
 10
2.194881889763779
 20
4.263779527559054
 30
0.0
 11
2.198818897637795
 21
4.264763779527559
 31
0.0
  0
LINE
  5
3EEC
330
1E
100
AcDbEntity
  8
7
100
AcDbLine
 10
2.752952755905511
 20
4.031496062992125
 30
0.0
 11
2.752952755905511
 21
4.028543307086613
 31
0.0
  0
LINE
  5
3EED
330
1E
100
AcDbEntity
  8
7
100
AcDbLine
 10
2.752952755905511
 20
4.028543307086613
 30
0.0
 11
2.752952755905511
 21
4.020669291338582
 31
0.0
  0
LINE
  5
3EEE
330
1E
100
AcDbEntity
  8
7
100
AcDbLine
 10
2.265748031496062
 20
4.355314960629921
 30
0.0
 11
2.265748031496062
 21
4.347440944881889
 31
0.0
  0
LINE
  5
3EEF
330
1E
100
AcDbEntity
  8
7
100
AcDbLine
 10
2.265748031496062
 20
4.347440944881889
 30
0.0
 11
2.265748031496062
 21
4.344488188976377
 31
0.0
  0
LINE
  5
3EF0
330
1E
100
AcDbEntity
  8
7
100
AcDbLine
 10
2.819881889763779
 20
4.08759842519685
 30
0.0
 11
2.822834645669291
 21
4.086614173228346
 31
0.0
  0
LINE
  5
3EF1
330
1E
100
AcDbEntity
  8
7
100
AcDbLine
 10
2.822834645669291
 20
4.086614173228346
 30
0.0
 11
2.830708661417322
 21
4.085629921259842
 31
0.0
  0
LINE
  5
3EF2
330
1E
100
AcDbEntity
  8
7
100
AcDbLine
 10
2.850393700787401
 20
4.264763779527559
 30
0.0
 11
2.854330708661417
 21
4.263779527559054
 31
0.0
  0
LINE
  5
3EF3
330
1E
100
AcDbEntity
  8
7
100
AcDbLine
 10
2.854330708661417
 20
4.263779527559054
 30
0.0
 11
2.861220472440944
 21
4.26279527559055
 31
0.0
  0
LINE
  5
3EF4
330
1E
100
AcDbEntity
  8
7
100
AcDbLine
 10
2.783464566929133
 20
4.355314960629921
 30
0.0
 11
2.783464566929133
 21
4.347440944881889
 31
0.0
  0
LINE
  5
3EF5
330
1E
100
AcDbEntity
  8
7
100
AcDbLine
 10
2.783464566929133
 20
4.347440944881889
 30
0.0
 11
2.783464566929133
 21
4.344488188976377
 31
0.0
  0
LINE
  5
3EF6
330
1E
100
AcDbEntity
  8
7
100
AcDbLine
 10
2.850393700787401
 20
4.264763779527559
 30
0.0
 11
2.850393700787401
 21
4.288385826771653
 31
0.0
  0
LINE
  5
3EF7
330
1E
100
AcDbEntity
  8
7
100
AcDbLine
 10
2.850393700787401
 20
4.288385826771653
 30
0.0
 11
2.84251968503937
 21
4.310039370078739
 31
0.0
  0
LINE
  5
3EF8
330
1E
100
AcDbEntity
  8
7
100
AcDbLine
 10
2.84251968503937
 20
4.310039370078739
 30
0.0
 11
2.826771653543307
 21
4.328740157480314
 31
0.0
  0
LINE
  5
3EF9
330
1E
100
AcDbEntity
  8
7
100
AcDbLine
 10
2.826771653543307
 20
4.328740157480314
 30
0.0
 11
2.807086614173228
 21
4.340551181102362
 31
0.0
  0
LINE
  5
3EFA
330
1E
100
AcDbEntity
  8
7
100
AcDbLine
 10
2.807086614173228
 20
4.340551181102362
 30
0.0
 11
2.783464566929133
 21
4.344488188976377
 31
0.0
  0
LINE
  5
3EFB
330
1E
100
AcDbEntity
  8
7
100
AcDbLine
 10
2.752952755905511
 20
4.031496062992125
 30
0.0
 11
2.776574803149606
 21
4.035433070866141
 31
0.0
  0
LINE
  5
3EFC
330
1E
100
AcDbEntity
  8
7
100
AcDbLine
 10
2.776574803149606
 20
4.035433070866141
 30
0.0
 11
2.796259842519685
 21
4.047244094488188
 31
0.0
  0
LINE
  5
3EFD
330
1E
100
AcDbEntity
  8
7
100
AcDbLine
 10
2.796259842519685
 20
4.047244094488188
 30
0.0
 11
2.812007874015748
 21
4.06496062992126
 31
0.0
  0
LINE
  5
3EFE
330
1E
100
AcDbEntity
  8
7
100
AcDbLine
 10
2.812007874015748
 20
4.06496062992126
 30
0.0
 11
2.819881889763779
 21
4.08759842519685
 31
0.0
  0
LINE
  5
3EFF
330
1E
100
AcDbEntity
  8
7
100
AcDbLine
 10
2.229330708661417
 20
4.08759842519685
 30
0.0
 11
2.237204724409448
 21
4.065944881889763
 31
0.0
  0
LINE
  5
3F00
330
1E
100
AcDbEntity
  8
7
100
AcDbLine
 10
2.237204724409448
 20
4.065944881889763
 30
0.0
 11
2.252952755905511
 21
4.047244094488188
 31
0.0
  0
LINE
  5
3F01
330
1E
100
AcDbEntity
  8
7
100
AcDbLine
 10
2.252952755905511
 20
4.047244094488188
 30
0.0
 11
2.27263779527559
 21
4.035433070866141
 31
0.0
  0
LINE
  5
3F02
330
1E
100
AcDbEntity
  8
7
100
AcDbLine
 10
2.27263779527559
 20
4.035433070866141
 30
0.0
 11
2.296259842519685
 21
4.031496062992125
 31
0.0
  0
LINE
  5
3F03
330
1E
100
AcDbEntity
  8
7
100
AcDbLine
 10
2.265748031496062
 20
4.344488188976377
 30
0.0
 11
2.242125984251968
 21
4.340551181102362
 31
0.0
  0
LINE
  5
3F04
330
1E
100
AcDbEntity
  8
7
100
AcDbLine
 10
2.242125984251968
 20
4.340551181102362
 30
0.0
 11
2.222440944881889
 21
4.328740157480314
 31
0.0
  0
LINE
  5
3F05
330
1E
100
AcDbEntity
  8
7
100
AcDbLine
 10
2.222440944881889
 20
4.328740157480314
 30
0.0
 11
2.206692913385826
 21
4.311023622047244
 31
0.0
  0
LINE
  5
3F06
330
1E
100
AcDbEntity
  8
7
100
AcDbLine
 10
2.206692913385826
 20
4.311023622047244
 30
0.0
 11
2.198818897637795
 21
4.288385826771653
 31
0.0
  0
LINE
  5
3F07
330
1E
100
AcDbEntity
  8
7
100
AcDbLine
 10
2.198818897637795
 20
4.288385826771653
 30
0.0
 11
2.198818897637795
 21
4.264763779527559
 31
0.0
  0
LINE
  5
3F08
330
1E
100
AcDbEntity
  8
7
100
AcDbLine
 10
2.264763779527559
 20
4.321850393700787
 30
0.0
 11
2.246062992125984
 21
4.317913385826771
 31
0.0
  0
LINE
  5
3F09
330
1E
100
AcDbEntity
  8
7
100
AcDbLine
 10
2.246062992125984
 20
4.317913385826771
 30
0.0
 11
2.230314960629921
 21
4.306102362204724
 31
0.0
  0
LINE
  5
3F0A
330
1E
100
AcDbEntity
  8
7
100
AcDbLine
 10
2.230314960629921
 20
4.306102362204724
 30
0.0
 11
2.221456692913385
 21
4.288385826771653
 31
0.0
  0
LINE
  5
3F0B
330
1E
100
AcDbEntity
  8
7
100
AcDbLine
 10
2.221456692913385
 20
4.288385826771653
 30
0.0
 11
2.220472440944881
 21
4.268700787401574
 31
0.0
  0
LINE
  5
3F0C
330
1E
100
AcDbEntity
  8
7
100
AcDbLine
 10
2.251968503937007
 20
4.091535433070865
 30
0.0
 11
2.259842519685039
 21
4.072834645669291
 31
0.0
  0
LINE
  5
3F0D
330
1E
100
AcDbEntity
  8
7
100
AcDbLine
 10
2.259842519685039
 20
4.072834645669291
 30
0.0
 11
2.275590551181102
 21
4.059055118110236
 31
0.0
  0
LINE
  5
3F0E
330
1E
100
AcDbEntity
  8
7
100
AcDbLine
 10
2.275590551181102
 20
4.059055118110236
 30
0.0
 11
2.296259842519685
 21
4.054133858267716
 31
0.0
  0
LINE
  5
3F0F
330
1E
100
AcDbEntity
  8
7
100
AcDbLine
 10
2.752952755905511
 20
4.054133858267716
 30
0.0
 11
2.773622047244094
 21
4.059055118110236
 31
0.0
  0
LINE
  5
3F10
330
1E
100
AcDbEntity
  8
7
100
AcDbLine
 10
2.773622047244094
 20
4.059055118110236
 30
0.0
 11
2.789370078740157
 21
4.072834645669291
 31
0.0
  0
LINE
  5
3F11
330
1E
100
AcDbEntity
  8
7
100
AcDbLine
 10
2.789370078740157
 20
4.072834645669291
 30
0.0
 11
2.797244094488188
 21
4.091535433070865
 31
0.0
  0
LINE
  5
3F12
330
1E
100
AcDbEntity
  8
7
100
AcDbLine
 10
2.828740157480314
 20
4.268700787401574
 30
0.0
 11
2.827755905511811
 21
4.288385826771653
 31
0.0
  0
LINE
  5
3F13
330
1E
100
AcDbEntity
  8
7
100
AcDbLine
 10
2.827755905511811
 20
4.288385826771653
 30
0.0
 11
2.818897637795275
 21
4.306102362204724
 31
0.0
  0
LINE
  5
3F14
330
1E
100
AcDbEntity
  8
7
100
AcDbLine
 10
2.818897637795275
 20
4.306102362204724
 30
0.0
 11
2.803149606299212
 21
4.317913385826771
 31
0.0
  0
LINE
  5
3F15
330
1E
100
AcDbEntity
  8
7
100
AcDbLine
 10
2.803149606299212
 20
4.317913385826771
 30
0.0
 11
2.784448818897637
 21
4.321850393700787
 31
0.0
  0
LINE
  5
3F16
330
1E
100
AcDbEntity
  8
7
100
AcDbLine
 10
2.218503937007874
 20
4.085629921259842
 30
0.0
 11
2.228346456692913
 21
4.060039370078739
 31
0.0
  0
LINE
  5
3F17
330
1E
100
AcDbEntity
  8
7
100
AcDbLine
 10
2.228346456692913
 20
4.060039370078739
 30
0.0
 11
2.246062992125984
 21
4.039370078740157
 31
0.0
  0
LINE
  5
3F18
330
1E
100
AcDbEntity
  8
7
100
AcDbLine
 10
2.246062992125984
 20
4.039370078740157
 30
0.0
 11
2.269685039370078
 21
4.025590551181101
 31
0.0
  0
LINE
  5
3F19
330
1E
100
AcDbEntity
  8
7
100
AcDbLine
 10
2.269685039370078
 20
4.025590551181101
 30
0.0
 11
2.296259842519685
 21
4.020669291338582
 31
0.0
  0
LINE
  5
3F1A
330
1E
100
AcDbEntity
  8
7
100
AcDbLine
 10
2.803149606299212
 20
4.039370078740157
 30
0.0
 11
2.820866141732283
 21
4.060039370078739
 31
0.0
  0
LINE
  5
3F1B
330
1E
100
AcDbEntity
  8
7
100
AcDbLine
 10
2.820866141732283
 20
4.060039370078739
 30
0.0
 11
2.830708661417322
 21
4.085629921259842
 31
0.0
  0
LINE
  5
3F1C
330
1E
100
AcDbEntity
  8
7
100
AcDbLine
 10
2.752952755905511
 20
4.020669291338582
 30
0.0
 11
2.779527559055118
 21
4.025590551181101
 31
0.0
  0
LINE
  5
3F1D
330
1E
100
AcDbEntity
  8
7
100
AcDbLine
 10
2.779527559055118
 20
4.025590551181101
 30
0.0
 11
2.803149606299212
 21
4.039370078740157
 31
0.0
  0
LINE
  5
3F1E
330
1E
100
AcDbEntity
  8
7
100
AcDbLine
 10
2.861220472440944
 20
4.26279527559055
 30
0.0
 11
2.861220472440944
 21
4.290354330708661
 31
0.0
  0
LINE
  5
3F1F
330
1E
100
AcDbEntity
  8
7
100
AcDbLine
 10
2.861220472440944
 20
4.290354330708661
 30
0.0
 11
2.851377952755905
 21
4.315944881889763
 31
0.0
  0
LINE
  5
3F20
330
1E
100
AcDbEntity
  8
7
100
AcDbLine
 10
2.851377952755905
 20
4.315944881889763
 30
0.0
 11
2.833661417322834
 21
4.336614173228346
 31
0.0
  0
LINE
  5
3F21
330
1E
100
AcDbEntity
  8
7
100
AcDbLine
 10
2.833661417322834
 20
4.336614173228346
 30
0.0
 11
2.81003937007874
 21
4.350393700787401
 31
0.0
  0
LINE
  5
3F22
330
1E
100
AcDbEntity
  8
7
100
AcDbLine
 10
2.81003937007874
 20
4.350393700787401
 30
0.0
 11
2.783464566929133
 21
4.355314960629921
 31
0.0
  0
LINE
  5
3F23
330
1E
100
AcDbEntity
  8
7
100
AcDbLine
 10
2.265748031496062
 20
4.355314960629921
 30
0.0
 11
2.239173228346456
 21
4.350393700787401
 31
0.0
  0
LINE
  5
3F24
330
1E
100
AcDbEntity
  8
7
100
AcDbLine
 10
2.239173228346456
 20
4.350393700787401
 30
0.0
 11
2.215551181102362
 21
4.336614173228346
 31
0.0
  0
LINE
  5
3F25
330
1E
100
AcDbEntity
  8
7
100
AcDbLine
 10
2.215551181102362
 20
4.336614173228346
 30
0.0
 11
2.197834645669291
 21
4.315944881889763
 31
0.0
  0
LINE
  5
3F26
330
1E
100
AcDbEntity
  8
7
100
AcDbLine
 10
2.197834645669291
 20
4.315944881889763
 30
0.0
 11
2.187992125984251
 21
4.290354330708661
 31
0.0
  0
LINE
  5
3F27
330
1E
100
AcDbEntity
  8
7
100
AcDbLine
 10
2.187992125984251
 20
4.290354330708661
 30
0.0
 11
2.187992125984251
 21
4.26279527559055
 31
0.0
  0
LINE
  5
3F28
330
1E
100
AcDbEntity
  8
7
100
AcDbLine
 10
2.754921259842519
 20
4.054133858267716
 30
0.0
 11
2.775590551181102
 21
4.059055118110236
 31
0.0
  0
LINE
  5
3F29
330
1E
100
AcDbEntity
  8
7
100
AcDbLine
 10
2.775590551181102
 20
4.059055118110236
 30
0.0
 11
2.791338582677165
 21
4.072834645669291
 31
0.0
  0
LINE
  5
3F2A
330
1E
100
AcDbEntity
  8
7
100
AcDbLine
 10
2.791338582677165
 20
4.072834645669291
 30
0.0
 11
2.799212598425196
 21
4.091535433070865
 31
0.0
  0
LINE
  5
3F2B
330
1E
100
AcDbEntity
  8
7
100
AcDbLine
 10
2.253937007874015
 20
4.091535433070865
 30
0.0
 11
2.261811023622047
 21
4.072834645669291
 31
0.0
  0
LINE
  5
3F2C
330
1E
100
AcDbEntity
  8
7
100
AcDbLine
 10
2.261811023622047
 20
4.072834645669291
 30
0.0
 11
2.27755905511811
 21
4.059055118110236
 31
0.0
  0
LINE
  5
3F2D
330
1E
100
AcDbEntity
  8
7
100
AcDbLine
 10
2.27755905511811
 20
4.059055118110236
 30
0.0
 11
2.298228346456693
 21
4.054133858267716
 31
0.0
  0
LINE
  5
3F2E
330
1E
100
AcDbEntity
  8
7
100
AcDbLine
 10
2.266732283464567
 20
4.321850393700787
 30
0.0
 11
2.248031496062992
 21
4.317913385826771
 31
0.0
  0
LINE
  5
3F2F
330
1E
100
AcDbEntity
  8
7
100
AcDbLine
 10
2.248031496062992
 20
4.317913385826771
 30
0.0
 11
2.232283464566929
 21
4.306102362204724
 31
0.0
  0
LINE
  5
3F30
330
1E
100
AcDbEntity
  8
7
100
AcDbLine
 10
2.232283464566929
 20
4.306102362204724
 30
0.0
 11
2.223425196850393
 21
4.288385826771653
 31
0.0
  0
LINE
  5
3F31
330
1E
100
AcDbEntity
  8
7
100
AcDbLine
 10
2.223425196850393
 20
4.288385826771653
 30
0.0
 11
2.222440944881889
 21
4.268700787401574
 31
0.0
  0
LINE
  5
3F32
330
1E
100
AcDbEntity
  8
7
100
AcDbLine
 10
2.830708661417322
 20
4.268700787401574
 30
0.0
 11
2.829724409448818
 21
4.288385826771653
 31
0.0
  0
LINE
  5
3F33
330
1E
100
AcDbEntity
  8
7
100
AcDbLine
 10
2.829724409448818
 20
4.288385826771653
 30
0.0
 11
2.820866141732283
 21
4.306102362204724
 31
0.0
  0
LINE
  5
3F34
330
1E
100
AcDbEntity
  8
7
100
AcDbLine
 10
2.820866141732283
 20
4.306102362204724
 30
0.0
 11
2.80511811023622
 21
4.317913385826771
 31
0.0
  0
LINE
  5
3F35
330
1E
100
AcDbEntity
  8
7
100
AcDbLine
 10
2.80511811023622
 20
4.317913385826771
 30
0.0
 11
2.786417322834645
 21
4.321850393700787
 31
0.0
  0
LINE
  5
3F36
330
1E
100
AcDbEntity
  8
7
100
AcDbLine
 10
2.313976377952756
 20
4.130905511811023
 30
0.0
 11
2.303149606299212
 21
4.126968503937007
 31
0.0
  0
LINE
  5
3F37
330
1E
100
AcDbEntity
  8
7
100
AcDbLine
 10
2.303149606299212
 20
4.126968503937007
 30
0.0
 11
2.299212598425196
 21
4.116141732283464
 31
0.0
  0
LINE
  5
3F38
330
1E
100
AcDbEntity
  8
7
100
AcDbLine
 10
2.299212598425196
 20
4.116141732283464
 30
0.0
 11
2.303149606299212
 21
4.105314960629921
 31
0.0
  0
LINE
  5
3F39
330
1E
100
AcDbEntity
  8
7
100
AcDbLine
 10
2.303149606299212
 20
4.105314960629921
 30
0.0
 11
2.313976377952756
 21
4.101377952755905
 31
0.0
  0
LINE
  5
3F3A
330
1E
100
AcDbEntity
  8
7
100
AcDbLine
 10
2.313976377952756
 20
4.101377952755905
 30
0.0
 11
2.324803149606299
 21
4.105314960629921
 31
0.0
  0
LINE
  5
3F3B
330
1E
100
AcDbEntity
  8
7
100
AcDbLine
 10
2.324803149606299
 20
4.105314960629921
 30
0.0
 11
2.328740157480314
 21
4.116141732283464
 31
0.0
  0
LINE
  5
3F3C
330
1E
100
AcDbEntity
  8
7
100
AcDbLine
 10
2.328740157480314
 20
4.116141732283464
 30
0.0
 11
2.324803149606299
 21
4.126968503937007
 31
0.0
  0
LINE
  5
3F3D
330
1E
100
AcDbEntity
  8
7
100
AcDbLine
 10
2.324803149606299
 20
4.126968503937007
 30
0.0
 11
2.313976377952756
 21
4.130905511811023
 31
0.0
  0
LINE
  5
3F3E
330
1E
100
AcDbEntity
  8
7
100
AcDbLine
 10
2.413385826771653
 20
4.116141732283464
 30
0.0
 11
2.409448818897637
 21
4.126968503937007
 31
0.0
  0
LINE
  5
3F3F
330
1E
100
AcDbEntity
  8
7
100
AcDbLine
 10
2.409448818897637
 20
4.126968503937007
 30
0.0
 11
2.398622047244094
 21
4.130905511811023
 31
0.0
  0
LINE
  5
3F40
330
1E
100
AcDbEntity
  8
7
100
AcDbLine
 10
2.398622047244094
 20
4.130905511811023
 30
0.0
 11
2.387795275590551
 21
4.126968503937007
 31
0.0
  0
LINE
  5
3F41
330
1E
100
AcDbEntity
  8
7
100
AcDbLine
 10
2.387795275590551
 20
4.126968503937007
 30
0.0
 11
2.383858267716535
 21
4.116141732283464
 31
0.0
  0
LINE
  5
3F42
330
1E
100
AcDbEntity
  8
7
100
AcDbLine
 10
2.383858267716535
 20
4.116141732283464
 30
0.0
 11
2.387795275590551
 21
4.105314960629921
 31
0.0
  0
LINE
  5
3F43
330
1E
100
AcDbEntity
  8
7
100
AcDbLine
 10
2.387795275590551
 20
4.105314960629921
 30
0.0
 11
2.398622047244094
 21
4.101377952755905
 31
0.0
  0
LINE
  5
3F44
330
1E
100
AcDbEntity
  8
7
100
AcDbLine
 10
2.398622047244094
 20
4.101377952755905
 30
0.0
 11
2.409448818897637
 21
4.105314960629921
 31
0.0
  0
LINE
  5
3F45
330
1E
100
AcDbEntity
  8
7
100
AcDbLine
 10
2.409448818897637
 20
4.105314960629921
 30
0.0
 11
2.413385826771653
 21
4.116141732283464
 31
0.0
  0
LINE
  5
3F46
330
1E
100
AcDbEntity
  8
7
100
AcDbLine
 10
2.469488188976377
 20
4.116141732283464
 30
0.0
 11
2.473425196850393
 21
4.105314960629921
 31
0.0
  0
LINE
  5
3F47
330
1E
100
AcDbEntity
  8
7
100
AcDbLine
 10
2.473425196850393
 20
4.105314960629921
 30
0.0
 11
2.484251968503937
 21
4.101377952755905
 31
0.0
  0
LINE
  5
3F48
330
1E
100
AcDbEntity
  8
7
100
AcDbLine
 10
2.484251968503937
 20
4.101377952755905
 30
0.0
 11
2.49507874015748
 21
4.105314960629921
 31
0.0
  0
LINE
  5
3F49
330
1E
100
AcDbEntity
  8
7
100
AcDbLine
 10
2.49507874015748
 20
4.105314960629921
 30
0.0
 11
2.499015748031495
 21
4.116141732283464
 31
0.0
  0
LINE
  5
3F4A
330
1E
100
AcDbEntity
  8
7
100
AcDbLine
 10
2.499015748031495
 20
4.116141732283464
 30
0.0
 11
2.49507874015748
 21
4.126968503937007
 31
0.0
  0
LINE
  5
3F4B
330
1E
100
AcDbEntity
  8
7
100
AcDbLine
 10
2.49507874015748
 20
4.126968503937007
 30
0.0
 11
2.484251968503937
 21
4.130905511811023
 31
0.0
  0
LINE
  5
3F4C
330
1E
100
AcDbEntity
  8
7
100
AcDbLine
 10
2.484251968503937
 20
4.130905511811023
 30
0.0
 11
2.473425196850393
 21
4.126968503937007
 31
0.0
  0
LINE
  5
3F4D
330
1E
100
AcDbEntity
  8
7
100
AcDbLine
 10
2.473425196850393
 20
4.126968503937007
 30
0.0
 11
2.469488188976377
 21
4.116141732283464
 31
0.0
  0
LINE
  5
3F4E
330
1E
100
AcDbEntity
  8
7
100
AcDbLine
 10
2.568897637795275
 20
4.130905511811023
 30
0.0
 11
2.558070866141732
 21
4.126968503937007
 31
0.0
  0
LINE
  5
3F4F
330
1E
100
AcDbEntity
  8
7
100
AcDbLine
 10
2.558070866141732
 20
4.126968503937007
 30
0.0
 11
2.554133858267716
 21
4.116141732283464
 31
0.0
  0
LINE
  5
3F50
330
1E
100
AcDbEntity
  8
7
100
AcDbLine
 10
2.554133858267716
 20
4.116141732283464
 30
0.0
 11
2.558070866141732
 21
4.105314960629921
 31
0.0
  0
LINE
  5
3F51
330
1E
100
AcDbEntity
  8
7
100
AcDbLine
 10
2.558070866141732
 20
4.105314960629921
 30
0.0
 11
2.568897637795275
 21
4.101377952755905
 31
0.0
  0
LINE
  5
3F52
330
1E
100
AcDbEntity
  8
7
100
AcDbLine
 10
2.568897637795275
 20
4.101377952755905
 30
0.0
 11
2.579724409448818
 21
4.105314960629921
 31
0.0
  0
LINE
  5
3F53
330
1E
100
AcDbEntity
  8
7
100
AcDbLine
 10
2.579724409448818
 20
4.105314960629921
 30
0.0
 11
2.583661417322834
 21
4.116141732283464
 31
0.0
  0
LINE
  5
3F54
330
1E
100
AcDbEntity
  8
7
100
AcDbLine
 10
2.583661417322834
 20
4.116141732283464
 30
0.0
 11
2.579724409448818
 21
4.126968503937007
 31
0.0
  0
LINE
  5
3F55
330
1E
100
AcDbEntity
  8
7
100
AcDbLine
 10
2.579724409448818
 20
4.126968503937007
 30
0.0
 11
2.568897637795275
 21
4.130905511811023
 31
0.0
  0
LINE
  5
3F56
330
1E
100
AcDbEntity
  8
7
100
AcDbLine
 10
2.654527559055118
 20
4.130905511811023
 30
0.0
 11
2.643700787401574
 21
4.126968503937007
 31
0.0
  0
LINE
  5
3F57
330
1E
100
AcDbEntity
  8
7
100
AcDbLine
 10
2.643700787401574
 20
4.126968503937007
 30
0.0
 11
2.639763779527558
 21
4.116141732283464
 31
0.0
  0
LINE
  5
3F58
330
1E
100
AcDbEntity
  8
7
100
AcDbLine
 10
2.639763779527558
 20
4.116141732283464
 30
0.0
 11
2.643700787401574
 21
4.105314960629921
 31
0.0
  0
LINE
  5
3F59
330
1E
100
AcDbEntity
  8
7
100
AcDbLine
 10
2.643700787401574
 20
4.105314960629921
 30
0.0
 11
2.654527559055118
 21
4.101377952755905
 31
0.0
  0
LINE
  5
3F5A
330
1E
100
AcDbEntity
  8
7
100
AcDbLine
 10
2.654527559055118
 20
4.101377952755905
 30
0.0
 11
2.665354330708661
 21
4.105314960629921
 31
0.0
  0
LINE
  5
3F5B
330
1E
100
AcDbEntity
  8
7
100
AcDbLine
 10
2.665354330708661
 20
4.105314960629921
 30
0.0
 11
2.669291338582677
 21
4.116141732283464
 31
0.0
  0
LINE
  5
3F5C
330
1E
100
AcDbEntity
  8
7
100
AcDbLine
 10
2.669291338582677
 20
4.116141732283464
 30
0.0
 11
2.665354330708661
 21
4.126968503937007
 31
0.0
  0
LINE
  5
3F5D
330
1E
100
AcDbEntity
  8
7
100
AcDbLine
 10
2.665354330708661
 20
4.126968503937007
 30
0.0
 11
2.654527559055118
 21
4.130905511811023
 31
0.0
  0
LINE
  5
3F5E
330
1E
100
AcDbEntity
  8
7
100
AcDbLine
 10
2.367125984251968
 20
4.177165354330708
 30
0.0
 11
2.371062992125984
 21
4.187992125984251
 31
0.0
  0
LINE
  5
3F5F
330
1E
100
AcDbEntity
  8
7
100
AcDbLine
 10
2.371062992125984
 20
4.187992125984251
 30
0.0
 11
2.367125984251968
 21
4.198818897637795
 31
0.0
  0
LINE
  5
3F60
330
1E
100
AcDbEntity
  8
7
100
AcDbLine
 10
2.367125984251968
 20
4.198818897637795
 30
0.0
 11
2.356299212598425
 21
4.202755905511811
 31
0.0
  0
LINE
  5
3F61
330
1E
100
AcDbEntity
  8
7
100
AcDbLine
 10
2.356299212598425
 20
4.202755905511811
 30
0.0
 11
2.345472440944881
 21
4.198818897637795
 31
0.0
  0
LINE
  5
3F62
330
1E
100
AcDbEntity
  8
7
100
AcDbLine
 10
2.345472440944881
 20
4.198818897637795
 30
0.0
 11
2.341535433070866
 21
4.187992125984251
 31
0.0
  0
LINE
  5
3F63
330
1E
100
AcDbEntity
  8
7
100
AcDbLine
 10
2.341535433070866
 20
4.187992125984251
 30
0.0
 11
2.345472440944881
 21
4.177165354330708
 31
0.0
  0
LINE
  5
3F64
330
1E
100
AcDbEntity
  8
7
100
AcDbLine
 10
2.345472440944881
 20
4.177165354330708
 30
0.0
 11
2.356299212598425
 21
4.173228346456692
 31
0.0
  0
LINE
  5
3F65
330
1E
100
AcDbEntity
  8
7
100
AcDbLine
 10
2.356299212598425
 20
4.173228346456692
 30
0.0
 11
2.367125984251968
 21
4.177165354330708
 31
0.0
  0
LINE
  5
3F66
330
1E
100
AcDbEntity
  8
7
100
AcDbLine
 10
2.431102362204724
 20
4.198818897637795
 30
0.0
 11
2.427165354330708
 21
4.187992125984251
 31
0.0
  0
LINE
  5
3F67
330
1E
100
AcDbEntity
  8
7
100
AcDbLine
 10
2.427165354330708
 20
4.187992125984251
 30
0.0
 11
2.431102362204724
 21
4.177165354330708
 31
0.0
  0
LINE
  5
3F68
330
1E
100
AcDbEntity
  8
7
100
AcDbLine
 10
2.431102362204724
 20
4.177165354330708
 30
0.0
 11
2.441929133858267
 21
4.173228346456692
 31
0.0
  0
LINE
  5
3F69
330
1E
100
AcDbEntity
  8
7
100
AcDbLine
 10
2.441929133858267
 20
4.173228346456692
 30
0.0
 11
2.452755905511811
 21
4.177165354330708
 31
0.0
  0
LINE
  5
3F6A
330
1E
100
AcDbEntity
  8
7
100
AcDbLine
 10
2.452755905511811
 20
4.177165354330708
 30
0.0
 11
2.456692913385826
 21
4.187992125984251
 31
0.0
  0
LINE
  5
3F6B
330
1E
100
AcDbEntity
  8
7
100
AcDbLine
 10
2.456692913385826
 20
4.187992125984251
 30
0.0
 11
2.452755905511811
 21
4.198818897637795
 31
0.0
  0
LINE
  5
3F6C
330
1E
100
AcDbEntity
  8
7
100
AcDbLine
 10
2.452755905511811
 20
4.198818897637795
 30
0.0
 11
2.441929133858267
 21
4.202755905511811
 31
0.0
  0
LINE
  5
3F6D
330
1E
100
AcDbEntity
  8
7
100
AcDbLine
 10
2.526574803149606
 20
4.202755905511811
 30
0.0
 11
2.515748031496062
 21
4.198818897637795
 31
0.0
  0
LINE
  5
3F6E
330
1E
100
AcDbEntity
  8
7
100
AcDbLine
 10
2.515748031496062
 20
4.198818897637795
 30
0.0
 11
2.511811023622047
 21
4.187992125984251
 31
0.0
  0
LINE
  5
3F6F
330
1E
100
AcDbEntity
  8
7
100
AcDbLine
 10
2.511811023622047
 20
4.187992125984251
 30
0.0
 11
2.515748031496062
 21
4.177165354330708
 31
0.0
  0
LINE
  5
3F70
330
1E
100
AcDbEntity
  8
7
100
AcDbLine
 10
2.515748031496062
 20
4.177165354330708
 30
0.0
 11
2.526574803149606
 21
4.173228346456692
 31
0.0
  0
LINE
  5
3F71
330
1E
100
AcDbEntity
  8
7
100
AcDbLine
 10
2.526574803149606
 20
4.173228346456692
 30
0.0
 11
2.537401574803149
 21
4.177165354330708
 31
0.0
  0
LINE
  5
3F72
330
1E
100
AcDbEntity
  8
7
100
AcDbLine
 10
2.537401574803149
 20
4.177165354330708
 30
0.0
 11
2.541338582677165
 21
4.187992125984251
 31
0.0
  0
LINE
  5
3F73
330
1E
100
AcDbEntity
  8
7
100
AcDbLine
 10
2.541338582677165
 20
4.187992125984251
 30
0.0
 11
2.537401574803149
 21
4.198818897637795
 31
0.0
  0
LINE
  5
3F74
330
1E
100
AcDbEntity
  8
7
100
AcDbLine
 10
2.537401574803149
 20
4.198818897637795
 30
0.0
 11
2.526574803149606
 21
4.202755905511811
 31
0.0
  0
LINE
  5
3F75
330
1E
100
AcDbEntity
  8
7
100
AcDbLine
 10
2.611220472440944
 20
4.202755905511811
 30
0.0
 11
2.600393700787401
 21
4.198818897637795
 31
0.0
  0
LINE
  5
3F76
330
1E
100
AcDbEntity
  8
7
100
AcDbLine
 10
2.600393700787401
 20
4.198818897637795
 30
0.0
 11
2.596456692913385
 21
4.187992125984251
 31
0.0
  0
LINE
  5
3F77
330
1E
100
AcDbEntity
  8
7
100
AcDbLine
 10
2.596456692913385
 20
4.187992125984251
 30
0.0
 11
2.600393700787401
 21
4.177165354330708
 31
0.0
  0
LINE
  5
3F78
330
1E
100
AcDbEntity
  8
7
100
AcDbLine
 10
2.600393700787401
 20
4.177165354330708
 30
0.0
 11
2.611220472440944
 21
4.173228346456692
 31
0.0
  0
LINE
  5
3F79
330
1E
100
AcDbEntity
  8
7
100
AcDbLine
 10
2.611220472440944
 20
4.173228346456692
 30
0.0
 11
2.622047244094487
 21
4.177165354330708
 31
0.0
  0
LINE
  5
3F7A
330
1E
100
AcDbEntity
  8
7
100
AcDbLine
 10
2.622047244094487
 20
4.177165354330708
 30
0.0
 11
2.625984251968503
 21
4.187992125984251
 31
0.0
  0
LINE
  5
3F7B
330
1E
100
AcDbEntity
  8
7
100
AcDbLine
 10
2.625984251968503
 20
4.187992125984251
 30
0.0
 11
2.622047244094487
 21
4.198818897637795
 31
0.0
  0
LINE
  5
3F7C
330
1E
100
AcDbEntity
  8
7
100
AcDbLine
 10
2.622047244094487
 20
4.198818897637795
 30
0.0
 11
2.611220472440944
 21
4.202755905511811
 31
0.0
  0
LINE
  5
3F7D
330
1E
100
AcDbEntity
  8
7
100
AcDbLine
 10
2.696850393700787
 20
4.173228346456692
 30
0.0
 11
2.70767716535433
 21
4.177165354330708
 31
0.0
  0
LINE
  5
3F7E
330
1E
100
AcDbEntity
  8
7
100
AcDbLine
 10
2.70767716535433
 20
4.177165354330708
 30
0.0
 11
2.711614173228346
 21
4.187992125984251
 31
0.0
  0
LINE
  5
3F7F
330
1E
100
AcDbEntity
  8
7
100
AcDbLine
 10
2.711614173228346
 20
4.187992125984251
 30
0.0
 11
2.70767716535433
 21
4.198818897637795
 31
0.0
  0
LINE
  5
3F80
330
1E
100
AcDbEntity
  8
7
100
AcDbLine
 10
2.70767716535433
 20
4.198818897637795
 30
0.0
 11
2.696850393700787
 21
4.202755905511811
 31
0.0
  0
LINE
  5
3F81
330
1E
100
AcDbEntity
  8
7
100
AcDbLine
 10
2.696850393700787
 20
4.202755905511811
 30
0.0
 11
2.686023622047243
 21
4.198818897637795
 31
0.0
  0
LINE
  5
3F82
330
1E
100
AcDbEntity
  8
7
100
AcDbLine
 10
2.686023622047243
 20
4.198818897637795
 30
0.0
 11
2.682086614173228
 21
4.187992125984251
 31
0.0
  0
LINE
  5
3F83
330
1E
100
AcDbEntity
  8
7
100
AcDbLine
 10
2.682086614173228
 20
4.187992125984251
 30
0.0
 11
2.686023622047243
 21
4.177165354330708
 31
0.0
  0
LINE
  5
3F84
330
1E
100
AcDbEntity
  8
7
100
AcDbLine
 10
2.686023622047243
 20
4.177165354330708
 30
0.0
 11
2.696850393700787
 21
4.173228346456692
 31
0.0
  0
LINE
  5
3F85
330
1E
100
AcDbEntity
  8
7
100
AcDbLine
 10
2.654527559055118
 20
4.274606299212598
 30
0.0
 11
2.643700787401574
 21
4.270669291338582
 31
0.0
  0
LINE
  5
3F86
330
1E
100
AcDbEntity
  8
7
100
AcDbLine
 10
2.643700787401574
 20
4.270669291338582
 30
0.0
 11
2.639763779527558
 21
4.259842519685038
 31
0.0
  0
LINE
  5
3F87
330
1E
100
AcDbEntity
  8
7
100
AcDbLine
 10
2.639763779527558
 20
4.259842519685038
 30
0.0
 11
2.643700787401574
 21
4.249015748031496
 31
0.0
  0
LINE
  5
3F88
330
1E
100
AcDbEntity
  8
7
100
AcDbLine
 10
2.643700787401574
 20
4.249015748031496
 30
0.0
 11
2.654527559055118
 21
4.24507874015748
 31
0.0
  0
LINE
  5
3F89
330
1E
100
AcDbEntity
  8
7
100
AcDbLine
 10
2.654527559055118
 20
4.24507874015748
 30
0.0
 11
2.665354330708661
 21
4.249015748031496
 31
0.0
  0
LINE
  5
3F8A
330
1E
100
AcDbEntity
  8
7
100
AcDbLine
 10
2.665354330708661
 20
4.249015748031496
 30
0.0
 11
2.669291338582677
 21
4.259842519685038
 31
0.0
  0
LINE
  5
3F8B
330
1E
100
AcDbEntity
  8
7
100
AcDbLine
 10
2.669291338582677
 20
4.259842519685038
 30
0.0
 11
2.665354330708661
 21
4.270669291338582
 31
0.0
  0
LINE
  5
3F8C
330
1E
100
AcDbEntity
  8
7
100
AcDbLine
 10
2.665354330708661
 20
4.270669291338582
 30
0.0
 11
2.654527559055118
 21
4.274606299212598
 31
0.0
  0
LINE
  5
3F8D
330
1E
100
AcDbEntity
  8
7
100
AcDbLine
 10
2.568897637795275
 20
4.274606299212598
 30
0.0
 11
2.558070866141732
 21
4.270669291338582
 31
0.0
  0
LINE
  5
3F8E
330
1E
100
AcDbEntity
  8
7
100
AcDbLine
 10
2.558070866141732
 20
4.270669291338582
 30
0.0
 11
2.554133858267716
 21
4.259842519685038
 31
0.0
  0
LINE
  5
3F8F
330
1E
100
AcDbEntity
  8
7
100
AcDbLine
 10
2.554133858267716
 20
4.259842519685038
 30
0.0
 11
2.558070866141732
 21
4.249015748031496
 31
0.0
  0
LINE
  5
3F90
330
1E
100
AcDbEntity
  8
7
100
AcDbLine
 10
2.558070866141732
 20
4.249015748031496
 30
0.0
 11
2.568897637795275
 21
4.24507874015748
 31
0.0
  0
LINE
  5
3F91
330
1E
100
AcDbEntity
  8
7
100
AcDbLine
 10
2.568897637795275
 20
4.24507874015748
 30
0.0
 11
2.579724409448818
 21
4.249015748031496
 31
0.0
  0
LINE
  5
3F92
330
1E
100
AcDbEntity
  8
7
100
AcDbLine
 10
2.579724409448818
 20
4.249015748031496
 30
0.0
 11
2.583661417322834
 21
4.259842519685038
 31
0.0
  0
LINE
  5
3F93
330
1E
100
AcDbEntity
  8
7
100
AcDbLine
 10
2.583661417322834
 20
4.259842519685038
 30
0.0
 11
2.579724409448818
 21
4.270669291338582
 31
0.0
  0
LINE
  5
3F94
330
1E
100
AcDbEntity
  8
7
100
AcDbLine
 10
2.579724409448818
 20
4.270669291338582
 30
0.0
 11
2.568897637795275
 21
4.274606299212598
 31
0.0
  0
LINE
  5
3F95
330
1E
100
AcDbEntity
  8
7
100
AcDbLine
 10
2.484251968503937
 20
4.274606299212598
 30
0.0
 11
2.473425196850393
 21
4.270669291338582
 31
0.0
  0
LINE
  5
3F96
330
1E
100
AcDbEntity
  8
7
100
AcDbLine
 10
2.473425196850393
 20
4.270669291338582
 30
0.0
 11
2.469488188976377
 21
4.259842519685038
 31
0.0
  0
LINE
  5
3F97
330
1E
100
AcDbEntity
  8
7
100
AcDbLine
 10
2.469488188976377
 20
4.259842519685038
 30
0.0
 11
2.473425196850393
 21
4.249015748031496
 31
0.0
  0
LINE
  5
3F98
330
1E
100
AcDbEntity
  8
7
100
AcDbLine
 10
2.473425196850393
 20
4.249015748031496
 30
0.0
 11
2.484251968503937
 21
4.24507874015748
 31
0.0
  0
LINE
  5
3F99
330
1E
100
AcDbEntity
  8
7
100
AcDbLine
 10
2.484251968503937
 20
4.24507874015748
 30
0.0
 11
2.49507874015748
 21
4.249015748031496
 31
0.0
  0
LINE
  5
3F9A
330
1E
100
AcDbEntity
  8
7
100
AcDbLine
 10
2.49507874015748
 20
4.249015748031496
 30
0.0
 11
2.499015748031495
 21
4.259842519685038
 31
0.0
  0
LINE
  5
3F9B
330
1E
100
AcDbEntity
  8
7
100
AcDbLine
 10
2.499015748031495
 20
4.259842519685038
 30
0.0
 11
2.49507874015748
 21
4.270669291338582
 31
0.0
  0
LINE
  5
3F9C
330
1E
100
AcDbEntity
  8
7
100
AcDbLine
 10
2.383858267716535
 20
4.259842519685038
 30
0.0
 11
2.387795275590551
 21
4.249015748031496
 31
0.0
  0
LINE
  5
3F9D
330
1E
100
AcDbEntity
  8
7
100
AcDbLine
 10
2.387795275590551
 20
4.249015748031496
 30
0.0
 11
2.398622047244094
 21
4.24507874015748
 31
0.0
  0
LINE
  5
3F9E
330
1E
100
AcDbEntity
  8
7
100
AcDbLine
 10
2.398622047244094
 20
4.24507874015748
 30
0.0
 11
2.409448818897637
 21
4.249015748031496
 31
0.0
  0
LINE
  5
3F9F
330
1E
100
AcDbEntity
  8
7
100
AcDbLine
 10
2.409448818897637
 20
4.249015748031496
 30
0.0
 11
2.413385826771653
 21
4.259842519685038
 31
0.0
  0
LINE
  5
3FA0
330
1E
100
AcDbEntity
  8
7
100
AcDbLine
 10
2.413385826771653
 20
4.259842519685038
 30
0.0
 11
2.409448818897637
 21
4.270669291338582
 31
0.0
  0
LINE
  5
3FA1
330
1E
100
AcDbEntity
  8
7
100
AcDbLine
 10
2.409448818897637
 20
4.270669291338582
 30
0.0
 11
2.398622047244094
 21
4.274606299212598
 31
0.0
  0
LINE
  5
3FA2
330
1E
100
AcDbEntity
  8
7
100
AcDbLine
 10
2.398622047244094
 20
4.274606299212598
 30
0.0
 11
2.387795275590551
 21
4.270669291338582
 31
0.0
  0
LINE
  5
3FA3
330
1E
100
AcDbEntity
  8
7
100
AcDbLine
 10
2.387795275590551
 20
4.270669291338582
 30
0.0
 11
2.383858267716535
 21
4.259842519685038
 31
0.0
  0
LINE
  5
3FA4
330
1E
100
AcDbEntity
  8
7
100
AcDbLine
 10
2.313976377952756
 20
4.274606299212598
 30
0.0
 11
2.303149606299212
 21
4.270669291338582
 31
0.0
  0
LINE
  5
3FA5
330
1E
100
AcDbEntity
  8
7
100
AcDbLine
 10
2.303149606299212
 20
4.270669291338582
 30
0.0
 11
2.299212598425196
 21
4.259842519685038
 31
0.0
  0
LINE
  5
3FA6
330
1E
100
AcDbEntity
  8
7
100
AcDbLine
 10
2.299212598425196
 20
4.259842519685038
 30
0.0
 11
2.303149606299212
 21
4.249015748031496
 31
0.0
  0
LINE
  5
3FA7
330
1E
100
AcDbEntity
  8
7
100
AcDbLine
 10
2.303149606299212
 20
4.249015748031496
 30
0.0
 11
2.313976377952756
 21
4.24507874015748
 31
0.0
  0
LINE
  5
3FA8
330
1E
100
AcDbEntity
  8
7
100
AcDbLine
 10
2.313976377952756
 20
4.24507874015748
 30
0.0
 11
2.324803149606299
 21
4.249015748031496
 31
0.0
  0
LINE
  5
3FA9
330
1E
100
AcDbEntity
  8
7
100
AcDbLine
 10
2.324803149606299
 20
4.249015748031496
 30
0.0
 11
2.328740157480314
 21
4.259842519685038
 31
0.0
  0
LINE
  5
3FAA
330
1E
100
AcDbEntity
  8
7
100
AcDbLine
 10
2.328740157480314
 20
4.259842519685038
 30
0.0
 11
2.324803149606299
 21
4.270669291338582
 31
0.0
  0
LINE
  5
3FAB
330
1E
100
AcDbEntity
  8
7
100
AcDbLine
 10
2.324803149606299
 20
4.270669291338582
 30
0.0
 11
2.313976377952756
 21
4.274606299212598
 31
0.0
  0
LINE
  5
3FAC
330
1E
100
AcDbEntity
  8
7
100
AcDbLine
 10
2.958661417322834
 20
4.096456692913386
 30
0.0
 11
2.959645669291338
 21
4.096456692913386
 31
0.0
  0
LINE
  5
3FAD
330
1E
100
AcDbEntity
  8
7
100
AcDbLine
 10
2.959645669291338
 20
4.096456692913386
 30
0.0
 11
2.944881889763779
 21
4.123031496062991
 31
0.0
  0
LINE
  5
3FAE
330
1E
100
AcDbEntity
  8
7
100
AcDbLine
 10
2.944881889763779
 20
4.252952755905512
 30
0.0
 11
2.959645669291338
 21
4.278543307086613
 31
0.0
  0
LINE
  5
3FAF
330
1E
100
AcDbEntity
  8
7
100
AcDbLine
 10
2.959645669291338
 20
4.278543307086613
 30
0.0
 11
2.958661417322834
 21
4.279527559055117
 31
0.0
  0
LINE
  5
3FB0
330
1E
100
AcDbEntity
  8
7
100
AcDbLine
 10
2.090551181102362
 20
4.279527559055117
 30
0.0
 11
2.089566929133858
 21
4.278543307086613
 31
0.0
  0
LINE
  5
3FB1
330
1E
100
AcDbEntity
  8
7
100
AcDbLine
 10
2.089566929133858
 20
4.278543307086613
 30
0.0
 11
2.104330708661417
 21
4.252952755905512
 31
0.0
  0
LINE
  5
3FB2
330
1E
100
AcDbEntity
  8
7
100
AcDbLine
 10
2.104330708661417
 20
4.123031496062991
 30
0.0
 11
2.089566929133858
 21
4.096456692913386
 31
0.0
  0
LINE
  5
3FB3
330
1E
100
AcDbEntity
  8
7
100
AcDbLine
 10
2.089566929133858
 20
4.096456692913386
 30
0.0
 11
2.090551181102362
 21
4.096456692913386
 31
0.0
  0
LINE
  5
3FB4
330
1E
100
AcDbEntity
  8
7
100
AcDbLine
 10
1.746062992125984
 20
4.349409448818897
 30
0.0
 11
1.746062992125984
 21
4.382874015748031
 31
0.0
  0
LINE
  5
3FB5
330
1E
100
AcDbEntity
  8
7
100
AcDbLine
 10
1.746062992125984
 20
4.382874015748031
 30
0.0
 11
1.744094488188976
 21
4.382874015748031
 31
0.0
  0
LINE
  5
3FB6
330
1E
100
AcDbEntity
  8
7
100
AcDbLine
 10
2.906496062992125
 20
4.124015748031496
 30
0.0
 11
2.88779527559055
 21
4.117125984251968
 31
0.0
  0
LINE
  5
3FB7
330
1E
100
AcDbEntity
  8
7
100
AcDbLine
 10
2.88779527559055
 20
4.117125984251968
 30
0.0
 11
2.876968503937007
 21
4.099409448818897
 31
0.0
  0
LINE
  5
3FB8
330
1E
100
AcDbEntity
  8
7
100
AcDbLine
 10
2.8001968503937
 20
3.96751968503937
 30
0.0
 11
2.828740157480314
 21
3.974409448818897
 31
0.0
  0
LINE
  5
3FB9
330
1E
100
AcDbEntity
  8
7
100
AcDbLine
 10
2.828740157480314
 20
3.974409448818897
 30
0.0
 11
2.850393700787401
 21
3.993110236220472
 31
0.0
  0
LINE
  5
3FBA
330
1E
100
AcDbEntity
  8
7
100
AcDbLine
 10
2.850393700787401
 20
3.993110236220472
 30
0.0
 11
2.862204724409448
 21
4.019685039370078
 31
0.0
  0
LINE
  5
3FBB
330
1E
100
AcDbEntity
  8
7
100
AcDbLine
 10
2.187007874015748
 20
4.019685039370078
 30
0.0
 11
2.198818897637795
 21
3.993110236220472
 31
0.0
  0
LINE
  5
3FBC
330
1E
100
AcDbEntity
  8
7
100
AcDbLine
 10
2.198818897637795
 20
3.993110236220472
 30
0.0
 11
2.220472440944881
 21
3.974409448818897
 31
0.0
  0
LINE
  5
3FBD
330
1E
100
AcDbEntity
  8
7
100
AcDbLine
 10
2.220472440944881
 20
3.974409448818897
 30
0.0
 11
2.249015748031495
 21
3.96751968503937
 31
0.0
  0
LINE
  5
3FBE
330
1E
100
AcDbEntity
  8
7
100
AcDbLine
 10
2.172244094488188
 20
4.099409448818897
 30
0.0
 11
2.161417322834645
 21
4.117125984251968
 31
0.0
  0
LINE
  5
3FBF
330
1E
100
AcDbEntity
  8
7
100
AcDbLine
 10
2.161417322834645
 20
4.117125984251968
 30
0.0
 11
2.14271653543307
 21
4.124015748031496
 31
0.0
  0
LINE
  5
3FC0
330
1E
100
AcDbEntity
  8
7
100
AcDbLine
 10
2.129921259842519
 20
4.334645669291338
 30
0.0
 11
2.138779527559055
 21
4.286417322834645
 31
0.0
  0
LINE
  5
3FC1
330
1E
100
AcDbEntity
  8
7
100
AcDbLine
 10
2.138779527559055
 20
4.286417322834645
 30
0.0
 11
2.136811023622047
 21
4.269685039370078
 31
0.0
  0
LINE
  5
3FC2
330
1E
100
AcDbEntity
  8
7
100
AcDbLine
 10
2.136811023622047
 20
4.269685039370078
 30
0.0
 11
2.125984251968503
 21
4.256889763779527
 31
0.0
  0
LINE
  5
3FC3
330
1E
100
AcDbEntity
  8
7
100
AcDbLine
 10
2.125984251968503
 20
4.256889763779527
 30
0.0
 11
2.109251968503937
 21
4.251968503937007
 31
0.0
  0
LINE
  5
3FC4
330
1E
100
AcDbEntity
  8
7
100
AcDbLine
 10
2.192913385826771
 20
4.408464566929133
 30
0.0
 11
2.166338582677165
 21
4.40255905511811
 31
0.0
  0
LINE
  5
3FC5
330
1E
100
AcDbEntity
  8
7
100
AcDbLine
 10
2.166338582677165
 20
4.40255905511811
 30
0.0
 11
2.144685039370078
 21
4.385826771653543
 31
0.0
  0
LINE
  5
3FC6
330
1E
100
AcDbEntity
  8
7
100
AcDbLine
 10
2.144685039370078
 20
4.385826771653543
 30
0.0
 11
2.131889763779527
 21
4.362204724409449
 31
0.0
  0
LINE
  5
3FC7
330
1E
100
AcDbEntity
  8
7
100
AcDbLine
 10
2.131889763779527
 20
4.362204724409449
 30
0.0
 11
2.130905511811023
 21
4.334645669291338
 31
0.0
  0
LINE
  5
3FC8
330
1E
100
AcDbEntity
  8
7
100
AcDbLine
 10
2.918307086614173
 20
4.334645669291338
 30
0.0
 11
2.917322834645669
 21
4.362204724409449
 31
0.0
  0
LINE
  5
3FC9
330
1E
100
AcDbEntity
  8
7
100
AcDbLine
 10
2.917322834645669
 20
4.362204724409449
 30
0.0
 11
2.904527559055118
 21
4.385826771653543
 31
0.0
  0
LINE
  5
3FCA
330
1E
100
AcDbEntity
  8
7
100
AcDbLine
 10
2.904527559055118
 20
4.385826771653543
 30
0.0
 11
2.882874015748031
 21
4.40255905511811
 31
0.0
  0
LINE
  5
3FCB
330
1E
100
AcDbEntity
  8
7
100
AcDbLine
 10
2.882874015748031
 20
4.40255905511811
 30
0.0
 11
2.856299212598425
 21
4.408464566929133
 31
0.0
  0
LINE
  5
3FCC
330
1E
100
AcDbEntity
  8
7
100
AcDbLine
 10
2.912401574803149
 20
4.269685039370078
 30
0.0
 11
2.910433070866141
 21
4.286417322834645
 31
0.0
  0
LINE
  5
3FCD
330
1E
100
AcDbEntity
  8
7
100
AcDbLine
 10
2.910433070866141
 20
4.286417322834645
 30
0.0
 11
2.919291338582677
 21
4.334645669291338
 31
0.0
  0
LINE
  5
3FCE
330
1E
100
AcDbEntity
  8
7
100
AcDbLine
 10
2.939960629921259
 20
4.251968503937007
 30
0.0
 11
2.923228346456692
 21
4.256889763779527
 31
0.0
  0
LINE
  5
3FCF
330
1E
100
AcDbEntity
  8
7
100
AcDbLine
 10
2.923228346456692
 20
4.256889763779527
 30
0.0
 11
2.912401574803149
 21
4.269685039370078
 31
0.0
  0
LINE
  5
3FD0
330
1E
100
AcDbEntity
  8
7
100
AcDbLine
 10
2.913385826771653
 20
4.377952755905512
 30
0.0
 11
2.898622047244094
 21
4.395669291338582
 31
0.0
  0
LINE
  5
3FD1
330
1E
100
AcDbEntity
  8
7
100
AcDbLine
 10
2.898622047244094
 20
4.395669291338582
 30
0.0
 11
2.878937007874015
 21
4.407480314960629
 31
0.0
  0
LINE
  5
3FD2
330
1E
100
AcDbEntity
  8
7
100
AcDbLine
 10
2.878937007874015
 20
4.407480314960629
 30
0.0
 11
2.856299212598425
 21
4.411417322834645
 31
0.0
  0
LINE
  5
3FD3
330
1E
100
AcDbEntity
  8
7
100
AcDbLine
 10
2.921259842519685
 20
4.333661417322834
 30
0.0
 11
2.921259842519685
 21
4.357283464566928
 31
0.0
  0
LINE
  5
3FD4
330
1E
100
AcDbEntity
  8
7
100
AcDbLine
 10
2.921259842519685
 20
4.357283464566928
 30
0.0
 11
2.913385826771653
 21
4.377952755905512
 31
0.0
  0
LINE
  5
3FD5
330
1E
100
AcDbEntity
  8
7
100
AcDbLine
 10
2.192913385826771
 20
4.411417322834645
 30
0.0
 11
2.170275590551181
 21
4.407480314960629
 31
0.0
  0
LINE
  5
3FD6
330
1E
100
AcDbEntity
  8
7
100
AcDbLine
 10
2.170275590551181
 20
4.407480314960629
 30
0.0
 11
2.150590551181102
 21
4.395669291338582
 31
0.0
  0
LINE
  5
3FD7
330
1E
100
AcDbEntity
  8
7
100
AcDbLine
 10
2.150590551181102
 20
4.395669291338582
 30
0.0
 11
2.135826771653543
 21
4.378937007874015
 31
0.0
  0
LINE
  5
3FD8
330
1E
100
AcDbEntity
  8
7
100
AcDbLine
 10
2.135826771653543
 20
4.378937007874015
 30
0.0
 11
2.127952755905511
 21
4.357283464566928
 31
0.0
  0
LINE
  5
3FD9
330
1E
100
AcDbEntity
  8
7
100
AcDbLine
 10
2.127952755905511
 20
4.357283464566928
 30
0.0
 11
2.127952755905511
 21
4.333661417322834
 31
0.0
  0
LINE
  5
3FDA
330
1E
100
AcDbEntity
  8
7
100
AcDbLine
 10
2.106299212598425
 20
4.253937007874015
 30
0.0
 11
2.123031496062992
 21
4.258858267716535
 31
0.0
  0
LINE
  5
3FDB
330
1E
100
AcDbEntity
  8
7
100
AcDbLine
 10
2.123031496062992
 20
4.258858267716535
 30
0.0
 11
2.133858267716535
 21
4.27263779527559
 31
0.0
  0
LINE
  5
3FDC
330
1E
100
AcDbEntity
  8
7
100
AcDbLine
 10
2.133858267716535
 20
4.27263779527559
 30
0.0
 11
2.135826771653543
 21
4.289370078740157
 31
0.0
  0
LINE
  5
3FDD
330
1E
100
AcDbEntity
  8
7
100
AcDbLine
 10
1.975393700787401
 20
4.279527559055117
 30
0.0
 11
1.982283464566929
 21
4.283464566929133
 31
0.0
  0
LINE
  5
3FDE
330
1E
100
AcDbEntity
  8
7
100
AcDbLine
 10
1.982283464566929
 20
4.283464566929133
 30
0.0
 11
2.083661417322834
 21
4.283464566929133
 31
0.0
  0
LINE
  5
3FDF
330
1E
100
AcDbEntity
  8
7
100
AcDbLine
 10
2.083661417322834
 20
4.283464566929133
 30
0.0
 11
2.090551181102362
 21
4.279527559055117
 31
0.0
  0
LINE
  5
3FE0
330
1E
100
AcDbEntity
  8
7
100
AcDbLine
 10
2.090551181102362
 20
4.279527559055117
 30
0.0
 11
2.104330708661417
 21
4.253937007874015
 31
0.0
  0
LINE
  5
3FE1
330
1E
100
AcDbEntity
  8
7
100
AcDbLine
 10
2.104330708661417
 20
4.121062992125984
 30
0.0
 11
2.090551181102362
 21
4.096456692913386
 31
0.0
  0
LINE
  5
3FE2
330
1E
100
AcDbEntity
  8
7
100
AcDbLine
 10
2.090551181102362
 20
4.096456692913386
 30
0.0
 11
2.083661417322834
 21
4.09251968503937
 31
0.0
  0
LINE
  5
3FE3
330
1E
100
AcDbEntity
  8
7
100
AcDbLine
 10
2.083661417322834
 20
4.09251968503937
 30
0.0
 11
1.982283464566929
 21
4.09251968503937
 31
0.0
  0
LINE
  5
3FE4
330
1E
100
AcDbEntity
  8
7
100
AcDbLine
 10
1.982283464566929
 20
4.09251968503937
 30
0.0
 11
1.975393700787401
 21
4.096456692913386
 31
0.0
  0
LINE
  5
3FE5
330
1E
100
AcDbEntity
  8
7
100
AcDbLine
 10
1.975393700787401
 20
4.096456692913386
 30
0.0
 11
1.924212598425196
 21
4.184055118110236
 31
0.0
  0
LINE
  5
3FE6
330
1E
100
AcDbEntity
  8
7
100
AcDbLine
 10
1.924212598425196
 20
4.184055118110236
 30
0.0
 11
1.924212598425196
 21
4.191929133858267
 31
0.0
  0
LINE
  5
3FE7
330
1E
100
AcDbEntity
  8
7
100
AcDbLine
 10
1.924212598425196
 20
4.191929133858267
 30
0.0
 11
1.975393700787401
 21
4.279527559055117
 31
0.0
  0
LINE
  5
3FE8
330
1E
100
AcDbEntity
  8
7
100
AcDbLine
 10
2.169291338582677
 20
4.099409448818897
 30
0.0
 11
2.159448818897637
 21
4.11515748031496
 31
0.0
  0
LINE
  5
3FE9
330
1E
100
AcDbEntity
  8
7
100
AcDbLine
 10
2.159448818897637
 20
4.11515748031496
 30
0.0
 11
2.14271653543307
 21
4.121062992125984
 31
0.0
  0
LINE
  5
3FEA
330
1E
100
AcDbEntity
  8
7
100
AcDbLine
 10
2.184055118110236
 20
4.018700787401574
 30
0.0
 11
2.191929133858267
 21
3.998031496062992
 31
0.0
  0
LINE
  5
3FEB
330
1E
100
AcDbEntity
  8
7
100
AcDbLine
 10
2.191929133858267
 20
3.998031496062992
 30
0.0
 11
2.206692913385826
 21
3.980314960629921
 31
0.0
  0
LINE
  5
3FEC
330
1E
100
AcDbEntity
  8
7
100
AcDbLine
 10
2.206692913385826
 20
3.980314960629921
 30
0.0
 11
2.226377952755905
 21
3.968503937007874
 31
0.0
  0
LINE
  5
3FED
330
1E
100
AcDbEntity
  8
7
100
AcDbLine
 10
2.226377952755905
 20
3.968503937007874
 30
0.0
 11
2.249015748031495
 21
3.964566929133858
 31
0.0
  0
LINE
  5
3FEE
330
1E
100
AcDbEntity
  8
7
100
AcDbLine
 10
2.8001968503937
 20
3.964566929133858
 30
0.0
 11
2.822834645669291
 21
3.968503937007874
 31
0.0
  0
LINE
  5
3FEF
330
1E
100
AcDbEntity
  8
7
100
AcDbLine
 10
2.822834645669291
 20
3.968503937007874
 30
0.0
 11
2.84251968503937
 21
3.980314960629921
 31
0.0
  0
LINE
  5
3FF0
330
1E
100
AcDbEntity
  8
7
100
AcDbLine
 10
2.84251968503937
 20
3.980314960629921
 30
0.0
 11
2.857283464566929
 21
3.997047244094487
 31
0.0
  0
LINE
  5
3FF1
330
1E
100
AcDbEntity
  8
7
100
AcDbLine
 10
2.857283464566929
 20
3.997047244094487
 30
0.0
 11
2.86515748031496
 21
4.018700787401574
 31
0.0
  0
LINE
  5
3FF2
330
1E
100
AcDbEntity
  8
7
100
AcDbLine
 10
2.906496062992125
 20
4.121062992125984
 30
0.0
 11
2.889763779527558
 21
4.11515748031496
 31
0.0
  0
LINE
  5
3FF3
330
1E
100
AcDbEntity
  8
7
100
AcDbLine
 10
2.889763779527558
 20
4.11515748031496
 30
0.0
 11
2.879921259842519
 21
4.099409448818897
 31
0.0
  0
LINE
  5
3FF4
330
1E
100
AcDbEntity
  8
7
100
AcDbLine
 10
2.944881889763779
 20
4.253937007874015
 30
0.0
 11
2.958661417322834
 21
4.279527559055117
 31
0.0
  0
LINE
  5
3FF5
330
1E
100
AcDbEntity
  8
7
100
AcDbLine
 10
2.958661417322834
 20
4.279527559055117
 30
0.0
 11
2.965551181102362
 21
4.283464566929133
 31
0.0
  0
LINE
  5
3FF6
330
1E
100
AcDbEntity
  8
7
100
AcDbLine
 10
2.965551181102362
 20
4.283464566929133
 30
0.0
 11
3.066929133858267
 21
4.283464566929133
 31
0.0
  0
LINE
  5
3FF7
330
1E
100
AcDbEntity
  8
7
100
AcDbLine
 10
3.066929133858267
 20
4.283464566929133
 30
0.0
 11
3.073818897637795
 21
4.279527559055117
 31
0.0
  0
LINE
  5
3FF8
330
1E
100
AcDbEntity
  8
7
100
AcDbLine
 10
3.073818897637795
 20
4.279527559055117
 30
0.0
 11
3.125
 21
4.191929133858267
 31
0.0
  0
LINE
  5
3FF9
330
1E
100
AcDbEntity
  8
7
100
AcDbLine
 10
3.125
 20
4.191929133858267
 30
0.0
 11
3.125
 21
4.184055118110236
 31
0.0
  0
LINE
  5
3FFA
330
1E
100
AcDbEntity
  8
7
100
AcDbLine
 10
3.125
 20
4.184055118110236
 30
0.0
 11
3.073818897637795
 21
4.096456692913386
 31
0.0
  0
LINE
  5
3FFB
330
1E
100
AcDbEntity
  8
7
100
AcDbLine
 10
3.073818897637795
 20
4.096456692913386
 30
0.0
 11
3.066929133858267
 21
4.09251968503937
 31
0.0
  0
LINE
  5
3FFC
330
1E
100
AcDbEntity
  8
7
100
AcDbLine
 10
3.066929133858267
 20
4.09251968503937
 30
0.0
 11
2.965551181102362
 21
4.09251968503937
 31
0.0
  0
LINE
  5
3FFD
330
1E
100
AcDbEntity
  8
7
100
AcDbLine
 10
2.965551181102362
 20
4.09251968503937
 30
0.0
 11
2.958661417322834
 21
4.096456692913386
 31
0.0
  0
LINE
  5
3FFE
330
1E
100
AcDbEntity
  8
7
100
AcDbLine
 10
2.958661417322834
 20
4.096456692913386
 30
0.0
 11
2.944881889763779
 21
4.121062992125984
 31
0.0
  0
LINE
  5
3FFF
330
1E
100
AcDbEntity
  8
7
100
AcDbLine
 10
2.913385826771653
 20
4.289370078740157
 30
0.0
 11
2.915354330708661
 21
4.27263779527559
 31
0.0
  0
LINE
  5
4000
330
1E
100
AcDbEntity
  8
7
100
AcDbLine
 10
2.915354330708661
 20
4.27263779527559
 30
0.0
 11
2.926181102362204
 21
4.258858267716535
 31
0.0
  0
LINE
  5
4001
330
1E
100
AcDbEntity
  8
7
100
AcDbLine
 10
2.926181102362204
 20
4.258858267716535
 30
0.0
 11
2.942913385826771
 21
4.253937007874015
 31
0.0
  0
LINE
  5
4002
330
1E
100
AcDbEntity
  8
7
100
AcDbLine
 10
1.742125984251968
 20
4.38779527559055
 30
0.0
 11
1.748031496062992
 21
4.38779527559055
 31
0.0
  0
LINE
  5
4003
330
1E
100
AcDbEntity
  8
7
100
AcDbLine
 10
1.748031496062992
 20
4.38779527559055
 30
0.0
 11
1.748031496062992
 21
3.988188976377952
 31
0.0
  0
LINE
  5
4004
330
1E
100
AcDbEntity
  8
7
100
AcDbLine
 10
1.748031496062992
 20
3.988188976377952
 30
0.0
 11
1.742125984251968
 21
3.988188976377952
 31
0.0
  0
LINE
  5
4005
330
1E
100
AcDbEntity
  8
7
100
AcDbLine
 10
2.053149606299212
 20
5.347440944881889
 30
0.0
 11
2.03248031496063
 21
5.347440944881889
 31
0.0
  0
LINE
  5
4006
330
1E
100
AcDbEntity
  8
7
100
AcDbLine
 10
2.03248031496063
 20
5.347440944881889
 30
0.0
 11
2.011811023622047
 21
5.347440944881889
 31
0.0
  0
LINE
  5
4007
330
1E
100
AcDbEntity
  8
7
100
AcDbLine
 10
2.053149606299212
 20
5.308070866141732
 30
0.0
 11
2.08267716535433
 21
5.308070866141732
 31
0.0
  0
LINE
  5
4008
330
1E
100
AcDbEntity
  8
7
100
AcDbLine
 10
2.08267716535433
 20
5.308070866141732
 30
0.0
 11
2.105314960629921
 21
5.308070866141732
 31
0.0
  0
LINE
  5
4009
330
1E
100
AcDbEntity
  8
7
100
AcDbLine
 10
2.105314960629921
 20
5.308070866141732
 30
0.0
 11
2.121062992125984
 21
5.308070866141732
 31
0.0
  0
LINE
  5
400A
330
1E
100
AcDbEntity
  8
7
100
AcDbLine
 10
2.121062992125984
 20
5.308070866141732
 30
0.0
 11
2.125984251968503
 21
5.308070866141732
 31
0.0
  0
LINE
  5
400B
330
1E
100
AcDbEntity
  8
7
100
AcDbLine
 10
1.938976377952755
 20
5.308070866141732
 30
0.0
 11
1.943897637795275
 21
5.308070866141732
 31
0.0
  0
LINE
  5
400C
330
1E
100
AcDbEntity
  8
7
100
AcDbLine
 10
1.943897637795275
 20
5.308070866141732
 30
0.0
 11
1.959645669291338
 21
5.308070866141732
 31
0.0
  0
LINE
  5
400D
330
1E
100
AcDbEntity
  8
7
100
AcDbLine
 10
1.959645669291338
 20
5.308070866141732
 30
0.0
 11
1.982283464566929
 21
5.308070866141732
 31
0.0
  0
LINE
  5
400E
330
1E
100
AcDbEntity
  8
7
100
AcDbLine
 10
1.982283464566929
 20
5.308070866141732
 30
0.0
 11
2.011811023622047
 21
5.308070866141732
 31
0.0
  0
LINE
  5
400F
330
1E
100
AcDbEntity
  8
7
100
AcDbLine
 10
3.037401574803149
 20
5.347440944881889
 30
0.0
 11
3.016732283464566
 21
5.347440944881889
 31
0.0
  0
LINE
  5
4010
330
1E
100
AcDbEntity
  8
7
100
AcDbLine
 10
3.016732283464566
 20
5.347440944881889
 30
0.0
 11
2.996062992125984
 21
5.347440944881889
 31
0.0
  0
LINE
  5
4011
330
1E
100
AcDbEntity
  8
7
100
AcDbLine
 10
3.037401574803149
 20
5.308070866141732
 30
0.0
 11
3.066929133858267
 21
5.308070866141732
 31
0.0
  0
LINE
  5
4012
330
1E
100
AcDbEntity
  8
7
100
AcDbLine
 10
3.066929133858267
 20
5.308070866141732
 30
0.0
 11
3.089566929133858
 21
5.308070866141732
 31
0.0
  0
LINE
  5
4013
330
1E
100
AcDbEntity
  8
7
100
AcDbLine
 10
3.089566929133858
 20
5.308070866141732
 30
0.0
 11
3.105314960629921
 21
5.308070866141732
 31
0.0
  0
LINE
  5
4014
330
1E
100
AcDbEntity
  8
7
100
AcDbLine
 10
3.105314960629921
 20
5.308070866141732
 30
0.0
 11
3.11023622047244
 21
5.308070866141732
 31
0.0
  0
LINE
  5
4015
330
1E
100
AcDbEntity
  8
7
100
AcDbLine
 10
2.923228346456692
 20
5.308070866141732
 30
0.0
 11
2.928149606299212
 21
5.308070866141732
 31
0.0
  0
LINE
  5
4016
330
1E
100
AcDbEntity
  8
7
100
AcDbLine
 10
2.928149606299212
 20
5.308070866141732
 30
0.0
 11
2.943897637795275
 21
5.308070866141732
 31
0.0
  0
LINE
  5
4017
330
1E
100
AcDbEntity
  8
7
100
AcDbLine
 10
2.943897637795275
 20
5.308070866141732
 30
0.0
 11
2.966535433070866
 21
5.308070866141732
 31
0.0
  0
LINE
  5
4018
330
1E
100
AcDbEntity
  8
7
100
AcDbLine
 10
2.966535433070866
 20
5.308070866141732
 30
0.0
 11
2.996062992125984
 21
5.308070866141732
 31
0.0
  0
LINE
  5
4019
330
1E
100
AcDbEntity
  8
7
100
AcDbLine
 10
2.747047244094487
 20
6.654527559055117
 30
0.0
 11
2.747047244094487
 21
6.653543307086613
 31
0.0
  0
LINE
  5
401A
330
1E
100
AcDbEntity
  8
7
100
AcDbLine
 10
2.747047244094487
 20
6.653543307086613
 30
0.0
 11
2.747047244094487
 21
6.650590551181101
 31
0.0
  0
LINE
  5
401B
330
1E
100
AcDbEntity
  8
7
100
AcDbLine
 10
2.747047244094487
 20
6.650590551181101
 30
0.0
 11
2.747047244094487
 21
6.64763779527559
 31
0.0
  0
LINE
  5
401C
330
1E
100
AcDbEntity
  8
7
100
AcDbLine
 10
2.747047244094487
 20
6.64763779527559
 30
0.0
 11
2.747047244094487
 21
6.644685039370078
 31
0.0
  0
LINE
  5
401D
330
1E
100
AcDbEntity
  8
7
100
AcDbLine
 10
2.747047244094487
 20
6.565944881889763
 30
0.0
 11
2.751968503937007
 21
6.565944881889763
 31
0.0
  0
LINE
  5
401E
330
1E
100
AcDbEntity
  8
7
100
AcDbLine
 10
2.751968503937007
 20
6.565944881889763
 30
0.0
 11
2.756889763779527
 21
6.565944881889763
 31
0.0
  0
LINE
  5
401F
330
1E
100
AcDbEntity
  8
7
100
AcDbLine
 10
2.756889763779527
 20
6.654527559055117
 30
0.0
 11
2.751968503937007
 21
6.654527559055117
 31
0.0
  0
LINE
  5
4020
330
1E
100
AcDbEntity
  8
7
100
AcDbLine
 10
2.751968503937007
 20
6.654527559055117
 30
0.0
 11
2.747047244094487
 21
6.654527559055117
 31
0.0
  0
LINE
  5
4021
330
1E
100
AcDbEntity
  8
7
100
AcDbLine
 10
2.747047244094487
 20
6.654527559055117
 30
0.0
 11
2.727362204724409
 21
6.646653543307086
 31
0.0
  0
LINE
  5
4022
330
1E
100
AcDbEntity
  8
7
100
AcDbLine
 10
2.727362204724409
 20
6.646653543307086
 30
0.0
 11
2.71259842519685
 21
6.630905511811023
 31
0.0
  0
LINE
  5
4023
330
1E
100
AcDbEntity
  8
7
100
AcDbLine
 10
2.71259842519685
 20
6.630905511811023
 30
0.0
 11
2.70767716535433
 21
6.61023622047244
 31
0.0
  0
LINE
  5
4024
330
1E
100
AcDbEntity
  8
7
100
AcDbLine
 10
2.70767716535433
 20
6.61023622047244
 30
0.0
 11
2.71259842519685
 21
6.589566929133858
 31
0.0
  0
LINE
  5
4025
330
1E
100
AcDbEntity
  8
7
100
AcDbLine
 10
2.71259842519685
 20
6.589566929133858
 30
0.0
 11
2.727362204724409
 21
6.573818897637795
 31
0.0
  0
LINE
  5
4026
330
1E
100
AcDbEntity
  8
7
100
AcDbLine
 10
2.727362204724409
 20
6.573818897637795
 30
0.0
 11
2.747047244094487
 21
6.565944881889763
 31
0.0
  0
LINE
  5
4027
330
1E
100
AcDbEntity
  8
7
100
AcDbLine
 10
2.747047244094487
 20
6.644685039370078
 30
0.0
 11
2.729330708661417
 21
6.635826771653543
 31
0.0
  0
LINE
  5
4028
330
1E
100
AcDbEntity
  8
7
100
AcDbLine
 10
2.729330708661417
 20
6.635826771653543
 30
0.0
 11
2.718503937007874
 21
6.62007874015748
 31
0.0
  0
LINE
  5
4029
330
1E
100
AcDbEntity
  8
7
100
AcDbLine
 10
2.718503937007874
 20
6.62007874015748
 30
0.0
 11
2.718503937007874
 21
6.600393700787401
 31
0.0
  0
LINE
  5
402A
330
1E
100
AcDbEntity
  8
7
100
AcDbLine
 10
2.718503937007874
 20
6.600393700787401
 30
0.0
 11
2.729330708661417
 21
6.584645669291338
 31
0.0
  0
LINE
  5
402B
330
1E
100
AcDbEntity
  8
7
100
AcDbLine
 10
2.729330708661417
 20
6.584645669291338
 30
0.0
 11
2.747047244094487
 21
6.575787401574802
 31
0.0
  0
LINE
  5
402C
330
1E
100
AcDbEntity
  8
7
100
AcDbLine
 10
2.756889763779527
 20
6.565944881889763
 30
0.0
 11
2.776574803149606
 21
6.573818897637795
 31
0.0
  0
LINE
  5
402D
330
1E
100
AcDbEntity
  8
7
100
AcDbLine
 10
2.776574803149606
 20
6.573818897637795
 30
0.0
 11
2.791338582677165
 21
6.589566929133858
 31
0.0
  0
LINE
  5
402E
330
1E
100
AcDbEntity
  8
7
100
AcDbLine
 10
2.791338582677165
 20
6.589566929133858
 30
0.0
 11
2.796259842519685
 21
6.61023622047244
 31
0.0
  0
LINE
  5
402F
330
1E
100
AcDbEntity
  8
7
100
AcDbLine
 10
2.796259842519685
 20
6.61023622047244
 30
0.0
 11
2.791338582677165
 21
6.630905511811023
 31
0.0
  0
LINE
  5
4030
330
1E
100
AcDbEntity
  8
7
100
AcDbLine
 10
2.791338582677165
 20
6.630905511811023
 30
0.0
 11
2.776574803149606
 21
6.646653543307086
 31
0.0
  0
LINE
  5
4031
330
1E
100
AcDbEntity
  8
7
100
AcDbLine
 10
2.756889763779527
 20
6.644685039370078
 30
0.0
 11
2.756889763779527
 21
6.645669291338582
 31
0.0
  0
LINE
  5
4032
330
1E
100
AcDbEntity
  8
7
100
AcDbLine
 10
2.756889763779527
 20
6.645669291338582
 30
0.0
 11
2.756889763779527
 21
6.648622047244094
 31
0.0
  0
LINE
  5
4033
330
1E
100
AcDbEntity
  8
7
100
AcDbLine
 10
2.756889763779527
 20
6.648622047244094
 30
0.0
 11
2.756889763779527
 21
6.651574803149606
 31
0.0
  0
LINE
  5
4034
330
1E
100
AcDbEntity
  8
7
100
AcDbLine
 10
2.756889763779527
 20
6.651574803149606
 30
0.0
 11
2.756889763779527
 21
6.653543307086613
 31
0.0
  0
LINE
  5
4035
330
1E
100
AcDbEntity
  8
7
100
AcDbLine
 10
2.756889763779527
 20
6.653543307086613
 30
0.0
 11
2.756889763779527
 21
6.654527559055117
 31
0.0
  0
LINE
  5
4036
330
1E
100
AcDbEntity
  8
7
100
AcDbLine
 10
2.756889763779527
 20
6.644685039370078
 30
0.0
 11
2.756889763779527
 21
6.61515748031496
 31
0.0
  0
LINE
  5
4037
330
1E
100
AcDbEntity
  8
7
100
AcDbLine
 10
2.756889763779527
 20
6.61515748031496
 30
0.0
 11
2.776574803149606
 21
6.61515748031496
 31
0.0
  0
LINE
  5
4038
330
1E
100
AcDbEntity
  8
7
100
AcDbLine
 10
2.776574803149606
 20
6.61515748031496
 30
0.0
 11
2.776574803149606
 21
6.605314960629921
 31
0.0
  0
LINE
  5
4039
330
1E
100
AcDbEntity
  8
7
100
AcDbLine
 10
2.756889763779527
 20
6.575787401574802
 30
0.0
 11
2.774606299212598
 21
6.584645669291338
 31
0.0
  0
LINE
  5
403A
330
1E
100
AcDbEntity
  8
7
100
AcDbLine
 10
2.774606299212598
 20
6.584645669291338
 30
0.0
 11
2.785433070866141
 21
6.600393700787401
 31
0.0
  0
LINE
  5
403B
330
1E
100
AcDbEntity
  8
7
100
AcDbLine
 10
2.785433070866141
 20
6.600393700787401
 30
0.0
 11
2.785433070866141
 21
6.62007874015748
 31
0.0
  0
LINE
  5
403C
330
1E
100
AcDbEntity
  8
7
100
AcDbLine
 10
2.785433070866141
 20
6.62007874015748
 30
0.0
 11
2.774606299212598
 21
6.635826771653543
 31
0.0
  0
LINE
  5
403D
330
1E
100
AcDbEntity
  8
7
100
AcDbLine
 10
2.774606299212598
 20
6.635826771653543
 30
0.0
 11
2.756889763779527
 21
6.644685039370078
 31
0.0
  0
LINE
  5
403E
330
1E
100
AcDbEntity
  8
7
100
AcDbLine
 10
2.747047244094487
 20
6.572834645669291
 30
0.0
 11
2.747047244094487
 21
6.569881889763779
 31
0.0
  0
LINE
  5
403F
330
1E
100
AcDbEntity
  8
7
100
AcDbLine
 10
2.747047244094487
 20
6.569881889763779
 30
0.0
 11
2.747047244094487
 21
6.566929133858267
 31
0.0
  0
LINE
  5
4040
330
1E
100
AcDbEntity
  8
7
100
AcDbLine
 10
2.747047244094487
 20
6.566929133858267
 30
0.0
 11
2.747047244094487
 21
6.565944881889763
 31
0.0
  0
LINE
  5
4041
330
1E
100
AcDbEntity
  8
7
100
AcDbLine
 10
2.747047244094487
 20
6.605314960629921
 30
0.0
 11
2.747047244094487
 21
6.575787401574802
 31
0.0
  0
LINE
  5
4042
330
1E
100
AcDbEntity
  8
7
100
AcDbLine
 10
2.747047244094487
 20
6.575787401574802
 30
0.0
 11
2.747047244094487
 21
6.572834645669291
 31
0.0
  0
LINE
  5
4043
330
1E
100
AcDbEntity
  8
7
100
AcDbLine
 10
2.756889763779527
 20
6.565944881889763
 30
0.0
 11
2.756889763779527
 21
6.567913385826771
 31
0.0
  0
LINE
  5
4044
330
1E
100
AcDbEntity
  8
7
100
AcDbLine
 10
2.756889763779527
 20
6.567913385826771
 30
0.0
 11
2.756889763779527
 21
6.570866141732283
 31
0.0
  0
LINE
  5
4045
330
1E
100
AcDbEntity
  8
7
100
AcDbLine
 10
2.756889763779527
 20
6.570866141732283
 30
0.0
 11
2.756889763779527
 21
6.573818897637795
 31
0.0
  0
LINE
  5
4046
330
1E
100
AcDbEntity
  8
7
100
AcDbLine
 10
2.756889763779527
 20
6.573818897637795
 30
0.0
 11
2.756889763779527
 21
6.575787401574802
 31
0.0
  0
LINE
  5
4047
330
1E
100
AcDbEntity
  8
7
100
AcDbLine
 10
2.375984251968503
 20
6.455708661417323
 30
0.0
 11
2.358267716535432
 21
6.443897637795275
 31
0.0
  0
LINE
  5
4048
330
1E
100
AcDbEntity
  8
7
100
AcDbLine
 10
2.358267716535432
 20
6.443897637795275
 30
0.0
 11
2.346456692913385
 21
6.426181102362204
 31
0.0
  0
LINE
  5
4049
330
1E
100
AcDbEntity
  8
7
100
AcDbLine
 10
2.346456692913385
 20
6.426181102362204
 30
0.0
 11
2.342519685039369
 21
6.405511811023622
 31
0.0
  0
LINE
  5
404A
330
1E
100
AcDbEntity
  8
7
100
AcDbLine
 10
2.342519685039369
 20
6.405511811023622
 30
0.0
 11
2.346456692913385
 21
6.384842519685038
 31
0.0
  0
LINE
  5
404B
330
1E
100
AcDbEntity
  8
7
100
AcDbLine
 10
2.346456692913385
 20
6.384842519685038
 30
0.0
 11
2.358267716535432
 21
6.367125984251968
 31
0.0
  0
LINE
  5
404C
330
1E
100
AcDbEntity
  8
7
100
AcDbLine
 10
2.358267716535432
 20
6.367125984251968
 30
0.0
 11
2.375984251968503
 21
6.355314960629921
 31
0.0
  0
LINE
  5
404D
330
1E
100
AcDbEntity
  8
7
100
AcDbLine
 10
2.375984251968503
 20
6.355314960629921
 30
0.0
 11
2.396653543307086
 21
6.351377952755905
 31
0.0
  0
LINE
  5
404E
330
1E
100
AcDbEntity
  8
7
100
AcDbLine
 10
2.396653543307086
 20
6.351377952755905
 30
0.0
 11
2.417322834645669
 21
6.355314960629921
 31
0.0
  0
LINE
  5
404F
330
1E
100
AcDbEntity
  8
7
100
AcDbLine
 10
2.417322834645669
 20
6.355314960629921
 30
0.0
 11
2.43503937007874
 21
6.367125984251968
 31
0.0
  0
LINE
  5
4050
330
1E
100
AcDbEntity
  8
7
100
AcDbLine
 10
2.43503937007874
 20
6.367125984251968
 30
0.0
 11
2.446850393700787
 21
6.384842519685038
 31
0.0
  0
LINE
  5
4051
330
1E
100
AcDbEntity
  8
7
100
AcDbLine
 10
2.446850393700787
 20
6.384842519685038
 30
0.0
 11
2.450787401574803
 21
6.405511811023622
 31
0.0
  0
LINE
  5
4052
330
1E
100
AcDbEntity
  8
7
100
AcDbLine
 10
2.450787401574803
 20
6.405511811023622
 30
0.0
 11
2.446850393700787
 21
6.426181102362204
 31
0.0
  0
LINE
  5
4053
330
1E
100
AcDbEntity
  8
7
100
AcDbLine
 10
2.446850393700787
 20
6.426181102362204
 30
0.0
 11
2.43503937007874
 21
6.443897637795275
 31
0.0
  0
LINE
  5
4054
330
1E
100
AcDbEntity
  8
7
100
AcDbLine
 10
2.43503937007874
 20
6.443897637795275
 30
0.0
 11
2.417322834645669
 21
6.455708661417323
 31
0.0
  0
LINE
  5
4055
330
1E
100
AcDbEntity
  8
7
100
AcDbLine
 10
2.417322834645669
 20
6.455708661417323
 30
0.0
 11
2.396653543307086
 21
6.459645669291338
 31
0.0
  0
LINE
  5
4056
330
1E
100
AcDbEntity
  8
7
100
AcDbLine
 10
2.396653543307086
 20
6.459645669291338
 30
0.0
 11
2.375984251968503
 21
6.455708661417323
 31
0.0
  0
LINE
  5
4057
330
1E
100
AcDbEntity
  8
7
100
AcDbLine
 10
2.375984251968503
 20
6.204724409448818
 30
0.0
 11
2.396653543307086
 21
6.200787401574802
 31
0.0
  0
LINE
  5
4058
330
1E
100
AcDbEntity
  8
7
100
AcDbLine
 10
2.396653543307086
 20
6.200787401574802
 30
0.0
 11
2.417322834645669
 21
6.204724409448818
 31
0.0
  0
LINE
  5
4059
330
1E
100
AcDbEntity
  8
7
100
AcDbLine
 10
2.417322834645669
 20
6.204724409448818
 30
0.0
 11
2.43503937007874
 21
6.216535433070865
 31
0.0
  0
LINE
  5
405A
330
1E
100
AcDbEntity
  8
7
100
AcDbLine
 10
2.43503937007874
 20
6.216535433070865
 30
0.0
 11
2.446850393700787
 21
6.234251968503937
 31
0.0
  0
LINE
  5
405B
330
1E
100
AcDbEntity
  8
7
100
AcDbLine
 10
2.446850393700787
 20
6.234251968503937
 30
0.0
 11
2.450787401574803
 21
6.254921259842519
 31
0.0
  0
LINE
  5
405C
330
1E
100
AcDbEntity
  8
7
100
AcDbLine
 10
2.450787401574803
 20
6.254921259842519
 30
0.0
 11
2.446850393700787
 21
6.275590551181101
 31
0.0
  0
LINE
  5
405D
330
1E
100
AcDbEntity
  8
7
100
AcDbLine
 10
2.446850393700787
 20
6.275590551181101
 30
0.0
 11
2.43503937007874
 21
6.293307086614173
 31
0.0
  0
LINE
  5
405E
330
1E
100
AcDbEntity
  8
7
100
AcDbLine
 10
2.43503937007874
 20
6.293307086614173
 30
0.0
 11
2.417322834645669
 21
6.30511811023622
 31
0.0
  0
LINE
  5
405F
330
1E
100
AcDbEntity
  8
7
100
AcDbLine
 10
2.417322834645669
 20
6.30511811023622
 30
0.0
 11
2.396653543307086
 21
6.309055118110236
 31
0.0
  0
LINE
  5
4060
330
1E
100
AcDbEntity
  8
7
100
AcDbLine
 10
2.396653543307086
 20
6.309055118110236
 30
0.0
 11
2.375984251968503
 21
6.30511811023622
 31
0.0
  0
LINE
  5
4061
330
1E
100
AcDbEntity
  8
7
100
AcDbLine
 10
2.375984251968503
 20
6.30511811023622
 30
0.0
 11
2.358267716535432
 21
6.293307086614173
 31
0.0
  0
LINE
  5
4062
330
1E
100
AcDbEntity
  8
7
100
AcDbLine
 10
2.358267716535432
 20
6.293307086614173
 30
0.0
 11
2.346456692913385
 21
6.275590551181101
 31
0.0
  0
LINE
  5
4063
330
1E
100
AcDbEntity
  8
7
100
AcDbLine
 10
2.346456692913385
 20
6.275590551181101
 30
0.0
 11
2.342519685039369
 21
6.254921259842519
 31
0.0
  0
LINE
  5
4064
330
1E
100
AcDbEntity
  8
7
100
AcDbLine
 10
2.342519685039369
 20
6.254921259842519
 30
0.0
 11
2.346456692913385
 21
6.234251968503937
 31
0.0
  0
LINE
  5
4065
330
1E
100
AcDbEntity
  8
7
100
AcDbLine
 10
2.346456692913385
 20
6.234251968503937
 30
0.0
 11
2.358267716535432
 21
6.216535433070865
 31
0.0
  0
LINE
  5
4066
330
1E
100
AcDbEntity
  8
7
100
AcDbLine
 10
2.358267716535432
 20
6.216535433070865
 30
0.0
 11
2.375984251968503
 21
6.204724409448818
 31
0.0
  0
LINE
  5
4067
330
1E
100
AcDbEntity
  8
7
100
AcDbLine
 10
2.446850393700787
 20
6.125984251968503
 30
0.0
 11
2.43503937007874
 21
6.143700787401574
 31
0.0
  0
LINE
  5
4068
330
1E
100
AcDbEntity
  8
7
100
AcDbLine
 10
2.43503937007874
 20
6.143700787401574
 30
0.0
 11
2.417322834645669
 21
6.155511811023622
 31
0.0
  0
LINE
  5
4069
330
1E
100
AcDbEntity
  8
7
100
AcDbLine
 10
2.417322834645669
 20
6.155511811023622
 30
0.0
 11
2.396653543307086
 21
6.159448818897637
 31
0.0
  0
LINE
  5
406A
330
1E
100
AcDbEntity
  8
7
100
AcDbLine
 10
2.396653543307086
 20
6.159448818897637
 30
0.0
 11
2.375984251968503
 21
6.155511811023622
 31
0.0
  0
LINE
  5
406B
330
1E
100
AcDbEntity
  8
7
100
AcDbLine
 10
2.375984251968503
 20
6.155511811023622
 30
0.0
 11
2.358267716535432
 21
6.143700787401574
 31
0.0
  0
LINE
  5
406C
330
1E
100
AcDbEntity
  8
7
100
AcDbLine
 10
2.358267716535432
 20
6.143700787401574
 30
0.0
 11
2.346456692913385
 21
6.125984251968503
 31
0.0
  0
LINE
  5
406D
330
1E
100
AcDbEntity
  8
7
100
AcDbLine
 10
2.346456692913385
 20
6.125984251968503
 30
0.0
 11
2.342519685039369
 21
6.105314960629921
 31
0.0
  0
LINE
  5
406E
330
1E
100
AcDbEntity
  8
7
100
AcDbLine
 10
2.342519685039369
 20
6.105314960629921
 30
0.0
 11
2.346456692913385
 21
6.084645669291338
 31
0.0
  0
LINE
  5
406F
330
1E
100
AcDbEntity
  8
7
100
AcDbLine
 10
2.346456692913385
 20
6.084645669291338
 30
0.0
 11
2.358267716535432
 21
6.066929133858267
 31
0.0
  0
LINE
  5
4070
330
1E
100
AcDbEntity
  8
7
100
AcDbLine
 10
2.358267716535432
 20
6.066929133858267
 30
0.0
 11
2.375984251968503
 21
6.05511811023622
 31
0.0
  0
LINE
  5
4071
330
1E
100
AcDbEntity
  8
7
100
AcDbLine
 10
2.375984251968503
 20
6.05511811023622
 30
0.0
 11
2.396653543307086
 21
6.051181102362204
 31
0.0
  0
LINE
  5
4072
330
1E
100
AcDbEntity
  8
7
100
AcDbLine
 10
2.396653543307086
 20
6.051181102362204
 30
0.0
 11
2.417322834645669
 21
6.05511811023622
 31
0.0
  0
LINE
  5
4073
330
1E
100
AcDbEntity
  8
7
100
AcDbLine
 10
2.417322834645669
 20
6.05511811023622
 30
0.0
 11
2.43503937007874
 21
6.066929133858267
 31
0.0
  0
LINE
  5
4074
330
1E
100
AcDbEntity
  8
7
100
AcDbLine
 10
2.43503937007874
 20
6.066929133858267
 30
0.0
 11
2.446850393700787
 21
6.084645669291338
 31
0.0
  0
LINE
  5
4075
330
1E
100
AcDbEntity
  8
7
100
AcDbLine
 10
2.446850393700787
 20
6.084645669291338
 30
0.0
 11
2.450787401574803
 21
6.105314960629921
 31
0.0
  0
LINE
  5
4076
330
1E
100
AcDbEntity
  8
7
100
AcDbLine
 10
2.450787401574803
 20
6.105314960629921
 30
0.0
 11
2.446850393700787
 21
6.125984251968503
 31
0.0
  0
LINE
  5
4077
330
1E
100
AcDbEntity
  8
7
100
AcDbLine
 10
2.241141732283464
 20
6.480314960629921
 30
0.0
 11
2.241141732283464
 21
6.030511811023622
 31
0.0
  0
LINE
  5
4078
330
1E
100
AcDbEntity
  8
7
100
AcDbLine
 10
2.241141732283464
 20
6.030511811023622
 30
0.0
 11
2.271653543307086
 21
6.030511811023622
 31
0.0
  0
LINE
  5
4079
330
1E
100
AcDbEntity
  8
7
100
AcDbLine
 10
2.896653543307086
 20
6.654527559055117
 30
0.0
 11
2.896653543307086
 21
6.653543307086613
 31
0.0
  0
LINE
  5
407A
330
1E
100
AcDbEntity
  8
7
100
AcDbLine
 10
2.896653543307086
 20
6.653543307086613
 30
0.0
 11
2.896653543307086
 21
6.650590551181101
 31
0.0
  0
LINE
  5
407B
330
1E
100
AcDbEntity
  8
7
100
AcDbLine
 10
2.896653543307086
 20
6.650590551181101
 30
0.0
 11
2.896653543307086
 21
6.64763779527559
 31
0.0
  0
LINE
  5
407C
330
1E
100
AcDbEntity
  8
7
100
AcDbLine
 10
2.896653543307086
 20
6.64763779527559
 30
0.0
 11
2.896653543307086
 21
6.644685039370078
 31
0.0
  0
LINE
  5
407D
330
1E
100
AcDbEntity
  8
7
100
AcDbLine
 10
2.896653543307086
 20
6.565944881889763
 30
0.0
 11
2.901574803149606
 21
6.565944881889763
 31
0.0
  0
LINE
  5
407E
330
1E
100
AcDbEntity
  8
7
100
AcDbLine
 10
2.901574803149606
 20
6.565944881889763
 30
0.0
 11
2.906496062992125
 21
6.565944881889763
 31
0.0
  0
LINE
  5
407F
330
1E
100
AcDbEntity
  8
7
100
AcDbLine
 10
2.906496062992125
 20
6.654527559055117
 30
0.0
 11
2.901574803149606
 21
6.654527559055117
 31
0.0
  0
LINE
  5
4080
330
1E
100
AcDbEntity
  8
7
100
AcDbLine
 10
2.901574803149606
 20
6.654527559055117
 30
0.0
 11
2.896653543307086
 21
6.654527559055117
 31
0.0
  0
LINE
  5
4081
330
1E
100
AcDbEntity
  8
7
100
AcDbLine
 10
2.896653543307086
 20
6.654527559055117
 30
0.0
 11
2.876968503937007
 21
6.646653543307086
 31
0.0
  0
LINE
  5
4082
330
1E
100
AcDbEntity
  8
7
100
AcDbLine
 10
2.876968503937007
 20
6.646653543307086
 30
0.0
 11
2.862204724409448
 21
6.630905511811023
 31
0.0
  0
LINE
  5
4083
330
1E
100
AcDbEntity
  8
7
100
AcDbLine
 10
2.862204724409448
 20
6.630905511811023
 30
0.0
 11
2.857283464566929
 21
6.61023622047244
 31
0.0
  0
LINE
  5
4084
330
1E
100
AcDbEntity
  8
7
100
AcDbLine
 10
2.857283464566929
 20
6.61023622047244
 30
0.0
 11
2.862204724409448
 21
6.589566929133858
 31
0.0
  0
LINE
  5
4085
330
1E
100
AcDbEntity
  8
7
100
AcDbLine
 10
2.862204724409448
 20
6.589566929133858
 30
0.0
 11
2.876968503937007
 21
6.573818897637795
 31
0.0
  0
LINE
  5
4086
330
1E
100
AcDbEntity
  8
7
100
AcDbLine
 10
2.876968503937007
 20
6.573818897637795
 30
0.0
 11
2.896653543307086
 21
6.565944881889763
 31
0.0
  0
LINE
  5
4087
330
1E
100
AcDbEntity
  8
7
100
AcDbLine
 10
2.896653543307086
 20
6.644685039370078
 30
0.0
 11
2.878937007874015
 21
6.635826771653543
 31
0.0
  0
LINE
  5
4088
330
1E
100
AcDbEntity
  8
7
100
AcDbLine
 10
2.878937007874015
 20
6.635826771653543
 30
0.0
 11
2.868110236220472
 21
6.62007874015748
 31
0.0
  0
LINE
  5
4089
330
1E
100
AcDbEntity
  8
7
100
AcDbLine
 10
2.868110236220472
 20
6.62007874015748
 30
0.0
 11
2.868110236220472
 21
6.600393700787401
 31
0.0
  0
LINE
  5
408A
330
1E
100
AcDbEntity
  8
7
100
AcDbLine
 10
2.868110236220472
 20
6.600393700787401
 30
0.0
 11
2.878937007874015
 21
6.584645669291338
 31
0.0
  0
LINE
  5
408B
330
1E
100
AcDbEntity
  8
7
100
AcDbLine
 10
2.878937007874015
 20
6.584645669291338
 30
0.0
 11
2.896653543307086
 21
6.575787401574802
 31
0.0
  0
LINE
  5
408C
330
1E
100
AcDbEntity
  8
7
100
AcDbLine
 10
2.906496062992125
 20
6.565944881889763
 30
0.0
 11
2.926181102362204
 21
6.573818897637795
 31
0.0
  0
LINE
  5
408D
330
1E
100
AcDbEntity
  8
7
100
AcDbLine
 10
2.926181102362204
 20
6.573818897637795
 30
0.0
 11
2.940944881889763
 21
6.589566929133858
 31
0.0
  0
LINE
  5
408E
330
1E
100
AcDbEntity
  8
7
100
AcDbLine
 10
2.940944881889763
 20
6.589566929133858
 30
0.0
 11
2.945866141732283
 21
6.61023622047244
 31
0.0
  0
LINE
  5
408F
330
1E
100
AcDbEntity
  8
7
100
AcDbLine
 10
2.945866141732283
 20
6.61023622047244
 30
0.0
 11
2.940944881889763
 21
6.630905511811023
 31
0.0
  0
LINE
  5
4090
330
1E
100
AcDbEntity
  8
7
100
AcDbLine
 10
2.940944881889763
 20
6.630905511811023
 30
0.0
 11
2.926181102362204
 21
6.646653543307086
 31
0.0
  0
LINE
  5
4091
330
1E
100
AcDbEntity
  8
7
100
AcDbLine
 10
2.906496062992125
 20
6.644685039370078
 30
0.0
 11
2.906496062992125
 21
6.645669291338582
 31
0.0
  0
LINE
  5
4092
330
1E
100
AcDbEntity
  8
7
100
AcDbLine
 10
2.906496062992125
 20
6.645669291338582
 30
0.0
 11
2.906496062992125
 21
6.648622047244094
 31
0.0
  0
LINE
  5
4093
330
1E
100
AcDbEntity
  8
7
100
AcDbLine
 10
2.906496062992125
 20
6.648622047244094
 30
0.0
 11
2.906496062992125
 21
6.651574803149606
 31
0.0
  0
LINE
  5
4094
330
1E
100
AcDbEntity
  8
7
100
AcDbLine
 10
2.906496062992125
 20
6.651574803149606
 30
0.0
 11
2.906496062992125
 21
6.653543307086613
 31
0.0
  0
LINE
  5
4095
330
1E
100
AcDbEntity
  8
7
100
AcDbLine
 10
2.906496062992125
 20
6.653543307086613
 30
0.0
 11
2.906496062992125
 21
6.654527559055117
 31
0.0
  0
LINE
  5
4096
330
1E
100
AcDbEntity
  8
7
100
AcDbLine
 10
2.906496062992125
 20
6.644685039370078
 30
0.0
 11
2.906496062992125
 21
6.61515748031496
 31
0.0
  0
LINE
  5
4097
330
1E
100
AcDbEntity
  8
7
100
AcDbLine
 10
2.906496062992125
 20
6.61515748031496
 30
0.0
 11
2.926181102362204
 21
6.61515748031496
 31
0.0
  0
LINE
  5
4098
330
1E
100
AcDbEntity
  8
7
100
AcDbLine
 10
2.926181102362204
 20
6.61515748031496
 30
0.0
 11
2.926181102362204
 21
6.605314960629921
 31
0.0
  0
LINE
  5
4099
330
1E
100
AcDbEntity
  8
7
100
AcDbLine
 10
2.906496062992125
 20
6.575787401574802
 30
0.0
 11
2.924212598425196
 21
6.584645669291338
 31
0.0
  0
LINE
  5
409A
330
1E
100
AcDbEntity
  8
7
100
AcDbLine
 10
2.924212598425196
 20
6.584645669291338
 30
0.0
 11
2.93503937007874
 21
6.600393700787401
 31
0.0
  0
LINE
  5
409B
330
1E
100
AcDbEntity
  8
7
100
AcDbLine
 10
2.93503937007874
 20
6.600393700787401
 30
0.0
 11
2.93503937007874
 21
6.62007874015748
 31
0.0
  0
LINE
  5
409C
330
1E
100
AcDbEntity
  8
7
100
AcDbLine
 10
2.93503937007874
 20
6.62007874015748
 30
0.0
 11
2.924212598425196
 21
6.635826771653543
 31
0.0
  0
LINE
  5
409D
330
1E
100
AcDbEntity
  8
7
100
AcDbLine
 10
2.924212598425196
 20
6.635826771653543
 30
0.0
 11
2.906496062992125
 21
6.644685039370078
 31
0.0
  0
LINE
  5
409E
330
1E
100
AcDbEntity
  8
7
100
AcDbLine
 10
2.896653543307086
 20
6.575787401574802
 30
0.0
 11
2.896653543307086
 21
6.572834645669291
 31
0.0
  0
LINE
  5
409F
330
1E
100
AcDbEntity
  8
7
100
AcDbLine
 10
2.896653543307086
 20
6.572834645669291
 30
0.0
 11
2.896653543307086
 21
6.569881889763779
 31
0.0
  0
LINE
  5
40A0
330
1E
100
AcDbEntity
  8
7
100
AcDbLine
 10
2.896653543307086
 20
6.569881889763779
 30
0.0
 11
2.896653543307086
 21
6.566929133858267
 31
0.0
  0
LINE
  5
40A1
330
1E
100
AcDbEntity
  8
7
100
AcDbLine
 10
2.896653543307086
 20
6.566929133858267
 30
0.0
 11
2.896653543307086
 21
6.565944881889763
 31
0.0
  0
LINE
  5
40A2
330
1E
100
AcDbEntity
  8
7
100
AcDbLine
 10
2.906496062992125
 20
6.565944881889763
 30
0.0
 11
2.906496062992125
 21
6.567913385826771
 31
0.0
  0
LINE
  5
40A3
330
1E
100
AcDbEntity
  8
7
100
AcDbLine
 10
2.906496062992125
 20
6.567913385826771
 30
0.0
 11
2.906496062992125
 21
6.570866141732283
 31
0.0
  0
LINE
  5
40A4
330
1E
100
AcDbEntity
  8
7
100
AcDbLine
 10
2.906496062992125
 20
6.570866141732283
 30
0.0
 11
2.906496062992125
 21
6.573818897637795
 31
0.0
  0
LINE
  5
40A5
330
1E
100
AcDbEntity
  8
7
100
AcDbLine
 10
2.906496062992125
 20
6.573818897637795
 30
0.0
 11
2.906496062992125
 21
6.575787401574802
 31
0.0
  0
LINE
  5
40A6
330
1E
100
AcDbEntity
  8
7
100
AcDbLine
 10
2.146653543307086
 20
6.654527559055117
 30
0.0
 11
2.146653543307086
 21
6.653543307086613
 31
0.0
  0
LINE
  5
40A7
330
1E
100
AcDbEntity
  8
7
100
AcDbLine
 10
2.146653543307086
 20
6.653543307086613
 30
0.0
 11
2.146653543307086
 21
6.650590551181101
 31
0.0
  0
LINE
  5
40A8
330
1E
100
AcDbEntity
  8
7
100
AcDbLine
 10
2.146653543307086
 20
6.650590551181101
 30
0.0
 11
2.146653543307086
 21
6.64763779527559
 31
0.0
  0
LINE
  5
40A9
330
1E
100
AcDbEntity
  8
7
100
AcDbLine
 10
2.146653543307086
 20
6.64763779527559
 30
0.0
 11
2.146653543307086
 21
6.644685039370078
 31
0.0
  0
LINE
  5
40AA
330
1E
100
AcDbEntity
  8
7
100
AcDbLine
 10
2.146653543307086
 20
6.565944881889763
 30
0.0
 11
2.151574803149606
 21
6.565944881889763
 31
0.0
  0
LINE
  5
40AB
330
1E
100
AcDbEntity
  8
7
100
AcDbLine
 10
2.151574803149606
 20
6.565944881889763
 30
0.0
 11
2.156496062992125
 21
6.565944881889763
 31
0.0
  0
LINE
  5
40AC
330
1E
100
AcDbEntity
  8
7
100
AcDbLine
 10
2.156496062992125
 20
6.654527559055117
 30
0.0
 11
2.151574803149606
 21
6.654527559055117
 31
0.0
  0
LINE
  5
40AD
330
1E
100
AcDbEntity
  8
7
100
AcDbLine
 10
2.151574803149606
 20
6.654527559055117
 30
0.0
 11
2.146653543307086
 21
6.654527559055117
 31
0.0
  0
LINE
  5
40AE
330
1E
100
AcDbEntity
  8
7
100
AcDbLine
 10
2.146653543307086
 20
6.654527559055117
 30
0.0
 11
2.126968503937007
 21
6.646653543307086
 31
0.0
  0
LINE
  5
40AF
330
1E
100
AcDbEntity
  8
7
100
AcDbLine
 10
2.126968503937007
 20
6.646653543307086
 30
0.0
 11
2.112204724409448
 21
6.630905511811023
 31
0.0
  0
LINE
  5
40B0
330
1E
100
AcDbEntity
  8
7
100
AcDbLine
 10
2.112204724409448
 20
6.630905511811023
 30
0.0
 11
2.107283464566929
 21
6.61023622047244
 31
0.0
  0
LINE
  5
40B1
330
1E
100
AcDbEntity
  8
7
100
AcDbLine
 10
2.107283464566929
 20
6.61023622047244
 30
0.0
 11
2.112204724409448
 21
6.589566929133858
 31
0.0
  0
LINE
  5
40B2
330
1E
100
AcDbEntity
  8
7
100
AcDbLine
 10
2.112204724409448
 20
6.589566929133858
 30
0.0
 11
2.126968503937007
 21
6.573818897637795
 31
0.0
  0
LINE
  5
40B3
330
1E
100
AcDbEntity
  8
7
100
AcDbLine
 10
2.126968503937007
 20
6.573818897637795
 30
0.0
 11
2.146653543307086
 21
6.565944881889763
 31
0.0
  0
LINE
  5
40B4
330
1E
100
AcDbEntity
  8
7
100
AcDbLine
 10
2.146653543307086
 20
6.644685039370078
 30
0.0
 11
2.128937007874015
 21
6.635826771653543
 31
0.0
  0
LINE
  5
40B5
330
1E
100
AcDbEntity
  8
7
100
AcDbLine
 10
2.128937007874015
 20
6.635826771653543
 30
0.0
 11
2.118110236220472
 21
6.62007874015748
 31
0.0
  0
LINE
  5
40B6
330
1E
100
AcDbEntity
  8
7
100
AcDbLine
 10
2.118110236220472
 20
6.62007874015748
 30
0.0
 11
2.118110236220472
 21
6.600393700787401
 31
0.0
  0
LINE
  5
40B7
330
1E
100
AcDbEntity
  8
7
100
AcDbLine
 10
2.118110236220472
 20
6.600393700787401
 30
0.0
 11
2.128937007874015
 21
6.584645669291338
 31
0.0
  0
LINE
  5
40B8
330
1E
100
AcDbEntity
  8
7
100
AcDbLine
 10
2.128937007874015
 20
6.584645669291338
 30
0.0
 11
2.146653543307086
 21
6.575787401574802
 31
0.0
  0
LINE
  5
40B9
330
1E
100
AcDbEntity
  8
7
100
AcDbLine
 10
2.156496062992125
 20
6.565944881889763
 30
0.0
 11
2.176181102362204
 21
6.573818897637795
 31
0.0
  0
LINE
  5
40BA
330
1E
100
AcDbEntity
  8
7
100
AcDbLine
 10
2.176181102362204
 20
6.573818897637795
 30
0.0
 11
2.190944881889763
 21
6.589566929133858
 31
0.0
  0
LINE
  5
40BB
330
1E
100
AcDbEntity
  8
7
100
AcDbLine
 10
2.190944881889763
 20
6.589566929133858
 30
0.0
 11
2.195866141732283
 21
6.61023622047244
 31
0.0
  0
LINE
  5
40BC
330
1E
100
AcDbEntity
  8
7
100
AcDbLine
 10
2.195866141732283
 20
6.61023622047244
 30
0.0
 11
2.190944881889763
 21
6.630905511811023
 31
0.0
  0
LINE
  5
40BD
330
1E
100
AcDbEntity
  8
7
100
AcDbLine
 10
2.190944881889763
 20
6.630905511811023
 30
0.0
 11
2.176181102362204
 21
6.646653543307086
 31
0.0
  0
LINE
  5
40BE
330
1E
100
AcDbEntity
  8
7
100
AcDbLine
 10
2.176181102362204
 20
6.646653543307086
 30
0.0
 11
2.156496062992125
 21
6.654527559055117
 31
0.0
  0
LINE
  5
40BF
330
1E
100
AcDbEntity
  8
7
100
AcDbLine
 10
2.156496062992125
 20
6.644685039370078
 30
0.0
 11
2.156496062992125
 21
6.645669291338582
 31
0.0
  0
LINE
  5
40C0
330
1E
100
AcDbEntity
  8
7
100
AcDbLine
 10
2.156496062992125
 20
6.645669291338582
 30
0.0
 11
2.156496062992125
 21
6.648622047244094
 31
0.0
  0
LINE
  5
40C1
330
1E
100
AcDbEntity
  8
7
100
AcDbLine
 10
2.156496062992125
 20
6.648622047244094
 30
0.0
 11
2.156496062992125
 21
6.651574803149606
 31
0.0
  0
LINE
  5
40C2
330
1E
100
AcDbEntity
  8
7
100
AcDbLine
 10
2.156496062992125
 20
6.651574803149606
 30
0.0
 11
2.156496062992125
 21
6.653543307086613
 31
0.0
  0
LINE
  5
40C3
330
1E
100
AcDbEntity
  8
7
100
AcDbLine
 10
2.156496062992125
 20
6.644685039370078
 30
0.0
 11
2.156496062992125
 21
6.61515748031496
 31
0.0
  0
LINE
  5
40C4
330
1E
100
AcDbEntity
  8
7
100
AcDbLine
 10
2.156496062992125
 20
6.61515748031496
 30
0.0
 11
2.176181102362204
 21
6.61515748031496
 31
0.0
  0
LINE
  5
40C5
330
1E
100
AcDbEntity
  8
7
100
AcDbLine
 10
2.176181102362204
 20
6.61515748031496
 30
0.0
 11
2.176181102362204
 21
6.605314960629921
 31
0.0
  0
LINE
  5
40C6
330
1E
100
AcDbEntity
  8
7
100
AcDbLine
 10
2.156496062992125
 20
6.575787401574802
 30
0.0
 11
2.174212598425196
 21
6.584645669291338
 31
0.0
  0
LINE
  5
40C7
330
1E
100
AcDbEntity
  8
7
100
AcDbLine
 10
2.174212598425196
 20
6.584645669291338
 30
0.0
 11
2.18503937007874
 21
6.600393700787401
 31
0.0
  0
LINE
  5
40C8
330
1E
100
AcDbEntity
  8
7
100
AcDbLine
 10
2.18503937007874
 20
6.600393700787401
 30
0.0
 11
2.18503937007874
 21
6.62007874015748
 31
0.0
  0
LINE
  5
40C9
330
1E
100
AcDbEntity
  8
7
100
AcDbLine
 10
2.18503937007874
 20
6.62007874015748
 30
0.0
 11
2.174212598425196
 21
6.635826771653543
 31
0.0
  0
LINE
  5
40CA
330
1E
100
AcDbEntity
  8
7
100
AcDbLine
 10
2.174212598425196
 20
6.635826771653543
 30
0.0
 11
2.156496062992125
 21
6.644685039370078
 31
0.0
  0
LINE
  5
40CB
330
1E
100
AcDbEntity
  8
7
100
AcDbLine
 10
2.146653543307086
 20
6.605314960629921
 30
0.0
 11
2.146653543307086
 21
6.575787401574802
 31
0.0
  0
LINE
  5
40CC
330
1E
100
AcDbEntity
  8
7
100
AcDbLine
 10
2.146653543307086
 20
6.575787401574802
 30
0.0
 11
2.146653543307086
 21
6.572834645669291
 31
0.0
  0
LINE
  5
40CD
330
1E
100
AcDbEntity
  8
7
100
AcDbLine
 10
2.146653543307086
 20
6.572834645669291
 30
0.0
 11
2.146653543307086
 21
6.569881889763779
 31
0.0
  0
LINE
  5
40CE
330
1E
100
AcDbEntity
  8
7
100
AcDbLine
 10
2.146653543307086
 20
6.569881889763779
 30
0.0
 11
2.146653543307086
 21
6.566929133858267
 31
0.0
  0
LINE
  5
40CF
330
1E
100
AcDbEntity
  8
7
100
AcDbLine
 10
2.146653543307086
 20
6.566929133858267
 30
0.0
 11
2.146653543307086
 21
6.565944881889763
 31
0.0
  0
LINE
  5
40D0
330
1E
100
AcDbEntity
  8
7
100
AcDbLine
 10
2.156496062992125
 20
6.565944881889763
 30
0.0
 11
2.156496062992125
 21
6.567913385826771
 31
0.0
  0
LINE
  5
40D1
330
1E
100
AcDbEntity
  8
7
100
AcDbLine
 10
2.156496062992125
 20
6.567913385826771
 30
0.0
 11
2.156496062992125
 21
6.570866141732283
 31
0.0
  0
LINE
  5
40D2
330
1E
100
AcDbEntity
  8
7
100
AcDbLine
 10
2.156496062992125
 20
6.570866141732283
 30
0.0
 11
2.156496062992125
 21
6.573818897637795
 31
0.0
  0
LINE
  5
40D3
330
1E
100
AcDbEntity
  8
7
100
AcDbLine
 10
2.156496062992125
 20
6.573818897637795
 30
0.0
 11
2.156496062992125
 21
6.575787401574802
 31
0.0
  0
LINE
  5
40D4
330
1E
100
AcDbEntity
  8
7
100
AcDbLine
 10
2.976377952755905
 20
6.48523622047244
 30
0.0
 11
2.076771653543306
 21
6.48523622047244
 31
0.0
  0
LINE
  5
40D5
330
1E
100
AcDbEntity
  8
7
100
AcDbLine
 10
2.076771653543306
 20
6.48523622047244
 30
0.0
 11
2.076771653543306
 21
6.528543307086613
 31
0.0
  0
LINE
  5
40D6
330
1E
100
AcDbEntity
  8
7
100
AcDbLine
 10
2.901574803149606
 20
6.664370078740157
 30
0.0
 11
2.880905511811023
 21
6.660433070866141
 31
0.0
  0
LINE
  5
40D7
330
1E
100
AcDbEntity
  8
7
100
AcDbLine
 10
2.880905511811023
 20
6.660433070866141
 30
0.0
 11
2.863188976377952
 21
6.648622047244094
 31
0.0
  0
LINE
  5
40D8
330
1E
100
AcDbEntity
  8
7
100
AcDbLine
 10
2.863188976377952
 20
6.648622047244094
 30
0.0
 11
2.851377952755905
 21
6.630905511811023
 31
0.0
  0
LINE
  5
40D9
330
1E
100
AcDbEntity
  8
7
100
AcDbLine
 10
2.851377952755905
 20
6.630905511811023
 30
0.0
 11
2.847440944881889
 21
6.61023622047244
 31
0.0
  0
LINE
  5
40DA
330
1E
100
AcDbEntity
  8
7
100
AcDbLine
 10
2.847440944881889
 20
6.61023622047244
 30
0.0
 11
2.851377952755905
 21
6.589566929133858
 31
0.0
  0
LINE
  5
40DB
330
1E
100
AcDbEntity
  8
7
100
AcDbLine
 10
2.851377952755905
 20
6.589566929133858
 30
0.0
 11
2.863188976377952
 21
6.571850393700787
 31
0.0
  0
LINE
  5
40DC
330
1E
100
AcDbEntity
  8
7
100
AcDbLine
 10
2.863188976377952
 20
6.571850393700787
 30
0.0
 11
2.880905511811023
 21
6.560039370078739
 31
0.0
  0
LINE
  5
40DD
330
1E
100
AcDbEntity
  8
7
100
AcDbLine
 10
2.880905511811023
 20
6.560039370078739
 30
0.0
 11
2.901574803149606
 21
6.556102362204724
 31
0.0
  0
LINE
  5
40DE
330
1E
100
AcDbEntity
  8
7
100
AcDbLine
 10
2.901574803149606
 20
6.556102362204724
 30
0.0
 11
2.922244094488188
 21
6.560039370078739
 31
0.0
  0
LINE
  5
40DF
330
1E
100
AcDbEntity
  8
7
100
AcDbLine
 10
2.922244094488188
 20
6.560039370078739
 30
0.0
 11
2.939960629921259
 21
6.571850393700787
 31
0.0
  0
LINE
  5
40E0
330
1E
100
AcDbEntity
  8
7
100
AcDbLine
 10
2.939960629921259
 20
6.571850393700787
 30
0.0
 11
2.951771653543307
 21
6.589566929133858
 31
0.0
  0
LINE
  5
40E1
330
1E
100
AcDbEntity
  8
7
100
AcDbLine
 10
2.951771653543307
 20
6.589566929133858
 30
0.0
 11
2.955708661417322
 21
6.61023622047244
 31
0.0
  0
LINE
  5
40E2
330
1E
100
AcDbEntity
  8
7
100
AcDbLine
 10
2.955708661417322
 20
6.61023622047244
 30
0.0
 11
2.951771653543307
 21
6.630905511811023
 31
0.0
  0
LINE
  5
40E3
330
1E
100
AcDbEntity
  8
7
100
AcDbLine
 10
2.951771653543307
 20
6.630905511811023
 30
0.0
 11
2.939960629921259
 21
6.648622047244094
 31
0.0
  0
LINE
  5
40E4
330
1E
100
AcDbEntity
  8
7
100
AcDbLine
 10
2.939960629921259
 20
6.648622047244094
 30
0.0
 11
2.922244094488188
 21
6.660433070866141
 31
0.0
  0
LINE
  5
40E5
330
1E
100
AcDbEntity
  8
7
100
AcDbLine
 10
2.922244094488188
 20
6.660433070866141
 30
0.0
 11
2.901574803149606
 21
6.664370078740157
 31
0.0
  0
LINE
  5
40E6
330
1E
100
AcDbEntity
  8
7
100
AcDbLine
 10
2.713582677165354
 20
6.571850393700787
 30
0.0
 11
2.731299212598425
 21
6.560039370078739
 31
0.0
  0
LINE
  5
40E7
330
1E
100
AcDbEntity
  8
7
100
AcDbLine
 10
2.731299212598425
 20
6.560039370078739
 30
0.0
 11
2.751968503937007
 21
6.556102362204724
 31
0.0
  0
LINE
  5
40E8
330
1E
100
AcDbEntity
  8
7
100
AcDbLine
 10
2.751968503937007
 20
6.556102362204724
 30
0.0
 11
2.77263779527559
 21
6.560039370078739
 31
0.0
  0
LINE
  5
40E9
330
1E
100
AcDbEntity
  8
7
100
AcDbLine
 10
2.77263779527559
 20
6.560039370078739
 30
0.0
 11
2.790354330708661
 21
6.571850393700787
 31
0.0
  0
LINE
  5
40EA
330
1E
100
AcDbEntity
  8
7
100
AcDbLine
 10
2.790354330708661
 20
6.571850393700787
 30
0.0
 11
2.802165354330708
 21
6.589566929133858
 31
0.0
  0
LINE
  5
40EB
330
1E
100
AcDbEntity
  8
7
100
AcDbLine
 10
2.802165354330708
 20
6.589566929133858
 30
0.0
 11
2.806102362204724
 21
6.61023622047244
 31
0.0
  0
LINE
  5
40EC
330
1E
100
AcDbEntity
  8
7
100
AcDbLine
 10
2.806102362204724
 20
6.61023622047244
 30
0.0
 11
2.802165354330708
 21
6.630905511811023
 31
0.0
  0
LINE
  5
40ED
330
1E
100
AcDbEntity
  8
7
100
AcDbLine
 10
2.802165354330708
 20
6.630905511811023
 30
0.0
 11
2.790354330708661
 21
6.648622047244094
 31
0.0
  0
LINE
  5
40EE
330
1E
100
AcDbEntity
  8
7
100
AcDbLine
 10
2.790354330708661
 20
6.648622047244094
 30
0.0
 11
2.77263779527559
 21
6.660433070866141
 31
0.0
  0
LINE
  5
40EF
330
1E
100
AcDbEntity
  8
7
100
AcDbLine
 10
2.77263779527559
 20
6.660433070866141
 30
0.0
 11
2.751968503937007
 21
6.664370078740157
 31
0.0
  0
LINE
  5
40F0
330
1E
100
AcDbEntity
  8
7
100
AcDbLine
 10
2.751968503937007
 20
6.664370078740157
 30
0.0
 11
2.731299212598425
 21
6.660433070866141
 31
0.0
  0
LINE
  5
40F1
330
1E
100
AcDbEntity
  8
7
100
AcDbLine
 10
2.731299212598425
 20
6.660433070866141
 30
0.0
 11
2.713582677165354
 21
6.648622047244094
 31
0.0
  0
LINE
  5
40F2
330
1E
100
AcDbEntity
  8
7
100
AcDbLine
 10
2.713582677165354
 20
6.648622047244094
 30
0.0
 11
2.701771653543306
 21
6.630905511811023
 31
0.0
  0
LINE
  5
40F3
330
1E
100
AcDbEntity
  8
7
100
AcDbLine
 10
2.701771653543306
 20
6.630905511811023
 30
0.0
 11
2.697834645669291
 21
6.61023622047244
 31
0.0
  0
LINE
  5
40F4
330
1E
100
AcDbEntity
  8
7
100
AcDbLine
 10
2.697834645669291
 20
6.61023622047244
 30
0.0
 11
2.701771653543306
 21
6.589566929133858
 31
0.0
  0
LINE
  5
40F5
330
1E
100
AcDbEntity
  8
7
100
AcDbLine
 10
2.701771653543306
 20
6.589566929133858
 30
0.0
 11
2.713582677165354
 21
6.571850393700787
 31
0.0
  0
LINE
  5
40F6
330
1E
100
AcDbEntity
  8
7
100
AcDbLine
 10
2.655511811023622
 20
6.61023622047244
 30
0.0
 11
2.651574803149606
 21
6.630905511811023
 31
0.0
  0
LINE
  5
40F7
330
1E
100
AcDbEntity
  8
7
100
AcDbLine
 10
2.651574803149606
 20
6.630905511811023
 30
0.0
 11
2.639763779527558
 21
6.648622047244094
 31
0.0
  0
LINE
  5
40F8
330
1E
100
AcDbEntity
  8
7
100
AcDbLine
 10
2.639763779527558
 20
6.648622047244094
 30
0.0
 11
2.622047244094487
 21
6.660433070866141
 31
0.0
  0
LINE
  5
40F9
330
1E
100
AcDbEntity
  8
7
100
AcDbLine
 10
2.622047244094487
 20
6.660433070866141
 30
0.0
 11
2.601377952755905
 21
6.664370078740157
 31
0.0
  0
LINE
  5
40FA
330
1E
100
AcDbEntity
  8
7
100
AcDbLine
 10
2.601377952755905
 20
6.664370078740157
 30
0.0
 11
2.580708661417322
 21
6.660433070866141
 31
0.0
  0
LINE
  5
40FB
330
1E
100
AcDbEntity
  8
7
100
AcDbLine
 10
2.580708661417322
 20
6.660433070866141
 30
0.0
 11
2.562992125984251
 21
6.648622047244094
 31
0.0
  0
LINE
  5
40FC
330
1E
100
AcDbEntity
  8
7
100
AcDbLine
 10
2.562992125984251
 20
6.648622047244094
 30
0.0
 11
2.551181102362204
 21
6.630905511811023
 31
0.0
  0
LINE
  5
40FD
330
1E
100
AcDbEntity
  8
7
100
AcDbLine
 10
2.551181102362204
 20
6.630905511811023
 30
0.0
 11
2.547244094488188
 21
6.61023622047244
 31
0.0
  0
LINE
  5
40FE
330
1E
100
AcDbEntity
  8
7
100
AcDbLine
 10
2.547244094488188
 20
6.61023622047244
 30
0.0
 11
2.551181102362204
 21
6.589566929133858
 31
0.0
  0
LINE
  5
40FF
330
1E
100
AcDbEntity
  8
7
100
AcDbLine
 10
2.551181102362204
 20
6.589566929133858
 30
0.0
 11
2.562992125984251
 21
6.571850393700787
 31
0.0
  0
LINE
  5
4100
330
1E
100
AcDbEntity
  8
7
100
AcDbLine
 10
2.562992125984251
 20
6.571850393700787
 30
0.0
 11
2.580708661417322
 21
6.560039370078739
 31
0.0
  0
LINE
  5
4101
330
1E
100
AcDbEntity
  8
7
100
AcDbLine
 10
2.580708661417322
 20
6.560039370078739
 30
0.0
 11
2.601377952755905
 21
6.556102362204724
 31
0.0
  0
LINE
  5
4102
330
1E
100
AcDbEntity
  8
7
100
AcDbLine
 10
2.601377952755905
 20
6.556102362204724
 30
0.0
 11
2.622047244094487
 21
6.560039370078739
 31
0.0
  0
LINE
  5
4103
330
1E
100
AcDbEntity
  8
7
100
AcDbLine
 10
2.622047244094487
 20
6.560039370078739
 30
0.0
 11
2.639763779527558
 21
6.571850393700787
 31
0.0
  0
LINE
  5
4104
330
1E
100
AcDbEntity
  8
7
100
AcDbLine
 10
2.639763779527558
 20
6.571850393700787
 30
0.0
 11
2.651574803149606
 21
6.589566929133858
 31
0.0
  0
LINE
  5
4105
330
1E
100
AcDbEntity
  8
7
100
AcDbLine
 10
2.651574803149606
 20
6.589566929133858
 30
0.0
 11
2.655511811023622
 21
6.61023622047244
 31
0.0
  0
LINE
  5
4106
330
1E
100
AcDbEntity
  8
7
100
AcDbLine
 10
2.501968503937007
 20
6.630905511811023
 30
0.0
 11
2.49015748031496
 21
6.648622047244094
 31
0.0
  0
LINE
  5
4107
330
1E
100
AcDbEntity
  8
7
100
AcDbLine
 10
2.49015748031496
 20
6.648622047244094
 30
0.0
 11
2.472440944881889
 21
6.660433070866141
 31
0.0
  0
LINE
  5
4108
330
1E
100
AcDbEntity
  8
7
100
AcDbLine
 10
2.472440944881889
 20
6.660433070866141
 30
0.0
 11
2.451771653543306
 21
6.664370078740157
 31
0.0
  0
LINE
  5
4109
330
1E
100
AcDbEntity
  8
7
100
AcDbLine
 10
2.451771653543306
 20
6.664370078740157
 30
0.0
 11
2.431102362204724
 21
6.660433070866141
 31
0.0
  0
LINE
  5
410A
330
1E
100
AcDbEntity
  8
7
100
AcDbLine
 10
2.431102362204724
 20
6.660433070866141
 30
0.0
 11
2.413385826771653
 21
6.648622047244094
 31
0.0
  0
LINE
  5
410B
330
1E
100
AcDbEntity
  8
7
100
AcDbLine
 10
2.413385826771653
 20
6.648622047244094
 30
0.0
 11
2.401574803149606
 21
6.630905511811023
 31
0.0
  0
LINE
  5
410C
330
1E
100
AcDbEntity
  8
7
100
AcDbLine
 10
2.401574803149606
 20
6.630905511811023
 30
0.0
 11
2.39763779527559
 21
6.61023622047244
 31
0.0
  0
LINE
  5
410D
330
1E
100
AcDbEntity
  8
7
100
AcDbLine
 10
2.39763779527559
 20
6.61023622047244
 30
0.0
 11
2.401574803149606
 21
6.589566929133858
 31
0.0
  0
LINE
  5
410E
330
1E
100
AcDbEntity
  8
7
100
AcDbLine
 10
2.401574803149606
 20
6.589566929133858
 30
0.0
 11
2.413385826771653
 21
6.571850393700787
 31
0.0
  0
LINE
  5
410F
330
1E
100
AcDbEntity
  8
7
100
AcDbLine
 10
2.413385826771653
 20
6.571850393700787
 30
0.0
 11
2.431102362204724
 21
6.560039370078739
 31
0.0
  0
LINE
  5
4110
330
1E
100
AcDbEntity
  8
7
100
AcDbLine
 10
2.431102362204724
 20
6.560039370078739
 30
0.0
 11
2.451771653543306
 21
6.556102362204724
 31
0.0
  0
LINE
  5
4111
330
1E
100
AcDbEntity
  8
7
100
AcDbLine
 10
2.451771653543306
 20
6.556102362204724
 30
0.0
 11
2.472440944881889
 21
6.560039370078739
 31
0.0
  0
LINE
  5
4112
330
1E
100
AcDbEntity
  8
7
100
AcDbLine
 10
2.472440944881889
 20
6.560039370078739
 30
0.0
 11
2.49015748031496
 21
6.571850393700787
 31
0.0
  0
LINE
  5
4113
330
1E
100
AcDbEntity
  8
7
100
AcDbLine
 10
2.49015748031496
 20
6.571850393700787
 30
0.0
 11
2.501968503937007
 21
6.589566929133858
 31
0.0
  0
LINE
  5
4114
330
1E
100
AcDbEntity
  8
7
100
AcDbLine
 10
2.501968503937007
 20
6.589566929133858
 30
0.0
 11
2.505905511811023
 21
6.61023622047244
 31
0.0
  0
LINE
  5
4115
330
1E
100
AcDbEntity
  8
7
100
AcDbLine
 10
2.505905511811023
 20
6.61023622047244
 30
0.0
 11
2.501968503937007
 21
6.630905511811023
 31
0.0
  0
LINE
  5
4116
330
1E
100
AcDbEntity
  8
7
100
AcDbLine
 10
2.262795275590551
 20
6.648622047244094
 30
0.0
 11
2.250984251968503
 21
6.630905511811023
 31
0.0
  0
LINE
  5
4117
330
1E
100
AcDbEntity
  8
7
100
AcDbLine
 10
2.250984251968503
 20
6.630905511811023
 30
0.0
 11
2.247047244094487
 21
6.61023622047244
 31
0.0
  0
LINE
  5
4118
330
1E
100
AcDbEntity
  8
7
100
AcDbLine
 10
2.247047244094487
 20
6.61023622047244
 30
0.0
 11
2.250984251968503
 21
6.589566929133858
 31
0.0
  0
LINE
  5
4119
330
1E
100
AcDbEntity
  8
7
100
AcDbLine
 10
2.250984251968503
 20
6.589566929133858
 30
0.0
 11
2.262795275590551
 21
6.571850393700787
 31
0.0
  0
LINE
  5
411A
330
1E
100
AcDbEntity
  8
7
100
AcDbLine
 10
2.262795275590551
 20
6.571850393700787
 30
0.0
 11
2.280511811023622
 21
6.560039370078739
 31
0.0
  0
LINE
  5
411B
330
1E
100
AcDbEntity
  8
7
100
AcDbLine
 10
2.280511811023622
 20
6.560039370078739
 30
0.0
 11
2.301181102362204
 21
6.556102362204724
 31
0.0
  0
LINE
  5
411C
330
1E
100
AcDbEntity
  8
7
100
AcDbLine
 10
2.301181102362204
 20
6.556102362204724
 30
0.0
 11
2.321850393700787
 21
6.560039370078739
 31
0.0
  0
LINE
  5
411D
330
1E
100
AcDbEntity
  8
7
100
AcDbLine
 10
2.321850393700787
 20
6.560039370078739
 30
0.0
 11
2.339566929133858
 21
6.571850393700787
 31
0.0
  0
LINE
  5
411E
330
1E
100
AcDbEntity
  8
7
100
AcDbLine
 10
2.339566929133858
 20
6.571850393700787
 30
0.0
 11
2.351377952755905
 21
6.589566929133858
 31
0.0
  0
LINE
  5
411F
330
1E
100
AcDbEntity
  8
7
100
AcDbLine
 10
2.351377952755905
 20
6.589566929133858
 30
0.0
 11
2.355314960629921
 21
6.61023622047244
 31
0.0
  0
LINE
  5
4120
330
1E
100
AcDbEntity
  8
7
100
AcDbLine
 10
2.355314960629921
 20
6.61023622047244
 30
0.0
 11
2.351377952755905
 21
6.630905511811023
 31
0.0
  0
LINE
  5
4121
330
1E
100
AcDbEntity
  8
7
100
AcDbLine
 10
2.351377952755905
 20
6.630905511811023
 30
0.0
 11
2.339566929133858
 21
6.648622047244094
 31
0.0
  0
LINE
  5
4122
330
1E
100
AcDbEntity
  8
7
100
AcDbLine
 10
2.339566929133858
 20
6.648622047244094
 30
0.0
 11
2.321850393700787
 21
6.660433070866141
 31
0.0
  0
LINE
  5
4123
330
1E
100
AcDbEntity
  8
7
100
AcDbLine
 10
2.321850393700787
 20
6.660433070866141
 30
0.0
 11
2.301181102362204
 21
6.664370078740157
 31
0.0
  0
LINE
  5
4124
330
1E
100
AcDbEntity
  8
7
100
AcDbLine
 10
2.301181102362204
 20
6.664370078740157
 30
0.0
 11
2.280511811023622
 21
6.660433070866141
 31
0.0
  0
LINE
  5
4125
330
1E
100
AcDbEntity
  8
7
100
AcDbLine
 10
2.280511811023622
 20
6.660433070866141
 30
0.0
 11
2.262795275590551
 21
6.648622047244094
 31
0.0
  0
LINE
  5
4126
330
1E
100
AcDbEntity
  8
7
100
AcDbLine
 10
2.151574803149606
 20
6.556102362204724
 30
0.0
 11
2.172244094488188
 21
6.560039370078739
 31
0.0
  0
LINE
  5
4127
330
1E
100
AcDbEntity
  8
7
100
AcDbLine
 10
2.172244094488188
 20
6.560039370078739
 30
0.0
 11
2.189960629921259
 21
6.571850393700787
 31
0.0
  0
LINE
  5
4128
330
1E
100
AcDbEntity
  8
7
100
AcDbLine
 10
2.189960629921259
 20
6.571850393700787
 30
0.0
 11
2.201771653543306
 21
6.589566929133858
 31
0.0
  0
LINE
  5
4129
330
1E
100
AcDbEntity
  8
7
100
AcDbLine
 10
2.201771653543306
 20
6.589566929133858
 30
0.0
 11
2.205708661417322
 21
6.61023622047244
 31
0.0
  0
LINE
  5
412A
330
1E
100
AcDbEntity
  8
7
100
AcDbLine
 10
2.205708661417322
 20
6.61023622047244
 30
0.0
 11
2.201771653543306
 21
6.630905511811023
 31
0.0
  0
LINE
  5
412B
330
1E
100
AcDbEntity
  8
7
100
AcDbLine
 10
2.201771653543306
 20
6.630905511811023
 30
0.0
 11
2.189960629921259
 21
6.648622047244094
 31
0.0
  0
LINE
  5
412C
330
1E
100
AcDbEntity
  8
7
100
AcDbLine
 10
2.189960629921259
 20
6.648622047244094
 30
0.0
 11
2.172244094488188
 21
6.660433070866141
 31
0.0
  0
LINE
  5
412D
330
1E
100
AcDbEntity
  8
7
100
AcDbLine
 10
2.172244094488188
 20
6.660433070866141
 30
0.0
 11
2.151574803149606
 21
6.664370078740157
 31
0.0
  0
LINE
  5
412E
330
1E
100
AcDbEntity
  8
7
100
AcDbLine
 10
2.151574803149606
 20
6.664370078740157
 30
0.0
 11
2.130905511811023
 21
6.660433070866141
 31
0.0
  0
LINE
  5
412F
330
1E
100
AcDbEntity
  8
7
100
AcDbLine
 10
2.130905511811023
 20
6.660433070866141
 30
0.0
 11
2.113188976377952
 21
6.648622047244094
 31
0.0
  0
LINE
  5
4130
330
1E
100
AcDbEntity
  8
7
100
AcDbLine
 10
2.113188976377952
 20
6.648622047244094
 30
0.0
 11
2.101377952755905
 21
6.630905511811023
 31
0.0
  0
LINE
  5
4131
330
1E
100
AcDbEntity
  8
7
100
AcDbLine
 10
2.101377952755905
 20
6.630905511811023
 30
0.0
 11
2.097440944881889
 21
6.61023622047244
 31
0.0
  0
LINE
  5
4132
330
1E
100
AcDbEntity
  8
7
100
AcDbLine
 10
2.097440944881889
 20
6.61023622047244
 30
0.0
 11
2.101377952755905
 21
6.589566929133858
 31
0.0
  0
LINE
  5
4133
330
1E
100
AcDbEntity
  8
7
100
AcDbLine
 10
2.101377952755905
 20
6.589566929133858
 30
0.0
 11
2.113188976377952
 21
6.571850393700787
 31
0.0
  0
LINE
  5
4134
330
1E
100
AcDbEntity
  8
7
100
AcDbLine
 10
2.113188976377952
 20
6.571850393700787
 30
0.0
 11
2.130905511811023
 21
6.560039370078739
 31
0.0
  0
LINE
  5
4135
330
1E
100
AcDbEntity
  8
7
100
AcDbLine
 10
2.130905511811023
 20
6.560039370078739
 30
0.0
 11
2.151574803149606
 21
6.556102362204724
 31
0.0
  0
LINE
  5
4136
330
1E
100
AcDbEntity
  8
7
100
AcDbLine
 10
2.612204724409448
 20
6.25
 30
0.0
 11
2.613188976377952
 21
6.25
 31
0.0
  0
LINE
  5
4137
330
1E
100
AcDbEntity
  8
7
100
AcDbLine
 10
2.613188976377952
 20
6.25
 30
0.0
 11
2.616141732283464
 21
6.25
 31
0.0
  0
LINE
  5
4138
330
1E
100
AcDbEntity
  8
7
100
AcDbLine
 10
2.616141732283464
 20
6.25
 30
0.0
 11
2.619094488188976
 21
6.25
 31
0.0
  0
LINE
  5
4139
330
1E
100
AcDbEntity
  8
7
100
AcDbLine
 10
2.619094488188976
 20
6.25
 30
0.0
 11
2.622047244094487
 21
6.25
 31
0.0
  0
LINE
  5
413A
330
1E
100
AcDbEntity
  8
7
100
AcDbLine
 10
2.700787401574803
 20
6.25
 30
0.0
 11
2.700787401574803
 21
6.254921259842519
 31
0.0
  0
LINE
  5
413B
330
1E
100
AcDbEntity
  8
7
100
AcDbLine
 10
2.700787401574803
 20
6.254921259842519
 30
0.0
 11
2.700787401574803
 21
6.259842519685038
 31
0.0
  0
LINE
  5
413C
330
1E
100
AcDbEntity
  8
7
100
AcDbLine
 10
2.612204724409448
 20
6.259842519685038
 30
0.0
 11
2.612204724409448
 21
6.254921259842519
 31
0.0
  0
LINE
  5
413D
330
1E
100
AcDbEntity
  8
7
100
AcDbLine
 10
2.612204724409448
 20
6.254921259842519
 30
0.0
 11
2.612204724409448
 21
6.25
 31
0.0
  0
LINE
  5
413E
330
1E
100
AcDbEntity
  8
7
100
AcDbLine
 10
2.612204724409448
 20
6.25
 30
0.0
 11
2.62007874015748
 21
6.230314960629921
 31
0.0
  0
LINE
  5
413F
330
1E
100
AcDbEntity
  8
7
100
AcDbLine
 10
2.62007874015748
 20
6.230314960629921
 30
0.0
 11
2.635826771653543
 21
6.215551181102362
 31
0.0
  0
LINE
  5
4140
330
1E
100
AcDbEntity
  8
7
100
AcDbLine
 10
2.635826771653543
 20
6.215551181102362
 30
0.0
 11
2.656496062992125
 21
6.210629921259842
 31
0.0
  0
LINE
  5
4141
330
1E
100
AcDbEntity
  8
7
100
AcDbLine
 10
2.656496062992125
 20
6.210629921259842
 30
0.0
 11
2.677165354330708
 21
6.215551181102362
 31
0.0
  0
LINE
  5
4142
330
1E
100
AcDbEntity
  8
7
100
AcDbLine
 10
2.677165354330708
 20
6.215551181102362
 30
0.0
 11
2.692913385826771
 21
6.230314960629921
 31
0.0
  0
LINE
  5
4143
330
1E
100
AcDbEntity
  8
7
100
AcDbLine
 10
2.692913385826771
 20
6.230314960629921
 30
0.0
 11
2.700787401574803
 21
6.25
 31
0.0
  0
LINE
  5
4144
330
1E
100
AcDbEntity
  8
7
100
AcDbLine
 10
2.666338582677165
 20
6.221456692913386
 30
0.0
 11
2.682086614173228
 21
6.232283464566928
 31
0.0
  0
LINE
  5
4145
330
1E
100
AcDbEntity
  8
7
100
AcDbLine
 10
2.682086614173228
 20
6.232283464566928
 30
0.0
 11
2.690944881889763
 21
6.25
 31
0.0
  0
LINE
  5
4146
330
1E
100
AcDbEntity
  8
7
100
AcDbLine
 10
2.622047244094487
 20
6.25
 30
0.0
 11
2.630905511811023
 21
6.232283464566928
 31
0.0
  0
LINE
  5
4147
330
1E
100
AcDbEntity
  8
7
100
AcDbLine
 10
2.630905511811023
 20
6.232283464566928
 30
0.0
 11
2.646653543307086
 21
6.221456692913386
 31
0.0
  0
LINE
  5
4148
330
1E
100
AcDbEntity
  8
7
100
AcDbLine
 10
2.646653543307086
 20
6.221456692913386
 30
0.0
 11
2.666338582677165
 21
6.221456692913386
 31
0.0
  0
LINE
  5
4149
330
1E
100
AcDbEntity
  8
7
100
AcDbLine
 10
2.700787401574803
 20
6.259842519685038
 30
0.0
 11
2.692913385826771
 21
6.279527559055117
 31
0.0
  0
LINE
  5
414A
330
1E
100
AcDbEntity
  8
7
100
AcDbLine
 10
2.692913385826771
 20
6.279527559055117
 30
0.0
 11
2.677165354330708
 21
6.294291338582676
 31
0.0
  0
LINE
  5
414B
330
1E
100
AcDbEntity
  8
7
100
AcDbLine
 10
2.677165354330708
 20
6.294291338582676
 30
0.0
 11
2.656496062992125
 21
6.299212598425196
 31
0.0
  0
LINE
  5
414C
330
1E
100
AcDbEntity
  8
7
100
AcDbLine
 10
2.656496062992125
 20
6.299212598425196
 30
0.0
 11
2.635826771653543
 21
6.294291338582676
 31
0.0
  0
LINE
  5
414D
330
1E
100
AcDbEntity
  8
7
100
AcDbLine
 10
2.635826771653543
 20
6.294291338582676
 30
0.0
 11
2.62007874015748
 21
6.279527559055117
 31
0.0
  0
LINE
  5
414E
330
1E
100
AcDbEntity
  8
7
100
AcDbLine
 10
2.62007874015748
 20
6.279527559055117
 30
0.0
 11
2.612204724409448
 21
6.259842519685038
 31
0.0
  0
LINE
  5
414F
330
1E
100
AcDbEntity
  8
7
100
AcDbLine
 10
2.622047244094487
 20
6.259842519685038
 30
0.0
 11
2.621062992125984
 21
6.259842519685038
 31
0.0
  0
LINE
  5
4150
330
1E
100
AcDbEntity
  8
7
100
AcDbLine
 10
2.621062992125984
 20
6.259842519685038
 30
0.0
 11
2.618110236220472
 21
6.259842519685038
 31
0.0
  0
LINE
  5
4151
330
1E
100
AcDbEntity
  8
7
100
AcDbLine
 10
2.618110236220472
 20
6.259842519685038
 30
0.0
 11
2.61515748031496
 21
6.259842519685038
 31
0.0
  0
LINE
  5
4152
330
1E
100
AcDbEntity
  8
7
100
AcDbLine
 10
2.61515748031496
 20
6.259842519685038
 30
0.0
 11
2.613188976377952
 21
6.259842519685038
 31
0.0
  0
LINE
  5
4153
330
1E
100
AcDbEntity
  8
7
100
AcDbLine
 10
2.613188976377952
 20
6.259842519685038
 30
0.0
 11
2.612204724409448
 21
6.259842519685038
 31
0.0
  0
LINE
  5
4154
330
1E
100
AcDbEntity
  8
7
100
AcDbLine
 10
2.622047244094487
 20
6.259842519685038
 30
0.0
 11
2.651574803149606
 21
6.259842519685038
 31
0.0
  0
LINE
  5
4155
330
1E
100
AcDbEntity
  8
7
100
AcDbLine
 10
2.651574803149606
 20
6.259842519685038
 30
0.0
 11
2.651574803149606
 21
6.280511811023622
 31
0.0
  0
LINE
  5
4156
330
1E
100
AcDbEntity
  8
7
100
AcDbLine
 10
2.651574803149606
 20
6.280511811023622
 30
0.0
 11
2.661417322834645
 21
6.280511811023622
 31
0.0
  0
LINE
  5
4157
330
1E
100
AcDbEntity
  8
7
100
AcDbLine
 10
2.690944881889763
 20
6.259842519685038
 30
0.0
 11
2.682086614173228
 21
6.27755905511811
 31
0.0
  0
LINE
  5
4158
330
1E
100
AcDbEntity
  8
7
100
AcDbLine
 10
2.682086614173228
 20
6.27755905511811
 30
0.0
 11
2.666338582677165
 21
6.288385826771653
 31
0.0
  0
LINE
  5
4159
330
1E
100
AcDbEntity
  8
7
100
AcDbLine
 10
2.666338582677165
 20
6.288385826771653
 30
0.0
 11
2.646653543307086
 21
6.288385826771653
 31
0.0
  0
LINE
  5
415A
330
1E
100
AcDbEntity
  8
7
100
AcDbLine
 10
2.646653543307086
 20
6.288385826771653
 30
0.0
 11
2.630905511811023
 21
6.27755905511811
 31
0.0
  0
LINE
  5
415B
330
1E
100
AcDbEntity
  8
7
100
AcDbLine
 10
2.630905511811023
 20
6.27755905511811
 30
0.0
 11
2.622047244094487
 21
6.259842519685038
 31
0.0
  0
LINE
  5
415C
330
1E
100
AcDbEntity
  8
7
100
AcDbLine
 10
2.661417322834645
 20
6.25
 30
0.0
 11
2.690944881889763
 21
6.25
 31
0.0
  0
LINE
  5
415D
330
1E
100
AcDbEntity
  8
7
100
AcDbLine
 10
2.690944881889763
 20
6.25
 30
0.0
 11
2.693897637795275
 21
6.25
 31
0.0
  0
LINE
  5
415E
330
1E
100
AcDbEntity
  8
7
100
AcDbLine
 10
2.693897637795275
 20
6.25
 30
0.0
 11
2.696850393700787
 21
6.25
 31
0.0
  0
LINE
  5
415F
330
1E
100
AcDbEntity
  8
7
100
AcDbLine
 10
2.696850393700787
 20
6.25
 30
0.0
 11
2.699803149606299
 21
6.25
 31
0.0
  0
LINE
  5
4160
330
1E
100
AcDbEntity
  8
7
100
AcDbLine
 10
2.699803149606299
 20
6.25
 30
0.0
 11
2.700787401574803
 21
6.25
 31
0.0
  0
LINE
  5
4161
330
1E
100
AcDbEntity
  8
7
100
AcDbLine
 10
2.700787401574803
 20
6.25
 30
0.0
 11
2.701771653543306
 21
6.25
 31
0.0
  0
LINE
  5
4162
330
1E
100
AcDbEntity
  8
7
100
AcDbLine
 10
2.701771653543306
 20
6.259842519685038
 30
0.0
 11
2.700787401574803
 21
6.259842519685038
 31
0.0
  0
LINE
  5
4163
330
1E
100
AcDbEntity
  8
7
100
AcDbLine
 10
2.700787401574803
 20
6.259842519685038
 30
0.0
 11
2.698818897637795
 21
6.259842519685038
 31
0.0
  0
LINE
  5
4164
330
1E
100
AcDbEntity
  8
7
100
AcDbLine
 10
2.698818897637795
 20
6.259842519685038
 30
0.0
 11
2.695866141732283
 21
6.259842519685038
 31
0.0
  0
LINE
  5
4165
330
1E
100
AcDbEntity
  8
7
100
AcDbLine
 10
2.695866141732283
 20
6.259842519685038
 30
0.0
 11
2.692913385826771
 21
6.259842519685038
 31
0.0
  0
LINE
  5
4166
330
1E
100
AcDbEntity
  8
7
100
AcDbLine
 10
2.692913385826771
 20
6.259842519685038
 30
0.0
 11
2.690944881889763
 21
6.259842519685038
 31
0.0
  0
LINE
  5
4167
330
1E
100
AcDbEntity
  8
7
100
AcDbLine
 10
2.440944881889763
 20
6.400590551181101
 30
0.0
 11
2.439960629921259
 21
6.400590551181101
 31
0.0
  0
LINE
  5
4168
330
1E
100
AcDbEntity
  8
7
100
AcDbLine
 10
2.439960629921259
 20
6.400590551181101
 30
0.0
 11
2.437007874015748
 21
6.400590551181101
 31
0.0
  0
LINE
  5
4169
330
1E
100
AcDbEntity
  8
7
100
AcDbLine
 10
2.437007874015748
 20
6.400590551181101
 30
0.0
 11
2.434055118110236
 21
6.400590551181101
 31
0.0
  0
LINE
  5
416A
330
1E
100
AcDbEntity
  8
7
100
AcDbLine
 10
2.434055118110236
 20
6.400590551181101
 30
0.0
 11
2.431102362204724
 21
6.400590551181101
 31
0.0
  0
LINE
  5
416B
330
1E
100
AcDbEntity
  8
7
100
AcDbLine
 10
2.440944881889763
 20
6.400590551181101
 30
0.0
 11
2.440944881889763
 21
6.405511811023622
 31
0.0
  0
LINE
  5
416C
330
1E
100
AcDbEntity
  8
7
100
AcDbLine
 10
2.440944881889763
 20
6.405511811023622
 30
0.0
 11
2.440944881889763
 21
6.410433070866141
 31
0.0
  0
LINE
  5
416D
330
1E
100
AcDbEntity
  8
7
100
AcDbLine
 10
2.352362204724409
 20
6.410433070866141
 30
0.0
 11
2.352362204724409
 21
6.405511811023622
 31
0.0
  0
LINE
  5
416E
330
1E
100
AcDbEntity
  8
7
100
AcDbLine
 10
2.352362204724409
 20
6.405511811023622
 30
0.0
 11
2.352362204724409
 21
6.400590551181101
 31
0.0
  0
LINE
  5
416F
330
1E
100
AcDbEntity
  8
7
100
AcDbLine
 10
2.352362204724409
 20
6.400590551181101
 30
0.0
 11
2.36023622047244
 21
6.380905511811023
 31
0.0
  0
LINE
  5
4170
330
1E
100
AcDbEntity
  8
7
100
AcDbLine
 10
2.36023622047244
 20
6.380905511811023
 30
0.0
 11
2.375984251968503
 21
6.366141732283464
 31
0.0
  0
LINE
  5
4171
330
1E
100
AcDbEntity
  8
7
100
AcDbLine
 10
2.375984251968503
 20
6.366141732283464
 30
0.0
 11
2.396653543307086
 21
6.361220472440944
 31
0.0
  0
LINE
  5
4172
330
1E
100
AcDbEntity
  8
7
100
AcDbLine
 10
2.396653543307086
 20
6.361220472440944
 30
0.0
 11
2.417322834645669
 21
6.366141732283464
 31
0.0
  0
LINE
  5
4173
330
1E
100
AcDbEntity
  8
7
100
AcDbLine
 10
2.417322834645669
 20
6.366141732283464
 30
0.0
 11
2.433070866141732
 21
6.380905511811023
 31
0.0
  0
LINE
  5
4174
330
1E
100
AcDbEntity
  8
7
100
AcDbLine
 10
2.362204724409448
 20
6.400590551181101
 30
0.0
 11
2.371062992125984
 21
6.382874015748031
 31
0.0
  0
LINE
  5
4175
330
1E
100
AcDbEntity
  8
7
100
AcDbLine
 10
2.371062992125984
 20
6.382874015748031
 30
0.0
 11
2.386811023622047
 21
6.372047244094487
 31
0.0
  0
LINE
  5
4176
330
1E
100
AcDbEntity
  8
7
100
AcDbLine
 10
2.386811023622047
 20
6.372047244094487
 30
0.0
 11
2.406496062992125
 21
6.372047244094487
 31
0.0
  0
LINE
  5
4177
330
1E
100
AcDbEntity
  8
7
100
AcDbLine
 10
2.406496062992125
 20
6.372047244094487
 30
0.0
 11
2.422244094488188
 21
6.382874015748031
 31
0.0
  0
LINE
  5
4178
330
1E
100
AcDbEntity
  8
7
100
AcDbLine
 10
2.422244094488188
 20
6.382874015748031
 30
0.0
 11
2.431102362204724
 21
6.400590551181101
 31
0.0
  0
LINE
  5
4179
330
1E
100
AcDbEntity
  8
7
100
AcDbLine
 10
2.417322834645669
 20
6.444881889763779
 30
0.0
 11
2.396653543307086
 21
6.449803149606299
 31
0.0
  0
LINE
  5
417A
330
1E
100
AcDbEntity
  8
7
100
AcDbLine
 10
2.396653543307086
 20
6.449803149606299
 30
0.0
 11
2.375984251968503
 21
6.444881889763779
 31
0.0
  0
LINE
  5
417B
330
1E
100
AcDbEntity
  8
7
100
AcDbLine
 10
2.375984251968503
 20
6.444881889763779
 30
0.0
 11
2.36023622047244
 21
6.43011811023622
 31
0.0
  0
LINE
  5
417C
330
1E
100
AcDbEntity
  8
7
100
AcDbLine
 10
2.36023622047244
 20
6.43011811023622
 30
0.0
 11
2.352362204724409
 21
6.410433070866141
 31
0.0
  0
LINE
  5
417D
330
1E
100
AcDbEntity
  8
7
100
AcDbLine
 10
2.440944881889763
 20
6.410433070866141
 30
0.0
 11
2.433070866141732
 21
6.43011811023622
 31
0.0
  0
LINE
  5
417E
330
1E
100
AcDbEntity
  8
7
100
AcDbLine
 10
2.433070866141732
 20
6.43011811023622
 30
0.0
 11
2.417322834645669
 21
6.444881889763779
 31
0.0
  0
LINE
  5
417F
330
1E
100
AcDbEntity
  8
7
100
AcDbLine
 10
2.431102362204724
 20
6.410433070866141
 30
0.0
 11
2.432086614173228
 21
6.410433070866141
 31
0.0
  0
LINE
  5
4180
330
1E
100
AcDbEntity
  8
7
100
AcDbLine
 10
2.432086614173228
 20
6.410433070866141
 30
0.0
 11
2.43503937007874
 21
6.410433070866141
 31
0.0
  0
LINE
  5
4181
330
1E
100
AcDbEntity
  8
7
100
AcDbLine
 10
2.43503937007874
 20
6.410433070866141
 30
0.0
 11
2.437992125984251
 21
6.410433070866141
 31
0.0
  0
LINE
  5
4182
330
1E
100
AcDbEntity
  8
7
100
AcDbLine
 10
2.437992125984251
 20
6.410433070866141
 30
0.0
 11
2.439960629921259
 21
6.410433070866141
 31
0.0
  0
LINE
  5
4183
330
1E
100
AcDbEntity
  8
7
100
AcDbLine
 10
2.439960629921259
 20
6.410433070866141
 30
0.0
 11
2.440944881889763
 21
6.410433070866141
 31
0.0
  0
LINE
  5
4184
330
1E
100
AcDbEntity
  8
7
100
AcDbLine
 10
2.422244094488188
 20
6.428149606299212
 30
0.0
 11
2.406496062992125
 21
6.438976377952755
 31
0.0
  0
LINE
  5
4185
330
1E
100
AcDbEntity
  8
7
100
AcDbLine
 10
2.406496062992125
 20
6.438976377952755
 30
0.0
 11
2.386811023622047
 21
6.438976377952755
 31
0.0
  0
LINE
  5
4186
330
1E
100
AcDbEntity
  8
7
100
AcDbLine
 10
2.386811023622047
 20
6.438976377952755
 30
0.0
 11
2.371062992125984
 21
6.428149606299212
 31
0.0
  0
LINE
  5
4187
330
1E
100
AcDbEntity
  8
7
100
AcDbLine
 10
2.371062992125984
 20
6.428149606299212
 30
0.0
 11
2.362204724409448
 21
6.410433070866141
 31
0.0
  0
LINE
  5
4188
330
1E
100
AcDbEntity
  8
7
100
AcDbLine
 10
2.362204724409448
 20
6.400590551181101
 30
0.0
 11
2.359251968503937
 21
6.400590551181101
 31
0.0
  0
LINE
  5
4189
330
1E
100
AcDbEntity
  8
7
100
AcDbLine
 10
2.359251968503937
 20
6.400590551181101
 30
0.0
 11
2.356299212598425
 21
6.400590551181101
 31
0.0
  0
LINE
  5
418A
330
1E
100
AcDbEntity
  8
7
100
AcDbLine
 10
2.356299212598425
 20
6.400590551181101
 30
0.0
 11
2.353346456692913
 21
6.400590551181101
 31
0.0
  0
LINE
  5
418B
330
1E
100
AcDbEntity
  8
7
100
AcDbLine
 10
2.353346456692913
 20
6.400590551181101
 30
0.0
 11
2.352362204724409
 21
6.400590551181101
 31
0.0
  0
LINE
  5
418C
330
1E
100
AcDbEntity
  8
7
100
AcDbLine
 10
2.352362204724409
 20
6.410433070866141
 30
0.0
 11
2.354330708661417
 21
6.410433070866141
 31
0.0
  0
LINE
  5
418D
330
1E
100
AcDbEntity
  8
7
100
AcDbLine
 10
2.354330708661417
 20
6.410433070866141
 30
0.0
 11
2.357283464566929
 21
6.410433070866141
 31
0.0
  0
LINE
  5
418E
330
1E
100
AcDbEntity
  8
7
100
AcDbLine
 10
2.357283464566929
 20
6.410433070866141
 30
0.0
 11
2.36023622047244
 21
6.410433070866141
 31
0.0
  0
LINE
  5
418F
330
1E
100
AcDbEntity
  8
7
100
AcDbLine
 10
2.36023622047244
 20
6.410433070866141
 30
0.0
 11
2.362204724409448
 21
6.410433070866141
 31
0.0
  0
LINE
  5
4190
330
1E
100
AcDbEntity
  8
7
100
AcDbLine
 10
2.439960629921259
 20
6.25
 30
0.0
 11
2.437007874015748
 21
6.25
 31
0.0
  0
LINE
  5
4191
330
1E
100
AcDbEntity
  8
7
100
AcDbLine
 10
2.437007874015748
 20
6.25
 30
0.0
 11
2.434055118110236
 21
6.25
 31
0.0
  0
LINE
  5
4192
330
1E
100
AcDbEntity
  8
7
100
AcDbLine
 10
2.434055118110236
 20
6.25
 30
0.0
 11
2.431102362204724
 21
6.25
 31
0.0
  0
LINE
  5
4193
330
1E
100
AcDbEntity
  8
7
100
AcDbLine
 10
2.440944881889763
 20
6.25
 30
0.0
 11
2.440944881889763
 21
6.254921259842519
 31
0.0
  0
LINE
  5
4194
330
1E
100
AcDbEntity
  8
7
100
AcDbLine
 10
2.440944881889763
 20
6.254921259842519
 30
0.0
 11
2.440944881889763
 21
6.259842519685038
 31
0.0
  0
LINE
  5
4195
330
1E
100
AcDbEntity
  8
7
100
AcDbLine
 10
2.352362204724409
 20
6.259842519685038
 30
0.0
 11
2.352362204724409
 21
6.254921259842519
 31
0.0
  0
LINE
  5
4196
330
1E
100
AcDbEntity
  8
7
100
AcDbLine
 10
2.352362204724409
 20
6.254921259842519
 30
0.0
 11
2.352362204724409
 21
6.25
 31
0.0
  0
LINE
  5
4197
330
1E
100
AcDbEntity
  8
7
100
AcDbLine
 10
2.375984251968503
 20
6.215551181102362
 30
0.0
 11
2.396653543307086
 21
6.210629921259842
 31
0.0
  0
LINE
  5
4198
330
1E
100
AcDbEntity
  8
7
100
AcDbLine
 10
2.396653543307086
 20
6.210629921259842
 30
0.0
 11
2.417322834645669
 21
6.215551181102362
 31
0.0
  0
LINE
  5
4199
330
1E
100
AcDbEntity
  8
7
100
AcDbLine
 10
2.417322834645669
 20
6.215551181102362
 30
0.0
 11
2.433070866141732
 21
6.230314960629921
 31
0.0
  0
LINE
  5
419A
330
1E
100
AcDbEntity
  8
7
100
AcDbLine
 10
2.433070866141732
 20
6.230314960629921
 30
0.0
 11
2.440944881889763
 21
6.25
 31
0.0
  0
LINE
  5
419B
330
1E
100
AcDbEntity
  8
7
100
AcDbLine
 10
2.352362204724409
 20
6.25
 30
0.0
 11
2.36023622047244
 21
6.230314960629921
 31
0.0
  0
LINE
  5
419C
330
1E
100
AcDbEntity
  8
7
100
AcDbLine
 10
2.36023622047244
 20
6.230314960629921
 30
0.0
 11
2.375984251968503
 21
6.215551181102362
 31
0.0
  0
LINE
  5
419D
330
1E
100
AcDbEntity
  8
7
100
AcDbLine
 10
2.406496062992125
 20
6.221456692913386
 30
0.0
 11
2.422244094488188
 21
6.232283464566928
 31
0.0
  0
LINE
  5
419E
330
1E
100
AcDbEntity
  8
7
100
AcDbLine
 10
2.422244094488188
 20
6.232283464566928
 30
0.0
 11
2.431102362204724
 21
6.25
 31
0.0
  0
LINE
  5
419F
330
1E
100
AcDbEntity
  8
7
100
AcDbLine
 10
2.362204724409448
 20
6.25
 30
0.0
 11
2.371062992125984
 21
6.232283464566928
 31
0.0
  0
LINE
  5
41A0
330
1E
100
AcDbEntity
  8
7
100
AcDbLine
 10
2.371062992125984
 20
6.232283464566928
 30
0.0
 11
2.386811023622047
 21
6.221456692913386
 31
0.0
  0
LINE
  5
41A1
330
1E
100
AcDbEntity
  8
7
100
AcDbLine
 10
2.386811023622047
 20
6.221456692913386
 30
0.0
 11
2.406496062992125
 21
6.221456692913386
 31
0.0
  0
LINE
  5
41A2
330
1E
100
AcDbEntity
  8
7
100
AcDbLine
 10
2.440944881889763
 20
6.259842519685038
 30
0.0
 11
2.433070866141732
 21
6.279527559055117
 31
0.0
  0
LINE
  5
41A3
330
1E
100
AcDbEntity
  8
7
100
AcDbLine
 10
2.433070866141732
 20
6.279527559055117
 30
0.0
 11
2.417322834645669
 21
6.294291338582676
 31
0.0
  0
LINE
  5
41A4
330
1E
100
AcDbEntity
  8
7
100
AcDbLine
 10
2.417322834645669
 20
6.294291338582676
 30
0.0
 11
2.396653543307086
 21
6.299212598425196
 31
0.0
  0
LINE
  5
41A5
330
1E
100
AcDbEntity
  8
7
100
AcDbLine
 10
2.396653543307086
 20
6.299212598425196
 30
0.0
 11
2.375984251968503
 21
6.294291338582676
 31
0.0
  0
LINE
  5
41A6
330
1E
100
AcDbEntity
  8
7
100
AcDbLine
 10
2.375984251968503
 20
6.294291338582676
 30
0.0
 11
2.36023622047244
 21
6.279527559055117
 31
0.0
  0
LINE
  5
41A7
330
1E
100
AcDbEntity
  8
7
100
AcDbLine
 10
2.36023622047244
 20
6.279527559055117
 30
0.0
 11
2.352362204724409
 21
6.259842519685038
 31
0.0
  0
LINE
  5
41A8
330
1E
100
AcDbEntity
  8
7
100
AcDbLine
 10
2.431102362204724
 20
6.259842519685038
 30
0.0
 11
2.432086614173228
 21
6.259842519685038
 31
0.0
  0
LINE
  5
41A9
330
1E
100
AcDbEntity
  8
7
100
AcDbLine
 10
2.432086614173228
 20
6.259842519685038
 30
0.0
 11
2.43503937007874
 21
6.259842519685038
 31
0.0
  0
LINE
  5
41AA
330
1E
100
AcDbEntity
  8
7
100
AcDbLine
 10
2.43503937007874
 20
6.259842519685038
 30
0.0
 11
2.437992125984251
 21
6.259842519685038
 31
0.0
  0
LINE
  5
41AB
330
1E
100
AcDbEntity
  8
7
100
AcDbLine
 10
2.437992125984251
 20
6.259842519685038
 30
0.0
 11
2.439960629921259
 21
6.259842519685038
 31
0.0
  0
LINE
  5
41AC
330
1E
100
AcDbEntity
  8
7
100
AcDbLine
 10
2.439960629921259
 20
6.259842519685038
 30
0.0
 11
2.440944881889763
 21
6.259842519685038
 31
0.0
  0
LINE
  5
41AD
330
1E
100
AcDbEntity
  8
7
100
AcDbLine
 10
2.431102362204724
 20
6.259842519685038
 30
0.0
 11
2.422244094488188
 21
6.27755905511811
 31
0.0
  0
LINE
  5
41AE
330
1E
100
AcDbEntity
  8
7
100
AcDbLine
 10
2.422244094488188
 20
6.27755905511811
 30
0.0
 11
2.406496062992125
 21
6.288385826771653
 31
0.0
  0
LINE
  5
41AF
330
1E
100
AcDbEntity
  8
7
100
AcDbLine
 10
2.406496062992125
 20
6.288385826771653
 30
0.0
 11
2.386811023622047
 21
6.288385826771653
 31
0.0
  0
LINE
  5
41B0
330
1E
100
AcDbEntity
  8
7
100
AcDbLine
 10
2.386811023622047
 20
6.288385826771653
 30
0.0
 11
2.371062992125984
 21
6.27755905511811
 31
0.0
  0
LINE
  5
41B1
330
1E
100
AcDbEntity
  8
7
100
AcDbLine
 10
2.371062992125984
 20
6.27755905511811
 30
0.0
 11
2.362204724409448
 21
6.259842519685038
 31
0.0
  0
LINE
  5
41B2
330
1E
100
AcDbEntity
  8
7
100
AcDbLine
 10
2.359251968503937
 20
6.25
 30
0.0
 11
2.356299212598425
 21
6.25
 31
0.0
  0
LINE
  5
41B3
330
1E
100
AcDbEntity
  8
7
100
AcDbLine
 10
2.356299212598425
 20
6.25
 30
0.0
 11
2.353346456692913
 21
6.25
 31
0.0
  0
LINE
  5
41B4
330
1E
100
AcDbEntity
  8
7
100
AcDbLine
 10
2.353346456692913
 20
6.25
 30
0.0
 11
2.352362204724409
 21
6.25
 31
0.0
  0
LINE
  5
41B5
330
1E
100
AcDbEntity
  8
7
100
AcDbLine
 10
2.352362204724409
 20
6.259842519685038
 30
0.0
 11
2.354330708661417
 21
6.259842519685038
 31
0.0
  0
LINE
  5
41B6
330
1E
100
AcDbEntity
  8
7
100
AcDbLine
 10
2.354330708661417
 20
6.259842519685038
 30
0.0
 11
2.357283464566929
 21
6.259842519685038
 31
0.0
  0
LINE
  5
41B7
330
1E
100
AcDbEntity
  8
7
100
AcDbLine
 10
2.357283464566929
 20
6.259842519685038
 30
0.0
 11
2.36023622047244
 21
6.259842519685038
 31
0.0
  0
LINE
  5
41B8
330
1E
100
AcDbEntity
  8
7
100
AcDbLine
 10
2.36023622047244
 20
6.259842519685038
 30
0.0
 11
2.362204724409448
 21
6.259842519685038
 31
0.0
  0
LINE
  5
41B9
330
1E
100
AcDbEntity
  8
7
100
AcDbLine
 10
2.596456692913385
 20
6.654527559055117
 30
0.0
 11
2.596456692913385
 21
6.653543307086613
 31
0.0
  0
LINE
  5
41BA
330
1E
100
AcDbEntity
  8
7
100
AcDbLine
 10
2.596456692913385
 20
6.653543307086613
 30
0.0
 11
2.596456692913385
 21
6.650590551181101
 31
0.0
  0
LINE
  5
41BB
330
1E
100
AcDbEntity
  8
7
100
AcDbLine
 10
2.596456692913385
 20
6.650590551181101
 30
0.0
 11
2.596456692913385
 21
6.64763779527559
 31
0.0
  0
LINE
  5
41BC
330
1E
100
AcDbEntity
  8
7
100
AcDbLine
 10
2.596456692913385
 20
6.64763779527559
 30
0.0
 11
2.596456692913385
 21
6.644685039370078
 31
0.0
  0
LINE
  5
41BD
330
1E
100
AcDbEntity
  8
7
100
AcDbLine
 10
2.596456692913385
 20
6.565944881889763
 30
0.0
 11
2.601377952755905
 21
6.565944881889763
 31
0.0
  0
LINE
  5
41BE
330
1E
100
AcDbEntity
  8
7
100
AcDbLine
 10
2.601377952755905
 20
6.565944881889763
 30
0.0
 11
2.606299212598425
 21
6.565944881889763
 31
0.0
  0
LINE
  5
41BF
330
1E
100
AcDbEntity
  8
7
100
AcDbLine
 10
2.606299212598425
 20
6.654527559055117
 30
0.0
 11
2.601377952755905
 21
6.654527559055117
 31
0.0
  0
LINE
  5
41C0
330
1E
100
AcDbEntity
  8
7
100
AcDbLine
 10
2.601377952755905
 20
6.654527559055117
 30
0.0
 11
2.596456692913385
 21
6.654527559055117
 31
0.0
  0
LINE
  5
41C1
330
1E
100
AcDbEntity
  8
7
100
AcDbLine
 10
2.596456692913385
 20
6.654527559055117
 30
0.0
 11
2.576771653543306
 21
6.646653543307086
 31
0.0
  0
LINE
  5
41C2
330
1E
100
AcDbEntity
  8
7
100
AcDbLine
 10
2.576771653543306
 20
6.646653543307086
 30
0.0
 11
2.562007874015748
 21
6.630905511811023
 31
0.0
  0
LINE
  5
41C3
330
1E
100
AcDbEntity
  8
7
100
AcDbLine
 10
2.562007874015748
 20
6.630905511811023
 30
0.0
 11
2.557086614173228
 21
6.61023622047244
 31
0.0
  0
LINE
  5
41C4
330
1E
100
AcDbEntity
  8
7
100
AcDbLine
 10
2.557086614173228
 20
6.61023622047244
 30
0.0
 11
2.562007874015748
 21
6.589566929133858
 31
0.0
  0
LINE
  5
41C5
330
1E
100
AcDbEntity
  8
7
100
AcDbLine
 10
2.562007874015748
 20
6.589566929133858
 30
0.0
 11
2.576771653543306
 21
6.573818897637795
 31
0.0
  0
LINE
  5
41C6
330
1E
100
AcDbEntity
  8
7
100
AcDbLine
 10
2.576771653543306
 20
6.573818897637795
 30
0.0
 11
2.596456692913385
 21
6.565944881889763
 31
0.0
  0
LINE
  5
41C7
330
1E
100
AcDbEntity
  8
7
100
AcDbLine
 10
2.596456692913385
 20
6.644685039370078
 30
0.0
 11
2.578740157480314
 21
6.635826771653543
 31
0.0
  0
LINE
  5
41C8
330
1E
100
AcDbEntity
  8
7
100
AcDbLine
 10
2.578740157480314
 20
6.635826771653543
 30
0.0
 11
2.567913385826771
 21
6.62007874015748
 31
0.0
  0
LINE
  5
41C9
330
1E
100
AcDbEntity
  8
7
100
AcDbLine
 10
2.567913385826771
 20
6.62007874015748
 30
0.0
 11
2.567913385826771
 21
6.600393700787401
 31
0.0
  0
LINE
  5
41CA
330
1E
100
AcDbEntity
  8
7
100
AcDbLine
 10
2.567913385826771
 20
6.600393700787401
 30
0.0
 11
2.578740157480314
 21
6.584645669291338
 31
0.0
  0
LINE
  5
41CB
330
1E
100
AcDbEntity
  8
7
100
AcDbLine
 10
2.578740157480314
 20
6.584645669291338
 30
0.0
 11
2.596456692913385
 21
6.575787401574802
 31
0.0
  0
LINE
  5
41CC
330
1E
100
AcDbEntity
  8
7
100
AcDbLine
 10
2.606299212598425
 20
6.565944881889763
 30
0.0
 11
2.625984251968503
 21
6.573818897637795
 31
0.0
  0
LINE
  5
41CD
330
1E
100
AcDbEntity
  8
7
100
AcDbLine
 10
2.625984251968503
 20
6.573818897637795
 30
0.0
 11
2.640748031496062
 21
6.589566929133858
 31
0.0
  0
LINE
  5
41CE
330
1E
100
AcDbEntity
  8
7
100
AcDbLine
 10
2.640748031496062
 20
6.589566929133858
 30
0.0
 11
2.645669291338582
 21
6.61023622047244
 31
0.0
  0
LINE
  5
41CF
330
1E
100
AcDbEntity
  8
7
100
AcDbLine
 10
2.645669291338582
 20
6.61023622047244
 30
0.0
 11
2.640748031496062
 21
6.630905511811023
 31
0.0
  0
LINE
  5
41D0
330
1E
100
AcDbEntity
  8
7
100
AcDbLine
 10
2.640748031496062
 20
6.630905511811023
 30
0.0
 11
2.625984251968503
 21
6.646653543307086
 31
0.0
  0
LINE
  5
41D1
330
1E
100
AcDbEntity
  8
7
100
AcDbLine
 10
2.625984251968503
 20
6.646653543307086
 30
0.0
 11
2.606299212598425
 21
6.654527559055117
 31
0.0
  0
LINE
  5
41D2
330
1E
100
AcDbEntity
  8
7
100
AcDbLine
 10
2.606299212598425
 20
6.644685039370078
 30
0.0
 11
2.606299212598425
 21
6.645669291338582
 31
0.0
  0
LINE
  5
41D3
330
1E
100
AcDbEntity
  8
7
100
AcDbLine
 10
2.606299212598425
 20
6.645669291338582
 30
0.0
 11
2.606299212598425
 21
6.648622047244094
 31
0.0
  0
LINE
  5
41D4
330
1E
100
AcDbEntity
  8
7
100
AcDbLine
 10
2.606299212598425
 20
6.648622047244094
 30
0.0
 11
2.606299212598425
 21
6.651574803149606
 31
0.0
  0
LINE
  5
41D5
330
1E
100
AcDbEntity
  8
7
100
AcDbLine
 10
2.606299212598425
 20
6.651574803149606
 30
0.0
 11
2.606299212598425
 21
6.653543307086613
 31
0.0
  0
LINE
  5
41D6
330
1E
100
AcDbEntity
  8
7
100
AcDbLine
 10
2.606299212598425
 20
6.644685039370078
 30
0.0
 11
2.606299212598425
 21
6.61515748031496
 31
0.0
  0
LINE
  5
41D7
330
1E
100
AcDbEntity
  8
7
100
AcDbLine
 10
2.606299212598425
 20
6.61515748031496
 30
0.0
 11
2.626968503937007
 21
6.61515748031496
 31
0.0
  0
LINE
  5
41D8
330
1E
100
AcDbEntity
  8
7
100
AcDbLine
 10
2.626968503937007
 20
6.61515748031496
 30
0.0
 11
2.626968503937007
 21
6.605314960629921
 31
0.0
  0
LINE
  5
41D9
330
1E
100
AcDbEntity
  8
7
100
AcDbLine
 10
2.606299212598425
 20
6.575787401574802
 30
0.0
 11
2.624015748031495
 21
6.584645669291338
 31
0.0
  0
LINE
  5
41DA
330
1E
100
AcDbEntity
  8
7
100
AcDbLine
 10
2.624015748031495
 20
6.584645669291338
 30
0.0
 11
2.634842519685039
 21
6.600393700787401
 31
0.0
  0
LINE
  5
41DB
330
1E
100
AcDbEntity
  8
7
100
AcDbLine
 10
2.634842519685039
 20
6.600393700787401
 30
0.0
 11
2.634842519685039
 21
6.62007874015748
 31
0.0
  0
LINE
  5
41DC
330
1E
100
AcDbEntity
  8
7
100
AcDbLine
 10
2.634842519685039
 20
6.62007874015748
 30
0.0
 11
2.624015748031495
 21
6.635826771653543
 31
0.0
  0
LINE
  5
41DD
330
1E
100
AcDbEntity
  8
7
100
AcDbLine
 10
2.624015748031495
 20
6.635826771653543
 30
0.0
 11
2.606299212598425
 21
6.644685039370078
 31
0.0
  0
LINE
  5
41DE
330
1E
100
AcDbEntity
  8
7
100
AcDbLine
 10
2.596456692913385
 20
6.605314960629921
 30
0.0
 11
2.596456692913385
 21
6.575787401574802
 31
0.0
  0
LINE
  5
41DF
330
1E
100
AcDbEntity
  8
7
100
AcDbLine
 10
2.596456692913385
 20
6.575787401574802
 30
0.0
 11
2.596456692913385
 21
6.572834645669291
 31
0.0
  0
LINE
  5
41E0
330
1E
100
AcDbEntity
  8
7
100
AcDbLine
 10
2.596456692913385
 20
6.572834645669291
 30
0.0
 11
2.596456692913385
 21
6.569881889763779
 31
0.0
  0
LINE
  5
41E1
330
1E
100
AcDbEntity
  8
7
100
AcDbLine
 10
2.596456692913385
 20
6.569881889763779
 30
0.0
 11
2.596456692913385
 21
6.566929133858267
 31
0.0
  0
LINE
  5
41E2
330
1E
100
AcDbEntity
  8
7
100
AcDbLine
 10
2.596456692913385
 20
6.566929133858267
 30
0.0
 11
2.596456692913385
 21
6.565944881889763
 31
0.0
  0
LINE
  5
41E3
330
1E
100
AcDbEntity
  8
7
100
AcDbLine
 10
2.606299212598425
 20
6.565944881889763
 30
0.0
 11
2.606299212598425
 21
6.567913385826771
 31
0.0
  0
LINE
  5
41E4
330
1E
100
AcDbEntity
  8
7
100
AcDbLine
 10
2.606299212598425
 20
6.567913385826771
 30
0.0
 11
2.606299212598425
 21
6.570866141732283
 31
0.0
  0
LINE
  5
41E5
330
1E
100
AcDbEntity
  8
7
100
AcDbLine
 10
2.606299212598425
 20
6.570866141732283
 30
0.0
 11
2.606299212598425
 21
6.573818897637795
 31
0.0
  0
LINE
  5
41E6
330
1E
100
AcDbEntity
  8
7
100
AcDbLine
 10
2.606299212598425
 20
6.573818897637795
 30
0.0
 11
2.606299212598425
 21
6.575787401574802
 31
0.0
  0
LINE
  5
41E7
330
1E
100
AcDbEntity
  8
7
100
AcDbLine
 10
1.918307086614173
 20
6.072834645669291
 30
0.0
 11
1.9251968503937
 21
6.048228346456692
 31
0.0
  0
LINE
  5
41E8
330
1E
100
AcDbEntity
  8
7
100
AcDbLine
 10
1.9251968503937
 20
6.048228346456692
 30
0.0
 11
1.942913385826771
 21
6.030511811023622
 31
0.0
  0
LINE
  5
41E9
330
1E
100
AcDbEntity
  8
7
100
AcDbLine
 10
1.942913385826771
 20
6.030511811023622
 30
0.0
 11
1.96751968503937
 21
6.023622047244094
 31
0.0
  0
LINE
  5
41EA
330
1E
100
AcDbEntity
  8
7
100
AcDbLine
 10
1.96751968503937
 20
6.824803149606299
 30
0.0
 11
1.942913385826771
 21
6.817913385826771
 31
0.0
  0
LINE
  5
41EB
330
1E
100
AcDbEntity
  8
7
100
AcDbLine
 10
1.942913385826771
 20
6.817913385826771
 30
0.0
 11
1.9251968503937
 21
6.8001968503937
 31
0.0
  0
LINE
  5
41EC
330
1E
100
AcDbEntity
  8
7
100
AcDbLine
 10
1.9251968503937
 20
6.8001968503937
 30
0.0
 11
1.918307086614173
 21
6.775590551181101
 31
0.0
  0
LINE
  5
41ED
330
1E
100
AcDbEntity
  8
7
100
AcDbLine
 10
3.134842519685039
 20
6.775590551181101
 30
0.0
 11
3.127952755905511
 21
6.8001968503937
 31
0.0
  0
LINE
  5
41EE
330
1E
100
AcDbEntity
  8
7
100
AcDbLine
 10
3.127952755905511
 20
6.8001968503937
 30
0.0
 11
3.11023622047244
 21
6.817913385826771
 31
0.0
  0
LINE
  5
41EF
330
1E
100
AcDbEntity
  8
7
100
AcDbLine
 10
3.11023622047244
 20
6.817913385826771
 30
0.0
 11
3.085629921259842
 21
6.824803149606299
 31
0.0
  0
LINE
  5
41F0
330
1E
100
AcDbEntity
  8
7
100
AcDbLine
 10
3.085629921259842
 20
6.023622047244094
 30
0.0
 11
3.11023622047244
 21
6.030511811023622
 31
0.0
  0
LINE
  5
41F1
330
1E
100
AcDbEntity
  8
7
100
AcDbLine
 10
3.11023622047244
 20
6.030511811023622
 30
0.0
 11
3.127952755905511
 21
6.048228346456692
 31
0.0
  0
LINE
  5
41F2
330
1E
100
AcDbEntity
  8
7
100
AcDbLine
 10
3.127952755905511
 20
6.048228346456692
 30
0.0
 11
3.134842519685039
 21
6.072834645669291
 31
0.0
  0
LINE
  5
41F3
330
1E
100
AcDbEntity
  8
7
100
AcDbLine
 10
2.98523622047244
 20
6.021653543307086
 30
0.0
 11
2.960629921259842
 21
6.014763779527559
 31
0.0
  0
LINE
  5
41F4
330
1E
100
AcDbEntity
  8
7
100
AcDbLine
 10
2.960629921259842
 20
6.014763779527559
 30
0.0
 11
2.942913385826771
 21
5.997047244094487
 31
0.0
  0
LINE
  5
41F5
330
1E
100
AcDbEntity
  8
7
100
AcDbLine
 10
2.936023622047244
 20
5.84251968503937
 30
0.0
 11
2.942913385826771
 21
5.817913385826771
 31
0.0
  0
LINE
  5
41F6
330
1E
100
AcDbEntity
  8
7
100
AcDbLine
 10
2.942913385826771
 20
5.817913385826771
 30
0.0
 11
2.960629921259842
 21
5.8001968503937
 31
0.0
  0
LINE
  5
41F7
330
1E
100
AcDbEntity
  8
7
100
AcDbLine
 10
2.960629921259842
 20
5.8001968503937
 30
0.0
 11
2.98523622047244
 21
5.793307086614173
 31
0.0
  0
LINE
  5
41F8
330
1E
100
AcDbEntity
  8
7
100
AcDbLine
 10
3.134842519685039
 20
5.743110236220472
 30
0.0
 11
3.127952755905511
 21
5.76771653543307
 31
0.0
  0
LINE
  5
41F9
330
1E
100
AcDbEntity
  8
7
100
AcDbLine
 10
3.127952755905511
 20
5.76771653543307
 30
0.0
 11
3.11023622047244
 21
5.785433070866141
 31
0.0
  0
LINE
  5
41FA
330
1E
100
AcDbEntity
  8
7
100
AcDbLine
 10
3.11023622047244
 20
5.785433070866141
 30
0.0
 11
3.085629921259842
 21
5.792322834645669
 31
0.0
  0
LINE
  5
41FB
330
1E
100
AcDbEntity
  8
7
100
AcDbLine
 10
1.96751968503937
 20
5.792322834645669
 30
0.0
 11
1.942913385826771
 21
5.785433070866141
 31
0.0
  0
LINE
  5
41FC
330
1E
100
AcDbEntity
  8
7
100
AcDbLine
 10
1.942913385826771
 20
5.785433070866141
 30
0.0
 11
1.9251968503937
 21
5.76771653543307
 31
0.0
  0
LINE
  5
41FD
330
1E
100
AcDbEntity
  8
7
100
AcDbLine
 10
1.9251968503937
 20
5.76771653543307
 30
0.0
 11
1.918307086614173
 21
5.743110236220472
 31
0.0
  0
LINE
  5
41FE
330
1E
100
AcDbEntity
  8
7
100
AcDbLine
 10
2.067913385826771
 20
5.793307086614173
 30
0.0
 11
2.092519685039369
 21
5.8001968503937
 31
0.0
  0
LINE
  5
41FF
330
1E
100
AcDbEntity
  8
7
100
AcDbLine
 10
2.092519685039369
 20
5.8001968503937
 30
0.0
 11
2.11023622047244
 21
5.817913385826771
 31
0.0
  0
LINE
  5
4200
330
1E
100
AcDbEntity
  8
7
100
AcDbLine
 10
2.11023622047244
 20
5.817913385826771
 30
0.0
 11
2.117125984251968
 21
5.84251968503937
 31
0.0
  0
LINE
  5
4201
330
1E
100
AcDbEntity
  8
7
100
AcDbLine
 10
2.117125984251968
 20
5.972440944881889
 30
0.0
 11
2.11023622047244
 21
5.997047244094487
 31
0.0
  0
LINE
  5
4202
330
1E
100
AcDbEntity
  8
7
100
AcDbLine
 10
2.11023622047244
 20
5.997047244094487
 30
0.0
 11
2.092519685039369
 21
6.014763779527559
 31
0.0
  0
LINE
  5
4203
330
1E
100
AcDbEntity
  8
7
100
AcDbLine
 10
2.092519685039369
 20
6.014763779527559
 30
0.0
 11
2.067913385826771
 21
6.021653543307086
 31
0.0
  0
LINE
  5
4204
330
1E
100
AcDbEntity
  8
7
100
AcDbLine
 10
2.612204724409448
 20
6.100393700787401
 30
0.0
 11
2.613188976377952
 21
6.100393700787401
 31
0.0
  0
LINE
  5
4205
330
1E
100
AcDbEntity
  8
7
100
AcDbLine
 10
2.613188976377952
 20
6.100393700787401
 30
0.0
 11
2.616141732283464
 21
6.100393700787401
 31
0.0
  0
LINE
  5
4206
330
1E
100
AcDbEntity
  8
7
100
AcDbLine
 10
2.616141732283464
 20
6.100393700787401
 30
0.0
 11
2.619094488188976
 21
6.100393700787401
 31
0.0
  0
LINE
  5
4207
330
1E
100
AcDbEntity
  8
7
100
AcDbLine
 10
2.619094488188976
 20
6.100393700787401
 30
0.0
 11
2.622047244094487
 21
6.100393700787401
 31
0.0
  0
LINE
  5
4208
330
1E
100
AcDbEntity
  8
7
100
AcDbLine
 10
2.700787401574803
 20
6.100393700787401
 30
0.0
 11
2.700787401574803
 21
6.105314960629921
 31
0.0
  0
LINE
  5
4209
330
1E
100
AcDbEntity
  8
7
100
AcDbLine
 10
2.700787401574803
 20
6.105314960629921
 30
0.0
 11
2.700787401574803
 21
6.11023622047244
 31
0.0
  0
LINE
  5
420A
330
1E
100
AcDbEntity
  8
7
100
AcDbLine
 10
2.612204724409448
 20
6.11023622047244
 30
0.0
 11
2.612204724409448
 21
6.105314960629921
 31
0.0
  0
LINE
  5
420B
330
1E
100
AcDbEntity
  8
7
100
AcDbLine
 10
2.612204724409448
 20
6.105314960629921
 30
0.0
 11
2.612204724409448
 21
6.100393700787401
 31
0.0
  0
LINE
  5
420C
330
1E
100
AcDbEntity
  8
7
100
AcDbLine
 10
2.612204724409448
 20
6.100393700787401
 30
0.0
 11
2.62007874015748
 21
6.080708661417323
 31
0.0
  0
LINE
  5
420D
330
1E
100
AcDbEntity
  8
7
100
AcDbLine
 10
2.62007874015748
 20
6.080708661417323
 30
0.0
 11
2.635826771653543
 21
6.065944881889763
 31
0.0
  0
LINE
  5
420E
330
1E
100
AcDbEntity
  8
7
100
AcDbLine
 10
2.635826771653543
 20
6.065944881889763
 30
0.0
 11
2.656496062992125
 21
6.061023622047244
 31
0.0
  0
LINE
  5
420F
330
1E
100
AcDbEntity
  8
7
100
AcDbLine
 10
2.656496062992125
 20
6.061023622047244
 30
0.0
 11
2.677165354330708
 21
6.065944881889763
 31
0.0
  0
LINE
  5
4210
330
1E
100
AcDbEntity
  8
7
100
AcDbLine
 10
2.677165354330708
 20
6.065944881889763
 30
0.0
 11
2.692913385826771
 21
6.080708661417323
 31
0.0
  0
LINE
  5
4211
330
1E
100
AcDbEntity
  8
7
100
AcDbLine
 10
2.692913385826771
 20
6.080708661417323
 30
0.0
 11
2.700787401574803
 21
6.100393700787401
 31
0.0
  0
LINE
  5
4212
330
1E
100
AcDbEntity
  8
7
100
AcDbLine
 10
2.622047244094487
 20
6.100393700787401
 30
0.0
 11
2.630905511811023
 21
6.08267716535433
 31
0.0
  0
LINE
  5
4213
330
1E
100
AcDbEntity
  8
7
100
AcDbLine
 10
2.630905511811023
 20
6.08267716535433
 30
0.0
 11
2.646653543307086
 21
6.071850393700787
 31
0.0
  0
LINE
  5
4214
330
1E
100
AcDbEntity
  8
7
100
AcDbLine
 10
2.646653543307086
 20
6.071850393700787
 30
0.0
 11
2.666338582677165
 21
6.071850393700787
 31
0.0
  0
LINE
  5
4215
330
1E
100
AcDbEntity
  8
7
100
AcDbLine
 10
2.666338582677165
 20
6.071850393700787
 30
0.0
 11
2.682086614173228
 21
6.08267716535433
 31
0.0
  0
LINE
  5
4216
330
1E
100
AcDbEntity
  8
7
100
AcDbLine
 10
2.682086614173228
 20
6.08267716535433
 30
0.0
 11
2.690944881889763
 21
6.100393700787401
 31
0.0
  0
LINE
  5
4217
330
1E
100
AcDbEntity
  8
7
100
AcDbLine
 10
2.700787401574803
 20
6.11023622047244
 30
0.0
 11
2.692913385826771
 21
6.129921259842519
 31
0.0
  0
LINE
  5
4218
330
1E
100
AcDbEntity
  8
7
100
AcDbLine
 10
2.692913385826771
 20
6.129921259842519
 30
0.0
 11
2.677165354330708
 21
6.144685039370078
 31
0.0
  0
LINE
  5
4219
330
1E
100
AcDbEntity
  8
7
100
AcDbLine
 10
2.677165354330708
 20
6.144685039370078
 30
0.0
 11
2.656496062992125
 21
6.149606299212598
 31
0.0
  0
LINE
  5
421A
330
1E
100
AcDbEntity
  8
7
100
AcDbLine
 10
2.656496062992125
 20
6.149606299212598
 30
0.0
 11
2.635826771653543
 21
6.144685039370078
 31
0.0
  0
LINE
  5
421B
330
1E
100
AcDbEntity
  8
7
100
AcDbLine
 10
2.635826771653543
 20
6.144685039370078
 30
0.0
 11
2.62007874015748
 21
6.129921259842519
 31
0.0
  0
LINE
  5
421C
330
1E
100
AcDbEntity
  8
7
100
AcDbLine
 10
2.62007874015748
 20
6.129921259842519
 30
0.0
 11
2.612204724409448
 21
6.11023622047244
 31
0.0
  0
LINE
  5
421D
330
1E
100
AcDbEntity
  8
7
100
AcDbLine
 10
2.61515748031496
 20
6.11023622047244
 30
0.0
 11
2.613188976377952
 21
6.11023622047244
 31
0.0
  0
LINE
  5
421E
330
1E
100
AcDbEntity
  8
7
100
AcDbLine
 10
2.613188976377952
 20
6.11023622047244
 30
0.0
 11
2.612204724409448
 21
6.11023622047244
 31
0.0
  0
LINE
  5
421F
330
1E
100
AcDbEntity
  8
7
100
AcDbLine
 10
2.622047244094487
 20
6.11023622047244
 30
0.0
 11
2.621062992125984
 21
6.11023622047244
 31
0.0
  0
LINE
  5
4220
330
1E
100
AcDbEntity
  8
7
100
AcDbLine
 10
2.621062992125984
 20
6.11023622047244
 30
0.0
 11
2.618110236220472
 21
6.11023622047244
 31
0.0
  0
LINE
  5
4221
330
1E
100
AcDbEntity
  8
7
100
AcDbLine
 10
2.618110236220472
 20
6.11023622047244
 30
0.0
 11
2.61515748031496
 21
6.11023622047244
 31
0.0
  0
LINE
  5
4222
330
1E
100
AcDbEntity
  8
7
100
AcDbLine
 10
2.622047244094487
 20
6.11023622047244
 30
0.0
 11
2.651574803149606
 21
6.11023622047244
 31
0.0
  0
LINE
  5
4223
330
1E
100
AcDbEntity
  8
7
100
AcDbLine
 10
2.651574803149606
 20
6.11023622047244
 30
0.0
 11
2.651574803149606
 21
6.129921259842519
 31
0.0
  0
LINE
  5
4224
330
1E
100
AcDbEntity
  8
7
100
AcDbLine
 10
2.651574803149606
 20
6.129921259842519
 30
0.0
 11
2.661417322834645
 21
6.129921259842519
 31
0.0
  0
LINE
  5
4225
330
1E
100
AcDbEntity
  8
7
100
AcDbLine
 10
2.690944881889763
 20
6.11023622047244
 30
0.0
 11
2.682086614173228
 21
6.127952755905512
 31
0.0
  0
LINE
  5
4226
330
1E
100
AcDbEntity
  8
7
100
AcDbLine
 10
2.682086614173228
 20
6.127952755905512
 30
0.0
 11
2.666338582677165
 21
6.138779527559054
 31
0.0
  0
LINE
  5
4227
330
1E
100
AcDbEntity
  8
7
100
AcDbLine
 10
2.666338582677165
 20
6.138779527559054
 30
0.0
 11
2.646653543307086
 21
6.138779527559054
 31
0.0
  0
LINE
  5
4228
330
1E
100
AcDbEntity
  8
7
100
AcDbLine
 10
2.646653543307086
 20
6.138779527559054
 30
0.0
 11
2.630905511811023
 21
6.127952755905512
 31
0.0
  0
LINE
  5
4229
330
1E
100
AcDbEntity
  8
7
100
AcDbLine
 10
2.630905511811023
 20
6.127952755905512
 30
0.0
 11
2.622047244094487
 21
6.11023622047244
 31
0.0
  0
LINE
  5
422A
330
1E
100
AcDbEntity
  8
7
100
AcDbLine
 10
2.661417322834645
 20
6.100393700787401
 30
0.0
 11
2.690944881889763
 21
6.100393700787401
 31
0.0
  0
LINE
  5
422B
330
1E
100
AcDbEntity
  8
7
100
AcDbLine
 10
2.690944881889763
 20
6.100393700787401
 30
0.0
 11
2.693897637795275
 21
6.100393700787401
 31
0.0
  0
LINE
  5
422C
330
1E
100
AcDbEntity
  8
7
100
AcDbLine
 10
2.693897637795275
 20
6.100393700787401
 30
0.0
 11
2.696850393700787
 21
6.100393700787401
 31
0.0
  0
LINE
  5
422D
330
1E
100
AcDbEntity
  8
7
100
AcDbLine
 10
2.696850393700787
 20
6.100393700787401
 30
0.0
 11
2.699803149606299
 21
6.100393700787401
 31
0.0
  0
LINE
  5
422E
330
1E
100
AcDbEntity
  8
7
100
AcDbLine
 10
2.699803149606299
 20
6.100393700787401
 30
0.0
 11
2.700787401574803
 21
6.100393700787401
 31
0.0
  0
LINE
  5
422F
330
1E
100
AcDbEntity
  8
7
100
AcDbLine
 10
2.700787401574803
 20
6.100393700787401
 30
0.0
 11
2.701771653543306
 21
6.100393700787401
 31
0.0
  0
LINE
  5
4230
330
1E
100
AcDbEntity
  8
7
100
AcDbLine
 10
2.701771653543306
 20
6.11023622047244
 30
0.0
 11
2.700787401574803
 21
6.11023622047244
 31
0.0
  0
LINE
  5
4231
330
1E
100
AcDbEntity
  8
7
100
AcDbLine
 10
2.700787401574803
 20
6.11023622047244
 30
0.0
 11
2.698818897637795
 21
6.11023622047244
 31
0.0
  0
LINE
  5
4232
330
1E
100
AcDbEntity
  8
7
100
AcDbLine
 10
2.698818897637795
 20
6.11023622047244
 30
0.0
 11
2.695866141732283
 21
6.11023622047244
 31
0.0
  0
LINE
  5
4233
330
1E
100
AcDbEntity
  8
7
100
AcDbLine
 10
2.695866141732283
 20
6.11023622047244
 30
0.0
 11
2.692913385826771
 21
6.11023622047244
 31
0.0
  0
LINE
  5
4234
330
1E
100
AcDbEntity
  8
7
100
AcDbLine
 10
2.692913385826771
 20
6.11023622047244
 30
0.0
 11
2.690944881889763
 21
6.11023622047244
 31
0.0
  0
LINE
  5
4235
330
1E
100
AcDbEntity
  8
7
100
AcDbLine
 10
2.852362204724409
 20
5.295275590551181
 30
0.0
 11
2.846456692913385
 21
5.295275590551181
 31
0.0
  0
LINE
  5
4236
330
1E
100
AcDbEntity
  8
7
100
AcDbLine
 10
2.846456692913385
 20
5.295275590551181
 30
0.0
 11
2.831692913385826
 21
5.295275590551181
 31
0.0
  0
LINE
  5
4237
330
1E
100
AcDbEntity
  8
7
100
AcDbLine
 10
2.831692913385826
 20
5.295275590551181
 30
0.0
 11
2.81003937007874
 21
5.295275590551181
 31
0.0
  0
LINE
  5
4238
330
1E
100
AcDbEntity
  8
7
100
AcDbLine
 10
2.81003937007874
 20
5.295275590551181
 30
0.0
 11
2.783464566929133
 21
5.295275590551181
 31
0.0
  0
LINE
  5
4239
330
1E
100
AcDbEntity
  8
7
100
AcDbLine
 10
2.265748031496062
 20
5.295275590551181
 30
0.0
 11
2.239173228346456
 21
5.295275590551181
 31
0.0
  0
LINE
  5
423A
330
1E
100
AcDbEntity
  8
7
100
AcDbLine
 10
2.239173228346456
 20
5.295275590551181
 30
0.0
 11
2.217519685039369
 21
5.295275590551181
 31
0.0
  0
LINE
  5
423B
330
1E
100
AcDbEntity
  8
7
100
AcDbLine
 10
2.217519685039369
 20
5.295275590551181
 30
0.0
 11
2.202755905511811
 21
5.295275590551181
 31
0.0
  0
LINE
  5
423C
330
1E
100
AcDbEntity
  8
7
100
AcDbLine
 10
2.202755905511811
 20
5.295275590551181
 30
0.0
 11
2.196850393700787
 21
5.295275590551181
 31
0.0
  0
LINE
  5
423D
330
1E
100
AcDbEntity
  8
7
100
AcDbLine
 10
2.296259842519685
 20
6.654527559055117
 30
0.0
 11
2.296259842519685
 21
6.653543307086613
 31
0.0
  0
LINE
  5
423E
330
1E
100
AcDbEntity
  8
7
100
AcDbLine
 10
2.296259842519685
 20
6.653543307086613
 30
0.0
 11
2.296259842519685
 21
6.650590551181101
 31
0.0
  0
LINE
  5
423F
330
1E
100
AcDbEntity
  8
7
100
AcDbLine
 10
2.296259842519685
 20
6.650590551181101
 30
0.0
 11
2.296259842519685
 21
6.64763779527559
 31
0.0
  0
LINE
  5
4240
330
1E
100
AcDbEntity
  8
7
100
AcDbLine
 10
2.296259842519685
 20
6.64763779527559
 30
0.0
 11
2.296259842519685
 21
6.644685039370078
 31
0.0
  0
LINE
  5
4241
330
1E
100
AcDbEntity
  8
7
100
AcDbLine
 10
2.296259842519685
 20
6.565944881889763
 30
0.0
 11
2.301181102362204
 21
6.565944881889763
 31
0.0
  0
LINE
  5
4242
330
1E
100
AcDbEntity
  8
7
100
AcDbLine
 10
2.301181102362204
 20
6.565944881889763
 30
0.0
 11
2.306102362204724
 21
6.565944881889763
 31
0.0
  0
LINE
  5
4243
330
1E
100
AcDbEntity
  8
7
100
AcDbLine
 10
2.306102362204724
 20
6.654527559055117
 30
0.0
 11
2.301181102362204
 21
6.654527559055117
 31
0.0
  0
LINE
  5
4244
330
1E
100
AcDbEntity
  8
7
100
AcDbLine
 10
2.301181102362204
 20
6.654527559055117
 30
0.0
 11
2.296259842519685
 21
6.654527559055117
 31
0.0
  0
LINE
  5
4245
330
1E
100
AcDbEntity
  8
7
100
AcDbLine
 10
2.296259842519685
 20
6.654527559055117
 30
0.0
 11
2.276574803149606
 21
6.646653543307086
 31
0.0
  0
LINE
  5
4246
330
1E
100
AcDbEntity
  8
7
100
AcDbLine
 10
2.276574803149606
 20
6.646653543307086
 30
0.0
 11
2.261811023622047
 21
6.630905511811023
 31
0.0
  0
LINE
  5
4247
330
1E
100
AcDbEntity
  8
7
100
AcDbLine
 10
2.261811023622047
 20
6.630905511811023
 30
0.0
 11
2.256889763779527
 21
6.61023622047244
 31
0.0
  0
LINE
  5
4248
330
1E
100
AcDbEntity
  8
7
100
AcDbLine
 10
2.256889763779527
 20
6.61023622047244
 30
0.0
 11
2.261811023622047
 21
6.589566929133858
 31
0.0
  0
LINE
  5
4249
330
1E
100
AcDbEntity
  8
7
100
AcDbLine
 10
2.261811023622047
 20
6.589566929133858
 30
0.0
 11
2.276574803149606
 21
6.573818897637795
 31
0.0
  0
LINE
  5
424A
330
1E
100
AcDbEntity
  8
7
100
AcDbLine
 10
2.276574803149606
 20
6.573818897637795
 30
0.0
 11
2.296259842519685
 21
6.565944881889763
 31
0.0
  0
LINE
  5
424B
330
1E
100
AcDbEntity
  8
7
100
AcDbLine
 10
2.296259842519685
 20
6.644685039370078
 30
0.0
 11
2.278543307086614
 21
6.635826771653543
 31
0.0
  0
LINE
  5
424C
330
1E
100
AcDbEntity
  8
7
100
AcDbLine
 10
2.278543307086614
 20
6.635826771653543
 30
0.0
 11
2.26771653543307
 21
6.62007874015748
 31
0.0
  0
LINE
  5
424D
330
1E
100
AcDbEntity
  8
7
100
AcDbLine
 10
2.26771653543307
 20
6.62007874015748
 30
0.0
 11
2.26771653543307
 21
6.600393700787401
 31
0.0
  0
LINE
  5
424E
330
1E
100
AcDbEntity
  8
7
100
AcDbLine
 10
2.26771653543307
 20
6.600393700787401
 30
0.0
 11
2.278543307086614
 21
6.584645669291338
 31
0.0
  0
LINE
  5
424F
330
1E
100
AcDbEntity
  8
7
100
AcDbLine
 10
2.278543307086614
 20
6.584645669291338
 30
0.0
 11
2.296259842519685
 21
6.575787401574802
 31
0.0
  0
LINE
  5
4250
330
1E
100
AcDbEntity
  8
7
100
AcDbLine
 10
2.306102362204724
 20
6.565944881889763
 30
0.0
 11
2.325787401574803
 21
6.573818897637795
 31
0.0
  0
LINE
  5
4251
330
1E
100
AcDbEntity
  8
7
100
AcDbLine
 10
2.325787401574803
 20
6.573818897637795
 30
0.0
 11
2.340551181102362
 21
6.589566929133858
 31
0.0
  0
LINE
  5
4252
330
1E
100
AcDbEntity
  8
7
100
AcDbLine
 10
2.340551181102362
 20
6.589566929133858
 30
0.0
 11
2.345472440944881
 21
6.61023622047244
 31
0.0
  0
LINE
  5
4253
330
1E
100
AcDbEntity
  8
7
100
AcDbLine
 10
2.345472440944881
 20
6.61023622047244
 30
0.0
 11
2.340551181102362
 21
6.630905511811023
 31
0.0
  0
LINE
  5
4254
330
1E
100
AcDbEntity
  8
7
100
AcDbLine
 10
2.340551181102362
 20
6.630905511811023
 30
0.0
 11
2.325787401574803
 21
6.646653543307086
 31
0.0
  0
LINE
  5
4255
330
1E
100
AcDbEntity
  8
7
100
AcDbLine
 10
2.307086614173228
 20
6.644685039370078
 30
0.0
 11
2.307086614173228
 21
6.645669291338582
 31
0.0
  0
LINE
  5
4256
330
1E
100
AcDbEntity
  8
7
100
AcDbLine
 10
2.307086614173228
 20
6.645669291338582
 30
0.0
 11
2.307086614173228
 21
6.648622047244094
 31
0.0
  0
LINE
  5
4257
330
1E
100
AcDbEntity
  8
7
100
AcDbLine
 10
2.307086614173228
 20
6.648622047244094
 30
0.0
 11
2.307086614173228
 21
6.651574803149606
 31
0.0
  0
LINE
  5
4258
330
1E
100
AcDbEntity
  8
7
100
AcDbLine
 10
2.307086614173228
 20
6.651574803149606
 30
0.0
 11
2.307086614173228
 21
6.653543307086613
 31
0.0
  0
LINE
  5
4259
330
1E
100
AcDbEntity
  8
7
100
AcDbLine
 10
2.307086614173228
 20
6.653543307086613
 30
0.0
 11
2.307086614173228
 21
6.654527559055117
 31
0.0
  0
LINE
  5
425A
330
1E
100
AcDbEntity
  8
7
100
AcDbLine
 10
2.307086614173228
 20
6.644685039370078
 30
0.0
 11
2.307086614173228
 21
6.61515748031496
 31
0.0
  0
LINE
  5
425B
330
1E
100
AcDbEntity
  8
7
100
AcDbLine
 10
2.307086614173228
 20
6.61515748031496
 30
0.0
 11
2.326771653543306
 21
6.61515748031496
 31
0.0
  0
LINE
  5
425C
330
1E
100
AcDbEntity
  8
7
100
AcDbLine
 10
2.326771653543306
 20
6.61515748031496
 30
0.0
 11
2.326771653543306
 21
6.605314960629921
 31
0.0
  0
LINE
  5
425D
330
1E
100
AcDbEntity
  8
7
100
AcDbLine
 10
2.306102362204724
 20
6.575787401574802
 30
0.0
 11
2.323818897637795
 21
6.584645669291338
 31
0.0
  0
LINE
  5
425E
330
1E
100
AcDbEntity
  8
7
100
AcDbLine
 10
2.323818897637795
 20
6.584645669291338
 30
0.0
 11
2.334645669291338
 21
6.600393700787401
 31
0.0
  0
LINE
  5
425F
330
1E
100
AcDbEntity
  8
7
100
AcDbLine
 10
2.334645669291338
 20
6.600393700787401
 30
0.0
 11
2.334645669291338
 21
6.62007874015748
 31
0.0
  0
LINE
  5
4260
330
1E
100
AcDbEntity
  8
7
100
AcDbLine
 10
2.334645669291338
 20
6.62007874015748
 30
0.0
 11
2.323818897637795
 21
6.635826771653543
 31
0.0
  0
LINE
  5
4261
330
1E
100
AcDbEntity
  8
7
100
AcDbLine
 10
2.323818897637795
 20
6.635826771653543
 30
0.0
 11
2.306102362204724
 21
6.644685039370078
 31
0.0
  0
LINE
  5
4262
330
1E
100
AcDbEntity
  8
7
100
AcDbLine
 10
2.296259842519685
 20
6.572834645669291
 30
0.0
 11
2.296259842519685
 21
6.569881889763779
 31
0.0
  0
LINE
  5
4263
330
1E
100
AcDbEntity
  8
7
100
AcDbLine
 10
2.296259842519685
 20
6.569881889763779
 30
0.0
 11
2.296259842519685
 21
6.566929133858267
 31
0.0
  0
LINE
  5
4264
330
1E
100
AcDbEntity
  8
7
100
AcDbLine
 10
2.296259842519685
 20
6.566929133858267
 30
0.0
 11
2.296259842519685
 21
6.565944881889763
 31
0.0
  0
LINE
  5
4265
330
1E
100
AcDbEntity
  8
7
100
AcDbLine
 10
2.296259842519685
 20
6.605314960629921
 30
0.0
 11
2.296259842519685
 21
6.575787401574802
 31
0.0
  0
LINE
  5
4266
330
1E
100
AcDbEntity
  8
7
100
AcDbLine
 10
2.296259842519685
 20
6.575787401574802
 30
0.0
 11
2.296259842519685
 21
6.572834645669291
 31
0.0
  0
LINE
  5
4267
330
1E
100
AcDbEntity
  8
7
100
AcDbLine
 10
2.307086614173228
 20
6.565944881889763
 30
0.0
 11
2.307086614173228
 21
6.567913385826771
 31
0.0
  0
LINE
  5
4268
330
1E
100
AcDbEntity
  8
7
100
AcDbLine
 10
2.307086614173228
 20
6.567913385826771
 30
0.0
 11
2.307086614173228
 21
6.570866141732283
 31
0.0
  0
LINE
  5
4269
330
1E
100
AcDbEntity
  8
7
100
AcDbLine
 10
2.307086614173228
 20
6.570866141732283
 30
0.0
 11
2.307086614173228
 21
6.573818897637795
 31
0.0
  0
LINE
  5
426A
330
1E
100
AcDbEntity
  8
7
100
AcDbLine
 10
2.307086614173228
 20
6.573818897637795
 30
0.0
 11
2.307086614173228
 21
6.575787401574802
 31
0.0
  0
LINE
  5
426B
330
1E
100
AcDbEntity
  8
7
100
AcDbLine
 10
2.440944881889763
 20
6.100393700787401
 30
0.0
 11
2.439960629921259
 21
6.100393700787401
 31
0.0
  0
LINE
  5
426C
330
1E
100
AcDbEntity
  8
7
100
AcDbLine
 10
2.439960629921259
 20
6.100393700787401
 30
0.0
 11
2.437007874015748
 21
6.100393700787401
 31
0.0
  0
LINE
  5
426D
330
1E
100
AcDbEntity
  8
7
100
AcDbLine
 10
2.437007874015748
 20
6.100393700787401
 30
0.0
 11
2.434055118110236
 21
6.100393700787401
 31
0.0
  0
LINE
  5
426E
330
1E
100
AcDbEntity
  8
7
100
AcDbLine
 10
2.434055118110236
 20
6.100393700787401
 30
0.0
 11
2.431102362204724
 21
6.100393700787401
 31
0.0
  0
LINE
  5
426F
330
1E
100
AcDbEntity
  8
7
100
AcDbLine
 10
2.440944881889763
 20
6.100393700787401
 30
0.0
 11
2.440944881889763
 21
6.105314960629921
 31
0.0
  0
LINE
  5
4270
330
1E
100
AcDbEntity
  8
7
100
AcDbLine
 10
2.440944881889763
 20
6.105314960629921
 30
0.0
 11
2.440944881889763
 21
6.11023622047244
 31
0.0
  0
LINE
  5
4271
330
1E
100
AcDbEntity
  8
7
100
AcDbLine
 10
2.352362204724409
 20
6.11023622047244
 30
0.0
 11
2.352362204724409
 21
6.105314960629921
 31
0.0
  0
LINE
  5
4272
330
1E
100
AcDbEntity
  8
7
100
AcDbLine
 10
2.352362204724409
 20
6.105314960629921
 30
0.0
 11
2.352362204724409
 21
6.100393700787401
 31
0.0
  0
LINE
  5
4273
330
1E
100
AcDbEntity
  8
7
100
AcDbLine
 10
2.352362204724409
 20
6.100393700787401
 30
0.0
 11
2.36023622047244
 21
6.080708661417323
 31
0.0
  0
LINE
  5
4274
330
1E
100
AcDbEntity
  8
7
100
AcDbLine
 10
2.36023622047244
 20
6.080708661417323
 30
0.0
 11
2.375984251968503
 21
6.065944881889763
 31
0.0
  0
LINE
  5
4275
330
1E
100
AcDbEntity
  8
7
100
AcDbLine
 10
2.375984251968503
 20
6.065944881889763
 30
0.0
 11
2.396653543307086
 21
6.061023622047244
 31
0.0
  0
LINE
  5
4276
330
1E
100
AcDbEntity
  8
7
100
AcDbLine
 10
2.396653543307086
 20
6.061023622047244
 30
0.0
 11
2.417322834645669
 21
6.065944881889763
 31
0.0
  0
LINE
  5
4277
330
1E
100
AcDbEntity
  8
7
100
AcDbLine
 10
2.417322834645669
 20
6.065944881889763
 30
0.0
 11
2.433070866141732
 21
6.080708661417323
 31
0.0
  0
LINE
  5
4278
330
1E
100
AcDbEntity
  8
7
100
AcDbLine
 10
2.433070866141732
 20
6.080708661417323
 30
0.0
 11
2.440944881889763
 21
6.100393700787401
 31
0.0
  0
LINE
  5
4279
330
1E
100
AcDbEntity
  8
7
100
AcDbLine
 10
2.371062992125984
 20
6.08267716535433
 30
0.0
 11
2.386811023622047
 21
6.071850393700787
 31
0.0
  0
LINE
  5
427A
330
1E
100
AcDbEntity
  8
7
100
AcDbLine
 10
2.386811023622047
 20
6.071850393700787
 30
0.0
 11
2.406496062992125
 21
6.071850393700787
 31
0.0
  0
LINE
  5
427B
330
1E
100
AcDbEntity
  8
7
100
AcDbLine
 10
2.406496062992125
 20
6.071850393700787
 30
0.0
 11
2.422244094488188
 21
6.08267716535433
 31
0.0
  0
LINE
  5
427C
330
1E
100
AcDbEntity
  8
7
100
AcDbLine
 10
2.422244094488188
 20
6.08267716535433
 30
0.0
 11
2.431102362204724
 21
6.100393700787401
 31
0.0
  0
LINE
  5
427D
330
1E
100
AcDbEntity
  8
7
100
AcDbLine
 10
2.440944881889763
 20
6.11023622047244
 30
0.0
 11
2.433070866141732
 21
6.129921259842519
 31
0.0
  0
LINE
  5
427E
330
1E
100
AcDbEntity
  8
7
100
AcDbLine
 10
2.433070866141732
 20
6.129921259842519
 30
0.0
 11
2.417322834645669
 21
6.144685039370078
 31
0.0
  0
LINE
  5
427F
330
1E
100
AcDbEntity
  8
7
100
AcDbLine
 10
2.417322834645669
 20
6.144685039370078
 30
0.0
 11
2.396653543307086
 21
6.149606299212598
 31
0.0
  0
LINE
  5
4280
330
1E
100
AcDbEntity
  8
7
100
AcDbLine
 10
2.396653543307086
 20
6.149606299212598
 30
0.0
 11
2.375984251968503
 21
6.144685039370078
 31
0.0
  0
LINE
  5
4281
330
1E
100
AcDbEntity
  8
7
100
AcDbLine
 10
2.375984251968503
 20
6.144685039370078
 30
0.0
 11
2.36023622047244
 21
6.129921259842519
 31
0.0
  0
LINE
  5
4282
330
1E
100
AcDbEntity
  8
7
100
AcDbLine
 10
2.36023622047244
 20
6.129921259842519
 30
0.0
 11
2.352362204724409
 21
6.11023622047244
 31
0.0
  0
LINE
  5
4283
330
1E
100
AcDbEntity
  8
7
100
AcDbLine
 10
2.431102362204724
 20
6.11023622047244
 30
0.0
 11
2.432086614173228
 21
6.11023622047244
 31
0.0
  0
LINE
  5
4284
330
1E
100
AcDbEntity
  8
7
100
AcDbLine
 10
2.432086614173228
 20
6.11023622047244
 30
0.0
 11
2.43503937007874
 21
6.11023622047244
 31
0.0
  0
LINE
  5
4285
330
1E
100
AcDbEntity
  8
7
100
AcDbLine
 10
2.43503937007874
 20
6.11023622047244
 30
0.0
 11
2.437992125984251
 21
6.11023622047244
 31
0.0
  0
LINE
  5
4286
330
1E
100
AcDbEntity
  8
7
100
AcDbLine
 10
2.437992125984251
 20
6.11023622047244
 30
0.0
 11
2.439960629921259
 21
6.11023622047244
 31
0.0
  0
LINE
  5
4287
330
1E
100
AcDbEntity
  8
7
100
AcDbLine
 10
2.439960629921259
 20
6.11023622047244
 30
0.0
 11
2.440944881889763
 21
6.11023622047244
 31
0.0
  0
LINE
  5
4288
330
1E
100
AcDbEntity
  8
7
100
AcDbLine
 10
2.431102362204724
 20
6.11023622047244
 30
0.0
 11
2.422244094488188
 21
6.127952755905512
 31
0.0
  0
LINE
  5
4289
330
1E
100
AcDbEntity
  8
7
100
AcDbLine
 10
2.422244094488188
 20
6.127952755905512
 30
0.0
 11
2.406496062992125
 21
6.138779527559054
 31
0.0
  0
LINE
  5
428A
330
1E
100
AcDbEntity
  8
7
100
AcDbLine
 10
2.406496062992125
 20
6.138779527559054
 30
0.0
 11
2.386811023622047
 21
6.138779527559054
 31
0.0
  0
LINE
  5
428B
330
1E
100
AcDbEntity
  8
7
100
AcDbLine
 10
2.386811023622047
 20
6.138779527559054
 30
0.0
 11
2.371062992125984
 21
6.127952755905512
 31
0.0
  0
LINE
  5
428C
330
1E
100
AcDbEntity
  8
7
100
AcDbLine
 10
2.371062992125984
 20
6.127952755905512
 30
0.0
 11
2.362204724409448
 21
6.11023622047244
 31
0.0
  0
LINE
  5
428D
330
1E
100
AcDbEntity
  8
7
100
AcDbLine
 10
2.362204724409448
 20
6.100393700787401
 30
0.0
 11
2.359251968503937
 21
6.100393700787401
 31
0.0
  0
LINE
  5
428E
330
1E
100
AcDbEntity
  8
7
100
AcDbLine
 10
2.359251968503937
 20
6.100393700787401
 30
0.0
 11
2.356299212598425
 21
6.100393700787401
 31
0.0
  0
LINE
  5
428F
330
1E
100
AcDbEntity
  8
7
100
AcDbLine
 10
2.356299212598425
 20
6.100393700787401
 30
0.0
 11
2.353346456692913
 21
6.100393700787401
 31
0.0
  0
LINE
  5
4290
330
1E
100
AcDbEntity
  8
7
100
AcDbLine
 10
2.353346456692913
 20
6.100393700787401
 30
0.0
 11
2.352362204724409
 21
6.100393700787401
 31
0.0
  0
LINE
  5
4291
330
1E
100
AcDbEntity
  8
7
100
AcDbLine
 10
2.352362204724409
 20
6.11023622047244
 30
0.0
 11
2.354330708661417
 21
6.11023622047244
 31
0.0
  0
LINE
  5
4292
330
1E
100
AcDbEntity
  8
7
100
AcDbLine
 10
2.354330708661417
 20
6.11023622047244
 30
0.0
 11
2.357283464566929
 21
6.11023622047244
 31
0.0
  0
LINE
  5
4293
330
1E
100
AcDbEntity
  8
7
100
AcDbLine
 10
2.357283464566929
 20
6.11023622047244
 30
0.0
 11
2.36023622047244
 21
6.11023622047244
 31
0.0
  0
LINE
  5
4294
330
1E
100
AcDbEntity
  8
7
100
AcDbLine
 10
2.36023622047244
 20
6.11023622047244
 30
0.0
 11
2.362204724409448
 21
6.11023622047244
 31
0.0
  0
LINE
  5
4295
330
1E
100
AcDbEntity
  8
7
100
AcDbLine
 10
2.612204724409448
 20
6.400590551181101
 30
0.0
 11
2.613188976377952
 21
6.400590551181101
 31
0.0
  0
LINE
  5
4296
330
1E
100
AcDbEntity
  8
7
100
AcDbLine
 10
2.613188976377952
 20
6.400590551181101
 30
0.0
 11
2.616141732283464
 21
6.400590551181101
 31
0.0
  0
LINE
  5
4297
330
1E
100
AcDbEntity
  8
7
100
AcDbLine
 10
2.616141732283464
 20
6.400590551181101
 30
0.0
 11
2.619094488188976
 21
6.400590551181101
 31
0.0
  0
LINE
  5
4298
330
1E
100
AcDbEntity
  8
7
100
AcDbLine
 10
2.619094488188976
 20
6.400590551181101
 30
0.0
 11
2.622047244094487
 21
6.400590551181101
 31
0.0
  0
LINE
  5
4299
330
1E
100
AcDbEntity
  8
7
100
AcDbLine
 10
2.612204724409448
 20
6.410433070866141
 30
0.0
 11
2.612204724409448
 21
6.405511811023622
 31
0.0
  0
LINE
  5
429A
330
1E
100
AcDbEntity
  8
7
100
AcDbLine
 10
2.612204724409448
 20
6.405511811023622
 30
0.0
 11
2.612204724409448
 21
6.400590551181101
 31
0.0
  0
LINE
  5
429B
330
1E
100
AcDbEntity
  8
7
100
AcDbLine
 10
2.612204724409448
 20
6.400590551181101
 30
0.0
 11
2.62007874015748
 21
6.380905511811023
 31
0.0
  0
LINE
  5
429C
330
1E
100
AcDbEntity
  8
7
100
AcDbLine
 10
2.62007874015748
 20
6.380905511811023
 30
0.0
 11
2.635826771653543
 21
6.366141732283464
 31
0.0
  0
LINE
  5
429D
330
1E
100
AcDbEntity
  8
7
100
AcDbLine
 10
2.635826771653543
 20
6.366141732283464
 30
0.0
 11
2.656496062992125
 21
6.361220472440944
 31
0.0
  0
LINE
  5
429E
330
1E
100
AcDbEntity
  8
7
100
AcDbLine
 10
2.656496062992125
 20
6.361220472440944
 30
0.0
 11
2.677165354330708
 21
6.366141732283464
 31
0.0
  0
LINE
  5
429F
330
1E
100
AcDbEntity
  8
7
100
AcDbLine
 10
2.677165354330708
 20
6.366141732283464
 30
0.0
 11
2.692913385826771
 21
6.380905511811023
 31
0.0
  0
LINE
  5
42A0
330
1E
100
AcDbEntity
  8
7
100
AcDbLine
 10
2.692913385826771
 20
6.380905511811023
 30
0.0
 11
2.700787401574803
 21
6.400590551181101
 31
0.0
  0
LINE
  5
42A1
330
1E
100
AcDbEntity
  8
7
100
AcDbLine
 10
2.622047244094487
 20
6.400590551181101
 30
0.0
 11
2.630905511811023
 21
6.382874015748031
 31
0.0
  0
LINE
  5
42A2
330
1E
100
AcDbEntity
  8
7
100
AcDbLine
 10
2.630905511811023
 20
6.382874015748031
 30
0.0
 11
2.646653543307086
 21
6.372047244094487
 31
0.0
  0
LINE
  5
42A3
330
1E
100
AcDbEntity
  8
7
100
AcDbLine
 10
2.646653543307086
 20
6.372047244094487
 30
0.0
 11
2.666338582677165
 21
6.372047244094487
 31
0.0
  0
LINE
  5
42A4
330
1E
100
AcDbEntity
  8
7
100
AcDbLine
 10
2.666338582677165
 20
6.372047244094487
 30
0.0
 11
2.682086614173228
 21
6.382874015748031
 31
0.0
  0
LINE
  5
42A5
330
1E
100
AcDbEntity
  8
7
100
AcDbLine
 10
2.682086614173228
 20
6.382874015748031
 30
0.0
 11
2.690944881889763
 21
6.400590551181101
 31
0.0
  0
LINE
  5
42A6
330
1E
100
AcDbEntity
  8
7
100
AcDbLine
 10
2.700787401574803
 20
6.410433070866141
 30
0.0
 11
2.692913385826771
 21
6.43011811023622
 31
0.0
  0
LINE
  5
42A7
330
1E
100
AcDbEntity
  8
7
100
AcDbLine
 10
2.692913385826771
 20
6.43011811023622
 30
0.0
 11
2.677165354330708
 21
6.444881889763779
 31
0.0
  0
LINE
  5
42A8
330
1E
100
AcDbEntity
  8
7
100
AcDbLine
 10
2.677165354330708
 20
6.444881889763779
 30
0.0
 11
2.656496062992125
 21
6.449803149606299
 31
0.0
  0
LINE
  5
42A9
330
1E
100
AcDbEntity
  8
7
100
AcDbLine
 10
2.656496062992125
 20
6.449803149606299
 30
0.0
 11
2.635826771653543
 21
6.444881889763779
 31
0.0
  0
LINE
  5
42AA
330
1E
100
AcDbEntity
  8
7
100
AcDbLine
 10
2.635826771653543
 20
6.444881889763779
 30
0.0
 11
2.62007874015748
 21
6.43011811023622
 31
0.0
  0
LINE
  5
42AB
330
1E
100
AcDbEntity
  8
7
100
AcDbLine
 10
2.62007874015748
 20
6.43011811023622
 30
0.0
 11
2.612204724409448
 21
6.410433070866141
 31
0.0
  0
LINE
  5
42AC
330
1E
100
AcDbEntity
  8
7
100
AcDbLine
 10
2.621062992125984
 20
6.410433070866141
 30
0.0
 11
2.618110236220472
 21
6.410433070866141
 31
0.0
  0
LINE
  5
42AD
330
1E
100
AcDbEntity
  8
7
100
AcDbLine
 10
2.618110236220472
 20
6.410433070866141
 30
0.0
 11
2.61515748031496
 21
6.410433070866141
 31
0.0
  0
LINE
  5
42AE
330
1E
100
AcDbEntity
  8
7
100
AcDbLine
 10
2.61515748031496
 20
6.410433070866141
 30
0.0
 11
2.613188976377952
 21
6.410433070866141
 31
0.0
  0
LINE
  5
42AF
330
1E
100
AcDbEntity
  8
7
100
AcDbLine
 10
2.613188976377952
 20
6.410433070866141
 30
0.0
 11
2.612204724409448
 21
6.410433070866141
 31
0.0
  0
LINE
  5
42B0
330
1E
100
AcDbEntity
  8
7
100
AcDbLine
 10
2.622047244094487
 20
6.410433070866141
 30
0.0
 11
2.651574803149606
 21
6.410433070866141
 31
0.0
  0
LINE
  5
42B1
330
1E
100
AcDbEntity
  8
7
100
AcDbLine
 10
2.651574803149606
 20
6.410433070866141
 30
0.0
 11
2.651574803149606
 21
6.43011811023622
 31
0.0
  0
LINE
  5
42B2
330
1E
100
AcDbEntity
  8
7
100
AcDbLine
 10
2.651574803149606
 20
6.43011811023622
 30
0.0
 11
2.661417322834645
 21
6.43011811023622
 31
0.0
  0
LINE
  5
42B3
330
1E
100
AcDbEntity
  8
7
100
AcDbLine
 10
2.690944881889763
 20
6.410433070866141
 30
0.0
 11
2.682086614173228
 21
6.428149606299212
 31
0.0
  0
LINE
  5
42B4
330
1E
100
AcDbEntity
  8
7
100
AcDbLine
 10
2.682086614173228
 20
6.428149606299212
 30
0.0
 11
2.666338582677165
 21
6.438976377952755
 31
0.0
  0
LINE
  5
42B5
330
1E
100
AcDbEntity
  8
7
100
AcDbLine
 10
2.666338582677165
 20
6.438976377952755
 30
0.0
 11
2.646653543307086
 21
6.438976377952755
 31
0.0
  0
LINE
  5
42B6
330
1E
100
AcDbEntity
  8
7
100
AcDbLine
 10
2.646653543307086
 20
6.438976377952755
 30
0.0
 11
2.630905511811023
 21
6.428149606299212
 31
0.0
  0
LINE
  5
42B7
330
1E
100
AcDbEntity
  8
7
100
AcDbLine
 10
2.630905511811023
 20
6.428149606299212
 30
0.0
 11
2.622047244094487
 21
6.410433070866141
 31
0.0
  0
LINE
  5
42B8
330
1E
100
AcDbEntity
  8
7
100
AcDbLine
 10
2.661417322834645
 20
6.400590551181101
 30
0.0
 11
2.690944881889763
 21
6.400590551181101
 31
0.0
  0
LINE
  5
42B9
330
1E
100
AcDbEntity
  8
7
100
AcDbLine
 10
2.690944881889763
 20
6.400590551181101
 30
0.0
 11
2.693897637795275
 21
6.400590551181101
 31
0.0
  0
LINE
  5
42BA
330
1E
100
AcDbEntity
  8
7
100
AcDbLine
 10
2.693897637795275
 20
6.400590551181101
 30
0.0
 11
2.696850393700787
 21
6.400590551181101
 31
0.0
  0
LINE
  5
42BB
330
1E
100
AcDbEntity
  8
7
100
AcDbLine
 10
2.696850393700787
 20
6.400590551181101
 30
0.0
 11
2.699803149606299
 21
6.400590551181101
 31
0.0
  0
LINE
  5
42BC
330
1E
100
AcDbEntity
  8
7
100
AcDbLine
 10
2.699803149606299
 20
6.400590551181101
 30
0.0
 11
2.700787401574803
 21
6.400590551181101
 31
0.0
  0
LINE
  5
42BD
330
1E
100
AcDbEntity
  8
7
100
AcDbLine
 10
2.700787401574803
 20
6.400590551181101
 30
0.0
 11
2.701771653543306
 21
6.400590551181101
 31
0.0
  0
LINE
  5
42BE
330
1E
100
AcDbEntity
  8
7
100
AcDbLine
 10
2.701771653543306
 20
6.410433070866141
 30
0.0
 11
2.700787401574803
 21
6.410433070866141
 31
0.0
  0
LINE
  5
42BF
330
1E
100
AcDbEntity
  8
7
100
AcDbLine
 10
2.700787401574803
 20
6.410433070866141
 30
0.0
 11
2.698818897637795
 21
6.410433070866141
 31
0.0
  0
LINE
  5
42C0
330
1E
100
AcDbEntity
  8
7
100
AcDbLine
 10
2.698818897637795
 20
6.410433070866141
 30
0.0
 11
2.695866141732283
 21
6.410433070866141
 31
0.0
  0
LINE
  5
42C1
330
1E
100
AcDbEntity
  8
7
100
AcDbLine
 10
2.695866141732283
 20
6.410433070866141
 30
0.0
 11
2.692913385826771
 21
6.410433070866141
 31
0.0
  0
LINE
  5
42C2
330
1E
100
AcDbEntity
  8
7
100
AcDbLine
 10
2.692913385826771
 20
6.410433070866141
 30
0.0
 11
2.690944881889763
 21
6.410433070866141
 31
0.0
  0
LINE
  5
42C3
330
1E
100
AcDbEntity
  8
7
100
AcDbLine
 10
2.656496062992125
 20
6.459645669291338
 30
0.0
 11
2.635826771653543
 21
6.455708661417323
 31
0.0
  0
LINE
  5
42C4
330
1E
100
AcDbEntity
  8
7
100
AcDbLine
 10
2.635826771653543
 20
6.455708661417323
 30
0.0
 11
2.618110236220472
 21
6.443897637795275
 31
0.0
  0
LINE
  5
42C5
330
1E
100
AcDbEntity
  8
7
100
AcDbLine
 10
2.618110236220472
 20
6.443897637795275
 30
0.0
 11
2.606299212598425
 21
6.426181102362204
 31
0.0
  0
LINE
  5
42C6
330
1E
100
AcDbEntity
  8
7
100
AcDbLine
 10
2.606299212598425
 20
6.426181102362204
 30
0.0
 11
2.602362204724409
 21
6.405511811023622
 31
0.0
  0
LINE
  5
42C7
330
1E
100
AcDbEntity
  8
7
100
AcDbLine
 10
2.602362204724409
 20
6.405511811023622
 30
0.0
 11
2.606299212598425
 21
6.384842519685038
 31
0.0
  0
LINE
  5
42C8
330
1E
100
AcDbEntity
  8
7
100
AcDbLine
 10
2.606299212598425
 20
6.384842519685038
 30
0.0
 11
2.618110236220472
 21
6.367125984251968
 31
0.0
  0
LINE
  5
42C9
330
1E
100
AcDbEntity
  8
7
100
AcDbLine
 10
2.618110236220472
 20
6.367125984251968
 30
0.0
 11
2.635826771653543
 21
6.355314960629921
 31
0.0
  0
LINE
  5
42CA
330
1E
100
AcDbEntity
  8
7
100
AcDbLine
 10
2.635826771653543
 20
6.355314960629921
 30
0.0
 11
2.656496062992125
 21
6.351377952755905
 31
0.0
  0
LINE
  5
42CB
330
1E
100
AcDbEntity
  8
7
100
AcDbLine
 10
2.656496062992125
 20
6.351377952755905
 30
0.0
 11
2.677165354330708
 21
6.355314960629921
 31
0.0
  0
LINE
  5
42CC
330
1E
100
AcDbEntity
  8
7
100
AcDbLine
 10
2.677165354330708
 20
6.355314960629921
 30
0.0
 11
2.694881889763779
 21
6.367125984251968
 31
0.0
  0
LINE
  5
42CD
330
1E
100
AcDbEntity
  8
7
100
AcDbLine
 10
2.694881889763779
 20
6.367125984251968
 30
0.0
 11
2.706692913385826
 21
6.384842519685038
 31
0.0
  0
LINE
  5
42CE
330
1E
100
AcDbEntity
  8
7
100
AcDbLine
 10
2.706692913385826
 20
6.384842519685038
 30
0.0
 11
2.710629921259842
 21
6.405511811023622
 31
0.0
  0
LINE
  5
42CF
330
1E
100
AcDbEntity
  8
7
100
AcDbLine
 10
2.710629921259842
 20
6.405511811023622
 30
0.0
 11
2.706692913385826
 21
6.426181102362204
 31
0.0
  0
LINE
  5
42D0
330
1E
100
AcDbEntity
  8
7
100
AcDbLine
 10
2.706692913385826
 20
6.426181102362204
 30
0.0
 11
2.694881889763779
 21
6.443897637795275
 31
0.0
  0
LINE
  5
42D1
330
1E
100
AcDbEntity
  8
7
100
AcDbLine
 10
2.694881889763779
 20
6.443897637795275
 30
0.0
 11
2.677165354330708
 21
6.455708661417323
 31
0.0
  0
LINE
  5
42D2
330
1E
100
AcDbEntity
  8
7
100
AcDbLine
 10
2.677165354330708
 20
6.455708661417323
 30
0.0
 11
2.656496062992125
 21
6.459645669291338
 31
0.0
  0
LINE
  5
42D3
330
1E
100
AcDbEntity
  8
7
100
AcDbLine
 10
2.602362204724409
 20
6.254921259842519
 30
0.0
 11
2.606299212598425
 21
6.234251968503937
 31
0.0
  0
LINE
  5
42D4
330
1E
100
AcDbEntity
  8
7
100
AcDbLine
 10
2.606299212598425
 20
6.234251968503937
 30
0.0
 11
2.618110236220472
 21
6.216535433070865
 31
0.0
  0
LINE
  5
42D5
330
1E
100
AcDbEntity
  8
7
100
AcDbLine
 10
2.618110236220472
 20
6.216535433070865
 30
0.0
 11
2.635826771653543
 21
6.204724409448818
 31
0.0
  0
LINE
  5
42D6
330
1E
100
AcDbEntity
  8
7
100
AcDbLine
 10
2.635826771653543
 20
6.204724409448818
 30
0.0
 11
2.656496062992125
 21
6.200787401574802
 31
0.0
  0
LINE
  5
42D7
330
1E
100
AcDbEntity
  8
7
100
AcDbLine
 10
2.656496062992125
 20
6.200787401574802
 30
0.0
 11
2.677165354330708
 21
6.204724409448818
 31
0.0
  0
LINE
  5
42D8
330
1E
100
AcDbEntity
  8
7
100
AcDbLine
 10
2.677165354330708
 20
6.204724409448818
 30
0.0
 11
2.694881889763779
 21
6.216535433070865
 31
0.0
  0
LINE
  5
42D9
330
1E
100
AcDbEntity
  8
7
100
AcDbLine
 10
2.694881889763779
 20
6.216535433070865
 30
0.0
 11
2.706692913385826
 21
6.234251968503937
 31
0.0
  0
LINE
  5
42DA
330
1E
100
AcDbEntity
  8
7
100
AcDbLine
 10
2.706692913385826
 20
6.234251968503937
 30
0.0
 11
2.710629921259842
 21
6.254921259842519
 31
0.0
  0
LINE
  5
42DB
330
1E
100
AcDbEntity
  8
7
100
AcDbLine
 10
2.710629921259842
 20
6.254921259842519
 30
0.0
 11
2.706692913385826
 21
6.275590551181101
 31
0.0
  0
LINE
  5
42DC
330
1E
100
AcDbEntity
  8
7
100
AcDbLine
 10
2.706692913385826
 20
6.275590551181101
 30
0.0
 11
2.694881889763779
 21
6.293307086614173
 31
0.0
  0
LINE
  5
42DD
330
1E
100
AcDbEntity
  8
7
100
AcDbLine
 10
2.694881889763779
 20
6.293307086614173
 30
0.0
 11
2.677165354330708
 21
6.30511811023622
 31
0.0
  0
LINE
  5
42DE
330
1E
100
AcDbEntity
  8
7
100
AcDbLine
 10
2.677165354330708
 20
6.30511811023622
 30
0.0
 11
2.656496062992125
 21
6.309055118110236
 31
0.0
  0
LINE
  5
42DF
330
1E
100
AcDbEntity
  8
7
100
AcDbLine
 10
2.656496062992125
 20
6.309055118110236
 30
0.0
 11
2.635826771653543
 21
6.30511811023622
 31
0.0
  0
LINE
  5
42E0
330
1E
100
AcDbEntity
  8
7
100
AcDbLine
 10
2.635826771653543
 20
6.30511811023622
 30
0.0
 11
2.618110236220472
 21
6.293307086614173
 31
0.0
  0
LINE
  5
42E1
330
1E
100
AcDbEntity
  8
7
100
AcDbLine
 10
2.618110236220472
 20
6.293307086614173
 30
0.0
 11
2.606299212598425
 21
6.275590551181101
 31
0.0
  0
LINE
  5
42E2
330
1E
100
AcDbEntity
  8
7
100
AcDbLine
 10
2.606299212598425
 20
6.275590551181101
 30
0.0
 11
2.602362204724409
 21
6.254921259842519
 31
0.0
  0
LINE
  5
42E3
330
1E
100
AcDbEntity
  8
7
100
AcDbLine
 10
2.677165354330708
 20
6.05511811023622
 30
0.0
 11
2.694881889763779
 21
6.066929133858267
 31
0.0
  0
LINE
  5
42E4
330
1E
100
AcDbEntity
  8
7
100
AcDbLine
 10
2.694881889763779
 20
6.066929133858267
 30
0.0
 11
2.706692913385826
 21
6.084645669291338
 31
0.0
  0
LINE
  5
42E5
330
1E
100
AcDbEntity
  8
7
100
AcDbLine
 10
2.706692913385826
 20
6.084645669291338
 30
0.0
 11
2.710629921259842
 21
6.105314960629921
 31
0.0
  0
LINE
  5
42E6
330
1E
100
AcDbEntity
  8
7
100
AcDbLine
 10
2.710629921259842
 20
6.105314960629921
 30
0.0
 11
2.706692913385826
 21
6.125984251968503
 31
0.0
  0
LINE
  5
42E7
330
1E
100
AcDbEntity
  8
7
100
AcDbLine
 10
2.706692913385826
 20
6.125984251968503
 30
0.0
 11
2.694881889763779
 21
6.143700787401574
 31
0.0
  0
LINE
  5
42E8
330
1E
100
AcDbEntity
  8
7
100
AcDbLine
 10
2.694881889763779
 20
6.143700787401574
 30
0.0
 11
2.677165354330708
 21
6.155511811023622
 31
0.0
  0
LINE
  5
42E9
330
1E
100
AcDbEntity
  8
7
100
AcDbLine
 10
2.677165354330708
 20
6.155511811023622
 30
0.0
 11
2.656496062992125
 21
6.159448818897637
 31
0.0
  0
LINE
  5
42EA
330
1E
100
AcDbEntity
  8
7
100
AcDbLine
 10
2.656496062992125
 20
6.159448818897637
 30
0.0
 11
2.635826771653543
 21
6.155511811023622
 31
0.0
  0
LINE
  5
42EB
330
1E
100
AcDbEntity
  8
7
100
AcDbLine
 10
2.635826771653543
 20
6.155511811023622
 30
0.0
 11
2.618110236220472
 21
6.143700787401574
 31
0.0
  0
LINE
  5
42EC
330
1E
100
AcDbEntity
  8
7
100
AcDbLine
 10
2.618110236220472
 20
6.143700787401574
 30
0.0
 11
2.606299212598425
 21
6.125984251968503
 31
0.0
  0
LINE
  5
42ED
330
1E
100
AcDbEntity
  8
7
100
AcDbLine
 10
2.606299212598425
 20
6.125984251968503
 30
0.0
 11
2.602362204724409
 21
6.105314960629921
 31
0.0
  0
LINE
  5
42EE
330
1E
100
AcDbEntity
  8
7
100
AcDbLine
 10
2.602362204724409
 20
6.105314960629921
 30
0.0
 11
2.606299212598425
 21
6.084645669291338
 31
0.0
  0
LINE
  5
42EF
330
1E
100
AcDbEntity
  8
7
100
AcDbLine
 10
2.606299212598425
 20
6.084645669291338
 30
0.0
 11
2.618110236220472
 21
6.066929133858267
 31
0.0
  0
LINE
  5
42F0
330
1E
100
AcDbEntity
  8
7
100
AcDbLine
 10
2.618110236220472
 20
6.066929133858267
 30
0.0
 11
2.635826771653543
 21
6.05511811023622
 31
0.0
  0
LINE
  5
42F1
330
1E
100
AcDbEntity
  8
7
100
AcDbLine
 10
2.635826771653543
 20
6.05511811023622
 30
0.0
 11
2.656496062992125
 21
6.051181102362204
 31
0.0
  0
LINE
  5
42F2
330
1E
100
AcDbEntity
  8
7
100
AcDbLine
 10
2.656496062992125
 20
6.051181102362204
 30
0.0
 11
2.677165354330708
 21
6.05511811023622
 31
0.0
  0
LINE
  5
42F3
330
1E
100
AcDbEntity
  8
7
100
AcDbLine
 10
2.574803149606299
 20
6.030511811023622
 30
0.0
 11
2.574803149606299
 21
6.480314960629921
 31
0.0
  0
LINE
  5
42F4
330
1E
100
AcDbEntity
  8
7
100
AcDbLine
 10
2.574803149606299
 20
6.480314960629921
 30
0.0
 11
2.531496062992125
 21
6.480314960629921
 31
0.0
  0
LINE
  5
42F5
330
1E
100
AcDbEntity
  8
7
100
AcDbLine
 10
2.531496062992125
 20
6.480314960629921
 30
0.0
 11
2.531496062992125
 21
6.030511811023622
 31
0.0
  0
LINE
  5
42F6
330
1E
100
AcDbEntity
  8
7
100
AcDbLine
 10
2.781496062992125
 20
6.480314960629921
 30
0.0
 11
2.739173228346456
 21
6.480314960629921
 31
0.0
  0
LINE
  5
42F7
330
1E
100
AcDbEntity
  8
7
100
AcDbLine
 10
2.739173228346456
 20
6.480314960629921
 30
0.0
 11
2.739173228346456
 21
6.030511811023622
 31
0.0
  0
LINE
  5
42F8
330
1E
100
AcDbEntity
  8
7
100
AcDbLine
 10
2.446850393700787
 20
6.654527559055117
 30
0.0
 11
2.446850393700787
 21
6.653543307086613
 31
0.0
  0
LINE
  5
42F9
330
1E
100
AcDbEntity
  8
7
100
AcDbLine
 10
2.446850393700787
 20
6.653543307086613
 30
0.0
 11
2.446850393700787
 21
6.650590551181101
 31
0.0
  0
LINE
  5
42FA
330
1E
100
AcDbEntity
  8
7
100
AcDbLine
 10
2.446850393700787
 20
6.650590551181101
 30
0.0
 11
2.446850393700787
 21
6.64763779527559
 31
0.0
  0
LINE
  5
42FB
330
1E
100
AcDbEntity
  8
7
100
AcDbLine
 10
2.446850393700787
 20
6.64763779527559
 30
0.0
 11
2.446850393700787
 21
6.644685039370078
 31
0.0
  0
LINE
  5
42FC
330
1E
100
AcDbEntity
  8
7
100
AcDbLine
 10
2.446850393700787
 20
6.565944881889763
 30
0.0
 11
2.451771653543306
 21
6.565944881889763
 31
0.0
  0
LINE
  5
42FD
330
1E
100
AcDbEntity
  8
7
100
AcDbLine
 10
2.451771653543306
 20
6.565944881889763
 30
0.0
 11
2.456692913385826
 21
6.565944881889763
 31
0.0
  0
LINE
  5
42FE
330
1E
100
AcDbEntity
  8
7
100
AcDbLine
 10
2.456692913385826
 20
6.654527559055117
 30
0.0
 11
2.451771653543306
 21
6.654527559055117
 31
0.0
  0
LINE
  5
42FF
330
1E
100
AcDbEntity
  8
7
100
AcDbLine
 10
2.451771653543306
 20
6.654527559055117
 30
0.0
 11
2.446850393700787
 21
6.654527559055117
 31
0.0
  0
LINE
  5
4300
330
1E
100
AcDbEntity
  8
7
100
AcDbLine
 10
2.446850393700787
 20
6.654527559055117
 30
0.0
 11
2.427165354330708
 21
6.646653543307086
 31
0.0
  0
LINE
  5
4301
330
1E
100
AcDbEntity
  8
7
100
AcDbLine
 10
2.427165354330708
 20
6.646653543307086
 30
0.0
 11
2.412401574803149
 21
6.630905511811023
 31
0.0
  0
LINE
  5
4302
330
1E
100
AcDbEntity
  8
7
100
AcDbLine
 10
2.412401574803149
 20
6.630905511811023
 30
0.0
 11
2.40748031496063
 21
6.61023622047244
 31
0.0
  0
LINE
  5
4303
330
1E
100
AcDbEntity
  8
7
100
AcDbLine
 10
2.40748031496063
 20
6.61023622047244
 30
0.0
 11
2.412401574803149
 21
6.589566929133858
 31
0.0
  0
LINE
  5
4304
330
1E
100
AcDbEntity
  8
7
100
AcDbLine
 10
2.412401574803149
 20
6.589566929133858
 30
0.0
 11
2.427165354330708
 21
6.573818897637795
 31
0.0
  0
LINE
  5
4305
330
1E
100
AcDbEntity
  8
7
100
AcDbLine
 10
2.427165354330708
 20
6.573818897637795
 30
0.0
 11
2.446850393700787
 21
6.565944881889763
 31
0.0
  0
LINE
  5
4306
330
1E
100
AcDbEntity
  8
7
100
AcDbLine
 10
2.446850393700787
 20
6.644685039370078
 30
0.0
 11
2.429133858267716
 21
6.635826771653543
 31
0.0
  0
LINE
  5
4307
330
1E
100
AcDbEntity
  8
7
100
AcDbLine
 10
2.429133858267716
 20
6.635826771653543
 30
0.0
 11
2.418307086614173
 21
6.62007874015748
 31
0.0
  0
LINE
  5
4308
330
1E
100
AcDbEntity
  8
7
100
AcDbLine
 10
2.418307086614173
 20
6.62007874015748
 30
0.0
 11
2.418307086614173
 21
6.600393700787401
 31
0.0
  0
LINE
  5
4309
330
1E
100
AcDbEntity
  8
7
100
AcDbLine
 10
2.418307086614173
 20
6.600393700787401
 30
0.0
 11
2.429133858267716
 21
6.584645669291338
 31
0.0
  0
LINE
  5
430A
330
1E
100
AcDbEntity
  8
7
100
AcDbLine
 10
2.429133858267716
 20
6.584645669291338
 30
0.0
 11
2.446850393700787
 21
6.575787401574802
 31
0.0
  0
LINE
  5
430B
330
1E
100
AcDbEntity
  8
7
100
AcDbLine
 10
2.496062992125984
 20
6.61023622047244
 30
0.0
 11
2.491141732283464
 21
6.630905511811023
 31
0.0
  0
LINE
  5
430C
330
1E
100
AcDbEntity
  8
7
100
AcDbLine
 10
2.491141732283464
 20
6.630905511811023
 30
0.0
 11
2.476377952755905
 21
6.646653543307086
 31
0.0
  0
LINE
  5
430D
330
1E
100
AcDbEntity
  8
7
100
AcDbLine
 10
2.476377952755905
 20
6.646653543307086
 30
0.0
 11
2.456692913385826
 21
6.654527559055117
 31
0.0
  0
LINE
  5
430E
330
1E
100
AcDbEntity
  8
7
100
AcDbLine
 10
2.456692913385826
 20
6.565944881889763
 30
0.0
 11
2.476377952755905
 21
6.573818897637795
 31
0.0
  0
LINE
  5
430F
330
1E
100
AcDbEntity
  8
7
100
AcDbLine
 10
2.476377952755905
 20
6.573818897637795
 30
0.0
 11
2.491141732283464
 21
6.589566929133858
 31
0.0
  0
LINE
  5
4310
330
1E
100
AcDbEntity
  8
7
100
AcDbLine
 10
2.491141732283464
 20
6.589566929133858
 30
0.0
 11
2.496062992125984
 21
6.61023622047244
 31
0.0
  0
LINE
  5
4311
330
1E
100
AcDbEntity
  8
7
100
AcDbLine
 10
2.456692913385826
 20
6.644685039370078
 30
0.0
 11
2.456692913385826
 21
6.645669291338582
 31
0.0
  0
LINE
  5
4312
330
1E
100
AcDbEntity
  8
7
100
AcDbLine
 10
2.456692913385826
 20
6.645669291338582
 30
0.0
 11
2.456692913385826
 21
6.648622047244094
 31
0.0
  0
LINE
  5
4313
330
1E
100
AcDbEntity
  8
7
100
AcDbLine
 10
2.456692913385826
 20
6.648622047244094
 30
0.0
 11
2.456692913385826
 21
6.651574803149606
 31
0.0
  0
LINE
  5
4314
330
1E
100
AcDbEntity
  8
7
100
AcDbLine
 10
2.456692913385826
 20
6.651574803149606
 30
0.0
 11
2.456692913385826
 21
6.653543307086613
 31
0.0
  0
LINE
  5
4315
330
1E
100
AcDbEntity
  8
7
100
AcDbLine
 10
2.456692913385826
 20
6.653543307086613
 30
0.0
 11
2.456692913385826
 21
6.654527559055117
 31
0.0
  0
LINE
  5
4316
330
1E
100
AcDbEntity
  8
7
100
AcDbLine
 10
2.456692913385826
 20
6.644685039370078
 30
0.0
 11
2.456692913385826
 21
6.61515748031496
 31
0.0
  0
LINE
  5
4317
330
1E
100
AcDbEntity
  8
7
100
AcDbLine
 10
2.456692913385826
 20
6.61515748031496
 30
0.0
 11
2.476377952755905
 21
6.61515748031496
 31
0.0
  0
LINE
  5
4318
330
1E
100
AcDbEntity
  8
7
100
AcDbLine
 10
2.476377952755905
 20
6.61515748031496
 30
0.0
 11
2.476377952755905
 21
6.605314960629921
 31
0.0
  0
LINE
  5
4319
330
1E
100
AcDbEntity
  8
7
100
AcDbLine
 10
2.456692913385826
 20
6.575787401574802
 30
0.0
 11
2.474409448818897
 21
6.584645669291338
 31
0.0
  0
LINE
  5
431A
330
1E
100
AcDbEntity
  8
7
100
AcDbLine
 10
2.474409448818897
 20
6.584645669291338
 30
0.0
 11
2.48523622047244
 21
6.600393700787401
 31
0.0
  0
LINE
  5
431B
330
1E
100
AcDbEntity
  8
7
100
AcDbLine
 10
2.48523622047244
 20
6.600393700787401
 30
0.0
 11
2.48523622047244
 21
6.62007874015748
 31
0.0
  0
LINE
  5
431C
330
1E
100
AcDbEntity
  8
7
100
AcDbLine
 10
2.48523622047244
 20
6.62007874015748
 30
0.0
 11
2.474409448818897
 21
6.635826771653543
 31
0.0
  0
LINE
  5
431D
330
1E
100
AcDbEntity
  8
7
100
AcDbLine
 10
2.474409448818897
 20
6.635826771653543
 30
0.0
 11
2.456692913385826
 21
6.644685039370078
 31
0.0
  0
LINE
  5
431E
330
1E
100
AcDbEntity
  8
7
100
AcDbLine
 10
2.446850393700787
 20
6.605314960629921
 30
0.0
 11
2.446850393700787
 21
6.575787401574802
 31
0.0
  0
LINE
  5
431F
330
1E
100
AcDbEntity
  8
7
100
AcDbLine
 10
2.446850393700787
 20
6.575787401574802
 30
0.0
 11
2.446850393700787
 21
6.572834645669291
 31
0.0
  0
LINE
  5
4320
330
1E
100
AcDbEntity
  8
7
100
AcDbLine
 10
2.446850393700787
 20
6.572834645669291
 30
0.0
 11
2.446850393700787
 21
6.569881889763779
 31
0.0
  0
LINE
  5
4321
330
1E
100
AcDbEntity
  8
7
100
AcDbLine
 10
2.446850393700787
 20
6.569881889763779
 30
0.0
 11
2.446850393700787
 21
6.566929133858267
 31
0.0
  0
LINE
  5
4322
330
1E
100
AcDbEntity
  8
7
100
AcDbLine
 10
2.446850393700787
 20
6.566929133858267
 30
0.0
 11
2.446850393700787
 21
6.565944881889763
 31
0.0
  0
LINE
  5
4323
330
1E
100
AcDbEntity
  8
7
100
AcDbLine
 10
2.456692913385826
 20
6.565944881889763
 30
0.0
 11
2.456692913385826
 21
6.567913385826771
 31
0.0
  0
LINE
  5
4324
330
1E
100
AcDbEntity
  8
7
100
AcDbLine
 10
2.456692913385826
 20
6.567913385826771
 30
0.0
 11
2.456692913385826
 21
6.570866141732283
 31
0.0
  0
LINE
  5
4325
330
1E
100
AcDbEntity
  8
7
100
AcDbLine
 10
2.456692913385826
 20
6.570866141732283
 30
0.0
 11
2.456692913385826
 21
6.573818897637795
 31
0.0
  0
LINE
  5
4326
330
1E
100
AcDbEntity
  8
7
100
AcDbLine
 10
2.456692913385826
 20
6.573818897637795
 30
0.0
 11
2.456692913385826
 21
6.575787401574802
 31
0.0
  0
LINE
  5
4327
330
1E
100
AcDbEntity
  8
7
100
AcDbLine
 10
1.812992125984251
 20
5.976377952755905
 30
0.0
 11
1.781496062992125
 21
5.976377952755905
 31
0.0
  0
LINE
  5
4328
330
1E
100
AcDbEntity
  8
7
100
AcDbLine
 10
1.781496062992125
 20
5.976377952755905
 30
0.0
 11
1.706692913385826
 21
5.846456692913386
 31
0.0
  0
LINE
  5
4329
330
1E
100
AcDbEntity
  8
7
100
AcDbLine
 10
3.307086614173228
 20
5.826771653543307
 30
0.0
 11
3.342519685039369
 21
5.826771653543307
 31
0.0
  0
LINE
  5
432A
330
1E
100
AcDbEntity
  8
7
100
AcDbLine
 10
3.342519685039369
 20
5.826771653543307
 30
0.0
 11
3.342519685039369
 21
5.846456692913386
 31
0.0
  0
LINE
  5
432B
330
1E
100
AcDbEntity
  8
7
100
AcDbLine
 10
3.295275590551181
 20
5.645669291338582
 30
0.0
 11
3.296259842519685
 21
5.554133858267716
 31
0.0
  0
LINE
  5
432C
330
1E
100
AcDbEntity
  8
7
100
AcDbLine
 10
3.296259842519685
 20
5.554133858267716
 30
0.0
 11
3.306102362204724
 21
5.544291338582676
 31
0.0
  0
LINE
  5
432D
330
1E
100
AcDbEntity
  8
7
100
AcDbLine
 10
1.753937007874015
 20
5.645669291338582
 30
0.0
 11
1.752952755905511
 21
5.554133858267716
 31
0.0
  0
LINE
  5
432E
330
1E
100
AcDbEntity
  8
7
100
AcDbLine
 10
1.752952755905511
 20
5.554133858267716
 30
0.0
 11
1.743110236220472
 21
5.544291338582676
 31
0.0
  0
LINE
  5
432F
330
1E
100
AcDbEntity
  8
7
100
AcDbLine
 10
2.165354330708661
 20
6.269685039370078
 30
0.0
 11
2.165354330708661
 21
6.284448818897637
 31
0.0
  0
LINE
  5
4330
330
1E
100
AcDbEntity
  8
7
100
AcDbLine
 10
2.165354330708661
 20
6.284448818897637
 30
0.0
 11
2.1751968503937
 21
6.290354330708661
 31
0.0
  0
ENDSEC
  0
SECTION
  2
OBJECTS
  0
DICTIONARY
  5
C
330
0
100
AcDbDictionary
  3
ACAD_GROUP
350
D
  3
ACAD_LAYOUT
350
19
  3
ACAD_MLINESTYLE
350
16
  3
ACAD_PLOTSETTINGS
350
18
1001
ACAD
1000
TREAT_AS_HARD
1070
     0
  0
DICTIONARY
  5
5421
330
1E
100
AcDbDictionary
  3
ACAD_LAYOUTSELFREF
350
545A
1001
ACAD
1000
TREAT_AS_HARD
1070
     1
  0
DICTIONARY
  5
5423
330
1A
100
AcDbDictionary
  3
ACAD_LAYOUTSELFREF
350
5459
1001
ACAD
1000
TREAT_AS_HARD
1070
     1
  0
DICTIONARY
  5
D
102
{ACAD_REACTORS
330
C
102
}
330
C
100
AcDbDictionary
1001
ACAD
1000
TREAT_AS_HARD
1070
     0
  0
DICTIONARY
  5
19
102
{ACAD_REACTORS
330
C
102
}
330
C
100
AcDbDictionary
1001
ACAD
1000
TREAT_AS_HARD
1070
     0
  0
DICTIONARY
  5
16
102
{ACAD_REACTORS
330
C
102
}
330
C
100
AcDbDictionary
  3
STANDARD
350
17
1001
ACAD
1000
TREAT_AS_HARD
1070
     0
  0
DICTIONARY
  5
18
102
{ACAD_REACTORS
330
C
102
}
330
C
100
AcDbDictionary
1001
ACAD
1000
TREAT_AS_HARD
1070
     0
  0
XRECORD
  5
545A
102
{ACAD_REACTORS
330
5421
102
}
330
5421
100
AcDbXrecord
340
1E
  0
XRECORD
  5
5459
102
{ACAD_REACTORS
330
5423
102
}
330
5423
100
AcDbXrecord
340
1A
  0
MLINESTYLE
  5
17
102
{ACAD_REACTORS
330
16
102
}
330
16
100
AcDbMlineStyle
  2
STANDARD
 70
     0
  3

 62
   256
 51
90.0
 52
90.0
 71
     2
 49
0.5
 62
   256
  6
BYLAYER
 49
-0.5
 62
   256
  6
BYLAYER
  0
ENDSEC
  0
EOF
