  0
SECTION
  2
HEADER
  9
$ACADVER
  1
AC1012
  9
$DWGCODEPAGE
  3
ANSI_1252
  9
$INSBASE
 10
0.0
 20
0.0
 30
0.0
  9
$EXTMIN
 10
1.901184112184196
 20
3.817474390633257
 30
-0.0000000349181948
  9
$EXTMAX
 10
5.761962911302646
 20
6.840087909065289
 30
0.0000000814935746
  9
$LIMMIN
 10
0.0
 20
0.0
  9
$LIMMAX
 10
12.0
 20
9.0
  9
$ORTHOMODE
 70
     0
  9
$REGENMODE
 70
     1
  9
$FILLMODE
 70
     1
  9
$QTEXTMODE
 70
     0
  9
$MIRRTEXT
 70
     1
  9
$DRAGMODE
 70
     2
  9
$LTSCALE
 40
1.0
  9
$OSMODE
 70
   547
  9
$ATTMODE
 70
     1
  9
$TEXTSIZE
 40
0.2
  9
$TRACEWID
 40
0.05
  9
$TEXTSTYLE
  7
STANDARD
  9
$CLAYER
  8
0
  9
$CELTYPE
  6
BYLAYER
  9
$CECOLOR
 62
   256
  9
$CELTSCALE
 40
1.0
  9
$DELOBJ
 70
     1
  9
$DISPSILH
 70
     0
  9
$DIMSCALE
 40
1.0
  9
$DIMASZ
 40
0.18
  9
$DIMEXO
 40
0.0625
  9
$DIMDLI
 40
0.38
  9
$DIMRND
 40
0.0
  9
$DIMDLE
 40
0.0
  9
$DIMEXE
 40
0.18
  9
$DIMTP
 40
0.0
  9
$DIMTM
 40
0.0
  9
$DIMTXT
 40
0.18
  9
$DIMCEN
 40
0.09
  9
$DIMTSZ
 40
0.0
  9
$DIMTOL
 70
     0
  9
$DIMLIM
 70
     0
  9
$DIMTIH
 70
     1
  9
$DIMTOH
 70
     1
  9
$DIMSE1
 70
     0
  9
$DIMSE2
 70
     0
  9
$DIMTAD
 70
     0
  9
$DIMZIN
 70
     0
  9
$DIMBLK
  1

  9
$DIMASO
 70
     1
  9
$DIMSHO
 70
     1
  9
$DIMPOST
  1

  9
$DIMAPOST
  1

  9
$DIMALT
 70
     0
  9
$DIMALTD
 70
     2
  9
$DIMALTF
 40
25.4
  9
$DIMLFAC
 40
1.0
  9
$DIMTOFL
 70
     0
  9
$DIMTVP
 40
0.0
  9
$DIMTIX
 70
     0
  9
$DIMSOXD
 70
     0
  9
$DIMSAH
 70
     0
  9
$DIMBLK1
  1

  9
$DIMBLK2
  1

  9
$DIMSTYLE
  2
STANDARD
  9
$DIMCLRD
 70
     0
  9
$DIMCLRE
 70
     0
  9
$DIMCLRT
 70
     0
  9
$DIMTFAC
 40
1.0
  9
$DIMGAP
 40
0.09
  9
$DIMJUST
 70
     0
  9
$DIMSD1
 70
     0
  9
$DIMSD2
 70
     0
  9
$DIMTOLJ
 70
     1
  9
$DIMTZIN
 70
     0
  9
$DIMALTZ
 70
     0
  9
$DIMALTTZ
 70
     0
  9
$DIMFIT
 70
     5
  9
$DIMUPT
 70
     0
  9
$DIMUNIT
 70
     2
  9
$DIMDEC
 70
     4
  9
$DIMTDEC
 70
     4
  9
$DIMALTU
 70
     2
  9
$DIMALTTD
 70
     2
  9
$DIMTXSTY
  7
STANDARD
  9
$DIMAUNIT
 70
     0
  9
$LUNITS
 70
     2
  9
$LUPREC
 70
     4
  9
$SKETCHINC
 40
0.1
  9
$FILLETRAD
 40
0.0
  9
$AUNITS
 70
     0
  9
$AUPREC
 70
     0
  9
$MENU
  1
acad
  9
$ELEVATION
 40
0.0
  9
$PELEVATION
 40
0.0
  9
$THICKNESS
 40
0.0
  9
$LIMCHECK
 70
     0
  9
$BLIPMODE
 70
     0
  9
$CHAMFERA
 40
0.0
  9
$CHAMFERB
 40
0.0
  9
$CHAMFERC
 40
0.0
  9
$CHAMFERD
 40
0.0
  9
$SKPOLY
 70
     0
  9
$TDCREATE
 40
2453529.461180555
  9
$TDUPDATE
 40
2453987.410056446
  9
$TDINDWG
 40
0.0006560995
  9
$TDUSRTIMER
 40
0.0006560995
  9
$USRTIMER
 70
     1
  9
$ANGBASE
 50
0.0
  9
$ANGDIR
 70
     0
  9
$PDMODE
 70
     0
  9
$PDSIZE
 40
0.0
  9
$PLINEWID
 40
0.0
  9
$COORDS
 70
     1
  9
$SPLFRAME
 70
     0
  9
$SPLINETYPE
 70
     6
  9
$SPLINESEGS
 70
     8
  9
$ATTDIA
 70
     0
  9
$ATTREQ
 70
     1
  9
$HANDLING
 70
  4097
  9
$HANDSEED
  5
4367
  9
$SURFTAB1
 70
     6
  9
$SURFTAB2
 70
     6
  9
$SURFTYPE
 70
     6
  9
$SURFU
 70
     6
  9
$SURFV
 70
     6
  9
$UCSNAME
  2

  9
$UCSORG
 10
0.0
 20
0.0
 30
0.0
  9
$UCSXDIR
 10
1.0
 20
0.0
 30
0.0
  9
$UCSYDIR
 10
0.0
 20
1.0
 30
0.0
  9
$PUCSNAME
  2

  9
$PUCSORG
 10
0.0
 20
0.0
 30
0.0
  9
$PUCSXDIR
 10
1.0
 20
0.0
 30
0.0
  9
$PUCSYDIR
 10
0.0
 20
1.0
 30
0.0
  9
$USERI1
 70
     0
  9
$USERI2
 70
     0
  9
$USERI3
 70
     0
  9
$USERI4
 70
     0
  9
$USERI5
 70
     0
  9
$USERR1
 40
0.0
  9
$USERR2
 40
0.0
  9
$USERR3
 40
0.0
  9
$USERR4
 40
0.0
  9
$USERR5
 40
0.0
  9
$WORLDVIEW
 70
     1
  9
$SHADEDGE
 70
     3
  9
$SHADEDIF
 70
    70
  9
$TILEMODE
 70
     1
  9
$MAXACTVP
 70
    16
  9
$PINSBASE
 10
0.0
 20
0.0
 30
0.0
  9
$PLIMCHECK
 70
     0
  9
$PEXTMIN
 10
1.000000000000000E+20
 20
1.000000000000000E+20
 30
1.000000000000000E+20
  9
$PEXTMAX
 10
-1.000000000000000E+20
 20
-1.000000000000000E+20
 30
-1.000000000000000E+20
  9
$PLIMMIN
 10
0.0
 20
0.0
  9
$PLIMMAX
 10
12.0
 20
9.0
  9
$UNITMODE
 70
     0
  9
$VISRETAIN
 70
     0
  9
$PLINEGEN
 70
     0
  9
$PSLTSCALE
 70
     1
  9
$TREEDEPTH
 70
  3020
  9
$PICKSTYLE
 70
     1
  9
$CMLSTYLE
  2
STANDARD
  9
$CMLJUST
 70
     0
  9
$CMLSCALE
 40
1.0
  9
$SAVEIMAGES
 70
     1
  0
ENDSEC
  0
SECTION
  2
CLASSES
  0
CLASS
  1
ACDBDICTIONARYWDFLT
  2
AcDbDictionaryWithDefault
  3
AutoCAD 2000
 90
    32768
280
     0
281
     0
  0
CLASS
  1
ACDBPLACEHOLDER
  2
AcDbPlaceHolder
  3
AutoCAD 2000
 90
    32768
280
     0
281
     0
  0
CLASS
  1
LAYOUT
  2
AcDbLayout
  3
AutoCAD 2000
 90
    32768
280
     0
281
     0
  0
CLASS
  1
LONG_TRANSACTION
  2
AcDbLongTransaction
  3
AutoCAD 2000
 90
    32768
280
     0
281
     0
  0
CLASS
  1
LWPOLYLINE
  2
AcDbPolyline
  3
AutoCAD 2000
 90
    32768
280
     0
281
     1
  0
CLASS
  1
HATCH
  2
AcDbHatch
  3
AutoCAD 2000
 90
    32768
280
     0
281
     1
  0
CLASS
  1
XRECORD
  2
AcDbXrecord
  3
AutoCAD 2000
 90
    32768
280
     0
281
     0
  0
CLASS
  1
LONG_TRANSACTION
  2
AcDbLongTransaction
  3
AutoCAD 2000
 90
    32768
280
     0
281
     0
  0
CLASS
  1
LWPOLYLINE
  2
AcDbPolyline
  3
AutoCAD 2000
 90
    32768
280
     0
281
     1
  0
CLASS
  1
HATCH
  2
AcDbHatch
  3
AutoCAD 2000
 90
    32768
280
     0
281
     1
  0
CLASS
  1
XRECORD
  2
AcDbXrecord
  3
AutoCAD 2000
 90
    32768
280
     0
281
     0
  0
ENDSEC
  0
SECTION
  2
TABLES
  0
TABLE
  2
VPORT
  5
8
330
0
100
AcDbSymbolTable
 70
     3
  0
VPORT
  5
4364
330
8
100
AcDbSymbolTableRecord
100
AcDbViewportTableRecord
  2
*ACTIVE
 70
     0
 10
0.0
 20
0.0
 11
1.0
 21
1.0
 12
3.831573511743421
 22
5.328781149849273
 13
0.0
 23
0.0
 14
1.0
 24
1.0
 15
0.0
 25
0.0
 16
0.0
 26
0.0
 36
1.0
 17
0.0
 27
0.0
 37
0.0
 40
3.054044508225085
 41
1.647569444444444
 42
50.0
 43
0.0
 44
0.0
 50
0.0
 51
0.0
 71
     0
 72
   100
 73
     1
 74
     1
 75
     0
 76
     0
 77
     0
 78
     0
  0
ENDTAB
  0
TABLE
  2
LTYPE
  5
5
330
0
100
AcDbSymbolTable
 70
    25
  0
LTYPE
  5
13
330
5
100
AcDbSymbolTableRecord
100
AcDbLinetypeTableRecord
  2
BYBLOCK
 70
     0
  3

 72
    65
 73
     0
 40
0.0
  0
LTYPE
  5
14
330
5
100
AcDbSymbolTableRecord
100
AcDbLinetypeTableRecord
  2
BYLAYER
 70
     0
  3

 72
    65
 73
     0
 40
0.0
  0
LTYPE
  5
15
330
5
100
AcDbSymbolTableRecord
100
AcDbLinetypeTableRecord
  2
CONTINUOUS
 70
     0
  3
Solid line
 72
    65
 73
     0
 40
0.0
  0
LTYPE
  5
22
330
5
100
AcDbSymbolTableRecord
100
AcDbLinetypeTableRecord
  2
BORDER
 70
     0
  3
__ __ . __ __ . __ __ . __ __ . __ __ . __ __ .
 72
    65
 73
     6
 40
1.75
 49
0.5
 74
     0
 49
-0.25
 74
     0
 49
0.5
 74
     0
 49
-0.25
 74
     0
 49
0.5
 74
     0
 49
-0.25
 74
     0
  0
LTYPE
  5
23
330
5
100
AcDbSymbolTableRecord
100
AcDbLinetypeTableRecord
  2
BORDER2
 70
     0
  3
__.__.__.__.__.__.__.__.__.__.__.__.__.__.__.__
 72
    65
 73
     6
 40
0.875
 49
0.25
 74
     0
 49
-0.125
 74
     0
 49
0.25
 74
     0
 49
-0.125
 74
     0
 49
0.25
 74
     0
 49
-0.125
 74
     0
  0
LTYPE
  5
24
330
5
100
AcDbSymbolTableRecord
100
AcDbLinetypeTableRecord
  2
BORDERX2
 70
     0
  3
____  ____  .  ____  ____  .  
 72
    65
 73
     6
 40
3.5
 49
1.0
 74
     0
 49
-0.5
 74
     0
 49
1.0
 74
     0
 49
-0.5
 74
     0
 49
1.0
 74
     0
 49
-0.5
 74
     0
  0
LTYPE
  5
25
330
5
100
AcDbSymbolTableRecord
100
AcDbLinetypeTableRecord
  2
CENTER
 70
     0
  3
____ _ ____ _ ____ _ ____ _ ____ _ ____ _ ____
 72
    65
 73
     4
 40
2.0
 49
1.25
 74
     0
 49
-0.25
 74
     0
 49
0.25
 74
     0
 49
-0.25
 74
     0
  0
LTYPE
  5
26
330
5
100
AcDbSymbolTableRecord
100
AcDbLinetypeTableRecord
  2
CENTER2
 70
     0
  3
____ _ ____ _ ____ _ ____ _ ____ _ ____ _ ____
 72
    65
 73
     4
 40
1.125
 49
0.75
 74
     0
 49
-0.125
 74
     0
 49
0.125
 74
     0
 49
-0.125
 74
     0
  0
LTYPE
  5
27
330
5
100
AcDbSymbolTableRecord
100
AcDbLinetypeTableRecord
  2
CENTERX2
 70
     0
  3
________  __  ________  __  ________  __  
 72
    65
 73
     4
 40
4.0
 49
2.5
 74
     0
 49
-0.5
 74
     0
 49
0.5
 74
     0
 49
-0.5
 74
     0
  0
LTYPE
  5
28
330
5
100
AcDbSymbolTableRecord
100
AcDbLinetypeTableRecord
  2
DASHDOT
 70
     0
  3
__ . __ . __ . __ . __ . __ . __ . 
 72
    65
 73
     4
 40
1.0
 49
0.5
 74
     0
 49
-0.25
 74
     0
 49
0.0
 74
     0
 49
-0.25
 74
     0
  0
LTYPE
  5
29
330
5
100
AcDbSymbolTableRecord
100
AcDbLinetypeTableRecord
  2
DASHDOT2
 70
     0
  3
_._._._._._._._._._._._._._._._.
 72
    65
 73
     4
 40
0.5
 49
0.25
 74
     0
 49
-0.125
 74
     0
 49
0.0
 74
     0
 49
-0.125
 74
     0
  0
LTYPE
  5
2A
330
5
100
AcDbSymbolTableRecord
100
AcDbLinetypeTableRecord
  2
DASHDOTX2
 70
     0
  3
____  .  ____  .  ____  .  ____  .  
 72
    65
 73
     4
 40
2.0
 49
1.0
 74
     0
 49
-0.5
 74
     0
 49
0.0
 74
     0
 49
-0.5
 74
     0
  0
LTYPE
  5
2B
330
5
100
AcDbSymbolTableRecord
100
AcDbLinetypeTableRecord
  2
DASHED
 70
     0
  3
__ __ __ __ __ __ __ __ __ __ __ __ 
 72
    65
 73
     2
 40
0.75
 49
0.5
 74
     0
 49
-0.25
 74
     0
  0
LTYPE
  5
2C
330
5
100
AcDbSymbolTableRecord
100
AcDbLinetypeTableRecord
  2
DASHED2
 70
     0
  3
_ _ _ _ _ _ _ _ _ _ _ _ _ _ _ _ _ _ 
 72
    65
 73
     2
 40
0.375
 49
0.25
 74
     0
 49
-0.125
 74
     0
  0
LTYPE
  5
2D
330
5
100
AcDbSymbolTableRecord
100
AcDbLinetypeTableRecord
  2
DASHEDX2
 70
     0
  3
____  ____  ____  ____  ____  ____  
 72
    65
 73
     2
 40
1.5
 49
1.0
 74
     0
 49
-0.5
 74
     0
  0
LTYPE
  5
2E
330
5
100
AcDbSymbolTableRecord
100
AcDbLinetypeTableRecord
  2
DIVIDE
 70
     0
  3
____ . . ____ . . ____ . . ____ . . 
 72
    65
 73
     6
 40
1.25
 49
0.5
 74
     0
 49
-0.25
 74
     0
 49
0.0
 74
     0
 49
-0.25
 74
     0
 49
0.0
 74
     0
 49
-0.25
 74
     0
  0
LTYPE
  5
2F
330
5
100
AcDbSymbolTableRecord
100
AcDbLinetypeTableRecord
  2
DIVIDE2
 70
     0
  3
__..__..__..__..__..__..__..__..__..
 72
    65
 73
     6
 40
0.625
 49
0.25
 74
     0
 49
-0.125
 74
     0
 49
0.0
 74
     0
 49
-0.125
 74
     0
 49
0.0
 74
     0
 49
-0.125
 74
     0
  0
LTYPE
  5
30
330
5
100
AcDbSymbolTableRecord
100
AcDbLinetypeTableRecord
  2
DIVIDEX2
 70
     0
  3
________  .  .  ________  .  .  ________  .  . 
 72
    65
 73
     6
 40
2.5
 49
1.0
 74
     0
 49
-0.5
 74
     0
 49
0.0
 74
     0
 49
-0.5
 74
     0
 49
0.0
 74
     0
 49
-0.5
 74
     0
  0
LTYPE
  5
31
330
5
100
AcDbSymbolTableRecord
100
AcDbLinetypeTableRecord
  2
DOT
 70
     0
  3
. . . . . . . . . . . . . . . . . . 
 72
    65
 73
     2
 40
0.25
 49
0.0
 74
     0
 49
-0.25
 74
     0
  0
LTYPE
  5
32
330
5
100
AcDbSymbolTableRecord
100
AcDbLinetypeTableRecord
  2
DOT2
 70
     0
  3
....................................
 72
    65
 73
     2
 40
0.125
 49
0.0
 74
     0
 49
-0.125
 74
     0
  0
LTYPE
  5
33
330
5
100
AcDbSymbolTableRecord
100
AcDbLinetypeTableRecord
  2
DOTX2
 70
     0
  3
.  .  .  .  .  .  .  .  .  .  .  .  .  
 72
    65
 73
     2
 40
0.5
 49
0.0
 74
     0
 49
-0.5
 74
     0
  0
LTYPE
  5
34
330
5
100
AcDbSymbolTableRecord
100
AcDbLinetypeTableRecord
  2
HIDDEN
 70
     0
  3
__ __ __ __ __ __ __ __ __ __ __ __ 
 72
    65
 73
     2
 40
0.375
 49
0.25
 74
     0
 49
-0.125
 74
     0
  0
LTYPE
  5
35
330
5
100
AcDbSymbolTableRecord
100
AcDbLinetypeTableRecord
  2
HIDDEN2
 70
     0
  3
_ _ _ _ _ _ _ _ _ _ _ _ _ _ _ _ _ _ 
 72
    65
 73
     2
 40
0.1875
 49
0.125
 74
     0
 49
-0.0625
 74
     0
  0
LTYPE
  5
36
330
5
100
AcDbSymbolTableRecord
100
AcDbLinetypeTableRecord
  2
HIDDENX2
 70
     0
  3
____ ____ ____ ____ ____ ____ ____ 
 72
    65
 73
     2
 40
0.75
 49
0.5
 74
     0
 49
-0.25
 74
     0
  0
LTYPE
  5
37
330
5
100
AcDbSymbolTableRecord
100
AcDbLinetypeTableRecord
  2
PHANTOM
 70
     0
  3
______  __  __  ______  __  __  
 72
    65
 73
     6
 40
2.5
 49
1.25
 74
     0
 49
-0.25
 74
     0
 49
0.25
 74
     0
 49
-0.25
 74
     0
 49
0.25
 74
     0
 49
-0.25
 74
     0
  0
LTYPE
  5
38
330
5
100
AcDbSymbolTableRecord
100
AcDbLinetypeTableRecord
  2
PHANTOM2
 70
     0
  3
___ _ _ ___ _ _ ___ _ _ ___ _ _ 
 72
    65
 73
     6
 40
1.25
 49
0.625
 74
     0
 49
-0.125
 74
     0
 49
0.125
 74
     0
 49
-0.125
 74
     0
 49
0.125
 74
     0
 49
-0.125
 74
     0
  0
LTYPE
  5
39
330
5
100
AcDbSymbolTableRecord
100
AcDbLinetypeTableRecord
  2
PHANTOMX2
 70
     0
  3
___ _ _ ___ _ _ ___ _ _ ___ _ _ 
 72
    65
 73
     6
 40
5.0
 49
2.5
 74
     0
 49
-0.5
 74
     0
 49
0.5
 74
     0
 49
-0.5
 74
     0
 49
0.5
 74
     0
 49
-0.5
 74
     0
  0
ENDTAB
  0
TABLE
  2
LAYER
  5
2
330
0
100
AcDbSymbolTable
 70
   256
  0
LAYER
  5
10
330
2
100
AcDbSymbolTableRecord
100
AcDbLayerTableRecord
  2
0
 70
     0
 62
     7
  6
CONTINUOUS
  0
LAYER
  5
3A
330
2
100
AcDbSymbolTableRecord
100
AcDbLayerTableRecord
  2
1
 70
     0
 62
     1
  6
CONTINUOUS
  0
LAYER
  5
3B
330
2
100
AcDbSymbolTableRecord
100
AcDbLayerTableRecord
  2
2
 70
     0
 62
     2
  6
CONTINUOUS
  0
LAYER
  5
3C
330
2
100
AcDbSymbolTableRecord
100
AcDbLayerTableRecord
  2
3
 70
     0
 62
     3
  6
CONTINUOUS
  0
LAYER
  5
3D
330
2
100
AcDbSymbolTableRecord
100
AcDbLayerTableRecord
  2
4
 70
     0
 62
     4
  6
CONTINUOUS
  0
LAYER
  5
3E
330
2
100
AcDbSymbolTableRecord
100
AcDbLayerTableRecord
  2
5
 70
     0
 62
     5
  6
CONTINUOUS
  0
LAYER
  5
3F
330
2
100
AcDbSymbolTableRecord
100
AcDbLayerTableRecord
  2
6
 70
     0
 62
     6
  6
CONTINUOUS
  0
LAYER
  5
40
330
2
100
AcDbSymbolTableRecord
100
AcDbLayerTableRecord
  2
7
 70
     0
 62
     7
  6
CONTINUOUS
  0
LAYER
  5
41
330
2
100
AcDbSymbolTableRecord
100
AcDbLayerTableRecord
  2
8
 70
     0
 62
     8
  6
CONTINUOUS
  0
LAYER
  5
42
330
2
100
AcDbSymbolTableRecord
100
AcDbLayerTableRecord
  2
9
 70
     0
 62
     9
  6
CONTINUOUS
  0
LAYER
  5
43
330
2
100
AcDbSymbolTableRecord
100
AcDbLayerTableRecord
  2
10
 70
     0
 62
    10
  6
CONTINUOUS
  0
LAYER
  5
44
330
2
100
AcDbSymbolTableRecord
100
AcDbLayerTableRecord
  2
11
 70
     0
 62
    11
  6
CONTINUOUS
  0
LAYER
  5
45
330
2
100
AcDbSymbolTableRecord
100
AcDbLayerTableRecord
  2
12
 70
     0
 62
    12
  6
CONTINUOUS
  0
LAYER
  5
46
330
2
100
AcDbSymbolTableRecord
100
AcDbLayerTableRecord
  2
13
 70
     0
 62
    13
  6
CONTINUOUS
  0
LAYER
  5
47
330
2
100
AcDbSymbolTableRecord
100
AcDbLayerTableRecord
  2
14
 70
     0
 62
    14
  6
CONTINUOUS
  0
LAYER
  5
48
330
2
100
AcDbSymbolTableRecord
100
AcDbLayerTableRecord
  2
15
 70
     0
 62
    15
  6
CONTINUOUS
  0
LAYER
  5
49
330
2
100
AcDbSymbolTableRecord
100
AcDbLayerTableRecord
  2
16
 70
     0
 62
    16
  6
CONTINUOUS
  0
LAYER
  5
4A
330
2
100
AcDbSymbolTableRecord
100
AcDbLayerTableRecord
  2
17
 70
     0
 62
    17
  6
CONTINUOUS
  0
LAYER
  5
4B
330
2
100
AcDbSymbolTableRecord
100
AcDbLayerTableRecord
  2
18
 70
     0
 62
    18
  6
CONTINUOUS
  0
LAYER
  5
4C
330
2
100
AcDbSymbolTableRecord
100
AcDbLayerTableRecord
  2
19
 70
     0
 62
    19
  6
CONTINUOUS
  0
LAYER
  5
4D
330
2
100
AcDbSymbolTableRecord
100
AcDbLayerTableRecord
  2
20
 70
     0
 62
    20
  6
CONTINUOUS
  0
LAYER
  5
4E
330
2
100
AcDbSymbolTableRecord
100
AcDbLayerTableRecord
  2
21
 70
     0
 62
    21
  6
CONTINUOUS
  0
LAYER
  5
4F
330
2
100
AcDbSymbolTableRecord
100
AcDbLayerTableRecord
  2
22
 70
     0
 62
    22
  6
CONTINUOUS
  0
LAYER
  5
50
330
2
100
AcDbSymbolTableRecord
100
AcDbLayerTableRecord
  2
23
 70
     0
 62
    23
  6
CONTINUOUS
  0
LAYER
  5
51
330
2
100
AcDbSymbolTableRecord
100
AcDbLayerTableRecord
  2
24
 70
     0
 62
    24
  6
CONTINUOUS
  0
LAYER
  5
52
330
2
100
AcDbSymbolTableRecord
100
AcDbLayerTableRecord
  2
25
 70
     0
 62
    25
  6
CONTINUOUS
  0
LAYER
  5
53
330
2
100
AcDbSymbolTableRecord
100
AcDbLayerTableRecord
  2
26
 70
     0
 62
    26
  6
CONTINUOUS
  0
LAYER
  5
54
330
2
100
AcDbSymbolTableRecord
100
AcDbLayerTableRecord
  2
27
 70
     0
 62
    27
  6
CONTINUOUS
  0
LAYER
  5
55
330
2
100
AcDbSymbolTableRecord
100
AcDbLayerTableRecord
  2
28
 70
     0
 62
    28
  6
CONTINUOUS
  0
LAYER
  5
56
330
2
100
AcDbSymbolTableRecord
100
AcDbLayerTableRecord
  2
29
 70
     0
 62
    29
  6
CONTINUOUS
  0
LAYER
  5
57
330
2
100
AcDbSymbolTableRecord
100
AcDbLayerTableRecord
  2
30
 70
     0
 62
    30
  6
CONTINUOUS
  0
LAYER
  5
58
330
2
100
AcDbSymbolTableRecord
100
AcDbLayerTableRecord
  2
31
 70
     0
 62
    31
  6
CONTINUOUS
  0
LAYER
  5
59
330
2
100
AcDbSymbolTableRecord
100
AcDbLayerTableRecord
  2
32
 70
     0
 62
    32
  6
CONTINUOUS
  0
LAYER
  5
5A
330
2
100
AcDbSymbolTableRecord
100
AcDbLayerTableRecord
  2
33
 70
     0
 62
    33
  6
CONTINUOUS
  0
LAYER
  5
5B
330
2
100
AcDbSymbolTableRecord
100
AcDbLayerTableRecord
  2
34
 70
     0
 62
    34
  6
CONTINUOUS
  0
LAYER
  5
5C
330
2
100
AcDbSymbolTableRecord
100
AcDbLayerTableRecord
  2
35
 70
     0
 62
    35
  6
CONTINUOUS
  0
LAYER
  5
5D
330
2
100
AcDbSymbolTableRecord
100
AcDbLayerTableRecord
  2
36
 70
     0
 62
    36
  6
CONTINUOUS
  0
LAYER
  5
5E
330
2
100
AcDbSymbolTableRecord
100
AcDbLayerTableRecord
  2
37
 70
     0
 62
    37
  6
CONTINUOUS
  0
LAYER
  5
5F
330
2
100
AcDbSymbolTableRecord
100
AcDbLayerTableRecord
  2
38
 70
     0
 62
    38
  6
CONTINUOUS
  0
LAYER
  5
60
330
2
100
AcDbSymbolTableRecord
100
AcDbLayerTableRecord
  2
39
 70
     0
 62
    39
  6
CONTINUOUS
  0
LAYER
  5
61
330
2
100
AcDbSymbolTableRecord
100
AcDbLayerTableRecord
  2
40
 70
     0
 62
    40
  6
CONTINUOUS
  0
LAYER
  5
62
330
2
100
AcDbSymbolTableRecord
100
AcDbLayerTableRecord
  2
41
 70
     0
 62
    41
  6
CONTINUOUS
  0
LAYER
  5
63
330
2
100
AcDbSymbolTableRecord
100
AcDbLayerTableRecord
  2
42
 70
     0
 62
    42
  6
CONTINUOUS
  0
LAYER
  5
64
330
2
100
AcDbSymbolTableRecord
100
AcDbLayerTableRecord
  2
43
 70
     0
 62
    43
  6
CONTINUOUS
  0
LAYER
  5
65
330
2
100
AcDbSymbolTableRecord
100
AcDbLayerTableRecord
  2
44
 70
     0
 62
    44
  6
CONTINUOUS
  0
LAYER
  5
66
330
2
100
AcDbSymbolTableRecord
100
AcDbLayerTableRecord
  2
45
 70
     0
 62
    45
  6
CONTINUOUS
  0
LAYER
  5
67
330
2
100
AcDbSymbolTableRecord
100
AcDbLayerTableRecord
  2
46
 70
     0
 62
    46
  6
CONTINUOUS
  0
LAYER
  5
68
330
2
100
AcDbSymbolTableRecord
100
AcDbLayerTableRecord
  2
47
 70
     0
 62
    47
  6
CONTINUOUS
  0
LAYER
  5
69
330
2
100
AcDbSymbolTableRecord
100
AcDbLayerTableRecord
  2
48
 70
     0
 62
    48
  6
CONTINUOUS
  0
LAYER
  5
6A
330
2
100
AcDbSymbolTableRecord
100
AcDbLayerTableRecord
  2
49
 70
     0
 62
    49
  6
CONTINUOUS
  0
LAYER
  5
6B
330
2
100
AcDbSymbolTableRecord
100
AcDbLayerTableRecord
  2
50
 70
     0
 62
    50
  6
CONTINUOUS
  0
LAYER
  5
6C
330
2
100
AcDbSymbolTableRecord
100
AcDbLayerTableRecord
  2
51
 70
     0
 62
    51
  6
CONTINUOUS
  0
LAYER
  5
6D
330
2
100
AcDbSymbolTableRecord
100
AcDbLayerTableRecord
  2
52
 70
     0
 62
    52
  6
CONTINUOUS
  0
LAYER
  5
6E
330
2
100
AcDbSymbolTableRecord
100
AcDbLayerTableRecord
  2
53
 70
     0
 62
    53
  6
CONTINUOUS
  0
LAYER
  5
6F
330
2
100
AcDbSymbolTableRecord
100
AcDbLayerTableRecord
  2
54
 70
     0
 62
    54
  6
CONTINUOUS
  0
LAYER
  5
70
330
2
100
AcDbSymbolTableRecord
100
AcDbLayerTableRecord
  2
55
 70
     0
 62
    55
  6
CONTINUOUS
  0
LAYER
  5
71
330
2
100
AcDbSymbolTableRecord
100
AcDbLayerTableRecord
  2
56
 70
     0
 62
    56
  6
CONTINUOUS
  0
LAYER
  5
72
330
2
100
AcDbSymbolTableRecord
100
AcDbLayerTableRecord
  2
57
 70
     0
 62
    57
  6
CONTINUOUS
  0
LAYER
  5
73
330
2
100
AcDbSymbolTableRecord
100
AcDbLayerTableRecord
  2
58
 70
     0
 62
    58
  6
CONTINUOUS
  0
LAYER
  5
74
330
2
100
AcDbSymbolTableRecord
100
AcDbLayerTableRecord
  2
59
 70
     0
 62
    59
  6
CONTINUOUS
  0
LAYER
  5
75
330
2
100
AcDbSymbolTableRecord
100
AcDbLayerTableRecord
  2
60
 70
     0
 62
    60
  6
CONTINUOUS
  0
LAYER
  5
76
330
2
100
AcDbSymbolTableRecord
100
AcDbLayerTableRecord
  2
61
 70
     0
 62
    61
  6
CONTINUOUS
  0
LAYER
  5
77
330
2
100
AcDbSymbolTableRecord
100
AcDbLayerTableRecord
  2
62
 70
     0
 62
    62
  6
CONTINUOUS
  0
LAYER
  5
78
330
2
100
AcDbSymbolTableRecord
100
AcDbLayerTableRecord
  2
63
 70
     0
 62
    63
  6
CONTINUOUS
  0
LAYER
  5
79
330
2
100
AcDbSymbolTableRecord
100
AcDbLayerTableRecord
  2
64
 70
     0
 62
    64
  6
CONTINUOUS
  0
LAYER
  5
7A
330
2
100
AcDbSymbolTableRecord
100
AcDbLayerTableRecord
  2
65
 70
     0
 62
    65
  6
CONTINUOUS
  0
LAYER
  5
7B
330
2
100
AcDbSymbolTableRecord
100
AcDbLayerTableRecord
  2
66
 70
     0
 62
    66
  6
CONTINUOUS
  0
LAYER
  5
7C
330
2
100
AcDbSymbolTableRecord
100
AcDbLayerTableRecord
  2
67
 70
     0
 62
    67
  6
CONTINUOUS
  0
LAYER
  5
7D
330
2
100
AcDbSymbolTableRecord
100
AcDbLayerTableRecord
  2
68
 70
     0
 62
    68
  6
CONTINUOUS
  0
LAYER
  5
7E
330
2
100
AcDbSymbolTableRecord
100
AcDbLayerTableRecord
  2
69
 70
     0
 62
    69
  6
CONTINUOUS
  0
LAYER
  5
7F
330
2
100
AcDbSymbolTableRecord
100
AcDbLayerTableRecord
  2
70
 70
     0
 62
    70
  6
CONTINUOUS
  0
LAYER
  5
80
330
2
100
AcDbSymbolTableRecord
100
AcDbLayerTableRecord
  2
71
 70
     0
 62
    71
  6
CONTINUOUS
  0
LAYER
  5
81
330
2
100
AcDbSymbolTableRecord
100
AcDbLayerTableRecord
  2
72
 70
     0
 62
    72
  6
CONTINUOUS
  0
LAYER
  5
82
330
2
100
AcDbSymbolTableRecord
100
AcDbLayerTableRecord
  2
73
 70
     0
 62
    73
  6
CONTINUOUS
  0
LAYER
  5
83
330
2
100
AcDbSymbolTableRecord
100
AcDbLayerTableRecord
  2
74
 70
     0
 62
    74
  6
CONTINUOUS
  0
LAYER
  5
84
330
2
100
AcDbSymbolTableRecord
100
AcDbLayerTableRecord
  2
75
 70
     0
 62
    75
  6
CONTINUOUS
  0
LAYER
  5
85
330
2
100
AcDbSymbolTableRecord
100
AcDbLayerTableRecord
  2
76
 70
     0
 62
    76
  6
CONTINUOUS
  0
LAYER
  5
86
330
2
100
AcDbSymbolTableRecord
100
AcDbLayerTableRecord
  2
77
 70
     0
 62
    77
  6
CONTINUOUS
  0
LAYER
  5
87
330
2
100
AcDbSymbolTableRecord
100
AcDbLayerTableRecord
  2
78
 70
     0
 62
    78
  6
CONTINUOUS
  0
LAYER
  5
88
330
2
100
AcDbSymbolTableRecord
100
AcDbLayerTableRecord
  2
79
 70
     0
 62
    79
  6
CONTINUOUS
  0
LAYER
  5
89
330
2
100
AcDbSymbolTableRecord
100
AcDbLayerTableRecord
  2
80
 70
     0
 62
    80
  6
CONTINUOUS
  0
LAYER
  5
8A
330
2
100
AcDbSymbolTableRecord
100
AcDbLayerTableRecord
  2
81
 70
     0
 62
    81
  6
CONTINUOUS
  0
LAYER
  5
8B
330
2
100
AcDbSymbolTableRecord
100
AcDbLayerTableRecord
  2
82
 70
     0
 62
    82
  6
CONTINUOUS
  0
LAYER
  5
8C
330
2
100
AcDbSymbolTableRecord
100
AcDbLayerTableRecord
  2
83
 70
     0
 62
    83
  6
CONTINUOUS
  0
LAYER
  5
8D
330
2
100
AcDbSymbolTableRecord
100
AcDbLayerTableRecord
  2
84
 70
     0
 62
    84
  6
CONTINUOUS
  0
LAYER
  5
8E
330
2
100
AcDbSymbolTableRecord
100
AcDbLayerTableRecord
  2
85
 70
     0
 62
    85
  6
CONTINUOUS
  0
LAYER
  5
8F
330
2
100
AcDbSymbolTableRecord
100
AcDbLayerTableRecord
  2
86
 70
     0
 62
    86
  6
CONTINUOUS
  0
LAYER
  5
90
330
2
100
AcDbSymbolTableRecord
100
AcDbLayerTableRecord
  2
87
 70
     0
 62
    87
  6
CONTINUOUS
  0
LAYER
  5
91
330
2
100
AcDbSymbolTableRecord
100
AcDbLayerTableRecord
  2
88
 70
     0
 62
    88
  6
CONTINUOUS
  0
LAYER
  5
92
330
2
100
AcDbSymbolTableRecord
100
AcDbLayerTableRecord
  2
89
 70
     0
 62
    89
  6
CONTINUOUS
  0
LAYER
  5
93
330
2
100
AcDbSymbolTableRecord
100
AcDbLayerTableRecord
  2
90
 70
     0
 62
    90
  6
CONTINUOUS
  0
LAYER
  5
94
330
2
100
AcDbSymbolTableRecord
100
AcDbLayerTableRecord
  2
91
 70
     0
 62
    91
  6
CONTINUOUS
  0
LAYER
  5
95
330
2
100
AcDbSymbolTableRecord
100
AcDbLayerTableRecord
  2
92
 70
     0
 62
    92
  6
CONTINUOUS
  0
LAYER
  5
96
330
2
100
AcDbSymbolTableRecord
100
AcDbLayerTableRecord
  2
93
 70
     0
 62
    93
  6
CONTINUOUS
  0
LAYER
  5
97
330
2
100
AcDbSymbolTableRecord
100
AcDbLayerTableRecord
  2
94
 70
     0
 62
    94
  6
CONTINUOUS
  0
LAYER
  5
98
330
2
100
AcDbSymbolTableRecord
100
AcDbLayerTableRecord
  2
95
 70
     0
 62
    95
  6
CONTINUOUS
  0
LAYER
  5
99
330
2
100
AcDbSymbolTableRecord
100
AcDbLayerTableRecord
  2
96
 70
     0
 62
    96
  6
CONTINUOUS
  0
LAYER
  5
9A
330
2
100
AcDbSymbolTableRecord
100
AcDbLayerTableRecord
  2
97
 70
     0
 62
    97
  6
CONTINUOUS
  0
LAYER
  5
9B
330
2
100
AcDbSymbolTableRecord
100
AcDbLayerTableRecord
  2
98
 70
     0
 62
    98
  6
CONTINUOUS
  0
LAYER
  5
9C
330
2
100
AcDbSymbolTableRecord
100
AcDbLayerTableRecord
  2
99
 70
     0
 62
    99
  6
CONTINUOUS
  0
LAYER
  5
9D
330
2
100
AcDbSymbolTableRecord
100
AcDbLayerTableRecord
  2
100
 70
     0
 62
   100
  6
CONTINUOUS
  0
LAYER
  5
9E
330
2
100
AcDbSymbolTableRecord
100
AcDbLayerTableRecord
  2
101
 70
     0
 62
   101
  6
CONTINUOUS
  0
LAYER
  5
9F
330
2
100
AcDbSymbolTableRecord
100
AcDbLayerTableRecord
  2
102
 70
     0
 62
   102
  6
CONTINUOUS
  0
LAYER
  5
A0
330
2
100
AcDbSymbolTableRecord
100
AcDbLayerTableRecord
  2
103
 70
     0
 62
   103
  6
CONTINUOUS
  0
LAYER
  5
A1
330
2
100
AcDbSymbolTableRecord
100
AcDbLayerTableRecord
  2
104
 70
     0
 62
   104
  6
CONTINUOUS
  0
LAYER
  5
A2
330
2
100
AcDbSymbolTableRecord
100
AcDbLayerTableRecord
  2
105
 70
     0
 62
   105
  6
CONTINUOUS
  0
LAYER
  5
A3
330
2
100
AcDbSymbolTableRecord
100
AcDbLayerTableRecord
  2
106
 70
     0
 62
   106
  6
CONTINUOUS
  0
LAYER
  5
A4
330
2
100
AcDbSymbolTableRecord
100
AcDbLayerTableRecord
  2
107
 70
     0
 62
   107
  6
CONTINUOUS
  0
LAYER
  5
A5
330
2
100
AcDbSymbolTableRecord
100
AcDbLayerTableRecord
  2
108
 70
     0
 62
   108
  6
CONTINUOUS
  0
LAYER
  5
A6
330
2
100
AcDbSymbolTableRecord
100
AcDbLayerTableRecord
  2
109
 70
     0
 62
   109
  6
CONTINUOUS
  0
LAYER
  5
A7
330
2
100
AcDbSymbolTableRecord
100
AcDbLayerTableRecord
  2
110
 70
     0
 62
   110
  6
CONTINUOUS
  0
LAYER
  5
A8
330
2
100
AcDbSymbolTableRecord
100
AcDbLayerTableRecord
  2
111
 70
     0
 62
   111
  6
CONTINUOUS
  0
LAYER
  5
A9
330
2
100
AcDbSymbolTableRecord
100
AcDbLayerTableRecord
  2
112
 70
     0
 62
   112
  6
CONTINUOUS
  0
LAYER
  5
AA
330
2
100
AcDbSymbolTableRecord
100
AcDbLayerTableRecord
  2
113
 70
     0
 62
   113
  6
CONTINUOUS
  0
LAYER
  5
AB
330
2
100
AcDbSymbolTableRecord
100
AcDbLayerTableRecord
  2
114
 70
     0
 62
   114
  6
CONTINUOUS
  0
LAYER
  5
AC
330
2
100
AcDbSymbolTableRecord
100
AcDbLayerTableRecord
  2
115
 70
     0
 62
   115
  6
CONTINUOUS
  0
LAYER
  5
AD
330
2
100
AcDbSymbolTableRecord
100
AcDbLayerTableRecord
  2
116
 70
     0
 62
   116
  6
CONTINUOUS
  0
LAYER
  5
AE
330
2
100
AcDbSymbolTableRecord
100
AcDbLayerTableRecord
  2
117
 70
     0
 62
   117
  6
CONTINUOUS
  0
LAYER
  5
AF
330
2
100
AcDbSymbolTableRecord
100
AcDbLayerTableRecord
  2
118
 70
     0
 62
   118
  6
CONTINUOUS
  0
LAYER
  5
B0
330
2
100
AcDbSymbolTableRecord
100
AcDbLayerTableRecord
  2
119
 70
     0
 62
   119
  6
CONTINUOUS
  0
LAYER
  5
B1
330
2
100
AcDbSymbolTableRecord
100
AcDbLayerTableRecord
  2
120
 70
     0
 62
   120
  6
CONTINUOUS
  0
LAYER
  5
B2
330
2
100
AcDbSymbolTableRecord
100
AcDbLayerTableRecord
  2
121
 70
     0
 62
   121
  6
CONTINUOUS
  0
LAYER
  5
B3
330
2
100
AcDbSymbolTableRecord
100
AcDbLayerTableRecord
  2
122
 70
     0
 62
   122
  6
CONTINUOUS
  0
LAYER
  5
B4
330
2
100
AcDbSymbolTableRecord
100
AcDbLayerTableRecord
  2
123
 70
     0
 62
   123
  6
CONTINUOUS
  0
LAYER
  5
B5
330
2
100
AcDbSymbolTableRecord
100
AcDbLayerTableRecord
  2
124
 70
     0
 62
   124
  6
CONTINUOUS
  0
LAYER
  5
B6
330
2
100
AcDbSymbolTableRecord
100
AcDbLayerTableRecord
  2
125
 70
     0
 62
   125
  6
CONTINUOUS
  0
LAYER
  5
B7
330
2
100
AcDbSymbolTableRecord
100
AcDbLayerTableRecord
  2
126
 70
     0
 62
   126
  6
CONTINUOUS
  0
LAYER
  5
B8
330
2
100
AcDbSymbolTableRecord
100
AcDbLayerTableRecord
  2
127
 70
     0
 62
   127
  6
CONTINUOUS
  0
LAYER
  5
B9
330
2
100
AcDbSymbolTableRecord
100
AcDbLayerTableRecord
  2
128
 70
     0
 62
   128
  6
CONTINUOUS
  0
LAYER
  5
BA
330
2
100
AcDbSymbolTableRecord
100
AcDbLayerTableRecord
  2
129
 70
     0
 62
   129
  6
CONTINUOUS
  0
LAYER
  5
BB
330
2
100
AcDbSymbolTableRecord
100
AcDbLayerTableRecord
  2
130
 70
     0
 62
   130
  6
CONTINUOUS
  0
LAYER
  5
BC
330
2
100
AcDbSymbolTableRecord
100
AcDbLayerTableRecord
  2
131
 70
     0
 62
   131
  6
CONTINUOUS
  0
LAYER
  5
BD
330
2
100
AcDbSymbolTableRecord
100
AcDbLayerTableRecord
  2
132
 70
     0
 62
   132
  6
CONTINUOUS
  0
LAYER
  5
BE
330
2
100
AcDbSymbolTableRecord
100
AcDbLayerTableRecord
  2
133
 70
     0
 62
   133
  6
CONTINUOUS
  0
LAYER
  5
BF
330
2
100
AcDbSymbolTableRecord
100
AcDbLayerTableRecord
  2
134
 70
     0
 62
   134
  6
CONTINUOUS
  0
LAYER
  5
C0
330
2
100
AcDbSymbolTableRecord
100
AcDbLayerTableRecord
  2
135
 70
     0
 62
   135
  6
CONTINUOUS
  0
LAYER
  5
C1
330
2
100
AcDbSymbolTableRecord
100
AcDbLayerTableRecord
  2
136
 70
     0
 62
   136
  6
CONTINUOUS
  0
LAYER
  5
C2
330
2
100
AcDbSymbolTableRecord
100
AcDbLayerTableRecord
  2
137
 70
     0
 62
   137
  6
CONTINUOUS
  0
LAYER
  5
C3
330
2
100
AcDbSymbolTableRecord
100
AcDbLayerTableRecord
  2
138
 70
     0
 62
   138
  6
CONTINUOUS
  0
LAYER
  5
C4
330
2
100
AcDbSymbolTableRecord
100
AcDbLayerTableRecord
  2
139
 70
     0
 62
   139
  6
CONTINUOUS
  0
LAYER
  5
C5
330
2
100
AcDbSymbolTableRecord
100
AcDbLayerTableRecord
  2
140
 70
     0
 62
   140
  6
CONTINUOUS
  0
LAYER
  5
C6
330
2
100
AcDbSymbolTableRecord
100
AcDbLayerTableRecord
  2
141
 70
     0
 62
   141
  6
CONTINUOUS
  0
LAYER
  5
C7
330
2
100
AcDbSymbolTableRecord
100
AcDbLayerTableRecord
  2
142
 70
     0
 62
   142
  6
CONTINUOUS
  0
LAYER
  5
C8
330
2
100
AcDbSymbolTableRecord
100
AcDbLayerTableRecord
  2
143
 70
     0
 62
   143
  6
CONTINUOUS
  0
LAYER
  5
C9
330
2
100
AcDbSymbolTableRecord
100
AcDbLayerTableRecord
  2
144
 70
     0
 62
   144
  6
CONTINUOUS
  0
LAYER
  5
CA
330
2
100
AcDbSymbolTableRecord
100
AcDbLayerTableRecord
  2
145
 70
     0
 62
   145
  6
CONTINUOUS
  0
LAYER
  5
CB
330
2
100
AcDbSymbolTableRecord
100
AcDbLayerTableRecord
  2
146
 70
     0
 62
   146
  6
CONTINUOUS
  0
LAYER
  5
CC
330
2
100
AcDbSymbolTableRecord
100
AcDbLayerTableRecord
  2
147
 70
     0
 62
   147
  6
CONTINUOUS
  0
LAYER
  5
CD
330
2
100
AcDbSymbolTableRecord
100
AcDbLayerTableRecord
  2
148
 70
     0
 62
   148
  6
CONTINUOUS
  0
LAYER
  5
CE
330
2
100
AcDbSymbolTableRecord
100
AcDbLayerTableRecord
  2
149
 70
     0
 62
   149
  6
CONTINUOUS
  0
LAYER
  5
CF
330
2
100
AcDbSymbolTableRecord
100
AcDbLayerTableRecord
  2
150
 70
     0
 62
   150
  6
CONTINUOUS
  0
LAYER
  5
D0
330
2
100
AcDbSymbolTableRecord
100
AcDbLayerTableRecord
  2
151
 70
     0
 62
   151
  6
CONTINUOUS
  0
LAYER
  5
D1
330
2
100
AcDbSymbolTableRecord
100
AcDbLayerTableRecord
  2
152
 70
     0
 62
   152
  6
CONTINUOUS
  0
LAYER
  5
D2
330
2
100
AcDbSymbolTableRecord
100
AcDbLayerTableRecord
  2
153
 70
     0
 62
   153
  6
CONTINUOUS
  0
LAYER
  5
D3
330
2
100
AcDbSymbolTableRecord
100
AcDbLayerTableRecord
  2
154
 70
     0
 62
   154
  6
CONTINUOUS
  0
LAYER
  5
D4
330
2
100
AcDbSymbolTableRecord
100
AcDbLayerTableRecord
  2
155
 70
     0
 62
   155
  6
CONTINUOUS
  0
LAYER
  5
D5
330
2
100
AcDbSymbolTableRecord
100
AcDbLayerTableRecord
  2
156
 70
     0
 62
   156
  6
CONTINUOUS
  0
LAYER
  5
D6
330
2
100
AcDbSymbolTableRecord
100
AcDbLayerTableRecord
  2
157
 70
     0
 62
   157
  6
CONTINUOUS
  0
LAYER
  5
D7
330
2
100
AcDbSymbolTableRecord
100
AcDbLayerTableRecord
  2
158
 70
     0
 62
   158
  6
CONTINUOUS
  0
LAYER
  5
D8
330
2
100
AcDbSymbolTableRecord
100
AcDbLayerTableRecord
  2
159
 70
     0
 62
   159
  6
CONTINUOUS
  0
LAYER
  5
D9
330
2
100
AcDbSymbolTableRecord
100
AcDbLayerTableRecord
  2
160
 70
     0
 62
   160
  6
CONTINUOUS
  0
LAYER
  5
DA
330
2
100
AcDbSymbolTableRecord
100
AcDbLayerTableRecord
  2
161
 70
     0
 62
   161
  6
CONTINUOUS
  0
LAYER
  5
DB
330
2
100
AcDbSymbolTableRecord
100
AcDbLayerTableRecord
  2
162
 70
     0
 62
   162
  6
CONTINUOUS
  0
LAYER
  5
DC
330
2
100
AcDbSymbolTableRecord
100
AcDbLayerTableRecord
  2
163
 70
     0
 62
   163
  6
CONTINUOUS
  0
LAYER
  5
DD
330
2
100
AcDbSymbolTableRecord
100
AcDbLayerTableRecord
  2
164
 70
     0
 62
   164
  6
CONTINUOUS
  0
LAYER
  5
DE
330
2
100
AcDbSymbolTableRecord
100
AcDbLayerTableRecord
  2
165
 70
     0
 62
   165
  6
CONTINUOUS
  0
LAYER
  5
DF
330
2
100
AcDbSymbolTableRecord
100
AcDbLayerTableRecord
  2
166
 70
     0
 62
   166
  6
CONTINUOUS
  0
LAYER
  5
E0
330
2
100
AcDbSymbolTableRecord
100
AcDbLayerTableRecord
  2
167
 70
     0
 62
   167
  6
CONTINUOUS
  0
LAYER
  5
E1
330
2
100
AcDbSymbolTableRecord
100
AcDbLayerTableRecord
  2
168
 70
     0
 62
   168
  6
CONTINUOUS
  0
LAYER
  5
E2
330
2
100
AcDbSymbolTableRecord
100
AcDbLayerTableRecord
  2
169
 70
     0
 62
   169
  6
CONTINUOUS
  0
LAYER
  5
E3
330
2
100
AcDbSymbolTableRecord
100
AcDbLayerTableRecord
  2
170
 70
     0
 62
   170
  6
CONTINUOUS
  0
LAYER
  5
E4
330
2
100
AcDbSymbolTableRecord
100
AcDbLayerTableRecord
  2
171
 70
     0
 62
   171
  6
CONTINUOUS
  0
LAYER
  5
E5
330
2
100
AcDbSymbolTableRecord
100
AcDbLayerTableRecord
  2
172
 70
     0
 62
   172
  6
CONTINUOUS
  0
LAYER
  5
E6
330
2
100
AcDbSymbolTableRecord
100
AcDbLayerTableRecord
  2
173
 70
     0
 62
   173
  6
CONTINUOUS
  0
LAYER
  5
E7
330
2
100
AcDbSymbolTableRecord
100
AcDbLayerTableRecord
  2
174
 70
     0
 62
   174
  6
CONTINUOUS
  0
LAYER
  5
E8
330
2
100
AcDbSymbolTableRecord
100
AcDbLayerTableRecord
  2
175
 70
     0
 62
   175
  6
CONTINUOUS
  0
LAYER
  5
E9
330
2
100
AcDbSymbolTableRecord
100
AcDbLayerTableRecord
  2
176
 70
     0
 62
   176
  6
CONTINUOUS
  0
LAYER
  5
EA
330
2
100
AcDbSymbolTableRecord
100
AcDbLayerTableRecord
  2
177
 70
     0
 62
   177
  6
CONTINUOUS
  0
LAYER
  5
EB
330
2
100
AcDbSymbolTableRecord
100
AcDbLayerTableRecord
  2
178
 70
     0
 62
   178
  6
CONTINUOUS
  0
LAYER
  5
EC
330
2
100
AcDbSymbolTableRecord
100
AcDbLayerTableRecord
  2
179
 70
     0
 62
   179
  6
CONTINUOUS
  0
LAYER
  5
ED
330
2
100
AcDbSymbolTableRecord
100
AcDbLayerTableRecord
  2
180
 70
     0
 62
   180
  6
CONTINUOUS
  0
LAYER
  5
EE
330
2
100
AcDbSymbolTableRecord
100
AcDbLayerTableRecord
  2
181
 70
     0
 62
   181
  6
CONTINUOUS
  0
LAYER
  5
EF
330
2
100
AcDbSymbolTableRecord
100
AcDbLayerTableRecord
  2
182
 70
     0
 62
   182
  6
CONTINUOUS
  0
LAYER
  5
F0
330
2
100
AcDbSymbolTableRecord
100
AcDbLayerTableRecord
  2
183
 70
     0
 62
   183
  6
CONTINUOUS
  0
LAYER
  5
F1
330
2
100
AcDbSymbolTableRecord
100
AcDbLayerTableRecord
  2
184
 70
     0
 62
   184
  6
CONTINUOUS
  0
LAYER
  5
F2
330
2
100
AcDbSymbolTableRecord
100
AcDbLayerTableRecord
  2
185
 70
     0
 62
   185
  6
CONTINUOUS
  0
LAYER
  5
F3
330
2
100
AcDbSymbolTableRecord
100
AcDbLayerTableRecord
  2
186
 70
     0
 62
   186
  6
CONTINUOUS
  0
LAYER
  5
F4
330
2
100
AcDbSymbolTableRecord
100
AcDbLayerTableRecord
  2
187
 70
     0
 62
   187
  6
CONTINUOUS
  0
LAYER
  5
F5
330
2
100
AcDbSymbolTableRecord
100
AcDbLayerTableRecord
  2
188
 70
     0
 62
   188
  6
CONTINUOUS
  0
LAYER
  5
F6
330
2
100
AcDbSymbolTableRecord
100
AcDbLayerTableRecord
  2
189
 70
     0
 62
   189
  6
CONTINUOUS
  0
LAYER
  5
F7
330
2
100
AcDbSymbolTableRecord
100
AcDbLayerTableRecord
  2
190
 70
     0
 62
   190
  6
CONTINUOUS
  0
LAYER
  5
F8
330
2
100
AcDbSymbolTableRecord
100
AcDbLayerTableRecord
  2
191
 70
     0
 62
   191
  6
CONTINUOUS
  0
LAYER
  5
F9
330
2
100
AcDbSymbolTableRecord
100
AcDbLayerTableRecord
  2
192
 70
     0
 62
   192
  6
CONTINUOUS
  0
LAYER
  5
FA
330
2
100
AcDbSymbolTableRecord
100
AcDbLayerTableRecord
  2
193
 70
     0
 62
   193
  6
CONTINUOUS
  0
LAYER
  5
FB
330
2
100
AcDbSymbolTableRecord
100
AcDbLayerTableRecord
  2
194
 70
     0
 62
   194
  6
CONTINUOUS
  0
LAYER
  5
FC
330
2
100
AcDbSymbolTableRecord
100
AcDbLayerTableRecord
  2
195
 70
     0
 62
   195
  6
CONTINUOUS
  0
LAYER
  5
FD
330
2
100
AcDbSymbolTableRecord
100
AcDbLayerTableRecord
  2
196
 70
     0
 62
   196
  6
CONTINUOUS
  0
LAYER
  5
FE
330
2
100
AcDbSymbolTableRecord
100
AcDbLayerTableRecord
  2
197
 70
     0
 62
   197
  6
CONTINUOUS
  0
LAYER
  5
FF
330
2
100
AcDbSymbolTableRecord
100
AcDbLayerTableRecord
  2
198
 70
     0
 62
   198
  6
CONTINUOUS
  0
LAYER
  5
100
330
2
100
AcDbSymbolTableRecord
100
AcDbLayerTableRecord
  2
199
 70
     0
 62
   199
  6
CONTINUOUS
  0
LAYER
  5
101
330
2
100
AcDbSymbolTableRecord
100
AcDbLayerTableRecord
  2
200
 70
     0
 62
   200
  6
CONTINUOUS
  0
LAYER
  5
102
330
2
100
AcDbSymbolTableRecord
100
AcDbLayerTableRecord
  2
201
 70
     0
 62
   201
  6
CONTINUOUS
  0
LAYER
  5
103
330
2
100
AcDbSymbolTableRecord
100
AcDbLayerTableRecord
  2
202
 70
     0
 62
   202
  6
CONTINUOUS
  0
LAYER
  5
104
330
2
100
AcDbSymbolTableRecord
100
AcDbLayerTableRecord
  2
203
 70
     0
 62
   203
  6
CONTINUOUS
  0
LAYER
  5
105
330
2
100
AcDbSymbolTableRecord
100
AcDbLayerTableRecord
  2
204
 70
     0
 62
   204
  6
CONTINUOUS
  0
LAYER
  5
106
330
2
100
AcDbSymbolTableRecord
100
AcDbLayerTableRecord
  2
205
 70
     0
 62
   205
  6
CONTINUOUS
  0
LAYER
  5
107
330
2
100
AcDbSymbolTableRecord
100
AcDbLayerTableRecord
  2
206
 70
     0
 62
   206
  6
CONTINUOUS
  0
LAYER
  5
108
330
2
100
AcDbSymbolTableRecord
100
AcDbLayerTableRecord
  2
207
 70
     0
 62
   207
  6
CONTINUOUS
  0
LAYER
  5
109
330
2
100
AcDbSymbolTableRecord
100
AcDbLayerTableRecord
  2
208
 70
     0
 62
   208
  6
CONTINUOUS
  0
LAYER
  5
10A
330
2
100
AcDbSymbolTableRecord
100
AcDbLayerTableRecord
  2
209
 70
     0
 62
   209
  6
CONTINUOUS
  0
LAYER
  5
10B
330
2
100
AcDbSymbolTableRecord
100
AcDbLayerTableRecord
  2
210
 70
     0
 62
   210
  6
CONTINUOUS
  0
LAYER
  5
10C
330
2
100
AcDbSymbolTableRecord
100
AcDbLayerTableRecord
  2
211
 70
     0
 62
   211
  6
CONTINUOUS
  0
LAYER
  5
10D
330
2
100
AcDbSymbolTableRecord
100
AcDbLayerTableRecord
  2
212
 70
     0
 62
   212
  6
CONTINUOUS
  0
LAYER
  5
10E
330
2
100
AcDbSymbolTableRecord
100
AcDbLayerTableRecord
  2
213
 70
     0
 62
   213
  6
CONTINUOUS
  0
LAYER
  5
10F
330
2
100
AcDbSymbolTableRecord
100
AcDbLayerTableRecord
  2
214
 70
     0
 62
   214
  6
CONTINUOUS
  0
LAYER
  5
110
330
2
100
AcDbSymbolTableRecord
100
AcDbLayerTableRecord
  2
215
 70
     0
 62
   215
  6
CONTINUOUS
  0
LAYER
  5
111
330
2
100
AcDbSymbolTableRecord
100
AcDbLayerTableRecord
  2
216
 70
     0
 62
   216
  6
CONTINUOUS
  0
LAYER
  5
112
330
2
100
AcDbSymbolTableRecord
100
AcDbLayerTableRecord
  2
217
 70
     0
 62
   217
  6
CONTINUOUS
  0
LAYER
  5
113
330
2
100
AcDbSymbolTableRecord
100
AcDbLayerTableRecord
  2
218
 70
     0
 62
   218
  6
CONTINUOUS
  0
LAYER
  5
114
330
2
100
AcDbSymbolTableRecord
100
AcDbLayerTableRecord
  2
219
 70
     0
 62
   219
  6
CONTINUOUS
  0
LAYER
  5
115
330
2
100
AcDbSymbolTableRecord
100
AcDbLayerTableRecord
  2
220
 70
     0
 62
   220
  6
CONTINUOUS
  0
LAYER
  5
116
330
2
100
AcDbSymbolTableRecord
100
AcDbLayerTableRecord
  2
221
 70
     0
 62
   221
  6
CONTINUOUS
  0
LAYER
  5
117
330
2
100
AcDbSymbolTableRecord
100
AcDbLayerTableRecord
  2
222
 70
     0
 62
   222
  6
CONTINUOUS
  0
LAYER
  5
118
330
2
100
AcDbSymbolTableRecord
100
AcDbLayerTableRecord
  2
223
 70
     0
 62
   223
  6
CONTINUOUS
  0
LAYER
  5
119
330
2
100
AcDbSymbolTableRecord
100
AcDbLayerTableRecord
  2
224
 70
     0
 62
   224
  6
CONTINUOUS
  0
LAYER
  5
11A
330
2
100
AcDbSymbolTableRecord
100
AcDbLayerTableRecord
  2
225
 70
     0
 62
   225
  6
CONTINUOUS
  0
LAYER
  5
11B
330
2
100
AcDbSymbolTableRecord
100
AcDbLayerTableRecord
  2
226
 70
     0
 62
   226
  6
CONTINUOUS
  0
LAYER
  5
11C
330
2
100
AcDbSymbolTableRecord
100
AcDbLayerTableRecord
  2
227
 70
     0
 62
   227
  6
CONTINUOUS
  0
LAYER
  5
11D
330
2
100
AcDbSymbolTableRecord
100
AcDbLayerTableRecord
  2
228
 70
     0
 62
   228
  6
CONTINUOUS
  0
LAYER
  5
11E
330
2
100
AcDbSymbolTableRecord
100
AcDbLayerTableRecord
  2
229
 70
     0
 62
   229
  6
CONTINUOUS
  0
LAYER
  5
11F
330
2
100
AcDbSymbolTableRecord
100
AcDbLayerTableRecord
  2
230
 70
     0
 62
   230
  6
CONTINUOUS
  0
LAYER
  5
120
330
2
100
AcDbSymbolTableRecord
100
AcDbLayerTableRecord
  2
231
 70
     0
 62
   231
  6
CONTINUOUS
  0
LAYER
  5
121
330
2
100
AcDbSymbolTableRecord
100
AcDbLayerTableRecord
  2
232
 70
     0
 62
   232
  6
CONTINUOUS
  0
LAYER
  5
122
330
2
100
AcDbSymbolTableRecord
100
AcDbLayerTableRecord
  2
233
 70
     0
 62
   233
  6
CONTINUOUS
  0
LAYER
  5
123
330
2
100
AcDbSymbolTableRecord
100
AcDbLayerTableRecord
  2
234
 70
     0
 62
   234
  6
CONTINUOUS
  0
LAYER
  5
124
330
2
100
AcDbSymbolTableRecord
100
AcDbLayerTableRecord
  2
235
 70
     0
 62
   235
  6
CONTINUOUS
  0
LAYER
  5
125
330
2
100
AcDbSymbolTableRecord
100
AcDbLayerTableRecord
  2
236
 70
     0
 62
   236
  6
CONTINUOUS
  0
LAYER
  5
126
330
2
100
AcDbSymbolTableRecord
100
AcDbLayerTableRecord
  2
237
 70
     0
 62
   237
  6
CONTINUOUS
  0
LAYER
  5
127
330
2
100
AcDbSymbolTableRecord
100
AcDbLayerTableRecord
  2
238
 70
     0
 62
   238
  6
CONTINUOUS
  0
LAYER
  5
128
330
2
100
AcDbSymbolTableRecord
100
AcDbLayerTableRecord
  2
239
 70
     0
 62
   239
  6
CONTINUOUS
  0
LAYER
  5
129
330
2
100
AcDbSymbolTableRecord
100
AcDbLayerTableRecord
  2
240
 70
     0
 62
   240
  6
CONTINUOUS
  0
LAYER
  5
12A
330
2
100
AcDbSymbolTableRecord
100
AcDbLayerTableRecord
  2
241
 70
     0
 62
   241
  6
CONTINUOUS
  0
LAYER
  5
12B
330
2
100
AcDbSymbolTableRecord
100
AcDbLayerTableRecord
  2
242
 70
     0
 62
   242
  6
CONTINUOUS
  0
LAYER
  5
12C
330
2
100
AcDbSymbolTableRecord
100
AcDbLayerTableRecord
  2
243
 70
     0
 62
   243
  6
CONTINUOUS
  0
LAYER
  5
12D
330
2
100
AcDbSymbolTableRecord
100
AcDbLayerTableRecord
  2
244
 70
     0
 62
   244
  6
CONTINUOUS
  0
LAYER
  5
12E
330
2
100
AcDbSymbolTableRecord
100
AcDbLayerTableRecord
  2
245
 70
     0
 62
   245
  6
CONTINUOUS
  0
LAYER
  5
12F
330
2
100
AcDbSymbolTableRecord
100
AcDbLayerTableRecord
  2
246
 70
     0
 62
   246
  6
CONTINUOUS
  0
LAYER
  5
130
330
2
100
AcDbSymbolTableRecord
100
AcDbLayerTableRecord
  2
247
 70
     0
 62
   247
  6
CONTINUOUS
  0
LAYER
  5
131
330
2
100
AcDbSymbolTableRecord
100
AcDbLayerTableRecord
  2
248
 70
     0
 62
   248
  6
CONTINUOUS
  0
LAYER
  5
132
330
2
100
AcDbSymbolTableRecord
100
AcDbLayerTableRecord
  2
249
 70
     0
 62
   249
  6
CONTINUOUS
  0
LAYER
  5
133
330
2
100
AcDbSymbolTableRecord
100
AcDbLayerTableRecord
  2
250
 70
     0
 62
   250
  6
CONTINUOUS
  0
LAYER
  5
134
330
2
100
AcDbSymbolTableRecord
100
AcDbLayerTableRecord
  2
251
 70
     0
 62
   251
  6
CONTINUOUS
  0
LAYER
  5
135
330
2
100
AcDbSymbolTableRecord
100
AcDbLayerTableRecord
  2
252
 70
     0
 62
   252
  6
CONTINUOUS
  0
LAYER
  5
136
330
2
100
AcDbSymbolTableRecord
100
AcDbLayerTableRecord
  2
253
 70
     0
 62
   253
  6
CONTINUOUS
  0
LAYER
  5
137
330
2
100
AcDbSymbolTableRecord
100
AcDbLayerTableRecord
  2
254
 70
     0
 62
   254
  6
CONTINUOUS
  0
LAYER
  5
138
330
2
100
AcDbSymbolTableRecord
100
AcDbLayerTableRecord
  2
255
 70
     0
 62
   255
  6
CONTINUOUS
  0
ENDTAB
  0
TABLE
  2
STYLE
  5
3
330
0
100
AcDbSymbolTable
 70
     1
  0
STYLE
  5
11
330
3
100
AcDbSymbolTableRecord
100
AcDbTextStyleTableRecord
  2
STANDARD
 70
     0
 40
0.0
 41
1.0
 50
0.0
 71
     0
 42
0.2
  3
monotxt
  4

  0
ENDTAB
  0
TABLE
  2
VIEW
  5
6
330
0
100
AcDbSymbolTable
 70
     0
  0
ENDTAB
  0
TABLE
  2
UCS
  5
7
330
0
100
AcDbSymbolTable
 70
     0
  0
ENDTAB
  0
TABLE
  2
APPID
  5
9
330
0
100
AcDbSymbolTable
 70
     1
  0
APPID
  5
12
330
9
100
AcDbSymbolTableRecord
100
AcDbRegAppTableRecord
  2
ACAD
 70
     0
  0
ENDTAB
  0
TABLE
  2
DIMSTYLE
  5
A
330
0
100
AcDbSymbolTable
 70
     1
  0
DIMSTYLE
105
2EA7
330
A
100
AcDbSymbolTableRecord
100
AcDbDimStyleTableRecord
  2
STANDARD
 70
     0
  3

  4

  5

  6

  7

 40
1.0
 41
0.18
 42
0.0625
 43
0.38
 44
0.18
 45
0.0
 46
0.0
 47
0.0
 48
0.0
140
0.18
141
0.09
142
0.0
143
25.4
144
1.0
145
0.0
146
1.0
147
0.09
 71
     0
 72
     0
 73
     1
 74
     1
 75
     0
 76
     0
 77
     0
 78
     0
170
     0
171
     2
172
     0
173
     0
174
     0
175
     0
176
     0
177
     0
178
     0
270
     2
271
     4
272
     4
273
     2
274
     2
340
11
275
     0
280
     0
281
     0
282
     0
283
     1
284
     0
285
     0
286
     0
287
     3
288
     0
  0
ENDTAB
  0
TABLE
  2
BLOCK_RECORD
  5
1
330
0
100
AcDbSymbolTable
 70
     0
  0
BLOCK_RECORD
  5
1E
102
{ACAD_XDICTIONARY
360
432D
102
}
330
1
100
AcDbSymbolTableRecord
100
AcDbBlockTableRecord
  2
*MODEL_SPACE
  0
BLOCK_RECORD
  5
1A
102
{ACAD_XDICTIONARY
360
432F
102
}
330
1
100
AcDbSymbolTableRecord
100
AcDbBlockTableRecord
  2
*PAPER_SPACE
  0
ENDTAB
  0
ENDSEC
  0
SECTION
  2
BLOCKS
  0
BLOCK
  5
13B
330
1E
100
AcDbEntity
  8
0
100
AcDbBlockBegin
  2
*MODEL_SPACE
 70
     0
 10
0.0
 20
0.0
 30
0.0
  3
*MODEL_SPACE
  1

  0
ENDBLK
  5
13C
330
1E
100
AcDbEntity
  8
0
100
AcDbBlockEnd
  0
BLOCK
  5
139
330
1A
100
AcDbEntity
 67
     1
  8
0
100
AcDbBlockBegin
  2
*PAPER_SPACE
 70
     0
 10
0.0
 20
0.0
 30
0.0
  3
*PAPER_SPACE
  1

  0
ENDBLK
  5
13A
330
1A
100
AcDbEntity
 67
     1
  8
0
100
AcDbBlockEnd
  0
ENDSEC
  0
SECTION
  2
ENTITIES
  0
LINE
  5
26E8
330
1E
100
AcDbEntity
  8
7
100
AcDbLine
 10
2.850393700787401
 20
5.997047244094487
 30
0.0
 11
2.850393700787401
 21
6.0
 31
0.0
  0
LINE
  5
26E9
330
1E
100
AcDbEntity
  8
7
100
AcDbLine
 10
2.194881889763779
 20
6.0
 30
0.0
 11
2.194881889763779
 21
5.997047244094487
 31
0.0
  0
LINE
  5
26EA
330
1E
100
AcDbEntity
  8
7
100
AcDbLine
 10
2.921259842519685
 20
5.46751968503937
 30
0.0
 11
2.921259842519685
 21
5.301181102362204
 31
0.0
  0
LINE
  5
26EB
330
1E
100
AcDbEntity
  8
7
100
AcDbLine
 10
3.108267716535432
 20
5.301181102362204
 30
0.0
 11
3.108267716535432
 21
5.46751968503937
 31
0.0
  0
LINE
  5
26EC
330
1E
100
AcDbEntity
  8
7
100
AcDbLine
 10
2.194881889763779
 20
5.46751968503937
 30
0.0
 11
2.194881889763779
 21
5.295275590551181
 31
0.0
  0
LINE
  5
26ED
330
1E
100
AcDbEntity
  8
7
100
AcDbLine
 10
2.850393700787401
 20
5.295275590551181
 30
0.0
 11
2.850393700787401
 21
5.46751968503937
 31
0.0
  0
LINE
  5
26EE
330
1E
100
AcDbEntity
  8
7
100
AcDbLine
 10
1.937007874015747
 20
5.46751968503937
 30
0.0
 11
1.937007874015747
 21
5.301181102362204
 31
0.0
  0
LINE
  5
26EF
330
1E
100
AcDbEntity
  8
7
100
AcDbLine
 10
2.124015748031495
 20
5.301181102362204
 30
0.0
 11
2.124015748031495
 21
5.46751968503937
 31
0.0
  0
LINE
  5
26F0
330
1E
100
AcDbEntity
  8
7
100
AcDbLine
 10
2.781496062992125
 20
5.295275590551181
 30
0.0
 11
2.263779527559055
 21
5.295275590551181
 31
0.0
  0
LINE
  5
26FF
330
1E
100
AcDbEntity
  8
7
100
AcDbLine
 10
2.781496062992125
 20
5.46751968503937
 30
0.0
 11
2.781496062992125
 21
5.295275590551181
 31
0.0
  0
LINE
  5
2700
330
1E
100
AcDbEntity
  8
7
100
AcDbLine
 10
2.263779527559055
 20
5.295275590551181
 30
0.0
 11
2.263779527559055
 21
5.46751968503937
 31
0.0
  0
LINE
  5
2701
330
1E
100
AcDbEntity
  8
7
100
AcDbLine
 10
2.750984251968503
 20
5.997047244094487
 30
0.0
 11
2.750984251968503
 21
6.0
 31
0.0
  0
LINE
  5
2702
330
1E
100
AcDbEntity
  8
7
100
AcDbLine
 10
2.294291338582677
 20
6.0
 30
0.0
 11
2.750984251968503
 21
6.0
 31
0.0
  0
LINE
  5
2703
330
1E
100
AcDbEntity
  8
7
100
AcDbLine
 10
2.294291338582677
 20
6.0
 30
0.0
 11
2.294291338582677
 21
5.997047244094487
 31
0.0
  0
LINE
  5
2704
330
1E
100
AcDbEntity
  8
7
100
AcDbLine
 10
2.194881889763779
 20
6.0
 30
0.0
 11
2.195866141732283
 21
6.0
 31
0.0
  0
LINE
  5
2705
330
1E
100
AcDbEntity
  8
7
100
AcDbLine
 10
2.227362204724409
 20
6.0
 30
0.0
 11
2.195866141732283
 21
6.0
 31
0.0
  0
LINE
  5
2717
330
1E
100
AcDbEntity
  8
7
100
AcDbLine
 10
2.848425196850393
 20
5.997047244094487
 30
0.0
 11
2.848425196850393
 21
6.0
 31
0.0
  0
LINE
  5
2718
330
1E
100
AcDbEntity
  8
7
100
AcDbLine
 10
2.817913385826771
 20
6.0
 30
0.0
 11
2.817913385826771
 21
5.997047244094487
 31
0.0
  0
LINE
  5
2719
330
1E
100
AcDbEntity
  8
7
100
AcDbLine
 10
2.227362204724409
 20
5.997047244094487
 30
0.0
 11
2.227362204724409
 21
6.0
 31
0.0
  0
LINE
  5
271A
330
1E
100
AcDbEntity
  8
7
100
AcDbLine
 10
2.195866141732283
 20
6.0
 30
0.0
 11
2.195866141732283
 21
5.997047244094487
 31
0.0
  0
LINE
  5
271B
330
1E
100
AcDbEntity
  8
7
100
AcDbLine
 10
1.901574803149606
 20
5.565944881889763
 30
0.0
 11
1.901574803149606
 21
5.472440944881889
 31
0.0
  0
LINE
  5
271C
330
1E
100
AcDbEntity
  8
7
100
AcDbLine
 10
2.442913385826771
 20
5.46751968503937
 30
0.0
 11
1.96751968503937
 21
5.46751968503937
 31
0.0
  0
LINE
  5
271D
330
1E
100
AcDbEntity
  8
7
100
AcDbLine
 10
1.906496062992125
 20
5.46751968503937
 30
0.0
 11
1.96751968503937
 21
5.46751968503937
 31
0.0
  0
LINE
  5
271E
330
1E
100
AcDbEntity
  8
7
100
AcDbLine
 10
3.077755905511811
 20
5.46751968503937
 30
0.0
 11
3.138779527559055
 21
5.46751968503937
 31
0.0
  0
LINE
  5
271F
330
1E
100
AcDbEntity
  8
7
100
AcDbLine
 10
3.077755905511811
 20
5.46751968503937
 30
0.0
 11
2.602362204724409
 21
5.46751968503937
 31
0.0
  0
LINE
  5
2720
330
1E
100
AcDbEntity
  8
7
100
AcDbLine
 10
2.442913385826771
 20
5.46751968503937
 30
0.0
 11
2.602362204724409
 21
5.46751968503937
 31
0.0
  0
LINE
  5
2721
330
1E
100
AcDbEntity
  8
7
100
AcDbLine
 10
2.600393700787401
 20
5.565944881889763
 30
0.0
 11
2.444881889763779
 21
5.565944881889763
 31
0.0
  0
LINE
  5
2722
330
1E
100
AcDbEntity
  8
7
100
AcDbLine
 10
3.143700787401574
 20
5.565944881889763
 30
0.0
 11
3.138779527559055
 21
5.565944881889763
 31
0.0
  0
LINE
  5
2723
330
1E
100
AcDbEntity
  8
7
100
AcDbLine
 10
3.079724409448818
 20
5.565944881889763
 30
0.0
 11
3.138779527559055
 21
5.565944881889763
 31
0.0
  0
LINE
  5
2724
330
1E
100
AcDbEntity
  8
7
100
AcDbLine
 10
1.906496062992125
 20
5.565944881889763
 30
0.0
 11
1.965551181102362
 21
5.565944881889763
 31
0.0
  0
LINE
  5
2725
330
1E
100
AcDbEntity
  8
7
100
AcDbLine
 10
1.906496062992125
 20
5.565944881889763
 30
0.0
 11
1.901574803149606
 21
5.565944881889763
 31
0.0
  0
LINE
  5
272C
330
1E
100
AcDbEntity
  8
7
100
AcDbLine
 10
3.143700787401574
 20
5.565944881889763
 30
0.0
 11
3.14271653543307
 21
5.584645669291338
 31
0.0
  0
LINE
  5
272D
330
1E
100
AcDbEntity
  8
7
100
AcDbLine
 10
3.127952755905511
 20
5.997047244094487
 30
0.0
 11
3.099409448818897
 21
6.81496062992126
 31
0.0
  0
LINE
  5
272E
330
1E
100
AcDbEntity
  8
7
100
AcDbLine
 10
3.127952755905511
 20
5.997047244094487
 30
0.0
 11
3.143700787401574
 21
5.565944881889763
 31
0.0
  0
LINE
  5
272F
330
1E
100
AcDbEntity
  8
7
100
AcDbLine
 10
3.135826771653543
 20
5.780511811023622
 30
0.0
 11
3.132874015748031
 21
5.858267716535433
 31
0.0
  0
LINE
  5
2730
330
1E
100
AcDbEntity
  8
7
100
AcDbLine
 10
3.14271653543307
 20
5.584645669291338
 30
0.0
 11
3.135826771653543
 21
5.780511811023622
 31
0.0
  0
LINE
  5
2736
330
1E
100
AcDbEntity
  8
7
100
AcDbLine
 10
2.442913385826771
 20
5.472440944881889
 30
0.0
 11
2.442913385826771
 21
5.46751968503937
 31
0.0
  0
LINE
  5
2737
330
1E
100
AcDbEntity
  8
7
100
AcDbLine
 10
2.444881889763779
 20
5.565944881889763
 30
0.0
 11
2.442913385826771
 21
5.472440944881889
 31
0.0
  0
LINE
  5
2738
330
1E
100
AcDbEntity
  8
7
100
AcDbLine
 10
3.077755905511811
 20
5.472440944881889
 30
0.0
 11
3.077755905511811
 21
5.46751968503937
 31
0.0
  0
LINE
  5
2739
330
1E
100
AcDbEntity
  8
7
100
AcDbLine
 10
3.079724409448818
 20
5.565944881889763
 30
0.0
 11
3.077755905511811
 21
5.472440944881889
 31
0.0
  0
LINE
  5
273F
330
1E
100
AcDbEntity
  8
7
100
AcDbLine
 10
1.90255905511811
 20
5.584645669291338
 30
0.0
 11
1.901574803149606
 21
5.565944881889763
 31
0.0
  0
LINE
  5
2740
330
1E
100
AcDbEntity
  8
7
100
AcDbLine
 10
3.099409448818897
 20
6.81496062992126
 30
0.0
 11
3.073818897637795
 21
6.839566929133858
 31
0.0
  0
LINE
  5
2741
330
1E
100
AcDbEntity
  8
7
100
AcDbLine
 10
2.949803149606299
 20
6.839566929133858
 30
0.0
 11
3.073818897637795
 21
6.839566929133858
 31
0.0
  0
LINE
  5
2742
330
1E
100
AcDbEntity
  8
7
100
AcDbLine
 10
2.949803149606299
 20
6.8001968503937
 30
0.0
 11
2.949803149606299
 21
6.839566929133858
 31
0.0
  0
LINE
  5
2748
330
1E
100
AcDbEntity
  8
7
100
AcDbLine
 10
2.314960629921259
 20
6.839566929133858
 30
0.0
 11
2.730314960629921
 21
6.839566929133858
 31
0.0
  0
LINE
  5
2749
330
1E
100
AcDbEntity
  8
7
100
AcDbLine
 10
2.313976377952756
 20
6.8001968503937
 30
0.0
 11
2.314960629921259
 21
6.839566929133858
 31
0.0
  0
LINE
  5
274F
330
1E
100
AcDbEntity
  8
7
100
AcDbLine
 10
1.971456692913385
 20
6.839566929133858
 30
0.0
 11
2.095472440944881
 21
6.839566929133858
 31
0.0
  0
LINE
  5
2750
330
1E
100
AcDbEntity
  8
7
100
AcDbLine
 10
1.971456692913385
 20
6.839566929133858
 30
0.0
 11
1.945866141732283
 21
6.81496062992126
 31
0.0
  0
LINE
  5
2751
330
1E
100
AcDbEntity
  8
7
100
AcDbLine
 10
1.945866141732283
 20
6.81496062992126
 30
0.0
 11
1.917322834645669
 21
5.997047244094487
 31
0.0
  0
LINE
  5
2752
330
1E
100
AcDbEntity
  8
7
100
AcDbLine
 10
1.912401574803149
 20
5.858267716535433
 30
0.0
 11
1.909448818897637
 21
5.780511811023622
 31
0.0
  0
LINE
  5
275E
330
1E
100
AcDbEntity
  8
7
100
AcDbLine
 10
2.730314960629921
 20
6.839566929133858
 30
0.0
 11
2.734251968503937
 21
6.839566929133858
 31
0.0
  0
LINE
  5
275F
330
1E
100
AcDbEntity
  8
7
100
AcDbLine
 10
2.734251968503937
 20
6.839566929133858
 30
0.0
 11
2.74507874015748
 21
6.839566929133858
 31
0.0
  0
LINE
  5
2770
330
1E
100
AcDbEntity
  8
7
100
AcDbLine
 10
3.143700787401574
 20
5.565944881889763
 30
0.0
 11
3.143700787401574
 21
5.472440944881889
 31
0.0
  0
LINE
  5
2771
330
1E
100
AcDbEntity
  8
7
100
AcDbLine
 10
1.901574803149606
 20
5.472440944881889
 30
0.0
 11
1.906496062992125
 21
5.46751968503937
 31
0.0
  0
LINE
  5
2772
330
1E
100
AcDbEntity
  8
7
100
AcDbLine
 10
3.138779527559055
 20
5.46751968503937
 30
0.0
 11
3.143700787401574
 21
5.472440944881889
 31
0.0
  0
LINE
  5
2773
330
1E
100
AcDbEntity
  8
7
100
AcDbLine
 10
1.90255905511811
 20
5.584645669291338
 30
0.0
 11
1.909448818897637
 21
5.780511811023622
 31
0.0
  0
LINE
  5
2774
330
1E
100
AcDbEntity
  8
7
100
AcDbLine
 10
1.901574803149606
 20
5.565944881889763
 30
0.0
 11
1.917322834645669
 21
5.997047244094487
 31
0.0
  0
LINE
  5
2775
330
1E
100
AcDbEntity
  8
7
100
AcDbLine
 10
1.96751968503937
 20
5.472440944881889
 30
0.0
 11
2.442913385826771
 21
5.472440944881889
 31
0.0
  0
LINE
  5
2776
330
1E
100
AcDbEntity
  8
7
100
AcDbLine
 10
2.602362204724409
 20
5.472440944881889
 30
0.0
 11
3.077755905511811
 21
5.472440944881889
 31
0.0
  0
LINE
  5
2777
330
1E
100
AcDbEntity
  8
7
100
AcDbLine
 10
1.965551181102362
 20
5.565944881889763
 30
0.0
 11
2.444881889763779
 21
5.565944881889763
 31
0.0
  0
LINE
  5
2778
330
1E
100
AcDbEntity
  8
7
100
AcDbLine
 10
2.600393700787401
 20
5.565944881889763
 30
0.0
 11
3.079724409448818
 21
5.565944881889763
 31
0.0
  0
LINE
  5
2779
330
1E
100
AcDbEntity
  8
7
100
AcDbLine
 10
1.922244094488188
 20
5.997047244094487
 30
0.0
 11
1.906496062992125
 21
5.565944881889763
 31
0.0
  0
LINE
  5
277A
330
1E
100
AcDbEntity
  8
7
100
AcDbLine
 10
3.138779527559055
 20
5.565944881889763
 30
0.0
 11
3.123031496062992
 21
5.997047244094487
 31
0.0
  0
LINE
  5
2790
330
1E
100
AcDbEntity
  8
7
100
AcDbLine
 10
2.947834645669291
 20
6.64271653543307
 30
0.0
 11
2.947834645669291
 21
6.627952755905512
 31
0.0
  0
LINE
  5
2791
330
1E
100
AcDbEntity
  8
7
100
AcDbLine
 10
2.958661417322834
 20
5.997047244094487
 30
0.0
 11
2.947834645669291
 21
6.627952755905512
 31
0.0
  0
LINE
  5
2792
330
1E
100
AcDbEntity
  8
7
100
AcDbLine
 10
2.89763779527559
 20
6.657480314960629
 30
0.0
 11
2.947834645669291
 21
6.657480314960629
 31
0.0
  0
LINE
  5
279A
330
1E
100
AcDbEntity
  8
7
100
AcDbLine
 10
2.947834645669291
 20
6.627952755905512
 30
0.0
 11
2.896653543307086
 21
6.627952755905512
 31
0.0
  0
LINE
  5
27A9
330
1E
100
AcDbEntity
  8
7
100
AcDbLine
 10
2.0501968503937
 20
5.301181102362204
 30
0.0
 11
2.0501968503937
 21
5.341535433070865
 31
0.0
  0
LINE
  5
27AA
330
1E
100
AcDbEntity
  8
7
100
AcDbLine
 10
2.010826771653543
 20
5.341535433070865
 30
0.0
 11
2.010826771653543
 21
5.301181102362204
 31
0.0
  0
LINE
  5
27BD
330
1E
100
AcDbEntity
  8
7
100
AcDbLine
 10
2.926181102362204
 20
5.301181102362204
 30
0.0
 11
2.921259842519685
 21
5.301181102362204
 31
0.0
  0
LINE
  5
27BE
330
1E
100
AcDbEntity
  8
7
100
AcDbLine
 10
3.034448818897637
 20
5.301181102362204
 30
0.0
 11
3.034448818897637
 21
5.341535433070865
 31
0.0
  0
LINE
  5
27BF
330
1E
100
AcDbEntity
  8
7
100
AcDbLine
 10
2.99507874015748
 20
5.341535433070865
 30
0.0
 11
2.99507874015748
 21
5.301181102362204
 31
0.0
  0
LINE
  5
27C5
330
1E
100
AcDbEntity
  8
7
100
AcDbLine
 10
2.859251968503937
 20
4.26279527559055
 30
0.0
 11
2.828740157480314
 21
4.085629921259842
 31
0.0
  0
LINE
  5
27CD
330
1E
100
AcDbEntity
  8
7
100
AcDbLine
 10
2.750984251968503
 20
4.020669291338582
 30
0.0
 11
2.294291338582677
 21
4.020669291338582
 31
0.0
  0
LINE
  5
27D4
330
1E
100
AcDbEntity
  8
7
100
AcDbLine
 10
2.26771653543307
 20
4.025590551181101
 30
0.0
 11
2.294291338582677
 21
4.020669291338582
 31
0.0
  0
LINE
  5
27D5
330
1E
100
AcDbEntity
  8
7
100
AcDbLine
 10
2.216535433070866
 20
4.085629921259842
 30
0.0
 11
2.18503937007874
 21
4.26279527559055
 31
0.0
  0
LINE
  5
27DE
330
1E
100
AcDbEntity
  8
7
100
AcDbLine
 10
2.263779527559055
 20
4.355314960629921
 30
0.0
 11
2.781496062992125
 21
4.355314960629921
 31
0.0
  0
LINE
  5
27E7
330
1E
100
AcDbEntity
  8
7
100
AcDbLine
 10
2.750984251968503
 20
4.031496062992125
 30
0.0
 11
2.294291338582677
 21
4.031496062992125
 31
0.0
  0
LINE
  5
27EF
330
1E
100
AcDbEntity
  8
7
100
AcDbLine
 10
2.262795275590551
 20
4.322834645669291
 30
0.0
 11
2.78248031496063
 21
4.322834645669291
 31
0.0
  0
LINE
  5
27F7
330
1E
100
AcDbEntity
  8
7
100
AcDbLine
 10
2.796259842519685
 20
4.091535433070865
 30
0.0
 11
2.827755905511811
 21
4.268700787401574
 31
0.0
  0
LINE
  5
27FE
330
1E
100
AcDbEntity
  8
7
100
AcDbLine
 10
2.750984251968503
 20
4.053149606299212
 30
0.0
 11
2.294291338582677
 21
4.053149606299212
 31
0.0
  0
LINE
  5
2805
330
1E
100
AcDbEntity
  8
7
100
AcDbLine
 10
2.249015748031495
 20
4.091535433070865
 30
0.0
 11
2.217519685039369
 21
4.268700787401574
 31
0.0
  0
LINE
  5
2806
330
1E
100
AcDbEntity
  8
7
100
AcDbLine
 10
2.781496062992125
 20
4.344488188976377
 30
0.0
 11
2.263779527559055
 21
4.344488188976377
 31
0.0
  0
LINE
  5
2812
330
1E
100
AcDbEntity
  8
7
100
AcDbLine
 10
2.227362204724409
 20
4.08759842519685
 30
0.0
 11
2.195866141732283
 21
4.264763779527559
 31
0.0
  0
LINE
  5
2821
330
1E
100
AcDbEntity
  8
7
100
AcDbLine
 10
2.817913385826771
 20
4.08759842519685
 30
0.0
 11
2.848425196850393
 21
4.264763779527559
 31
0.0
  0
LINE
  5
2855
330
1E
100
AcDbEntity
  8
7
100
AcDbLine
 10
2.750984251968503
 20
4.053149606299212
 30
0.0
 11
2.294291338582677
 21
4.053149606299212
 31
0.0
  0
LINE
  5
2860
330
1E
100
AcDbEntity
  8
7
100
AcDbLine
 10
2.341535433070866
 20
4.237204724409449
 30
0.0
 11
2.352362204724409
 21
4.233267716535433
 31
0.0
  0
LINE
  5
289B
330
1E
100
AcDbEntity
  8
7
100
AcDbLine
 10
2.564960629921259
 20
4.113188976377952
 30
0.0
 11
2.575787401574803
 21
4.117125984251968
 31
0.0
  0
LINE
  5
28BF
330
1E
100
AcDbEntity
  8
7
100
AcDbLine
 10
2.78248031496063
 20
4.322834645669291
 30
0.0
 11
2.262795275590551
 21
4.322834645669291
 31
0.0
  0
LINE
  5
28C7
330
1E
100
AcDbEntity
  8
7
100
AcDbLine
 10
2.249015748031495
 20
4.091535433070865
 30
0.0
 11
2.217519685039369
 21
4.268700787401574
 31
0.0
  0
LINE
  5
28D4
330
1E
100
AcDbEntity
  8
7
100
AcDbLine
 10
2.796259842519685
 20
4.091535433070865
 30
0.0
 11
2.827755905511811
 21
4.268700787401574
 31
0.0
  0
LINE
  5
28DC
330
1E
100
AcDbEntity
  8
7
100
AcDbLine
 10
1.901574803149606
 20
3.817913385826771
 30
0.0
 11
1.901574803149606
 21
4.46751968503937
 31
0.0
  0
LINE
  5
28DD
330
1E
100
AcDbEntity
  8
7
100
AcDbLine
 10
1.901574803149606
 20
4.468503937007874
 30
0.0
 11
1.901574803149606
 21
4.46751968503937
 31
0.0
  0
LINE
  5
28E6
330
1E
100
AcDbEntity
  8
7
100
AcDbLine
 10
2.283464566929133
 20
3.970472440944881
 30
0.0
 11
2.761811023622047
 21
3.970472440944881
 31
0.0
  0
LINE
  5
28EE
330
1E
100
AcDbEntity
  8
7
100
AcDbLine
 10
2.86023622047244
 20
4.032480314960629
 30
0.0
 11
2.869094488188976
 21
4.062007874015748
 31
0.0
  0
LINE
  5
28EF
330
1E
100
AcDbEntity
  8
7
100
AcDbLine
 10
2.908464566929133
 20
4.276574803149606
 30
0.0
 11
2.87007874015748
 21
4.061023622047244
 31
0.0
  0
LINE
  5
28F9
330
1E
100
AcDbEntity
  8
7
100
AcDbLine
 10
2.8001968503937
 20
4.405511811023622
 30
0.0
 11
2.24507874015748
 21
4.405511811023622
 31
0.0
  0
LINE
  5
2903
330
1E
100
AcDbEntity
  8
7
100
AcDbLine
 10
2.174212598425196
 20
4.061023622047244
 30
0.0
 11
2.136811023622047
 21
4.276574803149606
 31
0.0
  0
LINE
  5
290C
330
1E
100
AcDbEntity
  8
7
100
AcDbLine
 10
2.135826771653543
 20
4.275590551181101
 30
0.0
 11
2.173228346456693
 21
4.061023622047244
 31
0.0
  0
LINE
  5
2916
330
1E
100
AcDbEntity
  8
7
100
AcDbLine
 10
2.24507874015748
 20
4.406496062992125
 30
0.0
 11
2.8001968503937
 21
4.406496062992125
 31
0.0
  0
LINE
  5
2920
330
1E
100
AcDbEntity
  8
7
100
AcDbLine
 10
2.872047244094487
 20
4.061023622047244
 30
0.0
 11
2.909448818897637
 21
4.275590551181101
 31
0.0
  0
LINE
  5
2929
330
1E
100
AcDbEntity
  8
7
100
AcDbLine
 10
2.761811023622047
 20
3.969488188976377
 30
0.0
 11
2.283464566929133
 21
3.969488188976377
 31
0.0
  0
LINE
  5
292F
330
1E
100
AcDbEntity
  8
7
100
AcDbLine
 10
2.3001968503937
 20
3.947834645669291
 30
0.0
 11
2.11023622047244
 21
3.947834645669291
 31
0.0
  0
LINE
  5
2935
330
1E
100
AcDbEntity
  8
7
100
AcDbLine
 10
2.314960629921259
 20
3.89763779527559
 30
0.0
 11
2.314960629921259
 21
3.933070866141732
 31
0.0
  0
LINE
  5
293B
330
1E
100
AcDbEntity
  8
7
100
AcDbLine
 10
2.11023622047244
 20
3.882874015748031
 30
0.0
 11
2.3001968503937
 21
3.882874015748031
 31
0.0
  0
LINE
  5
2942
330
1E
100
AcDbEntity
  8
7
100
AcDbLine
 10
2.93503937007874
 20
3.947834645669291
 30
0.0
 11
2.74507874015748
 21
3.947834645669291
 31
0.0
  0
LINE
  5
2948
330
1E
100
AcDbEntity
  8
7
100
AcDbLine
 10
2.949803149606299
 20
3.89763779527559
 30
0.0
 11
2.949803149606299
 21
3.933070866141732
 31
0.0
  0
LINE
  5
294E
330
1E
100
AcDbEntity
  8
7
100
AcDbLine
 10
2.74507874015748
 20
3.882874015748031
 30
0.0
 11
2.93503937007874
 21
3.882874015748031
 31
0.0
  0
LINE
  5
2957
330
1E
100
AcDbEntity
  8
7
100
AcDbLine
 10
2.442913385826771
 20
4.523622047244094
 30
0.0
 11
1.96751968503937
 21
4.523622047244094
 31
0.0
  0
LINE
  5
2958
330
1E
100
AcDbEntity
  8
7
100
AcDbLine
 10
1.96751968503937
 20
4.466535433070865
 30
0.0
 11
1.96751968503937
 21
4.523622047244094
 31
0.0
  0
LINE
  5
2959
330
1E
100
AcDbEntity
  8
7
100
AcDbLine
 10
1.906496062992125
 20
4.466535433070865
 30
0.0
 11
1.96751968503937
 21
4.466535433070865
 31
0.0
  0
LINE
  5
2960
330
1E
100
AcDbEntity
  8
7
100
AcDbLine
 10
3.077755905511811
 20
4.466535433070865
 30
0.0
 11
3.138779527559055
 21
4.466535433070865
 31
0.0
  0
LINE
  5
2966
330
1E
100
AcDbEntity
  8
7
100
AcDbLine
 10
2.602362204724409
 20
4.466535433070865
 30
0.0
 11
2.602362204724409
 21
4.523622047244094
 31
0.0
  0
LINE
  5
2967
330
1E
100
AcDbEntity
  8
7
100
AcDbLine
 10
2.442913385826771
 20
4.466535433070865
 30
0.0
 11
2.602362204724409
 21
4.466535433070865
 31
0.0
  0
LINE
  5
2968
330
1E
100
AcDbEntity
  8
7
100
AcDbLine
 10
2.442913385826771
 20
4.466535433070865
 30
0.0
 11
2.442913385826771
 21
4.523622047244094
 31
0.0
  0
LINE
  5
29A4
330
1E
100
AcDbEntity
  8
7
100
AcDbLine
 10
2.444881889763779
 20
4.468503937007874
 30
0.0
 11
2.444881889763779
 21
4.537401574803149
 31
0.0
  0
LINE
  5
29A5
330
1E
100
AcDbEntity
  8
7
100
AcDbLine
 10
2.444881889763779
 20
4.468503937007874
 30
0.0
 11
2.600393700787401
 21
4.468503937007874
 31
0.0
  0
LINE
  5
29AB
330
1E
100
AcDbEntity
  8
7
100
AcDbLine
 10
3.079724409448818
 20
4.537401574803149
 30
0.0
 11
3.138779527559055
 21
4.537401574803149
 31
0.0
  0
LINE
  5
29B1
330
1E
100
AcDbEntity
  8
7
100
AcDbLine
 10
1.906496062992125
 20
4.537401574803149
 30
0.0
 11
1.965551181102362
 21
4.537401574803149
 31
0.0
  0
LINE
  5
29B2
330
1E
100
AcDbEntity
  8
7
100
AcDbLine
 10
1.906496062992125
 20
4.537401574803149
 30
0.0
 11
1.901574803149606
 21
4.532480314960629
 31
0.0
  0
LINE
  5
29B3
330
1E
100
AcDbEntity
  8
7
100
AcDbLine
 10
1.901574803149606
 20
4.468503937007874
 30
0.0
 11
1.901574803149606
 21
4.532480314960629
 31
0.0
  0
LINE
  5
29BE
330
1E
100
AcDbEntity
  8
7
100
AcDbLine
 10
2.602362204724409
 20
4.466535433070865
 30
0.0
 11
2.600393700787401
 21
4.468503937007874
 31
0.0
  0
LINE
  5
29BF
330
1E
100
AcDbEntity
  8
7
100
AcDbLine
 10
2.442913385826771
 20
4.528543307086613
 30
0.0
 11
2.442913385826771
 21
4.523622047244094
 31
0.0
  0
LINE
  5
29C0
330
1E
100
AcDbEntity
  8
7
100
AcDbLine
 10
2.444881889763779
 20
4.468503937007874
 30
0.0
 11
2.442913385826771
 21
4.466535433070865
 31
0.0
  0
LINE
  5
29C1
330
1E
100
AcDbEntity
  8
7
100
AcDbLine
 10
2.444881889763779
 20
4.537401574803149
 30
0.0
 11
2.442913385826771
 21
4.528543307086613
 31
0.0
  0
LINE
  5
29C2
330
1E
100
AcDbEntity
  8
7
100
AcDbLine
 10
3.077755905511811
 20
4.528543307086613
 30
0.0
 11
3.077755905511811
 21
4.523622047244094
 31
0.0
  0
LINE
  5
29C3
330
1E
100
AcDbEntity
  8
7
100
AcDbLine
 10
3.079724409448818
 20
4.468503937007874
 30
0.0
 11
3.077755905511811
 21
4.466535433070865
 31
0.0
  0
LINE
  5
29C4
330
1E
100
AcDbEntity
  8
7
100
AcDbLine
 10
3.079724409448818
 20
4.537401574803149
 30
0.0
 11
3.077755905511811
 21
4.528543307086613
 31
0.0
  0
LINE
  5
29CA
330
1E
100
AcDbEntity
  8
7
100
AcDbLine
 10
1.96751968503937
 20
4.466535433070865
 30
0.0
 11
1.965551181102362
 21
4.468503937007874
 31
0.0
  0
LINE
  5
29DA
330
1E
100
AcDbEntity
  8
7
100
AcDbLine
 10
1.901574803149606
 20
4.46751968503937
 30
0.0
 11
1.906496062992125
 21
4.466535433070865
 31
0.0
  0
LINE
  5
29DB
330
1E
100
AcDbEntity
  8
7
100
AcDbLine
 10
3.138779527559055
 20
4.466535433070865
 30
0.0
 11
3.143700787401574
 21
4.46751968503937
 31
0.0
  0
LINE
  5
29E1
330
1E
100
AcDbEntity
  8
7
100
AcDbLine
 10
2.095472440944881
 20
3.898622047244094
 30
0.0
 11
2.095472440944881
 21
3.932086614173228
 31
0.0
  0
LINE
  5
29E7
330
1E
100
AcDbEntity
  8
7
100
AcDbLine
 10
2.299212598425196
 20
3.883858267716535
 30
0.0
 11
2.111220472440944
 21
3.883858267716535
 31
0.0
  0
LINE
  5
29F0
330
1E
100
AcDbEntity
  8
7
100
AcDbLine
 10
2.111220472440944
 20
3.946850393700787
 30
0.0
 11
2.299212598425196
 21
3.946850393700787
 31
0.0
  0
LINE
  5
29F1
330
1E
100
AcDbEntity
  8
7
100
AcDbLine
 10
2.095472440944881
 20
3.89763779527559
 30
0.0
 11
2.095472440944881
 21
3.898622047244094
 31
0.0
  0
LINE
  5
29F2
330
1E
100
AcDbEntity
  8
7
100
AcDbLine
 10
2.111220472440944
 20
3.883858267716535
 30
0.0
 11
2.11023622047244
 21
3.882874015748031
 31
0.0
  0
LINE
  5
29F3
330
1E
100
AcDbEntity
  8
7
100
AcDbLine
 10
2.3001968503937
 20
3.882874015748031
 30
0.0
 11
2.299212598425196
 21
3.883858267716535
 31
0.0
  0
LINE
  5
29F4
330
1E
100
AcDbEntity
  8
7
100
AcDbLine
 10
2.313976377952756
 20
3.898622047244094
 30
0.0
 11
2.314960629921259
 21
3.89763779527559
 31
0.0
  0
LINE
  5
29F5
330
1E
100
AcDbEntity
  8
7
100
AcDbLine
 10
2.314960629921259
 20
3.933070866141732
 30
0.0
 11
2.313976377952756
 21
3.932086614173228
 31
0.0
  0
LINE
  5
29F6
330
1E
100
AcDbEntity
  8
7
100
AcDbLine
 10
2.299212598425196
 20
3.946850393700787
 30
0.0
 11
2.3001968503937
 21
3.947834645669291
 31
0.0
  0
LINE
  5
29F7
330
1E
100
AcDbEntity
  8
7
100
AcDbLine
 10
2.11023622047244
 20
3.947834645669291
 30
0.0
 11
2.111220472440944
 21
3.946850393700787
 31
0.0
  0
LINE
  5
29F8
330
1E
100
AcDbEntity
  8
7
100
AcDbLine
 10
2.095472440944881
 20
3.932086614173228
 30
0.0
 11
2.095472440944881
 21
3.933070866141732
 31
0.0
  0
LINE
  5
29F9
330
1E
100
AcDbEntity
  8
7
100
AcDbLine
 10
2.731299212598425
 20
3.932086614173228
 30
0.0
 11
2.730314960629921
 21
3.933070866141732
 31
0.0
  0
LINE
  5
29FF
330
1E
100
AcDbEntity
  8
7
100
AcDbLine
 10
2.74507874015748
 20
3.947834645669291
 30
0.0
 11
2.746062992125984
 21
3.946850393700787
 31
0.0
  0
LINE
  5
2A05
330
1E
100
AcDbEntity
  8
7
100
AcDbLine
 10
2.949803149606299
 20
3.933070866141732
 30
0.0
 11
2.949803149606299
 21
3.932086614173228
 31
0.0
  0
LINE
  5
2A06
330
1E
100
AcDbEntity
  8
7
100
AcDbLine
 10
2.934055118110236
 20
3.946850393700787
 30
0.0
 11
2.93503937007874
 21
3.947834645669291
 31
0.0
  0
LINE
  5
2A0C
330
1E
100
AcDbEntity
  8
7
100
AcDbLine
 10
2.730314960629921
 20
3.89763779527559
 30
0.0
 11
2.731299212598425
 21
3.898622047244094
 31
0.0
  0
LINE
  5
2A0D
330
1E
100
AcDbEntity
  8
7
100
AcDbLine
 10
2.746062992125984
 20
3.883858267716535
 30
0.0
 11
2.74507874015748
 21
3.882874015748031
 31
0.0
  0
LINE
  5
2A0E
330
1E
100
AcDbEntity
  8
7
100
AcDbLine
 10
2.949803149606299
 20
3.898622047244094
 30
0.0
 11
2.949803149606299
 21
3.89763779527559
 31
0.0
  0
LINE
  5
2A14
330
1E
100
AcDbEntity
  8
7
100
AcDbLine
 10
2.93503937007874
 20
3.882874015748031
 30
0.0
 11
2.934055118110236
 21
3.883858267716535
 31
0.0
  0
LINE
  5
2A15
330
1E
100
AcDbEntity
  8
7
100
AcDbLine
 10
2.746062992125984
 20
3.946850393700787
 30
0.0
 11
2.934055118110236
 21
3.946850393700787
 31
0.0
  0
LINE
  5
2A16
330
1E
100
AcDbEntity
  8
7
100
AcDbLine
 10
2.731299212598425
 20
3.898622047244094
 30
0.0
 11
2.731299212598425
 21
3.932086614173228
 31
0.0
  0
LINE
  5
2A17
330
1E
100
AcDbEntity
  8
7
100
AcDbLine
 10
2.934055118110236
 20
3.883858267716535
 30
0.0
 11
2.746062992125984
 21
3.883858267716535
 31
0.0
  0
LINE
  5
2A18
330
1E
100
AcDbEntity
  8
7
100
AcDbLine
 10
2.949803149606299
 20
3.898622047244094
 30
0.0
 11
2.949803149606299
 21
3.932086614173228
 31
0.0
  0
LINE
  5
2A19
330
1E
100
AcDbEntity
  8
7
100
AcDbLine
 10
1.96751968503937
 20
4.528543307086613
 30
0.0
 11
2.442913385826771
 21
4.528543307086613
 31
0.0
  0
LINE
  5
2A1A
330
1E
100
AcDbEntity
  8
7
100
AcDbLine
 10
2.602362204724409
 20
4.528543307086613
 30
0.0
 11
3.077755905511811
 21
4.528543307086613
 31
0.0
  0
LINE
  5
2A1B
330
1E
100
AcDbEntity
  8
7
100
AcDbLine
 10
1.965551181102362
 20
4.537401574803149
 30
0.0
 11
2.444881889763779
 21
4.537401574803149
 31
0.0
  0
LINE
  5
2A1C
330
1E
100
AcDbEntity
  8
7
100
AcDbLine
 10
2.600393700787401
 20
4.537401574803149
 30
0.0
 11
3.079724409448818
 21
4.537401574803149
 31
0.0
  0
LINE
  5
2A1D
330
1E
100
AcDbEntity
  8
7
100
AcDbLine
 10
2.283464566929133
 20
3.969488188976377
 30
0.0
 11
2.283464566929133
 21
3.970472440944881
 31
0.0
  0
LINE
  5
2A1E
330
1E
100
AcDbEntity
  8
7
100
AcDbLine
 10
2.761811023622047
 20
3.970472440944881
 30
0.0
 11
2.761811023622047
 21
3.969488188976377
 31
0.0
  0
LINE
  5
2A1F
330
1E
100
AcDbEntity
  8
7
100
AcDbLine
 10
2.8001968503937
 20
4.406496062992125
 30
0.0
 11
2.8001968503937
 21
4.405511811023622
 31
0.0
  0
LINE
  5
2A20
330
1E
100
AcDbEntity
  8
7
100
AcDbLine
 10
2.24507874015748
 20
4.405511811023622
 30
0.0
 11
2.24507874015748
 21
4.406496062992125
 31
0.0
  0
LINE
  5
2A21
330
1E
100
AcDbEntity
  8
7
100
AcDbLine
 10
2.908464566929133
 20
4.276574803149606
 30
0.0
 11
2.909448818897637
 21
4.275590551181101
 31
0.0
  0
LINE
  5
2A22
330
1E
100
AcDbEntity
  8
7
100
AcDbLine
 10
2.872047244094487
 20
4.061023622047244
 30
0.0
 11
2.87007874015748
 21
4.061023622047244
 31
0.0
  0
LINE
  5
2A23
330
1E
100
AcDbEntity
  8
7
100
AcDbLine
 10
2.135826771653543
 20
4.275590551181101
 30
0.0
 11
2.136811023622047
 21
4.276574803149606
 31
0.0
  0
LINE
  5
2A24
330
1E
100
AcDbEntity
  8
7
100
AcDbLine
 10
2.174212598425196
 20
4.061023622047244
 30
0.0
 11
2.173228346456693
 21
4.061023622047244
 31
0.0
  0
LINE
  5
2A5E
330
1E
100
AcDbEntity
  8
7
100
AcDbLine
 10
2.0501968503937
 20
4.096456692913386
 30
0.0
 11
2.0501968503937
 21
4.153543307086613
 31
0.0
  0
LINE
  5
2A6B
330
1E
100
AcDbEntity
  8
7
100
AcDbLine
 10
2.0501968503937
 20
4.222440944881889
 30
0.0
 11
2.0501968503937
 21
4.279527559055117
 31
0.0
  0
LINE
  5
2A73
330
1E
100
AcDbEntity
  8
7
100
AcDbLine
 10
2.010826771653543
 20
4.279527559055117
 30
0.0
 11
2.010826771653543
 21
4.222440944881889
 31
0.0
  0
LINE
  5
2A80
330
1E
100
AcDbEntity
  8
7
100
AcDbLine
 10
2.010826771653543
 20
4.153543307086613
 30
0.0
 11
2.010826771653543
 21
4.096456692913386
 31
0.0
  0
LINE
  5
2A9C
330
1E
100
AcDbEntity
  8
7
100
AcDbLine
 10
3.034448818897637
 20
4.096456692913386
 30
0.0
 11
3.034448818897637
 21
4.153543307086613
 31
0.0
  0
LINE
  5
2AA9
330
1E
100
AcDbEntity
  8
7
100
AcDbLine
 10
3.034448818897637
 20
4.222440944881889
 30
0.0
 11
3.034448818897637
 21
4.279527559055117
 31
0.0
  0
LINE
  5
2AB1
330
1E
100
AcDbEntity
  8
7
100
AcDbLine
 10
2.99507874015748
 20
4.279527559055117
 30
0.0
 11
2.99507874015748
 21
4.222440944881889
 31
0.0
  0
LINE
  5
2AC1
330
1E
100
AcDbEntity
  8
7
100
AcDbLine
 10
2.99507874015748
 20
4.153543307086613
 30
0.0
 11
2.99507874015748
 21
4.096456692913386
 31
0.0
  0
LINE
  5
2ADD
330
1E
100
AcDbEntity
  8
7
100
AcDbLine
 10
4.389763779527558
 20
4.281496062992125
 30
0.0
 11
4.26279527559055
 21
4.281496062992125
 31
0.0
  0
LINE
  5
2ADE
330
1E
100
AcDbEntity
  8
7
100
AcDbLine
 10
4.26279527559055
 20
4.094488188976377
 30
0.0
 11
4.389763779527558
 21
4.094488188976377
 31
0.0
  0
LINE
  5
2ADF
330
1E
100
AcDbEntity
  8
7
100
AcDbLine
 10
4.684055118110236
 20
4.094488188976377
 30
0.0
 11
4.778543307086613
 21
4.094488188976377
 31
0.0
  0
LINE
  5
2AE0
330
1E
100
AcDbEntity
  8
7
100
AcDbLine
 10
4.778543307086613
 20
4.281496062992125
 30
0.0
 11
4.684055118110236
 21
4.281496062992125
 31
0.0
  0
LINE
  5
2AE1
330
1E
100
AcDbEntity
  8
7
100
AcDbLine
 10
4.476377952755904
 20
3.940944881889763
 30
0.0
 11
4.454724409448818
 21
3.940944881889763
 31
0.0
  0
LINE
  5
2AE2
330
1E
100
AcDbEntity
  8
7
100
AcDbLine
 10
4.454724409448818
 20
3.99015748031496
 30
0.0
 11
4.476377952755904
 21
3.99015748031496
 31
0.0
  0
LINE
  5
2AE3
330
1E
100
AcDbEntity
  8
7
100
AcDbLine
 10
4.476377952755904
 20
4.384842519685038
 30
0.0
 11
4.476377952755904
 21
3.99015748031496
 31
0.0
  0
LINE
  5
2AE4
330
1E
100
AcDbEntity
  8
7
100
AcDbLine
 10
4.476377952755904
 20
4.384842519685038
 30
0.0
 11
4.454724409448818
 21
4.384842519685038
 31
0.0
  0
LINE
  5
2AF1
330
1E
100
AcDbEntity
  8
7
100
AcDbLine
 10
4.454724409448818
 20
4.435039370078739
 30
0.0
 11
4.476377952755904
 21
4.435039370078739
 31
0.0
  0
LINE
  5
2AF2
330
1E
100
AcDbEntity
  8
7
100
AcDbLine
 10
4.216535433070865
 20
4.031496062992125
 30
0.0
 11
4.389763779527558
 21
4.031496062992125
 31
0.0
  0
LINE
  5
2AFA
330
1E
100
AcDbEntity
  8
7
100
AcDbLine
 10
4.216535433070865
 20
4.08759842519685
 30
0.0
 11
4.216535433070865
 21
4.264763779527559
 31
0.0
  0
LINE
  5
2B03
330
1E
100
AcDbEntity
  8
7
100
AcDbLine
 10
4.389763779527558
 20
4.08759842519685
 30
0.0
 11
4.216535433070865
 21
4.08759842519685
 31
0.0
  0
LINE
  5
2B04
330
1E
100
AcDbEntity
  8
7
100
AcDbLine
 10
4.216535433070865
 20
4.264763779527559
 30
0.0
 11
4.223425196850393
 21
4.264763779527559
 31
0.0
  0
LINE
  5
2B05
330
1E
100
AcDbEntity
  8
7
100
AcDbLine
 10
4.389763779527558
 20
4.344488188976377
 30
0.0
 11
4.216535433070865
 21
4.344488188976377
 31
0.0
  0
LINE
  5
2B06
330
1E
100
AcDbEntity
  8
7
100
AcDbLine
 10
4.662401574803149
 20
3.940944881889763
 30
0.0
 11
4.476377952755904
 21
3.940944881889763
 31
0.0
  0
LINE
  5
2B07
330
1E
100
AcDbEntity
  8
7
100
AcDbLine
 10
4.476377952755904
 20
4.384842519685038
 30
0.0
 11
4.476377952755904
 21
3.99015748031496
 31
0.0
  0
LINE
  5
2B08
330
1E
100
AcDbEntity
  8
7
100
AcDbLine
 10
4.476377952755904
 20
4.384842519685038
 30
0.0
 11
4.476377952755904
 21
4.410433070866141
 31
0.0
  0
LINE
  5
2B14
330
1E
100
AcDbEntity
  8
7
100
AcDbLine
 10
4.662401574803149
 20
4.384842519685038
 30
0.0
 11
4.662401574803149
 21
3.99015748031496
 31
0.0
  0
LINE
  5
2B15
330
1E
100
AcDbEntity
  8
7
100
AcDbLine
 10
4.662401574803149
 20
4.384842519685038
 30
0.0
 11
4.476377952755904
 21
4.384842519685038
 31
0.0
  0
LINE
  5
2B16
330
1E
100
AcDbEntity
  8
7
100
AcDbLine
 10
4.476377952755904
 20
3.99015748031496
 30
0.0
 11
4.662401574803149
 21
3.99015748031496
 31
0.0
  0
LINE
  5
2B24
330
1E
100
AcDbEntity
  8
7
100
AcDbLine
 10
4.662401574803149
 20
4.435039370078739
 30
0.0
 11
4.684055118110236
 21
4.435039370078739
 31
0.0
  0
LINE
  5
2B25
330
1E
100
AcDbEntity
  8
7
100
AcDbLine
 10
4.662401574803149
 20
3.940944881889763
 30
0.0
 11
4.662401574803149
 21
3.946850393700787
 31
0.0
  0
LINE
  5
2B34
330
1E
100
AcDbEntity
  8
7
100
AcDbLine
 10
4.662401574803149
 20
3.99015748031496
 30
0.0
 11
4.684055118110236
 21
3.99015748031496
 31
0.0
  0
LINE
  5
2B35
330
1E
100
AcDbEntity
  8
7
100
AcDbLine
 10
4.684055118110236
 20
3.940944881889763
 30
0.0
 11
4.662401574803149
 21
3.940944881889763
 31
0.0
  0
LINE
  5
2B42
330
1E
100
AcDbEntity
  8
7
100
AcDbLine
 10
4.695866141732283
 20
4.344488188976377
 30
0.0
 11
4.778543307086613
 21
4.344488188976377
 31
0.0
  0
LINE
  5
2B54
330
1E
100
AcDbEntity
  8
7
100
AcDbLine
 10
4.918307086614173
 20
4.111220472440944
 30
0.0
 11
4.922244094488188
 21
4.111220472440944
 31
0.0
  0
LINE
  5
2B55
330
1E
100
AcDbEntity
  8
7
100
AcDbLine
 10
4.922244094488188
 20
4.288385826771653
 30
0.0
 11
4.918307086614173
 21
4.288385826771653
 31
0.0
  0
LINE
  5
2B56
330
1E
100
AcDbEntity
  8
7
100
AcDbLine
 10
4.778543307086613
 20
4.288385826771653
 30
0.0
 11
4.695866141732283
 21
4.288385826771653
 31
0.0
  0
LINE
  5
2B57
330
1E
100
AcDbEntity
  8
7
100
AcDbLine
 10
4.695866141732283
 20
4.281496062992125
 30
0.0
 11
4.695866141732283
 21
4.288385826771653
 31
0.0
  0
LINE
  5
2B58
330
1E
100
AcDbEntity
  8
7
100
AcDbLine
 10
4.922244094488188
 20
4.031496062992125
 30
0.0
 11
4.918307086614173
 21
4.031496062992125
 31
0.0
  0
LINE
  5
2B77
330
1E
100
AcDbEntity
  8
7
100
AcDbLine
 10
4.454724409448818
 20
3.916338582677165
 30
0.0
 11
4.454724409448818
 21
4.437992125984251
 31
0.0
  0
LINE
  5
2B82
330
1E
100
AcDbEntity
  8
7
100
AcDbLine
 10
4.918307086614173
 20
4.537401574803149
 30
0.0
 11
4.918307086614173
 21
4.532480314960629
 31
0.0
  0
LINE
  5
2B83
330
1E
100
AcDbEntity
  8
7
100
AcDbLine
 10
4.918307086614173
 20
3.907480314960629
 30
0.0
 11
4.918307086614173
 21
4.532480314960629
 31
0.0
  0
LINE
  5
2B84
330
1E
100
AcDbEntity
  8
7
100
AcDbLine
 10
4.506889763779526
 20
3.915354330708661
 30
0.0
 11
4.506889763779526
 21
3.881889763779527
 31
0.0
  0
LINE
  5
2B85
330
1E
100
AcDbEntity
  8
7
100
AcDbLine
 10
4.487204724409448
 20
3.915354330708661
 30
0.0
 11
4.506889763779526
 21
3.915354330708661
 31
0.0
  0
LINE
  5
2B86
330
1E
100
AcDbEntity
  8
7
100
AcDbLine
 10
4.487204724409448
 20
3.817913385826771
 30
0.0
 11
4.487204724409448
 21
3.915354330708661
 31
0.0
  0
LINE
  5
2B87
330
1E
100
AcDbEntity
  8
7
100
AcDbLine
 10
5.736220472440944
 20
3.817913385826771
 30
0.0
 11
4.487204724409448
 21
3.817913385826771
 31
0.0
  0
LINE
  5
2B88
330
1E
100
AcDbEntity
  8
7
100
AcDbLine
 10
5.736220472440944
 20
3.817913385826771
 30
0.0
 11
5.736220472440944
 21
3.893700787401574
 31
0.0
  0
LINE
  5
2B89
330
1E
100
AcDbEntity
  8
7
100
AcDbLine
 10
4.918307086614173
 20
3.907480314960629
 30
0.0
 11
5.736220472440944
 21
3.893700787401574
 31
0.0
  0
LINE
  5
2B8A
330
1E
100
AcDbEntity
  8
7
100
AcDbLine
 10
4.918307086614173
 20
4.532480314960629
 30
0.0
 11
4.487204724409448
 21
4.532480314960629
 31
0.0
  0
LINE
  5
2B8B
330
1E
100
AcDbEntity
  8
7
100
AcDbLine
 10
4.487204724409448
 20
4.43996062992126
 30
0.0
 11
4.487204724409448
 21
4.468503937007874
 31
0.0
  0
LINE
  5
2B8C
330
1E
100
AcDbEntity
  8
7
100
AcDbLine
 10
4.579724409448818
 20
4.442913385826771
 30
0.0
 11
4.487204724409448
 21
4.43996062992126
 31
0.0
  0
LINE
  5
2B92
330
1E
100
AcDbEntity
  8
7
100
AcDbLine
 10
4.779527559055117
 20
3.910433070866141
 30
0.0
 11
4.779527559055117
 21
4.465551181102362
 31
0.0
  0
LINE
  5
2B93
330
1E
100
AcDbEntity
  8
7
100
AcDbLine
 10
4.701771653543306
 20
3.911417322834645
 30
0.0
 11
4.779527559055117
 21
3.910433070866141
 31
0.0
  0
LINE
  5
2B94
330
1E
100
AcDbEntity
  8
7
100
AcDbLine
 10
4.701771653543306
 20
3.881889763779527
 30
0.0
 11
4.701771653543306
 21
3.911417322834645
 31
0.0
  0
LINE
  5
2B95
330
1E
100
AcDbEntity
  8
7
100
AcDbLine
 10
4.506889763779526
 20
3.881889763779527
 30
0.0
 11
4.701771653543306
 21
3.881889763779527
 31
0.0
  0
LINE
  5
2B96
330
1E
100
AcDbEntity
  8
7
100
AcDbLine
 10
4.394685039370077
 20
4.528543307086613
 30
0.0
 11
4.389763779527558
 21
4.523622047244094
 31
0.0
  0
LINE
  5
2B97
330
1E
100
AcDbEntity
  8
7
100
AcDbLine
 10
4.487204724409448
 20
4.537401574803149
 30
0.0
 11
4.394685039370077
 21
4.528543307086613
 31
0.0
  0
LINE
  5
2B98
330
1E
100
AcDbEntity
  8
7
100
AcDbLine
 10
4.454724409448818
 20
3.916338582677165
 30
0.0
 11
4.487204724409448
 21
3.915354330708661
 31
0.0
  0
LINE
  5
2B99
330
1E
100
AcDbEntity
  8
7
100
AcDbLine
 10
4.508858267716535
 20
3.915354330708661
 30
0.0
 11
4.506889763779526
 21
3.915354330708661
 31
0.0
  0
LINE
  5
2BA2
330
1E
100
AcDbEntity
  8
7
100
AcDbLine
 10
4.606299212598425
 20
3.913385826771653
 30
0.0
 11
4.603346456692912
 21
3.913385826771653
 31
0.0
  0
LINE
  5
2BAE
330
1E
100
AcDbEntity
  8
7
100
AcDbLine
 10
4.701771653543306
 20
3.911417322834645
 30
0.0
 11
4.699803149606299
 21
3.911417322834645
 31
0.0
  0
LINE
  5
2BAF
330
1E
100
AcDbEntity
  8
7
100
AcDbLine
 10
5.736220472440944
 20
3.893700787401574
 30
0.0
 11
5.761811023622046
 21
3.89271653543307
 31
0.0
  0
LINE
  5
2BB6
330
1E
100
AcDbEntity
  8
7
100
AcDbLine
 10
5.736220472440944
 20
3.817913385826771
 30
0.0
 11
5.761811023622046
 21
3.84251968503937
 31
0.0
  0
LINE
  5
2BB7
330
1E
100
AcDbEntity
  8
7
100
AcDbLine
 10
5.761811023622046
 20
3.89271653543307
 30
0.0
 11
5.761811023622046
 21
3.84251968503937
 31
0.0
  0
LINE
  5
2BB8
330
1E
100
AcDbEntity
  8
7
100
AcDbLine
 10
4.487204724409448
 20
4.43996062992126
 30
0.0
 11
4.454724409448818
 21
4.437992125984251
 31
0.0
  0
LINE
  5
2BBE
330
1E
100
AcDbEntity
  8
7
100
AcDbLine
 10
4.389763779527558
 20
4.466535433070865
 30
0.0
 11
4.394685039370077
 21
4.46751968503937
 31
0.0
  0
LINE
  5
2BBF
330
1E
100
AcDbEntity
  8
7
100
AcDbLine
 10
4.487204724409448
 20
4.537401574803149
 30
0.0
 11
4.918307086614173
 21
4.537401574803149
 31
0.0
  0
LINE
  5
2BC0
330
1E
100
AcDbEntity
  8
7
100
AcDbLine
 10
4.778543307086613
 20
3.910433070866141
 30
0.0
 11
4.778543307086613
 21
4.465551181102362
 31
0.0
  0
LINE
  5
2BC1
330
1E
100
AcDbEntity
  8
7
100
AcDbLine
 10
4.603346456692912
 20
3.913385826771653
 30
0.0
 11
4.603346456692912
 21
3.885826771653542
 31
0.0
  0
LINE
  5
2BC2
330
1E
100
AcDbEntity
  8
7
100
AcDbLine
 10
4.606299212598425
 20
3.885826771653542
 30
0.0
 11
4.603346456692912
 21
3.885826771653542
 31
0.0
  0
LINE
  5
2BC3
330
1E
100
AcDbEntity
  8
7
100
AcDbLine
 10
4.606299212598425
 20
3.885826771653542
 30
0.0
 11
4.606299212598425
 21
3.913385826771653
 31
0.0
  0
LINE
  5
2BC4
330
1E
100
AcDbEntity
  8
7
100
AcDbLine
 10
4.508858267716535
 20
3.883858267716535
 30
0.0
 11
4.506889763779526
 21
3.881889763779527
 31
0.0
  0
LINE
  5
2BC5
330
1E
100
AcDbEntity
  8
7
100
AcDbLine
 10
4.508858267716535
 20
3.883858267716535
 30
0.0
 11
4.508858267716535
 21
3.915354330708661
 31
0.0
  0
LINE
  5
2BCE
330
1E
100
AcDbEntity
  8
7
100
AcDbLine
 10
4.699803149606299
 20
3.883858267716535
 30
0.0
 11
4.701771653543306
 21
3.881889763779527
 31
0.0
  0
LINE
  5
2BD7
330
1E
100
AcDbEntity
  8
7
100
AcDbLine
 10
4.699803149606299
 20
3.911417322834645
 30
0.0
 11
4.699803149606299
 21
3.883858267716535
 31
0.0
  0
LINE
  5
2BD8
330
1E
100
AcDbEntity
  8
7
100
AcDbLine
 10
4.775590551181101
 20
3.910433070866141
 30
0.0
 11
4.775590551181101
 21
3.952755905511811
 31
0.0
  0
LINE
  5
2BD9
330
1E
100
AcDbEntity
  8
7
100
AcDbLine
 10
4.776574803149605
 20
3.910433070866141
 30
0.0
 11
4.776574803149605
 21
3.952755905511811
 31
0.0
  0
LINE
  5
2BDA
330
1E
100
AcDbEntity
  8
7
100
AcDbLine
 10
4.775590551181101
 20
3.952755905511811
 30
0.0
 11
4.776574803149605
 21
3.952755905511811
 31
0.0
  0
LINE
  5
2BE2
330
1E
100
AcDbEntity
  8
7
100
AcDbLine
 10
4.776574803149605
 20
3.952755905511811
 30
0.0
 11
4.778543307086613
 21
3.952755905511811
 31
0.0
  0
LINE
  5
2BE3
330
1E
100
AcDbEntity
  8
7
100
AcDbLine
 10
4.918307086614173
 20
3.951771653543307
 30
0.0
 11
5.5501968503937
 21
3.945866141732283
 31
0.0
  0
LINE
  5
2BF1
330
1E
100
AcDbEntity
  8
7
100
AcDbLine
 10
4.26279527559055
 20
4.096456692913386
 30
0.0
 11
4.223425196850393
 21
4.096456692913386
 31
0.0
  0
LINE
  5
2BF2
330
1E
100
AcDbEntity
  8
7
100
AcDbLine
 10
4.26279527559055
 20
4.094488188976377
 30
0.0
 11
4.26279527559055
 21
4.096456692913386
 31
0.0
  0
LINE
  5
2BF3
330
1E
100
AcDbEntity
  8
7
100
AcDbLine
 10
4.26279527559055
 20
4.279527559055117
 30
0.0
 11
4.26279527559055
 21
4.281496062992125
 31
0.0
  0
LINE
  5
2FB4
330
1E
100
AcDbEntity
  8
7
100
AcDbLine
 10
4.223425196850393
 20
4.096456692913386
 30
0.0
 11
4.223425196850393
 21
4.106299212598425
 31
0.0
  0
LINE
  5
2FB5
330
1E
100
AcDbEntity
  8
7
100
AcDbLine
 10
4.223425196850393
 20
4.106299212598425
 30
0.0
 11
4.223425196850393
 21
4.124015748031496
 31
0.0
  0
LINE
  5
2FB6
330
1E
100
AcDbEntity
  8
7
100
AcDbLine
 10
4.223425196850393
 20
4.124015748031496
 30
0.0
 11
4.223425196850393
 21
4.146653543307086
 31
0.0
  0
LINE
  5
2FB7
330
1E
100
AcDbEntity
  8
7
100
AcDbLine
 10
4.223425196850393
 20
4.146653543307086
 30
0.0
 11
4.223425196850393
 21
4.174212598425197
 31
0.0
  0
LINE
  5
2FB8
330
1E
100
AcDbEntity
  8
7
100
AcDbLine
 10
4.223425196850393
 20
4.174212598425197
 30
0.0
 11
4.223425196850393
 21
4.201771653543307
 31
0.0
  0
LINE
  5
2FB9
330
1E
100
AcDbEntity
  8
7
100
AcDbLine
 10
4.223425196850393
 20
4.201771653543307
 30
0.0
 11
4.223425196850393
 21
4.228346456692912
 31
0.0
  0
LINE
  5
2FBA
330
1E
100
AcDbEntity
  8
7
100
AcDbLine
 10
4.223425196850393
 20
4.228346456692912
 30
0.0
 11
4.223425196850393
 21
4.251968503937007
 31
0.0
  0
LINE
  5
2FBB
330
1E
100
AcDbEntity
  8
7
100
AcDbLine
 10
4.223425196850393
 20
4.251968503937007
 30
0.0
 11
4.223425196850393
 21
4.269685039370078
 31
0.0
  0
LINE
  5
2FBC
330
1E
100
AcDbEntity
  8
7
100
AcDbLine
 10
4.223425196850393
 20
4.269685039370078
 30
0.0
 11
4.223425196850393
 21
4.279527559055117
 31
0.0
  0
LINE
  5
2FBD
330
1E
100
AcDbEntity
  8
7
100
AcDbLine
 10
4.223425196850393
 20
4.279527559055117
 30
0.0
 11
4.26279527559055
 21
4.279527559055117
 31
0.0
  0
LINE
  5
2FBE
330
1E
100
AcDbEntity
  8
7
100
AcDbLine
 10
5.579724409448818
 20
3.896653543307086
 30
0.0
 11
5.579724409448818
 21
3.916338582677165
 31
0.0
  0
LINE
  5
2FBF
330
1E
100
AcDbEntity
  8
7
100
AcDbLine
 10
5.579724409448818
 20
3.916338582677165
 30
0.0
 11
5.575787401574802
 21
3.931102362204724
 31
0.0
  0
LINE
  5
2FC0
330
1E
100
AcDbEntity
  8
7
100
AcDbLine
 10
5.575787401574802
 20
3.931102362204724
 30
0.0
 11
5.564960629921259
 21
3.941929133858267
 31
0.0
  0
LINE
  5
2FC1
330
1E
100
AcDbEntity
  8
7
100
AcDbLine
 10
5.564960629921259
 20
3.941929133858267
 30
0.0
 11
5.5501968503937
 21
3.945866141732283
 31
0.0
  0
LINE
  5
2FC2
330
1E
100
AcDbEntity
  8
7
100
AcDbLine
 10
4.699803149606299
 20
3.883858267716535
 30
0.0
 11
4.694881889763778
 21
3.884842519685039
 31
0.0
  0
LINE
  5
2FC3
330
1E
100
AcDbEntity
  8
7
100
AcDbLine
 10
4.694881889763778
 20
3.884842519685039
 30
0.0
 11
4.681102362204724
 21
3.884842519685039
 31
0.0
  0
LINE
  5
2FC4
330
1E
100
AcDbEntity
  8
7
100
AcDbLine
 10
4.681102362204724
 20
3.884842519685039
 30
0.0
 11
4.660433070866141
 21
3.885826771653542
 31
0.0
  0
LINE
  5
2FC5
330
1E
100
AcDbEntity
  8
7
100
AcDbLine
 10
4.660433070866141
 20
3.885826771653542
 30
0.0
 11
4.634842519685038
 21
3.885826771653542
 31
0.0
  0
LINE
  5
2FC6
330
1E
100
AcDbEntity
  8
7
100
AcDbLine
 10
4.634842519685038
 20
3.885826771653542
 30
0.0
 11
4.606299212598425
 21
3.885826771653542
 31
0.0
  0
LINE
  5
2FC7
330
1E
100
AcDbEntity
  8
7
100
AcDbLine
 10
4.603346456692912
 20
3.885826771653542
 30
0.0
 11
4.573818897637794
 21
3.885826771653542
 31
0.0
  0
LINE
  5
2FC8
330
1E
100
AcDbEntity
  8
7
100
AcDbLine
 10
4.573818897637794
 20
3.885826771653542
 30
0.0
 11
4.548228346456692
 21
3.885826771653542
 31
0.0
  0
LINE
  5
2FC9
330
1E
100
AcDbEntity
  8
7
100
AcDbLine
 10
4.548228346456692
 20
3.885826771653542
 30
0.0
 11
4.527559055118109
 21
3.884842519685039
 31
0.0
  0
LINE
  5
2FCA
330
1E
100
AcDbEntity
  8
7
100
AcDbLine
 10
4.527559055118109
 20
3.884842519685039
 30
0.0
 11
4.513779527559054
 21
3.884842519685039
 31
0.0
  0
LINE
  5
2FCB
330
1E
100
AcDbEntity
  8
7
100
AcDbLine
 10
4.513779527559054
 20
3.884842519685039
 30
0.0
 11
4.508858267716535
 21
3.883858267716535
 31
0.0
  0
LINE
  5
2FCC
330
1E
100
AcDbEntity
  8
7
100
AcDbLine
 10
4.487204724409448
 20
4.468503937007874
 30
0.0
 11
4.394685039370077
 21
4.46751968503937
 31
0.0
  0
LINE
  5
2FCD
330
1E
100
AcDbEntity
  8
7
100
AcDbLine
 10
4.394685039370077
 20
4.46751968503937
 30
0.0
 11
4.394685039370077
 21
3.817913385826771
 31
0.0
  0
LINE
  5
2FCE
330
1E
100
AcDbEntity
  8
7
100
AcDbLine
 10
4.487204724409448
 20
3.817913385826771
 30
0.0
 11
4.394685039370077
 21
3.817913385826771
 31
0.0
  0
LINE
  5
2FCF
330
1E
100
AcDbEntity
  8
7
100
AcDbLine
 10
4.394685039370077
 20
3.817913385826771
 30
0.0
 11
4.390748031496062
 21
3.817913385826771
 31
0.0
  0
LINE
  5
2FD0
330
1E
100
AcDbEntity
  8
7
100
AcDbLine
 10
4.390748031496062
 20
3.817913385826771
 30
0.0
 11
4.389763779527558
 21
3.817913385826771
 31
0.0
  0
LINE
  5
2FD1
330
1E
100
AcDbEntity
  8
7
100
AcDbLine
 10
4.660433070866141
 20
3.912401574803149
 30
0.0
 11
4.681102362204724
 21
3.912401574803149
 31
0.0
  0
LINE
  5
2FD2
330
1E
100
AcDbEntity
  8
7
100
AcDbLine
 10
4.681102362204724
 20
3.912401574803149
 30
0.0
 11
4.694881889763778
 21
3.911417322834645
 31
0.0
  0
LINE
  5
2FD3
330
1E
100
AcDbEntity
  8
7
100
AcDbLine
 10
4.694881889763778
 20
3.911417322834645
 30
0.0
 11
4.699803149606299
 21
3.911417322834645
 31
0.0
  0
LINE
  5
2FD4
330
1E
100
AcDbEntity
  8
7
100
AcDbLine
 10
4.606299212598425
 20
3.913385826771653
 30
0.0
 11
4.634842519685038
 21
3.912401574803149
 31
0.0
  0
LINE
  5
2FD5
330
1E
100
AcDbEntity
  8
7
100
AcDbLine
 10
4.634842519685038
 20
3.912401574803149
 30
0.0
 11
4.660433070866141
 21
3.912401574803149
 31
0.0
  0
LINE
  5
2FD6
330
1E
100
AcDbEntity
  8
7
100
AcDbLine
 10
4.508858267716535
 20
3.915354330708661
 30
0.0
 11
4.513779527559054
 21
3.914370078740157
 31
0.0
  0
LINE
  5
2FD7
330
1E
100
AcDbEntity
  8
7
100
AcDbLine
 10
4.513779527559054
 20
3.914370078740157
 30
0.0
 11
4.527559055118109
 21
3.914370078740157
 31
0.0
  0
LINE
  5
2FD8
330
1E
100
AcDbEntity
  8
7
100
AcDbLine
 10
4.527559055118109
 20
3.914370078740157
 30
0.0
 11
4.548228346456692
 21
3.914370078740157
 31
0.0
  0
LINE
  5
2FD9
330
1E
100
AcDbEntity
  8
7
100
AcDbLine
 10
4.548228346456692
 20
3.914370078740157
 30
0.0
 11
4.573818897637794
 21
3.913385826771653
 31
0.0
  0
LINE
  5
2FDA
330
1E
100
AcDbEntity
  8
7
100
AcDbLine
 10
4.573818897637794
 20
3.913385826771653
 30
0.0
 11
4.603346456692912
 21
3.913385826771653
 31
0.0
  0
LINE
  5
2FDB
330
1E
100
AcDbEntity
  8
7
100
AcDbLine
 10
4.579724409448818
 20
4.442913385826771
 30
0.0
 11
4.598425196850393
 21
4.46259842519685
 31
0.0
  0
LINE
  5
2FDC
330
1E
100
AcDbEntity
  8
7
100
AcDbLine
 10
4.598425196850393
 20
4.46259842519685
 30
0.0
 11
4.779527559055117
 21
4.465551181102362
 31
0.0
  0
LINE
  5
2FDD
330
1E
100
AcDbEntity
  8
7
100
AcDbLine
 10
4.487204724409448
 20
4.468503937007874
 30
0.0
 11
4.487204724409448
 21
4.532480314960629
 31
0.0
  0
LINE
  5
2FDE
330
1E
100
AcDbEntity
  8
7
100
AcDbLine
 10
4.487204724409448
 20
4.532480314960629
 30
0.0
 11
4.487204724409448
 21
4.537401574803149
 31
0.0
  0
LINE
  5
2FDF
330
1E
100
AcDbEntity
  8
7
100
AcDbLine
 10
4.389763779527558
 20
3.817913385826771
 30
0.0
 11
4.389763779527558
 21
4.466535433070865
 31
0.0
  0
LINE
  5
2FE0
330
1E
100
AcDbEntity
  8
7
100
AcDbLine
 10
4.389763779527558
 20
4.466535433070865
 30
0.0
 11
4.389763779527558
 21
4.523622047244094
 31
0.0
  0
LINE
  5
2FE1
330
1E
100
AcDbEntity
  8
7
100
AcDbLine
 10
4.685039370078739
 20
4.355314960629921
 30
0.0
 11
4.687992125984251
 21
4.347440944881889
 31
0.0
  0
LINE
  5
2FE2
330
1E
100
AcDbEntity
  8
7
100
AcDbLine
 10
4.687992125984251
 20
4.347440944881889
 30
0.0
 11
4.695866141732283
 21
4.344488188976377
 31
0.0
  0
LINE
  5
2FE3
330
1E
100
AcDbEntity
  8
7
100
AcDbLine
 10
4.695866141732283
 20
4.288385826771653
 30
0.0
 11
4.687992125984251
 21
4.288385826771653
 31
0.0
  0
LINE
  5
2FE4
330
1E
100
AcDbEntity
  8
7
100
AcDbLine
 10
4.687992125984251
 20
4.288385826771653
 30
0.0
 11
4.684055118110236
 21
4.290354330708661
 31
0.0
  0
LINE
  5
2FE5
330
1E
100
AcDbEntity
  8
7
100
AcDbLine
 10
4.695866141732283
 20
4.031496062992125
 30
0.0
 11
4.687992125984251
 21
4.028543307086613
 31
0.0
  0
LINE
  5
2FE6
330
1E
100
AcDbEntity
  8
7
100
AcDbLine
 10
4.687992125984251
 20
4.028543307086613
 30
0.0
 11
4.685039370078739
 21
4.020669291338582
 31
0.0
  0
LINE
  5
2FE7
330
1E
100
AcDbEntity
  8
7
100
AcDbLine
 10
4.695866141732283
 20
4.288385826771653
 30
0.0
 11
4.695866141732283
 21
4.310039370078739
 31
0.0
  0
LINE
  5
2FE8
330
1E
100
AcDbEntity
  8
7
100
AcDbLine
 10
4.695866141732283
 20
4.310039370078739
 30
0.0
 11
4.695866141732283
 21
4.328740157480314
 31
0.0
  0
LINE
  5
2FE9
330
1E
100
AcDbEntity
  8
7
100
AcDbLine
 10
4.695866141732283
 20
4.328740157480314
 30
0.0
 11
4.695866141732283
 21
4.340551181102362
 31
0.0
  0
LINE
  5
2FEA
330
1E
100
AcDbEntity
  8
7
100
AcDbLine
 10
4.695866141732283
 20
4.340551181102362
 30
0.0
 11
4.695866141732283
 21
4.344488188976377
 31
0.0
  0
LINE
  5
2FEB
330
1E
100
AcDbEntity
  8
7
100
AcDbLine
 10
4.778543307086613
 20
4.031496062992125
 30
0.0
 11
4.695866141732283
 21
4.031496062992125
 31
0.0
  0
LINE
  5
2FEC
330
1E
100
AcDbEntity
  8
7
100
AcDbLine
 10
4.695866141732283
 20
4.031496062992125
 30
0.0
 11
4.695866141732283
 21
4.036417322834645
 31
0.0
  0
LINE
  5
2FED
330
1E
100
AcDbEntity
  8
7
100
AcDbLine
 10
4.695866141732283
 20
4.036417322834645
 30
0.0
 11
4.695866141732283
 21
4.049212598425197
 31
0.0
  0
LINE
  5
2FEE
330
1E
100
AcDbEntity
  8
7
100
AcDbLine
 10
4.695866141732283
 20
4.049212598425197
 30
0.0
 11
4.695866141732283
 21
4.069881889763779
 31
0.0
  0
LINE
  5
2FEF
330
1E
100
AcDbEntity
  8
7
100
AcDbLine
 10
4.695866141732283
 20
4.069881889763779
 30
0.0
 11
4.695866141732283
 21
4.094488188976377
 31
0.0
  0
LINE
  5
2FF0
330
1E
100
AcDbEntity
  8
7
100
AcDbLine
 10
4.922244094488188
 20
4.310039370078739
 30
0.0
 11
4.922244094488188
 21
4.288385826771653
 31
0.0
  0
LINE
  5
2FF1
330
1E
100
AcDbEntity
  8
7
100
AcDbLine
 10
4.922244094488188
 20
4.288385826771653
 30
0.0
 11
4.922244094488188
 21
4.111220472440944
 31
0.0
  0
LINE
  5
2FF2
330
1E
100
AcDbEntity
  8
7
100
AcDbLine
 10
4.922244094488188
 20
4.111220472440944
 30
0.0
 11
4.922244094488188
 21
4.08759842519685
 31
0.0
  0
LINE
  5
2FF3
330
1E
100
AcDbEntity
  8
7
100
AcDbLine
 10
4.922244094488188
 20
4.08759842519685
 30
0.0
 11
4.922244094488188
 21
4.06496062992126
 31
0.0
  0
LINE
  5
2FF4
330
1E
100
AcDbEntity
  8
7
100
AcDbLine
 10
4.922244094488188
 20
4.06496062992126
 30
0.0
 11
4.922244094488188
 21
4.047244094488188
 31
0.0
  0
LINE
  5
2FF5
330
1E
100
AcDbEntity
  8
7
100
AcDbLine
 10
4.922244094488188
 20
4.047244094488188
 30
0.0
 11
4.922244094488188
 21
4.035433070866141
 31
0.0
  0
LINE
  5
2FF6
330
1E
100
AcDbEntity
  8
7
100
AcDbLine
 10
4.922244094488188
 20
4.035433070866141
 30
0.0
 11
4.922244094488188
 21
4.031496062992125
 31
0.0
  0
LINE
  5
2FF7
330
1E
100
AcDbEntity
  8
7
100
AcDbLine
 10
4.918307086614173
 20
4.344488188976377
 30
0.0
 11
4.922244094488188
 21
4.344488188976377
 31
0.0
  0
LINE
  5
2FF8
330
1E
100
AcDbEntity
  8
7
100
AcDbLine
 10
4.922244094488188
 20
4.344488188976377
 30
0.0
 11
4.922244094488188
 21
4.340551181102362
 31
0.0
  0
LINE
  5
2FF9
330
1E
100
AcDbEntity
  8
7
100
AcDbLine
 10
4.922244094488188
 20
4.340551181102362
 30
0.0
 11
4.922244094488188
 21
4.328740157480314
 31
0.0
  0
LINE
  5
2FFA
330
1E
100
AcDbEntity
  8
7
100
AcDbLine
 10
4.922244094488188
 20
4.328740157480314
 30
0.0
 11
4.922244094488188
 21
4.310039370078739
 31
0.0
  0
LINE
  5
2FFB
330
1E
100
AcDbEntity
  8
7
100
AcDbLine
 10
4.684055118110236
 20
3.99015748031496
 30
0.0
 11
4.684055118110236
 21
3.965551181102362
 31
0.0
  0
LINE
  5
2FFC
330
1E
100
AcDbEntity
  8
7
100
AcDbLine
 10
4.684055118110236
 20
3.965551181102362
 30
0.0
 11
4.684055118110236
 21
3.946850393700787
 31
0.0
  0
LINE
  5
2FFD
330
1E
100
AcDbEntity
  8
7
100
AcDbLine
 10
4.684055118110236
 20
3.946850393700787
 30
0.0
 11
4.684055118110236
 21
3.940944881889763
 31
0.0
  0
LINE
  5
2FFE
330
1E
100
AcDbEntity
  8
7
100
AcDbLine
 10
4.684055118110236
 20
4.435039370078739
 30
0.0
 11
4.684055118110236
 21
4.428149606299212
 31
0.0
  0
LINE
  5
2FFF
330
1E
100
AcDbEntity
  8
7
100
AcDbLine
 10
4.684055118110236
 20
4.428149606299212
 30
0.0
 11
4.684055118110236
 21
4.410433070866141
 31
0.0
  0
LINE
  5
3000
330
1E
100
AcDbEntity
  8
7
100
AcDbLine
 10
4.684055118110236
 20
4.410433070866141
 30
0.0
 11
4.684055118110236
 21
4.384842519685038
 31
0.0
  0
LINE
  5
3001
330
1E
100
AcDbEntity
  8
7
100
AcDbLine
 10
4.684055118110236
 20
3.99015748031496
 30
0.0
 11
4.684055118110236
 21
4.384842519685038
 31
0.0
  0
LINE
  5
3002
330
1E
100
AcDbEntity
  8
7
100
AcDbLine
 10
4.684055118110236
 20
4.384842519685038
 30
0.0
 11
4.662401574803149
 21
4.384842519685038
 31
0.0
  0
LINE
  5
3003
330
1E
100
AcDbEntity
  8
7
100
AcDbLine
 10
4.662401574803149
 20
3.946850393700787
 30
0.0
 11
4.662401574803149
 21
3.965551181102362
 31
0.0
  0
LINE
  5
3004
330
1E
100
AcDbEntity
  8
7
100
AcDbLine
 10
4.662401574803149
 20
3.965551181102362
 30
0.0
 11
4.662401574803149
 21
3.99015748031496
 31
0.0
  0
LINE
  5
3005
330
1E
100
AcDbEntity
  8
7
100
AcDbLine
 10
4.662401574803149
 20
3.99015748031496
 30
0.0
 11
4.662401574803149
 21
4.384842519685038
 31
0.0
  0
LINE
  5
3006
330
1E
100
AcDbEntity
  8
7
100
AcDbLine
 10
4.662401574803149
 20
4.384842519685038
 30
0.0
 11
4.662401574803149
 21
4.410433070866141
 31
0.0
  0
LINE
  5
3007
330
1E
100
AcDbEntity
  8
7
100
AcDbLine
 10
4.662401574803149
 20
4.410433070866141
 30
0.0
 11
4.662401574803149
 21
4.428149606299212
 31
0.0
  0
LINE
  5
3008
330
1E
100
AcDbEntity
  8
7
100
AcDbLine
 10
4.662401574803149
 20
4.428149606299212
 30
0.0
 11
4.662401574803149
 21
4.435039370078739
 31
0.0
  0
LINE
  5
3009
330
1E
100
AcDbEntity
  8
7
100
AcDbLine
 10
4.662401574803149
 20
3.99015748031496
 30
0.0
 11
4.662401574803149
 21
3.965551181102362
 31
0.0
  0
LINE
  5
300A
330
1E
100
AcDbEntity
  8
7
100
AcDbLine
 10
4.662401574803149
 20
3.965551181102362
 30
0.0
 11
4.662401574803149
 21
3.946850393700787
 31
0.0
  0
LINE
  5
300B
330
1E
100
AcDbEntity
  8
7
100
AcDbLine
 10
4.662401574803149
 20
3.946850393700787
 30
0.0
 11
4.662401574803149
 21
3.940944881889763
 31
0.0
  0
LINE
  5
300C
330
1E
100
AcDbEntity
  8
7
100
AcDbLine
 10
4.476377952755904
 20
4.435039370078739
 30
0.0
 11
4.662401574803149
 21
4.435039370078739
 31
0.0
  0
LINE
  5
300D
330
1E
100
AcDbEntity
  8
7
100
AcDbLine
 10
4.662401574803149
 20
4.435039370078739
 30
0.0
 11
4.662401574803149
 21
4.428149606299212
 31
0.0
  0
LINE
  5
300E
330
1E
100
AcDbEntity
  8
7
100
AcDbLine
 10
4.662401574803149
 20
4.428149606299212
 30
0.0
 11
4.662401574803149
 21
4.410433070866141
 31
0.0
  0
LINE
  5
300F
330
1E
100
AcDbEntity
  8
7
100
AcDbLine
 10
4.662401574803149
 20
4.410433070866141
 30
0.0
 11
4.662401574803149
 21
4.384842519685038
 31
0.0
  0
LINE
  5
3010
330
1E
100
AcDbEntity
  8
7
100
AcDbLine
 10
4.476377952755904
 20
3.940944881889763
 30
0.0
 11
4.476377952755904
 21
3.946850393700787
 31
0.0
  0
LINE
  5
3011
330
1E
100
AcDbEntity
  8
7
100
AcDbLine
 10
4.476377952755904
 20
3.946850393700787
 30
0.0
 11
4.476377952755904
 21
3.965551181102362
 31
0.0
  0
LINE
  5
3012
330
1E
100
AcDbEntity
  8
7
100
AcDbLine
 10
4.476377952755904
 20
3.965551181102362
 30
0.0
 11
4.476377952755904
 21
3.99015748031496
 31
0.0
  0
LINE
  5
3013
330
1E
100
AcDbEntity
  8
7
100
AcDbLine
 10
4.476377952755904
 20
4.410433070866141
 30
0.0
 11
4.476377952755904
 21
4.428149606299212
 31
0.0
  0
LINE
  5
3014
330
1E
100
AcDbEntity
  8
7
100
AcDbLine
 10
4.476377952755904
 20
4.428149606299212
 30
0.0
 11
4.476377952755904
 21
4.435039370078739
 31
0.0
  0
LINE
  5
3015
330
1E
100
AcDbEntity
  8
7
100
AcDbLine
 10
4.216535433070865
 20
4.344488188976377
 30
0.0
 11
4.216535433070865
 21
4.340551181102362
 31
0.0
  0
LINE
  5
3016
330
1E
100
AcDbEntity
  8
7
100
AcDbLine
 10
4.216535433070865
 20
4.340551181102362
 30
0.0
 11
4.216535433070865
 21
4.328740157480314
 31
0.0
  0
LINE
  5
3017
330
1E
100
AcDbEntity
  8
7
100
AcDbLine
 10
4.216535433070865
 20
4.328740157480314
 30
0.0
 11
4.216535433070865
 21
4.310039370078739
 31
0.0
  0
LINE
  5
3018
330
1E
100
AcDbEntity
  8
7
100
AcDbLine
 10
4.216535433070865
 20
4.310039370078739
 30
0.0
 11
4.216535433070865
 21
4.288385826771653
 31
0.0
  0
LINE
  5
3019
330
1E
100
AcDbEntity
  8
7
100
AcDbLine
 10
4.216535433070865
 20
4.288385826771653
 30
0.0
 11
4.216535433070865
 21
4.264763779527559
 31
0.0
  0
LINE
  5
301A
330
1E
100
AcDbEntity
  8
7
100
AcDbLine
 10
4.216535433070865
 20
4.08759842519685
 30
0.0
 11
4.216535433070865
 21
4.06496062992126
 31
0.0
  0
LINE
  5
301B
330
1E
100
AcDbEntity
  8
7
100
AcDbLine
 10
4.216535433070865
 20
4.06496062992126
 30
0.0
 11
4.216535433070865
 21
4.047244094488188
 31
0.0
  0
LINE
  5
301C
330
1E
100
AcDbEntity
  8
7
100
AcDbLine
 10
4.216535433070865
 20
4.047244094488188
 30
0.0
 11
4.216535433070865
 21
4.035433070866141
 31
0.0
  0
LINE
  5
301D
330
1E
100
AcDbEntity
  8
7
100
AcDbLine
 10
4.216535433070865
 20
4.035433070866141
 30
0.0
 11
4.216535433070865
 21
4.031496062992125
 31
0.0
  0
LINE
  5
301E
330
1E
100
AcDbEntity
  8
7
100
AcDbLine
 10
4.476377952755904
 20
3.99015748031496
 30
0.0
 11
4.476377952755904
 21
3.965551181102362
 31
0.0
  0
LINE
  5
301F
330
1E
100
AcDbEntity
  8
7
100
AcDbLine
 10
4.476377952755904
 20
3.965551181102362
 30
0.0
 11
4.476377952755904
 21
3.946850393700787
 31
0.0
  0
LINE
  5
3020
330
1E
100
AcDbEntity
  8
7
100
AcDbLine
 10
4.476377952755904
 20
3.946850393700787
 30
0.0
 11
4.476377952755904
 21
3.940944881889763
 31
0.0
  0
LINE
  5
3021
330
1E
100
AcDbEntity
  8
7
100
AcDbLine
 10
4.476377952755904
 20
4.435039370078739
 30
0.0
 11
4.476377952755904
 21
4.428149606299212
 31
0.0
  0
LINE
  5
3022
330
1E
100
AcDbEntity
  8
7
100
AcDbLine
 10
4.476377952755904
 20
4.428149606299212
 30
0.0
 11
4.476377952755904
 21
4.410433070866141
 31
0.0
  0
LINE
  5
3023
330
1E
100
AcDbEntity
  8
7
100
AcDbLine
 10
4.476377952755904
 20
4.410433070866141
 30
0.0
 11
4.476377952755904
 21
4.384842519685038
 31
0.0
  0
LINE
  5
3024
330
1E
100
AcDbEntity
  8
7
100
AcDbLine
 10
3.034448818897637
 20
4.279527559055117
 30
0.0
 11
3.014763779527558
 21
4.281496062992125
 31
0.0
  0
LINE
  5
3025
330
1E
100
AcDbEntity
  8
7
100
AcDbLine
 10
3.014763779527558
 20
4.281496062992125
 30
0.0
 11
2.99507874015748
 21
4.279527559055117
 31
0.0
  0
LINE
  5
3026
330
1E
100
AcDbEntity
  8
7
100
AcDbLine
 10
2.99507874015748
 20
4.096456692913386
 30
0.0
 11
3.014763779527558
 21
4.094488188976377
 31
0.0
  0
LINE
  5
3027
330
1E
100
AcDbEntity
  8
7
100
AcDbLine
 10
3.014763779527558
 20
4.094488188976377
 30
0.0
 11
3.034448818897637
 21
4.096456692913386
 31
0.0
  0
LINE
  5
3028
330
1E
100
AcDbEntity
  8
7
100
AcDbLine
 10
3.034448818897637
 20
4.222440944881889
 30
0.0
 11
3.014763779527558
 21
4.227362204724409
 31
0.0
  0
LINE
  5
3029
330
1E
100
AcDbEntity
  8
7
100
AcDbLine
 10
3.014763779527558
 20
4.227362204724409
 30
0.0
 11
2.99507874015748
 21
4.222440944881889
 31
0.0
  0
LINE
  5
302A
330
1E
100
AcDbEntity
  8
7
100
AcDbLine
 10
2.99507874015748
 20
4.153543307086613
 30
0.0
 11
3.014763779527558
 21
4.148622047244094
 31
0.0
  0
LINE
  5
302B
330
1E
100
AcDbEntity
  8
7
100
AcDbLine
 10
3.014763779527558
 20
4.148622047244094
 30
0.0
 11
3.034448818897637
 21
4.153543307086613
 31
0.0
  0
LINE
  5
302C
330
1E
100
AcDbEntity
  8
7
100
AcDbLine
 10
2.99507874015748
 20
4.222440944881889
 30
0.0
 11
2.980314960629921
 21
4.20767716535433
 31
0.0
  0
LINE
  5
302D
330
1E
100
AcDbEntity
  8
7
100
AcDbLine
 10
2.980314960629921
 20
4.20767716535433
 30
0.0
 11
2.975393700787401
 21
4.187992125984251
 31
0.0
  0
LINE
  5
302E
330
1E
100
AcDbEntity
  8
7
100
AcDbLine
 10
2.975393700787401
 20
4.187992125984251
 30
0.0
 11
2.980314960629921
 21
4.168307086614173
 31
0.0
  0
LINE
  5
302F
330
1E
100
AcDbEntity
  8
7
100
AcDbLine
 10
2.980314960629921
 20
4.168307086614173
 30
0.0
 11
2.99507874015748
 21
4.153543307086613
 31
0.0
  0
LINE
  5
3030
330
1E
100
AcDbEntity
  8
7
100
AcDbLine
 10
2.946850393700787
 20
4.251968503937007
 30
0.0
 11
2.931102362204724
 21
4.228346456692912
 31
0.0
  0
LINE
  5
3031
330
1E
100
AcDbEntity
  8
7
100
AcDbLine
 10
2.931102362204724
 20
4.228346456692912
 30
0.0
 11
2.922244094488188
 21
4.201771653543307
 31
0.0
  0
LINE
  5
3032
330
1E
100
AcDbEntity
  8
7
100
AcDbLine
 10
2.922244094488188
 20
4.201771653543307
 30
0.0
 11
2.922244094488188
 21
4.174212598425197
 31
0.0
  0
LINE
  5
3033
330
1E
100
AcDbEntity
  8
7
100
AcDbLine
 10
2.922244094488188
 20
4.174212598425197
 30
0.0
 11
2.931102362204724
 21
4.14763779527559
 31
0.0
  0
LINE
  5
3034
330
1E
100
AcDbEntity
  8
7
100
AcDbLine
 10
2.931102362204724
 20
4.14763779527559
 30
0.0
 11
2.946850393700787
 21
4.124015748031496
 31
0.0
  0
LINE
  5
3035
330
1E
100
AcDbEntity
  8
7
100
AcDbLine
 10
2.946850393700787
 20
4.124015748031496
 30
0.0
 11
2.968503937007874
 21
4.106299212598425
 31
0.0
  0
LINE
  5
3036
330
1E
100
AcDbEntity
  8
7
100
AcDbLine
 10
2.968503937007874
 20
4.106299212598425
 30
0.0
 11
2.99507874015748
 21
4.096456692913386
 31
0.0
  0
LINE
  5
3037
330
1E
100
AcDbEntity
  8
7
100
AcDbLine
 10
2.99507874015748
 20
4.279527559055117
 30
0.0
 11
2.968503937007874
 21
4.269685039370078
 31
0.0
  0
LINE
  5
3038
330
1E
100
AcDbEntity
  8
7
100
AcDbLine
 10
2.968503937007874
 20
4.269685039370078
 30
0.0
 11
2.946850393700787
 21
4.251968503937007
 31
0.0
  0
LINE
  5
3039
330
1E
100
AcDbEntity
  8
7
100
AcDbLine
 10
3.034448818897637
 20
4.153543307086613
 30
0.0
 11
3.049212598425196
 21
4.168307086614173
 31
0.0
  0
LINE
  5
303A
330
1E
100
AcDbEntity
  8
7
100
AcDbLine
 10
3.049212598425196
 20
4.168307086614173
 30
0.0
 11
3.054133858267716
 21
4.187992125984251
 31
0.0
  0
LINE
  5
303B
330
1E
100
AcDbEntity
  8
7
100
AcDbLine
 10
3.054133858267716
 20
4.187992125984251
 30
0.0
 11
3.049212598425196
 21
4.20767716535433
 31
0.0
  0
LINE
  5
303C
330
1E
100
AcDbEntity
  8
7
100
AcDbLine
 10
3.049212598425196
 20
4.20767716535433
 30
0.0
 11
3.034448818897637
 21
4.222440944881889
 31
0.0
  0
LINE
  5
303D
330
1E
100
AcDbEntity
  8
7
100
AcDbLine
 10
3.034448818897637
 20
4.096456692913386
 30
0.0
 11
3.061023622047243
 21
4.106299212598425
 31
0.0
  0
LINE
  5
303E
330
1E
100
AcDbEntity
  8
7
100
AcDbLine
 10
3.061023622047243
 20
4.106299212598425
 30
0.0
 11
3.08267716535433
 21
4.124015748031496
 31
0.0
  0
LINE
  5
303F
330
1E
100
AcDbEntity
  8
7
100
AcDbLine
 10
3.08267716535433
 20
4.124015748031496
 30
0.0
 11
3.098425196850393
 21
4.14763779527559
 31
0.0
  0
LINE
  5
3040
330
1E
100
AcDbEntity
  8
7
100
AcDbLine
 10
3.098425196850393
 20
4.14763779527559
 30
0.0
 11
3.107283464566929
 21
4.174212598425197
 31
0.0
  0
LINE
  5
3041
330
1E
100
AcDbEntity
  8
7
100
AcDbLine
 10
3.107283464566929
 20
4.174212598425197
 30
0.0
 11
3.107283464566929
 21
4.201771653543307
 31
0.0
  0
LINE
  5
3042
330
1E
100
AcDbEntity
  8
7
100
AcDbLine
 10
3.107283464566929
 20
4.201771653543307
 30
0.0
 11
3.098425196850393
 21
4.228346456692912
 31
0.0
  0
LINE
  5
3043
330
1E
100
AcDbEntity
  8
7
100
AcDbLine
 10
3.098425196850393
 20
4.228346456692912
 30
0.0
 11
3.08267716535433
 21
4.251968503937007
 31
0.0
  0
LINE
  5
3044
330
1E
100
AcDbEntity
  8
7
100
AcDbLine
 10
3.08267716535433
 20
4.251968503937007
 30
0.0
 11
3.061023622047243
 21
4.269685039370078
 31
0.0
  0
LINE
  5
3045
330
1E
100
AcDbEntity
  8
7
100
AcDbLine
 10
3.061023622047243
 20
4.269685039370078
 30
0.0
 11
3.034448818897637
 21
4.279527559055117
 31
0.0
  0
LINE
  5
3046
330
1E
100
AcDbEntity
  8
7
100
AcDbLine
 10
2.0501968503937
 20
4.279527559055117
 30
0.0
 11
2.030511811023622
 21
4.281496062992125
 31
0.0
  0
LINE
  5
3047
330
1E
100
AcDbEntity
  8
7
100
AcDbLine
 10
2.030511811023622
 20
4.281496062992125
 30
0.0
 11
2.010826771653543
 21
4.279527559055117
 31
0.0
  0
LINE
  5
3048
330
1E
100
AcDbEntity
  8
7
100
AcDbLine
 10
2.010826771653543
 20
4.096456692913386
 30
0.0
 11
2.030511811023622
 21
4.094488188976377
 31
0.0
  0
LINE
  5
3049
330
1E
100
AcDbEntity
  8
7
100
AcDbLine
 10
2.030511811023622
 20
4.094488188976377
 30
0.0
 11
2.0501968503937
 21
4.096456692913386
 31
0.0
  0
LINE
  5
304A
330
1E
100
AcDbEntity
  8
7
100
AcDbLine
 10
2.0501968503937
 20
4.222440944881889
 30
0.0
 11
2.030511811023622
 21
4.227362204724409
 31
0.0
  0
LINE
  5
304B
330
1E
100
AcDbEntity
  8
7
100
AcDbLine
 10
2.030511811023622
 20
4.227362204724409
 30
0.0
 11
2.010826771653543
 21
4.222440944881889
 31
0.0
  0
LINE
  5
304C
330
1E
100
AcDbEntity
  8
7
100
AcDbLine
 10
2.010826771653543
 20
4.153543307086613
 30
0.0
 11
2.030511811023622
 21
4.148622047244094
 31
0.0
  0
LINE
  5
304D
330
1E
100
AcDbEntity
  8
7
100
AcDbLine
 10
2.030511811023622
 20
4.148622047244094
 30
0.0
 11
2.0501968503937
 21
4.153543307086613
 31
0.0
  0
LINE
  5
304E
330
1E
100
AcDbEntity
  8
7
100
AcDbLine
 10
2.010826771653543
 20
4.222440944881889
 30
0.0
 11
1.996062992125984
 21
4.20767716535433
 31
0.0
  0
LINE
  5
304F
330
1E
100
AcDbEntity
  8
7
100
AcDbLine
 10
1.996062992125984
 20
4.20767716535433
 30
0.0
 11
1.991141732283464
 21
4.187992125984251
 31
0.0
  0
LINE
  5
3050
330
1E
100
AcDbEntity
  8
7
100
AcDbLine
 10
1.991141732283464
 20
4.187992125984251
 30
0.0
 11
1.996062992125984
 21
4.168307086614173
 31
0.0
  0
LINE
  5
3051
330
1E
100
AcDbEntity
  8
7
100
AcDbLine
 10
1.996062992125984
 20
4.168307086614173
 30
0.0
 11
2.010826771653543
 21
4.153543307086613
 31
0.0
  0
LINE
  5
3052
330
1E
100
AcDbEntity
  8
7
100
AcDbLine
 10
2.010826771653543
 20
4.279527559055117
 30
0.0
 11
1.984251968503937
 21
4.269685039370078
 31
0.0
  0
LINE
  5
3053
330
1E
100
AcDbEntity
  8
7
100
AcDbLine
 10
1.984251968503937
 20
4.269685039370078
 30
0.0
 11
1.96259842519685
 21
4.251968503937007
 31
0.0
  0
LINE
  5
3054
330
1E
100
AcDbEntity
  8
7
100
AcDbLine
 10
1.96259842519685
 20
4.251968503937007
 30
0.0
 11
1.946850393700787
 21
4.228346456692912
 31
0.0
  0
LINE
  5
3055
330
1E
100
AcDbEntity
  8
7
100
AcDbLine
 10
1.946850393700787
 20
4.228346456692912
 30
0.0
 11
1.937992125984251
 21
4.201771653543307
 31
0.0
  0
LINE
  5
3056
330
1E
100
AcDbEntity
  8
7
100
AcDbLine
 10
1.937992125984251
 20
4.201771653543307
 30
0.0
 11
1.937992125984251
 21
4.174212598425197
 31
0.0
  0
LINE
  5
3057
330
1E
100
AcDbEntity
  8
7
100
AcDbLine
 10
1.937992125984251
 20
4.174212598425197
 30
0.0
 11
1.946850393700787
 21
4.14763779527559
 31
0.0
  0
LINE
  5
3058
330
1E
100
AcDbEntity
  8
7
100
AcDbLine
 10
1.946850393700787
 20
4.14763779527559
 30
0.0
 11
1.96259842519685
 21
4.124015748031496
 31
0.0
  0
LINE
  5
3059
330
1E
100
AcDbEntity
  8
7
100
AcDbLine
 10
1.96259842519685
 20
4.124015748031496
 30
0.0
 11
1.984251968503937
 21
4.106299212598425
 31
0.0
  0
LINE
  5
305A
330
1E
100
AcDbEntity
  8
7
100
AcDbLine
 10
1.984251968503937
 20
4.106299212598425
 30
0.0
 11
2.010826771653543
 21
4.096456692913386
 31
0.0
  0
LINE
  5
305B
330
1E
100
AcDbEntity
  8
7
100
AcDbLine
 10
2.0501968503937
 20
4.153543307086613
 30
0.0
 11
2.064960629921259
 21
4.168307086614173
 31
0.0
  0
LINE
  5
305C
330
1E
100
AcDbEntity
  8
7
100
AcDbLine
 10
2.064960629921259
 20
4.168307086614173
 30
0.0
 11
2.069881889763779
 21
4.187992125984251
 31
0.0
  0
LINE
  5
305D
330
1E
100
AcDbEntity
  8
7
100
AcDbLine
 10
2.069881889763779
 20
4.187992125984251
 30
0.0
 11
2.064960629921259
 21
4.20767716535433
 31
0.0
  0
LINE
  5
305E
330
1E
100
AcDbEntity
  8
7
100
AcDbLine
 10
2.064960629921259
 20
4.20767716535433
 30
0.0
 11
2.0501968503937
 21
4.222440944881889
 31
0.0
  0
LINE
  5
305F
330
1E
100
AcDbEntity
  8
7
100
AcDbLine
 10
2.0501968503937
 20
4.096456692913386
 30
0.0
 11
2.076771653543306
 21
4.106299212598425
 31
0.0
  0
LINE
  5
3060
330
1E
100
AcDbEntity
  8
7
100
AcDbLine
 10
2.076771653543306
 20
4.106299212598425
 30
0.0
 11
2.098425196850393
 21
4.124015748031496
 31
0.0
  0
LINE
  5
3061
330
1E
100
AcDbEntity
  8
7
100
AcDbLine
 10
2.098425196850393
 20
4.124015748031496
 30
0.0
 11
2.114173228346456
 21
4.14763779527559
 31
0.0
  0
LINE
  5
3062
330
1E
100
AcDbEntity
  8
7
100
AcDbLine
 10
2.114173228346456
 20
4.14763779527559
 30
0.0
 11
2.123031496062992
 21
4.174212598425197
 31
0.0
  0
LINE
  5
3063
330
1E
100
AcDbEntity
  8
7
100
AcDbLine
 10
2.123031496062992
 20
4.174212598425197
 30
0.0
 11
2.123031496062992
 21
4.201771653543307
 31
0.0
  0
LINE
  5
3064
330
1E
100
AcDbEntity
  8
7
100
AcDbLine
 10
2.123031496062992
 20
4.201771653543307
 30
0.0
 11
2.114173228346456
 21
4.228346456692912
 31
0.0
  0
LINE
  5
3065
330
1E
100
AcDbEntity
  8
7
100
AcDbLine
 10
2.114173228346456
 20
4.228346456692912
 30
0.0
 11
2.098425196850393
 21
4.251968503937007
 31
0.0
  0
LINE
  5
3066
330
1E
100
AcDbEntity
  8
7
100
AcDbLine
 10
2.098425196850393
 20
4.251968503937007
 30
0.0
 11
2.076771653543306
 21
4.269685039370078
 31
0.0
  0
LINE
  5
3067
330
1E
100
AcDbEntity
  8
7
100
AcDbLine
 10
2.076771653543306
 20
4.269685039370078
 30
0.0
 11
2.0501968503937
 21
4.279527559055117
 31
0.0
  0
LINE
  5
3068
330
1E
100
AcDbEntity
  8
7
100
AcDbLine
 10
1.966535433070866
 20
4.119094488188975
 30
0.0
 11
1.989173228346456
 21
4.103346456692912
 31
0.0
  0
LINE
  5
3069
330
1E
100
AcDbEntity
  8
7
100
AcDbLine
 10
1.989173228346456
 20
4.103346456692912
 30
0.0
 11
2.016732283464567
 21
4.094488188976377
 31
0.0
  0
LINE
  5
306A
330
1E
100
AcDbEntity
  8
7
100
AcDbLine
 10
2.016732283464567
 20
4.094488188976377
 30
0.0
 11
2.044291338582677
 21
4.094488188976377
 31
0.0
  0
LINE
  5
306B
330
1E
100
AcDbEntity
  8
7
100
AcDbLine
 10
2.044291338582677
 20
4.094488188976377
 30
0.0
 11
2.071850393700787
 21
4.103346456692912
 31
0.0
  0
LINE
  5
306C
330
1E
100
AcDbEntity
  8
7
100
AcDbLine
 10
2.071850393700787
 20
4.103346456692912
 30
0.0
 11
2.094488188976377
 21
4.119094488188975
 31
0.0
  0
LINE
  5
306D
330
1E
100
AcDbEntity
  8
7
100
AcDbLine
 10
2.094488188976377
 20
4.119094488188975
 30
0.0
 11
2.112204724409448
 21
4.140748031496062
 31
0.0
  0
LINE
  5
306E
330
1E
100
AcDbEntity
  8
7
100
AcDbLine
 10
2.112204724409448
 20
4.140748031496062
 30
0.0
 11
2.123031496062992
 21
4.167322834645669
 31
0.0
  0
LINE
  5
306F
330
1E
100
AcDbEntity
  8
7
100
AcDbLine
 10
2.123031496062992
 20
4.167322834645669
 30
0.0
 11
2.125
 21
4.194881889763779
 31
0.0
  0
LINE
  5
3070
330
1E
100
AcDbEntity
  8
7
100
AcDbLine
 10
2.125
 20
4.194881889763779
 30
0.0
 11
2.118110236220472
 21
4.222440944881889
 31
0.0
  0
LINE
  5
3071
330
1E
100
AcDbEntity
  8
7
100
AcDbLine
 10
2.118110236220472
 20
4.222440944881889
 30
0.0
 11
2.104330708661417
 21
4.247047244094487
 31
0.0
  0
LINE
  5
3072
330
1E
100
AcDbEntity
  8
7
100
AcDbLine
 10
2.104330708661417
 20
4.247047244094487
 30
0.0
 11
2.083661417322834
 21
4.265748031496062
 31
0.0
  0
LINE
  5
3073
330
1E
100
AcDbEntity
  8
7
100
AcDbLine
 10
2.083661417322834
 20
4.265748031496062
 30
0.0
 11
2.058070866141732
 21
4.278543307086613
 31
0.0
  0
LINE
  5
3074
330
1E
100
AcDbEntity
  8
7
100
AcDbLine
 10
2.058070866141732
 20
4.278543307086613
 30
0.0
 11
2.030511811023622
 21
4.282480314960629
 31
0.0
  0
LINE
  5
3075
330
1E
100
AcDbEntity
  8
7
100
AcDbLine
 10
2.030511811023622
 20
4.282480314960629
 30
0.0
 11
2.002952755905511
 21
4.278543307086613
 31
0.0
  0
LINE
  5
3076
330
1E
100
AcDbEntity
  8
7
100
AcDbLine
 10
2.002952755905511
 20
4.278543307086613
 30
0.0
 11
1.977362204724409
 21
4.265748031496062
 31
0.0
  0
LINE
  5
3077
330
1E
100
AcDbEntity
  8
7
100
AcDbLine
 10
1.977362204724409
 20
4.265748031496062
 30
0.0
 11
1.956692913385826
 21
4.247047244094487
 31
0.0
  0
LINE
  5
3078
330
1E
100
AcDbEntity
  8
7
100
AcDbLine
 10
1.956692913385826
 20
4.247047244094487
 30
0.0
 11
1.942913385826771
 21
4.222440944881889
 31
0.0
  0
LINE
  5
3079
330
1E
100
AcDbEntity
  8
7
100
AcDbLine
 10
1.942913385826771
 20
4.222440944881889
 30
0.0
 11
1.936023622047244
 21
4.194881889763779
 31
0.0
  0
LINE
  5
307A
330
1E
100
AcDbEntity
  8
7
100
AcDbLine
 10
1.936023622047244
 20
4.194881889763779
 30
0.0
 11
1.937992125984251
 21
4.167322834645669
 31
0.0
  0
LINE
  5
307B
330
1E
100
AcDbEntity
  8
7
100
AcDbLine
 10
1.937992125984251
 20
4.167322834645669
 30
0.0
 11
1.948818897637795
 21
4.140748031496062
 31
0.0
  0
LINE
  5
307C
330
1E
100
AcDbEntity
  8
7
100
AcDbLine
 10
1.948818897637795
 20
4.140748031496062
 30
0.0
 11
1.966535433070866
 21
4.119094488188975
 31
0.0
  0
LINE
  5
307D
330
1E
100
AcDbEntity
  8
7
100
AcDbLine
 10
3.067913385826771
 20
4.265748031496062
 30
0.0
 11
3.042322834645669
 21
4.278543307086613
 31
0.0
  0
LINE
  5
307E
330
1E
100
AcDbEntity
  8
7
100
AcDbLine
 10
3.042322834645669
 20
4.278543307086613
 30
0.0
 11
3.014763779527558
 21
4.282480314960629
 31
0.0
  0
LINE
  5
307F
330
1E
100
AcDbEntity
  8
7
100
AcDbLine
 10
2.927165354330708
 20
4.222440944881889
 30
0.0
 11
2.920275590551181
 21
4.194881889763779
 31
0.0
  0
LINE
  5
3080
330
1E
100
AcDbEntity
  8
7
100
AcDbLine
 10
2.920275590551181
 20
4.194881889763779
 30
0.0
 11
2.922244094488188
 21
4.167322834645669
 31
0.0
  0
LINE
  5
3081
330
1E
100
AcDbEntity
  8
7
100
AcDbLine
 10
2.922244094488188
 20
4.167322834645669
 30
0.0
 11
2.933070866141732
 21
4.140748031496062
 31
0.0
  0
LINE
  5
3082
330
1E
100
AcDbEntity
  8
7
100
AcDbLine
 10
2.933070866141732
 20
4.140748031496062
 30
0.0
 11
2.950787401574803
 21
4.119094488188975
 31
0.0
  0
LINE
  5
3083
330
1E
100
AcDbEntity
  8
7
100
AcDbLine
 10
2.950787401574803
 20
4.119094488188975
 30
0.0
 11
2.973425196850393
 21
4.103346456692912
 31
0.0
  0
LINE
  5
3084
330
1E
100
AcDbEntity
  8
7
100
AcDbLine
 10
2.973425196850393
 20
4.103346456692912
 30
0.0
 11
3.000984251968503
 21
4.094488188976377
 31
0.0
  0
LINE
  5
3085
330
1E
100
AcDbEntity
  8
7
100
AcDbLine
 10
3.000984251968503
 20
4.094488188976377
 30
0.0
 11
3.028543307086614
 21
4.094488188976377
 31
0.0
  0
LINE
  5
3086
330
1E
100
AcDbEntity
  8
7
100
AcDbLine
 10
3.028543307086614
 20
4.094488188976377
 30
0.0
 11
3.056102362204724
 21
4.103346456692912
 31
0.0
  0
LINE
  5
3087
330
1E
100
AcDbEntity
  8
7
100
AcDbLine
 10
3.056102362204724
 20
4.103346456692912
 30
0.0
 11
3.078740157480314
 21
4.119094488188975
 31
0.0
  0
LINE
  5
3088
330
1E
100
AcDbEntity
  8
7
100
AcDbLine
 10
3.078740157480314
 20
4.119094488188975
 30
0.0
 11
3.096456692913385
 21
4.140748031496062
 31
0.0
  0
LINE
  5
3089
330
1E
100
AcDbEntity
  8
7
100
AcDbLine
 10
3.096456692913385
 20
4.140748031496062
 30
0.0
 11
3.107283464566929
 21
4.167322834645669
 31
0.0
  0
LINE
  5
308A
330
1E
100
AcDbEntity
  8
7
100
AcDbLine
 10
3.107283464566929
 20
4.167322834645669
 30
0.0
 11
3.109251968503937
 21
4.194881889763779
 31
0.0
  0
LINE
  5
308B
330
1E
100
AcDbEntity
  8
7
100
AcDbLine
 10
3.109251968503937
 20
4.194881889763779
 30
0.0
 11
3.102362204724409
 21
4.222440944881889
 31
0.0
  0
LINE
  5
308C
330
1E
100
AcDbEntity
  8
7
100
AcDbLine
 10
3.102362204724409
 20
4.222440944881889
 30
0.0
 11
3.088582677165354
 21
4.247047244094487
 31
0.0
  0
LINE
  5
308D
330
1E
100
AcDbEntity
  8
7
100
AcDbLine
 10
3.088582677165354
 20
4.247047244094487
 30
0.0
 11
3.067913385826771
 21
4.265748031496062
 31
0.0
  0
LINE
  5
308E
330
1E
100
AcDbEntity
  8
7
100
AcDbLine
 10
3.014763779527558
 20
4.282480314960629
 30
0.0
 11
2.987204724409448
 21
4.278543307086613
 31
0.0
  0
LINE
  5
308F
330
1E
100
AcDbEntity
  8
7
100
AcDbLine
 10
2.987204724409448
 20
4.278543307086613
 30
0.0
 11
2.961614173228346
 21
4.265748031496062
 31
0.0
  0
LINE
  5
3090
330
1E
100
AcDbEntity
  8
7
100
AcDbLine
 10
2.961614173228346
 20
4.265748031496062
 30
0.0
 11
2.940944881889763
 21
4.247047244094487
 31
0.0
  0
LINE
  5
3091
330
1E
100
AcDbEntity
  8
7
100
AcDbLine
 10
2.940944881889763
 20
4.247047244094487
 30
0.0
 11
2.927165354330708
 21
4.222440944881889
 31
0.0
  0
LINE
  5
3092
330
1E
100
AcDbEntity
  8
7
100
AcDbLine
 10
2.934055118110236
 20
3.883858267716535
 30
0.0
 11
2.944881889763779
 21
3.88779527559055
 31
0.0
  0
LINE
  5
3093
330
1E
100
AcDbEntity
  8
7
100
AcDbLine
 10
2.944881889763779
 20
3.88779527559055
 30
0.0
 11
2.949803149606299
 21
3.898622047244094
 31
0.0
  0
LINE
  5
3094
330
1E
100
AcDbEntity
  8
7
100
AcDbLine
 10
2.731299212598425
 20
3.898622047244094
 30
0.0
 11
2.73523622047244
 21
3.88779527559055
 31
0.0
  0
LINE
  5
3095
330
1E
100
AcDbEntity
  8
7
100
AcDbLine
 10
2.73523622047244
 20
3.88779527559055
 30
0.0
 11
2.746062992125984
 21
3.883858267716535
 31
0.0
  0
LINE
  5
3096
330
1E
100
AcDbEntity
  8
7
100
AcDbLine
 10
2.949803149606299
 20
3.932086614173228
 30
0.0
 11
2.944881889763779
 21
3.942913385826771
 31
0.0
  0
LINE
  5
3097
330
1E
100
AcDbEntity
  8
7
100
AcDbLine
 10
2.944881889763779
 20
3.942913385826771
 30
0.0
 11
2.934055118110236
 21
3.946850393700787
 31
0.0
  0
LINE
  5
3098
330
1E
100
AcDbEntity
  8
7
100
AcDbLine
 10
2.746062992125984
 20
3.946850393700787
 30
0.0
 11
2.73523622047244
 21
3.942913385826771
 31
0.0
  0
LINE
  5
3099
330
1E
100
AcDbEntity
  8
7
100
AcDbLine
 10
2.73523622047244
 20
3.942913385826771
 30
0.0
 11
2.731299212598425
 21
3.932086614173228
 31
0.0
  0
LINE
  5
309A
330
1E
100
AcDbEntity
  8
7
100
AcDbLine
 10
2.299212598425196
 20
3.883858267716535
 30
0.0
 11
2.31003937007874
 21
3.88779527559055
 31
0.0
  0
LINE
  5
309B
330
1E
100
AcDbEntity
  8
7
100
AcDbLine
 10
2.31003937007874
 20
3.88779527559055
 30
0.0
 11
2.313976377952756
 21
3.898622047244094
 31
0.0
  0
LINE
  5
309C
330
1E
100
AcDbEntity
  8
7
100
AcDbLine
 10
2.313976377952756
 20
3.898622047244094
 30
0.0
 11
2.313976377952756
 21
3.932086614173228
 31
0.0
  0
LINE
  5
309D
330
1E
100
AcDbEntity
  8
7
100
AcDbLine
 10
2.313976377952756
 20
3.932086614173228
 30
0.0
 11
2.31003937007874
 21
3.942913385826771
 31
0.0
  0
LINE
  5
309E
330
1E
100
AcDbEntity
  8
7
100
AcDbLine
 10
2.31003937007874
 20
3.942913385826771
 30
0.0
 11
2.299212598425196
 21
3.946850393700787
 31
0.0
  0
LINE
  5
309F
330
1E
100
AcDbEntity
  8
7
100
AcDbLine
 10
2.095472440944881
 20
3.898622047244094
 30
0.0
 11
2.100393700787401
 21
3.88779527559055
 31
0.0
  0
LINE
  5
30A0
330
1E
100
AcDbEntity
  8
7
100
AcDbLine
 10
2.100393700787401
 20
3.88779527559055
 30
0.0
 11
2.111220472440944
 21
3.883858267716535
 31
0.0
  0
LINE
  5
30A1
330
1E
100
AcDbEntity
  8
7
100
AcDbLine
 10
2.111220472440944
 20
3.946850393700787
 30
0.0
 11
2.100393700787401
 21
3.942913385826771
 31
0.0
  0
LINE
  5
30A2
330
1E
100
AcDbEntity
  8
7
100
AcDbLine
 10
2.100393700787401
 20
3.942913385826771
 30
0.0
 11
2.095472440944881
 21
3.932086614173228
 31
0.0
  0
LINE
  5
30A3
330
1E
100
AcDbEntity
  8
7
100
AcDbLine
 10
3.143700787401574
 20
4.468503937007874
 30
0.0
 11
3.143700787401574
 21
4.46751968503937
 31
0.0
  0
LINE
  5
30A4
330
1E
100
AcDbEntity
  8
7
100
AcDbLine
 10
3.143700787401574
 20
4.46751968503937
 30
0.0
 11
3.143700787401574
 21
3.817913385826771
 31
0.0
  0
LINE
  5
30A5
330
1E
100
AcDbEntity
  8
7
100
AcDbLine
 10
1.906496062992125
 20
3.817913385826771
 30
0.0
 11
1.903543307086614
 21
3.817913385826771
 31
0.0
  0
LINE
  5
30A6
330
1E
100
AcDbEntity
  8
7
100
AcDbLine
 10
1.903543307086614
 20
3.817913385826771
 30
0.0
 11
1.901574803149606
 21
3.817913385826771
 31
0.0
  0
LINE
  5
30A7
330
1E
100
AcDbEntity
  8
7
100
AcDbLine
 10
3.143700787401574
 20
3.817913385826771
 30
0.0
 11
3.141732283464566
 21
3.817913385826771
 31
0.0
  0
LINE
  5
30A8
330
1E
100
AcDbEntity
  8
7
100
AcDbLine
 10
3.141732283464566
 20
3.817913385826771
 30
0.0
 11
3.138779527559055
 21
3.817913385826771
 31
0.0
  0
LINE
  5
30A9
330
1E
100
AcDbEntity
  8
7
100
AcDbLine
 10
1.96751968503937
 20
4.523622047244094
 30
0.0
 11
1.96751968503937
 21
4.528543307086613
 31
0.0
  0
LINE
  5
30AA
330
1E
100
AcDbEntity
  8
7
100
AcDbLine
 10
1.96751968503937
 20
4.528543307086613
 30
0.0
 11
1.965551181102362
 21
4.537401574803149
 31
0.0
  0
LINE
  5
30AB
330
1E
100
AcDbEntity
  8
7
100
AcDbLine
 10
2.602362204724409
 20
4.523622047244094
 30
0.0
 11
2.602362204724409
 21
4.528543307086613
 31
0.0
  0
LINE
  5
30AC
330
1E
100
AcDbEntity
  8
7
100
AcDbLine
 10
2.602362204724409
 20
4.528543307086613
 30
0.0
 11
2.600393700787401
 21
4.537401574803149
 31
0.0
  0
LINE
  5
30AD
330
1E
100
AcDbEntity
  8
7
100
AcDbLine
 10
1.901574803149606
 20
4.468503937007874
 30
0.0
 11
1.965551181102362
 21
4.468503937007874
 31
0.0
  0
LINE
  5
30AE
330
1E
100
AcDbEntity
  8
7
100
AcDbLine
 10
1.965551181102362
 20
4.468503937007874
 30
0.0
 11
1.965551181102362
 21
4.537401574803149
 31
0.0
  0
LINE
  5
30AF
330
1E
100
AcDbEntity
  8
7
100
AcDbLine
 10
3.079724409448818
 20
4.537401574803149
 30
0.0
 11
3.079724409448818
 21
4.468503937007874
 31
0.0
  0
LINE
  5
30B0
330
1E
100
AcDbEntity
  8
7
100
AcDbLine
 10
3.079724409448818
 20
4.468503937007874
 30
0.0
 11
3.143700787401574
 21
4.468503937007874
 31
0.0
  0
LINE
  5
30B1
330
1E
100
AcDbEntity
  8
7
100
AcDbLine
 10
3.143700787401574
 20
4.468503937007874
 30
0.0
 11
3.143700787401574
 21
4.532480314960629
 31
0.0
  0
LINE
  5
30B2
330
1E
100
AcDbEntity
  8
7
100
AcDbLine
 10
3.143700787401574
 20
4.532480314960629
 30
0.0
 11
3.138779527559055
 21
4.537401574803149
 31
0.0
  0
LINE
  5
30B3
330
1E
100
AcDbEntity
  8
7
100
AcDbLine
 10
2.600393700787401
 20
4.468503937007874
 30
0.0
 11
2.600393700787401
 21
4.537401574803149
 31
0.0
  0
LINE
  5
30B4
330
1E
100
AcDbEntity
  8
7
100
AcDbLine
 10
2.600393700787401
 20
4.537401574803149
 30
0.0
 11
2.444881889763779
 21
4.537401574803149
 31
0.0
  0
LINE
  5
30B5
330
1E
100
AcDbEntity
  8
7
100
AcDbLine
 10
2.044291338582677
 20
4.093503937007874
 30
0.0
 11
2.071850393700787
 21
4.102362204724409
 31
0.0
  0
LINE
  5
30B6
330
1E
100
AcDbEntity
  8
7
100
AcDbLine
 10
2.071850393700787
 20
4.102362204724409
 30
0.0
 11
2.095472440944881
 21
4.118110236220472
 31
0.0
  0
LINE
  5
30B7
330
1E
100
AcDbEntity
  8
7
100
AcDbLine
 10
2.095472440944881
 20
4.118110236220472
 30
0.0
 11
2.113188976377952
 21
4.139763779527559
 31
0.0
  0
LINE
  5
30B8
330
1E
100
AcDbEntity
  8
7
100
AcDbLine
 10
2.113188976377952
 20
4.139763779527559
 30
0.0
 11
2.124015748031495
 21
4.166338582677165
 31
0.0
  0
LINE
  5
30B9
330
1E
100
AcDbEntity
  8
7
100
AcDbLine
 10
2.124015748031495
 20
4.166338582677165
 30
0.0
 11
2.125984251968503
 21
4.194881889763779
 31
0.0
  0
LINE
  5
30BA
330
1E
100
AcDbEntity
  8
7
100
AcDbLine
 10
2.125984251968503
 20
4.194881889763779
 30
0.0
 11
2.119094488188976
 21
4.222440944881889
 31
0.0
  0
LINE
  5
30BB
330
1E
100
AcDbEntity
  8
7
100
AcDbLine
 10
2.119094488188976
 20
4.222440944881889
 30
0.0
 11
2.105314960629921
 21
4.247047244094487
 31
0.0
  0
LINE
  5
30BC
330
1E
100
AcDbEntity
  8
7
100
AcDbLine
 10
2.105314960629921
 20
4.247047244094487
 30
0.0
 11
2.084645669291338
 21
4.266732283464566
 31
0.0
  0
LINE
  5
30BD
330
1E
100
AcDbEntity
  8
7
100
AcDbLine
 10
2.084645669291338
 20
4.266732283464566
 30
0.0
 11
2.059055118110236
 21
4.279527559055117
 31
0.0
  0
LINE
  5
30BE
330
1E
100
AcDbEntity
  8
7
100
AcDbLine
 10
2.059055118110236
 20
4.279527559055117
 30
0.0
 11
2.030511811023622
 21
4.283464566929133
 31
0.0
  0
LINE
  5
30BF
330
1E
100
AcDbEntity
  8
7
100
AcDbLine
 10
2.030511811023622
 20
4.283464566929133
 30
0.0
 11
2.001968503937007
 21
4.279527559055117
 31
0.0
  0
LINE
  5
30C0
330
1E
100
AcDbEntity
  8
7
100
AcDbLine
 10
2.001968503937007
 20
4.279527559055117
 30
0.0
 11
1.976377952755905
 21
4.266732283464566
 31
0.0
  0
LINE
  5
30C1
330
1E
100
AcDbEntity
  8
7
100
AcDbLine
 10
1.976377952755905
 20
4.266732283464566
 30
0.0
 11
1.955708661417322
 21
4.247047244094487
 31
0.0
  0
LINE
  5
30C2
330
1E
100
AcDbEntity
  8
7
100
AcDbLine
 10
1.955708661417322
 20
4.247047244094487
 30
0.0
 11
1.941929133858267
 21
4.222440944881889
 31
0.0
  0
LINE
  5
30C3
330
1E
100
AcDbEntity
  8
7
100
AcDbLine
 10
1.941929133858267
 20
4.222440944881889
 30
0.0
 11
1.93503937007874
 21
4.194881889763779
 31
0.0
  0
LINE
  5
30C4
330
1E
100
AcDbEntity
  8
7
100
AcDbLine
 10
1.93503937007874
 20
4.194881889763779
 30
0.0
 11
1.937007874015747
 21
4.166338582677165
 31
0.0
  0
LINE
  5
30C5
330
1E
100
AcDbEntity
  8
7
100
AcDbLine
 10
1.937007874015747
 20
4.166338582677165
 30
0.0
 11
1.947834645669291
 21
4.140748031496062
 31
0.0
  0
LINE
  5
30C6
330
1E
100
AcDbEntity
  8
7
100
AcDbLine
 10
1.947834645669291
 20
4.140748031496062
 30
0.0
 11
1.965551181102362
 21
4.118110236220472
 31
0.0
  0
LINE
  5
30C7
330
1E
100
AcDbEntity
  8
7
100
AcDbLine
 10
1.965551181102362
 20
4.118110236220472
 30
0.0
 11
1.989173228346456
 21
4.102362204724409
 31
0.0
  0
LINE
  5
30C8
330
1E
100
AcDbEntity
  8
7
100
AcDbLine
 10
1.989173228346456
 20
4.102362204724409
 30
0.0
 11
2.016732283464567
 21
4.093503937007874
 31
0.0
  0
LINE
  5
30C9
330
1E
100
AcDbEntity
  8
7
100
AcDbLine
 10
2.016732283464567
 20
4.093503937007874
 30
0.0
 11
2.044291338582677
 21
4.093503937007874
 31
0.0
  0
LINE
  5
30CA
330
1E
100
AcDbEntity
  8
7
100
AcDbLine
 10
2.921259842519685
 20
4.166338582677165
 30
0.0
 11
2.932086614173228
 21
4.140748031496062
 31
0.0
  0
LINE
  5
30CB
330
1E
100
AcDbEntity
  8
7
100
AcDbLine
 10
2.932086614173228
 20
4.140748031496062
 30
0.0
 11
2.949803149606299
 21
4.118110236220472
 31
0.0
  0
LINE
  5
30CC
330
1E
100
AcDbEntity
  8
7
100
AcDbLine
 10
2.949803149606299
 20
4.118110236220472
 30
0.0
 11
2.973425196850393
 21
4.102362204724409
 31
0.0
  0
LINE
  5
30CD
330
1E
100
AcDbEntity
  8
7
100
AcDbLine
 10
2.973425196850393
 20
4.102362204724409
 30
0.0
 11
3.000984251968503
 21
4.093503937007874
 31
0.0
  0
LINE
  5
30CE
330
1E
100
AcDbEntity
  8
7
100
AcDbLine
 10
3.000984251968503
 20
4.093503937007874
 30
0.0
 11
3.028543307086614
 21
4.093503937007874
 31
0.0
  0
LINE
  5
30CF
330
1E
100
AcDbEntity
  8
7
100
AcDbLine
 10
3.028543307086614
 20
4.093503937007874
 30
0.0
 11
3.056102362204724
 21
4.102362204724409
 31
0.0
  0
LINE
  5
30D0
330
1E
100
AcDbEntity
  8
7
100
AcDbLine
 10
3.056102362204724
 20
4.102362204724409
 30
0.0
 11
3.079724409448818
 21
4.118110236220472
 31
0.0
  0
LINE
  5
30D1
330
1E
100
AcDbEntity
  8
7
100
AcDbLine
 10
3.079724409448818
 20
4.118110236220472
 30
0.0
 11
3.097440944881889
 21
4.139763779527559
 31
0.0
  0
LINE
  5
30D2
330
1E
100
AcDbEntity
  8
7
100
AcDbLine
 10
3.097440944881889
 20
4.139763779527559
 30
0.0
 11
3.108267716535432
 21
4.166338582677165
 31
0.0
  0
LINE
  5
30D3
330
1E
100
AcDbEntity
  8
7
100
AcDbLine
 10
3.108267716535432
 20
4.166338582677165
 30
0.0
 11
3.11023622047244
 21
4.194881889763779
 31
0.0
  0
LINE
  5
30D4
330
1E
100
AcDbEntity
  8
7
100
AcDbLine
 10
3.11023622047244
 20
4.194881889763779
 30
0.0
 11
3.103346456692913
 21
4.222440944881889
 31
0.0
  0
LINE
  5
30D5
330
1E
100
AcDbEntity
  8
7
100
AcDbLine
 10
3.103346456692913
 20
4.222440944881889
 30
0.0
 11
3.089566929133858
 21
4.247047244094487
 31
0.0
  0
LINE
  5
30D6
330
1E
100
AcDbEntity
  8
7
100
AcDbLine
 10
3.089566929133858
 20
4.247047244094487
 30
0.0
 11
3.068897637795275
 21
4.266732283464566
 31
0.0
  0
LINE
  5
30D7
330
1E
100
AcDbEntity
  8
7
100
AcDbLine
 10
3.068897637795275
 20
4.266732283464566
 30
0.0
 11
3.043307086614173
 21
4.279527559055117
 31
0.0
  0
LINE
  5
30D8
330
1E
100
AcDbEntity
  8
7
100
AcDbLine
 10
3.043307086614173
 20
4.279527559055117
 30
0.0
 11
3.014763779527558
 21
4.283464566929133
 31
0.0
  0
LINE
  5
30D9
330
1E
100
AcDbEntity
  8
7
100
AcDbLine
 10
3.014763779527558
 20
4.283464566929133
 30
0.0
 11
2.986220472440944
 21
4.279527559055117
 31
0.0
  0
LINE
  5
30DA
330
1E
100
AcDbEntity
  8
7
100
AcDbLine
 10
2.986220472440944
 20
4.279527559055117
 30
0.0
 11
2.960629921259842
 21
4.266732283464566
 31
0.0
  0
LINE
  5
30DB
330
1E
100
AcDbEntity
  8
7
100
AcDbLine
 10
2.960629921259842
 20
4.266732283464566
 30
0.0
 11
2.939960629921259
 21
4.247047244094487
 31
0.0
  0
LINE
  5
30DC
330
1E
100
AcDbEntity
  8
7
100
AcDbLine
 10
2.939960629921259
 20
4.247047244094487
 30
0.0
 11
2.926181102362204
 21
4.222440944881889
 31
0.0
  0
LINE
  5
30DD
330
1E
100
AcDbEntity
  8
7
100
AcDbLine
 10
2.926181102362204
 20
4.222440944881889
 30
0.0
 11
2.919291338582677
 21
4.194881889763779
 31
0.0
  0
LINE
  5
30DE
330
1E
100
AcDbEntity
  8
7
100
AcDbLine
 10
2.919291338582677
 20
4.194881889763779
 30
0.0
 11
2.921259842519685
 21
4.166338582677165
 31
0.0
  0
LINE
  5
30DF
330
1E
100
AcDbEntity
  8
7
100
AcDbLine
 10
3.077755905511811
 20
4.466535433070865
 30
0.0
 11
3.077755905511811
 21
4.523622047244094
 31
0.0
  0
LINE
  5
30E0
330
1E
100
AcDbEntity
  8
7
100
AcDbLine
 10
3.077755905511811
 20
4.523622047244094
 30
0.0
 11
2.602362204724409
 21
4.523622047244094
 31
0.0
  0
LINE
  5
30E1
330
1E
100
AcDbEntity
  8
7
100
AcDbLine
 10
1.906496062992125
 20
4.466535433070865
 30
0.0
 11
1.906496062992125
 21
3.817913385826771
 31
0.0
  0
LINE
  5
30E2
330
1E
100
AcDbEntity
  8
7
100
AcDbLine
 10
1.906496062992125
 20
3.817913385826771
 30
0.0
 11
3.138779527559055
 21
3.817913385826771
 31
0.0
  0
LINE
  5
30E3
330
1E
100
AcDbEntity
  8
7
100
AcDbLine
 10
3.138779527559055
 20
3.817913385826771
 30
0.0
 11
3.138779527559055
 21
4.466535433070865
 31
0.0
  0
LINE
  5
30E4
330
1E
100
AcDbEntity
  8
7
100
AcDbLine
 10
2.74507874015748
 20
3.882874015748031
 30
0.0
 11
2.734251968503937
 21
3.886811023622047
 31
0.0
  0
LINE
  5
30E5
330
1E
100
AcDbEntity
  8
7
100
AcDbLine
 10
2.734251968503937
 20
3.886811023622047
 30
0.0
 11
2.730314960629921
 21
3.89763779527559
 31
0.0
  0
LINE
  5
30E6
330
1E
100
AcDbEntity
  8
7
100
AcDbLine
 10
2.730314960629921
 20
3.89763779527559
 30
0.0
 11
2.730314960629921
 21
3.933070866141732
 31
0.0
  0
LINE
  5
30E7
330
1E
100
AcDbEntity
  8
7
100
AcDbLine
 10
2.730314960629921
 20
3.933070866141732
 30
0.0
 11
2.734251968503937
 21
3.943897637795275
 31
0.0
  0
LINE
  5
30E8
330
1E
100
AcDbEntity
  8
7
100
AcDbLine
 10
2.734251968503937
 20
3.943897637795275
 30
0.0
 11
2.74507874015748
 21
3.947834645669291
 31
0.0
  0
LINE
  5
30E9
330
1E
100
AcDbEntity
  8
7
100
AcDbLine
 10
2.949803149606299
 20
3.89763779527559
 30
0.0
 11
2.945866141732283
 21
3.886811023622047
 31
0.0
  0
LINE
  5
30EA
330
1E
100
AcDbEntity
  8
7
100
AcDbLine
 10
2.945866141732283
 20
3.886811023622047
 30
0.0
 11
2.93503937007874
 21
3.882874015748031
 31
0.0
  0
LINE
  5
30EB
330
1E
100
AcDbEntity
  8
7
100
AcDbLine
 10
2.93503937007874
 20
3.947834645669291
 30
0.0
 11
2.945866141732283
 21
3.943897637795275
 31
0.0
  0
LINE
  5
30EC
330
1E
100
AcDbEntity
  8
7
100
AcDbLine
 10
2.945866141732283
 20
3.943897637795275
 30
0.0
 11
2.949803149606299
 21
3.933070866141732
 31
0.0
  0
LINE
  5
30ED
330
1E
100
AcDbEntity
  8
7
100
AcDbLine
 10
2.11023622047244
 20
3.882874015748031
 30
0.0
 11
2.099409448818897
 21
3.886811023622047
 31
0.0
  0
LINE
  5
30EE
330
1E
100
AcDbEntity
  8
7
100
AcDbLine
 10
2.099409448818897
 20
3.886811023622047
 30
0.0
 11
2.095472440944881
 21
3.89763779527559
 31
0.0
  0
LINE
  5
30EF
330
1E
100
AcDbEntity
  8
7
100
AcDbLine
 10
2.095472440944881
 20
3.89763779527559
 30
0.0
 11
2.095472440944881
 21
3.933070866141732
 31
0.0
  0
LINE
  5
30F0
330
1E
100
AcDbEntity
  8
7
100
AcDbLine
 10
2.314960629921259
 20
3.89763779527559
 30
0.0
 11
2.311023622047243
 21
3.886811023622047
 31
0.0
  0
LINE
  5
30F1
330
1E
100
AcDbEntity
  8
7
100
AcDbLine
 10
2.311023622047243
 20
3.886811023622047
 30
0.0
 11
2.3001968503937
 21
3.882874015748031
 31
0.0
  0
LINE
  5
30F2
330
1E
100
AcDbEntity
  8
7
100
AcDbLine
 10
2.3001968503937
 20
3.947834645669291
 30
0.0
 11
2.311023622047243
 21
3.943897637795275
 31
0.0
  0
LINE
  5
30F3
330
1E
100
AcDbEntity
  8
7
100
AcDbLine
 10
2.311023622047243
 20
3.943897637795275
 30
0.0
 11
2.314960629921259
 21
3.933070866141732
 31
0.0
  0
LINE
  5
30F4
330
1E
100
AcDbEntity
  8
7
100
AcDbLine
 10
2.095472440944881
 20
3.933070866141732
 30
0.0
 11
2.099409448818897
 21
3.943897637795275
 31
0.0
  0
LINE
  5
30F5
330
1E
100
AcDbEntity
  8
7
100
AcDbLine
 10
2.099409448818897
 20
3.943897637795275
 30
0.0
 11
2.11023622047244
 21
3.947834645669291
 31
0.0
  0
LINE
  5
30F6
330
1E
100
AcDbEntity
  8
7
100
AcDbLine
 10
2.761811023622047
 20
3.970472440944881
 30
0.0
 11
2.792322834645669
 21
3.974409448818897
 31
0.0
  0
LINE
  5
30F7
330
1E
100
AcDbEntity
  8
7
100
AcDbLine
 10
2.792322834645669
 20
3.974409448818897
 30
0.0
 11
2.819881889763779
 21
3.987204724409448
 31
0.0
  0
LINE
  5
30F8
330
1E
100
AcDbEntity
  8
7
100
AcDbLine
 10
2.819881889763779
 20
3.987204724409448
 30
0.0
 11
2.843503937007874
 21
4.006889763779527
 31
0.0
  0
LINE
  5
30F9
330
1E
100
AcDbEntity
  8
7
100
AcDbLine
 10
2.843503937007874
 20
4.006889763779527
 30
0.0
 11
2.861220472440944
 21
4.032480314960629
 31
0.0
  0
LINE
  5
30FA
330
1E
100
AcDbEntity
  8
7
100
AcDbLine
 10
2.861220472440944
 20
4.032480314960629
 30
0.0
 11
2.87007874015748
 21
4.062007874015748
 31
0.0
  0
LINE
  5
30FB
330
1E
100
AcDbEntity
  8
7
100
AcDbLine
 10
2.908464566929133
 20
4.276574803149606
 30
0.0
 11
2.909448818897637
 21
4.308070866141732
 31
0.0
  0
LINE
  5
30FC
330
1E
100
AcDbEntity
  8
7
100
AcDbLine
 10
2.909448818897637
 20
4.308070866141732
 30
0.0
 11
2.901574803149606
 21
4.338582677165354
 31
0.0
  0
LINE
  5
30FD
330
1E
100
AcDbEntity
  8
7
100
AcDbLine
 10
2.901574803149606
 20
4.338582677165354
 30
0.0
 11
2.884842519685039
 21
4.366141732283464
 31
0.0
  0
LINE
  5
30FE
330
1E
100
AcDbEntity
  8
7
100
AcDbLine
 10
2.884842519685039
 20
4.366141732283464
 30
0.0
 11
2.861220472440944
 21
4.38779527559055
 31
0.0
  0
LINE
  5
30FF
330
1E
100
AcDbEntity
  8
7
100
AcDbLine
 10
2.861220472440944
 20
4.38779527559055
 30
0.0
 11
2.831692913385826
 21
4.400590551181101
 31
0.0
  0
LINE
  5
3100
330
1E
100
AcDbEntity
  8
7
100
AcDbLine
 10
2.831692913385826
 20
4.400590551181101
 30
0.0
 11
2.8001968503937
 21
4.405511811023622
 31
0.0
  0
LINE
  5
3101
330
1E
100
AcDbEntity
  8
7
100
AcDbLine
 10
2.24507874015748
 20
4.405511811023622
 30
0.0
 11
2.213582677165354
 21
4.400590551181101
 31
0.0
  0
LINE
  5
3102
330
1E
100
AcDbEntity
  8
7
100
AcDbLine
 10
2.213582677165354
 20
4.400590551181101
 30
0.0
 11
2.184055118110236
 21
4.38779527559055
 31
0.0
  0
LINE
  5
3103
330
1E
100
AcDbEntity
  8
7
100
AcDbLine
 10
2.184055118110236
 20
4.38779527559055
 30
0.0
 11
2.160433070866141
 21
4.366141732283464
 31
0.0
  0
LINE
  5
3104
330
1E
100
AcDbEntity
  8
7
100
AcDbLine
 10
2.160433070866141
 20
4.366141732283464
 30
0.0
 11
2.143700787401574
 21
4.338582677165354
 31
0.0
  0
LINE
  5
3105
330
1E
100
AcDbEntity
  8
7
100
AcDbLine
 10
2.143700787401574
 20
4.338582677165354
 30
0.0
 11
2.135826771653543
 21
4.308070866141732
 31
0.0
  0
LINE
  5
3106
330
1E
100
AcDbEntity
  8
7
100
AcDbLine
 10
2.135826771653543
 20
4.308070866141732
 30
0.0
 11
2.136811023622047
 21
4.276574803149606
 31
0.0
  0
LINE
  5
3107
330
1E
100
AcDbEntity
  8
7
100
AcDbLine
 10
2.1751968503937
 20
4.062007874015748
 30
0.0
 11
2.184055118110236
 21
4.032480314960629
 31
0.0
  0
LINE
  5
3108
330
1E
100
AcDbEntity
  8
7
100
AcDbLine
 10
2.184055118110236
 20
4.032480314960629
 30
0.0
 11
2.201771653543306
 21
4.006889763779527
 31
0.0
  0
LINE
  5
3109
330
1E
100
AcDbEntity
  8
7
100
AcDbLine
 10
2.201771653543306
 20
4.006889763779527
 30
0.0
 11
2.225393700787401
 21
3.987204724409448
 31
0.0
  0
LINE
  5
310A
330
1E
100
AcDbEntity
  8
7
100
AcDbLine
 10
2.225393700787401
 20
3.987204724409448
 30
0.0
 11
2.252952755905511
 21
3.974409448818897
 31
0.0
  0
LINE
  5
310B
330
1E
100
AcDbEntity
  8
7
100
AcDbLine
 10
2.252952755905511
 20
3.974409448818897
 30
0.0
 11
2.283464566929133
 21
3.970472440944881
 31
0.0
  0
LINE
  5
310C
330
1E
100
AcDbEntity
  8
7
100
AcDbLine
 10
2.24507874015748
 20
4.404527559055117
 30
0.0
 11
2.213582677165354
 21
4.399606299212598
 31
0.0
  0
LINE
  5
310D
330
1E
100
AcDbEntity
  8
7
100
AcDbLine
 10
2.213582677165354
 20
4.399606299212598
 30
0.0
 11
2.18503937007874
 21
4.386811023622047
 31
0.0
  0
LINE
  5
310E
330
1E
100
AcDbEntity
  8
7
100
AcDbLine
 10
2.18503937007874
 20
4.386811023622047
 30
0.0
 11
2.161417322834645
 21
4.36515748031496
 31
0.0
  0
LINE
  5
310F
330
1E
100
AcDbEntity
  8
7
100
AcDbLine
 10
2.161417322834645
 20
4.36515748031496
 30
0.0
 11
2.144685039370078
 21
4.338582677165354
 31
0.0
  0
LINE
  5
3110
330
1E
100
AcDbEntity
  8
7
100
AcDbLine
 10
2.144685039370078
 20
4.338582677165354
 30
0.0
 11
2.136811023622047
 21
4.308070866141732
 31
0.0
  0
LINE
  5
3111
330
1E
100
AcDbEntity
  8
7
100
AcDbLine
 10
2.136811023622047
 20
4.308070866141732
 30
0.0
 11
2.137795275590551
 21
4.276574803149606
 31
0.0
  0
LINE
  5
3112
330
1E
100
AcDbEntity
  8
7
100
AcDbLine
 10
2.907480314960629
 20
4.276574803149606
 30
0.0
 11
2.908464566929133
 21
4.308070866141732
 31
0.0
  0
LINE
  5
3113
330
1E
100
AcDbEntity
  8
7
100
AcDbLine
 10
2.908464566929133
 20
4.308070866141732
 30
0.0
 11
2.900590551181102
 21
4.338582677165354
 31
0.0
  0
LINE
  5
3114
330
1E
100
AcDbEntity
  8
7
100
AcDbLine
 10
2.900590551181102
 20
4.338582677165354
 30
0.0
 11
2.883858267716535
 21
4.36515748031496
 31
0.0
  0
LINE
  5
3115
330
1E
100
AcDbEntity
  8
7
100
AcDbLine
 10
2.883858267716535
 20
4.36515748031496
 30
0.0
 11
2.86023622047244
 21
4.386811023622047
 31
0.0
  0
LINE
  5
3116
330
1E
100
AcDbEntity
  8
7
100
AcDbLine
 10
2.86023622047244
 20
4.386811023622047
 30
0.0
 11
2.831692913385826
 21
4.399606299212598
 31
0.0
  0
LINE
  5
3117
330
1E
100
AcDbEntity
  8
7
100
AcDbLine
 10
2.831692913385826
 20
4.399606299212598
 30
0.0
 11
2.8001968503937
 21
4.404527559055117
 31
0.0
  0
LINE
  5
3118
330
1E
100
AcDbEntity
  8
7
100
AcDbLine
 10
2.761811023622047
 20
3.971456692913385
 30
0.0
 11
2.792322834645669
 21
3.975393700787401
 31
0.0
  0
LINE
  5
3119
330
1E
100
AcDbEntity
  8
7
100
AcDbLine
 10
2.792322834645669
 20
3.975393700787401
 30
0.0
 11
2.819881889763779
 21
3.988188976377952
 31
0.0
  0
LINE
  5
311A
330
1E
100
AcDbEntity
  8
7
100
AcDbLine
 10
2.819881889763779
 20
3.988188976377952
 30
0.0
 11
2.84251968503937
 21
4.007874015748031
 31
0.0
  0
LINE
  5
311B
330
1E
100
AcDbEntity
  8
7
100
AcDbLine
 10
2.84251968503937
 20
4.007874015748031
 30
0.0
 11
2.86023622047244
 21
4.032480314960629
 31
0.0
  0
LINE
  5
311C
330
1E
100
AcDbEntity
  8
7
100
AcDbLine
 10
2.176181102362204
 20
4.062007874015748
 30
0.0
 11
2.18503937007874
 21
4.032480314960629
 31
0.0
  0
LINE
  5
311D
330
1E
100
AcDbEntity
  8
7
100
AcDbLine
 10
2.18503937007874
 20
4.032480314960629
 30
0.0
 11
2.202755905511811
 21
4.007874015748031
 31
0.0
  0
LINE
  5
311E
330
1E
100
AcDbEntity
  8
7
100
AcDbLine
 10
2.202755905511811
 20
4.007874015748031
 30
0.0
 11
2.225393700787401
 21
3.988188976377952
 31
0.0
  0
LINE
  5
311F
330
1E
100
AcDbEntity
  8
7
100
AcDbLine
 10
2.225393700787401
 20
3.988188976377952
 30
0.0
 11
2.252952755905511
 21
3.975393700787401
 31
0.0
  0
LINE
  5
3120
330
1E
100
AcDbEntity
  8
7
100
AcDbLine
 10
2.252952755905511
 20
3.975393700787401
 30
0.0
 11
2.283464566929133
 21
3.971456692913385
 31
0.0
  0
LINE
  5
3121
330
1E
100
AcDbEntity
  8
7
100
AcDbLine
 10
2.826771653543307
 20
4.268700787401574
 30
0.0
 11
2.825787401574803
 21
4.288385826771653
 31
0.0
  0
LINE
  5
3122
330
1E
100
AcDbEntity
  8
7
100
AcDbLine
 10
2.825787401574803
 20
4.288385826771653
 30
0.0
 11
2.816929133858267
 21
4.306102362204724
 31
0.0
  0
LINE
  5
3123
330
1E
100
AcDbEntity
  8
7
100
AcDbLine
 10
2.816929133858267
 20
4.306102362204724
 30
0.0
 11
2.801181102362204
 21
4.317913385826771
 31
0.0
  0
LINE
  5
3124
330
1E
100
AcDbEntity
  8
7
100
AcDbLine
 10
2.801181102362204
 20
4.317913385826771
 30
0.0
 11
2.78248031496063
 21
4.321850393700787
 31
0.0
  0
LINE
  5
3125
330
1E
100
AcDbEntity
  8
7
100
AcDbLine
 10
2.750984251968503
 20
4.054133858267716
 30
0.0
 11
2.771653543307086
 21
4.059055118110236
 31
0.0
  0
LINE
  5
3126
330
1E
100
AcDbEntity
  8
7
100
AcDbLine
 10
2.771653543307086
 20
4.059055118110236
 30
0.0
 11
2.787401574803149
 21
4.072834645669291
 31
0.0
  0
LINE
  5
3127
330
1E
100
AcDbEntity
  8
7
100
AcDbLine
 10
2.787401574803149
 20
4.072834645669291
 30
0.0
 11
2.795275590551181
 21
4.091535433070865
 31
0.0
  0
LINE
  5
3128
330
1E
100
AcDbEntity
  8
7
100
AcDbLine
 10
2.25
 20
4.091535433070865
 30
0.0
 11
2.257874015748031
 21
4.072834645669291
 31
0.0
  0
LINE
  5
3129
330
1E
100
AcDbEntity
  8
7
100
AcDbLine
 10
2.257874015748031
 20
4.072834645669291
 30
0.0
 11
2.273622047244094
 21
4.059055118110236
 31
0.0
  0
LINE
  5
312A
330
1E
100
AcDbEntity
  8
7
100
AcDbLine
 10
2.273622047244094
 20
4.059055118110236
 30
0.0
 11
2.294291338582677
 21
4.054133858267716
 31
0.0
  0
LINE
  5
312B
330
1E
100
AcDbEntity
  8
7
100
AcDbLine
 10
2.262795275590551
 20
4.321850393700787
 30
0.0
 11
2.244094488188976
 21
4.317913385826771
 31
0.0
  0
LINE
  5
312C
330
1E
100
AcDbEntity
  8
7
100
AcDbLine
 10
2.244094488188976
 20
4.317913385826771
 30
0.0
 11
2.228346456692913
 21
4.306102362204724
 31
0.0
  0
LINE
  5
312D
330
1E
100
AcDbEntity
  8
7
100
AcDbLine
 10
2.228346456692913
 20
4.306102362204724
 30
0.0
 11
2.219488188976377
 21
4.288385826771653
 31
0.0
  0
LINE
  5
312E
330
1E
100
AcDbEntity
  8
7
100
AcDbLine
 10
2.219488188976377
 20
4.288385826771653
 30
0.0
 11
2.218503937007874
 21
4.268700787401574
 31
0.0
  0
LINE
  5
312F
330
1E
100
AcDbEntity
  8
7
100
AcDbLine
 10
2.394685039370078
 20
4.113188976377952
 30
0.0
 11
2.405511811023622
 21
4.117125984251968
 31
0.0
  0
LINE
  5
3130
330
1E
100
AcDbEntity
  8
7
100
AcDbLine
 10
2.405511811023622
 20
4.117125984251968
 30
0.0
 11
2.409448818897637
 21
4.127952755905512
 31
0.0
  0
LINE
  5
3131
330
1E
100
AcDbEntity
  8
7
100
AcDbLine
 10
2.409448818897637
 20
4.127952755905512
 30
0.0
 11
2.405511811023622
 21
4.138779527559054
 31
0.0
  0
LINE
  5
3132
330
1E
100
AcDbEntity
  8
7
100
AcDbLine
 10
2.405511811023622
 20
4.138779527559054
 30
0.0
 11
2.394685039370078
 21
4.14271653543307
 31
0.0
  0
LINE
  5
3133
330
1E
100
AcDbEntity
  8
7
100
AcDbLine
 10
2.394685039370078
 20
4.14271653543307
 30
0.0
 11
2.383858267716535
 21
4.138779527559054
 31
0.0
  0
LINE
  5
3134
330
1E
100
AcDbEntity
  8
7
100
AcDbLine
 10
2.383858267716535
 20
4.138779527559054
 30
0.0
 11
2.379921259842519
 21
4.127952755905512
 31
0.0
  0
LINE
  5
3135
330
1E
100
AcDbEntity
  8
7
100
AcDbLine
 10
2.379921259842519
 20
4.127952755905512
 30
0.0
 11
2.383858267716535
 21
4.117125984251968
 31
0.0
  0
LINE
  5
3136
330
1E
100
AcDbEntity
  8
7
100
AcDbLine
 10
2.383858267716535
 20
4.117125984251968
 30
0.0
 11
2.394685039370078
 21
4.113188976377952
 31
0.0
  0
LINE
  5
3137
330
1E
100
AcDbEntity
  8
7
100
AcDbLine
 10
2.469488188976377
 20
4.138779527559054
 30
0.0
 11
2.465551181102362
 21
4.127952755905512
 31
0.0
  0
LINE
  5
3138
330
1E
100
AcDbEntity
  8
7
100
AcDbLine
 10
2.465551181102362
 20
4.127952755905512
 30
0.0
 11
2.469488188976377
 21
4.117125984251968
 31
0.0
  0
LINE
  5
3139
330
1E
100
AcDbEntity
  8
7
100
AcDbLine
 10
2.469488188976377
 20
4.117125984251968
 30
0.0
 11
2.480314960629921
 21
4.113188976377952
 31
0.0
  0
LINE
  5
313A
330
1E
100
AcDbEntity
  8
7
100
AcDbLine
 10
2.480314960629921
 20
4.113188976377952
 30
0.0
 11
2.491141732283464
 21
4.117125984251968
 31
0.0
  0
LINE
  5
313B
330
1E
100
AcDbEntity
  8
7
100
AcDbLine
 10
2.491141732283464
 20
4.117125984251968
 30
0.0
 11
2.49507874015748
 21
4.127952755905512
 31
0.0
  0
LINE
  5
313C
330
1E
100
AcDbEntity
  8
7
100
AcDbLine
 10
2.49507874015748
 20
4.127952755905512
 30
0.0
 11
2.491141732283464
 21
4.138779527559054
 31
0.0
  0
LINE
  5
313D
330
1E
100
AcDbEntity
  8
7
100
AcDbLine
 10
2.491141732283464
 20
4.138779527559054
 30
0.0
 11
2.480314960629921
 21
4.14271653543307
 31
0.0
  0
LINE
  5
313E
330
1E
100
AcDbEntity
  8
7
100
AcDbLine
 10
2.480314960629921
 20
4.14271653543307
 30
0.0
 11
2.469488188976377
 21
4.138779527559054
 31
0.0
  0
LINE
  5
313F
330
1E
100
AcDbEntity
  8
7
100
AcDbLine
 10
2.575787401574803
 20
4.117125984251968
 30
0.0
 11
2.579724409448818
 21
4.127952755905512
 31
0.0
  0
LINE
  5
3140
330
1E
100
AcDbEntity
  8
7
100
AcDbLine
 10
2.579724409448818
 20
4.127952755905512
 30
0.0
 11
2.575787401574803
 21
4.138779527559054
 31
0.0
  0
LINE
  5
3141
330
1E
100
AcDbEntity
  8
7
100
AcDbLine
 10
2.575787401574803
 20
4.138779527559054
 30
0.0
 11
2.564960629921259
 21
4.14271653543307
 31
0.0
  0
LINE
  5
3142
330
1E
100
AcDbEntity
  8
7
100
AcDbLine
 10
2.564960629921259
 20
4.14271653543307
 30
0.0
 11
2.554133858267716
 21
4.138779527559054
 31
0.0
  0
LINE
  5
3143
330
1E
100
AcDbEntity
  8
7
100
AcDbLine
 10
2.554133858267716
 20
4.138779527559054
 30
0.0
 11
2.5501968503937
 21
4.127952755905512
 31
0.0
  0
LINE
  5
3144
330
1E
100
AcDbEntity
  8
7
100
AcDbLine
 10
2.5501968503937
 20
4.127952755905512
 30
0.0
 11
2.554133858267716
 21
4.117125984251968
 31
0.0
  0
LINE
  5
3145
330
1E
100
AcDbEntity
  8
7
100
AcDbLine
 10
2.554133858267716
 20
4.117125984251968
 30
0.0
 11
2.564960629921259
 21
4.113188976377952
 31
0.0
  0
LINE
  5
3146
330
1E
100
AcDbEntity
  8
7
100
AcDbLine
 10
2.650590551181102
 20
4.113188976377952
 30
0.0
 11
2.661417322834645
 21
4.117125984251968
 31
0.0
  0
LINE
  5
3147
330
1E
100
AcDbEntity
  8
7
100
AcDbLine
 10
2.661417322834645
 20
4.117125984251968
 30
0.0
 11
2.665354330708661
 21
4.127952755905512
 31
0.0
  0
LINE
  5
3148
330
1E
100
AcDbEntity
  8
7
100
AcDbLine
 10
2.665354330708661
 20
4.127952755905512
 30
0.0
 11
2.661417322834645
 21
4.138779527559054
 31
0.0
  0
LINE
  5
3149
330
1E
100
AcDbEntity
  8
7
100
AcDbLine
 10
2.661417322834645
 20
4.138779527559054
 30
0.0
 11
2.650590551181102
 21
4.14271653543307
 31
0.0
  0
LINE
  5
314A
330
1E
100
AcDbEntity
  8
7
100
AcDbLine
 10
2.650590551181102
 20
4.14271653543307
 30
0.0
 11
2.639763779527558
 21
4.138779527559054
 31
0.0
  0
LINE
  5
314B
330
1E
100
AcDbEntity
  8
7
100
AcDbLine
 10
2.639763779527558
 20
4.138779527559054
 30
0.0
 11
2.635826771653543
 21
4.127952755905512
 31
0.0
  0
LINE
  5
314C
330
1E
100
AcDbEntity
  8
7
100
AcDbLine
 10
2.635826771653543
 20
4.127952755905512
 30
0.0
 11
2.639763779527558
 21
4.117125984251968
 31
0.0
  0
LINE
  5
314D
330
1E
100
AcDbEntity
  8
7
100
AcDbLine
 10
2.639763779527558
 20
4.117125984251968
 30
0.0
 11
2.650590551181102
 21
4.113188976377952
 31
0.0
  0
LINE
  5
314E
330
1E
100
AcDbEntity
  8
7
100
AcDbLine
 10
2.692913385826771
 20
4.233267716535433
 30
0.0
 11
2.703740157480314
 21
4.237204724409449
 31
0.0
  0
LINE
  5
314F
330
1E
100
AcDbEntity
  8
7
100
AcDbLine
 10
2.703740157480314
 20
4.237204724409449
 30
0.0
 11
2.70767716535433
 21
4.248031496062991
 31
0.0
  0
LINE
  5
3150
330
1E
100
AcDbEntity
  8
7
100
AcDbLine
 10
2.70767716535433
 20
4.248031496062991
 30
0.0
 11
2.703740157480314
 21
4.258858267716535
 31
0.0
  0
LINE
  5
3151
330
1E
100
AcDbEntity
  8
7
100
AcDbLine
 10
2.703740157480314
 20
4.258858267716535
 30
0.0
 11
2.692913385826771
 21
4.26279527559055
 31
0.0
  0
LINE
  5
3152
330
1E
100
AcDbEntity
  8
7
100
AcDbLine
 10
2.692913385826771
 20
4.26279527559055
 30
0.0
 11
2.682086614173228
 21
4.258858267716535
 31
0.0
  0
LINE
  5
3153
330
1E
100
AcDbEntity
  8
7
100
AcDbLine
 10
2.682086614173228
 20
4.258858267716535
 30
0.0
 11
2.678149606299212
 21
4.248031496062991
 31
0.0
  0
LINE
  5
3154
330
1E
100
AcDbEntity
  8
7
100
AcDbLine
 10
2.678149606299212
 20
4.248031496062991
 30
0.0
 11
2.682086614173228
 21
4.237204724409449
 31
0.0
  0
LINE
  5
3155
330
1E
100
AcDbEntity
  8
7
100
AcDbLine
 10
2.682086614173228
 20
4.237204724409449
 30
0.0
 11
2.692913385826771
 21
4.233267716535433
 31
0.0
  0
LINE
  5
3156
330
1E
100
AcDbEntity
  8
7
100
AcDbLine
 10
2.607283464566929
 20
4.26279527559055
 30
0.0
 11
2.596456692913385
 21
4.258858267716535
 31
0.0
  0
LINE
  5
3157
330
1E
100
AcDbEntity
  8
7
100
AcDbLine
 10
2.596456692913385
 20
4.258858267716535
 30
0.0
 11
2.592519685039369
 21
4.248031496062991
 31
0.0
  0
LINE
  5
3158
330
1E
100
AcDbEntity
  8
7
100
AcDbLine
 10
2.592519685039369
 20
4.248031496062991
 30
0.0
 11
2.596456692913385
 21
4.237204724409449
 31
0.0
  0
LINE
  5
3159
330
1E
100
AcDbEntity
  8
7
100
AcDbLine
 10
2.596456692913385
 20
4.237204724409449
 30
0.0
 11
2.607283464566929
 21
4.233267716535433
 31
0.0
  0
LINE
  5
315A
330
1E
100
AcDbEntity
  8
7
100
AcDbLine
 10
2.607283464566929
 20
4.233267716535433
 30
0.0
 11
2.618110236220472
 21
4.237204724409449
 31
0.0
  0
LINE
  5
315B
330
1E
100
AcDbEntity
  8
7
100
AcDbLine
 10
2.618110236220472
 20
4.237204724409449
 30
0.0
 11
2.622047244094487
 21
4.248031496062991
 31
0.0
  0
LINE
  5
315C
330
1E
100
AcDbEntity
  8
7
100
AcDbLine
 10
2.622047244094487
 20
4.248031496062991
 30
0.0
 11
2.618110236220472
 21
4.258858267716535
 31
0.0
  0
LINE
  5
315D
330
1E
100
AcDbEntity
  8
7
100
AcDbLine
 10
2.618110236220472
 20
4.258858267716535
 30
0.0
 11
2.607283464566929
 21
4.26279527559055
 31
0.0
  0
LINE
  5
315E
330
1E
100
AcDbEntity
  8
7
100
AcDbLine
 10
2.52263779527559
 20
4.233267716535433
 30
0.0
 11
2.533464566929133
 21
4.237204724409449
 31
0.0
  0
LINE
  5
315F
330
1E
100
AcDbEntity
  8
7
100
AcDbLine
 10
2.533464566929133
 20
4.237204724409449
 30
0.0
 11
2.537401574803149
 21
4.248031496062991
 31
0.0
  0
LINE
  5
3160
330
1E
100
AcDbEntity
  8
7
100
AcDbLine
 10
2.537401574803149
 20
4.248031496062991
 30
0.0
 11
2.533464566929133
 21
4.258858267716535
 31
0.0
  0
LINE
  5
3161
330
1E
100
AcDbEntity
  8
7
100
AcDbLine
 10
2.533464566929133
 20
4.258858267716535
 30
0.0
 11
2.52263779527559
 21
4.26279527559055
 31
0.0
  0
LINE
  5
3162
330
1E
100
AcDbEntity
  8
7
100
AcDbLine
 10
2.52263779527559
 20
4.26279527559055
 30
0.0
 11
2.511811023622047
 21
4.258858267716535
 31
0.0
  0
LINE
  5
3163
330
1E
100
AcDbEntity
  8
7
100
AcDbLine
 10
2.511811023622047
 20
4.258858267716535
 30
0.0
 11
2.507874015748031
 21
4.248031496062991
 31
0.0
  0
LINE
  5
3164
330
1E
100
AcDbEntity
  8
7
100
AcDbLine
 10
2.507874015748031
 20
4.248031496062991
 30
0.0
 11
2.511811023622047
 21
4.237204724409449
 31
0.0
  0
LINE
  5
3165
330
1E
100
AcDbEntity
  8
7
100
AcDbLine
 10
2.511811023622047
 20
4.237204724409449
 30
0.0
 11
2.52263779527559
 21
4.233267716535433
 31
0.0
  0
LINE
  5
3166
330
1E
100
AcDbEntity
  8
7
100
AcDbLine
 10
2.437992125984251
 20
4.233267716535433
 30
0.0
 11
2.448818897637795
 21
4.237204724409449
 31
0.0
  0
LINE
  5
3167
330
1E
100
AcDbEntity
  8
7
100
AcDbLine
 10
2.448818897637795
 20
4.237204724409449
 30
0.0
 11
2.452755905511811
 21
4.248031496062991
 31
0.0
  0
LINE
  5
3168
330
1E
100
AcDbEntity
  8
7
100
AcDbLine
 10
2.452755905511811
 20
4.248031496062991
 30
0.0
 11
2.448818897637795
 21
4.258858267716535
 31
0.0
  0
LINE
  5
3169
330
1E
100
AcDbEntity
  8
7
100
AcDbLine
 10
2.448818897637795
 20
4.258858267716535
 30
0.0
 11
2.437992125984251
 21
4.26279527559055
 31
0.0
  0
LINE
  5
316A
330
1E
100
AcDbEntity
  8
7
100
AcDbLine
 10
2.437992125984251
 20
4.26279527559055
 30
0.0
 11
2.427165354330708
 21
4.258858267716535
 31
0.0
  0
LINE
  5
316B
330
1E
100
AcDbEntity
  8
7
100
AcDbLine
 10
2.427165354330708
 20
4.258858267716535
 30
0.0
 11
2.423228346456693
 21
4.248031496062991
 31
0.0
  0
LINE
  5
316C
330
1E
100
AcDbEntity
  8
7
100
AcDbLine
 10
2.423228346456693
 20
4.248031496062991
 30
0.0
 11
2.427165354330708
 21
4.237204724409449
 31
0.0
  0
LINE
  5
316D
330
1E
100
AcDbEntity
  8
7
100
AcDbLine
 10
2.427165354330708
 20
4.237204724409449
 30
0.0
 11
2.437992125984251
 21
4.233267716535433
 31
0.0
  0
LINE
  5
316E
330
1E
100
AcDbEntity
  8
7
100
AcDbLine
 10
2.352362204724409
 20
4.233267716535433
 30
0.0
 11
2.363188976377952
 21
4.237204724409449
 31
0.0
  0
LINE
  5
316F
330
1E
100
AcDbEntity
  8
7
100
AcDbLine
 10
2.363188976377952
 20
4.237204724409449
 30
0.0
 11
2.367125984251968
 21
4.248031496062991
 31
0.0
  0
LINE
  5
3170
330
1E
100
AcDbEntity
  8
7
100
AcDbLine
 10
2.367125984251968
 20
4.248031496062991
 30
0.0
 11
2.363188976377952
 21
4.258858267716535
 31
0.0
  0
LINE
  5
3171
330
1E
100
AcDbEntity
  8
7
100
AcDbLine
 10
2.363188976377952
 20
4.258858267716535
 30
0.0
 11
2.352362204724409
 21
4.26279527559055
 31
0.0
  0
LINE
  5
3172
330
1E
100
AcDbEntity
  8
7
100
AcDbLine
 10
2.352362204724409
 20
4.26279527559055
 30
0.0
 11
2.341535433070866
 21
4.258858267716535
 31
0.0
  0
LINE
  5
3173
330
1E
100
AcDbEntity
  8
7
100
AcDbLine
 10
2.341535433070866
 20
4.258858267716535
 30
0.0
 11
2.33759842519685
 21
4.248031496062991
 31
0.0
  0
LINE
  5
3174
330
1E
100
AcDbEntity
  8
7
100
AcDbLine
 10
2.33759842519685
 20
4.248031496062991
 30
0.0
 11
2.341535433070866
 21
4.237204724409449
 31
0.0
  0
LINE
  5
3175
330
1E
100
AcDbEntity
  8
7
100
AcDbLine
 10
2.828740157480314
 20
4.085629921259842
 30
0.0
 11
2.820866141732283
 21
4.086614173228346
 31
0.0
  0
LINE
  5
3176
330
1E
100
AcDbEntity
  8
7
100
AcDbLine
 10
2.820866141732283
 20
4.086614173228346
 30
0.0
 11
2.817913385826771
 21
4.08759842519685
 31
0.0
  0
LINE
  5
3177
330
1E
100
AcDbEntity
  8
7
100
AcDbLine
 10
2.750984251968503
 20
4.031496062992125
 30
0.0
 11
2.750984251968503
 21
4.028543307086613
 31
0.0
  0
LINE
  5
3178
330
1E
100
AcDbEntity
  8
7
100
AcDbLine
 10
2.750984251968503
 20
4.028543307086613
 30
0.0
 11
2.750984251968503
 21
4.020669291338582
 31
0.0
  0
LINE
  5
3179
330
1E
100
AcDbEntity
  8
7
100
AcDbLine
 10
2.859251968503937
 20
4.26279527559055
 30
0.0
 11
2.852362204724409
 21
4.263779527559054
 31
0.0
  0
LINE
  5
317A
330
1E
100
AcDbEntity
  8
7
100
AcDbLine
 10
2.852362204724409
 20
4.263779527559054
 30
0.0
 11
2.848425196850393
 21
4.264763779527559
 31
0.0
  0
LINE
  5
317B
330
1E
100
AcDbEntity
  8
7
100
AcDbLine
 10
2.294291338582677
 20
4.031496062992125
 30
0.0
 11
2.294291338582677
 21
4.028543307086613
 31
0.0
  0
LINE
  5
317C
330
1E
100
AcDbEntity
  8
7
100
AcDbLine
 10
2.294291338582677
 20
4.028543307086613
 30
0.0
 11
2.294291338582677
 21
4.020669291338582
 31
0.0
  0
LINE
  5
317D
330
1E
100
AcDbEntity
  8
7
100
AcDbLine
 10
2.781496062992125
 20
4.355314960629921
 30
0.0
 11
2.781496062992125
 21
4.347440944881889
 31
0.0
  0
LINE
  5
317E
330
1E
100
AcDbEntity
  8
7
100
AcDbLine
 10
2.781496062992125
 20
4.347440944881889
 30
0.0
 11
2.781496062992125
 21
4.344488188976377
 31
0.0
  0
LINE
  5
317F
330
1E
100
AcDbEntity
  8
7
100
AcDbLine
 10
2.227362204724409
 20
4.08759842519685
 30
0.0
 11
2.224409448818897
 21
4.086614173228346
 31
0.0
  0
LINE
  5
3180
330
1E
100
AcDbEntity
  8
7
100
AcDbLine
 10
2.224409448818897
 20
4.086614173228346
 30
0.0
 11
2.216535433070866
 21
4.085629921259842
 31
0.0
  0
LINE
  5
3181
330
1E
100
AcDbEntity
  8
7
100
AcDbLine
 10
2.195866141732283
 20
4.264763779527559
 30
0.0
 11
2.192913385826771
 21
4.263779527559054
 31
0.0
  0
LINE
  5
3182
330
1E
100
AcDbEntity
  8
7
100
AcDbLine
 10
2.192913385826771
 20
4.263779527559054
 30
0.0
 11
2.18503937007874
 21
4.26279527559055
 31
0.0
  0
LINE
  5
3183
330
1E
100
AcDbEntity
  8
7
100
AcDbLine
 10
2.263779527559055
 20
4.355314960629921
 30
0.0
 11
2.263779527559055
 21
4.347440944881889
 31
0.0
  0
LINE
  5
3184
330
1E
100
AcDbEntity
  8
7
100
AcDbLine
 10
2.263779527559055
 20
4.347440944881889
 30
0.0
 11
2.263779527559055
 21
4.344488188976377
 31
0.0
  0
LINE
  5
3185
330
1E
100
AcDbEntity
  8
7
100
AcDbLine
 10
2.840551181102362
 20
4.310039370078739
 30
0.0
 11
2.824803149606299
 21
4.328740157480314
 31
0.0
  0
LINE
  5
3186
330
1E
100
AcDbEntity
  8
7
100
AcDbLine
 10
2.824803149606299
 20
4.328740157480314
 30
0.0
 11
2.80511811023622
 21
4.340551181102362
 31
0.0
  0
LINE
  5
3187
330
1E
100
AcDbEntity
  8
7
100
AcDbLine
 10
2.80511811023622
 20
4.340551181102362
 30
0.0
 11
2.781496062992125
 21
4.344488188976377
 31
0.0
  0
LINE
  5
3188
330
1E
100
AcDbEntity
  8
7
100
AcDbLine
 10
2.848425196850393
 20
4.264763779527559
 30
0.0
 11
2.848425196850393
 21
4.288385826771653
 31
0.0
  0
LINE
  5
3189
330
1E
100
AcDbEntity
  8
7
100
AcDbLine
 10
2.848425196850393
 20
4.288385826771653
 30
0.0
 11
2.840551181102362
 21
4.310039370078739
 31
0.0
  0
LINE
  5
318A
330
1E
100
AcDbEntity
  8
7
100
AcDbLine
 10
2.750984251968503
 20
4.031496062992125
 30
0.0
 11
2.774606299212598
 21
4.035433070866141
 31
0.0
  0
LINE
  5
318B
330
1E
100
AcDbEntity
  8
7
100
AcDbLine
 10
2.774606299212598
 20
4.035433070866141
 30
0.0
 11
2.794291338582677
 21
4.047244094488188
 31
0.0
  0
LINE
  5
318C
330
1E
100
AcDbEntity
  8
7
100
AcDbLine
 10
2.794291338582677
 20
4.047244094488188
 30
0.0
 11
2.81003937007874
 21
4.06496062992126
 31
0.0
  0
LINE
  5
318D
330
1E
100
AcDbEntity
  8
7
100
AcDbLine
 10
2.81003937007874
 20
4.06496062992126
 30
0.0
 11
2.817913385826771
 21
4.08759842519685
 31
0.0
  0
LINE
  5
318E
330
1E
100
AcDbEntity
  8
7
100
AcDbLine
 10
2.227362204724409
 20
4.08759842519685
 30
0.0
 11
2.23523622047244
 21
4.065944881889763
 31
0.0
  0
LINE
  5
318F
330
1E
100
AcDbEntity
  8
7
100
AcDbLine
 10
2.23523622047244
 20
4.065944881889763
 30
0.0
 11
2.250984251968503
 21
4.047244094488188
 31
0.0
  0
LINE
  5
3190
330
1E
100
AcDbEntity
  8
7
100
AcDbLine
 10
2.250984251968503
 20
4.047244094488188
 30
0.0
 11
2.270669291338582
 21
4.035433070866141
 31
0.0
  0
LINE
  5
3191
330
1E
100
AcDbEntity
  8
7
100
AcDbLine
 10
2.270669291338582
 20
4.035433070866141
 30
0.0
 11
2.294291338582677
 21
4.031496062992125
 31
0.0
  0
LINE
  5
3192
330
1E
100
AcDbEntity
  8
7
100
AcDbLine
 10
2.220472440944881
 20
4.328740157480314
 30
0.0
 11
2.204724409448818
 21
4.311023622047244
 31
0.0
  0
LINE
  5
3193
330
1E
100
AcDbEntity
  8
7
100
AcDbLine
 10
2.204724409448818
 20
4.311023622047244
 30
0.0
 11
2.196850393700787
 21
4.288385826771653
 31
0.0
  0
LINE
  5
3194
330
1E
100
AcDbEntity
  8
7
100
AcDbLine
 10
2.196850393700787
 20
4.288385826771653
 30
0.0
 11
2.196850393700787
 21
4.264763779527559
 31
0.0
  0
LINE
  5
3195
330
1E
100
AcDbEntity
  8
7
100
AcDbLine
 10
2.263779527559055
 20
4.344488188976377
 30
0.0
 11
2.24015748031496
 21
4.340551181102362
 31
0.0
  0
LINE
  5
3196
330
1E
100
AcDbEntity
  8
7
100
AcDbLine
 10
2.24015748031496
 20
4.340551181102362
 30
0.0
 11
2.220472440944881
 21
4.328740157480314
 31
0.0
  0
LINE
  5
3197
330
1E
100
AcDbEntity
  8
7
100
AcDbLine
 10
2.25
 20
4.091535433070865
 30
0.0
 11
2.257874015748031
 21
4.072834645669291
 31
0.0
  0
LINE
  5
3198
330
1E
100
AcDbEntity
  8
7
100
AcDbLine
 10
2.257874015748031
 20
4.072834645669291
 30
0.0
 11
2.273622047244094
 21
4.059055118110236
 31
0.0
  0
LINE
  5
3199
330
1E
100
AcDbEntity
  8
7
100
AcDbLine
 10
2.273622047244094
 20
4.059055118110236
 30
0.0
 11
2.294291338582677
 21
4.054133858267716
 31
0.0
  0
LINE
  5
319A
330
1E
100
AcDbEntity
  8
7
100
AcDbLine
 10
2.750984251968503
 20
4.054133858267716
 30
0.0
 11
2.771653543307086
 21
4.059055118110236
 31
0.0
  0
LINE
  5
319B
330
1E
100
AcDbEntity
  8
7
100
AcDbLine
 10
2.771653543307086
 20
4.059055118110236
 30
0.0
 11
2.787401574803149
 21
4.072834645669291
 31
0.0
  0
LINE
  5
319C
330
1E
100
AcDbEntity
  8
7
100
AcDbLine
 10
2.787401574803149
 20
4.072834645669291
 30
0.0
 11
2.795275590551181
 21
4.091535433070865
 31
0.0
  0
LINE
  5
319D
330
1E
100
AcDbEntity
  8
7
100
AcDbLine
 10
2.826771653543307
 20
4.268700787401574
 30
0.0
 11
2.825787401574803
 21
4.288385826771653
 31
0.0
  0
LINE
  5
319E
330
1E
100
AcDbEntity
  8
7
100
AcDbLine
 10
2.825787401574803
 20
4.288385826771653
 30
0.0
 11
2.816929133858267
 21
4.306102362204724
 31
0.0
  0
LINE
  5
319F
330
1E
100
AcDbEntity
  8
7
100
AcDbLine
 10
2.816929133858267
 20
4.306102362204724
 30
0.0
 11
2.801181102362204
 21
4.317913385826771
 31
0.0
  0
LINE
  5
31A0
330
1E
100
AcDbEntity
  8
7
100
AcDbLine
 10
2.801181102362204
 20
4.317913385826771
 30
0.0
 11
2.78248031496063
 21
4.321850393700787
 31
0.0
  0
LINE
  5
31A1
330
1E
100
AcDbEntity
  8
7
100
AcDbLine
 10
2.262795275590551
 20
4.321850393700787
 30
0.0
 11
2.244094488188976
 21
4.317913385826771
 31
0.0
  0
LINE
  5
31A2
330
1E
100
AcDbEntity
  8
7
100
AcDbLine
 10
2.244094488188976
 20
4.317913385826771
 30
0.0
 11
2.228346456692913
 21
4.306102362204724
 31
0.0
  0
LINE
  5
31A3
330
1E
100
AcDbEntity
  8
7
100
AcDbLine
 10
2.228346456692913
 20
4.306102362204724
 30
0.0
 11
2.219488188976377
 21
4.288385826771653
 31
0.0
  0
LINE
  5
31A4
330
1E
100
AcDbEntity
  8
7
100
AcDbLine
 10
2.219488188976377
 20
4.288385826771653
 30
0.0
 11
2.218503937007874
 21
4.268700787401574
 31
0.0
  0
LINE
  5
31A5
330
1E
100
AcDbEntity
  8
7
100
AcDbLine
 10
2.859251968503937
 20
4.26279527559055
 30
0.0
 11
2.859251968503937
 21
4.290354330708661
 31
0.0
  0
LINE
  5
31A6
330
1E
100
AcDbEntity
  8
7
100
AcDbLine
 10
2.859251968503937
 20
4.290354330708661
 30
0.0
 11
2.849409448818897
 21
4.315944881889763
 31
0.0
  0
LINE
  5
31A7
330
1E
100
AcDbEntity
  8
7
100
AcDbLine
 10
2.849409448818897
 20
4.315944881889763
 30
0.0
 11
2.831692913385826
 21
4.336614173228346
 31
0.0
  0
LINE
  5
31A8
330
1E
100
AcDbEntity
  8
7
100
AcDbLine
 10
2.831692913385826
 20
4.336614173228346
 30
0.0
 11
2.808070866141732
 21
4.350393700787401
 31
0.0
  0
LINE
  5
31A9
330
1E
100
AcDbEntity
  8
7
100
AcDbLine
 10
2.808070866141732
 20
4.350393700787401
 30
0.0
 11
2.781496062992125
 21
4.355314960629921
 31
0.0
  0
LINE
  5
31AA
330
1E
100
AcDbEntity
  8
7
100
AcDbLine
 10
2.263779527559055
 20
4.355314960629921
 30
0.0
 11
2.237204724409448
 21
4.350393700787401
 31
0.0
  0
LINE
  5
31AB
330
1E
100
AcDbEntity
  8
7
100
AcDbLine
 10
2.237204724409448
 20
4.350393700787401
 30
0.0
 11
2.213582677165354
 21
4.336614173228346
 31
0.0
  0
LINE
  5
31AC
330
1E
100
AcDbEntity
  8
7
100
AcDbLine
 10
2.213582677165354
 20
4.336614173228346
 30
0.0
 11
2.195866141732283
 21
4.315944881889763
 31
0.0
  0
LINE
  5
31AD
330
1E
100
AcDbEntity
  8
7
100
AcDbLine
 10
2.195866141732283
 20
4.315944881889763
 30
0.0
 11
2.186023622047243
 21
4.290354330708661
 31
0.0
  0
LINE
  5
31AE
330
1E
100
AcDbEntity
  8
7
100
AcDbLine
 10
2.186023622047243
 20
4.290354330708661
 30
0.0
 11
2.186023622047243
 21
4.26279527559055
 31
0.0
  0
LINE
  5
31AF
330
1E
100
AcDbEntity
  8
7
100
AcDbLine
 10
2.216535433070866
 20
4.085629921259842
 30
0.0
 11
2.226377952755905
 21
4.060039370078739
 31
0.0
  0
LINE
  5
31B0
330
1E
100
AcDbEntity
  8
7
100
AcDbLine
 10
2.226377952755905
 20
4.060039370078739
 30
0.0
 11
2.244094488188976
 21
4.039370078740157
 31
0.0
  0
LINE
  5
31B1
330
1E
100
AcDbEntity
  8
7
100
AcDbLine
 10
2.244094488188976
 20
4.039370078740157
 30
0.0
 11
2.26771653543307
 21
4.025590551181101
 31
0.0
  0
LINE
  5
31B2
330
1E
100
AcDbEntity
  8
7
100
AcDbLine
 10
2.750984251968503
 20
4.020669291338582
 30
0.0
 11
2.77755905511811
 21
4.025590551181101
 31
0.0
  0
LINE
  5
31B3
330
1E
100
AcDbEntity
  8
7
100
AcDbLine
 10
2.77755905511811
 20
4.025590551181101
 30
0.0
 11
2.801181102362204
 21
4.039370078740157
 31
0.0
  0
LINE
  5
31B4
330
1E
100
AcDbEntity
  8
7
100
AcDbLine
 10
2.801181102362204
 20
4.039370078740157
 30
0.0
 11
2.818897637795275
 21
4.060039370078739
 31
0.0
  0
LINE
  5
31B5
330
1E
100
AcDbEntity
  8
7
100
AcDbLine
 10
2.818897637795275
 20
4.060039370078739
 30
0.0
 11
2.828740157480314
 21
4.085629921259842
 31
0.0
  0
LINE
  5
31B6
330
1E
100
AcDbEntity
  8
7
100
AcDbLine
 10
3.034448818897637
 20
5.341535433070865
 30
0.0
 11
3.014763779527558
 21
5.341535433070865
 31
0.0
  0
LINE
  5
31B7
330
1E
100
AcDbEntity
  8
7
100
AcDbLine
 10
3.014763779527558
 20
5.341535433070865
 30
0.0
 11
2.99507874015748
 21
5.341535433070865
 31
0.0
  0
LINE
  5
31B8
330
1E
100
AcDbEntity
  8
7
100
AcDbLine
 10
2.99507874015748
 20
5.301181102362204
 30
0.0
 11
2.965551181102362
 21
5.301181102362204
 31
0.0
  0
LINE
  5
31B9
330
1E
100
AcDbEntity
  8
7
100
AcDbLine
 10
2.965551181102362
 20
5.301181102362204
 30
0.0
 11
2.941929133858267
 21
5.301181102362204
 31
0.0
  0
LINE
  5
31BA
330
1E
100
AcDbEntity
  8
7
100
AcDbLine
 10
2.941929133858267
 20
5.301181102362204
 30
0.0
 11
2.926181102362204
 21
5.301181102362204
 31
0.0
  0
LINE
  5
31BB
330
1E
100
AcDbEntity
  8
7
100
AcDbLine
 10
3.108267716535432
 20
5.301181102362204
 30
0.0
 11
3.103346456692913
 21
5.301181102362204
 31
0.0
  0
LINE
  5
31BC
330
1E
100
AcDbEntity
  8
7
100
AcDbLine
 10
3.103346456692913
 20
5.301181102362204
 30
0.0
 11
3.08759842519685
 21
5.301181102362204
 31
0.0
  0
LINE
  5
31BD
330
1E
100
AcDbEntity
  8
7
100
AcDbLine
 10
3.08759842519685
 20
5.301181102362204
 30
0.0
 11
3.063976377952756
 21
5.301181102362204
 31
0.0
  0
LINE
  5
31BE
330
1E
100
AcDbEntity
  8
7
100
AcDbLine
 10
3.063976377952756
 20
5.301181102362204
 30
0.0
 11
3.034448818897637
 21
5.301181102362204
 31
0.0
  0
LINE
  5
31BF
330
1E
100
AcDbEntity
  8
7
100
AcDbLine
 10
2.0501968503937
 20
5.341535433070865
 30
0.0
 11
2.030511811023622
 21
5.341535433070865
 31
0.0
  0
LINE
  5
31C0
330
1E
100
AcDbEntity
  8
7
100
AcDbLine
 10
2.030511811023622
 20
5.341535433070865
 30
0.0
 11
2.010826771653543
 21
5.341535433070865
 31
0.0
  0
LINE
  5
31C1
330
1E
100
AcDbEntity
  8
7
100
AcDbLine
 10
2.010826771653543
 20
5.301181102362204
 30
0.0
 11
1.981299212598425
 21
5.301181102362204
 31
0.0
  0
LINE
  5
31C2
330
1E
100
AcDbEntity
  8
7
100
AcDbLine
 10
1.981299212598425
 20
5.301181102362204
 30
0.0
 11
1.95767716535433
 21
5.301181102362204
 31
0.0
  0
LINE
  5
31C3
330
1E
100
AcDbEntity
  8
7
100
AcDbLine
 10
1.95767716535433
 20
5.301181102362204
 30
0.0
 11
1.941929133858267
 21
5.301181102362204
 31
0.0
  0
LINE
  5
31C4
330
1E
100
AcDbEntity
  8
7
100
AcDbLine
 10
1.941929133858267
 20
5.301181102362204
 30
0.0
 11
1.937007874015747
 21
5.301181102362204
 31
0.0
  0
LINE
  5
31C5
330
1E
100
AcDbEntity
  8
7
100
AcDbLine
 10
2.124015748031495
 20
5.301181102362204
 30
0.0
 11
2.119094488188976
 21
5.301181102362204
 31
0.0
  0
LINE
  5
31C6
330
1E
100
AcDbEntity
  8
7
100
AcDbLine
 10
2.119094488188976
 20
5.301181102362204
 30
0.0
 11
2.103346456692913
 21
5.301181102362204
 31
0.0
  0
LINE
  5
31C7
330
1E
100
AcDbEntity
  8
7
100
AcDbLine
 10
2.103346456692913
 20
5.301181102362204
 30
0.0
 11
2.079724409448818
 21
5.301181102362204
 31
0.0
  0
LINE
  5
31C8
330
1E
100
AcDbEntity
  8
7
100
AcDbLine
 10
2.079724409448818
 20
5.301181102362204
 30
0.0
 11
2.0501968503937
 21
5.301181102362204
 31
0.0
  0
LINE
  5
31C9
330
1E
100
AcDbEntity
  8
7
100
AcDbLine
 10
2.885826771653542
 20
5.997047244094487
 30
0.0
 11
2.896653543307086
 21
6.627952755905512
 31
0.0
  0
LINE
  5
31CA
330
1E
100
AcDbEntity
  8
7
100
AcDbLine
 10
2.896653543307086
 20
6.627952755905512
 30
0.0
 11
2.89763779527559
 21
6.64271653543307
 31
0.0
  0
LINE
  5
31CB
330
1E
100
AcDbEntity
  8
7
100
AcDbLine
 10
2.89763779527559
 20
6.64271653543307
 30
0.0
 11
2.89763779527559
 21
6.653543307086613
 31
0.0
  0
LINE
  5
31CC
330
1E
100
AcDbEntity
  8
7
100
AcDbLine
 10
2.89763779527559
 20
6.653543307086613
 30
0.0
 11
2.89763779527559
 21
6.657480314960629
 31
0.0
  0
LINE
  5
31CD
330
1E
100
AcDbEntity
  8
7
100
AcDbLine
 10
2.947834645669291
 20
6.657480314960629
 30
0.0
 11
2.947834645669291
 21
6.653543307086613
 31
0.0
  0
LINE
  5
31CE
330
1E
100
AcDbEntity
  8
7
100
AcDbLine
 10
2.947834645669291
 20
6.653543307086613
 30
0.0
 11
2.947834645669291
 21
6.64271653543307
 31
0.0
  0
LINE
  5
31CF
330
1E
100
AcDbEntity
  8
7
100
AcDbLine
 10
2.159448818897637
 20
5.997047244094487
 30
0.0
 11
2.148622047244094
 21
6.627952755905512
 31
0.0
  0
LINE
  5
31D0
330
1E
100
AcDbEntity
  8
7
100
AcDbLine
 10
2.148622047244094
 20
6.627952755905512
 30
0.0
 11
2.097440944881889
 21
6.627952755905512
 31
0.0
  0
LINE
  5
31D1
330
1E
100
AcDbEntity
  8
7
100
AcDbLine
 10
2.085629921259842
 20
5.997047244094487
 30
0.0
 11
2.097440944881889
 21
6.627952755905512
 31
0.0
  0
LINE
  5
31D2
330
1E
100
AcDbEntity
  8
7
100
AcDbLine
 10
2.097440944881889
 20
6.627952755905512
 30
0.0
 11
2.097440944881889
 21
6.64271653543307
 31
0.0
  0
LINE
  5
31D3
330
1E
100
AcDbEntity
  8
7
100
AcDbLine
 10
2.097440944881889
 20
6.64271653543307
 30
0.0
 11
2.097440944881889
 21
6.653543307086613
 31
0.0
  0
LINE
  5
31D4
330
1E
100
AcDbEntity
  8
7
100
AcDbLine
 10
2.097440944881889
 20
6.653543307086613
 30
0.0
 11
2.097440944881889
 21
6.657480314960629
 31
0.0
  0
LINE
  5
31D5
330
1E
100
AcDbEntity
  8
7
100
AcDbLine
 10
2.097440944881889
 20
6.657480314960629
 30
0.0
 11
2.14763779527559
 21
6.657480314960629
 31
0.0
  0
LINE
  5
31D6
330
1E
100
AcDbEntity
  8
7
100
AcDbLine
 10
2.14763779527559
 20
6.657480314960629
 30
0.0
 11
2.14763779527559
 21
6.653543307086613
 31
0.0
  0
LINE
  5
31D7
330
1E
100
AcDbEntity
  8
7
100
AcDbLine
 10
2.14763779527559
 20
6.653543307086613
 30
0.0
 11
2.14763779527559
 21
6.64271653543307
 31
0.0
  0
LINE
  5
31D8
330
1E
100
AcDbEntity
  8
7
100
AcDbLine
 10
2.14763779527559
 20
6.64271653543307
 30
0.0
 11
2.148622047244094
 21
6.627952755905512
 31
0.0
  0
LINE
  5
31D9
330
1E
100
AcDbEntity
  8
7
100
AcDbLine
 10
2.095472440944881
 20
6.839566929133858
 30
0.0
 11
2.099409448818897
 21
6.839566929133858
 31
0.0
  0
LINE
  5
31DA
330
1E
100
AcDbEntity
  8
7
100
AcDbLine
 10
2.099409448818897
 20
6.839566929133858
 30
0.0
 11
2.11023622047244
 21
6.839566929133858
 31
0.0
  0
LINE
  5
31DB
330
1E
100
AcDbEntity
  8
7
100
AcDbLine
 10
2.299212598425196
 20
6.8001968503937
 30
0.0
 11
2.3001968503937
 21
6.839566929133858
 31
0.0
  0
LINE
  5
31DC
330
1E
100
AcDbEntity
  8
7
100
AcDbLine
 10
2.3001968503937
 20
6.839566929133858
 30
0.0
 11
2.11023622047244
 21
6.839566929133858
 31
0.0
  0
LINE
  5
31DD
330
1E
100
AcDbEntity
  8
7
100
AcDbLine
 10
2.11023622047244
 20
6.839566929133858
 30
0.0
 11
2.111220472440944
 21
6.8001968503937
 31
0.0
  0
LINE
  5
31DE
330
1E
100
AcDbEntity
  8
7
100
AcDbLine
 10
2.3001968503937
 20
6.839566929133858
 30
0.0
 11
2.311023622047243
 21
6.839566929133858
 31
0.0
  0
LINE
  5
31DF
330
1E
100
AcDbEntity
  8
7
100
AcDbLine
 10
2.311023622047243
 20
6.839566929133858
 30
0.0
 11
2.314960629921259
 21
6.839566929133858
 31
0.0
  0
LINE
  5
31E0
330
1E
100
AcDbEntity
  8
7
100
AcDbLine
 10
2.934055118110236
 20
6.8001968503937
 30
0.0
 11
2.93503937007874
 21
6.839566929133858
 31
0.0
  0
LINE
  5
31E1
330
1E
100
AcDbEntity
  8
7
100
AcDbLine
 10
2.93503937007874
 20
6.839566929133858
 30
0.0
 11
2.74507874015748
 21
6.839566929133858
 31
0.0
  0
LINE
  5
31E2
330
1E
100
AcDbEntity
  8
7
100
AcDbLine
 10
2.74507874015748
 20
6.839566929133858
 30
0.0
 11
2.746062992125984
 21
6.8001968503937
 31
0.0
  0
LINE
  5
31E3
330
1E
100
AcDbEntity
  8
7
100
AcDbLine
 10
2.93503937007874
 20
6.839566929133858
 30
0.0
 11
2.945866141732283
 21
6.839566929133858
 31
0.0
  0
LINE
  5
31E4
330
1E
100
AcDbEntity
  8
7
100
AcDbLine
 10
2.945866141732283
 20
6.839566929133858
 30
0.0
 11
2.949803149606299
 21
6.839566929133858
 31
0.0
  0
LINE
  5
31E5
330
1E
100
AcDbEntity
  8
7
100
AcDbLine
 10
2.313976377952756
 20
6.8001968503937
 30
0.0
 11
2.095472440944881
 21
6.8001968503937
 31
0.0
  0
LINE
  5
31E6
330
1E
100
AcDbEntity
  8
7
100
AcDbLine
 10
2.095472440944881
 20
6.8001968503937
 30
0.0
 11
2.095472440944881
 21
6.839566929133858
 31
0.0
  0
LINE
  5
31E7
330
1E
100
AcDbEntity
  8
7
100
AcDbLine
 10
2.949803149606299
 20
6.8001968503937
 30
0.0
 11
2.731299212598425
 21
6.8001968503937
 31
0.0
  0
LINE
  5
31E8
330
1E
100
AcDbEntity
  8
7
100
AcDbLine
 10
2.731299212598425
 20
6.8001968503937
 30
0.0
 11
2.730314960629921
 21
6.839566929133858
 31
0.0
  0
LINE
  5
31E9
330
1E
100
AcDbEntity
  8
7
100
AcDbLine
 10
1.96751968503937
 20
5.46751968503937
 30
0.0
 11
1.96751968503937
 21
5.472440944881889
 31
0.0
  0
LINE
  5
31EA
330
1E
100
AcDbEntity
  8
7
100
AcDbLine
 10
1.96751968503937
 20
5.472440944881889
 30
0.0
 11
1.965551181102362
 21
5.565944881889763
 31
0.0
  0
LINE
  5
31EB
330
1E
100
AcDbEntity
  8
7
100
AcDbLine
 10
2.602362204724409
 20
5.46751968503937
 30
0.0
 11
2.602362204724409
 21
5.472440944881889
 31
0.0
  0
LINE
  5
31EC
330
1E
100
AcDbEntity
  8
7
100
AcDbLine
 10
2.602362204724409
 20
5.472440944881889
 30
0.0
 11
2.600393700787401
 21
5.565944881889763
 31
0.0
  0
LINE
  5
31ED
330
1E
100
AcDbEntity
  8
7
100
AcDbLine
 10
1.917322834645669
 20
5.997047244094487
 30
0.0
 11
1.922244094488188
 21
5.997047244094487
 31
0.0
  0
LINE
  5
31EE
330
1E
100
AcDbEntity
  8
7
100
AcDbLine
 10
1.922244094488188
 20
5.997047244094487
 30
0.0
 11
3.123031496062992
 21
5.997047244094487
 31
0.0
  0
LINE
  5
31EF
330
1E
100
AcDbEntity
  8
7
100
AcDbLine
 10
3.123031496062992
 20
5.997047244094487
 30
0.0
 11
3.127952755905511
 21
5.997047244094487
 31
0.0
  0
LINE
  5
31F0
330
1E
100
AcDbEntity
  8
7
100
AcDbLine
 10
2.750984251968503
 20
6.0
 30
0.0
 11
2.773622047244094
 21
6.0
 31
0.0
  0
LINE
  5
31F1
330
1E
100
AcDbEntity
  8
7
100
AcDbLine
 10
2.773622047244094
 20
6.0
 30
0.0
 11
2.794291338582677
 21
6.0
 31
0.0
  0
LINE
  5
31F2
330
1E
100
AcDbEntity
  8
7
100
AcDbLine
 10
2.794291338582677
 20
6.0
 30
0.0
 11
2.81003937007874
 21
6.0
 31
0.0
  0
LINE
  5
31F3
330
1E
100
AcDbEntity
  8
7
100
AcDbLine
 10
2.81003937007874
 20
6.0
 30
0.0
 11
2.817913385826771
 21
6.0
 31
0.0
  0
LINE
  5
31F4
330
1E
100
AcDbEntity
  8
7
100
AcDbLine
 10
2.817913385826771
 20
6.0
 30
0.0
 11
2.848425196850393
 21
6.0
 31
0.0
  0
LINE
  5
31F5
330
1E
100
AcDbEntity
  8
7
100
AcDbLine
 10
2.848425196850393
 20
6.0
 30
0.0
 11
2.849409448818897
 21
6.0
 31
0.0
  0
LINE
  5
31F6
330
1E
100
AcDbEntity
  8
7
100
AcDbLine
 10
2.849409448818897
 20
6.0
 30
0.0
 11
2.850393700787401
 21
6.0
 31
0.0
  0
LINE
  5
31F7
330
1E
100
AcDbEntity
  8
7
100
AcDbLine
 10
2.227362204724409
 20
6.0
 30
0.0
 11
2.23523622047244
 21
6.0
 31
0.0
  0
LINE
  5
31F8
330
1E
100
AcDbEntity
  8
7
100
AcDbLine
 10
2.23523622047244
 20
6.0
 30
0.0
 11
2.250984251968503
 21
6.0
 31
0.0
  0
LINE
  5
31F9
330
1E
100
AcDbEntity
  8
7
100
AcDbLine
 10
2.250984251968503
 20
6.0
 30
0.0
 11
2.271653543307086
 21
6.0
 31
0.0
  0
LINE
  5
31FA
330
1E
100
AcDbEntity
  8
7
100
AcDbLine
 10
2.271653543307086
 20
6.0
 30
0.0
 11
2.294291338582677
 21
6.0
 31
0.0
  0
LINE
  5
31FB
330
1E
100
AcDbEntity
  8
7
100
AcDbLine
 10
2.781496062992125
 20
5.295275590551181
 30
0.0
 11
2.808070866141732
 21
5.295275590551181
 31
0.0
  0
LINE
  5
31FC
330
1E
100
AcDbEntity
  8
7
100
AcDbLine
 10
2.808070866141732
 20
5.295275590551181
 30
0.0
 11
2.829724409448818
 21
5.295275590551181
 31
0.0
  0
LINE
  5
31FD
330
1E
100
AcDbEntity
  8
7
100
AcDbLine
 10
2.829724409448818
 20
5.295275590551181
 30
0.0
 11
2.844488188976377
 21
5.295275590551181
 31
0.0
  0
LINE
  5
31FE
330
1E
100
AcDbEntity
  8
7
100
AcDbLine
 10
2.844488188976377
 20
5.295275590551181
 30
0.0
 11
2.850393700787401
 21
5.295275590551181
 31
0.0
  0
LINE
  5
31FF
330
1E
100
AcDbEntity
  8
7
100
AcDbLine
 10
2.194881889763779
 20
5.295275590551181
 30
0.0
 11
2.200787401574803
 21
5.295275590551181
 31
0.0
  0
LINE
  5
3200
330
1E
100
AcDbEntity
  8
7
100
AcDbLine
 10
2.200787401574803
 20
5.295275590551181
 30
0.0
 11
2.215551181102362
 21
5.295275590551181
 31
0.0
  0
LINE
  5
3201
330
1E
100
AcDbEntity
  8
7
100
AcDbLine
 10
2.215551181102362
 20
5.295275590551181
 30
0.0
 11
2.237204724409448
 21
5.295275590551181
 31
0.0
  0
LINE
  5
3202
330
1E
100
AcDbEntity
  8
7
100
AcDbLine
 10
2.237204724409448
 20
5.295275590551181
 30
0.0
 11
2.263779527559055
 21
5.295275590551181
 31
0.0
  0
ENDSEC
  0
SECTION
  2
OBJECTS
  0
DICTIONARY
  5
C
330
0
100
AcDbDictionary
  3
ACAD_GROUP
350
D
  3
ACAD_LAYOUT
350
19
  3
ACAD_MLINESTYLE
350
16
  3
ACAD_PLOTSETTINGS
350
18
1001
ACAD
1000
TREAT_AS_HARD
1070
     0
  0
DICTIONARY
  5
432D
330
1E
100
AcDbDictionary
  3
ACAD_LAYOUTSELFREF
350
4366
1001
ACAD
1000
TREAT_AS_HARD
1070
     1
  0
DICTIONARY
  5
432F
330
1A
100
AcDbDictionary
  3
ACAD_LAYOUTSELFREF
350
4365
1001
ACAD
1000
TREAT_AS_HARD
1070
     1
  0
DICTIONARY
  5
D
102
{ACAD_REACTORS
330
C
102
}
330
C
100
AcDbDictionary
1001
ACAD
1000
TREAT_AS_HARD
1070
     0
  0
DICTIONARY
  5
19
102
{ACAD_REACTORS
330
C
102
}
330
C
100
AcDbDictionary
1001
ACAD
1000
TREAT_AS_HARD
1070
     0
  0
DICTIONARY
  5
16
102
{ACAD_REACTORS
330
C
102
}
330
C
100
AcDbDictionary
  3
STANDARD
350
17
1001
ACAD
1000
TREAT_AS_HARD
1070
     0
  0
DICTIONARY
  5
18
102
{ACAD_REACTORS
330
C
102
}
330
C
100
AcDbDictionary
1001
ACAD
1000
TREAT_AS_HARD
1070
     0
  0
XRECORD
  5
4366
102
{ACAD_REACTORS
330
432D
102
}
330
432D
100
AcDbXrecord
340
1E
  0
XRECORD
  5
4365
102
{ACAD_REACTORS
330
432F
102
}
330
432F
100
AcDbXrecord
340
1A
  0
MLINESTYLE
  5
17
102
{ACAD_REACTORS
330
16
102
}
330
16
100
AcDbMlineStyle
  2
STANDARD
 70
     0
  3

 62
   256
 51
90.0
 52
90.0
 71
     2
 49
0.5
 62
   256
  6
BYLAYER
 49
-0.5
 62
   256
  6
BYLAYER
  0
ENDSEC
  0
EOF
