  0
SECTION
  2
HEADER
  9
$ACADVER
  1
AC1015
  9
$ACADMAINTVER
 70
    20
  9
$DWGCODEPAGE
  3
ANSI_1252
  9
$INSBASE
 10
0.0
 20
0.0
 30
0.0
  9
$EXTMIN
 10
-0.5
 20
-0.5
 30
-0.5
  9
$EXTMAX
 10
5.0
 20
5.0
 30
5.0
  9
$LIMMIN
 10
-0.5
 20
-0.5
  9
$LIMMAX
 10
5.0
 20
5.0
  9
$ORTHOMODE
 70
     0
  9
$REGENMODE
 70
     1
  9
$FILLMODE
 70
     1
  9
$QTEXTMODE
 70
     0
  9
$MIRRTEXT
 70
     1
  9
$LTSCALE
 40
1.0
  9
$ATTMODE
 70
     1
  9
$TEXTSIZE
 40
0.0
  9
$TRACEWID
 40
0.05
  9
$TEXTSTYLE
  7
Standard
  9
$CLAYER
  8
0
  9
$CELTYPE
  6
Continuous
  9
$CECOLOR
 62
   256
  9
$CELTSCALE
 40
1.0
  9
$DISPSILH
 70
     0
  9
$DIMSCALE
 40
1.0
  9
$DIMASZ
 40
0.18
  9
$DIMEXO
 40
0.0625
  9
$DIMDLI
 40
0.38
  9
$DIMRND
 40
0.0
  9
$DIMDLE
 40
0.0
  9
$DIMEXE
 40
0.18
  9
$DIMTP
 40
0.0
  9
$DIMTM
 40
0.0
  9
$DIMTXT
 40
0.18
  9
$DIMCEN
 40
0.09
  9
$DIMTSZ
 40
0.0
  9
$DIMTOL
 70
     0
  9
$DIMLIM
 70
     0
  9
$DIMTIH
 70
     1
  9
$DIMTOH
 70
     1
  9
$DIMSE1
 70
     0
  9
$DIMSE2
 70
     0
  9
$DIMTAD
 70
     0
  9
$DIMZIN
 70
     0
  9
$DIMBLK
  1

  9
$DIMASO
 70
     1
  9
$DIMSHO
 70
     1
  9
$DIMPOST
  1

  9
$DIMAPOST
  1

  9
$DIMALT
 70
     0
  9
$DIMALTD
 70
     2
  9
$DIMALTF
 40
25.4
  9
$DIMLFAC
 40
1.0
  9
$DIMTOFL
 70
     0
  9
$DIMTVP
 40
0.0
  9
$DIMTIX
 70
     0
  9
$DIMSOXD
 70
     0
  9
$DIMSAH
 70
     0
  9
$DIMBLK1
  1

  9
$DIMBLK2
  1

  9
$DIMSTYLE
  2
Standard
  9
$DIMCLRD
 70
     0
  9
$DIMCLRE
 70
     0
  9
$DIMCLRT
 70
     0
  9
$DIMTFAC
 40
1.0
  9
$DIMGAP
 40
0.09
  9
$DIMJUST
 70
     0
  9
$DIMSD1
 70
     0
  9
$DIMSD2
 70
     0
  9
$DIMTOLJ
 70
     1
  9
$DIMTZIN
 70
     0
  9
$DIMALTZ
 70
     0
  9
$DIMALTTZ
 70
     0
  9
$DIMUPT
 70
     0
  9
$DIMDEC
 70
     4
  9
$DIMTDEC
 70
     4
  9
$DIMALTU
 70
     2
  9
$DIMALTTD
 70
     2
  9
$DIMTXSTY
  7
Standard
  9
$DIMAUNIT
 70
     0
  9
$DIMADEC
 70
     0
  9
$DIMALTRND
 40
0.0
  9
$DIMAZIN
 70
     0
  9
$DIMDSEP
 70
     0
  9
$DIMATFIT
 70
     3
  9
$DIMFRAC
 70
     0
  9
$DIMLDRBLK
  1

  9
$DIMLUNIT
 70
     2
  9
$DIMLWD
 70
     0
  9
$DIMLWE
 70
     0
  9
$DIMTMOVE
 70
     0
  9
$LUNITS
 70
     2
  9
$LUPREC
 70
     4
  9
$SKETCHINC
 40
0.1
  9
$FILLETRAD
 40
0.0
  9
$AUNITS
 70
     0
  9
$AUPREC
 70
     0
  9
$MENU
  1
acad
  9
$ELEVATION
 40
0.0
  9
$PELEVATION
 40
0.0
  9
$THICKNESS
 40
0.0
  9
$LIMCHECK
 70
     0
  9
$CHAMFERA
 40
0.0
  9
$CHAMFERB
 40
0.0
  9
$CHAMFERC
 40
0.0
  9
$CHAMFERD
 40
0.0
  9
$SKPOLY
 70
     0
  9
$TDCREATE
 40
2456006.441345336
  9
$TDUCREATE
 40
2456006.649678669
  9
$TDUPDATE
 40
2456006.442137963
  9
$TDUUPDATE
 40
2456006.650471296
  9
$TDINDWG
 40
0.0008208449
  9
$TDUSRTIMER
 40
0.0008197569
  9
$USRTIMER
 70
     1
  9
$ANGBASE
 50
0.0
  9
$ANGDIR
 70
     0
  9
$PDMODE
 70
     0
  9
$PDSIZE
 40
0.0
  9
$PLINEWID
 40
0.0
  9
$SPLFRAME
 70
     0
  9
$SPLINETYPE
 70
     6
  9
$SPLINESEGS
 70
     8
  9
$HANDSEED
  5
6BB
  9
$SURFTAB1
 70
     6
  9
$SURFTAB2
 70
     6
  9
$SURFTYPE
 70
     6
  9
$SURFU
 70
     6
  9
$SURFV
 70
     6
  9
$UCSBASE
  2

  9
$UCSNAME
  2

  9
$UCSORG
 10
0.0
 20
0.0
 30
0.0
  9
$UCSXDIR
 10
1.0
 20
0.0
 30
0.0
  9
$UCSYDIR
 10
0.0
 20
1.0
 30
0.0
  9
$UCSORTHOREF
  2

  9
$UCSORTHOVIEW
 70
     0
  9
$UCSORGTOP
 10
0.0
 20
0.0
 30
0.0
  9
$UCSORGBOTTOM
 10
0.0
 20
0.0
 30
0.0
  9
$UCSORGLEFT
 10
0.0
 20
0.0
 30
0.0
  9
$UCSORGRIGHT
 10
0.0
 20
0.0
 30
0.0
  9
$UCSORGFRONT
 10
0.0
 20
0.0
 30
0.0
  9
$UCSORGBACK
 10
0.0
 20
0.0
 30
0.0
  9
$PUCSBASE
  2

  9
$PUCSNAME
  2

  9
$PUCSORG
 10
0.0
 20
0.0
 30
0.0
  9
$PUCSXDIR
 10
1.0
 20
0.0
 30
0.0
  9
$PUCSYDIR
 10
0.0
 20
1.0
 30
0.0
  9
$PUCSORTHOREF
  2

  9
$PUCSORTHOVIEW
 70
     0
  9
$PUCSORGTOP
 10
0.0
 20
0.0
 30
0.0
  9
$PUCSORGBOTTOM
 10
0.0
 20
0.0
 30
0.0
  9
$PUCSORGLEFT
 10
0.0
 20
0.0
 30
0.0
  9
$PUCSORGRIGHT
 10
0.0
 20
0.0
 30
0.0
  9
$PUCSORGFRONT
 10
0.0
 20
0.0
 30
0.0
  9
$PUCSORGBACK
 10
0.0
 20
0.0
 30
0.0
  9
$USERI1
 70
     0
  9
$USERI2
 70
     0
  9
$USERI3
 70
     0
  9
$USERI4
 70
     0
  9
$USERI5
 70
     0
  9
$USERR1
 40
0.0
  9
$USERR2
 40
0.0
  9
$USERR3
 40
0.0
  9
$USERR4
 40
0.0
  9
$USERR5
 40
0.0
  9
$WORLDVIEW
 70
     1
  9
$SHADEDGE
 70
     3
  9
$SHADEDIF
 70
    70
  9
$TILEMODE
 70
     0
  9
$MAXACTVP
 70
    64
  9
$PINSBASE
 10
0.0
 20
0.0
 30
0.0
  9
$PLIMCHECK
 70
     0
  9
$PEXTMIN
 10
1.523765593096339
 20
3.912796046599741
 30
-0.0004043445228632
  9
$PEXTMAX
 10
5.694831868744024
 20
7.845901509451099
 30
0.0000152657740013
  9
$PLIMMIN
 10
1.421072958061195
 20
3.816585062814532
  9
$PLIMMAX
 10
6.768378484894217
 20
7.948593852455431
  9
$UNITMODE
 70
     0
  9
$VISRETAIN
 70
     0
  9
$PLINEGEN
 70
     1
  9
$PSLTSCALE
 70
     0
  9
$TREEDEPTH
 70
  3020
  9
$CMLSTYLE
  2
Standard
  9
$CMLJUST
 70
     0
  9
$CMLSCALE
 40
1.0
  9
$PROXYGRAPHICS
 70
     0
  9
$MEASUREMENT
 70
     0
  9
$CELWEIGHT
370
     0
  9
$ENDCAPS
280
     0
  9
$JOINSTYLE
280
     0
  9
$LWDISPLAY
290
     0
  9
$INSUNITS
 70
     0
  9
$HYPERLINKBASE
  1

  9
$STYLESHEET
  1

  9
$XEDIT
290
     1
  9
$CEPSNTYPE
380
     0
  9
$PSTYLEMODE
290
     1
  9
$FINGERPRINTGUID
  2

  9
$VERSIONGUID
  2
{1739A966-06B8-4197-9103-EC954D6C4D38}
  9
$EXTNAMES
290
     1
  9
$PSVPSCALE
 40
0.0
  9
$OLESTARTUP
290
     0
  0
ENDSEC
  0
SECTION
  2
CLASSES
  0
CLASS
  1
IMAGE
  2
AcDbRasterImage
  3
ISM
 90
    34943
280
     0
281
     1
  0
CLASS
  1
DICTIONARYVAR
  2
AcDbDictionaryVar
  3
ObjectDBX Classes
 90
        0
280
     0
281
     0
  0
CLASS
  1
RASTERVARIABLES
  2
AcDbRasterVariables
  3
ISM
 90
    32768
280
     0
281
     0
  0
CLASS
  1
IMAGEDEF
  2
AcDbRasterImageDef
  3
ISM
 90
    32768
280
     0
281
     0
  0
CLASS
  1
IMAGEDEF_REACTOR
  2
AcDbRasterImageDefReactor
  3
ISM
 90
    32769
280
     0
281
     0
  0
CLASS
  1
IDBUFFER
  2
AcDbIdBuffer
  3
ObjectDBX Classes
 90
    32768
280
     0
281
     0
  0
CLASS
  1
SPATIAL_FILTER
  2
AcDbSpatialFilter
  3
ObjectDBX Classes
 90
    32768
280
     0
281
     0
  0
CLASS
  1
SORTENTSTABLE
  2
AcDbSortentsTable
  3
ObjectDBX Classes
 90
    32768
280
     0
281
     0
  0
CLASS
  1
LAYER_INDEX
  2
AcDbLayerIndex
  3
ObjectDBX Classes
 90
    32768
280
     0
281
     0
  0
CLASS
  1
SPATIAL_INDEX
  2
AcDbSpatialIndex
  3
ObjectDBX Classes
 90
    32768
280
     0
281
     0
  0
CLASS
  1
OBJECT_PTR
  2
CAseDLPNTableRecord
  3
ASE-LPNTableRecord
 90
    32769
280
     0
281
     0
  0
CLASS
  1
LAYOUT
  2
AcDbLayout
  3
ObjectDBX Classes
 90
        0
280
     0
281
     0
  0
CLASS
  1
PLOTSETTINGS
  2
AcDbPlotSettings
  3
ObjectDBX Classes
 90
    32768
280
     0
281
     0
  0
CLASS
  1
ACDBDICTIONARYWDFLT
  2
AcDbDictionaryWithDefault
  3
ObjectDBX Classes
 90
        0
280
     0
281
     0
  0
CLASS
  1
ACDBPLACEHOLDER
  2
AcDbPlaceHolder
  3
ObjectDBX Classes
 90
        0
280
     0
281
     0
  0
CLASS
  1
VBA_PROJECT
  2
AcDbVbaProject
  3
acad
 90
    32768
280
     0
281
     0
  0
CLASS
  1
WIPEOUT
  2
AcDbWipeout
  3
"WipeOut|Product Desc: Object Enabler for WipeOut entity                        |Company: Autodesk, Inc.                        |WEB Address: www.autodesk.com"
 90
    34943
280
     0
281
     1
  0
CLASS
  1
WIPEOUTVARIABLES
  2
AcDbWipeoutVariables
  3
"WipeOut|Product Desc:     WipeOut Dbx Application|Company:          Autodesk, Inc.|WEB Address:      www.autodesk.com"
 90
        0
280
     0
281
     0
  0
CLASS
  1
RTEXT
  2
RText
  3
RText|AutoCAD Express Tool|expresstools@autodesk.com
 90
    35839
280
     0
281
     1
  0
CLASS
  1
ARCALIGNEDTEXT
  2
AcDbArcAlignedText
  3
ATEXT|AutoCAD Express Tool|expresstools@autodesk.com
 90
    32768
280
     0
281
     1
  0
CLASS
  1
MATERIAL
  2
AcDbMaterial
  3
ObjectDBX Classes
 90
     1024
280
     0
281
     0
  0
CLASS
  1
VISUALSTYLE
  2
AcDbVisualStyle
  3
ObjectDBX Classes
 90
     4095
280
     0
281
     0
  0
CLASS
  1
TABLESTYLE
  2
AcDbTableStyle
  3
ObjectDBX Classes
 90
     4095
280
     0
281
     0
  0
ENDSEC
  0
SECTION
  2
TABLES
  0
TABLE
  2
VPORT
  5
7
330
0
100
AcDbSymbolTable
 70
    16
  0
VPORT
  5
672
330
7
100
AcDbSymbolTableRecord
100
AcDbViewportTableRecord
  2
*ACTIVE
 70
     0
 10
0.0
 20
0.0
 11
1.0
 21
1.0
 12
0.0
 22
0.0
 13
0.0
 23
0.0
 14
1.0
 24
1.0
 15
0.0
 25
0.0
 16
0.718873
 26
-0.5850489999999999
 36
0.375419
 17
0.0
 27
0.0
 37
0.0
 40
60.374061
 41
0.6885640000000001
 42
50.0
 43
29.807119
 44
-29.807119
 50
0.0
 51
0.0
 71
    16
 72
   100
 73
     1
 74
     1
 75
     0
 76
     0
 77
     0
 78
     0
281
     0
 65
     0
110
0.0
120
0.0
130
0.0
111
1.0
121
0.0
131
0.0
112
0.0
122
1.0
132
0.0
 79
     0
146
0.0
  0
VPORT
  5
673
330
7
100
AcDbSymbolTableRecord
100
AcDbViewportTableRecord
  2
L1
 70
     0
 10
0.0
 20
0.0
 11
1.0
 21
1.0
 12
0.0
 22
0.0
 13
0.0
 23
0.0
 14
1.0
 24
1.0
 15
0.0
 25
0.0
 16
0.718873
 26
-0.5850489999999999
 36
0.375419
 17
0.0
 27
0.0
 37
0.0
 40
60.374061
 41
0.6885640000000001
 42
50.0
 43
29.807119
 44
-29.807119
 50
0.0
 51
0.0
 71
    16
 72
   100
 73
     1
 74
     1
 75
     0
 76
     0
 77
     0
 78
     0
281
     0
 65
     0
110
0.0
120
0.0
130
0.0
111
1.0
121
0.0
131
0.0
112
0.0
122
1.0
132
0.0
 79
     0
146
0.0
  0
VPORT
  5
674
330
7
100
AcDbSymbolTableRecord
100
AcDbViewportTableRecord
  2
L2
 70
     0
 10
0.0
 20
0.0
 11
0.5
 21
1.0
 12
0.0
 22
0.0
 13
0.0
 23
0.0
 14
1.0
 24
1.0
 15
0.0
 25
0.0
 16
0.0
 26
-1.0
 36
0.0
 17
0.0
 27
0.0
 37
0.0
 40
58.160233
 41
0.6885640000000001
 42
50.0
 43
30.101832
 44
-30.101832
 50
0.0
 51
0.0
 71
    16
 72
   100
 73
     1
 74
     1
 75
     0
 76
     0
 77
     0
 78
     0
281
     0
 65
     0
110
0.0
120
0.0
130
0.0
111
1.0
121
0.0
131
0.0
112
0.0
122
1.0
132
0.0
 79
     0
146
0.0
  0
VPORT
  5
675
330
7
100
AcDbSymbolTableRecord
100
AcDbViewportTableRecord
  2
L2
 70
     0
 10
0.5
 20
0.0
 11
1.0
 21
1.0
 12
0.0
 22
0.0
 13
0.0
 23
0.0
 14
1.0
 24
1.0
 15
0.0
 25
0.0
 16
1.0
 26
0.0
 36
0.0
 17
0.0
 27
0.0
 37
0.0
 40
58.160233
 41
0.6885640000000001
 42
50.0
 43
29.366654
 44
-29.366654
 50
0.0
 51
0.0
 71
    16
 72
   100
 73
     1
 74
     1
 75
     0
 76
     0
 77
     0
 78
     0
281
     0
 65
     0
110
0.0
120
0.0
130
0.0
111
1.0
121
0.0
131
0.0
112
0.0
122
1.0
132
0.0
 79
     0
146
0.0
  0
VPORT
  5
676
330
7
100
AcDbSymbolTableRecord
100
AcDbViewportTableRecord
  2
L3
 70
     0
 10
0.0
 20
0.5
 11
1.0
 21
1.0
 12
0.0
 22
0.0
 13
0.0
 23
0.0
 14
1.0
 24
1.0
 15
0.0
 25
0.0
 16
0.0
 26
0.0
 36
1.0
 17
0.0
 27
0.0
 37
0.0
 40
8.184663999999999
 41
0.6885640000000001
 42
50.0
 43
29.080116
 44
-29.080116
 50
0.0
 51
0.0
 71
    16
 72
   100
 73
     1
 74
     1
 75
     0
 76
     0
 77
     0
 78
     0
281
     0
 65
     0
110
0.0
120
0.0
130
0.0
111
1.0
121
0.0
131
0.0
112
0.0
122
1.0
132
0.0
 79
     0
146
0.0
  0
VPORT
  5
677
330
7
100
AcDbSymbolTableRecord
100
AcDbViewportTableRecord
  2
L3
 70
     0
 10
0.0
 20
0.0
 11
1.0
 21
0.5
 12
0.0
 22
0.0
 13
0.0
 23
0.0
 14
1.0
 24
1.0
 15
0.0
 25
0.0
 16
0.0
 26
-1.0
 36
0.0
 17
0.0
 27
0.0
 37
0.0
 40
58.160233
 41
0.6885640000000001
 42
50.0
 43
30.101832
 44
-30.101832
 50
0.0
 51
0.0
 71
    16
 72
   100
 73
     1
 74
     1
 75
     0
 76
     0
 77
     0
 78
     0
281
     0
 65
     0
110
0.0
120
0.0
130
0.0
111
1.0
121
0.0
131
0.0
112
0.0
122
1.0
132
0.0
 79
     0
146
0.0
  0
VPORT
  5
678
330
7
100
AcDbSymbolTableRecord
100
AcDbViewportTableRecord
  2
L4
 70
     0
 10
0.0
 20
0.5
 11
0.5
 21
1.0
 12
0.0
 22
0.0
 13
0.0
 23
0.0
 14
1.0
 24
1.0
 15
0.0
 25
0.0
 16
0.0
 26
0.0
 36
1.0
 17
0.0
 27
0.0
 37
0.0
 40
8.184663999999999
 41
0.6885640000000001
 42
50.0
 43
29.080116
 44
-29.080116
 50
0.0
 51
0.0
 71
    16
 72
   100
 73
     1
 74
     1
 75
     0
 76
     0
 77
     0
 78
     0
281
     0
 65
     0
110
0.0
120
0.0
130
0.0
111
1.0
121
0.0
131
0.0
112
0.0
122
1.0
132
0.0
 79
     0
146
0.0
  0
VPORT
  5
679
330
7
100
AcDbSymbolTableRecord
100
AcDbViewportTableRecord
  2
L4
 70
     0
 10
0.0
 20
0.0
 11
0.5
 21
0.5
 12
0.0
 22
0.0
 13
0.0
 23
0.0
 14
1.0
 24
1.0
 15
0.0
 25
0.0
 16
0.0
 26
-1.0
 36
0.0
 17
0.0
 27
0.0
 37
0.0
 40
58.160233
 41
0.6885640000000001
 42
50.0
 43
30.101832
 44
-30.101832
 50
0.0
 51
0.0
 71
    16
 72
   100
 73
     1
 74
     1
 75
     0
 76
     0
 77
     0
 78
     0
281
     0
 65
     0
110
0.0
120
0.0
130
0.0
111
1.0
121
0.0
131
0.0
112
0.0
122
1.0
132
0.0
 79
     0
146
0.0
  0
VPORT
  5
67A
330
7
100
AcDbSymbolTableRecord
100
AcDbViewportTableRecord
  2
L4
 70
     0
 10
0.5
 20
0.0
 11
1.0
 21
0.5
 12
0.0
 22
0.0
 13
0.0
 23
0.0
 14
1.0
 24
1.0
 15
0.0
 25
0.0
 16
1.0
 26
0.0
 36
0.0
 17
0.0
 27
0.0
 37
0.0
 40
58.160233
 41
0.6885640000000001
 42
50.0
 43
29.366654
 44
-29.366654
 50
0.0
 51
0.0
 71
    16
 72
   100
 73
     1
 74
     1
 75
     0
 76
     0
 77
     0
 78
     0
281
     0
 65
     0
110
0.0
120
0.0
130
0.0
111
1.0
121
0.0
131
0.0
112
0.0
122
1.0
132
0.0
 79
     0
146
0.0
  0
VPORT
  5
67B
330
7
100
AcDbSymbolTableRecord
100
AcDbViewportTableRecord
  2
L4
 70
     0
 10
0.5
 20
0.5
 11
1.0
 21
1.0
 12
0.0
 22
0.0
 13
0.0
 23
0.0
 14
1.0
 24
1.0
 15
0.0
 25
0.0
 16
0.5773500000000001
 26
-0.5773500000000001
 36
0.5773500000000001
 17
0.0
 27
0.0
 37
0.0
 40
57.178132
 41
0.6885640000000001
 42
50.0
 43
29.79537
 44
-29.79537
 50
0.0
 51
0.0
 71
    16
 72
   100
 73
     1
 74
     1
 75
     0
 76
     0
 77
     0
 78
     0
281
     0
 65
     0
110
0.0
120
0.0
130
0.0
111
1.0
121
0.0
131
0.0
112
0.0
122
1.0
132
0.0
 79
     0
146
0.0
  0
VPORT
  5
67C
330
7
100
AcDbSymbolTableRecord
100
AcDbViewportTableRecord
  2
L6
 70
     0
 10
0.0
 20
0.5
 11
0.333333
 21
1.0
 12
0.0
 22
0.0
 13
0.0
 23
0.0
 14
1.0
 24
1.0
 15
0.0
 25
0.0
 16
0.718873
 26
-0.5850489999999999
 36
0.375419
 17
0.0
 27
0.0
 37
0.0
 40
60.374061
 41
0.6885640000000001
 42
50.0
 43
29.807119
 44
-29.807119
 50
0.0
 51
0.0
 71
    16
 72
   100
 73
     1
 74
     1
 75
     0
 76
     0
 77
     0
 78
     0
281
     0
 65
     0
110
0.0
120
0.0
130
0.0
111
1.0
121
0.0
131
0.0
112
0.0
122
1.0
132
0.0
 79
     0
146
0.0
  0
VPORT
  5
67D
330
7
100
AcDbSymbolTableRecord
100
AcDbViewportTableRecord
  2
L6
 70
     0
 10
0.0
 20
0.0
 11
0.333333
 21
0.5
 12
0.0
 22
0.0
 13
0.0
 23
0.0
 14
1.0
 24
1.0
 15
0.0
 25
0.0
 16
-1.0
 26
0.0
 36
0.0
 17
0.0
 27
0.0
 37
0.0
 40
58.160233
 41
0.6885640000000001
 42
50.0
 43
29.366654
 44
-29.366654
 50
0.0
 51
0.0
 71
    16
 72
   100
 73
     1
 74
     1
 75
     0
 76
     0
 77
     0
 78
     0
281
     0
 65
     0
110
0.0
120
0.0
130
0.0
111
1.0
121
0.0
131
0.0
112
0.0
122
1.0
132
0.0
 79
     0
146
0.0
  0
VPORT
  5
67E
330
7
100
AcDbSymbolTableRecord
100
AcDbViewportTableRecord
  2
L6
 70
     0
 10
0.333333
 20
0.5
 11
0.666667
 21
1.0
 12
0.0
 22
0.0
 13
0.0
 23
0.0
 14
1.0
 24
1.0
 15
0.0
 25
0.0
 16
0.0
 26
0.0
 36
1.0
 17
0.0
 27
0.0
 37
0.0
 40
8.184663999999999
 41
0.6885640000000001
 42
50.0
 43
29.080116
 44
-29.080116
 50
0.0
 51
0.0
 71
    16
 72
   100
 73
     1
 74
     1
 75
     0
 76
     0
 77
     0
 78
     0
281
     0
 65
     0
110
0.0
120
0.0
130
0.0
111
1.0
121
0.0
131
0.0
112
0.0
122
1.0
132
0.0
 79
     0
146
0.0
  0
VPORT
  5
67F
330
7
100
AcDbSymbolTableRecord
100
AcDbViewportTableRecord
  2
L6
 70
     0
 10
0.333333
 20
0.0
 11
0.666667
 21
0.5
 12
0.0
 22
0.0
 13
0.0
 23
0.0
 14
1.0
 24
1.0
 15
0.0
 25
0.0
 16
0.0
 26
-1.0
 36
0.0
 17
0.0
 27
0.0
 37
0.0
 40
58.160233
 41
0.6885640000000001
 42
50.0
 43
30.101832
 44
-30.101832
 50
0.0
 51
0.0
 71
    16
 72
   100
 73
     1
 74
     1
 75
     0
 76
     0
 77
     0
 78
     0
281
     0
 65
     0
110
0.0
120
0.0
130
0.0
111
1.0
121
0.0
131
0.0
112
0.0
122
1.0
132
0.0
 79
     0
146
0.0
  0
VPORT
  5
680
330
7
100
AcDbSymbolTableRecord
100
AcDbViewportTableRecord
  2
L6
 70
     0
 10
0.666667
 20
0.5
 11
1.0
 21
1.0
 12
0.0
 22
0.0
 13
0.0
 23
0.0
 14
1.0
 24
1.0
 15
0.0
 25
0.0
 16
0.5773500000000001
 26
-0.5773500000000001
 36
0.5773500000000001
 17
0.0
 27
0.0
 37
0.0
 40
57.178132
 41
0.6885640000000001
 42
50.0
 43
29.79537
 44
-29.79537
 50
0.0
 51
0.0
 71
    16
 72
   100
 73
     1
 74
     1
 75
     0
 76
     0
 77
     0
 78
     0
281
     0
 65
     0
110
0.0
120
0.0
130
0.0
111
1.0
121
0.0
131
0.0
112
0.0
122
1.0
132
0.0
 79
     0
146
0.0
  0
VPORT
  5
681
330
7
100
AcDbSymbolTableRecord
100
AcDbViewportTableRecord
  2
L6
 70
     0
 10
0.666667
 20
0.0
 11
1.0
 21
0.5
 12
0.0
 22
0.0
 13
0.0
 23
0.0
 14
1.0
 24
1.0
 15
0.0
 25
0.0
 16
1.0
 26
0.0
 36
0.0
 17
0.0
 27
0.0
 37
0.0
 40
58.160233
 41
0.6885640000000001
 42
50.0
 43
29.366654
 44
-29.366654
 50
0.0
 51
0.0
 71
    16
 72
   100
 73
     1
 74
     1
 75
     0
 76
     0
 77
     0
 78
     0
281
     0
 65
     0
110
0.0
120
0.0
130
0.0
111
1.0
121
0.0
131
0.0
112
0.0
122
1.0
132
0.0
 79
     0
146
0.0
  0
ENDTAB
  0
TABLE
  2
LTYPE
  5
4
330
0
100
AcDbSymbolTable
 70
     7
  0
LTYPE
  5
11
330
4
100
AcDbSymbolTableRecord
100
AcDbLinetypeTableRecord
  2
ByBlock
 70
     0
  3

 72
    65
 73
     0
 40
0.0
  0
LTYPE
  5
12
330
4
100
AcDbSymbolTableRecord
100
AcDbLinetypeTableRecord
  2
ByLayer
 70
     0
  3

 72
    65
 73
     0
 40
0.0
  0
LTYPE
  5
13
330
4
100
AcDbSymbolTableRecord
100
AcDbLinetypeTableRecord
  2
Continuous
 70
     0
  3
Solid line
 72
    65
 73
     0
 40
0.0
  0
LTYPE
  5
24
330
4
100
AcDbSymbolTableRecord
100
AcDbLinetypeTableRecord
  2
DASHED
 70
     0
  3
__ __ __ __ __ __ __ __ __
 72
    65
 73
     2
 40
25.72
 49
12.86
 74
     0
 49
-12.86
 74
     0
  0
LTYPE
  5
25
330
4
100
AcDbSymbolTableRecord
100
AcDbLinetypeTableRecord
  2
HIDDEN
 70
     0
  3
_ _ _ _ _ _ _ _ _ _ _ _ _ _ _
 72
    65
 73
     2
 40
0.5
 49
0.25
 74
     0
 49
-0.25
 74
     0
  0
LTYPE
  5
26
330
4
100
AcDbSymbolTableRecord
100
AcDbLinetypeTableRecord
  2
PHANTOM
 70
     0
  3
____ _ _ ____ _ _ _____ _ _ ____
 72
    65
 73
     6
 40
50.5
 49
18.0
 74
     0
 49
-6.5
 74
     0
 49
6.5
 74
     0
 49
-6.5
 74
     0
 49
6.5
 74
     0
 49
-6.5
 74
     0
  0
LTYPE
  5
27
330
4
100
AcDbSymbolTableRecord
100
AcDbLinetypeTableRecord
  2
CENTER
 70
     0
  3
____ _ ____ _ ____ _ ____
 72
    65
 73
     4
 40
47.5
 49
22.0
 74
     0
 49
-8.5
 74
     0
 49
8.5
 74
     0
 49
-8.5
 74
     0
  0
LTYPE
  5
28
330
4
100
AcDbSymbolTableRecord
100
AcDbLinetypeTableRecord
  2
DOT
 70
     0
  3
.........................
 72
    65
 73
     2
 40
10.0
 49
0.0
 74
     0
 49
-10.0
 74
     0
  0
LTYPE
  5
29
330
4
100
AcDbSymbolTableRecord
100
AcDbLinetypeTableRecord
  2
DASHDOT
 70
     0
  3
_._._._._._._._._._._._._._._._.
 72
    65
 73
     4
 40
70.0
 49
31.0
 74
     0
 49
-13.0
 74
     0
 49
13.0
 74
     0
 49
-13.0
 74
     0
  0
ENDTAB
  0
TABLE
  2
LAYER
  5
2
330
0
100
AcDbSymbolTable
 70
     2
  0
LAYER
  5
14
330
2
100
AcDbSymbolTableRecord
100
AcDbLayerTableRecord
  2
0
 70
     0
 62
     7
  6
Continuous
370
    -3
390
1D
  0
LAYER
  5
34
330
2
100
AcDbSymbolTableRecord
100
AcDbLayerTableRecord
  2
1
 70
     0
 62
     7
  6
Continuous
370
    -3
390
1D
  0
ENDTAB
  0
TABLE
  2
STYLE
  5
3
330
0
100
AcDbSymbolTable
 70
     1
  0
STYLE
  5
17
330
3
100
AcDbSymbolTableRecord
100
AcDbTextStyleTableRecord
  2
Standard
 70
     0
 40
0.0
 41
1.0
 50
0.0
 71
     0
 42
0.0
  3
txt
  4

  0
ENDTAB
  0
TABLE
  2
VIEW
  5
5
330
0
100
AcDbSymbolTable
 70
     8
  0
VIEW
  5
2A
330
5
100
AcDbSymbolTableRecord
100
AcDbViewTableRecord
  2
TOP
 70
     0
 40
8.184663999999999
 10
0.0
 20
0.0
 41
15.552118
 11
0.0
 21
0.0
 31
1.0
 12
0.0
 22
0.0
 32
0.0
 42
50.0
 43
29.080116
 44
-29.080116
 50
0.0
 71
    16
281
     0
 72
     0
  0
VIEW
  5
2B
330
5
100
AcDbSymbolTableRecord
100
AcDbViewTableRecord
  2
FRONT
 70
     0
 40
58.160233
 10
0.0
 20
0.0
 41
15.552118
 11
0.0
 21
-1.0
 31
0.0
 12
0.0
 22
0.0
 32
0.0
 42
50.0
 43
30.101832
 44
-30.101832
 50
0.0
 71
    16
281
     0
 72
     0
  0
VIEW
  5
2C
330
5
100
AcDbSymbolTableRecord
100
AcDbViewTableRecord
  2
RIGHT
 70
     0
 40
58.160233
 10
0.0
 20
0.0
 41
8.184663999999999
 11
1.0
 21
0.0
 31
0.0
 12
0.0
 22
0.0
 32
0.0
 42
50.0
 43
29.366654
 44
-29.366654
 50
0.0
 71
    16
281
     0
 72
     0
  0
VIEW
  5
2D
330
5
100
AcDbSymbolTableRecord
100
AcDbViewTableRecord
  2
BACK
 70
     0
 40
58.160233
 10
0.0
 20
0.0
 41
15.552118
 11
0.0
 21
1.0
 31
0.0
 12
0.0
 22
0.0
 32
0.0
 42
50.0
 43
30.101832
 44
-30.101832
 50
0.0
 71
    16
281
     0
 72
     0
  0
VIEW
  5
2E
330
5
100
AcDbSymbolTableRecord
100
AcDbViewTableRecord
  2
BOTTOM
 70
     0
 40
8.184663999999999
 10
0.0
 20
0.0
 41
15.552118
 11
0.0
 21
0.0
 31
-1.0
 12
0.0
 22
0.0
 32
0.0
 42
50.0
 43
29.080116
 44
-29.080116
 50
180.0
 71
    16
281
     0
 72
     0
  0
VIEW
  5
2F
330
5
100
AcDbSymbolTableRecord
100
AcDbViewTableRecord
  2
LEFT
 70
     0
 40
58.160233
 10
0.0
 20
0.0
 41
8.184663999999999
 11
-1.0
 21
0.0
 31
0.0
 12
0.0
 22
0.0
 32
0.0
 42
50.0
 43
29.366654
 44
-29.366654
 50
0.0
 71
    16
281
     0
 72
     0
  0
VIEW
  5
30
330
5
100
AcDbSymbolTableRecord
100
AcDbViewTableRecord
  2
TFR-ISO
 70
     0
 40
57.178132
 10
0.0
 20
0.0
 41
16.78444
 11
0.5773500000000001
 21
-0.5773500000000001
 31
0.5773500000000001
 12
0.0
 22
0.0
 32
0.0
 42
50.0
 43
29.79537
 44
-29.79537
 50
0.0
 71
    16
281
     0
 72
     0
  0
VIEW
  5
31
330
5
100
AcDbSymbolTableRecord
100
AcDbViewTableRecord
  2
TFR-TRI
 70
     0
 40
60.374061
 10
0.0
 20
0.0
 41
16.164857
 11
0.718873
 21
-0.5850489999999999
 31
0.375419
 12
0.0
 22
0.0
 32
0.0
 42
50.0
 43
29.807119
 44
-29.807119
 50
0.0
 71
    16
281
     0
 72
     0
  0
ENDTAB
  0
TABLE
  2
UCS
  5
6
330
0
100
AcDbSymbolTable
 70
     0
  0
ENDTAB
  0
TABLE
  2
APPID
  5
8
330
0
100
AcDbSymbolTable
 70
     3
  0
APPID
  5
16
330
8
100
AcDbSymbolTableRecord
100
AcDbRegAppTableRecord
  2
ACAD
 70
     0
  0
APPID
  5
6A0
330
8
100
AcDbSymbolTableRecord
100
AcDbRegAppTableRecord
  2
ACAD_PSEXT
 70
     0
  0
APPID
  5
6A3
330
8
100
AcDbSymbolTableRecord
100
AcDbRegAppTableRecord
  2
DCO15
 70
     0
  0
ENDTAB
  0
TABLE
  2
DIMSTYLE
  5
9
330
0
100
AcDbSymbolTable
 70
     1
100
AcDbDimStyleTable
 71
     0
  0
DIMSTYLE
105
18
330
9
100
AcDbSymbolTableRecord
100
AcDbDimStyleTableRecord
  2
Standard
 70
     0
340
17
  0
ENDTAB
  0
TABLE
  2
BLOCK_RECORD
  5
1
330
0
100
AcDbSymbolTable
 70
     0
  0
BLOCK_RECORD
  5
A
330
1
100
AcDbSymbolTableRecord
100
AcDbBlockTableRecord
  2
*MODEL_SPACE
340
20
  0
BLOCK_RECORD
  5
B
330
1
100
AcDbSymbolTableRecord
100
AcDbBlockTableRecord
  2
*PAPER_SPACE
340
21
  0
ENDTAB
  0
ENDSEC
  0
SECTION
  2
BLOCKS
  0
BLOCK
  5
D
330
A
100
AcDbEntity
  8
0
100
AcDbBlockBegin
  2
*MODEL_SPACE
 70
     0
 10
0.0
 20
0.0
 30
0.0
  3
*MODEL_SPACE
  1

  0
ENDBLK
  5
E
330
A
100
AcDbEntity
  8
0
100
AcDbBlockEnd
  0
BLOCK
  5
F
330
B
100
AcDbEntity
 67
     1
  8
0
100
AcDbBlockBegin
  2
*PAPER_SPACE
 70
     0
 10
0.0
 20
0.0
 30
0.0
  3
*PAPER_SPACE
  1

  0
ENDBLK
  5
10
330
B
100
AcDbEntity
 67
     1
  8
0
100
AcDbBlockEnd
  0
ENDSEC
  0
SECTION
  2
ENTITIES
  0
VIEWPORT
  5
32
102
{ACAD_XDICTIONARY
360
6AF
102
}
330
B
100
AcDbEntity
 67
     1
  8
0
100
AcDbViewport
 10
8.526463262764632
 20
4.25
 30
0.0
 40
17.05292652552926
 41
8.5
 68
     1
 69
     1
 12
8.526463262764632
 22
4.25
 13
0.0
 23
0.0
 14
0.0
 24
0.0
 15
0.0
 25
0.0
 16
0.0
 26
0.0
 36
1.0
 17
0.0
 27
0.0
 37
0.0
 42
46.970814
 43
0.0
 44
0.0
 45
8.5
 50
0.0
 51
0.0
 72
   100
 90
    32800
  1

281
     0
 71
     0
 74
     1
110
0.0
120
0.0
130
0.0
111
1.0
121
0.0
131
0.0
112
0.0
122
1.0
132
0.0
 79
     0
146
0.0
  0
LINE
  5
33
330
B
100
AcDbEntity
 67
     1
  8
1
  6
Continuous
 62
    18
100
AcDbLine
 10
2.505597999999999
 20
7.830335
 30
0.0
 11
2.501208999999999
 21
7.840936
 31
0.0
  0
LINE
  5
35
330
B
100
AcDbEntity
 67
     1
  8
1
  6
Continuous
 62
    18
100
AcDbLine
 10
2.450479
 20
6.914369
 30
0.0
 11
2.429918
 21
6.929167999999998
 31
0.0
  0
LINE
  5
36
330
B
100
AcDbEntity
 67
     1
  8
1
  6
Continuous
 62
    18
100
AcDbLine
 10
1.701981
 20
6.297483
 30
0.0
 11
1.701949
 21
6.292112
 31
0.0
  0
LINE
  5
37
330
B
100
AcDbEntity
 67
     1
  8
1
  6
Continuous
 62
    18
100
AcDbLine
 10
2.261897999999999
 20
4.420046
 30
0.0
 11
1.701999999999999
 21
4.420046
 31
0.0
  0
LINE
  5
38
330
B
100
AcDbEntity
 67
     1
  8
1
  6
Continuous
 62
    18
100
AcDbLine
 10
1.584600999999999
 20
4.719203
 30
0.0
 11
1.580716999999999
 21
4.715644999999999
 31
0.0
  0
LINE
  5
39
330
B
100
AcDbEntity
 67
     1
  8
1
  6
Continuous
 62
    18
100
AcDbLine
 10
1.567237999999999
 20
6.319858999999999
 30
0.0
 11
1.566783999999999
 21
6.34105
 31
0.0
  0
LINE
  5
3A
330
B
100
AcDbEntity
 67
     1
  8
1
  6
Continuous
 62
    18
100
AcDbLine
 10
1.699897999999999
 20
6.303169
 30
0.0
 11
1.699897999999999
 21
6.296983999999999
 31
0.0
  0
LINE
  5
3B
330
B
100
AcDbEntity
 67
     1
  8
1
  6
Continuous
 62
    18
100
AcDbLine
 10
2.211898
 20
6.342916
 30
0.0
 11
2.261897999999999
 21
6.342916
 31
0.0
  0
LINE
  5
3C
330
B
100
AcDbEntity
 67
     1
  8
1
  6
Continuous
 62
    18
100
AcDbLine
 10
1.671965
 20
6.302108999999999
 30
0.0
 11
1.679897999999999
 21
6.302108999999999
 31
0.0
  0
LINE
  5
3D
330
B
100
AcDbEntity
 67
     1
  8
1
  6
Continuous
 62
    18
100
AcDbLine
 10
1.674200999999999
 20
6.258376
 30
0.0
 11
1.674616999999999
 21
6.273934999999999
 31
0.0
  0
LINE
  5
3E
330
B
100
AcDbEntity
 67
     1
  8
1
  6
Continuous
 62
    18
100
AcDbLine
 10
1.674452
 20
4.411958
 30
0.0
 11
1.674660999999999
 21
4.411958
 31
0.0
  0
LINE
  5
3F
330
B
100
AcDbEntity
 67
     1
  8
1
  6
Continuous
 62
    18
100
AcDbLine
 10
2.070216999999999
 20
3.993401
 30
0.0
 11
1.959979999999999
 21
3.993401
 31
0.0
  0
LINE
  5
40
330
B
100
AcDbEntity
 67
     1
  8
1
  6
Continuous
 62
    18
100
AcDbLine
 10
1.557654
 20
4.840741
 30
0.0
 11
1.553339999999999
 21
4.837800999999999
 31
0.0
  0
LINE
  5
41
330
B
100
AcDbEntity
 67
     1
  8
1
  6
Continuous
 62
    18
100
AcDbLine
 10
2.356306
 20
4.540251999999999
 30
0.0
 11
2.359408999999999
 21
4.547029
 31
0.0
  0
LINE
  5
42
330
B
100
AcDbEntity
 67
     1
  8
1
  6
Continuous
 62
    18
100
AcDbLine
 10
1.543054
 20
6.644250999999999
 30
0.0
 11
1.546273999999999
 21
6.640840999999999
 31
0.0
  0
LINE
  5
43
330
B
100
AcDbEntity
 67
     1
  8
1
  6
Continuous
 62
    18
100
AcDbLine
 10
1.562569
 20
4.898875
 30
0.0
 11
1.559702
 21
4.84184
 31
0.0
  0
LINE
  5
44
330
B
100
AcDbEntity
 67
     1
  8
1
  6
Continuous
 62
    18
100
AcDbLine
 10
1.582378
 20
4.851013
 30
0.0
 11
1.577116
 21
4.849569999999999
 31
0.0
  0
LINE
  5
45
330
B
100
AcDbEntity
 67
     1
  8
1
  6
Continuous
 62
    18
100
AcDbLine
 10
4.007013999999999
 20
4.385188999999999
 30
0.0
 11
5.25724
 21
4.385188999999999
 31
0.0
  0
LINE
  5
46
330
B
100
AcDbEntity
 67
     1
  8
1
  6
Continuous
 62
    18
100
AcDbLine
 10
1.68642
 20
6.603613
 30
0.0
 11
1.68642
 21
6.596671
 31
0.0
  0
LINE
  5
47
330
B
100
AcDbEntity
 67
     1
  8
1
  6
Continuous
 62
    18
100
AcDbLine
 10
1.68642
 20
4.639273999999999
 30
0.0
 11
1.68642
 21
4.502677999999999
 31
0.0
  0
LINE
  5
48
330
B
100
AcDbEntity
 67
     1
  8
1
  6
Continuous
 62
    18
100
AcDbLine
 10
1.5941
 20
6.743222
 30
0.0
 11
1.58776
 21
6.742299
 31
0.0
  0
LINE
  5
49
330
B
100
AcDbEntity
 67
     1
  8
1
  6
Continuous
 62
    18
100
AcDbLine
 10
2.350654
 20
6.199683999999999
 30
0.0
 11
2.346760999999999
 21
6.199683999999999
 31
0.0
  0
LINE
  5
4A
330
B
100
AcDbEntity
 67
     1
  8
1
  6
Continuous
 62
    18
100
AcDbLine
 10
5.156209999999999
 20
4.604809999999999
 30
0.0
 11
5.145889
 21
4.594122
 31
0.0
  0
LINE
  5
4B
330
B
100
AcDbEntity
 67
     1
  8
1
  6
Continuous
 62
    18
100
AcDbLine
 10
1.532135
 20
4.773316999999999
 30
0.0
 11
1.5336
 21
4.769214999999999
 31
0.0
  0
LINE
  5
4C
330
B
100
AcDbEntity
 67
     1
  8
1
  6
Continuous
 62
    18
100
AcDbLine
 10
1.736420999999999
 20
6.357472
 30
0.0
 11
1.70642
 21
6.357472
 31
0.0
  0
LINE
  5
4D
330
B
100
AcDbEntity
 67
     1
  8
1
  6
Continuous
 62
    18
100
AcDbLine
 10
2.211898
 20
4.458872
 30
0.0
 11
2.211898
 21
4.478283
 31
0.0
  0
LINE
  5
4E
330
B
100
AcDbEntity
 67
     1
  8
1
  6
Continuous
 62
    18
100
AcDbLine
 10
1.534461
 20
6.705391
 30
0.0
 11
1.532687999999999
 21
6.701042
 31
0.0
  0
LINE
  5
4F
330
B
100
AcDbEntity
 67
     1
  8
1
  6
Continuous
 62
    18
100
AcDbLine
 10
4.361069
 20
4.534642999999999
 30
0.0
 11
4.190381999999999
 21
4.534642999999999
 31
0.0
  0
LINE
  5
50
330
B
100
AcDbEntity
 67
     1
  8
1
  6
Continuous
 62
    18
100
AcDbLine
 10
2.211898
 20
6.303169
 30
0.0
 11
2.211898
 21
6.320024
 31
0.0
  0
LINE
  5
51
330
B
100
AcDbEntity
 67
     1
  8
1
  6
Continuous
 62
    18
100
AcDbLine
 10
1.604897999999999
 20
4.847812999999999
 30
0.0
 11
2.324397999999999
 21
4.847812999999999
 31
0.0
  0
LINE
  5
52
330
B
100
AcDbEntity
 67
     1
  8
1
  6
Continuous
 62
    18
100
AcDbLine
 10
1.679807
 20
6.612574999999999
 30
0.0
 11
1.681625999999999
 21
6.611219
 31
0.0
  0
LINE
  5
53
330
B
100
AcDbEntity
 67
     1
  8
1
  6
Continuous
 62
    18
100
AcDbLine
 10
2.369960999999999
 20
4.521325
 30
0.0
 11
2.369960999999999
 21
4.385188999999999
 31
0.0
  0
LINE
  5
54
330
B
100
AcDbEntity
 67
     1
  8
1
  6
Continuous
 62
    18
100
AcDbLine
 10
4.725302
 20
4.898875
 30
0.0
 11
4.745369999999999
 21
4.919427999999999
 31
0.0
  0
LINE
  5
55
330
B
100
AcDbEntity
 67
     1
  8
1
  6
Continuous
 62
    18
100
AcDbLine
 10
2.356275999999999
 20
6.269857
 30
0.0
 11
2.356616999999999
 21
6.258376
 31
0.0
  0
LINE
  5
56
330
B
100
AcDbEntity
 67
     1
  8
1
  6
Continuous
 62
    18
100
AcDbLine
 10
1.604897999999999
 20
6.624825999999999
 30
0.0
 11
1.583849999999999
 21
6.627786999999999
 31
0.0
  0
LINE
  5
57
330
B
100
AcDbEntity
 67
     1
  8
1
  6
Continuous
 62
    18
100
AcDbLine
 10
1.68642
 20
4.713461999999999
 30
0.0
 11
1.683346
 21
4.722816
 31
0.0
  0
LINE
  5
58
330
B
100
AcDbEntity
 67
     1
  8
1
  6
Continuous
 62
    18
100
AcDbLine
 10
1.584618999999999
 20
6.749886
 30
0.0
 11
1.588715999999999
 21
6.746611999999999
 31
0.0
  0
LINE
  5
59
330
B
100
AcDbEntity
 67
     1
  8
1
  6
Continuous
 62
    18
100
AcDbLine
 10
2.428913999999999
 20
4.950315999999999
 30
0.0
 11
2.403425999999999
 21
4.959262999999999
 31
0.0
  0
LINE
  5
5A
330
B
100
AcDbEntity
 67
     1
  8
1
  6
Continuous
 62
    18
100
AcDbLine
 10
5.416876999999999
 20
4.195376
 30
0.0
 11
5.423362
 21
4.188890999999999
 31
0.0
  0
LINE
  5
5B
330
B
100
AcDbEntity
 67
     1
  8
1
  6
Continuous
 62
    18
100
AcDbLine
 10
1.672398
 20
4.469674999999999
 30
0.0
 11
1.672398
 21
4.476581999999999
 31
0.0
  0
LINE
  5
5C
330
B
100
AcDbEntity
 67
     1
  8
1
  6
Continuous
 62
    18
100
AcDbLine
 10
1.638945
 20
4.741746
 30
0.0
 11
1.604897999999999
 21
4.741746
 31
0.0
  0
LINE
  5
5D
330
B
100
AcDbEntity
 67
     1
  8
1
  6
Continuous
 62
    18
100
AcDbLine
 10
1.535606999999999
 20
6.705225
 30
0.0
 11
1.551865
 21
6.722430999999999
 31
0.0
  0
LINE
  5
5E
330
B
100
AcDbEntity
 67
     1
  8
1
  6
Continuous
 62
    18
100
AcDbLine
 10
2.324397999999999
 20
4.853671
 30
0.0
 11
2.324397999999999
 21
4.852148
 31
0.0
  0
LINE
  5
5F
330
B
100
AcDbEntity
 67
     1
  8
1
  6
Continuous
 62
    18
100
AcDbLine
 10
1.70642
 20
6.296983999999999
 30
0.0
 11
1.736420999999999
 21
6.296983999999999
 31
0.0
  0
LINE
  5
60
330
B
100
AcDbEntity
 67
     1
  8
1
  6
Continuous
 62
    18
100
AcDbLine
 10
1.654729
 20
6.726205999999999
 30
0.0
 11
1.655511999999999
 21
6.726203999999999
 31
0.0
  0
LINE
  5
61
330
B
100
AcDbEntity
 67
     1
  8
1
  6
Continuous
 62
    18
100
AcDbLine
 10
1.677700999999999
 20
4.467527999999999
 30
0.0
 11
1.679897999999999
 21
4.471277999999999
 31
0.0
  0
LINE
  5
62
330
B
100
AcDbEntity
 67
     1
  8
1
  6
Continuous
 62
    18
100
AcDbLine
 10
3.814737
 20
4.036598999999999
 30
0.0
 11
3.772169
 21
4.036598999999999
 31
0.0
  0
LINE
  5
63
330
B
100
AcDbEntity
 67
     1
  8
1
  6
Continuous
 62
    18
100
AcDbLine
 10
1.576155999999999
 20
6.726843999999999
 30
0.0
 11
1.604897999999999
 21
6.730892999999999
 31
0.0
  0
LINE
  5
64
330
B
100
AcDbEntity
 67
     1
  8
1
  6
Continuous
 62
    18
100
AcDbLine
 10
1.604897999999999
 20
4.733068
 30
0.0
 11
1.604897999999999
 21
4.731691999999999
 31
0.0
  0
LINE
  5
65
330
B
100
AcDbEntity
 67
     1
  8
1
  6
Continuous
 62
    18
100
AcDbLine
 10
1.621727
 20
6.730892999999999
 30
0.0
 11
1.604897999999999
 21
6.730892999999999
 31
0.0
  0
LINE
  5
66
330
B
100
AcDbEntity
 67
     1
  8
1
  6
Continuous
 62
    18
100
AcDbLine
 10
1.682852999999999
 20
4.730566999999999
 30
0.0
 11
1.68642
 21
4.720533
 31
0.0
  0
LINE
  5
67
330
B
100
AcDbEntity
 67
     1
  8
1
  6
Continuous
 62
    18
100
AcDbLine
 10
1.729897999999999
 20
4.498486999999999
 30
0.0
 11
1.729897999999999
 21
4.502676
 31
0.0
  0
LINE
  5
68
330
B
100
AcDbEntity
 67
     1
  8
1
  6
Continuous
 62
    18
100
AcDbLine
 10
2.261897999999999
 20
4.502676
 30
0.0
 11
2.261897999999999
 21
4.502743999999999
 31
0.0
  0
LINE
  5
69
330
B
100
AcDbEntity
 67
     1
  8
1
  6
Continuous
 62
    18
100
AcDbLine
 10
5.657104
 20
4.016545999999999
 30
0.0
 11
5.560026
 21
3.91688
 31
0.0
  0
LINE
  5
6A
330
B
100
AcDbEntity
 67
     1
  8
1
  6
Continuous
 62
    18
100
AcDbLine
 10
2.324397999999999
 20
4.847812999999999
 30
0.0
 11
1.604897999999999
 21
4.847812999999999
 31
0.0
  0
LINE
  5
6B
330
B
100
AcDbEntity
 67
     1
  8
1
  6
Continuous
 62
    18
100
AcDbLine
 10
1.571579999999999
 20
6.624974
 30
0.0
 11
1.576602999999999
 21
6.623228999999999
 31
0.0
  0
LINE
  5
6C
330
B
100
AcDbEntity
 67
     1
  8
1
  6
Continuous
 62
    18
100
AcDbLine
 10
2.339272
 20
6.726203999999999
 30
0.0
 11
2.343072
 21
6.721813
 31
0.0
  0
LINE
  5
6D
330
B
100
AcDbEntity
 67
     1
  8
1
  6
Continuous
 62
    18
100
AcDbLine
 10
1.696370999999999
 20
4.658536999999999
 30
0.0
 11
1.696370999999999
 21
4.718782
 31
0.0
  0
LINE
  5
6E
330
B
100
AcDbEntity
 67
     1
  8
1
  6
Continuous
 62
    18
100
AcDbLine
 10
1.653947
 20
6.726213
 30
0.0
 11
1.654729
 21
6.726205999999999
 31
0.0
  0
LINE
  5
6F
330
B
100
AcDbEntity
 67
     1
  8
1
  6
Continuous
 62
    18
100
AcDbLine
 10
1.729897999999999
 20
4.498486999999999
 30
0.0
 11
1.729897999999999
 21
4.496833
 31
0.0
  0
LINE
  5
70
330
B
100
AcDbEntity
 67
     1
  8
1
  6
Continuous
 62
    18
100
AcDbLine
 10
5.690199999999999
 20
4.370764
 30
0.0
 11
5.694596999999999
 21
4.370547
 31
0.0
  0
LINE
  5
71
330
B
100
AcDbEntity
 67
     1
  8
1
  6
Continuous
 62
    18
100
AcDbLine
 10
1.736420999999999
 20
4.455367999999999
 30
0.0
 11
2.211898
 21
4.455367999999999
 31
0.0
  0
LINE
  5
72
330
B
100
AcDbEntity
 67
     1
  8
1
  6
Continuous
 62
    18
100
AcDbLine
 10
1.581796999999999
 20
4.731618
 30
0.0
 11
1.587112
 21
4.730459999999999
 31
0.0
  0
LINE
  5
73
330
B
100
AcDbEntity
 67
     1
  8
1
  6
Continuous
 62
    18
100
AcDbLine
 10
2.366445999999999
 20
6.400044
 30
0.0
 11
2.375306
 21
6.400044
 31
0.0
  0
LINE
  5
74
330
B
100
AcDbEntity
 67
     1
  8
1
  6
Continuous
 62
    18
100
AcDbLine
 10
1.672533999999999
 20
6.616228999999999
 30
0.0
 11
1.675233
 21
6.615122
 31
0.0
  0
LINE
  5
75
330
B
100
AcDbEntity
 67
     1
  8
1
  6
Continuous
 62
    18
100
AcDbLine
 10
1.580016
 20
7.296557
 30
0.0
 11
1.607155999999999
 21
7.306878999999999
 31
0.0
  0
LINE
  5
76
330
B
100
AcDbEntity
 67
     1
  8
1
  6
Continuous
 62
    18
100
AcDbLine
 10
1.674512
 20
6.403817
 30
0.0
 11
1.672186999999999
 21
6.341065
 31
0.0
  0
LINE
  5
77
330
B
100
AcDbEntity
 67
     1
  8
1
  6
Continuous
 62
    18
100
AcDbLine
 10
1.689086
 20
6.587733
 30
0.0
 11
1.696370999999999
 21
6.577408
 31
0.0
  0
LINE
  5
78
330
B
100
AcDbEntity
 67
     1
  8
1
  6
Continuous
 62
    18
100
AcDbLine
 10
1.706264
 20
4.420221999999999
 30
0.0
 11
1.702125999999999
 21
4.426623
 31
0.0
  0
LINE
  5
79
330
B
100
AcDbEntity
 67
     1
  8
1
  6
Continuous
 62
    18
100
AcDbLine
 10
1.718416999999999
 20
4.195376
 30
0.0
 11
1.664111999999999
 21
4.195376
 31
0.0
  0
LINE
  5
7A
330
B
100
AcDbEntity
 67
     1
  8
1
  6
Continuous
 62
    18
100
AcDbLine
 10
1.696370999999999
 20
4.658536999999999
 30
0.0
 11
1.689086
 21
4.648212
 31
0.0
  0
LINE
  5
7B
330
B
100
AcDbEntity
 67
     1
  8
1
  6
Continuous
 62
    18
100
AcDbLine
 10
1.674512
 20
4.733271
 30
0.0
 11
1.671408999999999
 21
4.738029
 31
0.0
  0
LINE
  5
7C
330
B
100
AcDbEntity
 67
     1
  8
1
  6
Continuous
 62
    18
100
AcDbLine
 10
1.686409
 20
6.604006
 30
0.0
 11
1.68642
 21
6.603613
 31
0.0
  0
LINE
  5
7D
330
B
100
AcDbEntity
 67
     1
  8
1
  6
Continuous
 62
    18
100
AcDbLine
 10
1.551927
 20
4.757235999999999
 30
0.0
 11
1.535657999999999
 21
4.774398
 31
0.0
  0
LINE
  5
7E
330
B
100
AcDbEntity
 67
     1
  8
1
  6
Continuous
 62
    18
100
AcDbLine
 10
2.463197
 20
4.385188999999999
 30
0.0
 11
2.494068999999999
 21
4.385188999999999
 31
0.0
  0
LINE
  5
7F
330
B
100
AcDbEntity
 67
     1
  8
1
  6
Continuous
 62
    18
100
AcDbLine
 10
1.729897999999999
 20
6.303168
 30
0.0
 11
1.729897999999999
 21
6.320024
 31
0.0
  0
LINE
  5
80
330
B
100
AcDbEntity
 67
     1
  8
1
  6
Continuous
 62
    18
100
AcDbLine
 10
2.273156
 20
6.194568
 30
0.0
 11
2.273372
 21
6.199683999999999
 31
0.0
  0
LINE
  5
81
330
B
100
AcDbEntity
 67
     1
  8
1
  6
Continuous
 62
    18
100
AcDbLine
 10
1.669134
 20
6.341178
 30
0.0
 11
1.672186999999999
 21
6.341065
 31
0.0
  0
LINE
  5
82
330
B
100
AcDbEntity
 67
     1
  8
1
  6
Continuous
 62
    18
100
AcDbLine
 10
1.582398999999999
 20
6.341434999999999
 30
0.0
 11
1.571490999999999
 21
6.341166
 31
0.0
  0
LINE
  5
83
330
B
100
AcDbEntity
 67
     1
  8
1
  6
Continuous
 62
    18
100
AcDbLine
 10
1.736420999999999
 20
6.357472
 30
0.0
 11
1.70642
 21
6.357472
 31
0.0
  0
LINE
  5
84
330
B
100
AcDbEntity
 67
     1
  8
1
  6
Continuous
 62
    18
100
AcDbLine
 10
2.350654
 20
6.199683999999999
 30
0.0
 11
2.123772
 21
6.199683999999999
 31
0.0
  0
LINE
  5
85
330
B
100
AcDbEntity
 67
     1
  8
1
  6
Continuous
 62
    18
100
AcDbLine
 10
2.499315999999999
 20
4.188890999999999
 30
0.0
 11
2.494925999999999
 21
4.188890999999999
 31
0.0
  0
LINE
  5
86
330
B
100
AcDbEntity
 67
     1
  8
1
  6
Continuous
 62
    18
100
AcDbLine
 10
2.481816999999999
 20
7.478503999999999
 30
0.0
 11
2.491408
 21
7.444616
 31
0.0
  0
LINE
  5
87
330
B
100
AcDbEntity
 67
     1
  8
1
  6
Continuous
 62
    18
100
AcDbLine
 10
2.490545999999999
 20
7.840694
 30
0.0
 11
2.490545999999999
 21
7.845264999999999
 31
0.0
  0
LINE
  5
88
330
B
100
AcDbEntity
 67
     1
  8
1
  6
Continuous
 62
    18
100
AcDbLine
 10
1.846799
 20
4.237824999999999
 30
0.0
 11
1.847161
 21
4.258541
 31
0.0
  0
LINE
  5
89
330
B
100
AcDbEntity
 67
     1
  8
1
  6
Continuous
 62
    18
100
AcDbLine
 10
1.664525999999999
 20
6.400043
 30
0.0
 11
1.664525999999999
 21
6.590133999999999
 31
0.0
  0
LINE
  5
8A
330
B
100
AcDbEntity
 67
     1
  8
1
  6
Continuous
 62
    18
100
AcDbLine
 10
2.359818
 20
6.297315
 30
0.0
 11
2.359359999999999
 21
6.318419
 31
0.0
  0
LINE
  5
8B
330
B
100
AcDbEntity
 67
     1
  8
1
  6
Continuous
 62
    18
100
AcDbLine
 10
1.655511999999999
 20
6.590133999999999
 30
0.0
 11
1.631505999999999
 21
6.592397
 31
0.0
  0
LINE
  5
8C
330
B
100
AcDbEntity
 67
     1
  8
1
  6
Continuous
 62
    18
100
AcDbLine
 10
1.593245999999999
 20
4.306283
 30
0.0
 11
2.436950999999999
 21
4.306283
 31
0.0
  0
LINE
  5
8D
330
B
100
AcDbEntity
 67
     1
  8
1
  6
Continuous
 62
    18
100
AcDbLine
 10
1.672443
 20
6.325759999999999
 30
0.0
 11
1.673216999999999
 21
6.348155999999999
 31
0.0
  0
LINE
  5
8E
330
B
100
AcDbEntity
 67
     1
  8
1
  6
Continuous
 62
    18
100
AcDbLine
 10
1.562569
 20
6.733525999999999
 30
0.0
 11
1.562569
 21
6.875969999999999
 31
0.0
  0
LINE
  5
8F
330
B
100
AcDbEntity
 67
     1
  8
1
  6
Continuous
 62
    18
100
AcDbLine
 10
2.447964999999999
 20
6.316201
 30
0.0
 11
2.448418999999999
 21
6.341434999999999
 31
0.0
  0
LINE
  5
90
330
B
100
AcDbEntity
 67
     1
  8
1
  6
Continuous
 62
    18
100
AcDbLine
 10
1.67208
 20
4.483652999999999
 30
0.0
 11
1.679897999999999
 21
4.483652999999999
 31
0.0
  0
LINE
  5
91
330
B
100
AcDbEntity
 67
     1
  8
1
  6
Continuous
 62
    18
100
AcDbLine
 10
1.701949
 20
4.424509999999999
 30
0.0
 11
1.674661999999999
 21
4.424509999999999
 31
0.0
  0
LINE
  5
92
330
B
100
AcDbEntity
 67
     1
  8
1
  6
Continuous
 62
    18
100
AcDbLine
 10
1.656419999999999
 20
6.624825999999999
 30
0.0
 11
1.68142
 21
6.620089999999999
 31
0.0
  0
LINE
  5
93
330
B
100
AcDbEntity
 67
     1
  8
1
  6
Continuous
 62
    18
100
AcDbLine
 10
2.111231999999999
 20
4.016545999999999
 30
0.0
 11
2.110292999999999
 21
3.91688
 31
0.0
  0
LINE
  5
94
330
B
100
AcDbEntity
 67
     1
  8
1
  6
Continuous
 62
    18
100
AcDbLine
 10
1.53675
 20
7.407907999999999
 30
0.0
 11
1.539409999999999
 21
7.444616
 31
0.0
  0
LINE
  5
95
330
B
100
AcDbEntity
 67
     1
  8
1
  6
Continuous
 62
    18
100
AcDbLine
 10
1.543054
 20
4.7541
 30
0.0
 11
1.546273999999999
 21
4.75069
 31
0.0
  0
LINE
  5
96
330
B
100
AcDbEntity
 67
     1
  8
1
  6
Continuous
 62
    18
100
AcDbLine
 10
2.361683999999999
 20
6.341178
 30
0.0
 11
2.368618
 21
6.341434999999999
 31
0.0
  0
LINE
  5
97
330
B
100
AcDbEntity
 67
     1
  8
1
  6
Continuous
 62
    18
100
AcDbLine
 10
1.529056999999999
 20
5.88128
 30
0.0
 11
1.52466
 21
5.891873999999999
 31
0.0
  0
LINE
  5
98
330
B
100
AcDbEntity
 67
     1
  8
1
  6
Continuous
 62
    18
100
AcDbLine
 10
1.918761
 20
4.024891
 30
0.0
 11
1.918379999999999
 21
4.033174999999999
 31
0.0
  0
LINE
  5
99
330
B
100
AcDbEntity
 67
     1
  8
1
  6
Continuous
 62
    18
100
AcDbLine
 10
2.261897999999999
 20
4.434271999999999
 30
0.0
 11
2.261897999999999
 21
4.447401999999999
 31
0.0
  0
LINE
  5
9A
330
B
100
AcDbEntity
 67
     1
  8
1
  6
Continuous
 62
    18
100
AcDbLine
 10
1.689086
 20
4.697581999999999
 30
0.0
 11
1.696370999999999
 21
4.687256999999999
 31
0.0
  0
LINE
  5
9B
330
B
100
AcDbEntity
 67
     1
  8
1
  6
Continuous
 62
    18
100
AcDbLine
 10
1.567763
 20
6.483342999999999
 30
0.0
 11
1.579579
 21
6.45563
 31
0.0
  0
LINE
  5
9C
330
B
100
AcDbEntity
 67
     1
  8
1
  6
Continuous
 62
    18
100
AcDbLine
 10
1.671965
 20
6.302108999999999
 30
0.0
 11
1.679897
 21
6.302108999999999
 31
0.0
  0
LINE
  5
9D
330
B
100
AcDbEntity
 67
     1
  8
1
  6
Continuous
 62
    18
100
AcDbLine
 10
1.672724999999999
 20
6.334912999999999
 30
0.0
 11
1.679897999999999
 21
6.334912999999999
 31
0.0
  0
LINE
  5
9E
330
B
100
AcDbEntity
 67
     1
  8
1
  6
Continuous
 62
    18
100
AcDbLine
 10
1.701999999999999
 20
4.427438999999999
 30
0.0
 11
1.674815
 21
4.427438999999999
 31
0.0
  0
LINE
  5
9F
330
B
100
AcDbEntity
 67
     1
  8
1
  6
Continuous
 62
    18
100
AcDbLine
 10
2.490545999999999
 20
4.370547
 30
0.0
 11
2.50114
 21
4.370764
 31
0.0
  0
LINE
  5
A0
330
B
100
AcDbEntity
 67
     1
  8
1
  6
Continuous
 62
    18
100
AcDbLine
 10
2.490545999999999
 20
5.876883
 30
0.0
 11
2.490545999999999
 21
5.881453999999999
 31
0.0
  0
LINE
  5
A1
330
B
100
AcDbEntity
 67
     1
  8
1
  6
Continuous
 62
    18
100
AcDbLine
 10
1.562587
 20
6.511255999999999
 30
0.0
 11
1.567763
 21
6.483342999999999
 31
0.0
  0
LINE
  5
A2
330
B
100
AcDbEntity
 67
     1
  8
1
  6
Continuous
 62
    18
100
AcDbLine
 10
1.580716999999999
 20
4.715644999999999
 30
0.0
 11
1.577163999999999
 21
4.711889
 31
0.0
  0
LINE
  5
A3
330
B
100
AcDbEntity
 67
     1
  8
1
  6
Continuous
 62
    18
100
AcDbLine
 10
2.448418999999999
 20
4.549882
 30
0.0
 11
2.459327
 21
4.545441
 31
0.0
  0
LINE
  5
A4
330
B
100
AcDbEntity
 67
     1
  8
1
  6
Continuous
 62
    18
100
AcDbLine
 10
1.679897999999999
 20
6.378684999999999
 30
0.0
 11
1.681600999999999
 21
6.384396999999999
 31
0.0
  0
LINE
  5
A5
330
B
100
AcDbEntity
 67
     1
  8
1
  6
Continuous
 62
    18
100
AcDbLine
 10
2.35392
 20
4.832451999999999
 30
0.0
 11
2.356288
 21
4.864952999999999
 31
0.0
  0
LINE
  5
A6
330
B
100
AcDbEntity
 67
     1
  8
1
  6
Continuous
 62
    18
100
AcDbLine
 10
1.679897999999999
 20
4.491706999999999
 30
0.0
 11
1.671966
 21
4.491706999999999
 31
0.0
  0
LINE
  5
A7
330
B
100
AcDbEntity
 67
     1
  8
1
  6
Continuous
 62
    18
100
AcDbLine
 10
1.702091999999999
 20
6.297457999999999
 30
0.0
 11
1.701989
 21
6.290878
 31
0.0
  0
LINE
  5
A8
330
B
100
AcDbEntity
 67
     1
  8
1
  6
Continuous
 62
    18
100
AcDbLine
 10
2.068281
 20
3.936505
 30
0.0
 11
2.070216999999999
 21
3.993401
 31
0.0
  0
LINE
  5
A9
330
B
100
AcDbEntity
 67
     1
  8
1
  6
Continuous
 62
    18
100
AcDbLine
 10
1.553339999999999
 20
4.837800999999999
 30
0.0
 11
1.549306999999999
 21
4.834584999999999
 31
0.0
  0
LINE
  5
AA
330
B
100
AcDbEntity
 67
     1
  8
1
  6
Continuous
 62
    18
100
AcDbLine
 10
1.699897999999999
 20
6.350792
 30
0.0
 11
1.699897999999999
 21
6.342916
 31
0.0
  0
LINE
  5
AB
330
B
100
AcDbEntity
 67
     1
  8
1
  6
Continuous
 62
    18
100
AcDbLine
 10
1.729897999999999
 20
4.478298
 30
0.0
 11
1.729897999999999
 21
4.458899999999999
 31
0.0
  0
LINE
  5
AC
330
B
100
AcDbEntity
 67
     1
  8
1
  6
Continuous
 62
    18
100
AcDbLine
 10
1.546273999999999
 20
6.640840999999999
 30
0.0
 11
1.549776
 21
6.637652
 31
0.0
  0
LINE
  5
AD
330
B
100
AcDbEntity
 67
     1
  8
1
  6
Continuous
 62
    18
100
AcDbLine
 10
2.357507
 20
6.23055
 30
0.0
 11
2.357706999999999
 21
6.214329
 31
0.0
  0
LINE
  5
AE
330
B
100
AcDbEntity
 67
     1
  8
1
  6
Continuous
 62
    18
100
AcDbLine
 10
1.577116
 20
4.849569999999999
 30
0.0
 11
1.571973999999999
 21
4.847814999999999
 31
0.0
  0
LINE
  5
AF
330
B
100
AcDbEntity
 67
     1
  8
1
  6
Continuous
 62
    18
100
AcDbLine
 10
1.598009
 20
6.619211999999999
 30
0.0
 11
1.601445999999999
 21
6.61903
 31
0.0
  0
LINE
  5
B0
330
B
100
AcDbEntity
 67
     1
  8
1
  6
Continuous
 62
    18
100
AcDbLine
 10
3.985687999999999
 20
4.385188999999999
 30
0.0
 11
3.988521
 21
4.385188999999999
 31
0.0
  0
LINE
  5
B1
330
B
100
AcDbEntity
 67
     1
  8
1
  6
Continuous
 62
    18
100
AcDbLine
 10
1.679897
 20
4.483652999999999
 30
0.0
 11
1.67208
 21
4.483652999999999
 31
0.0
  0
LINE
  5
B2
330
B
100
AcDbEntity
 67
     1
  8
1
  6
Continuous
 62
    18
100
AcDbLine
 10
1.58776
 20
6.742299
 30
0.0
 11
1.582378
 21
6.741164
 31
0.0
  0
LINE
  5
B3
330
B
100
AcDbEntity
 67
     1
  8
1
  6
Continuous
 62
    18
100
AcDbLine
 10
2.180115
 20
4.258541
 30
0.0
 11
2.180166999999999
 21
4.255541
 31
0.0
  0
LINE
  5
B4
330
B
100
AcDbEntity
 67
     1
  8
1
  6
Continuous
 62
    18
100
AcDbLine
 10
5.373368
 20
4.402251999999999
 30
0.0
 11
5.371394
 21
4.400278
 31
0.0
  0
LINE
  5
B5
330
B
100
AcDbEntity
 67
     1
  8
1
  6
Continuous
 62
    18
100
AcDbLine
 10
2.449383
 20
6.838505999999999
 30
0.0
 11
2.428913999999999
 21
6.824528999999999
 31
0.0
  0
LINE
  5
B6
330
B
100
AcDbEntity
 67
     1
  8
1
  6
Continuous
 62
    18
100
AcDbLine
 10
1.5336
 20
4.769214999999999
 30
0.0
 11
1.535444
 21
4.765219999999999
 31
0.0
  0
LINE
  5
B7
330
B
100
AcDbEntity
 67
     1
  8
1
  6
Continuous
 62
    18
100
AcDbLine
 10
1.68642
 20
6.522353999999999
 30
0.0
 11
1.68642
 21
6.371614
 31
0.0
  0
LINE
  5
B8
330
B
100
AcDbEntity
 67
     1
  8
1
  6
Continuous
 62
    18
100
AcDbLine
 10
2.211898
 20
4.478283
 30
0.0
 11
2.211898
 21
4.491927999999999
 31
0.0
  0
LINE
  5
B9
330
B
100
AcDbEntity
 67
     1
  8
1
  6
Continuous
 62
    18
100
AcDbLine
 10
1.532687999999999
 20
6.701042
 30
0.0
 11
1.531357999999999
 21
6.696680999999999
 31
0.0
  0
LINE
  5
BA
330
B
100
AcDbEntity
 67
     1
  8
1
  6
Continuous
 62
    18
100
AcDbLine
 10
4.361069
 20
4.534642999999999
 30
0.0
 11
4.360587999999999
 21
4.534838999999999
 31
0.0
  0
LINE
  5
BB
330
B
100
AcDbEntity
 67
     1
  8
1
  6
Continuous
 62
    18
100
AcDbLine
 10
2.369804999999999
 20
4.536819
 30
0.0
 11
2.369960999999999
 21
4.521325
 31
0.0
  0
LINE
  5
BC
330
B
100
AcDbEntity
 67
     1
  8
1
  6
Continuous
 62
    18
100
AcDbLine
 10
2.211898
 20
6.320024
 30
0.0
 11
2.211898
 21
6.342916
 31
0.0
  0
LINE
  5
BD
330
B
100
AcDbEntity
 67
     1
  8
1
  6
Continuous
 62
    18
100
AcDbLine
 10
1.604897999999999
 20
4.770030999999999
 30
0.0
 11
1.583849999999999
 21
4.772991
 31
0.0
  0
LINE
  5
BE
330
B
100
AcDbEntity
 67
     1
  8
1
  6
Continuous
 62
    18
100
AcDbLine
 10
1.681625999999999
 20
6.611219
 30
0.0
 11
1.68312
 21
6.609866
 31
0.0
  0
LINE
  5
BF
330
B
100
AcDbEntity
 67
     1
  8
1
  6
Continuous
 62
    18
100
AcDbLine
 10
4.745369999999999
 20
4.919427999999999
 30
0.0
 11
4.7637
 21
4.937745999999999
 31
0.0
  0
LINE
  5
C0
330
B
100
AcDbEntity
 67
     1
  8
1
  6
Continuous
 62
    18
100
AcDbLine
 10
1.675816
 20
6.614733999999999
 30
0.0
 11
1.674512
 21
6.596835
 31
0.0
  0
LINE
  5
C1
330
B
100
AcDbEntity
 67
     1
  8
1
  6
Continuous
 62
    18
100
AcDbLine
 10
1.846536
 20
4.195541
 30
0.0
 11
1.846799
 21
4.237824999999999
 31
0.0
  0
LINE
  5
C2
330
B
100
AcDbEntity
 67
     1
  8
1
  6
Continuous
 62
    18
100
AcDbLine
 10
1.583849999999999
 20
6.627786999999999
 30
0.0
 11
1.566006999999999
 21
6.636217999999999
 31
0.0
  0
LINE
  5
C3
330
B
100
AcDbEntity
 67
     1
  8
1
  6
Continuous
 62
    18
100
AcDbLine
 10
1.683346
 20
4.722816
 30
0.0
 11
1.674754
 21
4.730253
 31
0.0
  0
LINE
  5
C4
330
B
100
AcDbEntity
 67
     1
  8
1
  6
Continuous
 62
    18
100
AcDbLine
 10
1.588715999999999
 20
6.746611999999999
 30
0.0
 11
1.593128
 21
6.743525999999999
 31
0.0
  0
LINE
  5
C5
330
B
100
AcDbEntity
 67
     1
  8
1
  6
Continuous
 62
    18
100
AcDbLine
 10
2.403425999999999
 20
4.959262999999999
 30
0.0
 11
2.375306
 21
4.962341
 31
0.0
  0
LINE
  5
C6
330
B
100
AcDbEntity
 67
     1
  8
1
  6
Continuous
 62
    18
100
AcDbLine
 10
5.423362
 20
4.188890999999999
 30
0.0
 11
5.673383999999999
 21
4.188890999999999
 31
0.0
  0
LINE
  5
C7
330
B
100
AcDbEntity
 67
     1
  8
1
  6
Continuous
 62
    18
100
AcDbLine
 10
1.53959
 20
5.876821999999999
 30
0.0
 11
2.490606999999999
 21
5.876821999999999
 31
0.0
  0
LINE
  5
C8
330
B
100
AcDbEntity
 67
     1
  8
1
  6
Continuous
 62
    18
100
AcDbLine
 10
1.551865
 20
6.722430999999999
 30
0.0
 11
1.576196999999999
 21
6.733927
 31
0.0
  0
LINE
  5
C9
330
B
100
AcDbEntity
 67
     1
  8
1
  6
Continuous
 62
    18
100
AcDbLine
 10
2.324397999999999
 20
4.852148
 30
0.0
 11
2.324397999999999
 21
4.847812999999999
 31
0.0
  0
LINE
  5
CA
330
B
100
AcDbEntity
 67
     1
  8
1
  6
Continuous
 62
    18
100
AcDbLine
 10
1.679897999999999
 20
4.471277999999999
 30
0.0
 11
1.677700999999999
 21
4.475028
 31
0.0
  0
LINE
  5
CB
330
B
100
AcDbEntity
 67
     1
  8
1
  6
Continuous
 62
    18
100
AcDbLine
 10
2.356306
 20
6.403817
 30
0.0
 11
2.359408999999999
 21
6.401074999999999
 31
0.0
  0
LINE
  5
CC
330
B
100
AcDbEntity
 67
     1
  8
1
  6
Continuous
 62
    18
100
AcDbLine
 10
3.772169
 20
4.036598999999999
 30
0.0
 11
3.763855
 21
4.033174999999999
 31
0.0
  0
LINE
  5
CD
330
B
100
AcDbEntity
 67
     1
  8
1
  6
Continuous
 62
    18
100
AcDbLine
 10
1.655511999999999
 20
6.726203999999999
 30
0.0
 11
1.655511999999999
 21
6.726964999999999
 31
0.0
  0
LINE
  5
CE
330
B
100
AcDbEntity
 67
     1
  8
1
  6
Continuous
 62
    18
100
AcDbLine
 10
1.536628
 20
4.819428
 30
0.0
 11
1.534461999999999
 21
4.81524
 31
0.0
  0
LINE
  5
CF
330
B
100
AcDbEntity
 67
     1
  8
1
  6
Continuous
 62
    18
100
AcDbLine
 10
1.604897999999999
 20
6.730892999999999
 30
0.0
 11
1.604897999999999
 21
6.71675
 31
0.0
  0
LINE
  5
D0
330
B
100
AcDbEntity
 67
     1
  8
1
  6
Continuous
 62
    18
100
AcDbLine
 10
1.68642
 20
4.720533
 30
0.0
 11
1.692277999999999
 21
4.730533
 31
0.0
  0
LINE
  5
D1
330
B
100
AcDbEntity
 67
     1
  8
1
  6
Continuous
 62
    18
100
AcDbLine
 10
1.729897999999999
 20
4.496833
 30
0.0
 11
1.729897999999999
 21
4.491932
 31
0.0
  0
LINE
  5
D2
330
B
100
AcDbEntity
 67
     1
  8
1
  6
Continuous
 62
    18
100
AcDbLine
 10
5.657104
 20
4.016545999999999
 30
0.0
 11
5.660452999999999
 21
4.024891
 31
0.0
  0
LINE
  5
D3
330
B
100
AcDbEntity
 67
     1
  8
1
  6
Continuous
 62
    18
100
AcDbLine
 10
1.604897999999999
 20
4.847812999999999
 30
0.0
 11
1.583849999999999
 21
4.844851999999999
 31
0.0
  0
LINE
  5
D4
330
B
100
AcDbEntity
 67
     1
  8
1
  6
Continuous
 62
    18
100
AcDbLine
 10
1.729897999999999
 20
6.320024
 30
0.0
 11
1.729897999999999
 21
6.342916
 31
0.0
  0
LINE
  5
D5
330
B
100
AcDbEntity
 67
     1
  8
1
  6
Continuous
 62
    18
100
AcDbLine
 10
2.261897999999999
 20
6.357472
 30
0.0
 11
2.261897999999999
 21
6.35754
 31
0.0
  0
LINE
  5
D6
330
B
100
AcDbEntity
 67
     1
  8
1
  6
Continuous
 62
    18
100
AcDbLine
 10
1.68642
 20
4.713591
 30
0.0
 11
1.68642
 21
4.706519999999999
 31
0.0
  0
LINE
  5
D7
330
B
100
AcDbEntity
 67
     1
  8
1
  6
Continuous
 62
    18
100
AcDbLine
 10
2.356939
 20
6.199683999999999
 30
0.0
 11
2.350654
 21
6.199683999999999
 31
0.0
  0
LINE
  5
D8
330
B
100
AcDbEntity
 67
     1
  8
1
  6
Continuous
 62
    18
100
AcDbLine
 10
1.673216999999999
 20
4.519547
 30
0.0
 11
1.674238
 21
4.513627999999999
 31
0.0
  0
LINE
  5
D9
330
B
100
AcDbEntity
 67
     1
  8
1
  6
Continuous
 62
    18
100
AcDbLine
 10
5.679605999999999
 20
4.370547
 30
0.0
 11
5.679605999999999
 21
4.380813999999999
 31
0.0
  0
LINE
  5
DA
330
B
100
AcDbEntity
 67
     1
  8
1
  6
Continuous
 62
    18
100
AcDbLine
 10
1.68642
 20
4.720533
 30
0.0
 11
1.692277999999999
 21
4.730533
 31
0.0
  0
LINE
  5
DB
330
B
100
AcDbEntity
 67
     1
  8
1
  6
Continuous
 62
    18
100
AcDbLine
 10
2.375306
 20
6.400044
 30
0.0
 11
2.375306
 21
6.812503999999999
 31
0.0
  0
LINE
  5
DC
330
B
100
AcDbEntity
 67
     1
  8
1
  6
Continuous
 62
    18
100
AcDbLine
 10
1.587112
 20
4.730459999999999
 30
0.0
 11
1.592530999999999
 21
4.729605999999999
 31
0.0
  0
LINE
  5
DD
330
B
100
AcDbEntity
 67
     1
  8
1
  6
Continuous
 62
    18
100
AcDbLine
 10
1.689086
 20
4.648212
 30
0.0
 11
1.68642
 21
4.639273999999999
 31
0.0
  0
LINE
  5
DE
330
B
100
AcDbEntity
 67
     1
  8
1
  6
Continuous
 62
    18
100
AcDbLine
 10
1.675233
 20
6.615122
 30
0.0
 11
1.677674999999999
 21
6.613888
 31
0.0
  0
LINE
  5
DF
330
B
100
AcDbEntity
 67
     1
  8
1
  6
Continuous
 62
    18
100
AcDbLine
 10
1.607155999999999
 20
7.306878999999999
 30
0.0
 11
1.637670999999999
 21
7.310450999999999
 31
0.0
  0
LINE
  5
E0
330
B
100
AcDbEntity
 67
     1
  8
1
  6
Continuous
 62
    18
100
AcDbLine
 10
1.664525999999999
 20
6.400043
 30
0.0
 11
1.671408999999999
 21
6.401074999999999
 31
0.0
  0
LINE
  5
E1
330
B
100
AcDbEntity
 67
     1
  8
1
  6
Continuous
 62
    18
100
AcDbLine
 10
1.68642
 20
6.596671
 30
0.0
 11
1.68642
 21
6.603613
 31
0.0
  0
LINE
  5
E2
330
B
100
AcDbEntity
 67
     1
  8
1
  6
Continuous
 62
    18
100
AcDbLine
 10
1.70642
 20
4.496833
 30
0.0
 11
1.70642
 21
4.491927999999999
 31
0.0
  0
LINE
  5
E3
330
B
100
AcDbEntity
 67
     1
  8
1
  6
Continuous
 62
    18
100
AcDbLine
 10
1.664111999999999
 20
4.195376
 30
0.0
 11
1.644427
 21
4.195376
 31
0.0
  0
LINE
  5
E4
330
B
100
AcDbEntity
 67
     1
  8
1
  6
Continuous
 62
    18
100
AcDbLine
 10
1.671408999999999
 20
4.738029
 30
0.0
 11
1.664525999999999
 21
4.739971999999999
 31
0.0
  0
LINE
  5
E5
330
B
100
AcDbEntity
 67
     1
  8
1
  6
Continuous
 62
    18
100
AcDbLine
 10
1.535657999999999
 20
4.774398
 30
0.0
 11
1.529898
 21
4.794654
 31
0.0
  0
LINE
  5
E6
330
B
100
AcDbEntity
 67
     1
  8
1
  6
Continuous
 62
    18
100
AcDbLine
 10
1.582398999999999
 20
6.341434999999999
 30
0.0
 11
1.582854
 21
6.316201
 31
0.0
  0
LINE
  5
E7
330
B
100
AcDbEntity
 67
     1
  8
1
  6
Continuous
 62
    18
100
AcDbLine
 10
2.18033
 20
6.194568
 30
0.0
 11
2.180115
 21
6.199683999999999
 31
0.0
  0
LINE
  5
E8
330
B
100
AcDbEntity
 67
     1
  8
1
  6
Continuous
 62
    18
100
AcDbLine
 10
2.357568999999999
 20
4.482164
 30
0.0
 11
2.261897999999999
 21
4.482164
 31
0.0
  0
LINE
  5
E9
330
B
100
AcDbEntity
 67
     1
  8
1
  6
Continuous
 62
    18
100
AcDbLine
 10
1.655511999999999
 20
4.864952999999999
 30
0.0
 11
1.655511999999999
 21
4.871985999999999
 31
0.0
  0
LINE
  5
EA
330
B
100
AcDbEntity
 67
     1
  8
1
  6
Continuous
 62
    18
100
AcDbLine
 10
2.505536999999999
 20
5.891873999999999
 30
0.0
 11
2.505597999999999
 21
5.891812999999999
 31
0.0
  0
LINE
  5
EB
330
B
100
AcDbEntity
 67
     1
  8
1
  6
Continuous
 62
    18
100
AcDbLine
 10
2.379669999999999
 20
7.032785
 30
0.0
 11
2.410184999999999
 21
7.029213
 31
0.0
  0
LINE
  5
EC
330
B
100
AcDbEntity
 67
     1
  8
1
  6
Continuous
 62
    18
100
AcDbLine
 10
2.261897999999999
 20
6.320024
 30
0.0
 11
2.261897999999999
 21
6.303168
 31
0.0
  0
LINE
  5
ED
330
B
100
AcDbEntity
 67
     1
  8
1
  6
Continuous
 62
    18
100
AcDbLine
 10
2.494925999999999
 20
4.188890999999999
 30
0.0
 11
2.484325
 21
4.188890999999999
 31
0.0
  0
LINE
  5
EE
330
B
100
AcDbEntity
 67
     1
  8
1
  6
Continuous
 62
    18
100
AcDbLine
 10
2.491408
 20
7.444616
 30
0.0
 11
2.494068999999999
 21
7.407907999999999
 31
0.0
  0
LINE
  5
EF
330
B
100
AcDbEntity
 67
     1
  8
1
  6
Continuous
 62
    18
100
AcDbLine
 10
1.756252999999999
 20
4.258541
 30
0.0
 11
1.847161
 21
4.258541
 31
0.0
  0
LINE
  5
F0
330
B
100
AcDbEntity
 67
     1
  8
1
  6
Continuous
 62
    18
100
AcDbLine
 10
1.736420999999999
 20
6.350792
 30
0.0
 11
1.736420999999999
 21
6.357472
 31
0.0
  0
LINE
  5
F1
330
B
100
AcDbEntity
 67
     1
  8
1
  6
Continuous
 62
    18
100
AcDbLine
 10
1.567131999999999
 20
6.896039
 30
0.0
 11
1.580339999999999
 21
6.914369
 31
0.0
  0
LINE
  5
F2
330
B
100
AcDbEntity
 67
     1
  8
1
  6
Continuous
 62
    18
100
AcDbLine
 10
1.655511999999999
 20
4.742899999999999
 30
0.0
 11
1.652231
 21
4.742858999999999
 31
0.0
  0
LINE
  5
F3
330
B
100
AcDbEntity
 67
     1
  8
1
  6
Continuous
 62
    18
100
AcDbLine
 10
1.655511999999999
 20
6.590133999999999
 30
0.0
 11
1.655511999999999
 21
6.400044
 31
0.0
  0
LINE
  5
F4
330
B
100
AcDbEntity
 67
     1
  8
1
  6
Continuous
 62
    18
100
AcDbLine
 10
2.359359999999999
 20
6.318419
 30
0.0
 11
2.358632
 21
6.341065
 31
0.0
  0
LINE
  5
F5
330
B
100
AcDbEntity
 67
     1
  8
1
  6
Continuous
 62
    18
100
AcDbLine
 10
1.570629999999999
 20
4.735363999999999
 30
0.0
 11
1.570629999999999
 21
4.701686
 31
0.0
  0
LINE
  5
F6
330
B
100
AcDbEntity
 67
     1
  8
1
  6
Continuous
 62
    18
100
AcDbLine
 10
2.264241
 20
6.361539999999999
 30
0.0
 11
2.261897999999999
 21
6.35754
 31
0.0
  0
LINE
  5
F7
330
B
100
AcDbEntity
 67
     1
  8
1
  6
Continuous
 62
    18
100
AcDbLine
 10
2.484325
 20
4.188890999999999
 30
0.0
 11
2.490606999999999
 21
4.368802999999999
 31
0.0
  0
LINE
  5
F8
330
B
100
AcDbEntity
 67
     1
  8
1
  6
Continuous
 62
    18
100
AcDbLine
 10
1.672225
 20
4.476581999999999
 30
0.0
 11
1.672398
 21
4.476581999999999
 31
0.0
  0
LINE
  5
F9
330
B
100
AcDbEntity
 67
     1
  8
1
  6
Continuous
 62
    18
100
AcDbLine
 10
1.673216999999999
 20
6.348155999999999
 30
0.0
 11
1.674238
 21
6.36981
 31
0.0
  0
LINE
  5
FA
330
B
100
AcDbEntity
 67
     1
  8
1
  6
Continuous
 62
    18
100
AcDbLine
 10
1.70642
 20
4.437926999999999
 30
0.0
 11
1.70642
 21
4.458872
 31
0.0
  0
LINE
  5
FB
330
B
100
AcDbEntity
 67
     1
  8
1
  6
Continuous
 62
    18
100
AcDbLine
 10
2.468249
 20
6.511737
 30
0.0
 11
2.464034999999999
 21
6.34105
 31
0.0
  0
LINE
  5
FC
330
B
100
AcDbEntity
 67
     1
  8
1
  6
Continuous
 62
    18
100
AcDbLine
 10
1.68142
 20
6.620089999999999
 30
0.0
 11
1.699722
 21
6.607149
 31
0.0
  0
LINE
  5
FD
330
B
100
AcDbEntity
 67
     1
  8
1
  6
Continuous
 62
    18
100
AcDbLine
 10
1.702236
 20
4.420046
 30
0.0
 11
1.702120999999999
 21
4.424631999999999
 31
0.0
  0
LINE
  5
FE
330
B
100
AcDbEntity
 67
     1
  8
1
  6
Continuous
 62
    18
100
AcDbLine
 10
2.110292999999999
 20
3.91688
 30
0.0
 11
2.110381999999999
 21
3.913315
 31
0.0
  0
LINE
  5
FF
330
B
100
AcDbEntity
 67
     1
  8
1
  6
Continuous
 62
    18
100
AcDbLine
 10
2.125043999999999
 20
4.390840999999999
 30
0.0
 11
1.905774
 21
4.390840999999999
 31
0.0
  0
LINE
  5
100
330
B
100
AcDbEntity
 67
     1
  8
1
  6
Continuous
 62
    18
100
AcDbLine
 10
1.546273999999999
 20
4.75069
 30
0.0
 11
1.549776
 21
4.747501
 31
0.0
  0
LINE
  5
101
330
B
100
AcDbEntity
 67
     1
  8
1
  6
Continuous
 62
    18
100
AcDbLine
 10
2.369960999999999
 20
6.272491999999999
 30
0.0
 11
2.369960999999999
 21
6.136356
 31
0.0
  0
LINE
  5
102
330
B
100
AcDbEntity
 67
     1
  8
1
  6
Continuous
 62
    18
100
AcDbLine
 10
1.674200999999999
 20
4.4032
 30
0.0
 11
1.674616999999999
 21
4.407549999999999
 31
0.0
  0
LINE
  5
103
330
B
100
AcDbEntity
 67
     1
  8
1
  6
Continuous
 62
    18
100
AcDbLine
 10
1.53959
 20
5.876821999999999
 30
0.0
 11
1.528988
 21
5.881212
 31
0.0
  0
LINE
  5
104
330
B
100
AcDbEntity
 67
     1
  8
1
  6
Continuous
 62
    18
100
AcDbLine
 10
1.918379999999999
 20
4.033174999999999
 30
0.0
 11
1.918042999999999
 21
4.036598999999999
 31
0.0
  0
LINE
  5
105
330
B
100
AcDbEntity
 67
     1
  8
1
  6
Continuous
 62
    18
100
AcDbLine
 10
1.736420999999999
 20
4.502676
 30
0.0
 11
1.70642
 21
4.502676
 31
0.0
  0
LINE
  5
106
330
B
100
AcDbEntity
 67
     1
  8
1
  6
Continuous
 62
    18
100
AcDbLine
 10
1.648958
 20
4.742733999999999
 30
0.0
 11
1.642865999999999
 21
4.74228
 31
0.0
  0
LINE
  5
107
330
B
100
AcDbEntity
 67
     1
  8
1
  6
Continuous
 62
    18
100
AcDbLine
 10
2.404015999999999
 20
6.938988
 30
0.0
 11
2.375306
 21
6.942867999999998
 31
0.0
  0
LINE
  5
108
330
B
100
AcDbEntity
 67
     1
  8
1
  6
Continuous
 62
    18
100
AcDbLine
 10
1.701989
 20
6.290878
 30
0.0
 11
1.701949
 21
6.28472
 31
0.0
  0
LINE
  5
109
330
B
100
AcDbEntity
 67
     1
  8
1
  6
Continuous
 62
    18
100
AcDbLine
 10
2.35691
 20
4.494726999999999
 30
0.0
 11
2.261897999999999
 21
4.494726999999999
 31
0.0
  0
LINE
  5
10A
330
B
100
AcDbEntity
 67
     1
  8
1
  6
Continuous
 62
    18
100
AcDbLine
 10
1.577163999999999
 20
4.711889
 30
0.0
 11
1.573939
 21
4.707921999999999
 31
0.0
  0
LINE
  5
10B
330
B
100
AcDbEntity
 67
     1
  8
1
  6
Continuous
 62
    18
100
AcDbLine
 10
1.679897999999999
 20
6.320024
 30
0.0
 11
1.679897999999999
 21
6.303169
 31
0.0
  0
LINE
  5
10C
330
B
100
AcDbEntity
 67
     1
  8
1
  6
Continuous
 62
    18
100
AcDbLine
 10
1.529898
 20
4.794779
 30
0.0
 11
1.529898
 21
4.787708
 31
0.0
  0
LINE
  5
10D
330
B
100
AcDbEntity
 67
     1
  8
1
  6
Continuous
 62
    18
100
AcDbLine
 10
2.505536999999999
 20
5.891873999999999
 30
0.0
 11
2.500966
 21
5.891873999999999
 31
0.0
  0
LINE
  5
10E
330
B
100
AcDbEntity
 67
     1
  8
1
  6
Continuous
 62
    18
100
AcDbLine
 10
1.961916
 20
3.936505
 30
0.0
 11
2.068281
 21
3.936505
 31
0.0
  0
LINE
  5
10F
330
B
100
AcDbEntity
 67
     1
  8
1
  6
Continuous
 62
    18
100
AcDbLine
 10
1.549306999999999
 20
4.834584999999999
 30
0.0
 11
1.5456
 21
4.831125
 31
0.0
  0
LINE
  5
110
330
B
100
AcDbEntity
 67
     1
  8
1
  6
Continuous
 62
    18
100
AcDbLine
 10
1.699897999999999
 20
6.342916
 30
0.0
 11
1.729897999999999
 21
6.342916
 31
0.0
  0
LINE
  5
111
330
B
100
AcDbEntity
 67
     1
  8
1
  6
Continuous
 62
    18
100
AcDbLine
 10
1.579579
 20
4.549882
 30
0.0
 11
1.582398999999999
 21
4.549882
 31
0.0
  0
LINE
  5
112
330
B
100
AcDbEntity
 67
     1
  8
1
  6
Continuous
 62
    18
100
AcDbLine
 10
1.571973999999999
 20
6.737966
 30
0.0
 11
1.567005999999999
 21
6.735908999999999
 31
0.0
  0
LINE
  5
113
330
B
100
AcDbEntity
 67
     1
  8
1
  6
Continuous
 62
    18
100
AcDbLine
 10
1.549776
 20
6.637652
 30
0.0
 11
1.553621999999999
 21
6.634632
 31
0.0
  0
LINE
  5
114
330
B
100
AcDbEntity
 67
     1
  8
1
  6
Continuous
 62
    18
100
AcDbLine
 10
2.271835999999999
 20
4.237824999999999
 30
0.0
 11
2.181651
 21
4.237824999999999
 31
0.0
  0
LINE
  5
115
330
B
100
AcDbEntity
 67
     1
  8
1
  6
Continuous
 62
    18
100
AcDbLine
 10
1.571973999999999
 20
4.847814999999999
 30
0.0
 11
1.567005999999999
 21
4.845758
 31
0.0
  0
LINE
  5
116
330
B
100
AcDbEntity
 67
     1
  8
1
  6
Continuous
 62
    18
100
AcDbLine
 10
1.535606999999999
 20
6.705225
 30
0.0
 11
1.529898
 21
6.684930999999999
 31
0.0
  0
LINE
  5
117
330
B
100
AcDbEntity
 67
     1
  8
1
  6
Continuous
 62
    18
100
AcDbLine
 10
3.988521
 20
4.385188999999999
 30
0.0
 11
3.996294
 21
4.385188999999999
 31
0.0
  0
LINE
  5
118
330
B
100
AcDbEntity
 67
     1
  8
1
  6
Continuous
 62
    18
100
AcDbLine
 10
2.123104
 20
4.255541
 30
0.0
 11
2.180166999999999
 21
4.255541
 31
0.0
  0
LINE
  5
119
330
B
100
AcDbEntity
 67
     1
  8
1
  6
Continuous
 62
    18
100
AcDbLine
 10
1.672398
 20
4.476581999999999
 30
0.0
 11
1.672225
 21
4.476581999999999
 31
0.0
  0
LINE
  5
11A
330
B
100
AcDbEntity
 67
     1
  8
1
  6
Continuous
 62
    18
100
AcDbLine
 10
2.455236
 20
6.139189
 30
0.0
 11
2.460928
 21
6.146962999999999
 31
0.0
  0
LINE
  5
11B
330
B
100
AcDbEntity
 67
     1
  8
1
  6
Continuous
 62
    18
100
AcDbLine
 10
1.582378
 20
6.741164
 30
0.0
 11
1.577116
 21
6.739721
 31
0.0
  0
LINE
  5
11C
330
B
100
AcDbEntity
 67
     1
  8
1
  6
Continuous
 62
    18
100
AcDbLine
 10
1.70642
 20
6.296983999999999
 30
0.0
 11
1.736420999999999
 21
6.296983999999999
 31
0.0
  0
LINE
  5
11D
330
B
100
AcDbEntity
 67
     1
  8
1
  6
Continuous
 62
    18
100
AcDbLine
 10
1.535444
 20
4.765219999999999
 30
0.0
 11
1.537639999999999
 21
4.761373999999999
 31
0.0
  0
LINE
  5
11E
330
B
100
AcDbEntity
 67
     1
  8
1
  6
Continuous
 62
    18
100
AcDbLine
 10
1.679897
 20
6.334912999999999
 30
0.0
 11
1.672724
 21
6.334912999999999
 31
0.0
  0
LINE
  5
11F
330
B
100
AcDbEntity
 67
     1
  8
1
  6
Continuous
 62
    18
100
AcDbLine
 10
2.211898
 20
4.491927999999999
 30
0.0
 11
2.211898
 21
4.496833
 31
0.0
  0
LINE
  5
120
330
B
100
AcDbEntity
 67
     1
  8
1
  6
Continuous
 62
    18
100
AcDbLine
 10
1.531357999999999
 20
6.696680999999999
 30
0.0
 11
1.530461999999999
 21
6.692234
 31
0.0
  0
LINE
  5
121
330
B
100
AcDbEntity
 67
     1
  8
1
  6
Continuous
 62
    18
100
AcDbLine
 10
1.584887
 20
6.751750999999999
 30
0.0
 11
1.604940999999999
 21
6.739541
 31
0.0
  0
LINE
  5
122
330
B
100
AcDbEntity
 67
     1
  8
1
  6
Continuous
 62
    18
100
AcDbLine
 10
4.360587999999999
 20
4.534838999999999
 30
0.0
 11
4.332675
 21
4.545224
 31
0.0
  0
LINE
  5
123
330
B
100
AcDbEntity
 67
     1
  8
1
  6
Continuous
 62
    18
100
AcDbLine
 10
1.530998999999999
 20
6.667675
 30
0.0
 11
1.532137999999999
 21
6.663469
 31
0.0
  0
LINE
  5
124
330
B
100
AcDbEntity
 67
     1
  8
1
  6
Continuous
 62
    18
100
AcDbLine
 10
2.211898
 20
6.357472
 30
0.0
 11
2.211898
 21
6.350792
 31
0.0
  0
LINE
  5
125
330
B
100
AcDbEntity
 67
     1
  8
1
  6
Continuous
 62
    18
100
AcDbLine
 10
1.583849999999999
 20
4.772991
 30
0.0
 11
1.566006999999999
 21
4.781422
 31
0.0
  0
LINE
  5
126
330
B
100
AcDbEntity
 67
     1
  8
1
  6
Continuous
 62
    18
100
AcDbLine
 10
2.462917
 20
4.918639999999999
 30
0.0
 11
2.449383
 21
4.936339
 31
0.0
  0
LINE
  5
127
330
B
100
AcDbEntity
 67
     1
  8
1
  6
Continuous
 62
    18
100
AcDbLine
 10
1.68312
 20
6.609866
 30
0.0
 11
1.684288999999999
 21
6.608569
 31
0.0
  0
LINE
  5
128
330
B
100
AcDbEntity
 67
     1
  8
1
  6
Continuous
 62
    18
100
AcDbLine
 10
2.359974999999999
 20
4.514623999999999
 30
0.0
 11
2.363077999999999
 21
4.519383
 31
0.0
  0
LINE
  5
129
330
B
100
AcDbEntity
 67
     1
  8
1
  6
Continuous
 62
    18
100
AcDbLine
 10
4.7637
 20
4.937745999999999
 30
0.0
 11
4.7785
 21
4.952037
 31
0.0
  0
LINE
  5
12A
330
B
100
AcDbEntity
 67
     1
  8
1
  6
Continuous
 62
    18
100
AcDbLine
 10
1.674512
 20
4.540251999999999
 30
0.0
 11
1.672186999999999
 21
4.540251999999999
 31
0.0
  0
LINE
  5
12B
330
B
100
AcDbEntity
 67
     1
  8
1
  6
Continuous
 62
    18
100
AcDbLine
 10
1.566006999999999
 20
6.636217999999999
 30
0.0
 11
1.554084
 21
6.648835
 31
0.0
  0
LINE
  5
12C
330
B
100
AcDbEntity
 67
     1
  8
1
  6
Continuous
 62
    18
100
AcDbLine
 10
1.611152
 20
4.734675
 30
0.0
 11
1.604897999999999
 21
4.734675
 31
0.0
  0
LINE
  5
12D
330
B
100
AcDbEntity
 67
     1
  8
1
  6
Continuous
 62
    18
100
AcDbLine
 10
1.593128
 20
6.743525999999999
 30
0.0
 11
1.5978
 21
6.740666
 31
0.0
  0
LINE
  5
12E
330
B
100
AcDbEntity
 67
     1
  8
1
  6
Continuous
 62
    18
100
AcDbLine
 10
5.673383999999999
 20
4.188890999999999
 30
0.0
 11
5.679667
 21
4.368802999999999
 31
0.0
  0
LINE
  5
12F
330
B
100
AcDbEntity
 67
     1
  8
1
  6
Continuous
 62
    18
100
AcDbLine
 10
1.576196999999999
 20
6.733927
 30
0.0
 11
1.604897999999999
 21
6.737963999999999
 31
0.0
  0
LINE
  5
130
330
B
100
AcDbEntity
 67
     1
  8
1
  6
Continuous
 62
    18
100
AcDbLine
 10
1.604897999999999
 20
4.853671
 30
0.0
 11
1.604897999999999
 21
4.852147
 31
0.0
  0
LINE
  5
131
330
B
100
AcDbEntity
 67
     1
  8
1
  6
Continuous
 62
    18
100
AcDbLine
 10
1.570629999999999
 20
6.767417999999999
 30
0.0
 11
1.584887
 21
6.751750999999999
 31
0.0
  0
LINE
  5
132
330
B
100
AcDbEntity
 67
     1
  8
1
  6
Continuous
 62
    18
100
AcDbLine
 10
3.763855
 20
4.033174999999999
 30
0.0
 11
3.760358999999999
 21
4.024891
 31
0.0
  0
LINE
  5
133
330
B
100
AcDbEntity
 67
     1
  8
1
  6
Continuous
 62
    18
100
AcDbLine
 10
1.673372999999999
 20
6.194568
 30
0.0
 11
2.357311
 21
6.194568
 31
0.0
  0
LINE
  5
134
330
B
100
AcDbEntity
 67
     1
  8
1
  6
Continuous
 62
    18
100
AcDbLine
 10
2.447582
 20
4.385188999999999
 30
0.0
 11
2.447582
 21
4.521325
 31
0.0
  0
LINE
  5
135
330
B
100
AcDbEntity
 67
     1
  8
1
  6
Continuous
 62
    18
100
AcDbLine
 10
1.534461999999999
 20
4.81524
 30
0.0
 11
1.532687999999999
 21
4.810891
 31
0.0
  0
LINE
  5
136
330
B
100
AcDbEntity
 67
     1
  8
1
  6
Continuous
 62
    18
100
AcDbLine
 10
1.604897999999999
 20
6.71675
 30
0.0
 11
1.604897999999999
 21
6.702608
 31
0.0
  0
LINE
  5
137
330
B
100
AcDbEntity
 67
     1
  8
1
  6
Continuous
 62
    18
100
AcDbLine
 10
1.692277999999999
 20
4.730533
 30
0.0
 11
1.70642
 21
4.734675
 31
0.0
  0
LINE
  5
138
330
B
100
AcDbEntity
 67
     1
  8
1
  6
Continuous
 62
    18
100
AcDbLine
 10
1.679897999999999
 20
6.369883999999999
 30
0.0
 11
1.679897999999999
 21
6.370762
 31
0.0
  0
LINE
  5
139
330
B
100
AcDbEntity
 67
     1
  8
1
  6
Continuous
 62
    18
100
AcDbLine
 10
1.542220999999999
 20
6.717564999999999
 30
0.0
 11
1.539239
 21
6.713677999999999
 31
0.0
  0
LINE
  5
13A
330
B
100
AcDbEntity
 67
     1
  8
1
  6
Continuous
 62
    18
100
AcDbLine
 10
2.447582
 20
4.385188999999999
 30
0.0
 11
2.455236
 21
4.385188999999999
 31
0.0
  0
LINE
  5
13B
330
B
100
AcDbEntity
 67
     1
  8
1
  6
Continuous
 62
    18
100
AcDbLine
 10
5.660452999999999
 20
4.024891
 30
0.0
 11
5.656958
 21
4.033174999999999
 31
0.0
  0
LINE
  5
13C
330
B
100
AcDbEntity
 67
     1
  8
1
  6
Continuous
 62
    18
100
AcDbLine
 10
1.583849999999999
 20
4.844851999999999
 30
0.0
 11
1.566006999999999
 21
4.836420999999999
 31
0.0
  0
LINE
  5
13D
330
B
100
AcDbEntity
 67
     1
  8
1
  6
Continuous
 62
    18
100
AcDbLine
 10
1.674661999999999
 20
4.424509999999999
 30
0.0
 11
1.674661999999999
 21
4.411985999999999
 31
0.0
  0
LINE
  5
13E
330
B
100
AcDbEntity
 67
     1
  8
1
  6
Continuous
 62
    18
100
AcDbLine
 10
2.344397999999999
 20
6.71675
 30
0.0
 11
2.33854
 21
6.70675
 31
0.0
  0
LINE
  5
13F
330
B
100
AcDbEntity
 67
     1
  8
1
  6
Continuous
 62
    18
100
AcDbLine
 10
1.696370999999999
 20
4.687256999999999
 30
0.0
 11
1.689086
 21
4.697581999999999
 31
0.0
  0
LINE
  5
140
330
B
100
AcDbEntity
 67
     1
  8
1
  6
Continuous
 62
    18
100
AcDbLine
 10
4.882117
 20
4.876647
 30
0.0
 11
4.878544999999999
 21
4.872948
 31
0.0
  0
LINE
  5
141
330
B
100
AcDbEntity
 67
     1
  8
1
  6
Continuous
 62
    18
100
AcDbLine
 10
1.729897999999999
 20
4.437962999999999
 30
0.0
 11
1.729897999999999
 21
4.458899999999999
 31
0.0
  0
LINE
  5
142
330
B
100
AcDbEntity
 67
     1
  8
1
  6
Continuous
 62
    18
100
AcDbLine
 10
5.679605999999999
 20
4.380813999999999
 30
0.0
 11
5.679605999999999
 21
4.385023999999999
 31
0.0
  0
LINE
  5
143
330
B
100
AcDbEntity
 67
     1
  8
1
  6
Continuous
 62
    18
100
AcDbLine
 10
1.679897999999999
 20
6.381858
 30
0.0
 11
1.674950999999999
 21
6.381858
 31
0.0
  0
LINE
  5
144
330
B
100
AcDbEntity
 67
     1
  8
1
  6
Continuous
 62
    18
100
AcDbLine
 10
1.692277999999999
 20
4.730533
 30
0.0
 11
1.70642
 21
4.734675
 31
0.0
  0
LINE
  5
145
330
B
100
AcDbEntity
 67
     1
  8
1
  6
Continuous
 62
    18
100
AcDbLine
 10
1.592530999999999
 20
4.729605999999999
 30
0.0
 11
1.598009
 21
4.729060999999999
 31
0.0
  0
LINE
  5
146
330
B
100
AcDbEntity
 67
     1
  8
1
  6
Continuous
 62
    18
100
AcDbLine
 10
1.677674999999999
 20
6.613888
 30
0.0
 11
1.679807
 21
6.612574999999999
 31
0.0
  0
LINE
  5
147
330
B
100
AcDbEntity
 67
     1
  8
1
  6
Continuous
 62
    18
100
AcDbLine
 10
1.655511999999999
 20
6.729133
 30
0.0
 11
2.366291999999999
 21
6.729133
 31
0.0
  0
LINE
  5
148
330
B
100
AcDbEntity
 67
     1
  8
1
  6
Continuous
 62
    18
100
AcDbLine
 10
1.627303
 20
7.524035999999999
 30
0.0
 11
1.637670999999999
 21
7.310450999999999
 31
0.0
  0
LINE
  5
149
330
B
100
AcDbEntity
 67
     1
  8
1
  6
Continuous
 62
    18
100
AcDbLine
 10
1.671408999999999
 20
6.401074999999999
 30
0.0
 11
1.674512
 21
6.403817
 31
0.0
  0
LINE
  5
14A
330
B
100
AcDbEntity
 67
     1
  8
1
  6
Continuous
 62
    18
100
AcDbLine
 10
1.524599
 20
7.830335
 30
0.0
 11
1.524599
 21
5.891812999999999
 31
0.0
  0
LINE
  5
14B
330
B
100
AcDbEntity
 67
     1
  8
1
  6
Continuous
 62
    18
100
AcDbLine
 10
1.70642
 20
4.491927999999999
 30
0.0
 11
1.70642
 21
4.478283
 31
0.0
  0
LINE
  5
14C
330
B
100
AcDbEntity
 67
     1
  8
1
  6
Continuous
 62
    18
100
AcDbLine
 10
1.644427
 20
4.195376
 30
0.0
 11
1.630017
 21
4.195376
 31
0.0
  0
LINE
  5
14D
330
B
100
AcDbEntity
 67
     1
  8
1
  6
Continuous
 62
    18
100
AcDbLine
 10
2.272197
 20
4.258541
 30
0.0
 11
2.181289
 21
4.258541
 31
0.0
  0
LINE
  5
14E
330
B
100
AcDbEntity
 67
     1
  8
1
  6
Continuous
 62
    18
100
AcDbLine
 10
1.696370999999999
 20
4.718782
 30
0.0
 11
1.696370999999999
 21
4.658536999999999
 31
0.0
  0
LINE
  5
14F
330
B
100
AcDbEntity
 67
     1
  8
1
  6
Continuous
 62
    18
100
AcDbLine
 10
1.674512
 20
4.733271
 30
0.0
 11
1.674508
 21
4.733462
 31
0.0
  0
LINE
  5
150
330
B
100
AcDbEntity
 67
     1
  8
1
  6
Continuous
 62
    18
100
AcDbLine
 10
1.679897999999999
 20
6.342916
 30
0.0
 11
1.679897999999999
 21
6.320024
 31
0.0
  0
LINE
  5
151
330
B
100
AcDbEntity
 67
     1
  8
1
  6
Continuous
 62
    18
100
AcDbLine
 10
2.324397999999999
 20
4.853671
 30
0.0
 11
2.324397999999999
 21
4.852148
 31
0.0
  0
LINE
  5
152
330
B
100
AcDbEntity
 67
     1
  8
1
  6
Continuous
 62
    18
100
AcDbLine
 10
1.68642
 20
6.522353999999999
 30
0.0
 11
1.68642
 21
6.529424999999999
 31
0.0
  0
LINE
  5
153
330
B
100
AcDbEntity
 67
     1
  8
1
  6
Continuous
 62
    18
100
AcDbLine
 10
1.582854
 20
6.316201
 30
0.0
 11
1.583138999999999
 21
6.292685999999999
 31
0.0
  0
LINE
  5
154
330
B
100
AcDbEntity
 67
     1
  8
1
  6
Continuous
 62
    18
100
AcDbLine
 10
1.655511999999999
 20
6.812503999999999
 30
0.0
 11
1.655511999999999
 21
6.835755
 31
0.0
  0
LINE
  5
155
330
B
100
AcDbEntity
 67
     1
  8
1
  6
Continuous
 62
    18
100
AcDbLine
 10
2.357568999999999
 20
6.311653999999999
 30
0.0
 11
2.261897999999999
 21
6.311653999999999
 31
0.0
  0
LINE
  5
156
330
B
100
AcDbEntity
 67
     1
  8
1
  6
Continuous
 62
    18
100
AcDbLine
 10
1.68642
 20
6.371614
 30
0.0
 11
1.68642
 21
6.522353999999999
 31
0.0
  0
LINE
  5
157
330
B
100
AcDbEntity
 67
     1
  8
1
  6
Continuous
 62
    18
100
AcDbLine
 10
1.68312
 20
4.719714999999999
 30
0.0
 11
1.684288999999999
 21
4.718417999999999
 31
0.0
  0
LINE
  5
158
330
B
100
AcDbEntity
 67
     1
  8
1
  6
Continuous
 62
    18
100
AcDbLine
 10
1.756615
 20
4.237824999999999
 30
0.0
 11
1.756252999999999
 21
4.258541
 31
0.0
  0
LINE
  5
159
330
B
100
AcDbEntity
 67
     1
  8
1
  6
Continuous
 62
    18
100
AcDbLine
 10
2.359408999999999
 20
4.547029
 30
0.0
 11
2.366291999999999
 21
4.549881
 31
0.0
  0
LINE
  5
15A
330
B
100
AcDbEntity
 67
     1
  8
1
  6
Continuous
 62
    18
100
AcDbLine
 10
1.664372
 20
6.400044
 30
0.0
 11
1.655511999999999
 21
6.400044
 31
0.0
  0
LINE
  5
15B
330
B
100
AcDbEntity
 67
     1
  8
1
  6
Continuous
 62
    18
100
AcDbLine
 10
2.358632
 20
6.341065
 30
0.0
 11
2.356306
 21
6.403817
 31
0.0
  0
LINE
  5
15C
330
B
100
AcDbEntity
 67
     1
  8
1
  6
Continuous
 62
    18
100
AcDbLine
 10
1.756252999999999
 20
4.258541
 30
0.0
 11
1.755077999999999
 21
4.258541
 31
0.0
  0
LINE
  5
15D
330
B
100
AcDbEntity
 67
     1
  8
1
  6
Continuous
 62
    18
100
AcDbLine
 10
2.50114
 20
7.840867999999999
 30
0.0
 11
2.490545999999999
 21
7.845264999999999
 31
0.0
  0
LINE
  5
15E
330
B
100
AcDbEntity
 67
     1
  8
1
  6
Continuous
 62
    18
100
AcDbLine
 10
1.529898
 20
6.677734
 30
0.0
 11
1.535555999999999
 21
6.698067999999999
 31
0.0
  0
LINE
  5
15F
330
B
100
AcDbEntity
 67
     1
  8
1
  6
Continuous
 62
    18
100
AcDbLine
 10
1.908366999999999
 20
4.266912999999999
 30
0.0
 11
1.915724999999999
 21
4.056283
 31
0.0
  0
LINE
  5
160
330
B
100
AcDbEntity
 67
     1
  8
1
  6
Continuous
 62
    18
100
AcDbLine
 10
1.661013
 20
4.536819
 30
0.0
 11
1.661470999999999
 21
4.546559999999999
 31
0.0
  0
LINE
  5
161
330
B
100
AcDbEntity
 67
     1
  8
1
  6
Continuous
 62
    18
100
AcDbLine
 10
1.674238
 20
6.36981
 30
0.0
 11
1.675394999999999
 21
6.388325
 31
0.0
  0
LINE
  5
162
330
B
100
AcDbEntity
 67
     1
  8
1
  6
Continuous
 62
    18
100
AcDbLine
 10
2.363077999999999
 20
4.385188999999999
 30
0.0
 11
2.359974999999999
 21
4.385188999999999
 31
0.0
  0
LINE
  5
163
330
B
100
AcDbEntity
 67
     1
  8
1
  6
Continuous
 62
    18
100
AcDbLine
 10
1.70642
 20
4.458872
 30
0.0
 11
1.70642
 21
4.478283
 31
0.0
  0
LINE
  5
164
330
B
100
AcDbEntity
 67
     1
  8
1
  6
Continuous
 62
    18
100
AcDbLine
 10
1.673265999999999
 20
4.398428
 30
0.0
 11
1.673879
 21
4.4032
 31
0.0
  0
LINE
  5
165
330
B
100
AcDbEntity
 67
     1
  8
1
  6
Continuous
 62
    18
100
AcDbLine
 10
2.468249
 20
6.511737
 30
0.0
 11
2.468231
 21
6.511255999999999
 31
0.0
  0
LINE
  5
166
330
B
100
AcDbEntity
 67
     1
  8
1
  6
Continuous
 62
    18
100
AcDbLine
 10
1.674661999999999
 20
4.411985999999999
 30
0.0
 11
2.356157
 21
4.411985999999999
 31
0.0
  0
LINE
  5
167
330
B
100
AcDbEntity
 67
     1
  8
1
  6
Continuous
 62
    18
100
AcDbLine
 10
1.699722
 20
6.607149
 30
0.0
 11
1.70642
 21
6.589471
 31
0.0
  0
LINE
  5
168
330
B
100
AcDbEntity
 67
     1
  8
1
  6
Continuous
 62
    18
100
AcDbLine
 10
2.110381999999999
 20
3.913315
 30
0.0
 11
2.110708999999999
 21
3.916448
 31
0.0
  0
LINE
  5
169
330
B
100
AcDbEntity
 67
     1
  8
1
  6
Continuous
 62
    18
100
AcDbLine
 10
1.549776
 20
4.747501
 30
0.0
 11
1.553621999999999
 21
4.744480999999999
 31
0.0
  0
LINE
  5
16A
330
B
100
AcDbEntity
 67
     1
  8
1
  6
Continuous
 62
    18
100
AcDbLine
 10
2.447582
 20
6.136356
 30
0.0
 11
2.447582
 21
6.272491999999999
 31
0.0
  0
LINE
  5
16B
330
B
100
AcDbEntity
 67
     1
  8
1
  6
Continuous
 62
    18
100
AcDbLine
 10
1.528988
 20
5.881212
 30
0.0
 11
1.524599
 21
5.891812999999999
 31
0.0
  0
LINE
  5
16C
330
B
100
AcDbEntity
 67
     1
  8
1
  6
Continuous
 62
    18
100
AcDbLine
 10
1.699897999999999
 20
6.357472
 30
0.0
 11
1.729897999999999
 21
6.357472
 31
0.0
  0
LINE
  5
16D
330
B
100
AcDbEntity
 67
     1
  8
1
  6
Continuous
 62
    18
100
AcDbLine
 10
1.916928
 20
4.036598999999999
 30
0.0
 11
1.918042999999999
 21
4.036598999999999
 31
0.0
  0
LINE
  5
16E
330
B
100
AcDbEntity
 67
     1
  8
1
  6
Continuous
 62
    18
100
AcDbLine
 10
2.460928
 20
6.146962999999999
 30
0.0
 11
2.463197
 21
6.157682
 31
0.0
  0
LINE
  5
16F
330
B
100
AcDbEntity
 67
     1
  8
1
  6
Continuous
 62
    18
100
AcDbLine
 10
1.642865999999999
 20
4.74228
 30
0.0
 11
1.636824
 21
4.741537
 31
0.0
  0
LINE
  5
170
330
B
100
AcDbEntity
 67
     1
  8
1
  6
Continuous
 62
    18
100
AcDbLine
 10
1.70642
 20
6.357472
 30
0.0
 11
1.70642
 21
6.350792
 31
0.0
  0
LINE
  5
171
330
B
100
AcDbEntity
 67
     1
  8
1
  6
Continuous
 62
    18
100
AcDbLine
 10
1.570629999999999
 20
6.767417999999999
 30
0.0
 11
1.570629999999999
 21
6.737275
 31
0.0
  0
LINE
  5
172
330
B
100
AcDbEntity
 67
     1
  8
1
  6
Continuous
 62
    18
100
AcDbLine
 10
1.529898
 20
6.684930999999999
 30
0.0
 11
1.529898
 21
6.677858999999999
 31
0.0
  0
LINE
  5
173
330
B
100
AcDbEntity
 67
     1
  8
1
  6
Continuous
 62
    18
100
AcDbLine
 10
1.756177999999999
 20
4.195541
 30
0.0
 11
1.718423
 21
4.195541
 31
0.0
  0
LINE
  5
174
330
B
100
AcDbEntity
 67
     1
  8
1
  6
Continuous
 62
    18
100
AcDbLine
 10
2.121916999999999
 20
4.222744
 30
0.0
 11
2.179403999999999
 21
4.222744
 31
0.0
  0
LINE
  5
175
330
B
100
AcDbEntity
 67
     1
  8
1
  6
Continuous
 62
    18
100
AcDbLine
 10
1.664525999999999
 20
4.742899999999999
 30
0.0
 11
1.655511999999999
 21
4.742899999999999
 31
0.0
  0
LINE
  5
176
330
B
100
AcDbEntity
 67
     1
  8
1
  6
Continuous
 62
    18
100
AcDbLine
 10
2.490545999999999
 20
4.370547
 30
0.0
 11
2.490545999999999
 21
4.380813999999999
 31
0.0
  0
LINE
  5
177
330
B
100
AcDbEntity
 67
     1
  8
1
  6
Continuous
 62
    18
100
AcDbLine
 10
1.573939
 20
4.707921999999999
 30
0.0
 11
1.571066
 21
4.703768
 31
0.0
  0
LINE
  5
178
330
B
100
AcDbEntity
 67
     1
  8
1
  6
Continuous
 62
    18
100
AcDbLine
 10
1.679897999999999
 20
6.378684999999999
 30
0.0
 11
1.679897999999999
 21
6.371614
 31
0.0
  0
LINE
  5
179
330
B
100
AcDbEntity
 67
     1
  8
1
  6
Continuous
 62
    18
100
AcDbLine
 10
1.736420999999999
 20
6.350792
 30
0.0
 11
1.736420999999999
 21
6.342916
 31
0.0
  0
LINE
  5
17A
330
B
100
AcDbEntity
 67
     1
  8
1
  6
Continuous
 62
    18
100
AcDbLine
 10
1.959979999999999
 20
3.993401
 30
0.0
 11
1.961916
 21
3.936505
 31
0.0
  0
LINE
  5
17B
330
B
100
AcDbEntity
 67
     1
  8
1
  6
Continuous
 62
    18
100
AcDbLine
 10
2.344397999999999
 20
6.71675
 30
0.0
 11
2.344397999999999
 21
6.377339
 31
0.0
  0
LINE
  5
17C
330
B
100
AcDbEntity
 67
     1
  8
1
  6
Continuous
 62
    18
100
AcDbLine
 10
1.909267999999999
 20
4.195541
 30
0.0
 11
1.848572
 21
4.195541
 31
0.0
  0
LINE
  5
17D
330
B
100
AcDbEntity
 67
     1
  8
1
  6
Continuous
 62
    18
100
AcDbLine
 10
1.567005999999999
 20
4.845758
 30
0.0
 11
1.562216
 21
4.843395
 31
0.0
  0
LINE
  5
17E
330
B
100
AcDbEntity
 67
     1
  8
1
  6
Continuous
 62
    18
100
AcDbLine
 10
3.996294
 20
4.385188999999999
 30
0.0
 11
4.007013999999999
 21
4.385188999999999
 31
0.0
  0
LINE
  5
17F
330
B
100
AcDbEntity
 67
     1
  8
1
  6
Continuous
 62
    18
100
AcDbLine
 10
1.655511999999999
 20
4.742138999999999
 30
0.0
 11
1.655511999999999
 21
4.742899999999999
 31
0.0
  0
LINE
  5
180
330
B
100
AcDbEntity
 67
     1
  8
1
  6
Continuous
 62
    18
100
AcDbLine
 10
1.672398
 20
4.476581999999999
 30
0.0
 11
1.678892999999999
 21
4.47393
 31
0.0
  0
LINE
  5
181
330
B
100
AcDbEntity
 67
     1
  8
1
  6
Continuous
 62
    18
100
AcDbLine
 10
1.577116
 20
6.739721
 30
0.0
 11
1.571973999999999
 21
6.737966
 31
0.0
  0
LINE
  5
182
330
B
100
AcDbEntity
 67
     1
  8
1
  6
Continuous
 62
    18
100
AcDbLine
 10
2.359309999999999
 20
4.385188999999999
 30
0.0
 11
2.359297999999999
 21
4.385023999999999
 31
0.0
  0
LINE
  5
183
330
B
100
AcDbEntity
 67
     1
  8
1
  6
Continuous
 62
    18
100
AcDbLine
 10
5.36559
 20
4.394473999999999
 30
0.0
 11
5.356304999999999
 21
4.385188999999999
 31
0.0
  0
LINE
  5
184
330
B
100
AcDbEntity
 67
     1
  8
1
  6
Continuous
 62
    18
100
AcDbLine
 10
1.598716999999999
 20
4.853475
 30
0.0
 11
1.59321
 21
4.852966999999999
 31
0.0
  0
LINE
  5
185
330
B
100
AcDbEntity
 67
     1
  8
1
  6
Continuous
 62
    18
100
AcDbLine
 10
2.211898
 20
6.303169
 30
0.0
 11
2.211898
 21
6.296983999999999
 31
0.0
  0
LINE
  5
186
330
B
100
AcDbEntity
 67
     1
  8
1
  6
Continuous
 62
    18
100
AcDbLine
 10
1.549306999999999
 20
4.834584999999999
 30
0.0
 11
1.5456
 21
4.831125
 31
0.0
  0
LINE
  5
187
330
B
100
AcDbEntity
 67
     1
  8
1
  6
Continuous
 62
    18
100
AcDbLine
 10
1.672398
 20
6.327841999999999
 30
0.0
 11
1.678892999999999
 21
6.32519
 31
0.0
  0
LINE
  5
188
330
B
100
AcDbEntity
 67
     1
  8
1
  6
Continuous
 62
    18
100
AcDbLine
 10
2.211898
 20
4.502676
 30
0.0
 11
2.211898
 21
4.498486999999999
 31
0.0
  0
LINE
  5
189
330
B
100
AcDbEntity
 67
     1
  8
1
  6
Continuous
 62
    18
100
AcDbLine
 10
1.530461999999999
 20
6.692234
 30
0.0
 11
1.530076
 21
6.688521999999999
 31
0.0
  0
LINE
  5
18A
330
B
100
AcDbEntity
 67
     1
  8
1
  6
Continuous
 62
    18
100
AcDbLine
 10
2.447582
 20
4.521325
 30
0.0
 11
2.447678999999999
 21
4.536819
 31
0.0
  0
LINE
  5
18B
330
B
100
AcDbEntity
 67
     1
  8
1
  6
Continuous
 62
    18
100
AcDbLine
 10
1.679897999999999
 20
4.496833
 30
0.0
 11
1.679897999999999
 21
4.498486999999999
 31
0.0
  0
LINE
  5
18C
330
B
100
AcDbEntity
 67
     1
  8
1
  6
Continuous
 62
    18
100
AcDbLine
 10
4.332675
 20
4.545224
 30
0.0
 11
4.304962
 21
4.549882
 31
0.0
  0
LINE
  5
18D
330
B
100
AcDbEntity
 67
     1
  8
1
  6
Continuous
 62
    18
100
AcDbLine
 10
1.679807
 20
6.612574999999999
 30
0.0
 11
1.681625999999999
 21
6.611219
 31
0.0
  0
LINE
  5
18E
330
B
100
AcDbEntity
 67
     1
  8
1
  6
Continuous
 62
    18
100
AcDbLine
 10
2.357568999999999
 20
4.482162999999999
 30
0.0
 11
2.357350999999999
 21
4.466175999999999
 31
0.0
  0
LINE
  5
18F
330
B
100
AcDbEntity
 67
     1
  8
1
  6
Continuous
 62
    18
100
AcDbLine
 10
2.211898
 20
6.350792
 30
0.0
 11
2.211898
 21
6.342916
 31
0.0
  0
LINE
  5
190
330
B
100
AcDbEntity
 67
     1
  8
1
  6
Continuous
 62
    18
100
AcDbLine
 10
1.566006999999999
 20
4.781422
 30
0.0
 11
1.554084
 21
4.794038999999999
 31
0.0
  0
LINE
  5
191
330
B
100
AcDbEntity
 67
     1
  8
1
  6
Continuous
 62
    18
100
AcDbLine
 10
1.684288999999999
 20
6.608569
 30
0.0
 11
1.685166999999999
 21
6.607346
 31
0.0
  0
LINE
  5
192
330
B
100
AcDbEntity
 67
     1
  8
1
  6
Continuous
 62
    18
100
AcDbLine
 10
4.7785
 20
4.952037
 30
0.0
 11
4.788319999999999
 21
4.960904
 31
0.0
  0
LINE
  5
193
330
B
100
AcDbEntity
 67
     1
  8
1
  6
Continuous
 62
    18
100
AcDbLine
 10
1.675288
 20
4.724946
 30
0.0
 11
1.677674999999999
 21
4.723736999999999
 31
0.0
  0
LINE
  5
194
330
B
100
AcDbEntity
 67
     1
  8
1
  6
Continuous
 62
    18
100
AcDbLine
 10
2.428913999999999
 20
6.824528999999999
 30
0.0
 11
2.403425999999999
 21
6.815582
 31
0.0
  0
LINE
  5
195
330
B
100
AcDbEntity
 67
     1
  8
1
  6
Continuous
 62
    18
100
AcDbLine
 10
1.604897999999999
 20
4.734675
 30
0.0
 11
1.604897999999999
 21
4.733068
 31
0.0
  0
LINE
  5
196
330
B
100
AcDbEntity
 67
     1
  8
1
  6
Continuous
 62
    18
100
AcDbLine
 10
1.670843
 20
6.149758
 30
0.0
 11
1.671766999999999
 21
6.174685
 31
0.0
  0
LINE
  5
197
330
B
100
AcDbEntity
 67
     1
  8
1
  6
Continuous
 62
    18
100
AcDbLine
 10
1.5978
 20
6.740666
 30
0.0
 11
1.60274
 21
6.738028999999999
 31
0.0
  0
LINE
  5
198
330
B
100
AcDbEntity
 67
     1
  8
1
  6
Continuous
 62
    18
100
AcDbLine
 10
1.535706999999999
 20
6.698324
 30
0.0
 11
1.529898999999999
 21
6.678103999999999
 31
0.0
  0
LINE
  5
199
330
B
100
AcDbEntity
 67
     1
  8
1
  6
Continuous
 62
    18
100
AcDbLine
 10
2.468233999999999
 20
4.900063999999999
 30
0.0
 11
2.468188999999999
 21
4.90125
 31
0.0
  0
LINE
  5
19A
330
B
100
AcDbEntity
 67
     1
  8
1
  6
Continuous
 62
    18
100
AcDbLine
 10
3.741144999999999
 20
4.368802999999999
 30
0.0
 11
5.679667
 21
4.368802999999999
 31
0.0
  0
LINE
  5
19B
330
B
100
AcDbEntity
 67
     1
  8
1
  6
Continuous
 62
    18
100
AcDbLine
 10
1.679897999999999
 20
6.322537999999999
 30
0.0
 11
1.677700999999999
 21
6.326287999999999
 31
0.0
  0
LINE
  5
19C
330
B
100
AcDbEntity
 67
     1
  8
1
  6
Continuous
 62
    18
100
AcDbLine
 10
2.344111999999999
 20
6.726203999999999
 30
0.0
 11
2.344325999999999
 21
6.725017
 31
0.0
  0
LINE
  5
19D
330
B
100
AcDbEntity
 67
     1
  8
1
  6
Continuous
 62
    18
100
AcDbLine
 10
1.604897999999999
 20
4.852147
 30
0.0
 11
1.604897999999999
 21
4.847812999999999
 31
0.0
  0
LINE
  5
19E
330
B
100
AcDbEntity
 67
     1
  8
1
  6
Continuous
 62
    18
100
AcDbLine
 10
1.604897999999999
 20
4.741746
 30
0.0
 11
1.576237
 21
4.745770999999999
 31
0.0
  0
LINE
  5
19F
330
B
100
AcDbEntity
 67
     1
  8
1
  6
Continuous
 62
    18
100
AcDbLine
 10
1.529922
 20
6.676332
 30
0.0
 11
1.530173999999999
 21
6.671985
 31
0.0
  0
LINE
  5
1A0
330
B
100
AcDbEntity
 67
     1
  8
1
  6
Continuous
 62
    18
100
AcDbLine
 10
3.760358999999999
 20
4.024891
 30
0.0
 11
3.763708999999999
 21
4.016545999999999
 31
0.0
  0
LINE
  5
1A1
330
B
100
AcDbEntity
 67
     1
  8
1
  6
Continuous
 62
    18
100
AcDbLine
 10
1.674661999999999
 20
6.292112
 30
0.0
 11
1.67494
 21
6.302108999999999
 31
0.0
  0
LINE
  5
1A2
330
B
100
AcDbEntity
 67
     1
  8
1
  6
Continuous
 62
    18
100
AcDbLine
 10
1.532687999999999
 20
4.810891
 30
0.0
 11
1.531355
 21
4.806530999999999
 31
0.0
  0
LINE
  5
1A3
330
B
100
AcDbEntity
 67
     1
  8
1
  6
Continuous
 62
    18
100
AcDbLine
 10
1.604897999999999
 20
6.730892999999999
 30
0.0
 11
1.576276
 21
6.726878999999999
 31
0.0
  0
LINE
  5
1A4
330
B
100
AcDbEntity
 67
     1
  8
1
  6
Continuous
 62
    18
100
AcDbLine
 10
2.269897999999999
 20
4.508401
 30
0.0
 11
2.269897999999999
 21
4.494726999999999
 31
0.0
  0
LINE
  5
1A5
330
B
100
AcDbEntity
 67
     1
  8
1
  6
Continuous
 62
    18
100
AcDbLine
 10
5.159781999999999
 20
4.608508999999999
 30
0.0
 11
5.156209999999999
 21
4.604809999999999
 31
0.0
  0
LINE
  5
1A6
330
B
100
AcDbEntity
 67
     1
  8
1
  6
Continuous
 62
    18
100
AcDbLine
 10
1.849045999999999
 20
4.222744
 30
0.0
 11
1.848283999999999
 21
4.255541
 31
0.0
  0
LINE
  5
1A7
330
B
100
AcDbEntity
 67
     1
  8
1
  6
Continuous
 62
    18
100
AcDbLine
 10
1.671408999999999
 20
6.592075999999999
 30
0.0
 11
1.664525999999999
 21
6.590133999999999
 31
0.0
  0
LINE
  5
1A8
330
B
100
AcDbEntity
 67
     1
  8
1
  6
Continuous
 62
    18
100
AcDbLine
 10
2.455236
 20
4.385188999999999
 30
0.0
 11
2.460928
 21
4.385188999999999
 31
0.0
  0
LINE
  5
1A9
330
B
100
AcDbEntity
 67
     1
  8
1
  6
Continuous
 62
    18
100
AcDbLine
 10
5.656958
 20
4.033174999999999
 30
0.0
 11
5.648642999999999
 21
4.036598999999999
 31
0.0
  0
LINE
  5
1AA
330
B
100
AcDbEntity
 67
     1
  8
1
  6
Continuous
 62
    18
100
AcDbLine
 10
1.566006999999999
 20
4.836420999999999
 30
0.0
 11
1.554084
 21
4.823803999999999
 31
0.0
  0
LINE
  5
1AB
330
B
100
AcDbEntity
 67
     1
  8
1
  6
Continuous
 62
    18
100
AcDbLine
 10
1.689086
 20
4.697581999999999
 30
0.0
 11
1.68642
 21
4.706519999999999
 31
0.0
  0
LINE
  5
1AC
330
B
100
AcDbEntity
 67
     1
  8
1
  6
Continuous
 62
    18
100
AcDbLine
 10
1.583237
 20
4.521325
 30
0.0
 11
1.583237
 21
4.385188999999999
 31
0.0
  0
LINE
  5
1AD
330
B
100
AcDbEntity
 67
     1
  8
1
  6
Continuous
 62
    18
100
AcDbLine
 10
1.729897999999999
 20
4.458899999999999
 30
0.0
 11
1.729897999999999
 21
4.478298
 31
0.0
  0
LINE
  5
1AE
330
B
100
AcDbEntity
 67
     1
  8
1
  6
Continuous
 62
    18
100
AcDbLine
 10
2.261897999999999
 20
4.42309
 30
0.0
 11
2.261897999999999
 21
4.417117
 31
0.0
  0
LINE
  5
1AF
330
B
100
AcDbEntity
 67
     1
  8
1
  6
Continuous
 62
    18
100
AcDbLine
 10
1.656419999999999
 20
4.742899999999999
 30
0.0
 11
1.656419999999999
 21
4.756673999999999
 31
0.0
  0
LINE
  5
1B0
330
B
100
AcDbEntity
 67
     1
  8
1
  6
Continuous
 62
    18
100
AcDbLine
 10
1.736420999999999
 20
4.420012999999999
 30
0.0
 11
1.736420999999999
 21
4.437926999999999
 31
0.0
  0
LINE
  5
1B1
330
B
100
AcDbEntity
 67
     1
  8
1
  6
Continuous
 62
    18
100
AcDbLine
 10
1.598009
 20
4.729060999999999
 30
0.0
 11
1.599155999999999
 21
4.728985999999999
 31
0.0
  0
LINE
  5
1B2
330
B
100
AcDbEntity
 67
     1
  8
1
  6
Continuous
 62
    18
100
AcDbLine
 10
2.359408999999999
 20
6.401074999999999
 30
0.0
 11
2.366291999999999
 21
6.400043
 31
0.0
  0
LINE
  5
1B3
330
B
100
AcDbEntity
 67
     1
  8
1
  6
Continuous
 62
    18
100
AcDbLine
 10
1.564785999999999
 20
7.506972999999999
 30
0.0
 11
1.583413
 21
7.516258
 31
0.0
  0
LINE
  5
1B4
330
B
100
AcDbEntity
 67
     1
  8
1
  6
Continuous
 62
    18
100
AcDbLine
 10
1.676897999999999
 20
4.701642999999999
 30
0.0
 11
1.674512
 21
4.733271
 31
0.0
  0
LINE
  5
1B5
330
B
100
AcDbEntity
 67
     1
  8
1
  6
Continuous
 62
    18
100
AcDbLine
 10
1.539651
 20
7.830274
 30
0.0
 11
1.539651
 21
7.445955999999999
 31
0.0
  0
LINE
  5
1B6
330
B
100
AcDbEntity
 67
     1
  8
1
  6
Continuous
 62
    18
100
AcDbLine
 10
1.70642
 20
4.478283
 30
0.0
 11
1.70642
 21
4.458872
 31
0.0
  0
LINE
  5
1B7
330
B
100
AcDbEntity
 67
     1
  8
1
  6
Continuous
 62
    18
100
AcDbLine
 10
1.630017
 20
4.195376
 30
0.0
 11
1.624741999999999
 21
4.195376
 31
0.0
  0
LINE
  5
1B8
330
B
100
AcDbEntity
 67
     1
  8
1
  6
Continuous
 62
    18
100
AcDbLine
 10
1.68642
 20
4.706519999999999
 30
0.0
 11
1.68642
 21
4.713591
 31
0.0
  0
LINE
  5
1B9
330
B
100
AcDbEntity
 67
     1
  8
1
  6
Continuous
 62
    18
100
AcDbLine
 10
1.546273999999999
 20
6.640840999999999
 30
0.0
 11
1.549776
 21
6.637652
 31
0.0
  0
LINE
  5
1BA
330
B
100
AcDbEntity
 67
     1
  8
1
  6
Continuous
 62
    18
100
AcDbLine
 10
1.674508
 20
4.733462
 30
0.0
 11
1.674497
 21
4.733652999999999
 31
0.0
  0
LINE
  5
1BB
330
B
100
AcDbEntity
 67
     1
  8
1
  6
Continuous
 62
    18
100
AcDbLine
 10
2.324397999999999
 20
4.852148
 30
0.0
 11
2.324397999999999
 21
4.847812999999999
 31
0.0
  0
LINE
  5
1BC
330
B
100
AcDbEntity
 67
     1
  8
1
  6
Continuous
 62
    18
100
AcDbLine
 10
1.55472
 20
4.743891
 30
0.0
 11
1.536691
 21
4.385188999999999
 31
0.0
  0
LINE
  5
1BD
330
B
100
AcDbEntity
 67
     1
  8
1
  6
Continuous
 62
    18
100
AcDbLine
 10
1.562587
 20
4.534838999999999
 30
0.0
 11
1.567763
 21
4.545224
 31
0.0
  0
LINE
  5
1BE
330
B
100
AcDbEntity
 67
     1
  8
1
  6
Continuous
 62
    18
100
AcDbLine
 10
1.583138999999999
 20
6.292685999999999
 30
0.0
 11
1.583237
 21
6.272491999999999
 31
0.0
  0
LINE
  5
1BF
330
B
100
AcDbEntity
 67
     1
  8
1
  6
Continuous
 62
    18
100
AcDbLine
 10
2.355439
 20
6.370686
 30
0.0
 11
2.356262
 21
6.356830999999999
 31
0.0
  0
LINE
  5
1C0
330
B
100
AcDbEntity
 67
     1
  8
1
  6
Continuous
 62
    18
100
AcDbLine
 10
1.655511999999999
 20
4.962341
 30
0.0
 11
1.627391999999999
 21
4.959262999999999
 31
0.0
  0
LINE
  5
1C1
330
B
100
AcDbEntity
 67
     1
  8
1
  6
Continuous
 62
    18
100
AcDbLine
 10
1.672724
 20
6.334912999999999
 30
0.0
 11
1.679897
 21
6.334912999999999
 31
0.0
  0
LINE
  5
1C2
330
B
100
AcDbEntity
 67
     1
  8
1
  6
Continuous
 62
    18
100
AcDbLine
 10
1.593245999999999
 20
4.306283
 30
0.0
 11
1.589146999999999
 21
4.188890999999999
 31
0.0
  0
LINE
  5
1C3
330
B
100
AcDbEntity
 67
     1
  8
1
  6
Continuous
 62
    18
100
AcDbLine
 10
1.699897999999999
 20
6.357472
 30
0.0
 11
1.699897999999999
 21
6.350792
 31
0.0
  0
LINE
  5
1C4
330
B
100
AcDbEntity
 67
     1
  8
1
  6
Continuous
 62
    18
100
AcDbLine
 10
2.356939
 20
6.249683999999999
 30
0.0
 11
2.357507
 21
6.23055
 31
0.0
  0
LINE
  5
1C5
330
B
100
AcDbEntity
 67
     1
  8
1
  6
Continuous
 62
    18
100
AcDbLine
 10
1.674238
 20
4.513627999999999
 30
0.0
 11
1.675394999999999
 21
4.500937
 31
0.0
  0
LINE
  5
1C6
330
B
100
AcDbEntity
 67
     1
  8
1
  6
Continuous
 62
    18
100
AcDbLine
 10
2.356306
 20
6.726202999999999
 30
0.0
 11
2.356306
 21
6.403817
 31
0.0
  0
LINE
  5
1C7
330
B
100
AcDbEntity
 67
     1
  8
1
  6
Continuous
 62
    18
100
AcDbLine
 10
1.589892
 20
6.609594
 30
0.0
 11
1.575104
 21
6.623363
 31
0.0
  0
LINE
  5
1C8
330
B
100
AcDbEntity
 67
     1
  8
1
  6
Continuous
 62
    18
100
AcDbLine
 10
1.701999999999999
 20
4.420046
 30
0.0
 11
1.701949
 21
4.417117
 31
0.0
  0
LINE
  5
1C9
330
B
100
AcDbEntity
 67
     1
  8
1
  6
Continuous
 62
    18
100
AcDbLine
 10
1.915724999999999
 20
4.056283
 30
0.0
 11
2.114472
 21
4.056283
 31
0.0
  0
LINE
  5
1CA
330
B
100
AcDbEntity
 67
     1
  8
1
  6
Continuous
 62
    18
100
AcDbLine
 10
2.261897999999999
 20
6.290693
 30
0.0
 11
2.261897999999999
 21
6.28472
 31
0.0
  0
LINE
  5
1CB
330
B
100
AcDbEntity
 67
     1
  8
1
  6
Continuous
 62
    18
100
AcDbLine
 10
1.686409
 20
4.713855
 30
0.0
 11
1.68642
 21
4.713461999999999
 31
0.0
  0
LINE
  5
1CC
330
B
100
AcDbEntity
 67
     1
  8
1
  6
Continuous
 62
    18
100
AcDbLine
 10
1.70642
 20
4.478283
 30
0.0
 11
1.70642
 21
4.491927999999999
 31
0.0
  0
LINE
  5
1CD
330
B
100
AcDbEntity
 67
     1
  8
1
  6
Continuous
 62
    18
100
AcDbLine
 10
1.529922
 20
6.676332
 30
0.0
 11
1.530184
 21
6.671985
 31
0.0
  0
LINE
  5
1CE
330
B
100
AcDbEntity
 67
     1
  8
1
  6
Continuous
 62
    18
100
AcDbLine
 10
2.468231
 20
6.511255999999999
 30
0.0
 11
2.463055999999999
 21
6.483342999999999
 31
0.0
  0
LINE
  5
1CF
330
B
100
AcDbEntity
 67
     1
  8
1
  6
Continuous
 62
    18
100
AcDbLine
 10
2.356157
 20
4.42309
 30
0.0
 11
2.356157
 21
4.411985999999999
 31
0.0
  0
LINE
  5
1D0
330
B
100
AcDbEntity
 67
     1
  8
1
  6
Continuous
 62
    18
100
AcDbLine
 10
1.70642
 20
6.589471
 30
0.0
 11
1.70642
 21
6.357472
 31
0.0
  0
LINE
  5
1D1
330
B
100
AcDbEntity
 67
     1
  8
1
  6
Continuous
 62
    18
100
AcDbLine
 10
2.110708999999999
 20
3.916448
 30
0.0
 11
2.111088999999999
 21
3.924502999999999
 31
0.0
  0
LINE
  5
1D2
330
B
100
AcDbEntity
 67
     1
  8
1
  6
Continuous
 62
    18
100
AcDbLine
 10
1.553621999999999
 20
4.744480999999999
 30
0.0
 11
1.557715999999999
 21
4.741706999999999
 31
0.0
  0
LINE
  5
1D3
330
B
100
AcDbEntity
 67
     1
  8
1
  6
Continuous
 62
    18
100
AcDbLine
 10
1.848283999999999
 20
4.255541
 30
0.0
 11
1.907093999999999
 21
4.255541
 31
0.0
  0
LINE
  5
1D4
330
B
100
AcDbEntity
 67
     1
  8
1
  6
Continuous
 62
    18
100
AcDbLine
 10
2.463197
 20
6.283155
 30
0.0
 11
2.463197
 21
6.157682
 31
0.0
  0
LINE
  5
1D5
330
B
100
AcDbEntity
 67
     1
  8
1
  6
Continuous
 62
    18
100
AcDbLine
 10
1.580339999999999
 20
6.914369
 30
0.0
 11
1.6009
 21
6.929167999999998
 31
0.0
  0
LINE
  5
1D6
330
B
100
AcDbEntity
 67
     1
  8
1
  6
Continuous
 62
    18
100
AcDbLine
 10
1.729897999999999
 20
4.496833
 30
0.0
 11
1.699897999999999
 21
4.496833
 31
0.0
  0
LINE
  5
1D7
330
B
100
AcDbEntity
 67
     1
  8
1
  6
Continuous
 62
    18
100
AcDbLine
 10
1.916928
 20
4.036598999999999
 30
0.0
 11
1.916361999999999
 21
4.042364
 31
0.0
  0
LINE
  5
1D8
330
B
100
AcDbEntity
 67
     1
  8
1
  6
Continuous
 62
    18
100
AcDbLine
 10
1.636824
 20
4.741537
 30
0.0
 11
1.630854
 21
4.740508
 31
0.0
  0
LINE
  5
1D9
330
B
100
AcDbEntity
 67
     1
  8
1
  6
Continuous
 62
    18
100
AcDbLine
 10
1.604897999999999
 20
6.618967999999999
 30
0.0
 11
1.656419999999999
 21
6.618967999999999
 31
0.0
  0
LINE
  5
1DA
330
B
100
AcDbEntity
 67
     1
  8
1
  6
Continuous
 62
    18
100
AcDbLine
 10
2.436381
 20
6.432381999999999
 30
0.0
 11
2.418057
 21
6.414763999999999
 31
0.0
  0
LINE
  5
1DB
330
B
100
AcDbEntity
 67
     1
  8
1
  6
Continuous
 62
    18
100
AcDbLine
 10
1.676884
 20
4.702018999999999
 30
0.0
 11
1.674497
 21
4.733652999999999
 31
0.0
  0
LINE
  5
1DC
330
B
100
AcDbEntity
 67
     1
  8
1
  6
Continuous
 62
    18
100
AcDbLine
 10
1.529898
 20
4.787708
 30
0.0
 11
1.535606999999999
 21
4.767413999999999
 31
0.0
  0
LINE
  5
1DD
330
B
100
AcDbEntity
 67
     1
  8
1
  6
Continuous
 62
    18
100
AcDbLine
 10
2.490545999999999
 20
4.380813999999999
 30
0.0
 11
2.490545999999999
 21
4.385023999999999
 31
0.0
  0
LINE
  5
1DE
330
B
100
AcDbEntity
 67
     1
  8
1
  6
Continuous
 62
    18
100
AcDbLine
 10
1.604897999999999
 20
4.853671
 30
0.0
 11
1.601801999999999
 21
4.853620999999999
 31
0.0
  0
LINE
  5
1DF
330
B
100
AcDbEntity
 67
     1
  8
1
  6
Continuous
 62
    18
100
AcDbLine
 10
1.699897999999999
 20
6.357472
 30
0.0
 11
1.685756
 21
6.361615
 31
0.0
  0
LINE
  5
1E0
330
B
100
AcDbEntity
 67
     1
  8
1
  6
Continuous
 62
    18
100
AcDbLine
 10
2.50114
 20
4.370764
 30
0.0
 11
2.505536999999999
 21
4.370547
 31
0.0
  0
LINE
  5
1E1
330
B
100
AcDbEntity
 67
     1
  8
1
  6
Continuous
 62
    18
100
AcDbLine
 10
1.679897999999999
 20
6.342916
 30
0.0
 11
1.679897999999999
 21
6.350792
 31
0.0
  0
LINE
  5
1E2
330
B
100
AcDbEntity
 67
     1
  8
1
  6
Continuous
 62
    18
100
AcDbLine
 10
1.655511999999999
 20
4.878969999999999
 30
0.0
 11
2.366291999999999
 21
4.878969999999999
 31
0.0
  0
LINE
  5
1E3
330
B
100
AcDbEntity
 67
     1
  8
1
  6
Continuous
 62
    18
100
AcDbLine
 10
1.919904
 20
3.91688
 30
0.0
 11
2.110292999999999
 21
3.91688
 31
0.0
  0
LINE
  5
1E4
330
B
100
AcDbEntity
 67
     1
  8
1
  6
Continuous
 62
    18
100
AcDbLine
 10
1.53959
 20
7.845325999999999
 30
0.0
 11
1.528988
 21
7.840936
 31
0.0
  0
LINE
  5
1E5
330
B
100
AcDbEntity
 67
     1
  8
1
  6
Continuous
 62
    18
100
AcDbLine
 10
1.542220999999999
 20
4.827414
 30
0.0
 11
1.539239
 21
4.823526999999999
 31
0.0
  0
LINE
  5
1E6
330
B
100
AcDbEntity
 67
     1
  8
1
  6
Continuous
 62
    18
100
AcDbLine
 10
1.660857
 20
6.136356
 30
0.0
 11
1.660857
 21
6.272491999999999
 31
0.0
  0
LINE
  5
1E7
330
B
100
AcDbEntity
 67
     1
  8
1
  6
Continuous
 62
    18
100
AcDbLine
 10
1.677700999999999
 20
6.326287999999999
 30
0.0
 11
1.672398
 21
6.327841999999999
 31
0.0
  0
LINE
  5
1E8
330
B
100
AcDbEntity
 67
     1
  8
1
  6
Continuous
 62
    18
100
AcDbLine
 10
2.459327
 20
4.545441
 30
0.0
 11
2.464034999999999
 21
4.534642999999999
 31
0.0
  0
LINE
  5
1E9
330
B
100
AcDbEntity
 67
     1
  8
1
  6
Continuous
 62
    18
100
AcDbLine
 10
2.468231
 20
4.534838999999999
 30
0.0
 11
2.463055999999999
 21
4.545224
 31
0.0
  0
LINE
  5
1EA
330
B
100
AcDbEntity
 67
     1
  8
1
  6
Continuous
 62
    18
100
AcDbLine
 10
1.557715999999999
 20
6.631858
 30
0.0
 11
1.562114
 21
6.629297999999999
 31
0.0
  0
LINE
  5
1EB
330
B
100
AcDbEntity
 67
     1
  8
1
  6
Continuous
 62
    18
100
AcDbLine
 10
1.673879
 20
6.249683999999999
 30
0.0
 11
2.356939
 21
6.249683999999999
 31
0.0
  0
LINE
  5
1EC
330
B
100
AcDbEntity
 67
     1
  8
1
  6
Continuous
 62
    18
100
AcDbLine
 10
1.562216
 20
4.843395
 30
0.0
 11
1.557654
 21
4.840741
 31
0.0
  0
LINE
  5
1ED
330
B
100
AcDbEntity
 67
     1
  8
1
  6
Continuous
 62
    18
100
AcDbLine
 10
4.249375999999999
 20
4.549882
 30
0.0
 11
4.661836
 21
4.962341
 31
0.0
  0
LINE
  5
1EE
330
B
100
AcDbEntity
 67
     1
  8
1
  6
Continuous
 62
    18
100
AcDbLine
 10
1.664525999999999
 20
6.590133999999999
 30
0.0
 11
1.664525999999999
 21
6.597117999999999
 31
0.0
  0
LINE
  5
1EF
330
B
100
AcDbEntity
 67
     1
  8
1
  6
Continuous
 62
    18
100
AcDbLine
 10
1.535270999999999
 20
4.188890999999999
 30
0.0
 11
1.530880999999999
 21
4.188890999999999
 31
0.0
  0
LINE
  5
1F0
330
B
100
AcDbEntity
 67
     1
  8
1
  6
Continuous
 62
    18
100
AcDbLine
 10
1.685166999999999
 20
4.717194999999999
 30
0.0
 11
1.685763
 21
4.716116
 31
0.0
  0
LINE
  5
1F1
330
B
100
AcDbEntity
 67
     1
  8
1
  6
Continuous
 62
    18
100
AcDbLine
 10
1.736420999999999
 20
6.357472
 30
0.0
 11
1.736420999999999
 21
6.350792
 31
0.0
  0
LINE
  5
1F2
330
B
100
AcDbEntity
 67
     1
  8
1
  6
Continuous
 62
    18
100
AcDbLine
 10
1.678892999999999
 20
4.47393
 30
0.0
 11
1.678892999999999
 21
4.468626
 31
0.0
  0
LINE
  5
1F3
330
B
100
AcDbEntity
 67
     1
  8
1
  6
Continuous
 62
    18
100
AcDbLine
 10
1.674661999999999
 20
6.279589999999999
 30
0.0
 11
2.356157
 21
6.279589999999999
 31
0.0
  0
LINE
  5
1F4
330
B
100
AcDbEntity
 67
     1
  8
1
  6
Continuous
 62
    18
100
AcDbLine
 10
1.571973999999999
 20
6.737966
 30
0.0
 11
1.567005999999999
 21
6.735908999999999
 31
0.0
  0
LINE
  5
1F5
330
B
100
AcDbEntity
 67
     1
  8
1
  6
Continuous
 62
    18
100
AcDbLine
 10
1.672724
 20
4.458904
 30
0.0
 11
1.679897
 21
4.458904
 31
0.0
  0
LINE
  5
1F6
330
B
100
AcDbEntity
 67
     1
  8
1
  6
Continuous
 62
    18
100
AcDbLine
 10
1.58776
 20
6.742299
 30
0.0
 11
1.582378
 21
6.741164
 31
0.0
  0
LINE
  5
1F7
330
B
100
AcDbEntity
 67
     1
  8
1
  6
Continuous
 62
    18
100
AcDbLine
 10
1.539409999999999
 20
7.444616
 30
0.0
 11
1.549001
 21
7.478503999999999
 31
0.0
  0
LINE
  5
1F8
330
B
100
AcDbEntity
 67
     1
  8
1
  6
Continuous
 62
    18
100
AcDbLine
 10
4.121824
 20
4.521325
 30
0.0
 11
4.124925
 21
4.518224
 31
0.0
  0
LINE
  5
1F9
330
B
100
AcDbEntity
 67
     1
  8
1
  6
Continuous
 62
    18
100
AcDbLine
 10
1.729897999999999
 20
4.502676
 30
0.0
 11
1.679897999999999
 21
4.502676
 31
0.0
  0
LINE
  5
1FA
330
B
100
AcDbEntity
 67
     1
  8
1
  6
Continuous
 62
    18
100
AcDbLine
 10
1.540192999999999
 20
4.757642999999999
 30
0.0
 11
1.543054
 21
4.7541
 31
0.0
  0
LINE
  5
1FB
330
B
100
AcDbEntity
 67
     1
  8
1
  6
Continuous
 62
    18
100
AcDbLine
 10
1.736420999999999
 20
6.296983999999999
 30
0.0
 11
1.736420999999999
 21
6.303169
 31
0.0
  0
LINE
  5
1FC
330
B
100
AcDbEntity
 67
     1
  8
1
  6
Continuous
 62
    18
100
AcDbLine
 10
1.678892999999999
 20
6.32519
 30
0.0
 11
1.678892999999999
 21
6.319887
 31
0.0
  0
LINE
  5
1FD
330
B
100
AcDbEntity
 67
     1
  8
1
  6
Continuous
 62
    18
100
AcDbLine
 10
2.211898
 20
4.498486999999999
 30
0.0
 11
2.211898
 21
4.496833
 31
0.0
  0
LINE
  5
1FE
330
B
100
AcDbEntity
 67
     1
  8
1
  6
Continuous
 62
    18
100
AcDbLine
 10
1.692277999999999
 20
6.361615
 30
0.0
 11
1.68642
 21
6.371614
 31
0.0
  0
LINE
  5
1FF
330
B
100
AcDbEntity
 67
     1
  8
1
  6
Continuous
 62
    18
100
AcDbLine
 10
1.530076
 20
6.688521999999999
 30
0.0
 11
1.530006
 21
6.684769999999999
 31
0.0
  0
LINE
  5
200
330
B
100
AcDbEntity
 67
     1
  8
1
  6
Continuous
 62
    18
100
AcDbLine
 10
4.190767
 20
4.549882
 30
0.0
 11
4.304962
 21
4.549882
 31
0.0
  0
LINE
  5
201
330
B
100
AcDbEntity
 67
     1
  8
1
  6
Continuous
 62
    18
100
AcDbLine
 10
1.56989
 20
4.385188999999999
 30
0.0
 11
1.567620999999999
 21
4.385188999999999
 31
0.0
  0
LINE
  5
202
330
B
100
AcDbEntity
 67
     1
  8
1
  6
Continuous
 62
    18
100
AcDbLine
 10
2.326338999999999
 20
4.195541
 30
0.0
 11
2.272272
 21
4.195541
 31
0.0
  0
LINE
  5
203
330
B
100
AcDbEntity
 67
     1
  8
1
  6
Continuous
 62
    18
100
AcDbLine
 10
1.554084
 20
4.794038999999999
 30
0.0
 11
1.549897999999999
 21
4.808921999999999
 31
0.0
  0
LINE
  5
204
330
B
100
AcDbEntity
 67
     1
  8
1
  6
Continuous
 62
    18
100
AcDbLine
 10
1.535444
 20
6.655371
 30
0.0
 11
1.537639999999999
 21
6.651525
 31
0.0
  0
LINE
  5
205
330
B
100
AcDbEntity
 67
     1
  8
1
  6
Continuous
 62
    18
100
AcDbLine
 10
1.685166999999999
 20
6.607346
 30
0.0
 11
1.685763
 21
6.606266999999999
 31
0.0
  0
LINE
  5
206
330
B
100
AcDbEntity
 67
     1
  8
1
  6
Continuous
 62
    18
100
AcDbLine
 10
2.358632
 20
4.540251999999999
 30
0.0
 11
2.361683999999999
 21
4.547082999999999
 31
0.0
  0
LINE
  5
207
330
B
100
AcDbEntity
 67
     1
  8
1
  6
Continuous
 62
    18
100
AcDbLine
 10
4.788319999999999
 20
4.960904
 30
0.0
 11
4.7922
 21
4.963479
 31
0.0
  0
LINE
  5
208
330
B
100
AcDbEntity
 67
     1
  8
1
  6
Continuous
 62
    18
100
AcDbLine
 10
1.572383
 20
6.275592999999999
 30
0.0
 11
1.567620999999999
 21
6.283155
 31
0.0
  0
LINE
  5
209
330
B
100
AcDbEntity
 67
     1
  8
1
  6
Continuous
 62
    18
100
AcDbLine
 10
1.549897999999999
 20
6.663717
 30
0.0
 11
1.554084
 21
6.6786
 31
0.0
  0
LINE
  5
20A
330
B
100
AcDbEntity
 67
     1
  8
1
  6
Continuous
 62
    18
100
AcDbLine
 10
1.604897999999999
 20
4.733068
 30
0.0
 11
1.604897999999999
 21
4.731691999999999
 31
0.0
  0
LINE
  5
20B
330
B
100
AcDbEntity
 67
     1
  8
1
  6
Continuous
 62
    18
100
AcDbLine
 10
1.60274
 20
6.738028999999999
 30
0.0
 11
1.607901999999999
 21
6.735639999999999
 31
0.0
  0
LINE
  5
20C
330
B
100
AcDbEntity
 67
     1
  8
1
  6
Continuous
 62
    18
100
AcDbLine
 10
3.741144999999999
 20
4.368802999999999
 30
0.0
 11
3.747426999999999
 21
4.188890999999999
 31
0.0
  0
LINE
  5
20D
330
B
100
AcDbEntity
 67
     1
  8
1
  6
Continuous
 62
    18
100
AcDbLine
 10
5.679605999999999
 20
4.370547
 30
0.0
 11
5.690199999999999
 21
4.370764
 31
0.0
  0
LINE
  5
20E
330
B
100
AcDbEntity
 67
     1
  8
1
  6
Continuous
 62
    18
100
AcDbLine
 10
2.324397999999999
 20
6.363197
 30
0.0
 11
2.269897999999999
 21
6.363197
 31
0.0
  0
LINE
  5
20F
330
B
100
AcDbEntity
 67
     1
  8
1
  6
Continuous
 62
    18
100
AcDbLine
 10
1.673652
 20
6.200116
 30
0.0
 11
1.673224
 21
6.205598999999999
 31
0.0
  0
LINE
  5
210
330
B
100
AcDbEntity
 67
     1
  8
1
  6
Continuous
 62
    18
100
AcDbLine
 10
2.344325999999999
 20
6.725017
 30
0.0
 11
2.344397999999999
 21
6.723822
 31
0.0
  0
LINE
  5
211
330
B
100
AcDbEntity
 67
     1
  8
1
  6
Continuous
 62
    18
100
AcDbLine
 10
1.530173999999999
 20
6.671985
 30
0.0
 11
1.530998999999999
 21
6.667675
 31
0.0
  0
LINE
  5
212
330
B
100
AcDbEntity
 67
     1
  8
1
  6
Continuous
 62
    18
100
AcDbLine
 10
3.763708999999999
 20
4.016545999999999
 30
0.0
 11
3.860786
 21
3.91688
 31
0.0
  0
LINE
  5
213
330
B
100
AcDbEntity
 67
     1
  8
1
  6
Continuous
 62
    18
100
AcDbLine
 10
1.699897999999999
 20
4.445367
 30
0.0
 11
1.699897999999999
 21
4.427438999999999
 31
0.0
  0
LINE
  5
214
330
B
100
AcDbEntity
 67
     1
  8
1
  6
Continuous
 62
    18
100
AcDbLine
 10
1.576276
 20
6.726878999999999
 30
0.0
 11
1.551987
 21
6.715446
 31
0.0
  0
LINE
  5
215
330
B
100
AcDbEntity
 67
     1
  8
1
  6
Continuous
 62
    18
100
AcDbLine
 10
1.604897999999999
 20
4.741746
 30
0.0
 11
1.604897999999999
 21
4.734675
 31
0.0
  0
LINE
  5
216
330
B
100
AcDbEntity
 67
     1
  8
1
  6
Continuous
 62
    18
100
AcDbLine
 10
1.729897999999999
 20
4.458899999999999
 30
0.0
 11
1.729897999999999
 21
4.437962999999999
 31
0.0
  0
LINE
  5
217
330
B
100
AcDbEntity
 67
     1
  8
1
  6
Continuous
 62
    18
100
AcDbLine
 10
5.606074999999999
 20
4.036598999999999
 30
0.0
 11
5.648642999999999
 21
4.036598999999999
 31
0.0
  0
LINE
  5
218
330
B
100
AcDbEntity
 67
     1
  8
1
  6
Continuous
 62
    18
100
AcDbLine
 10
1.554084
 20
4.823803999999999
 30
0.0
 11
1.549897999999999
 21
4.808921999999999
 31
0.0
  0
LINE
  5
219
330
B
100
AcDbEntity
 67
     1
  8
1
  6
Continuous
 62
    18
100
AcDbLine
 10
1.534461999999999
 20
6.705391
 30
0.0
 11
1.532687999999999
 21
6.701042
 31
0.0
  0
LINE
  5
21A
330
B
100
AcDbEntity
 67
     1
  8
1
  6
Continuous
 62
    18
100
AcDbLine
 10
2.366291999999999
 20
4.549881
 30
0.0
 11
2.366445999999999
 21
4.549882
 31
0.0
  0
LINE
  5
21B
330
B
100
AcDbEntity
 67
     1
  8
1
  6
Continuous
 62
    18
100
AcDbLine
 10
1.592530999999999
 20
6.619757
 30
0.0
 11
1.598009
 21
6.619211999999999
 31
0.0
  0
LINE
  5
21C
330
B
100
AcDbEntity
 67
     1
  8
1
  6
Continuous
 62
    18
100
AcDbLine
 10
1.674616999999999
 20
4.407549999999999
 30
0.0
 11
1.672954999999999
 21
4.452382
 31
0.0
  0
LINE
  5
21D
330
B
100
AcDbEntity
 67
     1
  8
1
  6
Continuous
 62
    18
100
AcDbLine
 10
2.261897999999999
 20
6.342916
 30
0.0
 11
2.261897999999999
 21
6.320024
 31
0.0
  0
LINE
  5
21E
330
B
100
AcDbEntity
 67
     1
  8
1
  6
Continuous
 62
    18
100
AcDbLine
 10
1.68642
 20
4.713591
 30
0.0
 11
1.689086
 21
4.718759999999999
 31
0.0
  0
LINE
  5
21F
330
B
100
AcDbEntity
 67
     1
  8
1
  6
Continuous
 62
    18
100
AcDbLine
 10
2.344397999999999
 20
6.71675
 30
0.0
 11
2.344397999999999
 21
6.723822
 31
0.0
  0
LINE
  5
220
330
B
100
AcDbEntity
 67
     1
  8
1
  6
Continuous
 62
    18
100
AcDbLine
 10
1.584887
 20
4.717353
 30
0.0
 11
1.570629999999999
 21
4.701686
 31
0.0
  0
LINE
  5
221
330
B
100
AcDbEntity
 67
     1
  8
1
  6
Continuous
 62
    18
100
AcDbLine
 10
2.261897999999999
 20
4.42309
 30
0.0
 11
2.261897999999999
 21
4.434271999999999
 31
0.0
  0
LINE
  5
222
330
B
100
AcDbEntity
 67
     1
  8
1
  6
Continuous
 62
    18
100
AcDbLine
 10
1.601445999999999
 20
6.61903
 30
0.0
 11
1.604897999999999
 21
6.618967999999999
 31
0.0
  0
LINE
  5
223
330
B
100
AcDbEntity
 67
     1
  8
1
  6
Continuous
 62
    18
100
AcDbLine
 10
3.726154
 20
4.368802999999999
 30
0.0
 11
3.730544
 21
4.368802999999999
 31
0.0
  0
LINE
  5
224
330
B
100
AcDbEntity
 67
     1
  8
1
  6
Continuous
 62
    18
100
AcDbLine
 10
1.656419999999999
 20
4.756673999999999
 30
0.0
 11
1.656419999999999
 21
4.770030999999999
 31
0.0
  0
LINE
  5
225
330
B
100
AcDbEntity
 67
     1
  8
1
  6
Continuous
 62
    18
100
AcDbLine
 10
1.670843
 20
4.385188999999999
 30
0.0
 11
1.671766999999999
 21
4.385188999999999
 31
0.0
  0
LINE
  5
226
330
B
100
AcDbEntity
 67
     1
  8
1
  6
Continuous
 62
    18
100
AcDbLine
 10
1.681625999999999
 20
6.611219
 30
0.0
 11
1.68312
 21
6.609866
 31
0.0
  0
LINE
  5
227
330
B
100
AcDbEntity
 67
     1
  8
1
  6
Continuous
 62
    18
100
AcDbLine
 10
1.583413
 20
7.516258
 30
0.0
 11
1.604677
 21
7.522061999999999
 31
0.0
  0
LINE
  5
228
330
B
100
AcDbEntity
 67
     1
  8
1
  6
Continuous
 62
    18
100
AcDbLine
 10
1.570629999999999
 20
4.701686
 30
0.0
 11
1.571162999999999
 21
4.703861999999999
 31
0.0
  0
LINE
  5
229
330
B
100
AcDbEntity
 67
     1
  8
1
  6
Continuous
 62
    18
100
AcDbLine
 10
1.736420999999999
 20
6.342916
 30
0.0
 11
1.736420999999999
 21
6.320024
 31
0.0
  0
LINE
  5
22A
330
B
100
AcDbEntity
 67
     1
  8
1
  6
Continuous
 62
    18
100
AcDbLine
 10
1.70642
 20
4.458872
 30
0.0
 11
1.70642
 21
4.437926999999999
 31
0.0
  0
LINE
  5
22B
330
B
100
AcDbEntity
 67
     1
  8
1
  6
Continuous
 62
    18
100
AcDbLine
 10
1.696370999999999
 20
6.577408
 30
0.0
 11
1.696370999999999
 21
6.517163
 31
0.0
  0
LINE
  5
22C
330
B
100
AcDbEntity
 67
     1
  8
1
  6
Continuous
 62
    18
100
AcDbLine
 10
1.624741999999999
 20
4.195376
 30
0.0
 11
1.589372999999999
 21
4.195376
 31
0.0
  0
LINE
  5
22D
330
B
100
AcDbEntity
 67
     1
  8
1
  6
Continuous
 62
    18
100
AcDbLine
 10
1.583237
 20
6.136356
 30
0.0
 11
1.660857
 21
6.136356
 31
0.0
  0
LINE
  5
22E
330
B
100
AcDbEntity
 67
     1
  8
1
  6
Continuous
 62
    18
100
AcDbLine
 10
1.664525999999999
 20
4.739971999999999
 30
0.0
 11
1.664525999999999
 21
4.742138999999999
 31
0.0
  0
LINE
  5
22F
330
B
100
AcDbEntity
 67
     1
  8
1
  6
Continuous
 62
    18
100
AcDbLine
 10
1.664525999999999
 20
6.604152
 30
0.0
 11
1.66554
 21
6.618075999999999
 31
0.0
  0
LINE
  5
230
330
B
100
AcDbEntity
 67
     1
  8
1
  6
Continuous
 62
    18
100
AcDbLine
 10
2.344397999999999
 20
4.833670999999999
 30
0.0
 11
2.33854
 21
4.843669999999999
 31
0.0
  0
LINE
  5
231
330
B
100
AcDbEntity
 67
     1
  8
1
  6
Continuous
 62
    18
100
AcDbLine
 10
1.674512
 20
6.596835
 30
0.0
 11
1.671408999999999
 21
6.592075999999999
 31
0.0
  0
LINE
  5
232
330
B
100
AcDbEntity
 67
     1
  8
1
  6
Continuous
 62
    18
100
AcDbLine
 10
2.356262
 20
6.356830999999999
 30
0.0
 11
2.356952
 21
6.340862
 31
0.0
  0
LINE
  5
233
330
B
100
AcDbEntity
 67
     1
  8
1
  6
Continuous
 62
    18
100
AcDbLine
 10
1.627391999999999
 20
4.959262999999999
 30
0.0
 11
1.601904
 21
4.950315999999999
 31
0.0
  0
LINE
  5
234
330
B
100
AcDbEntity
 67
     1
  8
1
  6
Continuous
 62
    18
100
AcDbLine
 10
1.67208
 20
6.310164
 30
0.0
 11
1.679897
 21
6.310164
 31
0.0
  0
LINE
  5
235
330
B
100
AcDbEntity
 67
     1
  8
1
  6
Continuous
 62
    18
100
AcDbLine
 10
1.672398
 20
4.465975
 30
0.0
 11
1.678892999999999
 21
4.468626
 31
0.0
  0
LINE
  5
236
330
B
100
AcDbEntity
 67
     1
  8
1
  6
Continuous
 62
    18
100
AcDbLine
 10
1.676090999999999
 20
4.491706999999999
 30
0.0
 11
1.675394999999999
 21
4.500937
 31
0.0
  0
LINE
  5
237
330
B
100
AcDbEntity
 67
     1
  8
1
  6
Continuous
 62
    18
100
AcDbLine
 10
1.662199999999999
 20
6.341434999999999
 30
0.0
 11
1.664372
 21
6.400044
 31
0.0
  0
LINE
  5
238
330
B
100
AcDbEntity
 67
     1
  8
1
  6
Continuous
 62
    18
100
AcDbLine
 10
2.35392
 20
6.392243999999999
 30
0.0
 11
2.355439
 21
6.370686
 31
0.0
  0
LINE
  5
239
330
B
100
AcDbEntity
 67
     1
  8
1
  6
Continuous
 62
    18
100
AcDbLine
 10
1.755077999999999
 20
4.258541
 30
0.0
 11
1.756177999999999
 21
4.195541
 31
0.0
  0
LINE
  5
23A
330
B
100
AcDbEntity
 67
     1
  8
1
  6
Continuous
 62
    18
100
AcDbLine
 10
2.12183
 20
4.266912999999999
 30
0.0
 11
2.114472
 21
4.056283
 31
0.0
  0
LINE
  5
23B
330
B
100
AcDbEntity
 67
     1
  8
1
  6
Continuous
 62
    18
100
AcDbLine
 10
1.537639999999999
 20
4.761373999999999
 30
0.0
 11
1.540192999999999
 21
4.757642999999999
 31
0.0
  0
LINE
  5
23C
330
B
100
AcDbEntity
 67
     1
  8
1
  6
Continuous
 62
    18
100
AcDbLine
 10
2.261897999999999
 20
6.290693
 30
0.0
 11
2.261897999999999
 21
6.294272
 31
0.0
  0
LINE
  5
23D
330
B
100
AcDbEntity
 67
     1
  8
1
  6
Continuous
 62
    18
100
AcDbLine
 10
1.530006
 20
4.787546999999999
 30
0.0
 11
1.529954999999999
 21
4.786863999999999
 31
0.0
  0
LINE
  5
23E
330
B
100
AcDbEntity
 67
     1
  8
1
  6
Continuous
 62
    18
100
AcDbLine
 10
2.181651
 20
4.237824999999999
 30
0.0
 11
2.181289
 21
4.258541
 31
0.0
  0
LINE
  5
23F
330
B
100
AcDbEntity
 67
     1
  8
1
  6
Continuous
 62
    18
100
AcDbLine
 10
2.463055999999999
 20
6.483342999999999
 30
0.0
 11
2.451238999999999
 21
6.45563
 31
0.0
  0
LINE
  5
240
330
B
100
AcDbEntity
 67
     1
  8
1
  6
Continuous
 62
    18
100
AcDbLine
 10
1.736420999999999
 20
6.310164
 30
0.0
 11
2.211898
 21
6.310164
 31
0.0
  0
LINE
  5
241
330
B
100
AcDbEntity
 67
     1
  8
1
  6
Continuous
 62
    18
100
AcDbLine
 10
2.124273
 20
4.287628999999999
 30
0.0
 11
2.124896
 21
4.300877999999999
 31
0.0
  0
LINE
  5
242
330
B
100
AcDbEntity
 67
     1
  8
1
  6
Continuous
 62
    18
100
AcDbLine
 10
1.655511999999999
 20
6.835755
 30
0.0
 11
1.655511999999999
 21
6.863075999999999
 31
0.0
  0
LINE
  5
243
330
B
100
AcDbEntity
 67
     1
  8
1
  6
Continuous
 62
    18
100
AcDbLine
 10
1.557715999999999
 20
4.741706999999999
 30
0.0
 11
1.562114
 21
4.739146999999999
 31
0.0
  0
LINE
  5
244
330
B
100
AcDbEntity
 67
     1
  8
1
  6
Continuous
 62
    18
100
AcDbLine
 10
2.494068999999999
 20
7.407907999999999
 30
0.0
 11
2.468249
 21
6.875969999999999
 31
0.0
  0
LINE
  5
245
330
B
100
AcDbEntity
 67
     1
  8
1
  6
Continuous
 62
    18
100
AcDbLine
 10
1.755293999999999
 20
6.194568
 30
0.0
 11
1.755077999999999
 21
6.199683999999999
 31
0.0
  0
LINE
  5
246
330
B
100
AcDbEntity
 67
     1
  8
1
  6
Continuous
 62
    18
100
AcDbLine
 10
2.324397999999999
 20
6.71383
 30
0.0
 11
2.324397999999999
 21
6.702608
 31
0.0
  0
LINE
  5
247
330
B
100
AcDbEntity
 67
     1
  8
1
  6
Continuous
 62
    18
100
AcDbLine
 10
1.916361999999999
 20
4.042364
 30
0.0
 11
1.915724999999999
 21
4.056283
 31
0.0
  0
LINE
  5
248
330
B
100
AcDbEntity
 67
     1
  8
1
  6
Continuous
 62
    18
100
AcDbLine
 10
1.689086
 20
6.538362999999999
 30
0.0
 11
1.696370999999999
 21
6.548687999999999
 31
0.0
  0
LINE
  5
249
330
B
100
AcDbEntity
 67
     1
  8
1
  6
Continuous
 62
    18
100
AcDbLine
 10
1.535555999999999
 20
6.698067999999999
 30
0.0
 11
1.551802
 21
6.715314999999999
 31
0.0
  0
LINE
  5
24A
330
B
100
AcDbEntity
 67
     1
  8
1
  6
Continuous
 62
    18
100
AcDbLine
 10
2.118802999999999
 20
6.216774
 30
0.0
 11
2.120881
 21
6.199683999999999
 31
0.0
  0
LINE
  5
24B
330
B
100
AcDbEntity
 67
     1
  8
1
  6
Continuous
 62
    18
100
AcDbLine
 10
1.907046
 20
6.199683999999999
 30
0.0
 11
1.909937
 21
6.199683999999999
 31
0.0
  0
LINE
  5
24C
330
B
100
AcDbEntity
 67
     1
  8
1
  6
Continuous
 62
    18
100
AcDbLine
 10
2.375306
 20
4.989580999999999
 30
0.0
 11
1.655511999999999
 21
4.989580999999999
 31
0.0
  0
LINE
  5
24D
330
B
100
AcDbEntity
 67
     1
  8
1
  6
Continuous
 62
    18
100
AcDbLine
 10
1.702715
 20
4.425538999999999
 30
0.0
 11
1.706264
 21
4.420221999999999
 31
0.0
  0
LINE
  5
24E
330
B
100
AcDbEntity
 67
     1
  8
1
  6
Continuous
 62
    18
100
AcDbLine
 10
1.540192999999999
 20
6.647794
 30
0.0
 11
1.543054
 21
6.644250999999999
 31
0.0
  0
LINE
  5
24F
330
B
100
AcDbEntity
 67
     1
  8
1
  6
Continuous
 62
    18
100
AcDbLine
 10
1.679897999999999
 20
6.350792
 30
0.0
 11
1.679897999999999
 21
6.357472
 31
0.0
  0
LINE
  5
250
330
B
100
AcDbEntity
 67
     1
  8
1
  6
Continuous
 62
    18
100
AcDbLine
 10
2.366291999999999
 20
4.549881
 30
0.0
 11
2.366291999999999
 21
4.878969999999999
 31
0.0
  0
LINE
  5
251
330
B
100
AcDbEntity
 67
     1
  8
1
  6
Continuous
 62
    18
100
AcDbLine
 10
1.959979999999999
 20
3.993401
 30
0.0
 11
1.961916
 21
3.991466
 31
0.0
  0
LINE
  5
252
330
B
100
AcDbEntity
 67
     1
  8
1
  6
Continuous
 62
    18
100
AcDbLine
 10
2.359974999999999
 20
4.385188999999999
 30
0.0
 11
2.359974999999999
 21
4.514623999999999
 31
0.0
  0
LINE
  5
253
330
B
100
AcDbEntity
 67
     1
  8
1
  6
Continuous
 62
    18
100
AcDbLine
 10
1.539239
 20
4.823526999999999
 30
0.0
 11
1.536628
 21
4.819428
 31
0.0
  0
LINE
  5
254
330
B
100
AcDbEntity
 67
     1
  8
1
  6
Continuous
 62
    18
100
AcDbLine
 10
1.671942999999999
 20
6.288452999999999
 30
0.0
 11
1.672001999999999
 21
6.305096999999999
 31
0.0
  0
LINE
  5
255
330
B
100
AcDbEntity
 67
     1
  8
1
  6
Continuous
 62
    18
100
AcDbLine
 10
1.562114
 20
6.629297999999999
 30
0.0
 11
1.566724999999999
 21
6.627008
 31
0.0
  0
LINE
  5
256
330
B
100
AcDbEntity
 67
     1
  8
1
  6
Continuous
 62
    18
100
AcDbLine
 10
2.356616999999999
 20
6.258376
 30
0.0
 11
2.356939
 21
6.249683999999999
 31
0.0
  0
LINE
  5
257
330
B
100
AcDbEntity
 67
     1
  8
1
  6
Continuous
 62
    18
100
AcDbLine
 10
1.557654
 20
4.840741
 30
0.0
 11
1.553339999999999
 21
4.837800999999999
 31
0.0
  0
LINE
  5
258
330
B
100
AcDbEntity
 67
     1
  8
1
  6
Continuous
 62
    18
100
AcDbLine
 10
1.755077999999999
 20
6.199683999999999
 30
0.0
 11
1.848335999999999
 21
6.199683999999999
 31
0.0
  0
LINE
  5
259
330
B
100
AcDbEntity
 67
     1
  8
1
  6
Continuous
 62
    18
100
AcDbLine
 10
5.145889
 20
4.594122
 30
0.0
 11
4.868223999999999
 21
4.86226
 31
0.0
  0
LINE
  5
25A
330
B
100
AcDbEntity
 67
     1
  8
1
  6
Continuous
 62
    18
100
AcDbLine
 10
2.363077999999999
 20
6.274434999999999
 30
0.0
 11
2.369960999999999
 21
6.272491999999999
 31
0.0
  0
LINE
  5
25B
330
B
100
AcDbEntity
 67
     1
  8
1
  6
Continuous
 62
    18
100
AcDbLine
 10
1.685763
 20
4.716116
 30
0.0
 11
1.686154
 21
4.715126999999999
 31
0.0
  0
LINE
  5
25C
330
B
100
AcDbEntity
 67
     1
  8
1
  6
Continuous
 62
    18
100
AcDbLine
 10
1.678892999999999
 20
4.468626
 30
0.0
 11
1.672398
 21
4.465975
 31
0.0
  0
LINE
  5
25D
330
B
100
AcDbEntity
 67
     1
  8
1
  6
Continuous
 62
    18
100
AcDbLine
 10
1.679897999999999
 20
4.492759999999999
 30
0.0
 11
1.679897999999999
 21
4.481277999999999
 31
0.0
  0
LINE
  5
25E
330
B
100
AcDbEntity
 67
     1
  8
1
  6
Continuous
 62
    18
100
AcDbLine
 10
1.567005999999999
 20
6.735908999999999
 30
0.0
 11
1.562216
 21
6.733546
 31
0.0
  0
LINE
  5
25F
330
B
100
AcDbEntity
 67
     1
  8
1
  6
Continuous
 62
    18
100
AcDbLine
 10
4.124925
 20
4.518224
 30
0.0
 11
4.132487
 21
4.510661999999999
 31
0.0
  0
LINE
  5
260
330
B
100
AcDbEntity
 67
     1
  8
1
  6
Continuous
 62
    18
100
AcDbLine
 10
1.562114
 20
4.739146999999999
 30
0.0
 11
1.566724999999999
 21
4.736856999999999
 31
0.0
  0
LINE
  5
261
330
B
100
AcDbEntity
 67
     1
  8
1
  6
Continuous
 62
    18
100
AcDbLine
 10
1.543054
 20
4.7541
 30
0.0
 11
1.546273999999999
 21
4.75069
 31
0.0
  0
LINE
  5
262
330
B
100
AcDbEntity
 67
     1
  8
1
  6
Continuous
 62
    18
100
AcDbLine
 10
1.678892999999999
 20
6.319887
 30
0.0
 11
1.672398
 21
6.317235
 31
0.0
  0
LINE
  5
263
330
B
100
AcDbEntity
 67
     1
  8
1
  6
Continuous
 62
    18
100
AcDbLine
 10
2.261897999999999
 20
4.502676
 30
0.0
 11
2.261897999999999
 21
4.498486999999999
 31
0.0
  0
LINE
  5
264
330
B
100
AcDbEntity
 67
     1
  8
1
  6
Continuous
 62
    18
100
AcDbLine
 10
1.656419999999999
 20
6.618967999999999
 30
0.0
 11
1.658103999999999
 21
6.618939999999999
 31
0.0
  0
LINE
  5
265
330
B
100
AcDbEntity
 67
     1
  8
1
  6
Continuous
 62
    18
100
AcDbLine
 10
2.447964999999999
 20
4.546559999999999
 30
0.0
 11
2.448418999999999
 21
4.549882
 31
0.0
  0
LINE
  5
266
330
B
100
AcDbEntity
 67
     1
  8
1
  6
Continuous
 62
    18
100
AcDbLine
 10
2.179403999999999
 20
4.222744
 30
0.0
 11
2.179879
 21
4.195541
 31
0.0
  0
LINE
  5
267
330
B
100
AcDbEntity
 67
     1
  8
1
  6
Continuous
 62
    18
100
AcDbLine
 10
3.985687999999999
 20
4.385188999999999
 30
0.0
 11
4.121824
 21
4.521325
 31
0.0
  0
LINE
  5
268
330
B
100
AcDbEntity
 67
     1
  8
1
  6
Continuous
 62
    18
100
AcDbLine
 10
1.598009
 20
6.619211999999999
 30
0.0
 11
1.601445999999999
 21
6.61903
 31
0.0
  0
LINE
  5
269
330
B
100
AcDbEntity
 67
     1
  8
1
  6
Continuous
 62
    18
100
AcDbLine
 10
2.261897999999999
 20
6.350792
 30
0.0
 11
2.261897999999999
 21
6.342916
 31
0.0
  0
LINE
  5
26A
330
B
100
AcDbEntity
 67
     1
  8
1
  6
Continuous
 62
    18
100
AcDbLine
 10
1.549897999999999
 20
4.808921999999999
 30
0.0
 11
1.554084
 21
4.823803999999999
 31
0.0
  0
LINE
  5
26B
330
B
100
AcDbEntity
 67
     1
  8
1
  6
Continuous
 62
    18
100
AcDbLine
 10
1.539651
 20
5.891873999999999
 30
0.0
 11
1.529231
 21
5.891873999999999
 31
0.0
  0
LINE
  5
26C
330
B
100
AcDbEntity
 67
     1
  8
1
  6
Continuous
 62
    18
100
AcDbLine
 10
5.107439
 20
4.385031999999999
 30
0.0
 11
5.107270999999999
 21
4.385194999999999
 31
0.0
  0
LINE
  5
26D
330
B
100
AcDbEntity
 67
     1
  8
1
  6
Continuous
 62
    18
100
AcDbLine
 10
2.358632
 20
4.540251999999999
 30
0.0
 11
2.356306
 21
4.540251999999999
 31
0.0
  0
LINE
  5
26E
330
B
100
AcDbEntity
 67
     1
  8
1
  6
Continuous
 62
    18
100
AcDbLine
 10
1.679807
 20
4.722424
 30
0.0
 11
1.681625999999999
 21
4.721067999999999
 31
0.0
  0
LINE
  5
26F
330
B
100
AcDbEntity
 67
     1
  8
1
  6
Continuous
 62
    18
100
AcDbLine
 10
1.554084
 20
6.6786
 30
0.0
 11
1.566006999999999
 21
6.691216999999999
 31
0.0
  0
LINE
  5
270
330
B
100
AcDbEntity
 67
     1
  8
1
  6
Continuous
 62
    18
100
AcDbLine
 10
1.604897999999999
 20
4.734675
 30
0.0
 11
1.576196999999999
 21
4.738712
 31
0.0
  0
LINE
  5
271
330
B
100
AcDbEntity
 67
     1
  8
1
  6
Continuous
 62
    18
100
AcDbLine
 10
2.500966
 20
5.891873999999999
 30
0.0
 11
2.490545999999999
 21
5.891873999999999
 31
0.0
  0
LINE
  5
272
330
B
100
AcDbEntity
 67
     1
  8
1
  6
Continuous
 62
    18
100
AcDbLine
 10
1.607901999999999
 20
6.735639999999999
 30
0.0
 11
1.613278
 21
6.733500999999999
 31
0.0
  0
LINE
  5
273
330
B
100
AcDbEntity
 67
     1
  8
1
  6
Continuous
 62
    18
100
AcDbLine
 10
3.741205999999999
 20
4.385023999999999
 30
0.0
 11
5.679605999999999
 21
4.385023999999999
 31
0.0
  0
LINE
  5
274
330
B
100
AcDbEntity
 67
     1
  8
1
  6
Continuous
 62
    18
100
AcDbLine
 10
1.68642
 20
4.502677999999999
 30
0.0
 11
1.68642
 21
4.639273999999999
 31
0.0
  0
LINE
  5
275
330
B
100
AcDbEntity
 67
     1
  8
1
  6
Continuous
 62
    18
100
AcDbLine
 10
1.729897999999999
 20
4.437962999999999
 30
0.0
 11
1.729897999999999
 21
4.420046
 31
0.0
  0
LINE
  5
276
330
B
100
AcDbEntity
 67
     1
  8
1
  6
Continuous
 62
    18
100
AcDbLine
 10
2.344397999999999
 20
6.71675
 30
0.0
 11
2.33854
 21
6.70675
 31
0.0
  0
LINE
  5
277
330
B
100
AcDbEntity
 67
     1
  8
1
  6
Continuous
 62
    18
100
AcDbLine
 10
1.535508
 20
4.774653999999999
 30
0.0
 11
1.551743
 21
4.757366
 31
0.0
  0
LINE
  5
278
330
B
100
AcDbEntity
 67
     1
  8
1
  6
Continuous
 62
    18
100
AcDbLine
 10
1.679897999999999
 20
4.496833
 30
0.0
 11
1.679897999999999
 21
4.492759999999999
 31
0.0
  0
LINE
  5
279
330
B
100
AcDbEntity
 67
     1
  8
1
  6
Continuous
 62
    18
100
AcDbLine
 10
2.211898
 20
4.458872
 30
0.0
 11
2.211898
 21
4.437926999999999
 31
0.0
  0
LINE
  5
27A
330
B
100
AcDbEntity
 67
     1
  8
1
  6
Continuous
 62
    18
100
AcDbLine
 10
1.553621999999999
 20
6.634632
 30
0.0
 11
1.557715999999999
 21
6.631858
 31
0.0
  0
LINE
  5
27B
330
B
100
AcDbEntity
 67
     1
  8
1
  6
Continuous
 62
    18
100
AcDbLine
 10
1.539651
 20
5.891873999999999
 30
0.0
 11
2.490545999999999
 21
5.891873999999999
 31
0.0
  0
LINE
  5
27C
330
B
100
AcDbEntity
 67
     1
  8
1
  6
Continuous
 62
    18
100
AcDbLine
 10
1.551987
 20
6.715446
 30
0.0
 11
1.535706999999999
 21
6.698324
 31
0.0
  0
LINE
  5
27D
330
B
100
AcDbEntity
 67
     1
  8
1
  6
Continuous
 62
    18
100
AcDbLine
 10
2.344387999999999
 20
4.832451999999999
 30
0.0
 11
2.35392
 21
4.832451999999999
 31
0.0
  0
LINE
  5
27E
330
B
100
AcDbEntity
 67
     1
  8
1
  6
Continuous
 62
    18
100
AcDbLine
 10
2.447582
 20
4.385188999999999
 30
0.0
 11
2.369960999999999
 21
4.385188999999999
 31
0.0
  0
LINE
  5
27F
330
B
100
AcDbEntity
 67
     1
  8
1
  6
Continuous
 62
    18
100
AcDbLine
 10
5.606074999999999
 20
4.036598999999999
 30
0.0
 11
5.592156
 21
4.042364
 31
0.0
  0
LINE
  5
280
330
B
100
AcDbEntity
 67
     1
  8
1
  6
Continuous
 62
    18
100
AcDbLine
 10
1.549897999999999
 20
4.808921999999999
 30
0.0
 11
1.554084
 21
4.794038999999999
 31
0.0
  0
LINE
  5
281
330
B
100
AcDbEntity
 67
     1
  8
1
  6
Continuous
 62
    18
100
AcDbLine
 10
2.447582
 20
4.521325
 30
0.0
 11
2.369960999999999
 21
4.521325
 31
0.0
  0
LINE
  5
282
330
B
100
AcDbEntity
 67
     1
  8
1
  6
Continuous
 62
    18
100
AcDbLine
 10
1.532687999999999
 20
6.701042
 30
0.0
 11
1.531355
 21
6.696682
 31
0.0
  0
LINE
  5
283
330
B
100
AcDbEntity
 67
     1
  8
1
  6
Continuous
 62
    18
100
AcDbLine
 10
1.562569
 20
4.534642999999999
 30
0.0
 11
1.562587
 21
4.534838999999999
 31
0.0
  0
LINE
  5
284
330
B
100
AcDbEntity
 67
     1
  8
1
  6
Continuous
 62
    18
100
AcDbLine
 10
1.689086
 20
4.718759999999999
 30
0.0
 11
1.696370999999999
 21
4.718782
 31
0.0
  0
LINE
  5
285
330
B
100
AcDbEntity
 67
     1
  8
1
  6
Continuous
 62
    18
100
AcDbLine
 10
1.567005999999999
 20
6.735908999999999
 30
0.0
 11
1.562216
 21
6.733546
 31
0.0
  0
LINE
  5
286
330
B
100
AcDbEntity
 67
     1
  8
1
  6
Continuous
 62
    18
100
AcDbLine
 10
3.730544
 20
4.368802999999999
 30
0.0
 11
3.741144999999999
 21
4.368802999999999
 31
0.0
  0
LINE
  5
287
330
B
100
AcDbEntity
 67
     1
  8
1
  6
Continuous
 62
    18
100
AcDbLine
 10
1.68642
 20
4.720533
 30
0.0
 11
1.682852999999999
 21
4.730566999999999
 31
0.0
  0
LINE
  5
288
330
B
100
AcDbEntity
 67
     1
  8
1
  6
Continuous
 62
    18
100
AcDbLine
 10
1.670843
 20
4.385188999999999
 30
0.0
 11
1.667740999999999
 21
4.385188999999999
 31
0.0
  0
LINE
  5
289
330
B
100
AcDbEntity
 67
     1
  8
1
  6
Continuous
 62
    18
100
AcDbLine
 10
1.68312
 20
6.609866
 30
0.0
 11
1.684288999999999
 21
6.608569
 31
0.0
  0
LINE
  5
28A
330
B
100
AcDbEntity
 67
     1
  8
1
  6
Continuous
 62
    18
100
AcDbLine
 10
1.681600999999999
 20
6.384396999999999
 30
0.0
 11
1.68642
 21
6.389133999999999
 31
0.0
  0
LINE
  5
28B
330
B
100
AcDbEntity
 67
     1
  8
1
  6
Continuous
 62
    18
100
AcDbLine
 10
1.604677
 20
7.522061999999999
 30
0.0
 11
1.627303
 21
7.524035999999999
 31
0.0
  0
LINE
  5
28C
330
B
100
AcDbEntity
 67
     1
  8
1
  6
Continuous
 62
    18
100
AcDbLine
 10
1.678174999999999
 20
6.395172
 30
0.0
 11
1.677665999999999
 21
6.401832999999999
 31
0.0
  0
LINE
  5
28D
330
B
100
AcDbEntity
 67
     1
  8
1
  6
Continuous
 62
    18
100
AcDbLine
 10
1.539651
 20
6.648849
 30
0.0
 11
1.539651
 21
5.891873999999999
 31
0.0
  0
LINE
  5
28E
330
B
100
AcDbEntity
 67
     1
  8
1
  6
Continuous
 62
    18
100
AcDbLine
 10
1.70642
 20
4.437926999999999
 30
0.0
 11
1.70642
 21
4.420012999999999
 31
0.0
  0
LINE
  5
28F
330
B
100
AcDbEntity
 67
     1
  8
1
  6
Continuous
 62
    18
100
AcDbLine
 10
1.676897999999999
 20
6.408957
 30
0.0
 11
1.676897999999999
 21
6.404176
 31
0.0
  0
LINE
  5
290
330
B
100
AcDbEntity
 67
     1
  8
1
  6
Continuous
 62
    18
100
AcDbLine
 10
2.460928
 20
4.385188999999999
 30
0.0
 11
2.463197
 21
4.385188999999999
 31
0.0
  0
LINE
  5
291
330
B
100
AcDbEntity
 67
     1
  8
1
  6
Continuous
 62
    18
100
AcDbLine
 10
1.664111999999999
 20
4.306283
 30
0.0
 11
1.664111999999999
 21
4.195376
 31
0.0
  0
LINE
  5
292
330
B
100
AcDbEntity
 67
     1
  8
1
  6
Continuous
 62
    18
100
AcDbLine
 10
1.583237
 20
6.136356
 30
0.0
 11
1.575581999999999
 21
6.139189
 31
0.0
  0
LINE
  5
293
330
B
100
AcDbEntity
 67
     1
  8
1
  6
Continuous
 62
    18
100
AcDbLine
 10
3.730612
 20
4.370764
 30
0.0
 11
3.741205999999999
 21
4.370547
 31
0.0
  0
LINE
  5
294
330
B
100
AcDbEntity
 67
     1
  8
1
  6
Continuous
 62
    18
100
AcDbLine
 10
1.664525999999999
 20
4.742138999999999
 30
0.0
 11
1.664525999999999
 21
4.742899999999999
 31
0.0
  0
LINE
  5
295
330
B
100
AcDbEntity
 67
     1
  8
1
  6
Continuous
 62
    18
100
AcDbLine
 10
2.33854
 20
4.843669999999999
 30
0.0
 11
2.324397999999999
 21
4.847812999999999
 31
0.0
  0
LINE
  5
296
330
B
100
AcDbEntity
 67
     1
  8
1
  6
Continuous
 62
    18
100
AcDbLine
 10
1.729897999999999
 20
4.478298
 30
0.0
 11
1.729897999999999
 21
4.491932
 31
0.0
  0
LINE
  5
297
330
B
100
AcDbEntity
 67
     1
  8
1
  6
Continuous
 62
    18
100
AcDbLine
 10
4.7922
 20
4.963479
 30
0.0
 11
4.882117
 21
4.876647
 31
0.0
  0
LINE
  5
298
330
B
100
AcDbEntity
 67
     1
  8
1
  6
Continuous
 62
    18
100
AcDbLine
 10
1.679897999999999
 20
6.381858
 30
0.0
 11
1.674950999999999
 21
6.381858
 31
0.0
  0
LINE
  5
299
330
B
100
AcDbEntity
 67
     1
  8
1
  6
Continuous
 62
    18
100
AcDbLine
 10
2.356952
 20
6.340862
 30
0.0
 11
2.357409
 21
6.325052999999999
 31
0.0
  0
LINE
  5
29A
330
B
100
AcDbEntity
 67
     1
  8
1
  6
Continuous
 62
    18
100
AcDbLine
 10
2.113268999999999
 20
4.036598999999999
 30
0.0
 11
2.112154
 21
4.036598999999999
 31
0.0
  0
LINE
  5
29B
330
B
100
AcDbEntity
 67
     1
  8
1
  6
Continuous
 62
    18
100
AcDbLine
 10
1.601904
 20
4.950315999999999
 30
0.0
 11
1.581435
 21
4.936339
 31
0.0
  0
LINE
  5
29C
330
B
100
AcDbEntity
 67
     1
  8
1
  6
Continuous
 62
    18
100
AcDbLine
 10
1.679897999999999
 20
6.322537999999999
 30
0.0
 11
1.677700999999999
 21
6.326287999999999
 31
0.0
  0
LINE
  5
29D
330
B
100
AcDbEntity
 67
     1
  8
1
  6
Continuous
 62
    18
100
AcDbLine
 10
1.701949
 20
6.292112
 30
0.0
 11
1.674661999999999
 21
6.292112
 31
0.0
  0
LINE
  5
29E
330
B
100
AcDbEntity
 67
     1
  8
1
  6
Continuous
 62
    18
100
AcDbLine
 10
2.261897999999999
 20
6.357472
 30
0.0
 11
2.261897999999999
 21
6.350792
 31
0.0
  0
LINE
  5
29F
330
B
100
AcDbEntity
 67
     1
  8
1
  6
Continuous
 62
    18
100
AcDbLine
 10
1.545871999999999
 20
4.188890999999999
 30
0.0
 11
1.535270999999999
 21
4.188890999999999
 31
0.0
  0
LINE
  5
2A0
330
B
100
AcDbEntity
 67
     1
  8
1
  6
Continuous
 62
    18
100
AcDbLine
 10
1.671966
 20
6.302108999999999
 30
0.0
 11
1.679897999999999
 21
6.302108999999999
 31
0.0
  0
LINE
  5
2A1
330
B
100
AcDbEntity
 67
     1
  8
1
  6
Continuous
 62
    18
100
AcDbLine
 10
1.660857
 20
4.521325
 30
0.0
 11
1.667740999999999
 21
4.519383
 31
0.0
  0
LINE
  5
2A2
330
B
100
AcDbEntity
 67
     1
  8
1
  6
Continuous
 62
    18
100
AcDbLine
 10
1.673372999999999
 20
6.194568
 30
0.0
 11
1.673329999999999
 21
6.195776999999999
 31
0.0
  0
LINE
  5
2A3
330
B
100
AcDbEntity
 67
     1
  8
1
  6
Continuous
 62
    18
100
AcDbLine
 10
1.655511999999999
 20
6.400044
 30
0.0
 11
1.633512
 21
6.403777999999999
 31
0.0
  0
LINE
  5
2A4
330
B
100
AcDbEntity
 67
     1
  8
1
  6
Continuous
 62
    18
100
AcDbLine
 10
2.356306
 20
4.865207999999999
 30
0.0
 11
2.356288
 21
4.864952999999999
 31
0.0
  0
LINE
  5
2A5
330
B
100
AcDbEntity
 67
     1
  8
1
  6
Continuous
 62
    18
100
AcDbLine
 10
1.756877999999999
 20
4.195541
 30
0.0
 11
1.756177999999999
 21
4.195541
 31
0.0
  0
LINE
  5
2A6
330
B
100
AcDbEntity
 67
     1
  8
1
  6
Continuous
 62
    18
100
AcDbLine
 10
2.505536999999999
 20
7.830274
 30
0.0
 11
2.500966
 21
7.830274
 31
0.0
  0
LINE
  5
2A7
330
B
100
AcDbEntity
 67
     1
  8
1
  6
Continuous
 62
    18
100
AcDbLine
 10
2.12183
 20
4.266912999999999
 30
0.0
 11
1.908366999999999
 21
4.266912999999999
 31
0.0
  0
LINE
  5
2A8
330
B
100
AcDbEntity
 67
     1
  8
1
  6
Continuous
 62
    18
100
AcDbLine
 10
1.562569
 20
4.534642999999999
 30
0.0
 11
1.562569
 21
4.739091
 31
0.0
  0
LINE
  5
2A9
330
B
100
AcDbEntity
 67
     1
  8
1
  6
Continuous
 62
    18
100
AcDbLine
 10
1.539239
 20
6.713677999999999
 30
0.0
 11
1.536628
 21
6.709578999999999
 31
0.0
  0
LINE
  5
2AA
330
B
100
AcDbEntity
 67
     1
  8
1
  6
Continuous
 62
    18
100
AcDbLine
 10
2.261897999999999
 20
6.294272
 30
0.0
 11
2.261897999999999
 21
6.296983999999999
 31
0.0
  0
LINE
  5
2AB
330
B
100
AcDbEntity
 67
     1
  8
1
  6
Continuous
 62
    18
100
AcDbLine
 10
1.660857
 20
4.385188999999999
 30
0.0
 11
1.660857
 21
4.521325
 31
0.0
  0
LINE
  5
2AC
330
B
100
AcDbEntity
 67
     1
  8
1
  6
Continuous
 62
    18
100
AcDbLine
 10
1.529954999999999
 20
4.786863999999999
 30
0.0
 11
1.529922
 21
4.786179999999999
 31
0.0
  0
LINE
  5
2AD
330
B
100
AcDbEntity
 67
     1
  8
1
  6
Continuous
 62
    18
100
AcDbLine
 10
1.736420999999999
 20
4.502676
 30
0.0
 11
1.736420999999999
 21
4.498486999999999
 31
0.0
  0
LINE
  5
2AE
330
B
100
AcDbEntity
 67
     1
  8
1
  6
Continuous
 62
    18
100
AcDbLine
 10
2.448418999999999
 20
6.341434999999999
 30
0.0
 11
2.451238999999999
 21
6.45563
 31
0.0
  0
LINE
  5
2AF
330
B
100
AcDbEntity
 67
     1
  8
1
  6
Continuous
 62
    18
100
AcDbLine
 10
1.539651
 20
7.830274
 30
0.0
 11
1.529231
 21
7.830274
 31
0.0
  0
LINE
  5
2B0
330
B
100
AcDbEntity
 67
     1
  8
1
  6
Continuous
 62
    18
100
AcDbLine
 10
2.124896
 20
4.300877999999999
 30
0.0
 11
2.125439
 21
4.306283
 31
0.0
  0
LINE
  5
2B1
330
B
100
AcDbEntity
 67
     1
  8
1
  6
Continuous
 62
    18
100
AcDbLine
 10
1.847161
 20
4.258541
 30
0.0
 11
1.848335999999999
 21
4.258541
 31
0.0
  0
LINE
  5
2B2
330
B
100
AcDbEntity
 67
     1
  8
1
  6
Continuous
 62
    18
100
AcDbLine
 10
1.562114
 20
4.739146999999999
 30
0.0
 11
1.566724999999999
 21
4.736856999999999
 31
0.0
  0
LINE
  5
2B3
330
B
100
AcDbEntity
 67
     1
  8
1
  6
Continuous
 62
    18
100
AcDbLine
 10
1.656419999999999
 20
6.620491
 30
0.0
 11
1.656419999999999
 21
6.624825999999999
 31
0.0
  0
LINE
  5
2B4
330
B
100
AcDbEntity
 67
     1
  8
1
  6
Continuous
 62
    18
100
AcDbLine
 10
2.468249
 20
6.875969999999999
 30
0.0
 11
2.468249
 21
6.511737
 31
0.0
  0
LINE
  5
2B5
330
B
100
AcDbEntity
 67
     1
  8
1
  6
Continuous
 62
    18
100
AcDbLine
 10
2.356275999999999
 20
4.405483
 30
0.0
 11
2.356616999999999
 21
4.4032
 31
0.0
  0
LINE
  5
2B6
330
B
100
AcDbEntity
 67
     1
  8
1
  6
Continuous
 62
    18
100
AcDbLine
 10
1.604897999999999
 20
6.730892999999999
 30
0.0
 11
1.621727
 21
6.730892999999999
 31
0.0
  0
LINE
  5
2B7
330
B
100
AcDbEntity
 67
     1
  8
1
  6
Continuous
 62
    18
100
AcDbLine
 10
1.908366999999999
 20
4.266912999999999
 30
0.0
 11
1.907816999999999
 21
4.286598999999999
 31
0.0
  0
LINE
  5
2B8
330
B
100
AcDbEntity
 67
     1
  8
1
  6
Continuous
 62
    18
100
AcDbLine
 10
1.906436
 20
4.385023
 30
0.0
 11
1.905774
 21
4.390840999999999
 31
0.0
  0
LINE
  5
2B9
330
B
100
AcDbEntity
 67
     1
  8
1
  6
Continuous
 62
    18
100
AcDbLine
 10
1.624991
 20
4.739198
 30
0.0
 11
1.61925
 21
4.737606999999999
 31
0.0
  0
LINE
  5
2BA
330
B
100
AcDbEntity
 67
     1
  8
1
  6
Continuous
 62
    18
100
AcDbLine
 10
1.674661999999999
 20
4.424509999999999
 30
0.0
 11
1.674815
 21
4.427438999999999
 31
0.0
  0
LINE
  5
2BB
330
B
100
AcDbEntity
 67
     1
  8
1
  6
Continuous
 62
    18
100
AcDbLine
 10
2.324397999999999
 20
4.508401
 30
0.0
 11
2.338303999999999
 21
4.504423
 31
0.0
  0
LINE
  5
2BC
330
B
100
AcDbEntity
 67
     1
  8
1
  6
Continuous
 62
    18
100
AcDbLine
 10
2.397305999999999
 20
6.403777999999999
 30
0.0
 11
2.375306
 21
6.400044
 31
0.0
  0
LINE
  5
2BD
330
B
100
AcDbEntity
 67
     1
  8
1
  6
Continuous
 62
    18
100
AcDbLine
 10
2.369804999999999
 20
6.292685999999999
 30
0.0
 11
2.369960999999999
 21
6.272491999999999
 31
0.0
  0
LINE
  5
2BE
330
B
100
AcDbEntity
 67
     1
  8
1
  6
Continuous
 62
    18
100
AcDbLine
 10
1.562629999999999
 20
4.901248999999999
 30
0.0
 11
1.559642
 21
4.841804999999999
 31
0.0
  0
LINE
  5
2BF
330
B
100
AcDbEntity
 67
     1
  8
1
  6
Continuous
 62
    18
100
AcDbLine
 10
1.530184
 20
6.671985
 30
0.0
 11
1.530998999999999
 21
6.667675
 31
0.0
  0
LINE
  5
2C0
330
B
100
AcDbEntity
 67
     1
  8
1
  6
Continuous
 62
    18
100
AcDbLine
 10
1.539651
 20
4.370547
 30
0.0
 11
1.539651
 21
4.380813999999999
 31
0.0
  0
LINE
  5
2C1
330
B
100
AcDbEntity
 67
     1
  8
1
  6
Continuous
 62
    18
100
AcDbLine
 10
1.702120999999999
 20
4.424631999999999
 30
0.0
 11
1.701999
 21
4.427437999999999
 31
0.0
  0
LINE
  5
2C2
330
B
100
AcDbEntity
 67
     1
  8
1
  6
Continuous
 62
    18
100
AcDbLine
 10
1.528988
 20
7.840936
 30
0.0
 11
1.524599
 21
7.830335
 31
0.0
  0
LINE
  5
2C3
330
B
100
AcDbEntity
 67
     1
  8
1
  6
Continuous
 62
    18
100
AcDbLine
 10
2.357397999999999
 20
4.491462
 30
0.0
 11
2.357568999999999
 21
4.482164
 31
0.0
  0
LINE
  5
2C4
330
B
100
AcDbEntity
 67
     1
  8
1
  6
Continuous
 62
    18
100
AcDbLine
 10
1.961916
 20
3.991466
 30
0.0
 11
2.068281
 21
3.991466
 31
0.0
  0
LINE
  5
2C5
330
B
100
AcDbEntity
 67
     1
  8
1
  6
Continuous
 62
    18
100
AcDbLine
 10
1.536628
 20
4.819428
 30
0.0
 11
1.534461
 21
4.81524
 31
0.0
  0
LINE
  5
2C6
330
B
100
AcDbEntity
 67
     1
  8
1
  6
Continuous
 62
    18
100
AcDbLine
 10
1.68642
 20
6.529424999999999
 30
0.0
 11
1.689086
 21
6.538362999999999
 31
0.0
  0
LINE
  5
2C7
330
B
100
AcDbEntity
 67
     1
  8
1
  6
Continuous
 62
    18
100
AcDbLine
 10
1.566724999999999
 20
6.627008
 30
0.0
 11
1.571579999999999
 21
6.624974
 31
0.0
  0
LINE
  5
2C8
330
B
100
AcDbEntity
 67
     1
  8
1
  6
Continuous
 62
    18
100
AcDbLine
 10
1.655511999999999
 20
4.739971999999999
 30
0.0
 11
1.629145
 21
4.737314999999999
 31
0.0
  0
LINE
  5
2C9
330
B
100
AcDbEntity
 67
     1
  8
1
  6
Continuous
 62
    18
100
AcDbLine
 10
2.366291999999999
 20
6.400043
 30
0.0
 11
2.366291999999999
 21
6.729133
 31
0.0
  0
LINE
  5
2CA
330
B
100
AcDbEntity
 67
     1
  8
1
  6
Continuous
 62
    18
100
AcDbLine
 10
1.553339999999999
 20
4.837800999999999
 30
0.0
 11
1.549306999999999
 21
4.834584999999999
 31
0.0
  0
LINE
  5
2CB
330
B
100
AcDbEntity
 67
     1
  8
1
  6
Continuous
 62
    18
100
AcDbLine
 10
1.557715999999999
 20
6.631858
 30
0.0
 11
1.562114
 21
6.629297999999999
 31
0.0
  0
LINE
  5
2CC
330
B
100
AcDbEntity
 67
     1
  8
1
  6
Continuous
 62
    18
100
AcDbLine
 10
2.359309999999999
 20
4.385188999999999
 30
0.0
 11
2.359974999999999
 21
4.385188999999999
 31
0.0
  0
LINE
  5
2CD
330
B
100
AcDbEntity
 67
     1
  8
1
  6
Continuous
 62
    18
100
AcDbLine
 10
1.686154
 20
4.715126999999999
 30
0.0
 11
1.686354999999999
 21
4.714277
 31
0.0
  0
LINE
  5
2CE
330
B
100
AcDbEntity
 67
     1
  8
1
  6
Continuous
 62
    18
100
AcDbLine
 10
1.679897
 20
4.458904
 30
0.0
 11
1.672724
 21
4.458904
 31
0.0
  0
LINE
  5
2CF
330
B
100
AcDbEntity
 67
     1
  8
1
  6
Continuous
 62
    18
100
AcDbLine
 10
1.562216
 20
6.733546
 30
0.0
 11
1.557654
 21
6.730892999999999
 31
0.0
  0
LINE
  5
2D0
330
B
100
AcDbEntity
 67
     1
  8
1
  6
Continuous
 62
    18
100
AcDbLine
 10
2.448418999999999
 20
4.549882
 30
0.0
 11
2.368618
 21
4.549882
 31
0.0
  0
LINE
  5
2D1
330
B
100
AcDbEntity
 67
     1
  8
1
  6
Continuous
 62
    18
100
AcDbLine
 10
2.451238999999999
 20
6.45563
 30
0.0
 11
2.436381
 21
6.432381999999999
 31
0.0
  0
LINE
  5
2D2
330
B
100
AcDbEntity
 67
     1
  8
1
  6
Continuous
 62
    18
100
AcDbLine
 10
2.343072
 20
6.721813
 30
0.0
 11
2.344397999999999
 21
6.71675
 31
0.0
  0
LINE
  5
2D3
330
B
100
AcDbEntity
 67
     1
  8
1
  6
Continuous
 62
    18
100
AcDbLine
 10
4.190381999999999
 20
4.534642999999999
 30
0.0
 11
4.169191
 21
4.531852999999999
 31
0.0
  0
LINE
  5
2D4
330
B
100
AcDbEntity
 67
     1
  8
1
  6
Continuous
 62
    18
100
AcDbLine
 10
2.356939
 20
4.4032
 30
0.0
 11
2.357552
 21
4.398428
 31
0.0
  0
LINE
  5
2D5
330
B
100
AcDbEntity
 67
     1
  8
1
  6
Continuous
 62
    18
100
AcDbLine
 10
1.546273999999999
 20
4.75069
 30
0.0
 11
1.549776
 21
4.747501
 31
0.0
  0
LINE
  5
2D6
330
B
100
AcDbEntity
 67
     1
  8
1
  6
Continuous
 62
    18
100
AcDbLine
 10
1.736420999999999
 20
4.498486999999999
 30
0.0
 11
1.736420999999999
 21
4.496833
 31
0.0
  0
LINE
  5
2D7
330
B
100
AcDbEntity
 67
     1
  8
1
  6
Continuous
 62
    18
100
AcDbLine
 10
1.672398
 20
6.317235
 30
0.0
 11
1.672224
 21
6.317235
 31
0.0
  0
LINE
  5
2D8
330
B
100
AcDbEntity
 67
     1
  8
1
  6
Continuous
 62
    18
100
AcDbLine
 10
2.261897999999999
 20
4.498486999999999
 30
0.0
 11
2.261897999999999
 21
4.496833
 31
0.0
  0
LINE
  5
2D9
330
B
100
AcDbEntity
 67
     1
  8
1
  6
Continuous
 62
    18
100
AcDbLine
 10
1.56989
 20
6.146962999999999
 30
0.0
 11
1.567620999999999
 21
6.157682
 31
0.0
  0
LINE
  5
2DA
330
B
100
AcDbEntity
 67
     1
  8
1
  6
Continuous
 62
    18
100
AcDbLine
 10
1.699722
 20
4.752353
 30
0.0
 11
1.68142
 21
4.765293999999999
 31
0.0
  0
LINE
  5
2DB
330
B
100
AcDbEntity
 67
     1
  8
1
  6
Continuous
 62
    18
100
AcDbLine
 10
4.132487
 20
4.510661999999999
 30
0.0
 11
4.007013999999999
 21
4.385188999999999
 31
0.0
  0
LINE
  5
2DC
330
B
100
AcDbEntity
 67
     1
  8
1
  6
Continuous
 62
    18
100
AcDbLine
 10
2.490545999999999
 20
5.876883
 30
0.0
 11
2.50114
 21
5.88128
 31
0.0
  0
LINE
  5
2DD
330
B
100
AcDbEntity
 67
     1
  8
1
  6
Continuous
 62
    18
100
AcDbLine
 10
2.211898
 20
6.357472
 30
0.0
 11
2.261897999999999
 21
6.357472
 31
0.0
  0
LINE
  5
2DE
330
B
100
AcDbEntity
 67
     1
  8
1
  6
Continuous
 62
    18
100
AcDbLine
 10
1.554084
 20
4.823803999999999
 30
0.0
 11
1.566006999999999
 21
4.836420999999999
 31
0.0
  0
LINE
  5
2DF
330
B
100
AcDbEntity
 67
     1
  8
1
  6
Continuous
 62
    18
100
AcDbLine
 10
2.505597999999999
 20
7.830335
 30
0.0
 11
2.505536999999999
 21
7.830274
 31
0.0
  0
LINE
  5
2E0
330
B
100
AcDbEntity
 67
     1
  8
1
  6
Continuous
 62
    18
100
AcDbLine
 10
1.686154
 20
6.605278
 30
0.0
 11
1.686354999999999
 21
6.604427999999999
 31
0.0
  0
LINE
  5
2E1
330
B
100
AcDbEntity
 67
     1
  8
1
  6
Continuous
 62
    18
100
AcDbLine
 10
1.672225
 20
4.476581999999999
 30
0.0
 11
1.672398
 21
4.476581999999999
 31
0.0
  0
LINE
  5
2E2
330
B
100
AcDbEntity
 67
     1
  8
1
  6
Continuous
 62
    18
100
AcDbLine
 10
5.356304999999999
 20
4.385023999999999
 30
0.0
 11
5.356304999999999
 21
4.385188999999999
 31
0.0
  0
LINE
  5
2E3
330
B
100
AcDbEntity
 67
     1
  8
1
  6
Continuous
 62
    18
100
AcDbLine
 10
1.681625999999999
 20
4.721067999999999
 30
0.0
 11
1.68312
 21
4.719714999999999
 31
0.0
  0
LINE
  5
2E4
330
B
100
AcDbEntity
 67
     1
  8
1
  6
Continuous
 62
    18
100
AcDbLine
 10
1.566006999999999
 20
6.691216999999999
 30
0.0
 11
1.583849999999999
 21
6.699647999999999
 31
0.0
  0
LINE
  5
2E5
330
B
100
AcDbEntity
 67
     1
  8
1
  6
Continuous
 62
    18
100
AcDbLine
 10
1.576196999999999
 20
4.738712
 30
0.0
 11
1.551865
 21
4.750207999999999
 31
0.0
  0
LINE
  5
2E6
330
B
100
AcDbEntity
 67
     1
  8
1
  6
Continuous
 62
    18
100
AcDbLine
 10
1.613278
 20
6.733500999999999
 30
0.0
 11
1.618832999999999
 21
6.731625
 31
0.0
  0
LINE
  5
2E7
330
B
100
AcDbEntity
 67
     1
  8
1
  6
Continuous
 62
    18
100
AcDbLine
 10
5.679605999999999
 20
4.370547
 30
0.0
 11
3.741205999999999
 21
4.370547
 31
0.0
  0
LINE
  5
2E8
330
B
100
AcDbEntity
 67
     1
  8
1
  6
Continuous
 62
    18
100
AcDbLine
 10
2.33854
 20
6.70675
 30
0.0
 11
2.324397999999999
 21
6.702608
 31
0.0
  0
LINE
  5
2E9
330
B
100
AcDbEntity
 67
     1
  8
1
  6
Continuous
 62
    18
100
AcDbLine
 10
1.551743
 20
4.757366
 30
0.0
 11
1.576116999999999
 21
4.745807
 31
0.0
  0
LINE
  5
2EA
330
B
100
AcDbEntity
 67
     1
  8
1
  6
Continuous
 62
    18
100
AcDbLine
 10
1.604897999999999
 20
6.737963999999999
 30
0.0
 11
1.604897999999999
 21
6.730892999999999
 31
0.0
  0
LINE
  5
2EB
330
B
100
AcDbEntity
 67
     1
  8
1
  6
Continuous
 62
    18
100
AcDbLine
 10
1.70642
 20
6.320024
 30
0.0
 11
1.70642
 21
6.303169
 31
0.0
  0
LINE
  5
2EC
330
B
100
AcDbEntity
 67
     1
  8
1
  6
Continuous
 62
    18
100
AcDbLine
 10
2.271571999999999
 20
4.195541
 30
0.0
 11
2.272272
 21
4.195541
 31
0.0
  0
LINE
  5
2ED
330
B
100
AcDbEntity
 67
     1
  8
1
  6
Continuous
 62
    18
100
AcDbLine
 10
3.868937
 20
3.913315
 30
0.0
 11
3.877263999999999
 21
3.916448
 31
0.0
  0
LINE
  5
2EE
330
B
100
AcDbEntity
 67
     1
  8
1
  6
Continuous
 62
    18
100
AcDbLine
 10
2.211898
 20
4.437926999999999
 30
0.0
 11
2.211898
 21
4.420012999999999
 31
0.0
  0
LINE
  5
2EF
330
B
100
AcDbEntity
 67
     1
  8
1
  6
Continuous
 62
    18
100
AcDbLine
 10
1.567620999999999
 20
6.157682
 30
0.0
 11
1.567620999999999
 21
6.283155
 31
0.0
  0
LINE
  5
2F0
330
B
100
AcDbEntity
 67
     1
  8
1
  6
Continuous
 62
    18
100
AcDbLine
 10
2.261897999999999
 20
4.496833
 30
0.0
 11
2.261897999999999
 21
4.498486999999999
 31
0.0
  0
LINE
  5
2F1
330
B
100
AcDbEntity
 67
     1
  8
1
  6
Continuous
 62
    18
100
AcDbLine
 10
1.672724999999999
 20
4.458904
 30
0.0
 11
1.679897
 21
4.458904
 31
0.0
  0
LINE
  5
2F2
330
B
100
AcDbEntity
 67
     1
  8
1
  6
Continuous
 62
    18
100
AcDbLine
 10
5.592156
 20
4.042364
 30
0.0
 11
5.586389999999999
 21
4.056283
 31
0.0
  0
LINE
  5
2F3
330
B
100
AcDbEntity
 67
     1
  8
1
  6
Continuous
 62
    18
100
AcDbLine
 10
1.554084
 20
4.794038999999999
 30
0.0
 11
1.566006999999999
 21
4.781422
 31
0.0
  0
LINE
  5
2F4
330
B
100
AcDbEntity
 67
     1
  8
1
  6
Continuous
 62
    18
100
AcDbLine
 10
1.531355
 20
6.696682
 30
0.0
 11
1.530461999999999
 21
6.692234
 31
0.0
  0
LINE
  5
2F5
330
B
100
AcDbEntity
 67
     1
  8
1
  6
Continuous
 62
    18
100
AcDbLine
 10
2.261897999999999
 20
6.303168
 30
0.0
 11
2.261897999999999
 21
6.296983999999999
 31
0.0
  0
LINE
  5
2F6
330
B
100
AcDbEntity
 67
     1
  8
1
  6
Continuous
 62
    18
100
AcDbLine
 10
1.736420999999999
 20
4.496833
 30
0.0
 11
1.736420999999999
 21
4.498486999999999
 31
0.0
  0
LINE
  5
2F7
330
B
100
AcDbEntity
 67
     1
  8
1
  6
Continuous
 62
    18
100
AcDbLine
 10
2.324397999999999
 20
6.363197
 30
0.0
 11
2.324397999999999
 21
6.702608
 31
0.0
  0
LINE
  5
2F8
330
B
100
AcDbEntity
 67
     1
  8
1
  6
Continuous
 62
    18
100
AcDbLine
 10
1.583237
 20
4.521325
 30
0.0
 11
1.660857
 21
4.521325
 31
0.0
  0
LINE
  5
2F9
330
B
100
AcDbEntity
 67
     1
  8
1
  6
Continuous
 62
    18
100
AcDbLine
 10
3.741205999999999
 20
4.370547
 30
0.0
 11
3.741205999999999
 21
4.380813999999999
 31
0.0
  0
LINE
  5
2FA
330
B
100
AcDbEntity
 67
     1
  8
1
  6
Continuous
 62
    18
100
AcDbLine
 10
1.682852999999999
 20
4.730566999999999
 30
0.0
 11
1.672997
 21
4.738214
 31
0.0
  0
LINE
  5
2FB
330
B
100
AcDbEntity
 67
     1
  8
1
  6
Continuous
 62
    18
100
AcDbLine
 10
1.667740999999999
 20
4.385188999999999
 30
0.0
 11
1.660857
 21
4.385188999999999
 31
0.0
  0
LINE
  5
2FC
330
B
100
AcDbEntity
 67
     1
  8
1
  6
Continuous
 62
    18
100
AcDbLine
 10
1.637670999999999
 20
7.310450999999999
 30
0.0
 11
2.393148
 21
7.310450999999999
 31
0.0
  0
LINE
  5
2FD
330
B
100
AcDbEntity
 67
     1
  8
1
  6
Continuous
 62
    18
100
AcDbLine
 10
1.583237
 20
6.272491999999999
 30
0.0
 11
1.583237
 21
6.136356
 31
0.0
  0
LINE
  5
2FE
330
B
100
AcDbEntity
 67
     1
  8
1
  6
Continuous
 62
    18
100
AcDbLine
 10
1.736420999999999
 20
6.303169
 30
0.0
 11
1.736420999999999
 21
6.296983999999999
 31
0.0
  0
LINE
  5
2FF
330
B
100
AcDbEntity
 67
     1
  8
1
  6
Continuous
 62
    18
100
AcDbLine
 10
1.70642
 20
4.502676
 30
0.0
 11
1.70642
 21
4.498421999999999
 31
0.0
  0
LINE
  5
300
330
B
100
AcDbEntity
 67
     1
  8
1
  6
Continuous
 62
    18
100
AcDbLine
 10
1.706264
 20
4.420221999999999
 30
0.0
 11
1.70642
 21
4.420012999999999
 31
0.0
  0
LINE
  5
301
330
B
100
AcDbEntity
 67
     1
  8
1
  6
Continuous
 62
    18
100
AcDbLine
 10
1.718416999999999
 20
4.195376
 30
0.0
 11
1.720639
 21
4.259024
 31
0.0
  0
LINE
  5
302
330
B
100
AcDbEntity
 67
     1
  8
1
  6
Continuous
 62
    18
100
AcDbLine
 10
1.575581999999999
 20
6.139189
 30
0.0
 11
1.56989
 21
6.146962999999999
 31
0.0
  0
LINE
  5
303
330
B
100
AcDbEntity
 67
     1
  8
1
  6
Continuous
 62
    18
100
AcDbLine
 10
1.655511999999999
 20
4.739971999999999
 30
0.0
 11
1.655511999999999
 21
4.742138999999999
 31
0.0
  0
LINE
  5
304
330
B
100
AcDbEntity
 67
     1
  8
1
  6
Continuous
 62
    18
100
AcDbLine
 10
1.736420999999999
 20
6.302842
 30
0.0
 11
2.211898
 21
6.302842
 31
0.0
  0
LINE
  5
305
330
B
100
AcDbEntity
 67
     1
  8
1
  6
Continuous
 62
    18
100
AcDbLine
 10
2.344386999999999
 20
4.494726999999999
 30
0.0
 11
2.338303999999999
 21
4.504423
 31
0.0
  0
LINE
  5
306
330
B
100
AcDbEntity
 67
     1
  8
1
  6
Continuous
 62
    18
100
AcDbLine
 10
1.674512
 20
6.596835
 30
0.0
 11
1.671584
 21
6.601853
 31
0.0
  0
LINE
  5
307
330
B
100
AcDbEntity
 67
     1
  8
1
  6
Continuous
 62
    18
100
AcDbLine
 10
2.357409
 20
6.325052999999999
 30
0.0
 11
2.357568999999999
 21
6.311653999999999
 31
0.0
  0
LINE
  5
308
330
B
100
AcDbEntity
 67
     1
  8
1
  6
Continuous
 62
    18
100
AcDbLine
 10
1.581435
 20
4.936339
 30
0.0
 11
1.567900999999999
 21
4.918639999999999
 31
0.0
  0
LINE
  5
309
330
B
100
AcDbEntity
 67
     1
  8
1
  6
Continuous
 62
    18
100
AcDbLine
 10
1.677700999999999
 20
6.326287999999999
 30
0.0
 11
1.672398
 21
6.327841999999999
 31
0.0
  0
LINE
  5
30A
330
B
100
AcDbEntity
 67
     1
  8
1
  6
Continuous
 62
    18
100
AcDbLine
 10
2.211898
 20
4.491927999999999
 30
0.0
 11
2.211898
 21
4.478283
 31
0.0
  0
LINE
  5
30B
330
B
100
AcDbEntity
 67
     1
  8
1
  6
Continuous
 62
    18
100
AcDbLine
 10
2.375306
 20
4.549882
 30
0.0
 11
2.375306
 21
4.962341
 31
0.0
  0
LINE
  5
30C
330
B
100
AcDbEntity
 67
     1
  8
1
  6
Continuous
 62
    18
100
AcDbLine
 10
2.447582
 20
6.136356
 30
0.0
 11
2.369960999999999
 21
6.136356
 31
0.0
  0
LINE
  5
30D
330
B
100
AcDbEntity
 67
     1
  8
1
  6
Continuous
 62
    18
100
AcDbLine
 10
1.667740999999999
 20
4.519383
 30
0.0
 11
1.670843
 21
4.514623999999999
 31
0.0
  0
LINE
  5
30E
330
B
100
AcDbEntity
 67
     1
  8
1
  6
Continuous
 62
    18
100
AcDbLine
 10
1.530461999999999
 20
4.802083
 30
0.0
 11
1.530104999999999
 21
4.798605999999999
 31
0.0
  0
LINE
  5
30F
330
B
100
AcDbEntity
 67
     1
  8
1
  6
Continuous
 62
    18
100
AcDbLine
 10
1.604897999999999
 20
6.730892999999999
 30
0.0
 11
1.604897999999999
 21
6.737963999999999
 31
0.0
  0
LINE
  5
310
330
B
100
AcDbEntity
 67
     1
  8
1
  6
Continuous
 62
    18
100
AcDbLine
 10
1.633512
 20
6.403777999999999
 30
0.0
 11
1.612761
 21
6.414763999999999
 31
0.0
  0
LINE
  5
311
330
B
100
AcDbEntity
 67
     1
  8
1
  6
Continuous
 62
    18
100
AcDbLine
 10
2.458435999999999
 20
6.275592999999999
 30
0.0
 11
2.463197
 21
6.283155
 31
0.0
  0
LINE
  5
312
330
B
100
AcDbEntity
 67
     1
  8
1
  6
Continuous
 62
    18
100
AcDbLine
 10
1.604940999999999
 20
6.739541
 30
0.0
 11
1.629145
 21
6.731789
 31
0.0
  0
LINE
  5
313
330
B
100
AcDbEntity
 67
     1
  8
1
  6
Continuous
 62
    18
100
AcDbLine
 10
1.583849999999999
 20
6.699647999999999
 30
0.0
 11
1.566006999999999
 21
6.691216999999999
 31
0.0
  0
LINE
  5
314
330
B
100
AcDbEntity
 67
     1
  8
1
  6
Continuous
 62
    18
100
AcDbLine
 10
2.111088999999999
 20
3.924502999999999
 30
0.0
 11
2.124273
 21
4.287628999999999
 31
0.0
  0
LINE
  5
315
330
B
100
AcDbEntity
 67
     1
  8
1
  6
Continuous
 62
    18
100
AcDbLine
 10
1.583237
 20
6.272491999999999
 30
0.0
 11
1.660857
 21
6.272491999999999
 31
0.0
  0
LINE
  5
316
330
B
100
AcDbEntity
 67
     1
  8
1
  6
Continuous
 62
    18
100
AcDbLine
 10
1.529922
 20
4.786179999999999
 30
0.0
 11
1.530173999999999
 21
4.781833999999999
 31
0.0
  0
LINE
  5
317
330
B
100
AcDbEntity
 67
     1
  8
1
  6
Continuous
 62
    18
100
AcDbLine
 10
2.448418999999999
 20
6.341434999999999
 30
0.0
 11
2.368618
 21
6.341434999999999
 31
0.0
  0
LINE
  5
318
330
B
100
AcDbEntity
 67
     1
  8
1
  6
Continuous
 62
    18
100
AcDbLine
 10
1.655511999999999
 20
6.891849999999999
 30
0.0
 11
1.655511999999999
 21
6.919324999999999
 31
0.0
  0
LINE
  5
319
330
B
100
AcDbEntity
 67
     1
  8
1
  6
Continuous
 62
    18
100
AcDbLine
 10
1.529231
 20
7.830274
 30
0.0
 11
1.52466
 21
7.830274
 31
0.0
  0
LINE
  5
31A
330
B
100
AcDbEntity
 67
     1
  8
1
  6
Continuous
 62
    18
100
AcDbLine
 10
2.125043999999999
 20
6.216774
 30
0.0
 11
1.905774
 21
6.216774
 31
0.0
  0
LINE
  5
31B
330
B
100
AcDbEntity
 67
     1
  8
1
  6
Continuous
 62
    18
100
AcDbLine
 10
2.122174999999999
 20
4.306283
 30
0.0
 11
2.122506
 21
4.301008999999999
 31
0.0
  0
LINE
  5
31C
330
B
100
AcDbEntity
 67
     1
  8
1
  6
Continuous
 62
    18
100
AcDbLine
 10
1.672272999999999
 20
4.474516999999999
 30
0.0
 11
1.671942999999999
 21
4.494203999999999
 31
0.0
  0
LINE
  5
31D
330
B
100
AcDbEntity
 67
     1
  8
1
  6
Continuous
 62
    18
100
AcDbLine
 10
1.566724999999999
 20
4.736856999999999
 30
0.0
 11
1.571579999999999
 21
4.734823
 31
0.0
  0
LINE
  5
31E
330
B
100
AcDbEntity
 67
     1
  8
1
  6
Continuous
 62
    18
100
AcDbLine
 10
1.678892999999999
 20
4.468626
 30
0.0
 11
1.678892999999999
 21
4.47393
 31
0.0
  0
LINE
  5
31F
330
B
100
AcDbEntity
 67
     1
  8
1
  6
Continuous
 62
    18
100
AcDbLine
 10
2.261897999999999
 20
4.496833
 30
0.0
 11
2.211898
 21
4.496833
 31
0.0
  0
LINE
  5
320
330
B
100
AcDbEntity
 67
     1
  8
1
  6
Continuous
 62
    18
100
AcDbLine
 10
1.736420999999999
 20
6.320024
 30
0.0
 11
1.736420999999999
 21
6.303169
 31
0.0
  0
LINE
  5
321
330
B
100
AcDbEntity
 67
     1
  8
1
  6
Continuous
 62
    18
100
AcDbLine
 10
1.907816999999999
 20
4.286598999999999
 30
0.0
 11
1.907690999999999
 21
4.301008999999999
 31
0.0
  0
LINE
  5
322
330
B
100
AcDbEntity
 67
     1
  8
1
  6
Continuous
 62
    18
100
AcDbLine
 10
1.736420999999999
 20
6.302842
 30
0.0
 11
2.211898
 21
6.302842
 31
0.0
  0
LINE
  5
323
330
B
100
AcDbEntity
 67
     1
  8
1
  6
Continuous
 62
    18
100
AcDbLine
 10
1.61925
 20
4.737606999999999
 30
0.0
 11
1.613662999999999
 21
4.735744
 31
0.0
  0
LINE
  5
324
330
B
100
AcDbEntity
 67
     1
  8
1
  6
Continuous
 62
    18
100
AcDbLine
 10
1.672954999999999
 20
4.452382
 30
0.0
 11
1.672272999999999
 21
4.474516999999999
 31
0.0
  0
LINE
  5
325
330
B
100
AcDbEntity
 67
     1
  8
1
  6
Continuous
 62
    18
100
AcDbLine
 10
1.582398999999999
 20
4.549882
 30
0.0
 11
1.582854
 21
4.546559999999999
 31
0.0
  0
LINE
  5
326
330
B
100
AcDbEntity
 67
     1
  8
1
  6
Continuous
 62
    18
100
AcDbLine
 10
1.53959
 20
7.845325999999999
 30
0.0
 11
1.539651
 21
7.845264999999999
 31
0.0
  0
LINE
  5
327
330
B
100
AcDbEntity
 67
     1
  8
1
  6
Continuous
 62
    18
100
AcDbLine
 10
1.679897999999999
 20
6.381858
 30
0.0
 11
1.674950999999999
 21
6.381858
 31
0.0
  0
LINE
  5
328
330
B
100
AcDbEntity
 67
     1
  8
1
  6
Continuous
 62
    18
100
AcDbLine
 10
1.676897999999999
 20
6.614238999999999
 30
0.0
 11
1.676897999999999
 21
6.408957
 31
0.0
  0
LINE
  5
329
330
B
100
AcDbEntity
 67
     1
  8
1
  6
Continuous
 62
    18
100
AcDbLine
 10
1.539651
 20
4.380813999999999
 30
0.0
 11
1.539651
 21
4.385023999999999
 31
0.0
  0
LINE
  5
32A
330
B
100
AcDbEntity
 67
     1
  8
1
  6
Continuous
 62
    18
100
AcDbLine
 10
1.59321
 20
4.852966999999999
 30
0.0
 11
1.58776
 21
4.852148
 31
0.0
  0
LINE
  5
32B
330
B
100
AcDbEntity
 67
     1
  8
1
  6
Continuous
 62
    18
100
AcDbLine
 10
1.524599
 20
5.891812999999999
 30
0.0
 11
1.52466
 21
5.891873999999999
 31
0.0
  0
LINE
  5
32C
330
B
100
AcDbEntity
 67
     1
  8
1
  6
Continuous
 62
    18
100
AcDbLine
 10
2.068281
 20
3.991466
 30
0.0
 11
2.070216999999999
 21
3.993401
 31
0.0
  0
LINE
  5
32D
330
B
100
AcDbEntity
 67
     1
  8
1
  6
Continuous
 62
    18
100
AcDbLine
 10
1.583237
 20
4.521325
 30
0.0
 11
1.572383
 21
4.518224
 31
0.0
  0
LINE
  5
32E
330
B
100
AcDbEntity
 67
     1
  8
1
  6
Continuous
 62
    18
100
AcDbLine
 10
1.534461
 20
4.81524
 30
0.0
 11
1.532687999999999
 21
4.810891
 31
0.0
  0
LINE
  5
32F
330
B
100
AcDbEntity
 67
     1
  8
1
  6
Continuous
 62
    18
100
AcDbLine
 10
1.736420999999999
 20
4.437926999999999
 30
0.0
 11
1.736420999999999
 21
4.458872
 31
0.0
  0
LINE
  5
330
330
B
100
AcDbEntity
 67
     1
  8
1
  6
Continuous
 62
    18
100
AcDbLine
 10
1.68642
 20
6.529424999999999
 30
0.0
 11
1.68642
 21
6.522353999999999
 31
0.0
  0
LINE
  5
331
330
B
100
AcDbEntity
 67
     1
  8
1
  6
Continuous
 62
    18
100
AcDbLine
 10
1.551802
 20
6.715314999999999
 30
0.0
 11
1.576155999999999
 21
6.726843999999999
 31
0.0
  0
LINE
  5
332
330
B
100
AcDbEntity
 67
     1
  8
1
  6
Continuous
 62
    18
100
AcDbLine
 10
1.571579999999999
 20
6.624974
 30
0.0
 11
1.576602999999999
 21
6.623228999999999
 31
0.0
  0
LINE
  5
333
330
B
100
AcDbEntity
 67
     1
  8
1
  6
Continuous
 62
    18
100
AcDbLine
 10
1.909937
 20
6.199683999999999
 30
0.0
 11
2.120881
 21
6.199683999999999
 31
0.0
  0
LINE
  5
334
330
B
100
AcDbEntity
 67
     1
  8
1
  6
Continuous
 62
    18
100
AcDbLine
 10
2.181289
 20
4.258541
 30
0.0
 11
2.180115
 21
4.258541
 31
0.0
  0
LINE
  5
335
330
B
100
AcDbEntity
 67
     1
  8
1
  6
Continuous
 62
    18
100
AcDbLine
 10
1.676897999999999
 20
4.701642999999999
 30
0.0
 11
1.676897999999999
 21
4.491709999999999
 31
0.0
  0
LINE
  5
336
330
B
100
AcDbEntity
 67
     1
  8
1
  6
Continuous
 62
    18
100
AcDbLine
 10
4.878544999999999
 20
4.872948
 30
0.0
 11
4.868223999999999
 21
4.86226
 31
0.0
  0
LINE
  5
337
330
B
100
AcDbEntity
 67
     1
  8
1
  6
Continuous
 62
    18
100
AcDbLine
 10
1.686354999999999
 20
4.714277
 30
0.0
 11
1.686409
 21
4.713855
 31
0.0
  0
LINE
  5
338
330
B
100
AcDbEntity
 67
     1
  8
1
  6
Continuous
 62
    18
100
AcDbLine
 10
1.919106999999999
 20
3.924502999999999
 30
0.0
 11
1.919488
 21
3.916448
 31
0.0
  0
LINE
  5
339
330
B
100
AcDbEntity
 67
     1
  8
1
  6
Continuous
 62
    18
100
AcDbLine
 10
1.672398
 20
4.476581999999999
 30
0.0
 11
1.672398
 21
4.469674999999999
 31
0.0
  0
LINE
  5
33A
330
B
100
AcDbEntity
 67
     1
  8
1
  6
Continuous
 62
    18
100
AcDbLine
 10
1.557654
 20
6.730892999999999
 30
0.0
 11
1.553339999999999
 21
6.727952
 31
0.0
  0
LINE
  5
33B
330
B
100
AcDbEntity
 67
     1
  8
1
  6
Continuous
 62
    18
100
AcDbLine
 10
4.169191
 20
4.531852999999999
 30
0.0
 11
4.149443999999999
 21
4.523673999999999
 31
0.0
  0
LINE
  5
33C
330
B
100
AcDbEntity
 67
     1
  8
1
  6
Continuous
 62
    18
100
AcDbLine
 10
1.549776
 20
4.747501
 30
0.0
 11
1.553621999999999
 21
4.744480999999999
 31
0.0
  0
LINE
  5
33D
330
B
100
AcDbEntity
 67
     1
  8
1
  6
Continuous
 62
    18
100
AcDbLine
 10
1.699897999999999
 20
6.296983999999999
 30
0.0
 11
1.729897999999999
 21
6.296983999999999
 31
0.0
  0
LINE
  5
33E
330
B
100
AcDbEntity
 67
     1
  8
1
  6
Continuous
 62
    18
100
AcDbLine
 10
1.539651
 20
7.845264999999999
 30
0.0
 11
1.529056999999999
 21
7.840867999999999
 31
0.0
  0
LINE
  5
33F
330
B
100
AcDbEntity
 67
     1
  8
1
  6
Continuous
 62
    18
100
AcDbLine
 10
1.679897
 20
6.310164
 30
0.0
 11
1.67208
 21
6.310164
 31
0.0
  0
LINE
  5
340
330
B
100
AcDbEntity
 67
     1
  8
1
  6
Continuous
 62
    18
100
AcDbLine
 10
2.211898
 20
4.502676
 30
0.0
 11
2.261897999999999
 21
4.502676
 31
0.0
  0
LINE
  5
341
330
B
100
AcDbEntity
 67
     1
  8
1
  6
Continuous
 62
    18
100
AcDbLine
 10
2.359974999999999
 20
4.514623999999999
 30
0.0
 11
2.359818
 21
4.528528999999999
 31
0.0
  0
LINE
  5
342
330
B
100
AcDbEntity
 67
     1
  8
1
  6
Continuous
 62
    18
100
AcDbLine
 10
1.659775999999999
 20
6.618857000000001
 30
0.0
 11
1.663154
 21
6.618516
 31
0.0
  0
LINE
  5
343
330
B
100
AcDbEntity
 67
     1
  8
1
  6
Continuous
 62
    18
100
AcDbLine
 10
2.468249
 20
4.534642999999999
 30
0.0
 11
2.468231
 21
4.534838999999999
 31
0.0
  0
LINE
  5
344
330
B
100
AcDbEntity
 67
     1
  8
1
  6
Continuous
 62
    18
100
AcDbLine
 10
5.25724
 20
4.385188999999999
 30
0.0
 11
4.725302
 21
4.898875
 31
0.0
  0
LINE
  5
345
330
B
100
AcDbEntity
 67
     1
  8
1
  6
Continuous
 62
    18
100
AcDbLine
 10
1.70642
 20
6.357472
 30
0.0
 11
1.692277999999999
 21
6.361615
 31
0.0
  0
LINE
  5
346
330
B
100
AcDbEntity
 67
     1
  8
1
  6
Continuous
 62
    18
100
AcDbLine
 10
1.70642
 20
6.350792
 30
0.0
 11
1.70642
 21
6.357472
 31
0.0
  0
LINE
  5
347
330
B
100
AcDbEntity
 67
     1
  8
1
  6
Continuous
 62
    18
100
AcDbLine
 10
1.674512
 20
4.733271
 30
0.0
 11
1.674512
 21
4.540251999999999
 31
0.0
  0
LINE
  5
348
330
B
100
AcDbEntity
 67
     1
  8
1
  6
Continuous
 62
    18
100
AcDbLine
 10
1.566006999999999
 20
4.836420999999999
 30
0.0
 11
1.583849999999999
 21
4.844851999999999
 31
0.0
  0
LINE
  5
349
330
B
100
AcDbEntity
 67
     1
  8
1
  6
Continuous
 62
    18
100
AcDbLine
 10
1.686354999999999
 20
6.604427999999999
 30
0.0
 11
1.686409
 21
6.604006
 31
0.0
  0
LINE
  5
34A
330
B
100
AcDbEntity
 67
     1
  8
1
  6
Continuous
 62
    18
100
AcDbLine
 10
4.017026999999999
 20
4.385188999999999
 30
0.0
 11
4.017191999999999
 21
4.385023999999999
 31
0.0
  0
LINE
  5
34B
330
B
100
AcDbEntity
 67
     1
  8
1
  6
Continuous
 62
    18
100
AcDbLine
 10
1.736420999999999
 20
6.303169
 30
0.0
 11
1.736420999999999
 21
6.320024
 31
0.0
  0
LINE
  5
34C
330
B
100
AcDbEntity
 67
     1
  8
1
  6
Continuous
 62
    18
100
AcDbLine
 10
1.583849999999999
 20
6.699647999999999
 30
0.0
 11
1.604897999999999
 21
6.702608
 31
0.0
  0
LINE
  5
34D
330
B
100
AcDbEntity
 67
     1
  8
1
  6
Continuous
 62
    18
100
AcDbLine
 10
1.551865
 20
4.750207999999999
 30
0.0
 11
1.535606999999999
 21
4.767413999999999
 31
0.0
  0
LINE
  5
34E
330
B
100
AcDbEntity
 67
     1
  8
1
  6
Continuous
 62
    18
100
AcDbLine
 10
1.618832999999999
 20
6.731625
 30
0.0
 11
1.624546999999999
 21
6.730019
 31
0.0
  0
LINE
  5
34F
330
B
100
AcDbEntity
 67
     1
  8
1
  6
Continuous
 62
    18
100
AcDbLine
 10
2.261897999999999
 20
4.447401999999999
 30
0.0
 11
2.356737999999999
 21
4.447401999999999
 31
0.0
  0
LINE
  5
350
330
B
100
AcDbEntity
 67
     1
  8
1
  6
Continuous
 62
    18
100
AcDbLine
 10
3.741205999999999
 20
4.370547
 30
0.0
 11
3.741144999999999
 21
4.368802999999999
 31
0.0
  0
LINE
  5
351
330
B
100
AcDbEntity
 67
     1
  8
1
  6
Continuous
 62
    18
100
AcDbLine
 10
1.849045999999999
 20
4.222744
 30
0.0
 11
1.908284
 21
4.222744
 31
0.0
  0
LINE
  5
352
330
B
100
AcDbEntity
 67
     1
  8
1
  6
Continuous
 62
    18
100
AcDbLine
 10
1.672398
 20
4.469674999999999
 30
0.0
 11
1.672398
 21
4.476581999999999
 31
0.0
  0
LINE
  5
353
330
B
100
AcDbEntity
 67
     1
  8
1
  6
Continuous
 62
    18
100
AcDbLine
 10
1.576116999999999
 20
4.745807
 30
0.0
 11
1.604897999999999
 21
4.741746
 31
0.0
  0
LINE
  5
354
330
B
100
AcDbEntity
 67
     1
  8
1
  6
Continuous
 62
    18
100
AcDbLine
 10
1.676631
 20
6.199683999999999
 30
0.0
 11
1.676388
 21
6.200116
 31
0.0
  0
LINE
  5
355
330
B
100
AcDbEntity
 67
     1
  8
1
  6
Continuous
 62
    18
100
AcDbLine
 10
2.344397999999999
 20
6.377339
 30
0.0
 11
2.344397999999999
 21
6.71675
 31
0.0
  0
LINE
  5
356
330
B
100
AcDbEntity
 67
     1
  8
1
  6
Continuous
 62
    18
100
AcDbLine
 10
1.5336
 20
6.659366
 30
0.0
 11
1.535443
 21
6.655371
 31
0.0
  0
LINE
  5
357
330
B
100
AcDbEntity
 67
     1
  8
1
  6
Continuous
 62
    18
100
AcDbLine
 10
1.679897999999999
 20
4.481277999999999
 30
0.0
 11
1.679897999999999
 21
4.464466
 31
0.0
  0
LINE
  5
358
330
B
100
AcDbEntity
 67
     1
  8
1
  6
Continuous
 62
    18
100
AcDbLine
 10
1.571490999999999
 20
6.341166
 30
0.0
 11
1.566783999999999
 21
6.34105
 31
0.0
  0
LINE
  5
359
330
B
100
AcDbEntity
 67
     1
  8
1
  6
Continuous
 62
    18
100
AcDbLine
 10
2.211898
 20
4.496833
 30
0.0
 11
2.211898
 21
4.498486999999999
 31
0.0
  0
LINE
  5
35A
330
B
100
AcDbEntity
 67
     1
  8
1
  6
Continuous
 62
    18
100
AcDbLine
 10
5.543548
 20
3.916448
 30
0.0
 11
5.551874999999999
 21
3.913315
 31
0.0
  0
LINE
  5
35B
330
B
100
AcDbEntity
 67
     1
  8
1
  6
Continuous
 62
    18
100
AcDbLine
 10
1.604897999999999
 20
6.618967999999999
 30
0.0
 11
1.604897999999999
 21
6.620491999999999
 31
0.0
  0
LINE
  5
35C
330
B
100
AcDbEntity
 67
     1
  8
1
  6
Continuous
 62
    18
100
AcDbLine
 10
2.261897999999999
 20
4.498486999999999
 30
0.0
 11
2.261897999999999
 21
4.502676
 31
0.0
  0
LINE
  5
35D
330
B
100
AcDbEntity
 67
     1
  8
1
  6
Continuous
 62
    18
100
AcDbLine
 10
1.699897999999999
 20
4.496833
 30
0.0
 11
1.699897999999999
 21
4.492759999999999
 31
0.0
  0
LINE
  5
35E
330
B
100
AcDbEntity
 67
     1
  8
1
  6
Continuous
 62
    18
100
AcDbLine
 10
2.211898
 20
6.342916
 30
0.0
 11
2.211898
 21
6.350792
 31
0.0
  0
LINE
  5
35F
330
B
100
AcDbEntity
 67
     1
  8
1
  6
Continuous
 62
    18
100
AcDbLine
 10
5.694658
 20
4.368802999999999
 30
0.0
 11
5.688374999999999
 21
4.188890999999999
 31
0.0
  0
LINE
  5
360
330
B
100
AcDbEntity
 67
     1
  8
1
  6
Continuous
 62
    18
100
AcDbLine
 10
1.566006999999999
 20
4.781422
 30
0.0
 11
1.583849999999999
 21
4.772991
 31
0.0
  0
LINE
  5
361
330
B
100
AcDbEntity
 67
     1
  8
1
  6
Continuous
 62
    18
100
AcDbLine
 10
1.906043999999999
 20
6.204157
 30
0.0
 11
1.907046
 21
6.199683999999999
 31
0.0
  0
LINE
  5
362
330
B
100
AcDbEntity
 67
     1
  8
1
  6
Continuous
 62
    18
100
AcDbLine
 10
1.530006
 20
6.677699
 30
0.0
 11
1.529954999999999
 21
6.677014999999999
 31
0.0
  0
LINE
  5
363
330
B
100
AcDbEntity
 67
     1
  8
1
  6
Continuous
 62
    18
100
AcDbLine
 10
1.530461999999999
 20
6.692234
 30
0.0
 11
1.530046999999999
 21
6.687469
 31
0.0
  0
LINE
  5
364
330
B
100
AcDbEntity
 67
     1
  8
1
  6
Continuous
 62
    18
100
AcDbLine
 10
2.375306
 20
6.812503999999999
 30
0.0
 11
2.375306
 21
6.835755
 31
0.0
  0
LINE
  5
365
330
B
100
AcDbEntity
 67
     1
  8
1
  6
Continuous
 62
    18
100
AcDbLine
 10
1.567763
 20
4.545224
 30
0.0
 11
1.579579
 21
4.549882
 31
0.0
  0
LINE
  5
366
330
B
100
AcDbEntity
 67
     1
  8
1
  6
Continuous
 62
    18
100
AcDbLine
 10
2.344397999999999
 20
6.723822
 30
0.0
 11
2.344325999999999
 21
6.725017
 31
0.0
  0
LINE
  5
367
330
B
100
AcDbEntity
 67
     1
  8
1
  6
Continuous
 62
    18
100
AcDbLine
 10
1.736420999999999
 20
4.498486999999999
 30
0.0
 11
1.736420999999999
 21
4.502676
 31
0.0
  0
LINE
  5
368
330
B
100
AcDbEntity
 67
     1
  8
1
  6
Continuous
 62
    18
100
AcDbLine
 10
1.655511999999999
 20
4.962341
 30
0.0
 11
1.655511999999999
 21
4.878969999999999
 31
0.0
  0
LINE
  5
369
330
B
100
AcDbEntity
 67
     1
  8
1
  6
Continuous
 62
    18
100
AcDbLine
 10
1.699897999999999
 20
4.498486999999999
 30
0.0
 11
1.699897999999999
 21
4.496833
 31
0.0
  0
LINE
  5
36A
330
B
100
AcDbEntity
 67
     1
  8
1
  6
Continuous
 62
    18
100
AcDbLine
 10
1.562216
 20
6.733546
 30
0.0
 11
1.557654
 21
6.730892999999999
 31
0.0
  0
LINE
  5
36B
330
B
100
AcDbEntity
 67
     1
  8
1
  6
Continuous
 62
    18
100
AcDbLine
 10
1.660857
 20
4.521325
 30
0.0
 11
1.661013
 21
4.536819
 31
0.0
  0
LINE
  5
36C
330
B
100
AcDbEntity
 67
     1
  8
1
  6
Continuous
 62
    18
100
AcDbLine
 10
3.741205999999999
 20
4.380813999999999
 30
0.0
 11
3.741205999999999
 21
4.385023999999999
 31
0.0
  0
LINE
  5
36D
330
B
100
AcDbEntity
 67
     1
  8
1
  6
Continuous
 62
    18
100
AcDbLine
 10
1.604897999999999
 20
4.741746
 30
0.0
 11
1.604897999999999
 21
4.755887999999999
 31
0.0
  0
LINE
  5
36E
330
B
100
AcDbEntity
 67
     1
  8
1
  6
Continuous
 62
    18
100
AcDbLine
 10
1.583237
 20
4.385188999999999
 30
0.0
 11
1.660857
 21
4.385188999999999
 31
0.0
  0
LINE
  5
36F
330
B
100
AcDbEntity
 67
     1
  8
1
  6
Continuous
 62
    18
100
AcDbLine
 10
1.685166999999999
 20
6.607346
 30
0.0
 11
1.685763
 21
6.606266999999999
 31
0.0
  0
LINE
  5
370
330
B
100
AcDbEntity
 67
     1
  8
1
  6
Continuous
 62
    18
100
AcDbLine
 10
2.450801999999999
 20
7.296557
 30
0.0
 11
2.437324999999999
 21
7.018892
 31
0.0
  0
LINE
  5
371
330
B
100
AcDbEntity
 67
     1
  8
1
  6
Continuous
 62
    18
100
AcDbLine
 10
2.393148
 20
7.310450999999999
 30
0.0
 11
2.403515
 21
7.524035999999999
 31
0.0
  0
LINE
  5
372
330
B
100
AcDbEntity
 67
     1
  8
1
  6
Continuous
 62
    18
100
AcDbLine
 10
1.629145
 20
4.737314999999999
 30
0.0
 11
1.604940999999999
 21
4.729563999999999
 31
0.0
  0
LINE
  5
373
330
B
100
AcDbEntity
 67
     1
  8
1
  6
Continuous
 62
    18
100
AcDbLine
 10
2.490545999999999
 20
5.891873999999999
 30
0.0
 11
2.490545999999999
 21
7.265260999999999
 31
0.0
  0
LINE
  5
374
330
B
100
AcDbEntity
 67
     1
  8
1
  6
Continuous
 62
    18
100
AcDbLine
 10
1.70642
 20
4.498421999999999
 30
0.0
 11
1.70642
 21
4.496823
 31
0.0
  0
LINE
  5
375
330
B
100
AcDbEntity
 67
     1
  8
1
  6
Continuous
 62
    18
100
AcDbLine
 10
2.324123
 20
4.259024
 30
0.0
 11
2.123229
 21
4.259024
 31
0.0
  0
LINE
  5
376
330
B
100
AcDbEntity
 67
     1
  8
1
  6
Continuous
 62
    18
100
AcDbLine
 10
1.689086
 20
4.718759999999999
 30
0.0
 11
1.68642
 21
4.713591
 31
0.0
  0
LINE
  5
377
330
B
100
AcDbEntity
 67
     1
  8
1
  6
Continuous
 62
    18
100
AcDbLine
 10
1.582378
 20
6.741164
 30
0.0
 11
1.577116
 21
6.739721
 31
0.0
  0
LINE
  5
378
330
B
100
AcDbEntity
 67
     1
  8
1
  6
Continuous
 62
    18
100
AcDbLine
 10
2.338303999999999
 20
4.504423
 30
0.0
 11
2.324397999999999
 21
4.508401
 31
0.0
  0
LINE
  5
379
330
B
100
AcDbEntity
 67
     1
  8
1
  6
Continuous
 62
    18
100
AcDbLine
 10
1.671966
 20
6.302108999999999
 30
0.0
 11
1.679897
 21
6.302108999999999
 31
0.0
  0
LINE
  5
37A
330
B
100
AcDbEntity
 67
     1
  8
1
  6
Continuous
 62
    18
100
AcDbLine
 10
2.468249
 20
6.875969999999999
 30
0.0
 11
2.463686
 21
6.896039
 31
0.0
  0
LINE
  5
37B
330
B
100
AcDbEntity
 67
     1
  8
1
  6
Continuous
 62
    18
100
AcDbLine
 10
1.671584
 20
6.601853
 30
0.0
 11
1.664525999999999
 21
6.604152
 31
0.0
  0
LINE
  5
37C
330
B
100
AcDbEntity
 67
     1
  8
1
  6
Continuous
 62
    18
100
AcDbLine
 10
2.355439
 20
6.370686
 30
0.0
 11
2.342045999999999
 21
6.370686
 31
0.0
  0
LINE
  5
37D
330
B
100
AcDbEntity
 67
     1
  8
1
  6
Continuous
 62
    18
100
AcDbLine
 10
1.567900999999999
 20
4.918639999999999
 30
0.0
 11
1.562569
 21
4.898875
 31
0.0
  0
LINE
  5
37E
330
B
100
AcDbEntity
 67
     1
  8
1
  6
Continuous
 62
    18
100
AcDbLine
 10
2.211898
 20
6.342916
 30
0.0
 11
2.211898
 21
6.320024
 31
0.0
  0
LINE
  5
37F
330
B
100
AcDbEntity
 67
     1
  8
1
  6
Continuous
 62
    18
100
AcDbLine
 10
2.505597999999999
 20
4.368802999999999
 30
0.0
 11
2.499315999999999
 21
4.188890999999999
 31
0.0
  0
LINE
  5
380
330
B
100
AcDbEntity
 67
     1
  8
1
  6
Continuous
 62
    18
100
AcDbLine
 10
2.369960999999999
 20
6.136356
 30
0.0
 11
2.363077999999999
 21
6.14024
 31
0.0
  0
LINE
  5
381
330
B
100
AcDbEntity
 67
     1
  8
1
  6
Continuous
 62
    18
100
AcDbLine
 10
1.535606999999999
 20
4.767413999999999
 30
0.0
 11
1.551865
 21
4.750207999999999
 31
0.0
  0
LINE
  5
382
330
B
100
AcDbEntity
 67
     1
  8
1
  6
Continuous
 62
    18
100
AcDbLine
 10
1.672186999999999
 20
4.540251999999999
 30
0.0
 11
1.671458
 21
4.537270999999999
 31
0.0
  0
LINE
  5
383
330
B
100
AcDbEntity
 67
     1
  8
1
  6
Continuous
 62
    18
100
AcDbLine
 10
2.363077999999999
 20
4.519383
 30
0.0
 11
2.369960999999999
 21
4.521325
 31
0.0
  0
LINE
  5
384
330
B
100
AcDbEntity
 67
     1
  8
1
  6
Continuous
 62
    18
100
AcDbLine
 10
1.612761
 20
6.414763999999999
 30
0.0
 11
1.594437
 21
6.432381999999999
 31
0.0
  0
LINE
  5
385
330
B
100
AcDbEntity
 67
     1
  8
1
  6
Continuous
 62
    18
100
AcDbLine
 10
2.464034999999999
 20
6.34105
 30
0.0
 11
2.463579999999999
 21
6.319858999999999
 31
0.0
  0
LINE
  5
386
330
B
100
AcDbEntity
 67
     1
  8
1
  6
Continuous
 62
    18
100
AcDbLine
 10
1.629145
 20
6.731789
 30
0.0
 11
1.655511999999999
 21
6.729133
 31
0.0
  0
LINE
  5
387
330
B
100
AcDbEntity
 67
     1
  8
1
  6
Continuous
 62
    18
100
AcDbLine
 10
1.566006999999999
 20
6.691216999999999
 30
0.0
 11
1.554084
 21
6.6786
 31
0.0
  0
LINE
  5
388
330
B
100
AcDbEntity
 67
     1
  8
1
  6
Continuous
 62
    18
100
AcDbLine
 10
3.877263999999999
 20
3.916448
 30
0.0
 11
3.881041999999999
 21
3.924502999999999
 31
0.0
  0
LINE
  5
389
330
B
100
AcDbEntity
 67
     1
  8
1
  6
Continuous
 62
    18
100
AcDbLine
 10
1.919106999999999
 20
3.924502999999999
 30
0.0
 11
1.905924
 21
4.287628999999999
 31
0.0
  0
LINE
  5
38A
330
B
100
AcDbEntity
 67
     1
  8
1
  6
Continuous
 62
    18
100
AcDbLine
 10
1.660857
 20
6.272491999999999
 30
0.0
 11
1.661013
 21
6.292685999999999
 31
0.0
  0
LINE
  5
38B
330
B
100
AcDbEntity
 67
     1
  8
1
  6
Continuous
 62
    18
100
AcDbLine
 10
1.554084
 20
6.648835
 30
0.0
 11
1.566006999999999
 21
6.636217999999999
 31
0.0
  0
LINE
  5
38C
330
B
100
AcDbEntity
 67
     1
  8
1
  6
Continuous
 62
    18
100
AcDbLine
 10
1.674616999999999
 20
6.273934999999999
 30
0.0
 11
1.674661999999999
 21
6.279589999999999
 31
0.0
  0
LINE
  5
38D
330
B
100
AcDbEntity
 67
     1
  8
1
  6
Continuous
 62
    18
100
AcDbLine
 10
1.530173999999999
 20
4.781833999999999
 30
0.0
 11
1.530998999999999
 21
4.777523999999999
 31
0.0
  0
LINE
  5
38E
330
B
100
AcDbEntity
 67
     1
  8
1
  6
Continuous
 62
    18
100
AcDbLine
 10
1.68642
 20
6.596671
 30
0.0
 11
1.689086
 21
6.587733
 31
0.0
  0
LINE
  5
38F
330
B
100
AcDbEntity
 67
     1
  8
1
  6
Continuous
 62
    18
100
AcDbLine
 10
2.368618
 20
6.341434999999999
 30
0.0
 11
2.369347
 21
6.316201
 31
0.0
  0
LINE
  5
390
330
B
100
AcDbEntity
 67
     1
  8
1
  6
Continuous
 62
    18
100
AcDbLine
 10
1.701999
 20
4.427437999999999
 30
0.0
 11
1.701949
 21
4.424509999999999
 31
0.0
  0
LINE
  5
391
330
B
100
AcDbEntity
 67
     1
  8
1
  6
Continuous
 62
    18
100
AcDbLine
 10
1.656419999999999
 20
6.618967999999999
 30
0.0
 11
1.656419999999999
 21
6.620491
 31
0.0
  0
LINE
  5
392
330
B
100
AcDbEntity
 67
     1
  8
1
  6
Continuous
 62
    18
100
AcDbLine
 10
2.272197
 20
4.258541
 30
0.0
 11
2.273372
 21
4.258541
 31
0.0
  0
LINE
  5
393
330
B
100
AcDbEntity
 67
     1
  8
1
  6
Continuous
 62
    18
100
AcDbLine
 10
2.122506
 20
4.301008999999999
 30
0.0
 11
2.122379999999999
 21
4.286598999999999
 31
0.0
  0
LINE
  5
394
330
B
100
AcDbEntity
 67
     1
  8
1
  6
Continuous
 62
    18
100
AcDbLine
 10
1.571579999999999
 20
4.734823
 30
0.0
 11
1.576602999999999
 21
4.733077999999999
 31
0.0
  0
LINE
  5
395
330
B
100
AcDbEntity
 67
     1
  8
1
  6
Continuous
 62
    18
100
AcDbLine
 10
1.593493
 20
7.018892
 30
0.0
 11
1.620632999999999
 21
7.029213
 31
0.0
  0
LINE
  5
396
330
B
100
AcDbEntity
 67
     1
  8
1
  6
Continuous
 62
    18
100
AcDbLine
 10
2.125033999999999
 20
4.385023
 30
0.0
 11
2.125043999999999
 21
4.390840999999999
 31
0.0
  0
LINE
  5
397
330
B
100
AcDbEntity
 67
     1
  8
1
  6
Continuous
 62
    18
100
AcDbLine
 10
1.736420999999999
 20
4.496833
 30
0.0
 11
1.70642
 21
4.496833
 31
0.0
  0
LINE
  5
398
330
B
100
AcDbEntity
 67
     1
  8
1
  6
Continuous
 62
    18
100
AcDbLine
 10
1.671408999999999
 20
4.547029
 30
0.0
 11
1.674512
 21
4.540251999999999
 31
0.0
  0
LINE
  5
399
330
B
100
AcDbEntity
 67
     1
  8
1
  6
Continuous
 62
    18
100
AcDbLine
 10
1.907690999999999
 20
4.301008999999999
 30
0.0
 11
1.908023
 21
4.306283
 31
0.0
  0
LINE
  5
39A
330
B
100
AcDbEntity
 67
     1
  8
1
  6
Continuous
 62
    18
100
AcDbLine
 10
1.613662999999999
 20
4.735744
 30
0.0
 11
1.608245999999999
 21
4.733611999999999
 31
0.0
  0
LINE
  5
39B
330
B
100
AcDbEntity
 67
     1
  8
1
  6
Continuous
 62
    18
100
AcDbLine
 10
1.729897999999999
 20
6.320024
 30
0.0
 11
1.729897999999999
 21
6.303168
 31
0.0
  0
LINE
  5
39C
330
B
100
AcDbEntity
 67
     1
  8
1
  6
Continuous
 62
    18
100
AcDbLine
 10
1.68642
 20
6.522353999999999
 30
0.0
 11
1.689086
 21
6.517184999999999
 31
0.0
  0
LINE
  5
39D
330
B
100
AcDbEntity
 67
     1
  8
1
  6
Continuous
 62
    18
100
AcDbLine
 10
1.627391999999999
 20
6.815582
 30
0.0
 11
1.601904
 21
6.824528999999999
 31
0.0
  0
LINE
  5
39E
330
B
100
AcDbEntity
 67
     1
  8
1
  6
Continuous
 62
    18
100
AcDbLine
 10
1.671766999999999
 20
6.174685
 30
0.0
 11
1.673652
 21
6.200116
 31
0.0
  0
LINE
  5
39F
330
B
100
AcDbEntity
 67
     1
  8
1
  6
Continuous
 62
    18
100
AcDbLine
 10
2.494127
 20
4.385188999999999
 30
0.0
 11
2.468188999999999
 21
4.901248999999999
 31
0.0
  0
LINE
  5
3A0
330
B
100
AcDbEntity
 67
     1
  8
1
  6
Continuous
 62
    18
100
AcDbLine
 10
1.539651
 20
4.370547
 30
0.0
 11
1.529056999999999
 21
4.370764
 31
0.0
  0
LINE
  5
3A1
330
B
100
AcDbEntity
 67
     1
  8
1
  6
Continuous
 62
    18
100
AcDbLine
 10
1.562569
 20
6.511737
 30
0.0
 11
1.562569
 21
6.629247999999999
 31
0.0
  0
LINE
  5
3A2
330
B
100
AcDbEntity
 67
     1
  8
1
  6
Continuous
 62
    18
100
AcDbLine
 10
1.58776
 20
4.852148
 30
0.0
 11
1.582378
 21
4.851013
 31
0.0
  0
LINE
  5
3A3
330
B
100
AcDbEntity
 67
     1
  8
1
  6
Continuous
 62
    18
100
AcDbLine
 10
1.679897999999999
 20
6.370762
 30
0.0
 11
1.679897999999999
 21
6.371614
 31
0.0
  0
LINE
  5
3A4
330
B
100
AcDbEntity
 67
     1
  8
1
  6
Continuous
 62
    18
100
AcDbLine
 10
1.699897999999999
 20
4.464466
 30
0.0
 11
1.699897999999999
 21
4.445367
 31
0.0
  0
LINE
  5
3A5
330
B
100
AcDbEntity
 67
     1
  8
1
  6
Continuous
 62
    18
100
AcDbLine
 10
1.530998999999999
 20
6.667675
 30
0.0
 11
1.532135
 21
6.663467999999999
 31
0.0
  0
LINE
  5
3A6
330
B
100
AcDbEntity
 67
     1
  8
1
  6
Continuous
 62
    18
100
AcDbLine
 10
1.907046
 20
6.199683999999999
 30
0.0
 11
1.676631
 21
6.199683999999999
 31
0.0
  0
LINE
  5
3A7
330
B
100
AcDbEntity
 67
     1
  8
1
  6
Continuous
 62
    18
100
AcDbLine
 10
1.961916
 20
3.936505
 30
0.0
 11
1.961916
 21
3.991466
 31
0.0
  0
LINE
  5
3A8
330
B
100
AcDbEntity
 67
     1
  8
1
  6
Continuous
 62
    18
100
AcDbLine
 10
2.357706999999999
 20
6.214329
 30
0.0
 11
2.357507
 21
6.20349
 31
0.0
  0
LINE
  5
3A9
330
B
100
AcDbEntity
 67
     1
  8
1
  6
Continuous
 62
    18
100
AcDbLine
 10
1.532687999999999
 20
4.810891
 30
0.0
 11
1.531357999999999
 21
4.80653
 31
0.0
  0
LINE
  5
3AA
330
B
100
AcDbEntity
 67
     1
  8
1
  6
Continuous
 62
    18
100
AcDbLine
 10
1.530104999999999
 20
4.798605999999999
 30
0.0
 11
1.530034999999999
 21
4.795094
 31
0.0
  0
LINE
  5
3AB
330
B
100
AcDbEntity
 67
     1
  8
1
  6
Continuous
 62
    18
100
AcDbLine
 10
1.736420999999999
 20
4.458872
 30
0.0
 11
1.736420999999999
 21
4.478283
 31
0.0
  0
LINE
  5
3AC
330
B
100
AcDbEntity
 67
     1
  8
1
  6
Continuous
 62
    18
100
AcDbLine
 10
1.576602999999999
 20
6.623228999999999
 30
0.0
 11
1.581796999999999
 21
6.621769
 31
0.0
  0
LINE
  5
3AD
330
B
100
AcDbEntity
 67
     1
  8
1
  6
Continuous
 62
    18
100
AcDbLine
 10
1.68642
 20
4.706519999999999
 30
0.0
 11
1.689086
 21
4.697581999999999
 31
0.0
  0
LINE
  5
3AE
330
B
100
AcDbEntity
 67
     1
  8
1
  6
Continuous
 62
    18
100
AcDbLine
 10
2.271571999999999
 20
4.195541
 30
0.0
 11
2.271835999999999
 21
4.237824999999999
 31
0.0
  0
LINE
  5
3AF
330
B
100
AcDbEntity
 67
     1
  8
1
  6
Continuous
 62
    18
100
AcDbLine
 10
1.686409
 20
4.713855
 30
0.0
 11
1.68642
 21
4.713461999999999
 31
0.0
  0
LINE
  5
3B0
330
B
100
AcDbEntity
 67
     1
  8
1
  6
Continuous
 62
    18
100
AcDbLine
 10
1.736420999999999
 20
6.320024
 30
0.0
 11
1.736420999999999
 21
6.342916
 31
0.0
  0
LINE
  5
3B1
330
B
100
AcDbEntity
 67
     1
  8
1
  6
Continuous
 62
    18
100
AcDbLine
 10
2.261897999999999
 20
4.438679
 30
0.0
 11
2.261897999999999
 21
4.459455
 31
0.0
  0
LINE
  5
3B2
330
B
100
AcDbEntity
 67
     1
  8
1
  6
Continuous
 62
    18
100
AcDbLine
 10
1.553339999999999
 20
6.727952
 30
0.0
 11
1.549306999999999
 21
6.724736
 31
0.0
  0
LINE
  5
3B3
330
B
100
AcDbEntity
 67
     1
  8
1
  6
Continuous
 62
    18
100
AcDbLine
 10
1.70642
 20
6.320024
 30
0.0
 11
1.70642
 21
6.342916
 31
0.0
  0
LINE
  5
3B4
330
B
100
AcDbEntity
 67
     1
  8
1
  6
Continuous
 62
    18
100
AcDbLine
 10
1.678892999999999
 20
4.47393
 30
0.0
 11
1.672398
 21
4.476581999999999
 31
0.0
  0
LINE
  5
3B5
330
B
100
AcDbEntity
 67
     1
  8
1
  6
Continuous
 62
    18
100
AcDbLine
 10
4.149443999999999
 20
4.523673999999999
 30
0.0
 11
4.132487
 21
4.510661999999999
 31
0.0
  0
LINE
  5
3B6
330
B
100
AcDbEntity
 67
     1
  8
1
  6
Continuous
 62
    18
100
AcDbLine
 10
1.655511999999999
 20
6.863075999999999
 30
0.0
 11
1.655511999999999
 21
6.891849999999999
 31
0.0
  0
LINE
  5
3B7
330
B
100
AcDbEntity
 67
     1
  8
1
  6
Continuous
 62
    18
100
AcDbLine
 10
1.553621999999999
 20
4.744480999999999
 30
0.0
 11
1.557715999999999
 21
4.741706999999999
 31
0.0
  0
LINE
  5
3B8
330
B
100
AcDbEntity
 67
     1
  8
1
  6
Continuous
 62
    18
100
AcDbLine
 10
1.679897
 20
6.381858
 30
0.0
 11
1.674950999999999
 21
6.381858
 31
0.0
  0
LINE
  5
3B9
330
B
100
AcDbEntity
 67
     1
  8
1
  6
Continuous
 62
    18
100
AcDbLine
 10
1.672398
 20
6.317235
 30
0.0
 11
1.672398
 21
6.324142
 31
0.0
  0
LINE
  5
3BA
330
B
100
AcDbEntity
 67
     1
  8
1
  6
Continuous
 62
    18
100
AcDbLine
 10
2.261897999999999
 20
4.502676
 30
0.0
 11
2.261897999999999
 21
4.502743999999999
 31
0.0
  0
LINE
  5
3BB
330
B
100
AcDbEntity
 67
     1
  8
1
  6
Continuous
 62
    18
100
AcDbLine
 10
1.626802
 20
6.938988
 30
0.0
 11
1.655511999999999
 21
6.942867999999998
 31
0.0
  0
LINE
  5
3BC
330
B
100
AcDbEntity
 67
     1
  8
1
  6
Continuous
 62
    18
100
AcDbLine
 10
1.663154
 20
6.618516
 30
0.0
 11
1.666446999999999
 21
6.617952999999999
 31
0.0
  0
LINE
  5
3BD
330
B
100
AcDbEntity
 67
     1
  8
1
  6
Continuous
 62
    18
100
AcDbLine
 10
4.725302
 20
4.898875
 30
0.0
 11
4.361069
 21
4.534642999999999
 31
0.0
  0
LINE
  5
3BE
330
B
100
AcDbEntity
 67
     1
  8
1
  6
Continuous
 62
    18
100
AcDbLine
 10
1.736420999999999
 20
6.310164
 30
0.0
 11
2.211898
 21
6.310164
 31
0.0
  0
LINE
  5
3BF
330
B
100
AcDbEntity
 67
     1
  8
1
  6
Continuous
 62
    18
100
AcDbLine
 10
1.583849999999999
 20
4.844851999999999
 30
0.0
 11
1.604897999999999
 21
4.847812999999999
 31
0.0
  0
LINE
  5
3C0
330
B
100
AcDbEntity
 67
     1
  8
1
  6
Continuous
 62
    18
100
AcDbLine
 10
1.70642
 20
6.296983999999999
 30
0.0
 11
1.70642
 21
6.303169
 31
0.0
  0
LINE
  5
3C1
330
B
100
AcDbEntity
 67
     1
  8
1
  6
Continuous
 62
    18
100
AcDbLine
 10
1.686409
 20
6.604006
 30
0.0
 11
1.68642
 21
6.603613
 31
0.0
  0
LINE
  5
3C2
330
B
100
AcDbEntity
 67
     1
  8
1
  6
Continuous
 62
    18
100
AcDbLine
 10
2.463197
 20
4.510661999999999
 30
0.0
 11
2.463197
 21
4.385188999999999
 31
0.0
  0
LINE
  5
3C3
330
B
100
AcDbEntity
 67
     1
  8
1
  6
Continuous
 62
    18
100
AcDbLine
 10
2.344397999999999
 20
6.392243999999999
 30
0.0
 11
2.35392
 21
6.392243999999999
 31
0.0
  0
LINE
  5
3C4
330
B
100
AcDbEntity
 67
     1
  8
1
  6
Continuous
 62
    18
100
AcDbLine
 10
4.123267
 20
4.385188999999999
 30
0.0
 11
4.123267
 21
4.385023999999999
 31
0.0
  0
LINE
  5
3C5
330
B
100
AcDbEntity
 67
     1
  8
1
  6
Continuous
 62
    18
100
AcDbLine
 10
1.684288999999999
 20
4.718417999999999
 30
0.0
 11
1.685166999999999
 21
4.717194999999999
 31
0.0
  0
LINE
  5
3C6
330
B
100
AcDbEntity
 67
     1
  8
1
  6
Continuous
 62
    18
100
AcDbLine
 10
1.656419999999999
 20
6.624825999999999
 30
0.0
 11
1.604897999999999
 21
6.624825999999999
 31
0.0
  0
LINE
  5
3C7
330
B
100
AcDbEntity
 67
     1
  8
1
  6
Continuous
 62
    18
100
AcDbLine
 10
1.535606999999999
 20
4.767413999999999
 30
0.0
 11
1.529898
 21
4.787708
 31
0.0
  0
LINE
  5
3C8
330
B
100
AcDbEntity
 67
     1
  8
1
  6
Continuous
 62
    18
100
AcDbLine
 10
1.624546999999999
 20
6.730019
 30
0.0
 11
1.630392
 21
6.728688
 31
0.0
  0
LINE
  5
3C9
330
B
100
AcDbEntity
 67
     1
  8
1
  6
Continuous
 62
    18
100
AcDbLine
 10
2.261897999999999
 20
4.482162999999999
 30
0.0
 11
2.357568999999999
 21
4.482162999999999
 31
0.0
  0
LINE
  5
3CA
330
B
100
AcDbEntity
 67
     1
  8
1
  6
Continuous
 62
    18
100
AcDbLine
 10
1.567620999999999
 20
6.157682
 30
0.0
 11
1.555879
 21
6.633217
 31
0.0
  0
LINE
  5
3CB
330
B
100
AcDbEntity
 67
     1
  8
1
  6
Continuous
 62
    18
100
AcDbLine
 10
5.679667
 20
4.368802999999999
 30
0.0
 11
5.679605999999999
 21
4.370547
 31
0.0
  0
LINE
  5
3CC
330
B
100
AcDbEntity
 67
     1
  8
1
  6
Continuous
 62
    18
100
AcDbLine
 10
2.33854
 20
6.367339
 30
0.0
 11
2.344397999999999
 21
6.377339
 31
0.0
  0
LINE
  5
3CD
330
B
100
AcDbEntity
 67
     1
  8
1
  6
Continuous
 62
    18
100
AcDbLine
 10
1.604897999999999
 20
4.741746
 30
0.0
 11
1.604897999999999
 21
4.755887999999999
 31
0.0
  0
LINE
  5
3CE
330
B
100
AcDbEntity
 67
     1
  8
1
  6
Continuous
 62
    18
100
AcDbLine
 10
1.535443
 20
6.655371
 30
0.0
 11
1.537639999999999
 21
6.651525
 31
0.0
  0
LINE
  5
3CF
330
B
100
AcDbEntity
 67
     1
  8
1
  6
Continuous
 62
    18
100
AcDbLine
 10
1.679897999999999
 20
4.464466
 30
0.0
 11
1.679897999999999
 21
4.445367
 31
0.0
  0
LINE
  5
3D0
330
B
100
AcDbEntity
 67
     1
  8
1
  6
Continuous
 62
    18
100
AcDbLine
 10
3.726154
 20
4.368802999999999
 30
0.0
 11
3.726215
 21
4.370547
 31
0.0
  0
LINE
  5
3D1
330
B
100
AcDbEntity
 67
     1
  8
1
  6
Continuous
 62
    18
100
AcDbLine
 10
2.211898
 20
4.498486999999999
 30
0.0
 11
2.211898
 21
4.502676
 31
0.0
  0
LINE
  5
3D2
330
B
100
AcDbEntity
 67
     1
  8
1
  6
Continuous
 62
    18
100
AcDbLine
 10
2.356157
 20
6.290693
 30
0.0
 11
2.261897999999999
 21
6.290693
 31
0.0
  0
LINE
  5
3D3
330
B
100
AcDbEntity
 67
     1
  8
1
  6
Continuous
 62
    18
100
AcDbLine
 10
1.604897999999999
 20
6.620491999999999
 30
0.0
 11
1.604897999999999
 21
6.624825999999999
 31
0.0
  0
LINE
  5
3D4
330
B
100
AcDbEntity
 67
     1
  8
1
  6
Continuous
 62
    18
100
AcDbLine
 10
2.261897999999999
 20
4.496833
 30
0.0
 11
2.261897999999999
 21
4.492016999999999
 31
0.0
  0
LINE
  5
3D5
330
B
100
AcDbEntity
 67
     1
  8
1
  6
Continuous
 62
    18
100
AcDbLine
 10
1.576196999999999
 20
4.738712
 30
0.0
 11
1.604897999999999
 21
4.734675
 31
0.0
  0
LINE
  5
3D6
330
B
100
AcDbEntity
 67
     1
  8
1
  6
Continuous
 62
    18
100
AcDbLine
 10
1.699897999999999
 20
4.492759999999999
 30
0.0
 11
1.699897999999999
 21
4.481277999999999
 31
0.0
  0
LINE
  5
3D7
330
B
100
AcDbEntity
 67
     1
  8
1
  6
Continuous
 62
    18
100
AcDbLine
 10
5.694596999999999
 20
4.370547
 30
0.0
 11
5.694658
 21
4.368802999999999
 31
0.0
  0
LINE
  5
3D8
330
B
100
AcDbEntity
 67
     1
  8
1
  6
Continuous
 62
    18
100
AcDbLine
 10
1.583849999999999
 20
4.772991
 30
0.0
 11
1.604897999999999
 21
4.770030999999999
 31
0.0
  0
LINE
  5
3D9
330
B
100
AcDbEntity
 67
     1
  8
1
  6
Continuous
 62
    18
100
AcDbLine
 10
1.656419999999999
 20
6.618967999999999
 30
0.0
 11
1.658103999999999
 21
6.618939999999999
 31
0.0
  0
LINE
  5
3DA
330
B
100
AcDbEntity
 67
     1
  8
1
  6
Continuous
 62
    18
100
AcDbLine
 10
2.375306
 20
6.835755
 30
0.0
 11
2.375306
 21
6.863075999999999
 31
0.0
  0
LINE
  5
3DB
330
B
100
AcDbEntity
 67
     1
  8
1
  6
Continuous
 62
    18
100
AcDbLine
 10
1.566783999999999
 20
4.534642999999999
 30
0.0
 11
1.562569
 21
4.534642999999999
 31
0.0
  0
LINE
  5
3DC
330
B
100
AcDbEntity
 67
     1
  8
1
  6
Continuous
 62
    18
100
AcDbLine
 10
2.344325999999999
 20
6.725017
 30
0.0
 11
2.344111999999999
 21
6.726203999999999
 31
0.0
  0
LINE
  5
3DD
330
B
100
AcDbEntity
 67
     1
  8
1
  6
Continuous
 62
    18
100
AcDbLine
 10
1.736420999999999
 20
4.496833
 30
0.0
 11
1.736420999999999
 21
4.491927999999999
 31
0.0
  0
LINE
  5
3DE
330
B
100
AcDbEntity
 67
     1
  8
1
  6
Continuous
 62
    18
100
AcDbLine
 10
1.554084
 20
6.648835
 30
0.0
 11
1.549897999999999
 21
6.663717
 31
0.0
  0
LINE
  5
3DF
330
B
100
AcDbEntity
 67
     1
  8
1
  6
Continuous
 62
    18
100
AcDbLine
 10
1.557654
 20
6.730892999999999
 30
0.0
 11
1.553339999999999
 21
6.727952
 31
0.0
  0
LINE
  5
3E0
330
B
100
AcDbEntity
 67
     1
  8
1
  6
Continuous
 62
    18
100
AcDbLine
 10
3.726215
 20
4.370547
 30
0.0
 11
3.730612
 21
4.370764
 31
0.0
  0
LINE
  5
3E1
330
B
100
AcDbEntity
 67
     1
  8
1
  6
Continuous
 62
    18
100
AcDbLine
 10
2.505597999999999
 20
5.891812999999999
 30
0.0
 11
2.505597999999999
 21
7.830335
 31
0.0
  0
LINE
  5
3E2
330
B
100
AcDbEntity
 67
     1
  8
1
  6
Continuous
 62
    18
100
AcDbLine
 10
1.604897999999999
 20
4.755887999999999
 30
0.0
 11
1.604897999999999
 21
4.770030999999999
 31
0.0
  0
LINE
  5
3E3
330
B
100
AcDbEntity
 67
     1
  8
1
  6
Continuous
 62
    18
100
AcDbLine
 10
1.583237
 20
4.385188999999999
 30
0.0
 11
1.575581999999999
 21
4.385188999999999
 31
0.0
  0
LINE
  5
3E4
330
B
100
AcDbEntity
 67
     1
  8
1
  6
Continuous
 62
    18
100
AcDbLine
 10
2.271571999999999
 20
4.195541
 30
0.0
 11
2.181915
 21
4.195541
 31
0.0
  0
LINE
  5
3E5
330
B
100
AcDbEntity
 67
     1
  8
1
  6
Continuous
 62
    18
100
AcDbLine
 10
1.627303
 20
7.524035999999999
 30
0.0
 11
2.403515
 21
7.524035999999999
 31
0.0
  0
LINE
  5
3E6
330
B
100
AcDbEntity
 67
     1
  8
1
  6
Continuous
 62
    18
100
AcDbLine
 10
1.670843
 20
6.279193
 30
0.0
 11
1.670843
 21
6.149758
 31
0.0
  0
LINE
  5
3E7
330
B
100
AcDbEntity
 67
     1
  8
1
  6
Continuous
 62
    18
100
AcDbLine
 10
2.490545999999999
 20
7.449196999999999
 30
0.0
 11
2.490545999999999
 21
7.830274
 31
0.0
  0
LINE
  5
3E8
330
B
100
AcDbEntity
 67
     1
  8
1
  6
Continuous
 62
    18
100
AcDbLine
 10
2.211898
 20
6.296983999999999
 30
0.0
 11
2.261897999999999
 21
6.296983999999999
 31
0.0
  0
LINE
  5
3E9
330
B
100
AcDbEntity
 67
     1
  8
1
  6
Continuous
 62
    18
100
AcDbLine
 10
1.906965
 20
4.259024
 30
0.0
 11
1.720639
 21
4.259024
 31
0.0
  0
LINE
  5
3EA
330
B
100
AcDbEntity
 67
     1
  8
1
  6
Continuous
 62
    18
100
AcDbLine
 10
1.664525999999999
 20
4.739971999999999
 30
0.0
 11
1.655511999999999
 21
4.739971999999999
 31
0.0
  0
LINE
  5
3EB
330
B
100
AcDbEntity
 67
     1
  8
1
  6
Continuous
 62
    18
100
AcDbLine
 10
2.344397999999999
 20
4.833670999999999
 30
0.0
 11
2.344397999999999
 21
4.494730999999999
 31
0.0
  0
LINE
  5
3EC
330
B
100
AcDbEntity
 67
     1
  8
1
  6
Continuous
 62
    18
100
AcDbLine
 10
2.366291999999999
 20
4.878969999999999
 30
0.0
 11
2.359408999999999
 21
4.872161
 31
0.0
  0
LINE
  5
3ED
330
B
100
AcDbEntity
 67
     1
  8
1
  6
Continuous
 62
    18
100
AcDbLine
 10
2.357568999999999
 20
6.311652999999999
 30
0.0
 11
2.357397999999999
 21
6.302355
 31
0.0
  0
LINE
  5
3EE
330
B
100
AcDbEntity
 67
     1
  8
1
  6
Continuous
 62
    18
100
AcDbLine
 10
1.676897999999999
 20
6.404176
 30
0.0
 11
1.686420999999999
 21
6.404176
 31
0.0
  0
LINE
  5
3EF
330
B
100
AcDbEntity
 67
     1
  8
1
  6
Continuous
 62
    18
100
AcDbLine
 10
2.211898
 20
6.320024
 30
0.0
 11
2.211898
 21
6.303169
 31
0.0
  0
LINE
  5
3F0
330
B
100
AcDbEntity
 67
     1
  8
1
  6
Continuous
 62
    18
100
AcDbLine
 10
1.530880999999999
 20
4.188890999999999
 30
0.0
 11
1.524599
 21
4.368802999999999
 31
0.0
  0
LINE
  5
3F1
330
B
100
AcDbEntity
 67
     1
  8
1
  6
Continuous
 62
    18
100
AcDbLine
 10
2.363077999999999
 20
6.14024
 30
0.0
 11
2.359974999999999
 21
6.149758
 31
0.0
  0
LINE
  5
3F2
330
B
100
AcDbEntity
 67
     1
  8
1
  6
Continuous
 62
    18
100
AcDbLine
 10
1.671458
 20
4.537270999999999
 30
0.0
 11
1.671
 21
4.528528999999999
 31
0.0
  0
LINE
  5
3F3
330
B
100
AcDbEntity
 67
     1
  8
1
  6
Continuous
 62
    18
100
AcDbLine
 10
1.594437
 20
6.432381999999999
 30
0.0
 11
1.579579
 21
6.45563
 31
0.0
  0
LINE
  5
3F4
330
B
100
AcDbEntity
 67
     1
  8
1
  6
Continuous
 62
    18
100
AcDbLine
 10
2.463579999999999
 20
6.319858999999999
 30
0.0
 11
2.463295
 21
6.300112
 31
0.0
  0
LINE
  5
3F5
330
B
100
AcDbEntity
 67
     1
  8
1
  6
Continuous
 62
    18
100
AcDbLine
 10
1.571562999999999
 20
6.764707
 30
0.0
 11
1.570705999999999
 21
6.766588999999999
 31
0.0
  0
LINE
  5
3F6
330
B
100
AcDbEntity
 67
     1
  8
1
  6
Continuous
 62
    18
100
AcDbLine
 10
1.554084
 20
6.6786
 30
0.0
 11
1.549897999999999
 21
6.663717
 31
0.0
  0
LINE
  5
3F7
330
B
100
AcDbEntity
 67
     1
  8
1
  6
Continuous
 62
    18
100
AcDbLine
 10
2.114472
 20
4.056283
 30
0.0
 11
2.113834999999999
 21
4.042364
 31
0.0
  0
LINE
  5
3F8
330
B
100
AcDbEntity
 67
     1
  8
1
  6
Continuous
 62
    18
100
AcDbLine
 10
1.661013
 20
6.292685999999999
 30
0.0
 11
1.661470999999999
 21
6.316201
 31
0.0
  0
LINE
  5
3F9
330
B
100
AcDbEntity
 67
     1
  8
1
  6
Continuous
 62
    18
100
AcDbLine
 10
1.699897999999999
 20
4.502676
 30
0.0
 11
1.729897999999999
 21
4.502676
 31
0.0
  0
LINE
  5
3FA
330
B
100
AcDbEntity
 67
     1
  8
1
  6
Continuous
 62
    18
100
AcDbLine
 10
1.530998999999999
 20
4.777523999999999
 30
0.0
 11
1.532137999999999
 21
4.773316999999999
 31
0.0
  0
LINE
  5
3FB
330
B
100
AcDbEntity
 67
     1
  8
1
  6
Continuous
 62
    18
100
AcDbLine
 10
1.529962999999999
 20
6.677252
 30
0.0
 11
1.529922
 21
6.676332
 31
0.0
  0
LINE
  5
3FC
330
B
100
AcDbEntity
 67
     1
  8
1
  6
Continuous
 62
    18
100
AcDbLine
 10
2.369347
 20
6.316201
 30
0.0
 11
2.369804999999999
 21
6.292685999999999
 31
0.0
  0
LINE
  5
3FD
330
B
100
AcDbEntity
 67
     1
  8
1
  6
Continuous
 62
    18
100
AcDbLine
 10
1.655511999999999
 20
6.726203999999999
 30
0.0
 11
2.359220999999999
 21
6.726203999999999
 31
0.0
  0
LINE
  5
3FE
330
B
100
AcDbEntity
 67
     1
  8
1
  6
Continuous
 62
    18
100
AcDbLine
 10
1.562569
 20
6.875969999999999
 30
0.0
 11
1.567131999999999
 21
6.896039
 31
0.0
  0
LINE
  5
3FF
330
B
100
AcDbEntity
 67
     1
  8
1
  6
Continuous
 62
    18
100
AcDbLine
 10
2.490545999999999
 20
5.881453999999999
 30
0.0
 11
2.490545999999999
 21
5.891873999999999
 31
0.0
  0
LINE
  5
400
330
B
100
AcDbEntity
 67
     1
  8
1
  6
Continuous
 62
    18
100
AcDbLine
 10
2.122379999999999
 20
4.286598999999999
 30
0.0
 11
2.12183
 21
4.266912999999999
 31
0.0
  0
LINE
  5
401
330
B
100
AcDbEntity
 67
     1
  8
1
  6
Continuous
 62
    18
100
AcDbLine
 10
2.505536999999999
 20
7.830274
 30
0.0
 11
2.505536999999999
 21
5.891873999999999
 31
0.0
  0
LINE
  5
402
330
B
100
AcDbEntity
 67
     1
  8
1
  6
Continuous
 62
    18
100
AcDbLine
 10
1.576602999999999
 20
4.733077999999999
 30
0.0
 11
1.581796999999999
 21
4.731618
 31
0.0
  0
LINE
  5
403
330
B
100
AcDbEntity
 67
     1
  8
1
  6
Continuous
 62
    18
100
AcDbLine
 10
1.678892999999999
 20
4.47393
 30
0.0
 11
1.672398
 21
4.476581999999999
 31
0.0
  0
LINE
  5
404
330
B
100
AcDbEntity
 67
     1
  8
1
  6
Continuous
 62
    18
100
AcDbLine
 10
2.423661999999999
 20
7.306878999999999
 30
0.0
 11
2.450801999999999
 21
7.296557
 31
0.0
  0
LINE
  5
405
330
B
100
AcDbEntity
 67
     1
  8
1
  6
Continuous
 62
    18
100
AcDbLine
 10
2.418057
 20
6.414763999999999
 30
0.0
 11
2.397305999999999
 21
6.403777999999999
 31
0.0
  0
LINE
  5
406
330
B
100
AcDbEntity
 67
     1
  8
1
  6
Continuous
 62
    18
100
AcDbLine
 10
1.620632999999999
 20
7.029213
 30
0.0
 11
1.651148
 21
7.032785
 31
0.0
  0
LINE
  5
407
330
B
100
AcDbEntity
 67
     1
  8
1
  6
Continuous
 62
    18
100
AcDbLine
 10
1.674661999999999
 20
6.292112
 30
0.0
 11
1.674661999999999
 21
6.279589999999999
 31
0.0
  0
LINE
  5
408
330
B
100
AcDbEntity
 67
     1
  8
1
  6
Continuous
 62
    18
100
AcDbLine
 10
1.674452999999999
 20
4.411958
 30
0.0
 11
1.674660999999999
 21
4.411958
 31
0.0
  0
LINE
  5
409
330
B
100
AcDbEntity
 67
     1
  8
1
  6
Continuous
 62
    18
100
AcDbLine
 10
2.490545999999999
 20
4.370547
 30
0.0
 11
1.539651
 21
4.370547
 31
0.0
  0
LINE
  5
40A
330
B
100
AcDbEntity
 67
     1
  8
1
  6
Continuous
 62
    18
100
AcDbLine
 10
2.375306
 20
6.812503999999999
 30
0.0
 11
1.655511999999999
 21
6.812503999999999
 31
0.0
  0
LINE
  5
40B
330
B
100
AcDbEntity
 67
     1
  8
1
  6
Continuous
 62
    18
100
AcDbLine
 10
1.608245999999999
 20
4.733611999999999
 30
0.0
 11
1.603031999999999
 21
4.731219
 31
0.0
  0
LINE
  5
40C
330
B
100
AcDbEntity
 67
     1
  8
1
  6
Continuous
 62
    18
100
AcDbLine
 10
1.729897999999999
 20
6.303168
 30
0.0
 11
1.729897999999999
 21
6.296983999999999
 31
0.0
  0
LINE
  5
40D
330
B
100
AcDbEntity
 67
     1
  8
1
  6
Continuous
 62
    18
100
AcDbLine
 10
1.672272999999999
 20
6.277668
 30
0.0
 11
1.671942999999999
 21
6.288452999999999
 31
0.0
  0
LINE
  5
40E
330
B
100
AcDbEntity
 67
     1
  8
1
  6
Continuous
 62
    18
100
AcDbLine
 10
1.529898
 20
6.684930999999999
 30
0.0
 11
1.529898
 21
6.677858999999999
 31
0.0
  0
LINE
  5
40F
330
B
100
AcDbEntity
 67
     1
  8
1
  6
Continuous
 62
    18
100
AcDbLine
 10
1.729897999999999
 20
4.496833
 30
0.0
 11
1.679897999999999
 21
4.496833
 31
0.0
  0
LINE
  5
410
330
B
100
AcDbEntity
 67
     1
  8
1
  6
Continuous
 62
    18
100
AcDbLine
 10
1.529056999999999
 20
4.370764
 30
0.0
 11
1.52466
 21
4.370547
 31
0.0
  0
LINE
  5
411
330
B
100
AcDbEntity
 67
     1
  8
1
  6
Continuous
 62
    18
100
AcDbLine
 10
1.729897999999999
 20
6.350792
 30
0.0
 11
1.729897999999999
 21
6.342916
 31
0.0
  0
LINE
  5
412
330
B
100
AcDbEntity
 67
     1
  8
1
  6
Continuous
 62
    18
100
AcDbLine
 10
1.582378
 20
4.851013
 30
0.0
 11
1.577116
 21
4.849569999999999
 31
0.0
  0
LINE
  5
413
330
B
100
AcDbEntity
 67
     1
  8
1
  6
Continuous
 62
    18
100
AcDbLine
 10
1.679807
 20
4.722424
 30
0.0
 11
1.681625999999999
 21
4.721067999999999
 31
0.0
  0
LINE
  5
414
330
B
100
AcDbEntity
 67
     1
  8
1
  6
Continuous
 62
    18
100
AcDbLine
 10
1.729897999999999
 20
6.357472
 30
0.0
 11
1.729897999999999
 21
6.350792
 31
0.0
  0
LINE
  5
415
330
B
100
AcDbEntity
 67
     1
  8
1
  6
Continuous
 62
    18
100
AcDbLine
 10
1.729897999999999
 20
6.342916
 30
0.0
 11
1.729897999999999
 21
6.350792
 31
0.0
  0
LINE
  5
416
330
B
100
AcDbEntity
 67
     1
  8
1
  6
Continuous
 62
    18
100
AcDbLine
 10
1.604897999999999
 20
4.853671
 30
0.0
 11
1.601801999999999
 21
4.853620999999999
 31
0.0
  0
LINE
  5
417
330
B
100
AcDbEntity
 67
     1
  8
1
  6
Continuous
 62
    18
100
AcDbLine
 10
2.068281
 20
3.936505
 30
0.0
 11
2.068281
 21
3.991466
 31
0.0
  0
LINE
  5
418
330
B
100
AcDbEntity
 67
     1
  8
1
  6
Continuous
 62
    18
100
AcDbLine
 10
1.531357999999999
 20
4.80653
 30
0.0
 11
1.530461999999999
 21
4.802083
 31
0.0
  0
LINE
  5
419
330
B
100
AcDbEntity
 67
     1
  8
1
  6
Continuous
 62
    18
100
AcDbLine
 10
2.414741999999999
 20
4.385188999999999
 30
0.0
 11
2.414741999999999
 21
4.385023999999999
 31
0.0
  0
LINE
  5
41A
330
B
100
AcDbEntity
 67
     1
  8
1
  6
Continuous
 62
    18
100
AcDbLine
 10
1.736420999999999
 20
4.478283
 30
0.0
 11
1.736420999999999
 21
4.491927999999999
 31
0.0
  0
LINE
  5
41B
330
B
100
AcDbEntity
 67
     1
  8
1
  6
Continuous
 62
    18
100
AcDbLine
 10
1.581796999999999
 20
6.621769
 30
0.0
 11
1.587112
 21
6.620611
 31
0.0
  0
LINE
  5
41C
330
B
100
AcDbEntity
 67
     1
  8
1
  6
Continuous
 62
    18
100
AcDbLine
 10
2.181915
 20
4.195541
 30
0.0
 11
2.181651
 21
4.237824999999999
 31
0.0
  0
LINE
  5
41D
330
B
100
AcDbEntity
 67
     1
  8
1
  6
Continuous
 62
    18
100
AcDbLine
 10
1.756177999999999
 20
6.199683999999999
 30
0.0
 11
1.682472999999999
 21
6.199683999999999
 31
0.0
  0
LINE
  5
41E
330
B
100
AcDbEntity
 67
     1
  8
1
  6
Continuous
 62
    18
100
AcDbLine
 10
1.530034999999999
 20
4.788022999999999
 30
0.0
 11
1.529962999999999
 21
4.787101999999999
 31
0.0
  0
LINE
  5
41F
330
B
100
AcDbEntity
 67
     1
  8
1
  6
Continuous
 62
    18
100
AcDbLine
 10
1.580016
 20
7.296557
 30
0.0
 11
2.450801999999999
 21
7.296557
 31
0.0
  0
LINE
  5
420
330
B
100
AcDbEntity
 67
     1
  8
1
  6
Continuous
 62
    18
100
AcDbLine
 10
2.462917
 20
6.856205
 30
0.0
 11
2.449383
 21
6.838505999999999
 31
0.0
  0
LINE
  5
421
330
B
100
AcDbEntity
 67
     1
  8
1
  6
Continuous
 62
    18
100
AcDbLine
 10
2.261897999999999
 20
4.459455
 30
0.0
 11
2.261897999999999
 21
4.478601
 31
0.0
  0
LINE
  5
422
330
B
100
AcDbEntity
 67
     1
  8
1
  6
Continuous
 62
    18
100
AcDbLine
 10
1.549306999999999
 20
6.724736
 30
0.0
 11
1.5456
 21
6.721275999999999
 31
0.0
  0
LINE
  5
423
330
B
100
AcDbEntity
 67
     1
  8
1
  6
Continuous
 62
    18
100
AcDbLine
 10
2.356306
 20
4.865207999999999
 30
0.0
 11
2.356306
 21
4.540251999999999
 31
0.0
  0
LINE
  5
424
330
B
100
AcDbEntity
 67
     1
  8
1
  6
Continuous
 62
    18
100
AcDbLine
 10
4.190767
 20
4.549882
 30
0.0
 11
4.190498
 21
4.545441
 31
0.0
  0
LINE
  5
425
330
B
100
AcDbEntity
 67
     1
  8
1
  6
Continuous
 62
    18
100
AcDbLine
 10
1.587112
 20
6.620611
 30
0.0
 11
1.592530999999999
 21
6.619757
 31
0.0
  0
LINE
  5
426
330
B
100
AcDbEntity
 67
     1
  8
1
  6
Continuous
 62
    18
100
AcDbLine
 10
1.557715999999999
 20
4.741706999999999
 30
0.0
 11
1.562114
 21
4.739146999999999
 31
0.0
  0
LINE
  5
427
330
B
100
AcDbEntity
 67
     1
  8
1
  6
Continuous
 62
    18
100
AcDbLine
 10
1.572383
 20
4.518224
 30
0.0
 11
1.567620999999999
 21
4.510661999999999
 31
0.0
  0
LINE
  5
428
330
B
100
AcDbEntity
 67
     1
  8
1
  6
Continuous
 62
    18
100
AcDbLine
 10
2.261897999999999
 20
6.296983999999999
 30
0.0
 11
2.261897999999999
 21
6.303168
 31
0.0
  0
LINE
  5
429
330
B
100
AcDbEntity
 67
     1
  8
1
  6
Continuous
 62
    18
100
AcDbLine
 10
1.736420999999999
 20
4.455367999999999
 30
0.0
 11
2.211898
 21
4.455367999999999
 31
0.0
  0
LINE
  5
42A
330
B
100
AcDbEntity
 67
     1
  8
1
  6
Continuous
 62
    18
100
AcDbLine
 10
1.666446999999999
 20
6.617952999999999
 30
0.0
 11
1.669581999999999
 21
6.617185
 31
0.0
  0
LINE
  5
42B
330
B
100
AcDbEntity
 67
     1
  8
1
  6
Continuous
 62
    18
100
AcDbLine
 10
2.463055999999999
 20
4.545224
 30
0.0
 11
2.451238999999999
 21
4.549882
 31
0.0
  0
LINE
  5
42C
330
B
100
AcDbEntity
 67
     1
  8
1
  6
Continuous
 62
    18
100
AcDbLine
 10
1.696370999999999
 20
6.517163
 30
0.0
 11
1.689086
 21
6.517184999999999
 31
0.0
  0
LINE
  5
42D
330
B
100
AcDbEntity
 67
     1
  8
1
  6
Continuous
 62
    18
100
AcDbLine
 10
4.725302
 20
4.898875
 30
0.0
 11
4.705537
 21
4.918639999999999
 31
0.0
  0
LINE
  5
42E
330
B
100
AcDbEntity
 67
     1
  8
1
  6
Continuous
 62
    18
100
AcDbLine
 10
1.536628
 20
6.709578999999999
 30
0.0
 11
1.534461999999999
 21
6.705391
 31
0.0
  0
LINE
  5
42F
330
B
100
AcDbEntity
 67
     1
  8
1
  6
Continuous
 62
    18
100
AcDbLine
 10
1.670843
 20
4.514623999999999
 30
0.0
 11
1.670843
 21
4.385188999999999
 31
0.0
  0
LINE
  5
430
330
B
100
AcDbEntity
 67
     1
  8
1
  6
Continuous
 62
    18
100
AcDbLine
 10
2.269897999999999
 20
6.363197
 30
0.0
 11
2.264241
 21
6.361539999999999
 31
0.0
  0
LINE
  5
431
330
B
100
AcDbEntity
 67
     1
  8
1
  6
Continuous
 62
    18
100
AcDbLine
 10
1.656419999999999
 20
4.770030999999999
 30
0.0
 11
1.604897999999999
 21
4.770030999999999
 31
0.0
  0
LINE
  5
432
330
B
100
AcDbEntity
 67
     1
  8
1
  6
Continuous
 62
    18
100
AcDbLine
 10
1.571070999999999
 20
6.76533
 30
0.0
 11
1.572583
 21
6.763052
 31
0.0
  0
LINE
  5
433
330
B
100
AcDbEntity
 67
     1
  8
1
  6
Continuous
 62
    18
100
AcDbLine
 10
1.674616999999999
 20
4.407549999999999
 30
0.0
 11
1.674661999999999
 21
4.411985999999999
 31
0.0
  0
LINE
  5
434
330
B
100
AcDbEntity
 67
     1
  8
1
  6
Continuous
 62
    18
100
AcDbLine
 10
2.494068999999999
 20
4.385188999999999
 30
0.0
 11
2.468249
 21
4.898875
 31
0.0
  0
LINE
  5
435
330
B
100
AcDbEntity
 67
     1
  8
1
  6
Continuous
 62
    18
100
AcDbLine
 10
4.002664
 20
4.195376
 30
0.0
 11
5.416876999999999
 21
4.195376
 31
0.0
  0
LINE
  5
436
330
B
100
AcDbEntity
 67
     1
  8
1
  6
Continuous
 62
    18
100
AcDbLine
 10
1.68142
 20
6.620089999999999
 30
0.0
 11
1.656419999999999
 21
6.624825999999999
 31
0.0
  0
LINE
  5
437
330
B
100
AcDbEntity
 67
     1
  8
1
  6
Continuous
 62
    18
100
AcDbLine
 10
1.685166999999999
 20
4.717194999999999
 30
0.0
 11
1.685763
 21
4.716116
 31
0.0
  0
LINE
  5
438
330
B
100
AcDbEntity
 67
     1
  8
1
  6
Continuous
 62
    18
100
AcDbLine
 10
1.674512
 20
6.596835
 30
0.0
 11
1.674512
 21
6.403817
 31
0.0
  0
LINE
  5
439
330
B
100
AcDbEntity
 67
     1
  8
1
  6
Continuous
 62
    18
100
AcDbLine
 10
1.70642
 20
6.589471
 30
0.0
 11
1.699722
 21
6.607149
 31
0.0
  0
LINE
  5
43A
330
B
100
AcDbEntity
 67
     1
  8
1
  6
Continuous
 62
    18
100
AcDbLine
 10
2.344397999999999
 20
4.833670999999999
 30
0.0
 11
2.33854
 21
4.843669999999999
 31
0.0
  0
LINE
  5
43B
330
B
100
AcDbEntity
 67
     1
  8
1
  6
Continuous
 62
    18
100
AcDbLine
 10
1.630392
 20
6.728688
 30
0.0
 11
1.636343
 21
6.727638999999999
 31
0.0
  0
LINE
  5
43C
330
B
100
AcDbEntity
 67
     1
  8
1
  6
Continuous
 62
    18
100
AcDbLine
 10
3.732437
 20
4.188890999999999
 30
0.0
 11
3.726154
 21
4.368802999999999
 31
0.0
  0
LINE
  5
43D
330
B
100
AcDbEntity
 67
     1
  8
1
  6
Continuous
 62
    18
100
AcDbLine
 10
2.359818
 20
4.528528999999999
 30
0.0
 11
2.359359999999999
 21
4.537270999999999
 31
0.0
  0
LINE
  5
43E
330
B
100
AcDbEntity
 67
     1
  8
1
  6
Continuous
 62
    18
100
AcDbLine
 10
1.67208
 20
4.483652999999999
 30
0.0
 11
1.679897
 21
4.483652999999999
 31
0.0
  0
LINE
  5
43F
330
B
100
AcDbEntity
 67
     1
  8
1
  6
Continuous
 62
    18
100
AcDbLine
 10
2.44105
 20
4.188890999999999
 30
0.0
 11
2.484325
 21
4.188890999999999
 31
0.0
  0
LINE
  5
440
330
B
100
AcDbEntity
 67
     1
  8
1
  6
Continuous
 62
    18
100
AcDbLine
 10
1.604897999999999
 20
4.755887999999999
 30
0.0
 11
1.604897999999999
 21
4.770030999999999
 31
0.0
  0
LINE
  5
441
330
B
100
AcDbEntity
 67
     1
  8
1
  6
Continuous
 62
    18
100
AcDbLine
 10
1.537639999999999
 20
6.651525
 30
0.0
 11
1.540192999999999
 21
6.647794
 31
0.0
  0
LINE
  5
442
330
B
100
AcDbEntity
 67
     1
  8
1
  6
Continuous
 62
    18
100
AcDbLine
 10
1.655511999999999
 20
6.726964999999999
 30
0.0
 11
1.655511999999999
 21
6.729133
 31
0.0
  0
LINE
  5
443
330
B
100
AcDbEntity
 67
     1
  8
1
  6
Continuous
 62
    18
100
AcDbLine
 10
5.586389999999999
 20
4.188887999999999
 30
0.0
 11
5.586389999999999
 21
4.056283
 31
0.0
  0
LINE
  5
444
330
B
100
AcDbEntity
 67
     1
  8
1
  6
Continuous
 62
    18
100
AcDbLine
 10
2.211898
 20
4.502676
 30
0.0
 11
2.261897999999999
 21
4.502676
 31
0.0
  0
LINE
  5
445
330
B
100
AcDbEntity
 67
     1
  8
1
  6
Continuous
 62
    18
100
AcDbLine
 10
1.630001999999999
 20
4.862061999999999
 30
0.0
 11
1.606961
 21
4.853671
 31
0.0
  0
LINE
  5
446
330
B
100
AcDbEntity
 67
     1
  8
1
  6
Continuous
 62
    18
100
AcDbLine
 10
1.549776
 20
6.637652
 30
0.0
 11
1.553621999999999
 21
6.634632
 31
0.0
  0
LINE
  5
447
330
B
100
AcDbEntity
 67
     1
  8
1
  6
Continuous
 62
    18
100
AcDbLine
 10
1.656419999999999
 20
6.618967999999999
 30
0.0
 11
1.656419999999999
 21
6.620486999999999
 31
0.0
  0
LINE
  5
448
330
B
100
AcDbEntity
 67
     1
  8
1
  6
Continuous
 62
    18
100
AcDbLine
 10
2.261897999999999
 20
4.492016999999999
 30
0.0
 11
2.261897999999999
 21
4.478601
 31
0.0
  0
LINE
  5
449
330
B
100
AcDbEntity
 67
     1
  8
1
  6
Continuous
 62
    18
100
AcDbLine
 10
1.604897999999999
 20
4.734675
 30
0.0
 11
1.611152
 21
4.734675
 31
0.0
  0
LINE
  5
44A
330
B
100
AcDbEntity
 67
     1
  8
1
  6
Continuous
 62
    18
100
AcDbLine
 10
1.699897999999999
 20
4.481277999999999
 30
0.0
 11
1.699897999999999
 21
4.464466
 31
0.0
  0
LINE
  5
44B
330
B
100
AcDbEntity
 67
     1
  8
1
  6
Continuous
 62
    18
100
AcDbLine
 10
1.671918999999999
 20
4.500937
 30
0.0
 11
1.675394999999999
 21
4.500937
 31
0.0
  0
LINE
  5
44C
330
B
100
AcDbEntity
 67
     1
  8
1
  6
Continuous
 62
    18
100
AcDbLine
 10
1.604897999999999
 20
4.770030999999999
 30
0.0
 11
1.656419999999999
 21
4.770030999999999
 31
0.0
  0
LINE
  5
44D
330
B
100
AcDbEntity
 67
     1
  8
1
  6
Continuous
 62
    18
100
AcDbLine
 10
1.658103999999999
 20
6.618939999999999
 30
0.0
 11
1.659775999999999
 21
6.618857000000001
 31
0.0
  0
LINE
  5
44E
330
B
100
AcDbEntity
 67
     1
  8
1
  6
Continuous
 62
    18
100
AcDbLine
 10
1.604897999999999
 20
6.737963999999999
 30
0.0
 11
1.576196999999999
 21
6.733927
 31
0.0
  0
LINE
  5
44F
330
B
100
AcDbEntity
 67
     1
  8
1
  6
Continuous
 62
    18
100
AcDbLine
 10
2.375306
 20
6.863075999999999
 30
0.0
 11
2.375306
 21
6.891849999999999
 31
0.0
  0
LINE
  5
450
330
B
100
AcDbEntity
 67
     1
  8
1
  6
Continuous
 62
    18
100
AcDbLine
 10
1.582398999999999
 20
4.549882
 30
0.0
 11
1.571490999999999
 21
4.545441
 31
0.0
  0
LINE
  5
451
330
B
100
AcDbEntity
 67
     1
  8
1
  6
Continuous
 62
    18
100
AcDbLine
 10
1.696370999999999
 20
6.548687999999999
 30
0.0
 11
1.689086
 21
6.538362999999999
 31
0.0
  0
LINE
  5
452
330
B
100
AcDbEntity
 67
     1
  8
1
  6
Continuous
 62
    18
100
AcDbLine
 10
1.736420999999999
 20
4.491927999999999
 30
0.0
 11
1.736420999999999
 21
4.478283
 31
0.0
  0
LINE
  5
453
330
B
100
AcDbEntity
 67
     1
  8
1
  6
Continuous
 62
    18
100
AcDbLine
 10
1.756877999999999
 20
4.195541
 30
0.0
 11
1.756615
 21
4.237824999999999
 31
0.0
  0
LINE
  5
454
330
B
100
AcDbEntity
 67
     1
  8
1
  6
Continuous
 62
    18
100
AcDbLine
 10
1.672225
 20
4.476581999999999
 30
0.0
 11
1.672398
 21
4.476581999999999
 31
0.0
  0
LINE
  5
455
330
B
100
AcDbEntity
 67
     1
  8
1
  6
Continuous
 62
    18
100
AcDbLine
 10
1.553339999999999
 20
6.727952
 30
0.0
 11
1.549306999999999
 21
6.724736
 31
0.0
  0
LINE
  5
456
330
B
100
AcDbEntity
 67
     1
  8
1
  6
Continuous
 62
    18
100
AcDbLine
 10
2.211898
 20
4.496833
 30
0.0
 11
2.211898
 21
4.491927999999999
 31
0.0
  0
LINE
  5
457
330
B
100
AcDbEntity
 67
     1
  8
1
  6
Continuous
 62
    18
100
AcDbLine
 10
1.661470999999999
 20
4.546559999999999
 30
0.0
 11
1.662199999999999
 21
4.549882
 31
0.0
  0
LINE
  5
458
330
B
100
AcDbEntity
 67
     1
  8
1
  6
Continuous
 62
    18
100
AcDbLine
 10
1.575581999999999
 20
4.385188999999999
 30
0.0
 11
1.56989
 21
4.385188999999999
 31
0.0
  0
LINE
  5
459
330
B
100
AcDbEntity
 67
     1
  8
1
  6
Continuous
 62
    18
100
AcDbLine
 10
1.567620999999999
 20
6.283155
 30
0.0
 11
1.567523999999999
 21
6.300112
 31
0.0
  0
LINE
  5
45A
330
B
100
AcDbEntity
 67
     1
  8
1
  6
Continuous
 62
    18
100
AcDbLine
 10
2.393148
 20
7.310450999999999
 30
0.0
 11
2.423661999999999
 21
7.306878999999999
 31
0.0
  0
LINE
  5
45B
330
B
100
AcDbEntity
 67
     1
  8
1
  6
Continuous
 62
    18
100
AcDbLine
 10
1.674616999999999
 20
6.273934999999999
 30
0.0
 11
1.672954999999999
 21
6.273934999999999
 31
0.0
  0
LINE
  5
45C
330
B
100
AcDbEntity
 67
     1
  8
1
  6
Continuous
 62
    18
100
AcDbLine
 10
1.672398
 20
4.465975
 30
0.0
 11
1.678892999999999
 21
4.468626
 31
0.0
  0
LINE
  5
45D
330
B
100
AcDbEntity
 67
     1
  8
1
  6
Continuous
 62
    18
100
AcDbLine
 10
2.326344999999999
 20
4.195376
 30
0.0
 11
2.324123
 21
4.259024
 31
0.0
  0
LINE
  5
45E
330
B
100
AcDbEntity
 67
     1
  8
1
  6
Continuous
 62
    18
100
AcDbLine
 10
1.664525999999999
 20
4.549881
 30
0.0
 11
1.664525999999999
 21
4.739971999999999
 31
0.0
  0
LINE
  5
45F
330
B
100
AcDbEntity
 67
     1
  8
1
  6
Continuous
 62
    18
100
AcDbLine
 10
1.664372
 20
6.400044
 30
0.0
 11
1.664525999999999
 21
6.400043
 31
0.0
  0
LINE
  5
460
330
B
100
AcDbEntity
 67
     1
  8
1
  6
Continuous
 62
    18
100
AcDbLine
 10
5.688374999999999
 20
4.188890999999999
 30
0.0
 11
5.683985999999999
 21
4.188890999999999
 31
0.0
  0
LINE
  5
461
330
B
100
AcDbEntity
 67
     1
  8
1
  6
Continuous
 62
    18
100
AcDbLine
 10
2.458435999999999
 20
4.518224
 30
0.0
 11
2.463197
 21
4.510661999999999
 31
0.0
  0
LINE
  5
462
330
B
100
AcDbEntity
 67
     1
  8
1
  6
Continuous
 62
    18
100
AcDbLine
 10
1.664525999999999
 20
6.597117999999999
 30
0.0
 11
1.664525999999999
 21
6.604152
 31
0.0
  0
LINE
  5
463
330
B
100
AcDbEntity
 67
     1
  8
1
  6
Continuous
 62
    18
100
AcDbLine
 10
2.357397999999999
 20
6.302355
 30
0.0
 11
2.35691
 21
6.29909
 31
0.0
  0
LINE
  5
464
330
B
100
AcDbEntity
 67
     1
  8
1
  6
Continuous
 62
    18
100
AcDbLine
 10
1.729897999999999
 20
6.342916
 30
0.0
 11
1.729897999999999
 21
6.320024
 31
0.0
  0
LINE
  5
465
330
B
100
AcDbEntity
 67
     1
  8
1
  6
Continuous
 62
    18
100
AcDbLine
 10
1.655511999999999
 20
4.982501
 30
0.0
 11
1.655511999999999
 21
4.989580999999999
 31
0.0
  0
LINE
  5
466
330
B
100
AcDbEntity
 67
     1
  8
1
  6
Continuous
 62
    18
100
AcDbLine
 10
1.53959
 20
7.845325999999999
 30
0.0
 11
2.490606999999999
 21
7.845325999999999
 31
0.0
  0
LINE
  5
467
330
B
100
AcDbEntity
 67
     1
  8
1
  6
Continuous
 62
    18
100
AcDbLine
 10
1.529954999999999
 20
6.677014999999999
 30
0.0
 11
1.529922
 21
6.676332
 31
0.0
  0
LINE
  5
468
330
B
100
AcDbEntity
 67
     1
  8
1
  6
Continuous
 62
    18
100
AcDbLine
 10
1.539651
 20
4.385023999999999
 30
0.0
 11
2.490545999999999
 21
4.385023999999999
 31
0.0
  0
LINE
  5
469
330
B
100
AcDbEntity
 67
     1
  8
1
  6
Continuous
 62
    18
100
AcDbLine
 10
2.375306
 20
4.962341
 30
0.0
 11
1.655511999999999
 21
4.962341
 31
0.0
  0
LINE
  5
46A
330
B
100
AcDbEntity
 67
     1
  8
1
  6
Continuous
 62
    18
100
AcDbLine
 10
2.359309999999999
 20
6.167696
 30
0.0
 11
2.359974999999999
 21
6.149758
 31
0.0
  0
LINE
  5
46B
330
B
100
AcDbEntity
 67
     1
  8
1
  6
Continuous
 62
    18
100
AcDbLine
 10
1.671
 20
4.528528999999999
 30
0.0
 11
1.670843
 21
4.514623999999999
 31
0.0
  0
LINE
  5
46C
330
B
100
AcDbEntity
 67
     1
  8
1
  6
Continuous
 62
    18
100
AcDbLine
 10
2.120881
 20
6.199683999999999
 30
0.0
 11
2.123772
 21
6.199683999999999
 31
0.0
  0
LINE
  5
46D
330
B
100
AcDbEntity
 67
     1
  8
1
  6
Continuous
 62
    18
100
AcDbLine
 10
1.673879
 20
4.4032
 30
0.0
 11
2.356939
 21
4.4032
 31
0.0
  0
LINE
  5
46E
330
B
100
AcDbEntity
 67
     1
  8
1
  6
Continuous
 62
    18
100
AcDbLine
 10
1.579579
 20
6.45563
 30
0.0
 11
1.582398999999999
 21
6.341434999999999
 31
0.0
  0
LINE
  5
46F
330
B
100
AcDbEntity
 67
     1
  8
1
  6
Continuous
 62
    18
100
AcDbLine
 10
1.570705999999999
 20
6.766588999999999
 30
0.0
 11
1.570629999999999
 21
6.767417999999999
 31
0.0
  0
LINE
  5
470
330
B
100
AcDbEntity
 67
     1
  8
1
  6
Continuous
 62
    18
100
AcDbLine
 10
2.490606999999999
 20
5.876821999999999
 30
0.0
 11
2.501208999999999
 21
5.881212
 31
0.0
  0
LINE
  5
471
330
B
100
AcDbEntity
 67
     1
  8
1
  6
Continuous
 62
    18
100
AcDbLine
 10
2.113834999999999
 20
4.042364
 30
0.0
 11
2.113268999999999
 21
4.036598999999999
 31
0.0
  0
LINE
  5
472
330
B
100
AcDbEntity
 67
     1
  8
1
  6
Continuous
 62
    18
100
AcDbLine
 10
1.661470999999999
 20
6.316201
 30
0.0
 11
1.662199999999999
 21
6.341434999999999
 31
0.0
  0
LINE
  5
473
330
B
100
AcDbEntity
 67
     1
  8
1
  6
Continuous
 62
    18
100
AcDbLine
 10
1.532137999999999
 20
4.773316999999999
 30
0.0
 11
1.5336
 21
4.769214999999999
 31
0.0
  0
LINE
  5
474
330
B
100
AcDbEntity
 67
     1
  8
1
  6
Continuous
 62
    18
100
AcDbLine
 10
1.677674999999999
 20
4.723736999999999
 30
0.0
 11
1.679807
 21
4.722424
 31
0.0
  0
LINE
  5
475
330
B
100
AcDbEntity
 67
     1
  8
1
  6
Continuous
 62
    18
100
AcDbLine
 10
2.356288
 20
4.864952999999999
 30
0.0
 11
1.655511999999999
 21
4.864952999999999
 31
0.0
  0
LINE
  5
476
330
B
100
AcDbEntity
 67
     1
  8
1
  6
Continuous
 62
    18
100
AcDbLine
 10
1.604897999999999
 20
6.618967999999999
 30
0.0
 11
1.604897999999999
 21
6.620491999999999
 31
0.0
  0
LINE
  5
477
330
B
100
AcDbEntity
 67
     1
  8
1
  6
Continuous
 62
    18
100
AcDbLine
 10
1.652231
 20
4.742858999999999
 30
0.0
 11
1.648958
 21
4.742733999999999
 31
0.0
  0
LINE
  5
478
330
B
100
AcDbEntity
 67
     1
  8
1
  6
Continuous
 62
    18
100
AcDbLine
 10
1.529898999999999
 20
4.795023999999999
 30
0.0
 11
1.535508
 21
4.774653999999999
 31
0.0
  0
LINE
  5
479
330
B
100
AcDbEntity
 67
     1
  8
1
  6
Continuous
 62
    18
100
AcDbLine
 10
1.581796999999999
 20
4.731618
 30
0.0
 11
1.587112
 21
4.730459999999999
 31
0.0
  0
LINE
  5
47A
330
B
100
AcDbEntity
 67
     1
  8
1
  6
Continuous
 62
    18
100
AcDbLine
 10
1.631505999999999
 20
6.592397
 30
0.0
 11
1.609126999999999
 21
6.599033999999999
 31
0.0
  0
LINE
  5
47B
330
B
100
AcDbEntity
 67
     1
  8
1
  6
Continuous
 62
    18
100
AcDbLine
 10
2.357552
 20
4.398428
 30
0.0
 11
2.357695
 21
4.385024999999999
 31
0.0
  0
LINE
  5
47C
330
B
100
AcDbEntity
 67
     1
  8
1
  6
Continuous
 62
    18
100
AcDbLine
 10
1.679897999999999
 20
4.491706999999999
 30
0.0
 11
1.671966
 21
4.491706999999999
 31
0.0
  0
LINE
  5
47D
330
B
100
AcDbEntity
 67
     1
  8
1
  6
Continuous
 62
    18
100
AcDbLine
 10
1.539651
 20
4.370547
 30
0.0
 11
1.53959
 21
4.368802999999999
 31
0.0
  0
LINE
  5
47E
330
B
100
AcDbEntity
 67
     1
  8
1
  6
Continuous
 62
    18
100
AcDbLine
 10
1.603031999999999
 20
4.731219
 30
0.0
 11
1.598033
 21
4.728570999999999
 31
0.0
  0
LINE
  5
47F
330
B
100
AcDbEntity
 67
     1
  8
1
  6
Continuous
 62
    18
100
AcDbLine
 10
1.686420999999999
 20
6.392827999999999
 30
0.0
 11
1.679897999999999
 21
6.392827999999999
 31
0.0
  0
LINE
  5
480
330
B
100
AcDbEntity
 67
     1
  8
1
  6
Continuous
 62
    18
100
AcDbLine
 10
1.566006999999999
 20
6.636217999999999
 30
0.0
 11
1.583849999999999
 21
6.627786999999999
 31
0.0
  0
LINE
  5
481
330
B
100
AcDbEntity
 67
     1
  8
1
  6
Continuous
 62
    18
100
AcDbLine
 10
2.356616999999999
 20
6.258376
 30
0.0
 11
1.674200999999999
 21
6.258376
 31
0.0
  0
LINE
  5
482
330
B
100
AcDbEntity
 67
     1
  8
1
  6
Continuous
 62
    18
100
AcDbLine
 10
1.70642
 20
4.491927999999999
 30
0.0
 11
1.70642
 21
4.496833
 31
0.0
  0
LINE
  5
483
330
B
100
AcDbEntity
 67
     1
  8
1
  6
Continuous
 62
    18
100
AcDbLine
 10
2.261897999999999
 20
6.311652999999999
 30
0.0
 11
2.357568999999999
 21
6.311652999999999
 31
0.0
  0
LINE
  5
484
330
B
100
AcDbEntity
 67
     1
  8
1
  6
Continuous
 62
    18
100
AcDbLine
 10
1.566783999999999
 20
6.34105
 30
0.0
 11
1.562569
 21
6.511737
 31
0.0
  0
LINE
  5
485
330
B
100
AcDbEntity
 67
     1
  8
1
  6
Continuous
 62
    18
100
AcDbLine
 10
1.673224
 20
6.205598999999999
 30
0.0
 11
1.673116999999999
 21
6.216728999999999
 31
0.0
  0
LINE
  5
486
330
B
100
AcDbEntity
 67
     1
  8
1
  6
Continuous
 62
    18
100
AcDbLine
 10
1.674452999999999
 20
4.411958
 30
0.0
 11
1.674660999999999
 21
4.411958
 31
0.0
  0
LINE
  5
487
330
B
100
AcDbEntity
 67
     1
  8
1
  6
Continuous
 62
    18
100
AcDbLine
 10
1.53959
 20
4.368802999999999
 30
0.0
 11
1.528988
 21
4.368802999999999
 31
0.0
  0
LINE
  5
488
330
B
100
AcDbEntity
 67
     1
  8
1
  6
Continuous
 62
    18
100
AcDbLine
 10
1.849045999999999
 20
4.222744
 30
0.0
 11
1.848572
 21
4.195541
 31
0.0
  0
LINE
  5
489
330
B
100
AcDbEntity
 67
     1
  8
1
  6
Continuous
 62
    18
100
AcDbLine
 10
1.577116
 20
4.849569999999999
 30
0.0
 11
1.571973999999999
 21
4.847814999999999
 31
0.0
  0
LINE
  5
48A
330
B
100
AcDbEntity
 67
     1
  8
1
  6
Continuous
 62
    18
100
AcDbLine
 10
1.699897999999999
 20
4.502676
 30
0.0
 11
1.699897999999999
 21
4.498486999999999
 31
0.0
  0
LINE
  5
48B
330
B
100
AcDbEntity
 67
     1
  8
1
  6
Continuous
 62
    18
100
AcDbLine
 10
1.729897999999999
 20
6.350792
 30
0.0
 11
1.729897999999999
 21
6.357472
 31
0.0
  0
LINE
  5
48C
330
B
100
AcDbEntity
 67
     1
  8
1
  6
Continuous
 62
    18
100
AcDbLine
 10
2.123772
 20
6.199683999999999
 30
0.0
 11
2.124773999999999
 21
6.204157
 31
0.0
  0
LINE
  5
48D
330
B
100
AcDbEntity
 67
     1
  8
1
  6
Continuous
 62
    18
100
AcDbLine
 10
1.601801999999999
 20
4.853620999999999
 30
0.0
 11
1.598716999999999
 21
4.853475
 31
0.0
  0
LINE
  5
48E
330
B
100
AcDbEntity
 67
     1
  8
1
  6
Continuous
 62
    18
100
AcDbLine
 10
1.604897999999999
 20
6.618967999999999
 30
0.0
 11
1.656419999999999
 21
6.618967999999999
 31
0.0
  0
LINE
  5
48F
330
B
100
AcDbEntity
 67
     1
  8
1
  6
Continuous
 62
    18
100
AcDbLine
 10
1.620869
 20
4.306283
 30
0.0
 11
1.624741999999999
 21
4.195376
 31
0.0
  0
LINE
  5
490
330
B
100
AcDbEntity
 67
     1
  8
1
  6
Continuous
 62
    18
100
AcDbLine
 10
1.530461999999999
 20
4.802083
 30
0.0
 11
1.530076
 21
4.798370999999999
 31
0.0
  0
LINE
  5
491
330
B
100
AcDbEntity
 67
     1
  8
1
  6
Continuous
 62
    18
100
AcDbLine
 10
1.736420999999999
 20
4.491927999999999
 30
0.0
 11
1.736420999999999
 21
4.496833
 31
0.0
  0
LINE
  5
492
330
B
100
AcDbEntity
 67
     1
  8
1
  6
Continuous
 62
    18
100
AcDbLine
 10
1.554777
 20
4.743845999999999
 30
0.0
 11
1.53675
 21
4.385188999999999
 31
0.0
  0
LINE
  5
493
330
B
100
AcDbEntity
 67
     1
  8
1
  6
Continuous
 62
    18
100
AcDbLine
 10
1.587112
 20
6.620611
 30
0.0
 11
1.592530999999999
 21
6.619757
 31
0.0
  0
LINE
  5
494
330
B
100
AcDbEntity
 67
     1
  8
1
  6
Continuous
 62
    18
100
AcDbLine
 10
1.729897999999999
 20
4.491932
 30
0.0
 11
1.729897999999999
 21
4.496833
 31
0.0
  0
LINE
  5
495
330
B
100
AcDbEntity
 67
     1
  8
1
  6
Continuous
 62
    18
100
AcDbLine
 10
1.689086
 20
6.517184999999999
 30
0.0
 11
1.696370999999999
 21
6.517163
 31
0.0
  0
LINE
  5
496
330
B
100
AcDbEntity
 67
     1
  8
1
  6
Continuous
 62
    18
100
AcDbLine
 10
1.675233
 20
6.615122
 30
0.0
 11
1.677674999999999
 21
6.613888
 31
0.0
  0
LINE
  5
497
330
B
100
AcDbEntity
 67
     1
  8
1
  6
Continuous
 62
    18
100
AcDbLine
 10
1.601904
 20
6.824528999999999
 30
0.0
 11
1.581435
 21
6.838505999999999
 31
0.0
  0
LINE
  5
498
330
B
100
AcDbEntity
 67
     1
  8
1
  6
Continuous
 62
    18
100
AcDbLine
 10
1.529962999999999
 20
4.787101999999999
 30
0.0
 11
1.529922
 21
4.786179999999999
 31
0.0
  0
LINE
  5
499
330
B
100
AcDbEntity
 67
     1
  8
1
  6
Continuous
 62
    18
100
AcDbLine
 10
1.677674999999999
 20
4.723736999999999
 30
0.0
 11
1.679807
 21
4.722424
 31
0.0
  0
LINE
  5
49A
330
B
100
AcDbEntity
 67
     1
  8
1
  6
Continuous
 62
    18
100
AcDbLine
 10
2.33854
 20
6.367339
 30
0.0
 11
2.324397999999999
 21
6.363197
 31
0.0
  0
LINE
  5
49B
330
B
100
AcDbEntity
 67
     1
  8
1
  6
Continuous
 62
    18
100
AcDbLine
 10
1.5456
 20
6.721275999999999
 30
0.0
 11
1.542220999999999
 21
6.717564999999999
 31
0.0
  0
LINE
  5
49C
330
B
100
AcDbEntity
 67
     1
  8
1
  6
Continuous
 62
    18
100
AcDbLine
 10
2.211898
 20
4.478283
 30
0.0
 11
2.211898
 21
4.458872
 31
0.0
  0
LINE
  5
49D
330
B
100
AcDbEntity
 67
     1
  8
1
  6
Continuous
 62
    18
100
AcDbLine
 10
4.190498
 20
4.545441
 30
0.0
 11
4.190381999999999
 21
4.534642999999999
 31
0.0
  0
LINE
  5
49E
330
B
100
AcDbEntity
 67
     1
  8
1
  6
Continuous
 62
    18
100
AcDbLine
 10
2.447582
 20
6.136356
 30
0.0
 11
2.455236
 21
6.139189
 31
0.0
  0
LINE
  5
49F
330
B
100
AcDbEntity
 67
     1
  8
1
  6
Continuous
 62
    18
100
AcDbLine
 10
1.604897999999999
 20
6.620491999999999
 30
0.0
 11
1.604897999999999
 21
6.624825999999999
 31
0.0
  0
LINE
  5
4A0
330
B
100
AcDbEntity
 67
     1
  8
1
  6
Continuous
 62
    18
100
AcDbLine
 10
2.357507
 20
6.20349
 30
0.0
 11
2.356939
 21
6.199683999999999
 31
0.0
  0
LINE
  5
4A1
330
B
100
AcDbEntity
 67
     1
  8
1
  6
Continuous
 62
    18
100
AcDbLine
 10
2.261897999999999
 20
6.303168
 30
0.0
 11
2.261897999999999
 21
6.320024
 31
0.0
  0
LINE
  5
4A2
330
B
100
AcDbEntity
 67
     1
  8
1
  6
Continuous
 62
    18
100
AcDbLine
 10
2.269897999999999
 20
4.508401
 30
0.0
 11
2.264241
 21
4.506744
 31
0.0
  0
LINE
  5
4A3
330
B
100
AcDbEntity
 67
     1
  8
1
  6
Continuous
 62
    18
100
AcDbLine
 10
1.562569
 20
6.511737
 30
0.0
 11
1.562587
 21
6.511255999999999
 31
0.0
  0
LINE
  5
4A4
330
B
100
AcDbEntity
 67
     1
  8
1
  6
Continuous
 62
    18
100
AcDbLine
 10
1.669581999999999
 20
6.617185
 30
0.0
 11
1.672533999999999
 21
6.616228999999999
 31
0.0
  0
LINE
  5
4A5
330
B
100
AcDbEntity
 67
     1
  8
1
  6
Continuous
 62
    18
100
AcDbLine
 10
2.448418999999999
 20
4.549882
 30
0.0
 11
2.451238999999999
 21
4.549882
 31
0.0
  0
LINE
  5
4A6
330
B
100
AcDbEntity
 67
     1
  8
1
  6
Continuous
 62
    18
100
AcDbLine
 10
1.701949
 20
4.417117
 30
0.0
 11
2.261897999999999
 21
4.417117
 31
0.0
  0
LINE
  5
4A7
330
B
100
AcDbEntity
 67
     1
  8
1
  6
Continuous
 62
    18
100
AcDbLine
 10
4.705537
 20
4.918639999999999
 30
0.0
 11
4.687838
 21
4.936339
 31
0.0
  0
LINE
  5
4A8
330
B
100
AcDbEntity
 67
     1
  8
1
  6
Continuous
 62
    18
100
AcDbLine
 10
5.371394
 20
4.400278
 30
0.0
 11
5.36559
 21
4.394473999999999
 31
0.0
  0
LINE
  5
4A9
330
B
100
AcDbEntity
 67
     1
  8
1
  6
Continuous
 62
    18
100
AcDbLine
 10
1.70642
 20
4.734675
 30
0.0
 11
1.699722
 21
4.752353
 31
0.0
  0
LINE
  5
4AA
330
B
100
AcDbEntity
 67
     1
  8
1
  6
Continuous
 62
    18
100
AcDbLine
 10
1.671
 20
6.297315
 30
0.0
 11
1.670843
 21
6.279193
 31
0.0
  0
LINE
  5
4AB
330
B
100
AcDbEntity
 67
     1
  8
1
  6
Continuous
 62
    18
100
AcDbLine
 10
1.532135
 20
6.663467999999999
 30
0.0
 11
1.5336
 21
6.659366
 31
0.0
  0
LINE
  5
4AC
330
B
100
AcDbEntity
 67
     1
  8
1
  6
Continuous
 62
    18
100
AcDbLine
 10
1.572583
 20
6.763052
 30
0.0
 11
1.574204
 21
6.760828
 31
0.0
  0
LINE
  5
4AD
330
B
100
AcDbEntity
 67
     1
  8
1
  6
Continuous
 62
    18
100
AcDbLine
 10
2.468249
 20
4.898875
 30
0.0
 11
2.468249
 21
4.534642999999999
 31
0.0
  0
LINE
  5
4AE
330
B
100
AcDbEntity
 67
     1
  8
1
  6
Continuous
 62
    18
100
AcDbLine
 10
3.747426999999999
 20
4.188890999999999
 30
0.0
 11
3.996179
 21
4.188890999999999
 31
0.0
  0
LINE
  5
4AF
330
B
100
AcDbEntity
 67
     1
  8
1
  6
Continuous
 62
    18
100
AcDbLine
 10
2.490545999999999
 20
5.876883
 30
0.0
 11
1.539651
 21
5.876883
 31
0.0
  0
LINE
  5
4B0
330
B
100
AcDbEntity
 67
     1
  8
1
  6
Continuous
 62
    18
100
AcDbLine
 10
2.500966
 20
7.830274
 30
0.0
 11
2.490545999999999
 21
7.830274
 31
0.0
  0
LINE
  5
4B1
330
B
100
AcDbEntity
 67
     1
  8
1
  6
Continuous
 62
    18
100
AcDbLine
 10
1.685763
 20
4.716116
 30
0.0
 11
1.686154
 21
4.715126999999999
 31
0.0
  0
LINE
  5
4B2
330
B
100
AcDbEntity
 67
     1
  8
1
  6
Continuous
 62
    18
100
AcDbLine
 10
1.655511999999999
 20
6.942867999999998
 30
0.0
 11
2.375306
 21
6.942867999999998
 31
0.0
  0
LINE
  5
4B3
330
B
100
AcDbEntity
 67
     1
  8
1
  6
Continuous
 62
    18
100
AcDbLine
 10
1.699722
 20
6.607149
 30
0.0
 11
1.68142
 21
6.620089999999999
 31
0.0
  0
LINE
  5
4B4
330
B
100
AcDbEntity
 67
     1
  8
1
  6
Continuous
 62
    18
100
AcDbLine
 10
2.33854
 20
4.843669999999999
 30
0.0
 11
2.324397999999999
 21
4.847812999999999
 31
0.0
  0
LINE
  5
4B5
330
B
100
AcDbEntity
 67
     1
  8
1
  6
Continuous
 62
    18
100
AcDbLine
 10
1.636343
 20
6.727638999999999
 30
0.0
 11
1.642376999999999
 21
6.726874
 31
0.0
  0
LINE
  5
4B6
330
B
100
AcDbEntity
 67
     1
  8
1
  6
Continuous
 62
    18
100
AcDbLine
 10
3.834421999999999
 20
4.188887999999999
 30
0.0
 11
3.834421999999999
 21
4.056283
 31
0.0
  0
LINE
  5
4B7
330
B
100
AcDbEntity
 67
     1
  8
1
  6
Continuous
 62
    18
100
AcDbLine
 10
1.677674999999999
 20
6.613888
 30
0.0
 11
1.679807
 21
6.612574999999999
 31
0.0
  0
LINE
  5
4B8
330
B
100
AcDbEntity
 67
     1
  8
1
  6
Continuous
 62
    18
100
AcDbLine
 10
2.344397999999999
 20
6.71675
 30
0.0
 11
2.343072
 21
6.721813
 31
0.0
  0
LINE
  5
4B9
330
B
100
AcDbEntity
 67
     1
  8
1
  6
Continuous
 62
    18
100
AcDbLine
 10
1.604897999999999
 20
4.741746
 30
0.0
 11
1.638945
 21
4.741746
 31
0.0
  0
LINE
  5
4BA
330
B
100
AcDbEntity
 67
     1
  8
1
  6
Continuous
 62
    18
100
AcDbLine
 10
1.604940999999999
 20
4.729563999999999
 30
0.0
 11
1.584887
 21
4.717353
 31
0.0
  0
LINE
  5
4BB
330
B
100
AcDbEntity
 67
     1
  8
1
  6
Continuous
 62
    18
100
AcDbLine
 10
1.677700999999999
 20
4.475028
 30
0.0
 11
1.672398
 21
4.476581999999999
 31
0.0
  0
LINE
  5
4BC
330
B
100
AcDbEntity
 67
     1
  8
1
  6
Continuous
 62
    18
100
AcDbLine
 10
1.540192999999999
 20
6.647794
 30
0.0
 11
1.543054
 21
6.644250999999999
 31
0.0
  0
LINE
  5
4BD
330
B
100
AcDbEntity
 67
     1
  8
1
  6
Continuous
 62
    18
100
AcDbLine
 10
5.539771
 20
3.924502999999999
 30
0.0
 11
5.525915
 21
4.188887
 31
0.0
  0
LINE
  5
4BE
330
B
100
AcDbEntity
 67
     1
  8
1
  6
Continuous
 62
    18
100
AcDbLine
 10
2.269897999999999
 20
4.508401
 30
0.0
 11
2.264241
 21
4.506744
 31
0.0
  0
LINE
  5
4BF
330
B
100
AcDbEntity
 67
     1
  8
1
  6
Continuous
 62
    18
100
AcDbLine
 10
1.70642
 20
6.303169
 30
0.0
 11
1.70642
 21
6.320024
 31
0.0
  0
LINE
  5
4C0
330
B
100
AcDbEntity
 67
     1
  8
1
  6
Continuous
 62
    18
100
AcDbLine
 10
1.919488
 20
3.916448
 30
0.0
 11
1.919815
 21
3.913315
 31
0.0
  0
LINE
  5
4C1
330
B
100
AcDbEntity
 67
     1
  8
1
  6
Continuous
 62
    18
100
AcDbLine
 10
2.35392
 20
6.392243999999999
 30
0.0
 11
2.35392
 21
6.726197999999999
 31
0.0
  0
LINE
  5
4C2
330
B
100
AcDbEntity
 67
     1
  8
1
  6
Continuous
 62
    18
100
AcDbLine
 10
1.656419999999999
 20
6.620486999999999
 30
0.0
 11
1.656419999999999
 21
6.624825999999999
 31
0.0
  0
LINE
  5
4C3
330
B
100
AcDbEntity
 67
     1
  8
1
  6
Continuous
 62
    18
100
AcDbLine
 10
2.261897999999999
 20
4.478601
 30
0.0
 11
2.261897999999999
 21
4.459455
 31
0.0
  0
LINE
  5
4C4
330
B
100
AcDbEntity
 67
     1
  8
1
  6
Continuous
 62
    18
100
AcDbLine
 10
2.33854
 20
6.70675
 30
0.0
 11
2.324397999999999
 21
6.702608
 31
0.0
  0
LINE
  5
4C5
330
B
100
AcDbEntity
 67
     1
  8
1
  6
Continuous
 62
    18
100
AcDbLine
 10
1.672724999999999
 20
6.334912999999999
 30
0.0
 11
1.679897
 21
6.334912999999999
 31
0.0
  0
LINE
  5
4C6
330
B
100
AcDbEntity
 67
     1
  8
1
  6
Continuous
 62
    18
100
AcDbLine
 10
5.683985999999999
 20
4.188890999999999
 30
0.0
 11
5.673383999999999
 21
4.188890999999999
 31
0.0
  0
LINE
  5
4C7
330
B
100
AcDbEntity
 67
     1
  8
1
  6
Continuous
 62
    18
100
AcDbLine
 10
1.656419999999999
 20
4.770030999999999
 30
0.0
 11
1.68142
 21
4.765293999999999
 31
0.0
  0
LINE
  5
4C8
330
B
100
AcDbEntity
 67
     1
  8
1
  6
Continuous
 62
    18
100
AcDbLine
 10
2.35691
 20
4.494726999999999
 30
0.0
 11
2.357397999999999
 21
4.491462
 31
0.0
  0
LINE
  5
4C9
330
B
100
AcDbEntity
 67
     1
  8
1
  6
Continuous
 62
    18
100
AcDbLine
 10
1.655511999999999
 20
6.812503999999999
 30
0.0
 11
1.655511999999999
 21
6.729133
 31
0.0
  0
LINE
  5
4CA
330
B
100
AcDbEntity
 67
     1
  8
1
  6
Continuous
 62
    18
100
AcDbLine
 10
1.659775999999999
 20
6.618857000000001
 30
0.0
 11
1.663154
 21
6.618516
 31
0.0
  0
LINE
  5
4CB
330
B
100
AcDbEntity
 67
     1
  8
1
  6
Continuous
 62
    18
100
AcDbLine
 10
1.553542
 20
6.727863
 30
0.0
 11
1.53675
 21
7.407907999999999
 31
0.0
  0
LINE
  5
4CC
330
B
100
AcDbEntity
 67
     1
  8
1
  6
Continuous
 62
    18
100
AcDbLine
 10
2.375306
 20
6.891849999999999
 30
0.0
 11
2.375306
 21
6.919324999999999
 31
0.0
  0
LINE
  5
4CD
330
B
100
AcDbEntity
 67
     1
  8
1
  6
Continuous
 62
    18
100
AcDbLine
 10
1.671458
 20
6.318419
 30
0.0
 11
1.671
 21
6.297315
 31
0.0
  0
LINE
  5
4CE
330
B
100
AcDbEntity
 67
     1
  8
1
  6
Continuous
 62
    18
100
AcDbLine
 10
1.689086
 20
6.538362999999999
 30
0.0
 11
1.68642
 21
6.529424999999999
 31
0.0
  0
LINE
  5
4CF
330
B
100
AcDbEntity
 67
     1
  8
1
  6
Continuous
 62
    18
100
AcDbLine
 10
1.736420999999999
 20
4.478283
 30
0.0
 11
1.736420999999999
 21
4.458872
 31
0.0
  0
LINE
  5
4D0
330
B
100
AcDbEntity
 67
     1
  8
1
  6
Continuous
 62
    18
100
AcDbLine
 10
1.674754
 20
4.730253
 30
0.0
 11
1.683346
 21
4.722816
 31
0.0
  0
LINE
  5
4D1
330
B
100
AcDbEntity
 67
     1
  8
1
  6
Continuous
 62
    18
100
AcDbLine
 10
1.549306999999999
 20
6.724736
 30
0.0
 11
1.5456
 21
6.721275999999999
 31
0.0
  0
LINE
  5
4D2
330
B
100
AcDbEntity
 67
     1
  8
1
  6
Continuous
 62
    18
100
AcDbLine
 10
1.582398999999999
 20
4.549882
 30
0.0
 11
1.662199999999999
 21
4.549882
 31
0.0
  0
LINE
  5
4D3
330
B
100
AcDbEntity
 67
     1
  8
1
  6
Continuous
 62
    18
100
AcDbLine
 10
2.463579999999999
 20
4.531852999999999
 30
0.0
 11
2.463295
 21
4.523673999999999
 31
0.0
  0
LINE
  5
4D4
330
B
100
AcDbEntity
 67
     1
  8
1
  6
Continuous
 62
    18
100
AcDbLine
 10
1.579413999999999
 20
4.850576
 30
0.0
 11
1.600054
 21
4.865795999999999
 31
0.0
  0
LINE
  5
4D5
330
B
100
AcDbEntity
 67
     1
  8
1
  6
Continuous
 62
    18
100
AcDbLine
 10
1.671115
 20
6.157055999999999
 30
0.0
 11
2.359693999999999
 21
6.157055999999999
 31
0.0
  0
LINE
  5
4D6
330
B
100
AcDbEntity
 67
     1
  8
1
  6
Continuous
 62
    18
100
AcDbLine
 10
2.440824
 20
4.195376
 30
0.0
 11
2.326344999999999
 21
4.195376
 31
0.0
  0
LINE
  5
4D7
330
B
100
AcDbEntity
 67
     1
  8
1
  6
Continuous
 62
    18
100
AcDbLine
 10
1.701949
 20
6.28472
 30
0.0
 11
2.261897999999999
 21
6.28472
 31
0.0
  0
LINE
  5
4D8
330
B
100
AcDbEntity
 67
     1
  8
1
  6
Continuous
 62
    18
100
AcDbLine
 10
1.655511999999999
 20
4.739971999999999
 30
0.0
 11
1.655511999999999
 21
4.549882
 31
0.0
  0
LINE
  5
4D9
330
B
100
AcDbEntity
 67
     1
  8
1
  6
Continuous
 62
    18
100
AcDbLine
 10
1.684288999999999
 20
6.608569
 30
0.0
 11
1.685166999999999
 21
6.607346
 31
0.0
  0
LINE
  5
4DA
330
B
100
AcDbEntity
 67
     1
  8
1
  6
Continuous
 62
    18
100
AcDbLine
 10
1.655511999999999
 20
6.604152
 30
0.0
 11
1.664525999999999
 21
6.604152
 31
0.0
  0
LINE
  5
4DB
330
B
100
AcDbEntity
 67
     1
  8
1
  6
Continuous
 62
    18
100
AcDbLine
 10
1.562569
 20
4.898875
 30
0.0
 11
1.562585
 21
4.900063999999999
 31
0.0
  0
LINE
  5
4DC
330
B
100
AcDbEntity
 67
     1
  8
1
  6
Continuous
 62
    18
100
AcDbLine
 10
1.539651
 20
7.845264999999999
 30
0.0
 11
2.490545999999999
 21
7.845264999999999
 31
0.0
  0
LINE
  5
4DD
330
B
100
AcDbEntity
 67
     1
  8
1
  6
Continuous
 62
    18
100
AcDbLine
 10
1.918042999999999
 20
4.036598999999999
 30
0.0
 11
2.112154
 21
4.036598999999999
 31
0.0
  0
LINE
  5
4DE
330
B
100
AcDbEntity
 67
     1
  8
1
  6
Continuous
 62
    18
100
AcDbLine
 10
1.524599
 20
4.368802999999999
 30
0.0
 11
1.52466
 21
4.370547
 31
0.0
  0
LINE
  5
4DF
330
B
100
AcDbEntity
 67
     1
  8
1
  6
Continuous
 62
    18
100
AcDbLine
 10
1.672954999999999
 20
6.273934999999999
 30
0.0
 11
1.672272999999999
 21
6.277668
 31
0.0
  0
LINE
  5
4E0
330
B
100
AcDbEntity
 67
     1
  8
1
  6
Continuous
 62
    18
100
AcDbLine
 10
1.656419999999999
 20
4.742899999999999
 30
0.0
 11
1.656419999999999
 21
4.756673999999999
 31
0.0
  0
LINE
  5
4E1
330
B
100
AcDbEntity
 67
     1
  8
1
  6
Continuous
 62
    18
100
AcDbLine
 10
1.662199999999999
 20
4.549882
 30
0.0
 11
1.669134
 21
4.547082999999999
 31
0.0
  0
LINE
  5
4E2
330
B
100
AcDbEntity
 67
     1
  8
1
  6
Continuous
 62
    18
100
AcDbLine
 10
1.679897999999999
 20
6.296983999999999
 30
0.0
 11
1.729897999999999
 21
6.296983999999999
 31
0.0
  0
LINE
  5
4E3
330
B
100
AcDbEntity
 67
     1
  8
1
  6
Continuous
 62
    18
100
AcDbLine
 10
1.756615
 20
4.237824999999999
 30
0.0
 11
1.846799
 21
4.237824999999999
 31
0.0
  0
LINE
  5
4E4
330
B
100
AcDbEntity
 67
     1
  8
1
  6
Continuous
 62
    18
100
AcDbLine
 10
2.447678999999999
 20
4.536819
 30
0.0
 11
2.447964999999999
 21
4.546559999999999
 31
0.0
  0
LINE
  5
4E5
330
B
100
AcDbEntity
 67
     1
  8
1
  6
Continuous
 62
    18
100
AcDbLine
 10
1.676897999999999
 20
6.408957
 30
0.0
 11
1.675394999999999
 21
6.388325
 31
0.0
  0
LINE
  5
4E6
330
B
100
AcDbEntity
 67
     1
  8
1
  6
Continuous
 62
    18
100
AcDbLine
 10
2.448418999999999
 20
6.341434999999999
 30
0.0
 11
2.459327
 21
6.341166
 31
0.0
  0
LINE
  5
4E7
330
B
100
AcDbEntity
 67
     1
  8
1
  6
Continuous
 62
    18
100
AcDbLine
 10
1.848335999999999
 20
4.258541
 30
0.0
 11
1.848283999999999
 21
4.255541
 31
0.0
  0
LINE
  5
4E8
330
B
100
AcDbEntity
 67
     1
  8
1
  6
Continuous
 62
    18
100
AcDbLine
 10
2.501208999999999
 20
5.881212
 30
0.0
 11
2.505597999999999
 21
5.891812999999999
 31
0.0
  0
LINE
  5
4E9
330
B
100
AcDbEntity
 67
     1
  8
1
  6
Continuous
 62
    18
100
AcDbLine
 10
1.539651
 20
5.881453999999999
 30
0.0
 11
1.539651
 21
5.891873999999999
 31
0.0
  0
LINE
  5
4EA
330
B
100
AcDbEntity
 67
     1
  8
1
  6
Continuous
 62
    18
100
AcDbLine
 10
1.582398999999999
 20
6.341434999999999
 30
0.0
 11
1.662199999999999
 21
6.341434999999999
 31
0.0
  0
LINE
  5
4EB
330
B
100
AcDbEntity
 67
     1
  8
1
  6
Continuous
 62
    18
100
AcDbLine
 10
2.468249
 20
6.875969999999999
 30
0.0
 11
2.462917
 21
6.856205
 31
0.0
  0
LINE
  5
4EC
330
B
100
AcDbEntity
 67
     1
  8
1
  6
Continuous
 62
    18
100
AcDbLine
 10
1.5336
 20
4.769214999999999
 30
0.0
 11
1.535443
 21
4.765219999999999
 31
0.0
  0
LINE
  5
4ED
330
B
100
AcDbEntity
 67
     1
  8
1
  6
Continuous
 62
    18
100
AcDbLine
 10
1.583849999999999
 20
6.627786999999999
 30
0.0
 11
1.604897999999999
 21
6.624825999999999
 31
0.0
  0
LINE
  5
4EE
330
B
100
AcDbEntity
 67
     1
  8
1
  6
Continuous
 62
    18
100
AcDbLine
 10
1.676897999999999
 20
6.404176
 30
0.0
 11
1.677020999999999
 21
6.401832999999999
 31
0.0
  0
LINE
  5
4EF
330
B
100
AcDbEntity
 67
     1
  8
1
  6
Continuous
 62
    18
100
AcDbLine
 10
2.447582
 20
6.272491999999999
 30
0.0
 11
2.369960999999999
 21
6.272491999999999
 31
0.0
  0
LINE
  5
4F0
330
B
100
AcDbEntity
 67
     1
  8
1
  6
Continuous
 62
    18
100
AcDbLine
 10
1.905774
 20
4.390840999999999
 30
0.0
 11
1.905784999999999
 21
4.385023
 31
0.0
  0
LINE
  5
4F1
330
B
100
AcDbEntity
 67
     1
  8
1
  6
Continuous
 62
    18
100
AcDbLine
 10
1.529231
 20
5.891873999999999
 30
0.0
 11
1.52466
 21
5.891873999999999
 31
0.0
  0
LINE
  5
4F2
330
B
100
AcDbEntity
 67
     1
  8
1
  6
Continuous
 62
    18
100
AcDbLine
 10
1.674452
 20
4.411958
 30
0.0
 11
1.674660999999999
 21
4.411958
 31
0.0
  0
LINE
  5
4F3
330
B
100
AcDbEntity
 67
     1
  8
1
  6
Continuous
 62
    18
100
AcDbLine
 10
1.587112
 20
4.730459999999999
 30
0.0
 11
1.592530999999999
 21
4.729605999999999
 31
0.0
  0
LINE
  5
4F4
330
B
100
AcDbEntity
 67
     1
  8
1
  6
Continuous
 62
    18
100
AcDbLine
 10
2.368618
 20
4.549882
 30
0.0
 11
2.369347
 21
4.546559999999999
 31
0.0
  0
LINE
  5
4F5
330
B
100
AcDbEntity
 67
     1
  8
1
  6
Continuous
 62
    18
100
AcDbLine
 10
2.403425999999999
 20
6.815582
 30
0.0
 11
2.375306
 21
6.812503999999999
 31
0.0
  0
LINE
  5
4F6
330
B
100
AcDbEntity
 67
     1
  8
1
  6
Continuous
 62
    18
100
AcDbLine
 10
2.356157
 20
6.290693
 30
0.0
 11
2.356157
 21
6.279589999999999
 31
0.0
  0
LINE
  5
4F7
330
B
100
AcDbEntity
 67
     1
  8
1
  6
Continuous
 62
    18
100
AcDbLine
 10
1.529898
 20
4.794779
 30
0.0
 11
1.529898
 21
4.787708
 31
0.0
  0
LINE
  5
4F8
330
B
100
AcDbEntity
 67
     1
  8
1
  6
Continuous
 62
    18
100
AcDbLine
 10
1.604897999999999
 20
6.702608
 30
0.0
 11
1.583849999999999
 21
6.699647999999999
 31
0.0
  0
LINE
  5
4F9
330
B
100
AcDbEntity
 67
     1
  8
1
  6
Continuous
 62
    18
100
AcDbLine
 10
2.490606999999999
 20
4.368802999999999
 30
0.0
 11
2.490545999999999
 21
4.370547
 31
0.0
  0
LINE
  5
4FA
330
B
100
AcDbEntity
 67
     1
  8
1
  6
Continuous
 62
    18
100
AcDbLine
 10
1.702125999999999
 20
4.426623999999999
 30
0.0
 11
1.702715
 21
4.425538999999999
 31
0.0
  0
LINE
  5
4FB
330
B
100
AcDbEntity
 67
     1
  8
1
  6
Continuous
 62
    18
100
AcDbLine
 10
1.598033
 20
4.728570999999999
 30
0.0
 11
1.593283
 21
4.72568
 31
0.0
  0
LINE
  5
4FC
330
B
100
AcDbEntity
 67
     1
  8
1
  6
Continuous
 62
    18
100
AcDbLine
 10
1.70642
 20
6.303169
 30
0.0
 11
1.70642
 21
6.296983999999999
 31
0.0
  0
LINE
  5
4FD
330
B
100
AcDbEntity
 67
     1
  8
1
  6
Continuous
 62
    18
100
AcDbLine
 10
1.679897999999999
 20
6.303169
 30
0.0
 11
1.679897999999999
 21
6.296983999999999
 31
0.0
  0
LINE
  5
4FE
330
B
100
AcDbEntity
 67
     1
  8
1
  6
Continuous
 62
    18
100
AcDbLine
 10
1.67208
 20
6.310164
 30
0.0
 11
1.679897
 21
6.310164
 31
0.0
  0
LINE
  5
4FF
330
B
100
AcDbEntity
 67
     1
  8
1
  6
Continuous
 62
    18
100
AcDbLine
 10
1.679897999999999
 20
6.322537999999999
 30
0.0
 11
1.677700999999999
 21
6.326287999999999
 31
0.0
  0
LINE
  5
500
330
B
100
AcDbEntity
 67
     1
  8
1
  6
Continuous
 62
    18
100
AcDbLine
 10
1.673116999999999
 20
6.216728999999999
 30
0.0
 11
1.673345
 21
6.232078999999999
 31
0.0
  0
LINE
  5
501
330
B
100
AcDbEntity
 67
     1
  8
1
  6
Continuous
 62
    18
100
AcDbLine
 10
1.679897999999999
 20
4.491706999999999
 30
0.0
 11
1.671966
 21
4.491706999999999
 31
0.0
  0
LINE
  5
502
330
B
100
AcDbEntity
 67
     1
  8
1
  6
Continuous
 62
    18
100
AcDbLine
 10
1.528988
 20
4.368802999999999
 30
0.0
 11
1.524599
 21
4.368802999999999
 31
0.0
  0
LINE
  5
503
330
B
100
AcDbEntity
 67
     1
  8
1
  6
Continuous
 62
    18
100
AcDbLine
 10
2.261897999999999
 20
6.29909
 30
0.0
 11
2.35691
 21
6.29909
 31
0.0
  0
LINE
  5
504
330
B
100
AcDbEntity
 67
     1
  8
1
  6
Continuous
 62
    18
100
AcDbLine
 10
1.571973999999999
 20
4.847814999999999
 30
0.0
 11
1.567005999999999
 21
4.845758
 31
0.0
  0
LINE
  5
505
330
B
100
AcDbEntity
 67
     1
  8
1
  6
Continuous
 62
    18
100
AcDbLine
 10
2.359309999999999
 20
6.167696
 30
0.0
 11
2.356939
 21
6.199683999999999
 31
0.0
  0
LINE
  5
506
330
B
100
AcDbEntity
 67
     1
  8
1
  6
Continuous
 62
    18
100
AcDbLine
 10
1.601801999999999
 20
4.853620999999999
 30
0.0
 11
1.598716999999999
 21
4.853475
 31
0.0
  0
LINE
  5
507
330
B
100
AcDbEntity
 67
     1
  8
1
  6
Continuous
 62
    18
100
AcDbLine
 10
1.598716999999999
 20
4.853475
 30
0.0
 11
1.59321
 21
4.852966999999999
 31
0.0
  0
LINE
  5
508
330
B
100
AcDbEntity
 67
     1
  8
1
  6
Continuous
 62
    18
100
AcDbLine
 10
5.356304999999999
 20
4.385188999999999
 30
0.0
 11
5.327836
 21
4.385188999999999
 31
0.0
  0
LINE
  5
509
330
B
100
AcDbEntity
 67
     1
  8
1
  6
Continuous
 62
    18
100
AcDbLine
 10
1.530076
 20
4.798370999999999
 30
0.0
 11
1.530006
 21
4.794618999999999
 31
0.0
  0
LINE
  5
50A
330
B
100
AcDbEntity
 67
     1
  8
1
  6
Continuous
 62
    18
100
AcDbLine
 10
2.261897999999999
 20
6.342916
 30
0.0
 11
2.261897999999999
 21
6.350792
 31
0.0
  0
LINE
  5
50B
330
B
100
AcDbEntity
 67
     1
  8
1
  6
Continuous
 62
    18
100
AcDbLine
 10
1.658103999999999
 20
6.618939999999999
 30
0.0
 11
1.659775999999999
 21
6.618857000000001
 31
0.0
  0
LINE
  5
50C
330
B
100
AcDbEntity
 67
     1
  8
1
  6
Continuous
 62
    18
100
AcDbLine
 10
1.592530999999999
 20
6.619757
 30
0.0
 11
1.598009
 21
6.619211999999999
 31
0.0
  0
LINE
  5
50D
330
B
100
AcDbEntity
 67
     1
  8
1
  6
Continuous
 62
    18
100
AcDbLine
 10
5.058691
 20
4.385187999999999
 30
0.0
 11
5.058750999999999
 21
4.385023
 31
0.0
  0
LINE
  5
50E
330
B
100
AcDbEntity
 67
     1
  8
1
  6
Continuous
 62
    18
100
AcDbLine
 10
1.529922
 20
4.786179999999999
 30
0.0
 11
1.530184
 21
4.781833999999999
 31
0.0
  0
LINE
  5
50F
330
B
100
AcDbEntity
 67
     1
  8
1
  6
Continuous
 62
    18
100
AcDbLine
 10
2.261897999999999
 20
4.492016999999999
 30
0.0
 11
2.261897999999999
 21
4.496833
 31
0.0
  0
LINE
  5
510
330
B
100
AcDbEntity
 67
     1
  8
1
  6
Continuous
 62
    18
100
AcDbLine
 10
1.542220999999999
 20
6.717564999999999
 30
0.0
 11
1.539239
 21
6.713677999999999
 31
0.0
  0
LINE
  5
511
330
B
100
AcDbEntity
 67
     1
  8
1
  6
Continuous
 62
    18
100
AcDbLine
 10
2.124773999999999
 20
6.204157
 30
0.0
 11
2.125043999999999
 21
6.216774
 31
0.0
  0
LINE
  5
512
330
B
100
AcDbEntity
 67
     1
  8
1
  6
Continuous
 62
    18
100
AcDbLine
 10
1.681625999999999
 20
4.721067999999999
 30
0.0
 11
1.68312
 21
4.719714999999999
 31
0.0
  0
LINE
  5
513
330
B
100
AcDbEntity
 67
     1
  8
1
  6
Continuous
 62
    18
100
AcDbLine
 10
4.121824
 20
4.521325
 30
0.0
 11
4.142017
 21
4.536819
 31
0.0
  0
LINE
  5
514
330
B
100
AcDbEntity
 67
     1
  8
1
  6
Continuous
 62
    18
100
AcDbLine
 10
2.505536999999999
 20
7.830274
 30
0.0
 11
2.50114
 21
7.840867999999999
 31
0.0
  0
LINE
  5
515
330
B
100
AcDbEntity
 67
     1
  8
1
  6
Continuous
 62
    18
100
AcDbLine
 10
1.566724999999999
 20
4.736856999999999
 30
0.0
 11
1.571579999999999
 21
4.734823
 31
0.0
  0
LINE
  5
516
330
B
100
AcDbEntity
 67
     1
  8
1
  6
Continuous
 62
    18
100
AcDbLine
 10
1.551865
 20
4.750207999999999
 30
0.0
 11
1.576196999999999
 21
4.738712
 31
0.0
  0
LINE
  5
517
330
B
100
AcDbEntity
 67
     1
  8
1
  6
Continuous
 62
    18
100
AcDbLine
 10
2.264241
 20
4.506744
 30
0.0
 11
2.261897999999999
 21
4.502743999999999
 31
0.0
  0
LINE
  5
518
330
B
100
AcDbEntity
 67
     1
  8
1
  6
Continuous
 62
    18
100
AcDbLine
 10
1.672533999999999
 20
6.616228999999999
 30
0.0
 11
1.675233
 21
6.615122
 31
0.0
  0
LINE
  5
519
330
B
100
AcDbEntity
 67
     1
  8
1
  6
Continuous
 62
    18
100
AcDbLine
 10
4.687838
 20
4.936339
 30
0.0
 11
4.673861
 21
4.950315999999999
 31
0.0
  0
LINE
  5
51A
330
B
100
AcDbEntity
 67
     1
  8
1
  6
Continuous
 62
    18
100
AcDbLine
 10
1.549897999999999
 20
6.663717
 30
0.0
 11
1.554084
 21
6.648835
 31
0.0
  0
LINE
  5
51B
330
B
100
AcDbEntity
 67
     1
  8
1
  6
Continuous
 62
    18
100
AcDbLine
 10
2.501208999999999
 20
7.840936
 30
0.0
 11
2.490606999999999
 21
7.845325999999999
 31
0.0
  0
LINE
  5
51C
330
B
100
AcDbEntity
 67
     1
  8
1
  6
Continuous
 62
    18
100
AcDbLine
 10
2.324397999999999
 20
6.363197
 30
0.0
 11
2.269897999999999
 21
6.363197
 31
0.0
  0
LINE
  5
51D
330
B
100
AcDbEntity
 67
     1
  8
1
  6
Continuous
 62
    18
100
AcDbLine
 10
1.729897999999999
 20
6.296983999999999
 30
0.0
 11
1.729897999999999
 21
6.303168
 31
0.0
  0
LINE
  5
51E
330
B
100
AcDbEntity
 67
     1
  8
1
  6
Continuous
 62
    18
100
AcDbLine
 10
1.574204
 20
6.760828
 30
0.0
 11
1.577345999999999
 21
6.757009
 31
0.0
  0
LINE
  5
51F
330
B
100
AcDbEntity
 67
     1
  8
1
  6
Continuous
 62
    18
100
AcDbLine
 10
1.593493
 20
7.018892
 30
0.0
 11
1.580016
 21
7.296557
 31
0.0
  0
LINE
  5
520
330
B
100
AcDbEntity
 67
     1
  8
1
  6
Continuous
 62
    18
100
AcDbLine
 10
2.468249
 20
4.898875
 30
0.0
 11
2.462917
 21
4.918639999999999
 31
0.0
  0
LINE
  5
521
330
B
100
AcDbEntity
 67
     1
  8
1
  6
Continuous
 62
    18
100
AcDbLine
 10
1.5456
 20
4.831125
 30
0.0
 11
1.542220999999999
 21
4.827414
 31
0.0
  0
LINE
  5
522
330
B
100
AcDbEntity
 67
     1
  8
1
  6
Continuous
 62
    18
100
AcDbLine
 10
3.747426999999999
 20
4.188890999999999
 30
0.0
 11
3.736826
 21
4.188890999999999
 31
0.0
  0
LINE
  5
523
330
B
100
AcDbEntity
 67
     1
  8
1
  6
Continuous
 62
    18
100
AcDbLine
 10
1.655511999999999
 20
6.919324999999999
 30
0.0
 11
1.655511999999999
 21
6.942867999999998
 31
0.0
  0
LINE
  5
524
330
B
100
AcDbEntity
 67
     1
  8
1
  6
Continuous
 62
    18
100
AcDbLine
 10
1.685763
 20
6.606266999999999
 30
0.0
 11
1.686154
 21
6.605278
 31
0.0
  0
LINE
  5
525
330
B
100
AcDbEntity
 67
     1
  8
1
  6
Continuous
 62
    18
100
AcDbLine
 10
2.324397999999999
 20
4.853671
 30
0.0
 11
1.604897999999999
 21
4.853671
 31
0.0
  0
LINE
  5
526
330
B
100
AcDbEntity
 67
     1
  8
1
  6
Continuous
 62
    18
100
AcDbLine
 10
1.567620999999999
 20
4.385188999999999
 30
0.0
 11
1.567620999999999
 21
4.510661999999999
 31
0.0
  0
LINE
  5
527
330
B
100
AcDbEntity
 67
     1
  8
1
  6
Continuous
 62
    18
100
AcDbLine
 10
3.881041999999999
 20
3.924502999999999
 30
0.0
 11
3.894897
 21
4.188887
 31
0.0
  0
LINE
  5
528
330
B
100
AcDbEntity
 67
     1
  8
1
  6
Continuous
 62
    18
100
AcDbLine
 10
1.686154
 20
4.715126999999999
 30
0.0
 11
1.686354999999999
 21
4.714277
 31
0.0
  0
LINE
  5
529
330
B
100
AcDbEntity
 67
     1
  8
1
  6
Continuous
 62
    18
100
AcDbLine
 10
1.689086
 20
6.517184999999999
 30
0.0
 11
1.68642
 21
6.522353999999999
 31
0.0
  0
LINE
  5
52A
330
B
100
AcDbEntity
 67
     1
  8
1
  6
Continuous
 62
    18
100
AcDbLine
 10
2.324397999999999
 20
6.726203999999999
 30
0.0
 11
2.324397999999999
 21
6.71383
 31
0.0
  0
LINE
  5
52B
330
B
100
AcDbEntity
 67
     1
  8
1
  6
Continuous
 62
    18
100
AcDbLine
 10
2.343072
 20
6.721813
 30
0.0
 11
2.339272
 21
6.726203999999999
 31
0.0
  0
LINE
  5
52C
330
B
100
AcDbEntity
 67
     1
  8
1
  6
Continuous
 62
    18
100
AcDbLine
 10
1.848283999999999
 20
6.199683999999999
 30
0.0
 11
2.180166999999999
 21
6.199683999999999
 31
0.0
  0
LINE
  5
52D
330
B
100
AcDbEntity
 67
     1
  8
1
  6
Continuous
 62
    18
100
AcDbLine
 10
1.679897999999999
 20
4.498486999999999
 30
0.0
 11
1.679897999999999
 21
4.502676
 31
0.0
  0
LINE
  5
52E
330
B
100
AcDbEntity
 67
     1
  8
1
  6
Continuous
 62
    18
100
AcDbLine
 10
5.539771
 20
3.924502999999999
 30
0.0
 11
5.543548
 21
3.916448
 31
0.0
  0
LINE
  5
52F
330
B
100
AcDbEntity
 67
     1
  8
1
  6
Continuous
 62
    18
100
AcDbLine
 10
2.264241
 20
4.506744
 30
0.0
 11
2.261897999999999
 21
4.502743999999999
 31
0.0
  0
LINE
  5
530
330
B
100
AcDbEntity
 67
     1
  8
1
  6
Continuous
 62
    18
100
AcDbLine
 10
2.356157
 20
4.411985999999999
 30
0.0
 11
2.356275999999999
 21
4.405483
 31
0.0
  0
LINE
  5
531
330
B
100
AcDbEntity
 67
     1
  8
1
  6
Continuous
 62
    18
100
AcDbLine
 10
1.576602999999999
 20
6.623228999999999
 30
0.0
 11
1.581796999999999
 21
6.621769
 31
0.0
  0
LINE
  5
532
330
B
100
AcDbEntity
 67
     1
  8
1
  6
Continuous
 62
    18
100
AcDbLine
 10
1.68642
 20
6.603613
 30
0.0
 11
1.692277999999999
 21
6.593613
 31
0.0
  0
LINE
  5
533
330
B
100
AcDbEntity
 67
     1
  8
1
  6
Continuous
 62
    18
100
AcDbLine
 10
2.261897999999999
 20
4.459455
 30
0.0
 11
2.261897999999999
 21
4.438679
 31
0.0
  0
LINE
  5
534
330
B
100
AcDbEntity
 67
     1
  8
1
  6
Continuous
 62
    18
100
AcDbLine
 10
1.581796999999999
 20
6.621769
 30
0.0
 11
1.587112
 21
6.620611
 31
0.0
  0
LINE
  5
535
330
B
100
AcDbEntity
 67
     1
  8
1
  6
Continuous
 62
    18
100
AcDbLine
 10
1.678304999999999
 20
6.381858999999999
 30
0.0
 11
1.678174999999999
 21
6.395172
 31
0.0
  0
LINE
  5
536
330
B
100
AcDbEntity
 67
     1
  8
1
  6
Continuous
 62
    18
100
AcDbLine
 10
5.679667
 20
4.368802999999999
 30
0.0
 11
5.690268999999999
 21
4.368802999999999
 31
0.0
  0
LINE
  5
537
330
B
100
AcDbEntity
 67
     1
  8
1
  6
Continuous
 62
    18
100
AcDbLine
 10
1.68142
 20
4.765293999999999
 30
0.0
 11
1.699722
 21
4.752353
 31
0.0
  0
LINE
  5
538
330
B
100
AcDbEntity
 67
     1
  8
1
  6
Continuous
 62
    18
100
AcDbLine
 10
1.539651
 20
7.830274
 30
0.0
 11
1.539651
 21
7.840694
 31
0.0
  0
LINE
  5
539
330
B
100
AcDbEntity
 67
     1
  8
1
  6
Continuous
 62
    18
100
AcDbLine
 10
1.663154
 20
6.618516
 30
0.0
 11
1.666446999999999
 21
6.617952999999999
 31
0.0
  0
LINE
  5
53A
330
B
100
AcDbEntity
 67
     1
  8
1
  6
Continuous
 62
    18
100
AcDbLine
 10
2.375306
 20
6.919324999999999
 30
0.0
 11
2.375306
 21
6.942867999999998
 31
0.0
  0
LINE
  5
53B
330
B
100
AcDbEntity
 67
     1
  8
1
  6
Continuous
 62
    18
100
AcDbLine
 10
2.359359999999999
 20
4.537270999999999
 30
0.0
 11
2.358632
 21
4.540251999999999
 31
0.0
  0
LINE
  5
53C
330
B
100
AcDbEntity
 67
     1
  8
1
  6
Continuous
 62
    18
100
AcDbLine
 10
1.567620999999999
 20
4.510661999999999
 30
0.0
 11
1.567523999999999
 21
4.523673999999999
 31
0.0
  0
LINE
  5
53D
330
B
100
AcDbEntity
 67
     1
  8
1
  6
Continuous
 62
    18
100
AcDbLine
 10
1.551865
 20
6.722430999999999
 30
0.0
 11
1.535606999999999
 21
6.705225
 31
0.0
  0
LINE
  5
53E
330
B
100
AcDbEntity
 67
     1
  8
1
  6
Continuous
 62
    18
100
AcDbLine
 10
1.736420999999999
 20
4.458872
 30
0.0
 11
1.736420999999999
 21
4.437926999999999
 31
0.0
  0
LINE
  5
53F
330
B
100
AcDbEntity
 67
     1
  8
1
  6
Continuous
 62
    18
100
AcDbLine
 10
1.683346
 20
4.722816
 30
0.0
 11
1.68642
 21
4.713461999999999
 31
0.0
  0
LINE
  5
540
330
B
100
AcDbEntity
 67
     1
  8
1
  6
Continuous
 62
    18
100
AcDbLine
 10
1.5456
 20
6.721275999999999
 30
0.0
 11
1.542220999999999
 21
6.717564999999999
 31
0.0
  0
LINE
  5
541
330
B
100
AcDbEntity
 67
     1
  8
1
  6
Continuous
 62
    18
100
AcDbLine
 10
1.685763
 20
6.606266999999999
 30
0.0
 11
1.686154
 21
6.605278
 31
0.0
  0
LINE
  5
542
330
B
100
AcDbEntity
 67
     1
  8
1
  6
Continuous
 62
    18
100
AcDbLine
 10
1.604897999999999
 20
4.852147
 30
0.0
 11
1.604897999999999
 21
4.847812999999999
 31
0.0
  0
LINE
  5
543
330
B
100
AcDbEntity
 67
     1
  8
1
  6
Continuous
 62
    18
100
AcDbLine
 10
1.701949
 20
6.292112
 30
0.0
 11
1.701949
 21
6.28472
 31
0.0
  0
LINE
  5
544
330
B
100
AcDbEntity
 67
     1
  8
1
  6
Continuous
 62
    18
100
AcDbLine
 10
1.567620999999999
 20
4.385188999999999
 30
0.0
 11
1.53675
 21
4.385188999999999
 31
0.0
  0
LINE
  5
545
330
B
100
AcDbEntity
 67
     1
  8
1
  6
Continuous
 62
    18
100
AcDbLine
 10
1.539651
 20
7.29043
 30
0.0
 11
1.539651
 21
6.713907
 31
0.0
  0
LINE
  5
546
330
B
100
AcDbEntity
 67
     1
  8
1
  6
Continuous
 62
    18
100
AcDbLine
 10
1.600054
 20
4.865795999999999
 30
0.0
 11
1.626304999999999
 21
4.875591
 31
0.0
  0
LINE
  5
547
330
B
100
AcDbEntity
 67
     1
  8
1
  6
Continuous
 62
    18
100
AcDbLine
 10
1.70642
 20
6.350792
 30
0.0
 11
1.70642
 21
6.342916
 31
0.0
  0
LINE
  5
548
330
B
100
AcDbEntity
 67
     1
  8
1
  6
Continuous
 62
    18
100
AcDbLine
 10
1.904758
 20
4.306283
 30
0.0
 11
1.905300999999999
 21
4.300877999999999
 31
0.0
  0
LINE
  5
549
330
B
100
AcDbEntity
 67
     1
  8
1
  6
Continuous
 62
    18
100
AcDbLine
 10
1.679897999999999
 20
4.445367
 30
0.0
 11
1.679897999999999
 21
4.427438999999999
 31
0.0
  0
LINE
  5
54A
330
B
100
AcDbEntity
 67
     1
  8
1
  6
Continuous
 62
    18
100
AcDbLine
 10
1.664372
 20
4.549882
 30
0.0
 11
1.664525999999999
 21
4.549881
 31
0.0
  0
LINE
  5
54B
330
B
100
AcDbEntity
 67
     1
  8
1
  6
Continuous
 62
    18
100
AcDbLine
 10
1.670843
 20
6.149758
 30
0.0
 11
1.667740999999999
 21
6.14024
 31
0.0
  0
LINE
  5
54C
330
B
100
AcDbEntity
 67
     1
  8
1
  6
Continuous
 62
    18
100
AcDbLine
 10
1.70642
 20
6.342916
 30
0.0
 11
1.70642
 21
6.350792
 31
0.0
  0
LINE
  5
54D
330
B
100
AcDbEntity
 67
     1
  8
1
  6
Continuous
 62
    18
100
AcDbLine
 10
1.655511999999999
 20
6.590133999999999
 30
0.0
 11
1.655511999999999
 21
6.597117999999999
 31
0.0
  0
LINE
  5
54E
330
B
100
AcDbEntity
 67
     1
  8
1
  6
Continuous
 62
    18
100
AcDbLine
 10
1.562585
 20
4.900063999999999
 30
0.0
 11
1.562629999999999
 21
4.90125
 31
0.0
  0
LINE
  5
54F
330
B
100
AcDbEntity
 67
     1
  8
1
  6
Continuous
 62
    18
100
AcDbLine
 10
2.490545999999999
 20
7.845264999999999
 30
0.0
 11
2.490606999999999
 21
7.845325999999999
 31
0.0
  0
LINE
  5
550
330
B
100
AcDbEntity
 67
     1
  8
1
  6
Continuous
 62
    18
100
AcDbLine
 10
2.261897999999999
 20
6.320024
 30
0.0
 11
2.261897999999999
 21
6.342916
 31
0.0
  0
LINE
  5
551
330
B
100
AcDbEntity
 67
     1
  8
1
  6
Continuous
 62
    18
100
AcDbLine
 10
2.505536999999999
 20
4.370547
 30
0.0
 11
2.505597999999999
 21
4.368802999999999
 31
0.0
  0
LINE
  5
552
330
B
100
AcDbEntity
 67
     1
  8
1
  6
Continuous
 62
    18
100
AcDbLine
 10
1.669134
 20
4.547082999999999
 30
0.0
 11
1.672186999999999
 21
4.540251999999999
 31
0.0
  0
LINE
  5
553
330
B
100
AcDbEntity
 67
     1
  8
1
  6
Continuous
 62
    18
100
AcDbLine
 10
2.410184999999999
 20
7.029213
 30
0.0
 11
2.437324999999999
 21
7.018892
 31
0.0
  0
LINE
  5
554
330
B
100
AcDbEntity
 67
     1
  8
1
  6
Continuous
 62
    18
100
AcDbLine
 10
1.660857
 20
6.272491999999999
 30
0.0
 11
1.667740999999999
 21
6.274434999999999
 31
0.0
  0
LINE
  5
555
330
B
100
AcDbEntity
 67
     1
  8
1
  6
Continuous
 62
    18
100
AcDbLine
 10
2.459327
 20
6.341166
 30
0.0
 11
2.464034999999999
 21
6.34105
 31
0.0
  0
LINE
  5
556
330
B
100
AcDbEntity
 67
     1
  8
1
  6
Continuous
 62
    18
100
AcDbLine
 10
2.463197
 20
6.157682
 30
0.0
 11
2.494068999999999
 21
7.407907999999999
 31
0.0
  0
LINE
  5
557
330
B
100
AcDbEntity
 67
     1
  8
1
  6
Continuous
 62
    18
100
AcDbLine
 10
1.846536
 20
4.195541
 30
0.0
 11
1.848572
 21
4.195541
 31
0.0
  0
LINE
  5
558
330
B
100
AcDbEntity
 67
     1
  8
1
  6
Continuous
 62
    18
100
AcDbLine
 10
1.70642
 20
6.357472
 30
0.0
 11
1.692277999999999
 21
6.361615
 31
0.0
  0
LINE
  5
559
330
B
100
AcDbEntity
 67
     1
  8
1
  6
Continuous
 62
    18
100
AcDbLine
 10
1.567523999999999
 20
6.300112
 30
0.0
 11
1.567237999999999
 21
6.319858999999999
 31
0.0
  0
LINE
  5
55A
330
B
100
AcDbEntity
 67
     1
  8
1
  6
Continuous
 62
    18
100
AcDbLine
 10
2.112154
 20
4.036598999999999
 30
0.0
 11
2.111816999999999
 21
4.033174999999999
 31
0.0
  0
LINE
  5
55B
330
B
100
AcDbEntity
 67
     1
  8
1
  6
Continuous
 62
    18
100
AcDbLine
 10
2.271835999999999
 20
4.237824999999999
 30
0.0
 11
2.272197
 21
4.258541
 31
0.0
  0
LINE
  5
55C
330
B
100
AcDbEntity
 67
     1
  8
1
  6
Continuous
 62
    18
100
AcDbLine
 10
1.535443
 20
4.765219999999999
 30
0.0
 11
1.537639999999999
 21
4.761373999999999
 31
0.0
  0
LINE
  5
55D
330
B
100
AcDbEntity
 67
     1
  8
1
  6
Continuous
 62
    18
100
AcDbLine
 10
2.468249
 20
4.534642999999999
 30
0.0
 11
2.464034999999999
 21
4.534642999999999
 31
0.0
  0
LINE
  5
55E
330
B
100
AcDbEntity
 67
     1
  8
1
  6
Continuous
 62
    18
100
AcDbLine
 10
2.359974999999999
 20
6.279193
 30
0.0
 11
2.363077999999999
 21
6.274434999999999
 31
0.0
  0
LINE
  5
55F
330
B
100
AcDbEntity
 67
     1
  8
1
  6
Continuous
 62
    18
100
AcDbLine
 10
1.6009
 20
6.929167999999998
 30
0.0
 11
1.626802
 21
6.938988
 31
0.0
  0
LINE
  5
560
330
B
100
AcDbEntity
 67
     1
  8
1
  6
Continuous
 62
    18
100
AcDbLine
 10
1.539651
 20
5.876883
 30
0.0
 11
1.539651
 21
5.881453999999999
 31
0.0
  0
LINE
  5
561
330
B
100
AcDbEntity
 67
     1
  8
1
  6
Continuous
 62
    18
100
AcDbLine
 10
1.919815
 20
3.913315
 30
0.0
 11
1.919904
 21
3.91688
 31
0.0
  0
LINE
  5
562
330
B
100
AcDbEntity
 67
     1
  8
1
  6
Continuous
 62
    18
100
AcDbLine
 10
1.912015
 20
6.216774
 30
0.0
 11
1.909937
 21
6.199683999999999
 31
0.0
  0
LINE
  5
563
330
B
100
AcDbEntity
 67
     1
  8
1
  6
Continuous
 62
    18
100
AcDbLine
 10
1.592530999999999
 20
4.729605999999999
 30
0.0
 11
1.598009
 21
4.729060999999999
 31
0.0
  0
LINE
  5
564
330
B
100
AcDbEntity
 67
     1
  8
1
  6
Continuous
 62
    18
100
AcDbLine
 10
1.562569
 20
4.843376
 30
0.0
 11
1.562569
 21
4.898875
 31
0.0
  0
LINE
  5
565
330
B
100
AcDbEntity
 67
     1
  8
1
  6
Continuous
 62
    18
100
AcDbLine
 10
2.490606999999999
 20
4.368802999999999
 30
0.0
 11
2.501208999999999
 21
4.368802999999999
 31
0.0
  0
LINE
  5
566
330
B
100
AcDbEntity
 67
     1
  8
1
  6
Continuous
 62
    18
100
AcDbLine
 10
1.676388
 20
6.200116
 30
0.0
 11
1.673652
 21
6.200116
 31
0.0
  0
LINE
  5
567
330
B
100
AcDbEntity
 67
     1
  8
1
  6
Continuous
 62
    18
100
AcDbLine
 10
1.593283
 20
4.72568
 30
0.0
 11
1.588797999999999
 21
4.722553999999999
 31
0.0
  0
LINE
  5
568
330
B
100
AcDbEntity
 67
     1
  8
1
  6
Continuous
 62
    18
100
AcDbLine
 10
1.699897999999999
 20
6.342916
 30
0.0
 11
1.699897999999999
 21
6.320024
 31
0.0
  0
LINE
  5
569
330
B
100
AcDbEntity
 67
     1
  8
1
  6
Continuous
 62
    18
100
AcDbLine
 10
1.677700999999999
 20
6.326287999999999
 30
0.0
 11
1.672398
 21
6.327841999999999
 31
0.0
  0
LINE
  5
56A
330
B
100
AcDbEntity
 67
     1
  8
1
  6
Continuous
 62
    18
100
AcDbLine
 10
1.673345
 20
6.232078999999999
 30
0.0
 11
1.673879
 21
6.249683999999999
 31
0.0
  0
LINE
  5
56B
330
B
100
AcDbEntity
 67
     1
  8
1
  6
Continuous
 62
    18
100
AcDbLine
 10
2.261897999999999
 20
4.496833
 30
0.0
 11
2.211898
 21
4.496833
 31
0.0
  0
LINE
  5
56C
330
B
100
AcDbEntity
 67
     1
  8
1
  6
Continuous
 62
    18
100
AcDbLine
 10
2.490545999999999
 20
7.830274
 30
0.0
 11
1.539651
 21
7.830274
 31
0.0
  0
LINE
  5
56D
330
B
100
AcDbEntity
 67
     1
  8
1
  6
Continuous
 62
    18
100
AcDbLine
 10
2.35392
 20
4.49473
 30
0.0
 11
2.35392
 21
4.832451999999999
 31
0.0
  0
LINE
  5
56E
330
B
100
AcDbEntity
 67
     1
  8
1
  6
Continuous
 62
    18
100
AcDbLine
 10
2.447582
 20
4.521325
 30
0.0
 11
2.458435999999999
 21
4.518224
 31
0.0
  0
LINE
  5
56F
330
B
100
AcDbEntity
 67
     1
  8
1
  6
Continuous
 62
    18
100
AcDbLine
 10
1.567005999999999
 20
4.845758
 30
0.0
 11
1.562216
 21
4.843395
 31
0.0
  0
LINE
  5
570
330
B
100
AcDbEntity
 67
     1
  8
1
  6
Continuous
 62
    18
100
AcDbLine
 10
2.429918
 20
6.929167999999998
 30
0.0
 11
2.404015999999999
 21
6.938988
 31
0.0
  0
LINE
  5
571
330
B
100
AcDbEntity
 67
     1
  8
1
  6
Continuous
 62
    18
100
AcDbLine
 10
1.671766999999999
 20
4.385188999999999
 30
0.0
 11
1.671779
 21
4.385023
 31
0.0
  0
LINE
  5
572
330
B
100
AcDbEntity
 67
     1
  8
1
  6
Continuous
 62
    18
100
AcDbLine
 10
2.50114
 20
5.88128
 30
0.0
 11
2.505536999999999
 21
5.891873999999999
 31
0.0
  0
LINE
  5
573
330
B
100
AcDbEntity
 67
     1
  8
1
  6
Continuous
 62
    18
100
AcDbLine
 10
1.537639999999999
 20
6.651525
 30
0.0
 11
1.540192999999999
 21
6.647794
 31
0.0
  0
LINE
  5
574
330
B
100
AcDbEntity
 67
     1
  8
1
  6
Continuous
 62
    18
100
AcDbLine
 10
1.609126999999999
 20
6.599033999999999
 30
0.0
 11
1.589892
 21
6.609594
 31
0.0
  0
LINE
  5
575
330
B
100
AcDbEntity
 67
     1
  8
1
  6
Continuous
 62
    18
100
AcDbLine
 10
1.59321
 20
4.852966999999999
 30
0.0
 11
1.58776
 21
4.852148
 31
0.0
  0
LINE
  5
576
330
B
100
AcDbEntity
 67
     1
  8
1
  6
Continuous
 62
    18
100
AcDbLine
 10
2.324397999999999
 20
4.853671
 30
0.0
 11
1.604897999999999
 21
4.853671
 31
0.0
  0
LINE
  5
577
330
B
100
AcDbEntity
 67
     1
  8
1
  6
Continuous
 62
    18
100
AcDbLine
 10
1.675288
 20
4.724946
 30
0.0
 11
1.677674999999999
 21
4.723736999999999
 31
0.0
  0
LINE
  5
578
330
B
100
AcDbEntity
 67
     1
  8
1
  6
Continuous
 62
    18
100
AcDbLine
 10
2.361683999999999
 20
4.547082999999999
 30
0.0
 11
2.368618
 21
4.549882
 31
0.0
  0
LINE
  5
579
330
B
100
AcDbEntity
 67
     1
  8
1
  6
Continuous
 62
    18
100
AcDbLine
 10
1.696370999999999
 20
6.577408
 30
0.0
 11
1.689086
 21
6.587733
 31
0.0
  0
LINE
  5
57A
330
B
100
AcDbEntity
 67
     1
  8
1
  6
Continuous
 62
    18
100
AcDbLine
 10
1.70642
 20
4.498421999999999
 30
0.0
 11
1.70642
 21
4.502676
 31
0.0
  0
LINE
  5
57B
330
B
100
AcDbEntity
 67
     1
  8
1
  6
Continuous
 62
    18
100
AcDbLine
 10
1.685756
 20
6.361615
 30
0.0
 11
1.679897999999999
 21
6.371614
 31
0.0
  0
LINE
  5
57C
330
B
100
AcDbEntity
 67
     1
  8
1
  6
Continuous
 62
    18
100
AcDbLine
 10
4.315033999999999
 20
4.385023
 30
0.0
 11
4.315199999999999
 21
4.385188999999999
 31
0.0
  0
LINE
  5
57D
330
B
100
AcDbEntity
 67
     1
  8
1
  6
Continuous
 62
    18
100
AcDbLine
 10
2.356157
 20
6.279589999999999
 30
0.0
 11
2.356275999999999
 21
6.269857
 31
0.0
  0
LINE
  5
57E
330
B
100
AcDbEntity
 67
     1
  8
1
  6
Continuous
 62
    18
100
AcDbLine
 10
1.531355
 20
4.806530999999999
 30
0.0
 11
1.530461999999999
 21
4.802083
 31
0.0
  0
LINE
  5
57F
330
B
100
AcDbEntity
 67
     1
  8
1
  6
Continuous
 62
    18
100
AcDbLine
 10
1.530184
 20
4.781833999999999
 30
0.0
 11
1.530998999999999
 21
4.777523999999999
 31
0.0
  0
LINE
  5
580
330
B
100
AcDbEntity
 67
     1
  8
1
  6
Continuous
 62
    18
100
AcDbLine
 10
1.567900999999999
 20
6.856205
 30
0.0
 11
1.562569
 21
6.875969999999999
 31
0.0
  0
LINE
  5
581
330
B
100
AcDbEntity
 67
     1
  8
1
  6
Continuous
 62
    18
100
AcDbLine
 10
2.211898
 20
4.420012999999999
 30
0.0
 11
2.211898
 21
4.437926999999999
 31
0.0
  0
LINE
  5
582
330
B
100
AcDbEntity
 67
     1
  8
1
  6
Continuous
 62
    18
100
AcDbLine
 10
1.539239
 20
6.713677999999999
 30
0.0
 11
1.536628
 21
6.709578999999999
 31
0.0
  0
LINE
  5
583
330
B
100
AcDbEntity
 67
     1
  8
1
  6
Continuous
 62
    18
100
AcDbLine
 10
2.464034999999999
 20
4.534642999999999
 30
0.0
 11
2.463579999999999
 21
4.531852999999999
 31
0.0
  0
LINE
  5
584
330
B
100
AcDbEntity
 67
     1
  8
1
  6
Continuous
 62
    18
100
AcDbLine
 10
4.142017
 20
4.536819
 30
0.0
 11
4.165532999999999
 21
4.546559999999999
 31
0.0
  0
LINE
  5
585
330
B
100
AcDbEntity
 67
     1
  8
1
  6
Continuous
 62
    18
100
AcDbLine
 10
2.211898
 20
4.437926999999999
 30
0.0
 11
2.211898
 21
4.458872
 31
0.0
  0
LINE
  5
586
330
B
100
AcDbEntity
 67
     1
  8
1
  6
Continuous
 62
    18
100
AcDbLine
 10
2.261897999999999
 20
6.357472
 30
0.0
 11
2.261897999999999
 21
6.35754
 31
0.0
  0
LINE
  5
587
330
B
100
AcDbEntity
 67
     1
  8
1
  6
Continuous
 62
    18
100
AcDbLine
 10
1.571579999999999
 20
4.734823
 30
0.0
 11
1.576602999999999
 21
4.733077999999999
 31
0.0
  0
LINE
  5
588
330
B
100
AcDbEntity
 67
     1
  8
1
  6
Continuous
 62
    18
100
AcDbLine
 10
2.403515
 20
7.524035999999999
 30
0.0
 11
2.426140999999999
 21
7.522061999999999
 31
0.0
  0
LINE
  5
589
330
B
100
AcDbEntity
 67
     1
  8
1
  6
Continuous
 62
    18
100
AcDbLine
 10
2.211898
 20
6.342916
 30
0.0
 11
2.261897999999999
 21
6.342916
 31
0.0
  0
LINE
  5
58A
330
B
100
AcDbEntity
 67
     1
  8
1
  6
Continuous
 62
    18
100
AcDbLine
 10
2.324397999999999
 20
4.508401
 30
0.0
 11
2.269897999999999
 21
4.508401
 31
0.0
  0
LINE
  5
58B
330
B
100
AcDbEntity
 67
     1
  8
1
  6
Continuous
 62
    18
100
AcDbLine
 10
2.490606999999999
 20
5.876821999999999
 30
0.0
 11
2.490545999999999
 21
5.876883
 31
0.0
  0
LINE
  5
58C
330
B
100
AcDbEntity
 67
     1
  8
1
  6
Continuous
 62
    18
100
AcDbLine
 10
4.673861
 20
4.950315999999999
 30
0.0
 11
4.664913999999999
 21
4.959262999999999
 31
0.0
  0
LINE
  5
58D
330
B
100
AcDbEntity
 67
     1
  8
1
  6
Continuous
 62
    18
100
AcDbLine
 10
1.67208
 20
6.310164
 30
0.0
 11
1.679897999999999
 21
6.310164
 31
0.0
  0
LINE
  5
58E
330
B
100
AcDbEntity
 67
     1
  8
1
  6
Continuous
 62
    18
100
AcDbLine
 10
1.651148
 20
7.032785
 30
0.0
 11
1.655511999999999
 21
6.942867999999998
 31
0.0
  0
LINE
  5
58F
330
B
100
AcDbEntity
 67
     1
  8
1
  6
Continuous
 62
    18
100
AcDbLine
 10
2.324397999999999
 20
6.702608
 30
0.0
 11
2.324397999999999
 21
6.363197
 31
0.0
  0
LINE
  5
590
330
B
100
AcDbEntity
 67
     1
  8
1
  6
Continuous
 62
    18
100
AcDbLine
 10
1.68142
 20
4.765293999999999
 30
0.0
 11
1.656419999999999
 21
4.770030999999999
 31
0.0
  0
LINE
  5
591
330
B
100
AcDbEntity
 67
     1
  8
1
  6
Continuous
 62
    18
100
AcDbLine
 10
1.581435
 20
6.838505999999999
 30
0.0
 11
1.567900999999999
 21
6.856205
 31
0.0
  0
LINE
  5
592
330
B
100
AcDbEntity
 67
     1
  8
1
  6
Continuous
 62
    18
100
AcDbLine
 10
1.532137999999999
 20
6.663469
 30
0.0
 11
1.5336
 21
6.659366
 31
0.0
  0
LINE
  5
593
330
B
100
AcDbEntity
 67
     1
  8
1
  6
Continuous
 62
    18
100
AcDbLine
 10
1.577345999999999
 20
6.757009
 30
0.0
 11
1.580814999999999
 21
6.753364
 31
0.0
  0
LINE
  5
594
330
B
100
AcDbEntity
 67
     1
  8
1
  6
Continuous
 62
    18
100
AcDbLine
 10
3.736826
 20
4.188890999999999
 30
0.0
 11
3.732437
 21
4.188890999999999
 31
0.0
  0
LINE
  5
595
330
B
100
AcDbEntity
 67
     1
  8
1
  6
Continuous
 62
    18
100
AcDbLine
 10
1.571490999999999
 20
4.545441
 30
0.0
 11
1.566783999999999
 21
4.534642999999999
 31
0.0
  0
LINE
  5
596
330
B
100
AcDbEntity
 67
     1
  8
1
  6
Continuous
 62
    18
100
AcDbLine
 10
2.366445999999999
 20
4.549882
 30
0.0
 11
2.368618
 21
4.549882
 31
0.0
  0
LINE
  5
597
330
B
100
AcDbEntity
 67
     1
  8
1
  6
Continuous
 62
    18
100
AcDbLine
 10
1.686354999999999
 20
4.714277
 30
0.0
 11
1.686409
 21
4.713855
 31
0.0
  0
LINE
  5
598
330
B
100
AcDbEntity
 67
     1
  8
1
  6
Continuous
 62
    18
100
AcDbLine
 10
1.70642
 20
6.357472
 30
0.0
 11
1.70642
 21
6.589471
 31
0.0
  0
LINE
  5
599
330
B
100
AcDbEntity
 67
     1
  8
1
  6
Continuous
 62
    18
100
AcDbLine
 10
2.338303999999999
 20
4.504423
 30
0.0
 11
2.344386999999999
 21
4.494726999999999
 31
0.0
  0
LINE
  5
59A
330
B
100
AcDbEntity
 67
     1
  8
1
  6
Continuous
 62
    18
100
AcDbLine
 10
1.684288999999999
 20
4.718417999999999
 30
0.0
 11
1.685166999999999
 21
4.717194999999999
 31
0.0
  0
LINE
  5
59B
330
B
100
AcDbEntity
 67
     1
  8
1
  6
Continuous
 62
    18
100
AcDbLine
 10
1.662199999999999
 20
6.341434999999999
 30
0.0
 11
1.669134
 21
6.341178
 31
0.0
  0
LINE
  5
59C
330
B
100
AcDbEntity
 67
     1
  8
1
  6
Continuous
 62
    18
100
AcDbLine
 10
1.648149
 20
6.726414
 30
0.0
 11
1.653947
 21
6.726213
 31
0.0
  0
LINE
  5
59D
330
B
100
AcDbEntity
 67
     1
  8
1
  6
Continuous
 62
    18
100
AcDbLine
 10
1.604897999999999
 20
6.730892999999999
 30
0.0
 11
1.604897999999999
 21
6.71675
 31
0.0
  0
LINE
  5
59E
330
B
100
AcDbEntity
 67
     1
  8
1
  6
Continuous
 62
    18
100
AcDbLine
 10
2.366291999999999
 20
6.400043
 30
0.0
 11
2.366445999999999
 21
6.400044
 31
0.0
  0
LINE
  5
59F
330
B
100
AcDbEntity
 67
     1
  8
1
  6
Continuous
 62
    18
100
AcDbLine
 10
3.834421999999999
 20
4.056283
 30
0.0
 11
3.828655999999999
 21
4.042364
 31
0.0
  0
LINE
  5
5A0
330
B
100
AcDbEntity
 67
     1
  8
1
  6
Continuous
 62
    18
100
AcDbLine
 10
1.614076
 20
4.385023999999999
 30
0.0
 11
1.614076
 21
4.385188999999999
 31
0.0
  0
LINE
  5
5A1
330
B
100
AcDbEntity
 67
     1
  8
1
  6
Continuous
 62
    18
100
AcDbLine
 10
1.5456
 20
4.831125
 30
0.0
 11
1.542220999999999
 21
4.827414
 31
0.0
  0
LINE
  5
5A2
330
B
100
AcDbEntity
 67
     1
  8
1
  6
Continuous
 62
    18
100
AcDbLine
 10
2.324397999999999
 20
6.726203999999999
 30
0.0
 11
2.324397999999999
 21
6.71383
 31
0.0
  0
LINE
  5
5A3
330
B
100
AcDbEntity
 67
     1
  8
1
  6
Continuous
 62
    18
100
AcDbLine
 10
1.656419999999999
 20
4.756673999999999
 30
0.0
 11
1.656419999999999
 21
4.770030999999999
 31
0.0
  0
LINE
  5
5A4
330
B
100
AcDbEntity
 67
     1
  8
1
  6
Continuous
 62
    18
100
AcDbLine
 10
1.696370999999999
 20
4.718782
 30
0.0
 11
1.689086
 21
4.718759999999999
 31
0.0
  0
LINE
  5
5A5
330
B
100
AcDbEntity
 67
     1
  8
1
  6
Continuous
 62
    18
100
AcDbLine
 10
2.463295
 20
6.300112
 30
0.0
 11
2.463197
 21
6.283155
 31
0.0
  0
LINE
  5
5A6
330
B
100
AcDbEntity
 67
     1
  8
1
  6
Continuous
 62
    18
100
AcDbLine
 10
1.539651
 20
5.876883
 30
0.0
 11
1.53959
 21
5.876821999999999
 31
0.0
  0
LINE
  5
5A7
330
B
100
AcDbEntity
 67
     1
  8
1
  6
Continuous
 62
    18
100
AcDbLine
 10
2.324397999999999
 20
4.508401
 30
0.0
 11
2.269897999999999
 21
4.508401
 31
0.0
  0
LINE
  5
5A8
330
B
100
AcDbEntity
 67
     1
  8
1
  6
Continuous
 62
    18
100
AcDbLine
 10
1.5336
 20
6.659366
 30
0.0
 11
1.535444
 21
6.655371
 31
0.0
  0
LINE
  5
5A9
330
B
100
AcDbEntity
 67
     1
  8
1
  6
Continuous
 62
    18
100
AcDbLine
 10
1.562114
 20
6.629297999999999
 30
0.0
 11
1.566724999999999
 21
6.627008
 31
0.0
  0
LINE
  5
5AA
330
B
100
AcDbEntity
 67
     1
  8
1
  6
Continuous
 62
    18
100
AcDbLine
 10
2.490545999999999
 20
7.830274
 30
0.0
 11
2.490545999999999
 21
7.840694
 31
0.0
  0
LINE
  5
5AB
330
B
100
AcDbEntity
 67
     1
  8
1
  6
Continuous
 62
    18
100
AcDbLine
 10
1.692277999999999
 20
6.593613
 30
0.0
 11
1.70642
 21
6.589471
 31
0.0
  0
LINE
  5
5AC
330
B
100
AcDbEntity
 67
     1
  8
1
  6
Continuous
 62
    18
100
AcDbLine
 10
1.68642
 20
4.639273999999999
 30
0.0
 11
1.689086
 21
4.648212
 31
0.0
  0
LINE
  5
5AD
330
B
100
AcDbEntity
 67
     1
  8
1
  6
Continuous
 62
    18
100
AcDbLine
 10
2.356737999999999
 20
4.447401999999999
 30
0.0
 11
2.356308999999999
 21
4.434271999999999
 31
0.0
  0
LINE
  5
5AE
330
B
100
AcDbEntity
 67
     1
  8
1
  6
Continuous
 62
    18
100
AcDbLine
 10
2.375306
 20
6.942867999999998
 30
0.0
 11
2.379669999999999
 21
7.032785
 31
0.0
  0
LINE
  5
5AF
330
B
100
AcDbEntity
 67
     1
  8
1
  6
Continuous
 62
    18
100
AcDbLine
 10
1.671942999999999
 20
4.494203999999999
 30
0.0
 11
1.672001999999999
 21
4.509265
 31
0.0
  0
LINE
  5
5B0
330
B
100
AcDbEntity
 67
     1
  8
1
  6
Continuous
 62
    18
100
AcDbLine
 10
3.860786
 20
3.91688
 30
0.0
 11
3.868937
 21
3.913315
 31
0.0
  0
LINE
  5
5B1
330
B
100
AcDbEntity
 67
     1
  8
1
  6
Continuous
 62
    18
100
AcDbLine
 10
5.690268999999999
 20
4.368802999999999
 30
0.0
 11
5.694658
 21
4.368802999999999
 31
0.0
  0
LINE
  5
5B2
330
B
100
AcDbEntity
 67
     1
  8
1
  6
Continuous
 62
    18
100
AcDbLine
 10
1.699722
 20
4.752353
 30
0.0
 11
1.70642
 21
4.734675
 31
0.0
  0
LINE
  5
5B3
330
B
100
AcDbEntity
 67
     1
  8
1
  6
Continuous
 62
    18
100
AcDbLine
 10
1.666446999999999
 20
6.617952999999999
 30
0.0
 11
1.669581999999999
 21
6.617185
 31
0.0
  0
LINE
  5
5B4
330
B
100
AcDbEntity
 67
     1
  8
1
  6
Continuous
 62
    18
100
AcDbLine
 10
2.366291999999999
 20
6.729133
 30
0.0
 11
2.359220999999999
 21
6.726203999999999
 31
0.0
  0
LINE
  5
5B5
330
B
100
AcDbEntity
 67
     1
  8
1
  6
Continuous
 62
    18
100
AcDbLine
 10
1.630854
 20
4.740508
 30
0.0
 11
1.624991
 21
4.739198
 31
0.0
  0
LINE
  5
5B6
330
B
100
AcDbEntity
 67
     1
  8
1
  6
Continuous
 62
    18
100
AcDbLine
 10
1.567523999999999
 20
4.523673999999999
 30
0.0
 11
1.567237999999999
 21
4.531852999999999
 31
0.0
  0
LINE
  5
5B7
330
B
100
AcDbEntity
 67
     1
  8
1
  6
Continuous
 62
    18
100
AcDbLine
 10
1.696370999999999
 20
6.517163
 30
0.0
 11
1.696370999999999
 21
6.577408
 31
0.0
  0
LINE
  5
5B8
330
B
100
AcDbEntity
 67
     1
  8
1
  6
Continuous
 62
    18
100
AcDbLine
 10
1.736420999999999
 20
4.437926999999999
 30
0.0
 11
1.736420999999999
 21
4.420012999999999
 31
0.0
  0
LINE
  5
5B9
330
B
100
AcDbEntity
 67
     1
  8
1
  6
Continuous
 62
    18
100
AcDbLine
 10
1.583237
 20
6.272491999999999
 30
0.0
 11
1.572383
 21
6.275592999999999
 31
0.0
  0
LINE
  5
5BA
330
B
100
AcDbEntity
 67
     1
  8
1
  6
Continuous
 62
    18
100
AcDbLine
 10
2.269897999999999
 20
4.494726999999999
 30
0.0
 11
2.269897999999999
 21
4.508401
 31
0.0
  0
LINE
  5
5BB
330
B
100
AcDbEntity
 67
     1
  8
1
  6
Continuous
 62
    18
100
AcDbLine
 10
1.905774
 20
6.216774
 30
0.0
 11
1.906043999999999
 21
6.204157
 31
0.0
  0
LINE
  5
5BC
330
B
100
AcDbEntity
 67
     1
  8
1
  6
Continuous
 62
    18
100
AcDbLine
 10
1.582854
 20
4.546559999999999
 30
0.0
 11
1.583138999999999
 21
4.536819
 31
0.0
  0
LINE
  5
5BD
330
B
100
AcDbEntity
 67
     1
  8
1
  6
Continuous
 62
    18
100
AcDbLine
 10
1.686154
 20
6.605278
 30
0.0
 11
1.686354999999999
 21
6.604427999999999
 31
0.0
  0
LINE
  5
5BE
330
B
100
AcDbEntity
 67
     1
  8
1
  6
Continuous
 62
    18
100
AcDbLine
 10
1.672724999999999
 20
4.458904
 30
0.0
 11
1.679897999999999
 21
4.458904
 31
0.0
  0
LINE
  5
5BF
330
B
100
AcDbEntity
 67
     1
  8
1
  6
Continuous
 62
    18
100
AcDbLine
 10
1.53675
 20
4.385188999999999
 30
0.0
 11
1.536691
 21
4.385188999999999
 31
0.0
  0
LINE
  5
5C0
330
B
100
AcDbEntity
 67
     1
  8
1
  6
Continuous
 62
    18
100
AcDbLine
 10
2.426140999999999
 20
7.522061999999999
 30
0.0
 11
2.447405999999999
 21
7.516258
 31
0.0
  0
LINE
  5
5C1
330
B
100
AcDbEntity
 67
     1
  8
1
  6
Continuous
 62
    18
100
AcDbLine
 10
1.626304999999999
 20
4.875591
 30
0.0
 11
1.655511999999999
 21
4.878969999999999
 31
0.0
  0
LINE
  5
5C2
330
B
100
AcDbEntity
 67
     1
  8
1
  6
Continuous
 62
    18
100
AcDbLine
 10
1.52466
 20
5.891873999999999
 30
0.0
 11
1.52466
 21
7.830274
 31
0.0
  0
LINE
  5
5C3
330
B
100
AcDbEntity
 67
     1
  8
1
  6
Continuous
 62
    18
100
AcDbLine
 10
1.905300999999999
 20
4.300877999999999
 30
0.0
 11
1.905924
 21
4.287628999999999
 31
0.0
  0
LINE
  5
5C4
330
B
100
AcDbEntity
 67
     1
  8
1
  6
Continuous
 62
    18
100
AcDbLine
 10
1.539651
 20
7.840694
 30
0.0
 11
1.539651
 21
7.845264999999999
 31
0.0
  0
LINE
  5
5C5
330
B
100
AcDbEntity
 67
     1
  8
1
  6
Continuous
 62
    18
100
AcDbLine
 10
1.549001
 20
7.478503999999999
 30
0.0
 11
1.564785999999999
 21
7.506972999999999
 31
0.0
  0
LINE
  5
5C6
330
B
100
AcDbEntity
 67
     1
  8
1
  6
Continuous
 62
    18
100
AcDbLine
 10
1.662199999999999
 20
4.549882
 30
0.0
 11
1.664372
 21
4.549882
 31
0.0
  0
LINE
  5
5C7
330
B
100
AcDbEntity
 67
     1
  8
1
  6
Continuous
 62
    18
100
AcDbLine
 10
2.344397999999999
 20
6.377339
 30
0.0
 11
2.33854
 21
6.367339
 31
0.0
  0
LINE
  5
5C8
330
B
100
AcDbEntity
 67
     1
  8
1
  6
Continuous
 62
    18
100
AcDbLine
 10
2.124381999999999
 20
4.385023
 30
0.0
 11
2.125043999999999
 21
4.390840999999999
 31
0.0
  0
LINE
  5
5C9
330
B
100
AcDbEntity
 67
     1
  8
1
  6
Continuous
 62
    18
100
AcDbLine
 10
2.359974999999999
 20
6.149758
 30
0.0
 11
2.359974999999999
 21
6.279193
 31
0.0
  0
LINE
  5
5CA
330
B
100
AcDbEntity
 67
     1
  8
1
  6
Continuous
 62
    18
100
AcDbLine
 10
1.601305999999999
 20
6.618646
 30
0.0
 11
1.626597999999999
 21
6.607892999999998
 31
0.0
  0
LINE
  5
5CB
330
B
100
AcDbEntity
 67
     1
  8
1
  6
Continuous
 62
    18
100
AcDbLine
 10
2.211898
 20
6.350792
 30
0.0
 11
2.211898
 21
6.357472
 31
0.0
  0
LINE
  5
5CC
330
B
100
AcDbEntity
 67
     1
  8
1
  6
Continuous
 62
    18
100
AcDbLine
 10
1.53959
 20
4.368802999999999
 30
0.0
 11
2.490606999999999
 21
4.368802999999999
 31
0.0
  0
LINE
  5
5CD
330
B
100
AcDbEntity
 67
     1
  8
1
  6
Continuous
 62
    18
100
AcDbLine
 10
2.324397999999999
 20
6.702608
 30
0.0
 11
1.604897999999999
 21
6.702608
 31
0.0
  0
LINE
  5
5CE
330
B
100
AcDbEntity
 67
     1
  8
1
  6
Continuous
 62
    18
100
AcDbLine
 10
2.324397999999999
 20
6.363197
 30
0.0
 11
2.33854
 21
6.367339
 31
0.0
  0
LINE
  5
5CF
330
B
100
AcDbEntity
 67
     1
  8
1
  6
Continuous
 62
    18
100
AcDbLine
 10
1.672186999999999
 20
6.341065
 30
0.0
 11
1.671458
 21
6.318419
 31
0.0
  0
LINE
  5
5D0
330
B
100
AcDbEntity
 67
     1
  8
1
  6
Continuous
 62
    18
100
AcDbLine
 10
1.667740999999999
 20
6.274434999999999
 30
0.0
 11
1.670843
 21
6.279193
 31
0.0
  0
LINE
  5
5D1
330
B
100
AcDbEntity
 67
     1
  8
1
  6
Continuous
 62
    18
100
AcDbLine
 10
2.447582
 20
6.272491999999999
 30
0.0
 11
2.447678999999999
 21
6.292685999999999
 31
0.0
  0
LINE
  5
5D2
330
B
100
AcDbEntity
 67
     1
  8
1
  6
Continuous
 62
    18
100
AcDbLine
 10
1.655511999999999
 20
6.812503999999999
 30
0.0
 11
1.627391999999999
 21
6.815582
 31
0.0
  0
LINE
  5
5D3
330
B
100
AcDbEntity
 67
     1
  8
1
  6
Continuous
 62
    18
100
AcDbLine
 10
2.463295
 20
4.523673999999999
 30
0.0
 11
2.463197
 21
4.510661999999999
 31
0.0
  0
LINE
  5
5D4
330
B
100
AcDbEntity
 67
     1
  8
1
  6
Continuous
 62
    18
100
AcDbLine
 10
2.111816999999999
 20
4.033174999999999
 30
0.0
 11
2.111435999999999
 21
4.024891
 31
0.0
  0
LINE
  5
5D5
330
B
100
AcDbEntity
 67
     1
  8
1
  6
Continuous
 62
    18
100
AcDbLine
 10
1.537639999999999
 20
4.761373999999999
 30
0.0
 11
1.540192999999999
 21
4.757642999999999
 31
0.0
  0
LINE
  5
5D6
330
B
100
AcDbEntity
 67
     1
  8
1
  6
Continuous
 62
    18
100
AcDbLine
 10
1.571162999999999
 20
4.703861999999999
 30
0.0
 11
1.571580999999999
 21
4.704394
 31
0.0
  0
LINE
  5
5D7
330
B
100
AcDbEntity
 67
     1
  8
1
  6
Continuous
 62
    18
100
AcDbLine
 10
1.642376999999999
 20
6.726874
 30
0.0
 11
1.648149
 21
6.726414
 31
0.0
  0
LINE
  5
5D8
330
B
100
AcDbEntity
 67
     1
  8
1
  6
Continuous
 62
    18
100
AcDbLine
 10
1.604897999999999
 20
6.71675
 30
0.0
 11
1.604897999999999
 21
6.702608
 31
0.0
  0
LINE
  5
5D9
330
B
100
AcDbEntity
 67
     1
  8
1
  6
Continuous
 62
    18
100
AcDbLine
 10
1.918965
 20
4.016545999999999
 30
0.0
 11
1.919904
 21
3.91688
 31
0.0
  0
LINE
  5
5DA
330
B
100
AcDbEntity
 67
     1
  8
1
  6
Continuous
 62
    18
100
AcDbLine
 10
1.655511999999999
 20
4.962341
 30
0.0
 11
1.655511999999999
 21
4.982501
 31
0.0
  0
LINE
  5
5DB
330
B
100
AcDbEntity
 67
     1
  8
1
  6
Continuous
 62
    18
100
AcDbLine
 10
1.729897999999999
 20
4.491932
 30
0.0
 11
1.729897999999999
 21
4.478298
 31
0.0
  0
LINE
  5
5DC
330
B
100
AcDbEntity
 67
     1
  8
1
  6
Continuous
 62
    18
100
AcDbLine
 10
1.576196999999999
 20
6.733927
 30
0.0
 11
1.551865
 21
6.722430999999999
 31
0.0
  0
LINE
  5
5DD
330
B
100
AcDbEntity
 67
     1
  8
1
  6
Continuous
 62
    18
100
AcDbLine
 10
1.598009
 20
4.729060999999999
 30
0.0
 11
1.599156999999999
 21
4.728985999999999
 31
0.0
  0
LINE
  5
5DE
330
B
100
AcDbEntity
 67
     1
  8
1
  6
Continuous
 62
    18
100
AcDbLine
 10
1.70642
 20
4.496823
 30
0.0
 11
1.70642
 21
4.498421999999999
 31
0.0
  0
LINE
  5
5DF
330
B
100
AcDbEntity
 67
     1
  8
1
  6
Continuous
 62
    18
100
AcDbLine
 10
2.463686
 20
6.896039
 30
0.0
 11
2.450479
 21
6.914369
 31
0.0
  0
LINE
  5
5E0
330
B
100
AcDbEntity
 67
     1
  8
1
  6
Continuous
 62
    18
100
AcDbLine
 10
2.179879
 20
4.195541
 30
0.0
 11
2.120927
 21
4.195541
 31
0.0
  0
LINE
  5
5E1
330
B
100
AcDbEntity
 67
     1
  8
1
  6
Continuous
 62
    18
100
AcDbLine
 10
1.919807
 20
3.913311
 30
0.0
 11
2.11039
 21
3.913311
 31
0.0
  0
LINE
  5
5E2
330
B
100
AcDbEntity
 67
     1
  8
1
  6
Continuous
 62
    18
100
AcDbLine
 10
2.501208999999999
 20
4.368802999999999
 30
0.0
 11
2.505597999999999
 21
4.368802999999999
 31
0.0
  0
LINE
  5
5E3
330
B
100
AcDbEntity
 67
     1
  8
1
  6
Continuous
 62
    18
100
AcDbLine
 10
1.577116
 20
6.739721
 30
0.0
 11
1.571973999999999
 21
6.737966
 31
0.0
  0
LINE
  5
5E4
330
B
100
AcDbEntity
 67
     1
  8
1
  6
Continuous
 62
    18
100
AcDbLine
 10
1.588797999999999
 20
4.722553999999999
 30
0.0
 11
1.584600999999999
 21
4.719203
 31
0.0
  0
LINE
  5
5E5
330
B
100
AcDbEntity
 67
     1
  8
1
  6
Continuous
 62
    18
100
AcDbLine
 10
1.604897999999999
 20
4.853671
 30
0.0
 11
1.604897999999999
 21
4.852147
 31
0.0
  0
LINE
  5
5E6
330
B
100
AcDbEntity
 67
     1
  8
1
  6
Continuous
 62
    18
100
AcDbLine
 10
1.678892999999999
 20
4.468626
 30
0.0
 11
1.678892999999999
 21
4.47393
 31
0.0
  0
LINE
  5
5E7
330
B
100
AcDbEntity
 67
     1
  8
1
  6
Continuous
 62
    18
100
AcDbLine
 10
1.655511999999999
 20
6.597117999999999
 30
0.0
 11
1.655511999999999
 21
6.604152
 31
0.0
  0
LINE
  5
5E8
330
B
100
AcDbEntity
 67
     1
  8
1
  6
Continuous
 62
    18
100
AcDbLine
 10
2.273372
 20
4.258541
 30
0.0
 11
2.272272
 21
4.195541
 31
0.0
  0
LINE
  5
5E9
330
B
100
AcDbEntity
 67
     1
  8
1
  6
Continuous
 62
    18
100
AcDbLine
 10
1.736420999999999
 20
4.496833
 30
0.0
 11
1.70642
 21
4.496833
 31
0.0
  0
LINE
  5
5EA
330
B
100
AcDbEntity
 67
     1
  8
1
  6
Continuous
 62
    18
100
AcDbLine
 10
1.682472999999999
 20
6.199683999999999
 30
0.0
 11
1.676631
 21
6.199683999999999
 31
0.0
  0
LINE
  5
5EB
330
B
100
AcDbEntity
 67
     1
  8
1
  6
Continuous
 62
    18
100
AcDbLine
 10
1.848119999999999
 20
6.194568
 30
0.0
 11
1.848335999999999
 21
6.199683999999999
 31
0.0
  0
LINE
  5
5EC
330
B
100
AcDbEntity
 67
     1
  8
1
  6
Continuous
 62
    18
100
AcDbLine
 10
2.111231999999999
 20
4.016545999999999
 30
0.0
 11
1.918965
 21
4.016545999999999
 31
0.0
  0
LINE
  5
5ED
330
B
100
AcDbEntity
 67
     1
  8
1
  6
Continuous
 62
    18
100
AcDbLine
 10
1.562216
 20
4.843395
 30
0.0
 11
1.557654
 21
4.840741
 31
0.0
  0
LINE
  5
5EE
330
B
100
AcDbEntity
 67
     1
  8
1
  6
Continuous
 62
    18
100
AcDbLine
 10
2.357350999999999
 20
4.466175999999999
 30
0.0
 11
2.356737999999999
 21
4.447401999999999
 31
0.0
  0
LINE
  5
5EF
330
B
100
AcDbEntity
 67
     1
  8
1
  6
Continuous
 62
    18
100
AcDbLine
 10
2.369347
 20
4.546559999999999
 30
0.0
 11
2.369804999999999
 21
4.536819
 31
0.0
  0
LINE
  5
5F0
330
B
100
AcDbEntity
 67
     1
  8
1
  6
Continuous
 62
    18
100
AcDbLine
 10
2.359408999999999
 20
4.872161
 30
0.0
 11
2.356306
 21
4.865207999999999
 31
0.0
  0
LINE
  5
5F1
330
B
100
AcDbEntity
 67
     1
  8
1
  6
Continuous
 62
    18
100
AcDbLine
 10
1.58776
 20
4.852148
 30
0.0
 11
1.582378
 21
4.851013
 31
0.0
  0
LINE
  5
5F2
330
B
100
AcDbEntity
 67
     1
  8
1
  6
Continuous
 62
    18
100
AcDbLine
 10
2.375306
 20
4.962341
 30
0.0
 11
2.375306
 21
4.982501
 31
0.0
  0
LINE
  5
5F3
330
B
100
AcDbEntity
 67
     1
  8
1
  6
Continuous
 62
    18
100
AcDbLine
 10
5.293948
 20
4.385188999999999
 30
0.0
 11
5.25724
 21
4.385188999999999
 31
0.0
  0
LINE
  5
5F4
330
B
100
AcDbEntity
 67
     1
  8
1
  6
Continuous
 62
    18
100
AcDbLine
 10
1.699897999999999
 20
6.320024
 30
0.0
 11
1.699897999999999
 21
6.303169
 31
0.0
  0
LINE
  5
5F5
330
B
100
AcDbEntity
 67
     1
  8
1
  6
Continuous
 62
    18
100
AcDbLine
 10
1.674200999999999
 20
6.258376
 30
0.0
 11
1.673879
 21
6.249683999999999
 31
0.0
  0
LINE
  5
5F6
330
B
100
AcDbEntity
 67
     1
  8
1
  6
Continuous
 62
    18
100
AcDbLine
 10
1.736420999999999
 20
4.502676
 30
0.0
 11
1.70642
 21
4.502676
 31
0.0
  0
LINE
  5
5F7
330
B
100
AcDbEntity
 67
     1
  8
1
  6
Continuous
 62
    18
100
AcDbLine
 10
1.601445999999999
 20
6.61903
 30
0.0
 11
1.604897999999999
 21
6.618967999999999
 31
0.0
  0
LINE
  5
5F8
330
B
100
AcDbEntity
 67
     1
  8
1
  6
Continuous
 62
    18
100
AcDbLine
 10
2.273372
 20
6.199683999999999
 30
0.0
 11
2.180115
 21
6.199683999999999
 31
0.0
  0
LINE
  5
5F9
330
B
100
AcDbEntity
 67
     1
  8
1
  6
Continuous
 62
    18
100
AcDbLine
 10
1.756877999999999
 20
4.195541
 30
0.0
 11
1.846536
 21
4.195541
 31
0.0
  0
LINE
  5
5FA
330
B
100
AcDbEntity
 67
     1
  8
1
  6
Continuous
 62
    18
100
AcDbLine
 10
1.729897999999999
 20
4.420046
 30
0.0
 11
1.729897999999999
 21
4.437962999999999
 31
0.0
  0
LINE
  5
5FB
330
B
100
AcDbEntity
 67
     1
  8
1
  6
Continuous
 62
    18
100
AcDbLine
 10
5.327836
 20
4.385188999999999
 30
0.0
 11
5.293948
 21
4.385188999999999
 31
0.0
  0
LINE
  5
5FC
330
B
100
AcDbEntity
 67
     1
  8
1
  6
Continuous
 62
    18
100
AcDbLine
 10
1.70642
 20
6.342916
 30
0.0
 11
1.70642
 21
6.320024
 31
0.0
  0
LINE
  5
5FD
330
B
100
AcDbEntity
 67
     1
  8
1
  6
Continuous
 62
    18
100
AcDbLine
 10
1.530998999999999
 20
4.777523999999999
 30
0.0
 11
1.532135
 21
4.773316999999999
 31
0.0
  0
LINE
  5
5FE
330
B
100
AcDbEntity
 67
     1
  8
1
  6
Continuous
 62
    18
100
AcDbLine
 10
1.529056999999999
 20
7.840867999999999
 30
0.0
 11
1.52466
 21
7.830274
 31
0.0
  0
LINE
  5
5FF
330
B
100
AcDbEntity
 67
     1
  8
1
  6
Continuous
 62
    18
100
AcDbLine
 10
2.261897999999999
 20
4.478601
 30
0.0
 11
2.261897999999999
 21
4.492016999999999
 31
0.0
  0
LINE
  5
600
330
B
100
AcDbEntity
 67
     1
  8
1
  6
Continuous
 62
    18
100
AcDbLine
 10
1.677020999999999
 20
6.401832999999999
 30
0.0
 11
1.686420999999999
 21
6.401832999999999
 31
0.0
  0
LINE
  5
601
330
B
100
AcDbEntity
 67
     1
  8
1
  6
Continuous
 62
    18
100
AcDbLine
 10
1.536628
 20
6.709578999999999
 30
0.0
 11
1.534461
 21
6.705391
 31
0.0
  0
LINE
  5
602
330
B
100
AcDbEntity
 67
     1
  8
1
  6
Continuous
 62
    18
100
AcDbLine
 10
4.165532999999999
 20
4.546559999999999
 30
0.0
 11
4.190767
 21
4.549882
 31
0.0
  0
LINE
  5
603
330
B
100
AcDbEntity
 67
     1
  8
1
  6
Continuous
 62
    18
100
AcDbLine
 10
2.375306
 20
4.982501
 30
0.0
 11
2.375306
 21
4.989580999999999
 31
0.0
  0
LINE
  5
604
330
B
100
AcDbEntity
 67
     1
  8
1
  6
Continuous
 62
    18
100
AcDbLine
 10
1.576602999999999
 20
4.733077999999999
 30
0.0
 11
1.581796999999999
 21
4.731618
 31
0.0
  0
LINE
  5
605
330
B
100
AcDbEntity
 67
     1
  8
1
  6
Continuous
 62
    18
100
AcDbLine
 10
1.604897999999999
 20
4.734675
 30
0.0
 11
1.604897999999999
 21
4.733068
 31
0.0
  0
LINE
  5
606
330
B
100
AcDbEntity
 67
     1
  8
1
  6
Continuous
 62
    18
100
AcDbLine
 10
1.543054
 20
6.644250999999999
 30
0.0
 11
1.546273999999999
 21
6.640840999999999
 31
0.0
  0
LINE
  5
607
330
B
100
AcDbEntity
 67
     1
  8
1
  6
Continuous
 62
    18
100
AcDbLine
 10
2.181915
 20
4.195541
 30
0.0
 11
2.179879
 21
4.195541
 31
0.0
  0
LINE
  5
608
330
B
100
AcDbEntity
 67
     1
  8
1
  6
Continuous
 62
    18
100
AcDbLine
 10
2.366445999999999
 20
6.400044
 30
0.0
 11
2.368618
 21
6.341434999999999
 31
0.0
  0
LINE
  5
609
330
B
100
AcDbEntity
 67
     1
  8
1
  6
Continuous
 62
    18
100
AcDbLine
 10
2.211898
 20
6.296983999999999
 30
0.0
 11
2.211898
 21
6.303169
 31
0.0
  0
LINE
  5
60A
330
B
100
AcDbEntity
 67
     1
  8
1
  6
Continuous
 62
    18
100
AcDbLine
 10
2.324397999999999
 20
4.847812999999999
 30
0.0
 11
2.324397999999999
 21
4.508401
 31
0.0
  0
LINE
  5
60B
330
B
100
AcDbEntity
 67
     1
  8
1
  6
Continuous
 62
    18
100
AcDbLine
 10
2.261897999999999
 20
6.350792
 30
0.0
 11
2.261897999999999
 21
6.357472
 31
0.0
  0
LINE
  5
60C
330
B
100
AcDbEntity
 67
     1
  8
1
  6
Continuous
 62
    18
100
AcDbLine
 10
2.356308999999999
 20
4.434271999999999
 30
0.0
 11
2.356157
 21
4.42309
 31
0.0
  0
LINE
  5
60D
330
B
100
AcDbEntity
 67
     1
  8
1
  6
Continuous
 62
    18
100
AcDbLine
 10
4.664913999999999
 20
4.959262999999999
 30
0.0
 11
4.661836
 21
4.962341
 31
0.0
  0
LINE
  5
60E
330
B
100
AcDbEntity
 67
     1
  8
1
  6
Continuous
 62
    18
100
AcDbLine
 10
2.356157
 20
4.42309
 30
0.0
 11
2.261897999999999
 21
4.42309
 31
0.0
  0
LINE
  5
60F
330
B
100
AcDbEntity
 67
     1
  8
1
  6
Continuous
 62
    18
100
AcDbLine
 10
1.667740999999999
 20
6.14024
 30
0.0
 11
1.660857
 21
6.136356
 31
0.0
  0
LINE
  5
610
330
B
100
AcDbEntity
 67
     1
  8
1
  6
Continuous
 62
    18
100
AcDbLine
 10
1.604897999999999
 20
6.702608
 30
0.0
 11
2.324397999999999
 21
6.702608
 31
0.0
  0
LINE
  5
611
330
B
100
AcDbEntity
 67
     1
  8
1
  6
Continuous
 62
    18
100
AcDbLine
 10
1.70642
 20
4.502676
 30
0.0
 11
1.70642
 21
4.734675
 31
0.0
  0
LINE
  5
612
330
B
100
AcDbEntity
 67
     1
  8
1
  6
Continuous
 62
    18
100
AcDbLine
 10
1.679897999999999
 20
4.491706999999999
 30
0.0
 11
1.671965
 21
4.491706999999999
 31
0.0
  0
LINE
  5
613
330
B
100
AcDbEntity
 67
     1
  8
1
  6
Continuous
 62
    18
100
AcDbLine
 10
1.580814999999999
 20
6.753364
 30
0.0
 11
1.584618999999999
 21
6.749886
 31
0.0
  0
LINE
  5
614
330
B
100
AcDbEntity
 67
     1
  8
1
  6
Continuous
 62
    18
100
AcDbLine
 10
2.449383
 20
4.936339
 30
0.0
 11
2.428913999999999
 21
4.950315999999999
 31
0.0
  0
LINE
  5
615
330
B
100
AcDbEntity
 67
     1
  8
1
  6
Continuous
 62
    18
100
AcDbLine
 10
2.494127
 20
4.385188999999999
 30
0.0
 11
2.494068999999999
 21
4.385188999999999
 31
0.0
  0
LINE
  5
616
330
B
100
AcDbEntity
 67
     1
  8
1
  6
Continuous
 62
    18
100
AcDbLine
 10
3.996179
 20
4.188890999999999
 30
0.0
 11
4.002664
 21
4.195376
 31
0.0
  0
LINE
  5
617
330
B
100
AcDbEntity
 67
     1
  8
1
  6
Continuous
 62
    18
100
AcDbLine
 10
1.68642
 20
6.603613
 30
0.0
 11
1.692277999999999
 21
6.593613
 31
0.0
  0
LINE
  5
618
330
B
100
AcDbEntity
 67
     1
  8
1
  6
Continuous
 62
    18
100
AcDbLine
 10
2.179403999999999
 20
4.222744
 30
0.0
 11
2.180166999999999
 21
4.255541
 31
0.0
  0
LINE
  5
619
330
B
100
AcDbEntity
 67
     1
  8
1
  6
Continuous
 62
    18
100
AcDbLine
 10
2.264241
 20
6.361539999999999
 30
0.0
 11
2.261897999999999
 21
6.35754
 31
0.0
  0
LINE
  5
61A
330
B
100
AcDbEntity
 67
     1
  8
1
  6
Continuous
 62
    18
100
AcDbLine
 10
1.68312
 20
4.719714999999999
 30
0.0
 11
1.684288999999999
 21
4.718417999999999
 31
0.0
  0
LINE
  5
61B
330
B
100
AcDbEntity
 67
     1
  8
1
  6
Continuous
 62
    18
100
AcDbLine
 10
1.672443
 20
4.518036
 30
0.0
 11
1.673216999999999
 21
4.519547
 31
0.0
  0
LINE
  5
61C
330
B
100
AcDbEntity
 67
     1
  8
1
  6
Continuous
 62
    18
100
AcDbLine
 10
2.269897999999999
 20
6.363197
 30
0.0
 11
2.264241
 21
6.361539999999999
 31
0.0
  0
LINE
  5
61D
330
B
100
AcDbEntity
 67
     1
  8
1
  6
Continuous
 62
    18
100
AcDbLine
 10
1.529898
 20
6.684930999999999
 30
0.0
 11
1.535606999999999
 21
6.705225
 31
0.0
  0
LINE
  5
61E
330
B
100
AcDbEntity
 67
     1
  8
1
  6
Continuous
 62
    18
100
AcDbLine
 10
2.344397999999999
 20
4.494730999999999
 30
0.0
 11
2.344397999999999
 21
4.833670999999999
 31
0.0
  0
LINE
  5
61F
330
B
100
AcDbEntity
 67
     1
  8
1
  6
Continuous
 62
    18
100
AcDbLine
 10
1.672398
 20
4.465975
 30
0.0
 11
1.677700999999999
 21
4.467527999999999
 31
0.0
  0
LINE
  5
620
330
B
100
AcDbEntity
 67
     1
  8
1
  6
Continuous
 62
    18
100
AcDbLine
 10
1.736424
 20
6.298738
 30
0.0
 11
2.211894
 21
6.298738
 31
0.0
  0
LINE
  5
621
330
B
100
AcDbEntity
 67
     1
  8
1
  6
Continuous
 62
    18
100
AcDbLine
 10
3.828655999999999
 20
4.042364
 30
0.0
 11
3.814737
 21
4.036598999999999
 31
0.0
  0
LINE
  5
622
330
B
100
AcDbEntity
 67
     1
  8
1
  6
Continuous
 62
    18
100
AcDbLine
 10
2.369960999999999
 20
4.385188999999999
 30
0.0
 11
2.363077999999999
 21
4.385188999999999
 31
0.0
  0
LINE
  5
623
330
B
100
AcDbEntity
 67
     1
  8
1
  6
Continuous
 62
    18
100
AcDbLine
 10
1.542220999999999
 20
4.827414
 30
0.0
 11
1.539239
 21
4.823526999999999
 31
0.0
  0
LINE
  5
624
330
B
100
AcDbEntity
 67
     1
  8
1
  6
Continuous
 62
    18
100
AcDbLine
 10
1.530034999999999
 20
6.678174
 30
0.0
 11
1.529962999999999
 21
6.677252
 31
0.0
  0
LINE
  5
625
330
B
100
AcDbEntity
 67
     1
  8
1
  6
Continuous
 62
    18
100
AcDbLine
 10
2.324397999999999
 20
6.71383
 30
0.0
 11
2.324397999999999
 21
6.702608
 31
0.0
  0
LINE
  5
626
330
B
100
AcDbEntity
 67
     1
  8
1
  6
Continuous
 62
    18
100
AcDbLine
 10
1.672997
 20
4.738214
 30
0.0
 11
1.682852999999999
 21
4.730566999999999
 31
0.0
  0
LINE
  5
627
330
B
100
AcDbEntity
 67
     1
  8
1
  6
Continuous
 62
    18
100
AcDbLine
 10
5.159781999999999
 20
4.608508999999999
 30
0.0
 11
5.373368
 21
4.402251999999999
 31
0.0
  0
LINE
  5
628
330
B
100
AcDbEntity
 67
     1
  8
1
  6
Continuous
 62
    18
100
AcDbLine
 10
2.211898
 20
6.296983999999999
 30
0.0
 11
2.261897999999999
 21
6.296983999999999
 31
0.0
  0
LINE
  5
629
330
B
100
AcDbEntity
 67
     1
  8
1
  6
Continuous
 62
    18
100
AcDbLine
 10
1.729897999999999
 20
4.496833
 30
0.0
 11
1.729897999999999
 21
4.498486999999999
 31
0.0
  0
LINE
  5
62A
330
B
100
AcDbEntity
 67
     1
  8
1
  6
Continuous
 62
    18
100
AcDbLine
 10
5.551874999999999
 20
3.913315
 30
0.0
 11
5.560026
 21
3.91688
 31
0.0
  0
LINE
  5
62B
330
B
100
AcDbEntity
 67
     1
  8
1
  6
Continuous
 62
    18
100
AcDbLine
 10
2.324397999999999
 20
4.508401
 30
0.0
 11
2.324397999999999
 21
4.847812999999999
 31
0.0
  0
LINE
  5
62C
330
B
100
AcDbEntity
 67
     1
  8
1
  6
Continuous
 62
    18
100
AcDbLine
 10
1.651148
 20
7.032785
 30
0.0
 11
2.379669999999999
 21
7.032785
 31
0.0
  0
LINE
  5
62D
330
B
100
AcDbEntity
 67
     1
  8
1
  6
Continuous
 62
    18
100
AcDbLine
 10
1.679897999999999
 20
6.392827999999999
 30
0.0
 11
1.679897999999999
 21
6.357472
 31
0.0
  0
LINE
  5
62E
330
B
100
AcDbEntity
 67
     1
  8
1
  6
Continuous
 62
    18
100
AcDbLine
 10
1.566724999999999
 20
6.627008
 30
0.0
 11
1.571579999999999
 21
6.624974
 31
0.0
  0
LINE
  5
62F
330
B
100
AcDbEntity
 67
     1
  8
1
  6
Continuous
 62
    18
100
AcDbLine
 10
1.689086
 20
4.648212
 30
0.0
 11
1.696370999999999
 21
4.658536999999999
 31
0.0
  0
LINE
  5
630
330
B
100
AcDbEntity
 67
     1
  8
1
  6
Continuous
 62
    18
100
AcDbLine
 10
1.736420999999999
 20
6.342916
 30
0.0
 11
1.736420999999999
 21
6.350792
 31
0.0
  0
LINE
  5
631
330
B
100
AcDbEntity
 67
     1
  8
1
  6
Continuous
 62
    18
100
AcDbLine
 10
1.729897999999999
 20
4.502676
 30
0.0
 11
1.729897999999999
 21
4.498486999999999
 31
0.0
  0
LINE
  5
632
330
B
100
AcDbEntity
 67
     1
  8
1
  6
Continuous
 62
    18
100
AcDbLine
 10
1.70642
 20
4.420012999999999
 30
0.0
 11
1.70642
 21
4.437926999999999
 31
0.0
  0
LINE
  5
633
330
B
100
AcDbEntity
 67
     1
  8
1
  6
Continuous
 62
    18
100
AcDbLine
 10
1.672001999999999
 20
4.509265
 30
0.0
 11
1.672443
 21
4.518036
 31
0.0
  0
LINE
  5
634
330
B
100
AcDbEntity
 67
     1
  8
1
  6
Continuous
 62
    18
100
AcDbLine
 10
1.70642
 20
4.734675
 30
0.0
 11
1.70642
 21
4.502676
 31
0.0
  0
LINE
  5
635
330
B
100
AcDbEntity
 67
     1
  8
1
  6
Continuous
 62
    18
100
AcDbLine
 10
1.669581999999999
 20
6.617185
 30
0.0
 11
1.672533999999999
 21
6.616228999999999
 31
0.0
  0
LINE
  5
636
330
B
100
AcDbEntity
 67
     1
  8
1
  6
Continuous
 62
    18
100
AcDbLine
 10
1.672398
 20
4.476581999999999
 30
0.0
 11
1.672398
 21
4.469674999999999
 31
0.0
  0
LINE
  5
637
330
B
100
AcDbEntity
 67
     1
  8
1
  6
Continuous
 62
    18
100
AcDbLine
 10
2.344397999999999
 20
6.723822
 30
0.0
 11
2.344397999999999
 21
6.71675
 31
0.0
  0
LINE
  5
638
330
B
100
AcDbEntity
 67
     1
  8
1
  6
Continuous
 62
    18
100
AcDbLine
 10
1.562569
 20
6.875969999999999
 30
0.0
 11
1.53675
 21
7.407907999999999
 31
0.0
  0
LINE
  5
639
330
B
100
AcDbEntity
 67
     1
  8
1
  6
Continuous
 62
    18
100
AcDbLine
 10
1.567237999999999
 20
4.531852999999999
 30
0.0
 11
1.566783999999999
 21
4.534642999999999
 31
0.0
  0
LINE
  5
63A
330
B
100
AcDbEntity
 67
     1
  8
1
  6
Continuous
 62
    18
100
AcDbLine
 10
1.70642
 20
4.420012999999999
 30
0.0
 11
1.706264
 21
4.420221999999999
 31
0.0
  0
LINE
  5
63B
330
B
100
AcDbEntity
 67
     1
  8
1
  6
Continuous
 62
    18
100
AcDbLine
 10
1.736420999999999
 20
6.342916
 30
0.0
 11
1.70642
 21
6.342916
 31
0.0
  0
LINE
  5
63C
330
B
100
AcDbEntity
 67
     1
  8
1
  6
Continuous
 62
    18
100
AcDbLine
 10
1.604897999999999
 20
4.734675
 30
0.0
 11
1.604897999999999
 21
4.741746
 31
0.0
  0
LINE
  5
63D
330
B
100
AcDbEntity
 67
     1
  8
1
  6
Continuous
 62
    18
100
AcDbLine
 10
1.67208
 20
4.483652999999999
 30
0.0
 11
1.679897
 21
4.483652999999999
 31
0.0
  0
LINE
  5
63E
330
B
100
AcDbEntity
 67
     1
  8
1
  6
Continuous
 62
    18
100
AcDbLine
 10
1.692277999999999
 20
6.593613
 30
0.0
 11
1.70642
 21
6.589471
 31
0.0
  0
LINE
  5
63F
330
B
100
AcDbEntity
 67
     1
  8
1
  6
Continuous
 62
    18
100
AcDbLine
 10
2.346760999999999
 20
6.199683999999999
 30
0.0
 11
2.272272
 21
6.199683999999999
 31
0.0
  0
LINE
  5
640
330
B
100
AcDbEntity
 67
     1
  8
1
  6
Continuous
 62
    18
100
AcDbLine
 10
1.686354999999999
 20
6.604427999999999
 30
0.0
 11
1.686409
 21
6.604006
 31
0.0
  0
LINE
  5
641
330
B
100
AcDbEntity
 67
     1
  8
1
  6
Continuous
 62
    18
100
AcDbLine
 10
1.576237
 20
4.745770999999999
 30
0.0
 11
1.551927
 21
4.757235999999999
 31
0.0
  0
LINE
  5
642
330
B
100
AcDbEntity
 67
     1
  8
1
  6
Continuous
 62
    18
100
AcDbLine
 10
1.583138999999999
 20
4.536819
 30
0.0
 11
1.583237
 21
4.521325
 31
0.0
  0
LINE
  5
643
330
B
100
AcDbEntity
 67
     1
  8
1
  6
Continuous
 62
    18
100
AcDbLine
 10
1.729897999999999
 20
6.357472
 30
0.0
 11
1.679897999999999
 21
6.357472
 31
0.0
  0
LINE
  5
644
330
B
100
AcDbEntity
 67
     1
  8
1
  6
Continuous
 62
    18
100
AcDbLine
 10
1.689086
 20
6.587733
 30
0.0
 11
1.68642
 21
6.596671
 31
0.0
  0
LINE
  5
645
330
B
100
AcDbEntity
 67
     1
  8
1
  6
Continuous
 62
    18
100
AcDbLine
 10
2.447405999999999
 20
7.516258
 30
0.0
 11
2.466031999999999
 21
7.506972999999999
 31
0.0
  0
LINE
  5
646
330
B
100
AcDbEntity
 67
     1
  8
1
  6
Continuous
 62
    18
100
AcDbLine
 10
1.655511999999999
 20
4.864952999999999
 30
0.0
 11
1.630001999999999
 21
4.862061999999999
 31
0.0
  0
LINE
  5
647
330
B
100
AcDbEntity
 67
     1
  8
1
  6
Continuous
 62
    18
100
AcDbLine
 10
1.692277999999999
 20
6.361615
 30
0.0
 11
1.68642
 21
6.371614
 31
0.0
  0
LINE
  5
648
330
B
100
AcDbEntity
 67
     1
  8
1
  6
Continuous
 62
    18
100
AcDbLine
 10
2.436950999999999
 20
4.306283
 30
0.0
 11
2.44105
 21
4.188890999999999
 31
0.0
  0
LINE
  5
649
330
B
100
AcDbEntity
 67
     1
  8
1
  6
Continuous
 62
    18
100
AcDbLine
 10
1.729897999999999
 20
6.342916
 30
0.0
 11
1.679897999999999
 21
6.342916
 31
0.0
  0
LINE
  5
64A
330
B
100
AcDbEntity
 67
     1
  8
1
  6
Continuous
 62
    18
100
AcDbLine
 10
2.466031999999999
 20
7.506972999999999
 30
0.0
 11
2.481816999999999
 21
7.478503999999999
 31
0.0
  0
LINE
  5
64B
330
B
100
AcDbEntity
 67
     1
  8
1
  6
Continuous
 62
    18
100
AcDbLine
 10
2.468249
 20
4.898875
 30
0.0
 11
2.468233999999999
 21
4.900063999999999
 31
0.0
  0
LINE
  5
64C
330
B
100
AcDbEntity
 67
     1
  8
1
  6
Continuous
 62
    18
100
AcDbLine
 10
2.356452999999999
 20
6.29909
 30
0.0
 11
2.356157
 21
6.290693
 31
0.0
  0
LINE
  5
64D
330
B
100
AcDbEntity
 67
     1
  8
1
  6
Continuous
 62
    18
100
AcDbLine
 10
1.553621999999999
 20
6.634632
 30
0.0
 11
1.557715999999999
 21
6.631858
 31
0.0
  0
LINE
  5
64E
330
B
100
AcDbEntity
 67
     1
  8
1
  6
Continuous
 62
    18
100
AcDbLine
 10
1.664525999999999
 20
6.590133999999999
 30
0.0
 11
1.655511999999999
 21
6.590133999999999
 31
0.0
  0
LINE
  5
64F
330
B
100
AcDbEntity
 67
     1
  8
1
  6
Continuous
 62
    18
100
AcDbLine
 10
1.52466
 20
7.830274
 30
0.0
 11
1.524599
 21
7.830335
 31
0.0
  0
LINE
  5
650
330
B
100
AcDbEntity
 67
     1
  8
1
  6
Continuous
 62
    18
100
AcDbLine
 10
2.359974999999999
 20
6.279193
 30
0.0
 11
2.359818
 21
6.297315
 31
0.0
  0
LINE
  5
651
330
B
100
AcDbEntity
 67
     1
  8
1
  6
Continuous
 62
    18
100
AcDbLine
 10
1.626597999999999
 20
6.607892999999998
 30
0.0
 11
1.655511999999999
 21
6.604152
 31
0.0
  0
LINE
  5
652
330
B
100
AcDbEntity
 67
     1
  8
1
  6
Continuous
 62
    18
100
AcDbLine
 10
2.211898
 20
6.357472
 30
0.0
 11
2.261897999999999
 21
6.357472
 31
0.0
  0
LINE
  5
653
330
B
100
AcDbEntity
 67
     1
  8
1
  6
Continuous
 62
    18
100
AcDbLine
 10
1.53959
 20
4.368802999999999
 30
0.0
 11
1.545871999999999
 21
4.188890999999999
 31
0.0
  0
LINE
  5
654
330
B
100
AcDbEntity
 67
     1
  8
1
  6
Continuous
 62
    18
100
AcDbLine
 10
1.672001999999999
 20
6.305096999999999
 30
0.0
 11
1.672443
 21
6.325759999999999
 31
0.0
  0
LINE
  5
655
330
B
100
AcDbEntity
 67
     1
  8
1
  6
Continuous
 62
    18
100
AcDbLine
 10
1.539239
 20
4.823526999999999
 30
0.0
 11
1.536628
 21
4.819428
 31
0.0
  0
LINE
  5
656
330
B
100
AcDbEntity
 67
     1
  8
1
  6
Continuous
 62
    18
100
AcDbLine
 10
1.664525999999999
 20
4.549881
 30
0.0
 11
1.671408999999999
 21
4.547029
 31
0.0
  0
LINE
  5
657
330
B
100
AcDbEntity
 67
     1
  8
1
  6
Continuous
 62
    18
100
AcDbLine
 10
1.545871999999999
 20
4.188890999999999
 30
0.0
 11
1.589146999999999
 21
4.188890999999999
 31
0.0
  0
LINE
  5
658
330
B
100
AcDbEntity
 67
     1
  8
1
  6
Continuous
 62
    18
100
AcDbLine
 10
1.736420999999999
 20
6.342916
 30
0.0
 11
1.70642
 21
6.342916
 31
0.0
  0
LINE
  5
659
330
B
100
AcDbEntity
 67
     1
  8
1
  6
Continuous
 62
    18
100
AcDbLine
 10
2.447678999999999
 20
6.292685999999999
 30
0.0
 11
2.447964999999999
 21
6.316201
 31
0.0
  0
LINE
  5
65A
330
B
100
AcDbEntity
 67
     1
  8
1
  6
Continuous
 62
    18
100
AcDbLine
 10
1.701949
 20
4.424509999999999
 30
0.0
 11
1.701949
 21
4.417117
 31
0.0
  0
LINE
  5
65B
330
B
100
AcDbEntity
 67
     1
  8
1
  6
Continuous
 62
    18
100
AcDbLine
 10
1.604897999999999
 20
6.624825999999999
 30
0.0
 11
1.656419999999999
 21
6.624825999999999
 31
0.0
  0
LINE
  5
65C
330
B
100
AcDbEntity
 67
     1
  8
1
  6
Continuous
 62
    18
100
AcDbLine
 10
2.447582
 20
6.272491999999999
 30
0.0
 11
2.458435999999999
 21
6.275592999999999
 31
0.0
  0
LINE
  5
65D
330
B
100
AcDbEntity
 67
     1
  8
1
  6
Continuous
 62
    18
100
AcDbLine
 10
2.111435999999999
 20
4.024891
 30
0.0
 11
2.111231999999999
 21
4.016545999999999
 31
0.0
  0
LINE
  5
65E
330
B
100
AcDbEntity
 67
     1
  8
1
  6
Continuous
 62
    18
100
AcDbLine
 10
1.540192999999999
 20
4.757642999999999
 30
0.0
 11
1.543054
 21
4.7541
 31
0.0
  0
LINE
  5
65F
330
B
100
AcDbEntity
 67
     1
  8
1
  6
Continuous
 62
    18
100
AcDbLine
 10
1.5941
 20
6.743222
 30
0.0
 11
1.58776
 21
6.742299
 31
0.0
  0
LINE
  5
660
330
B
100
AcDbEntity
 67
     1
  8
1
  6
Continuous
 62
    18
100
AcDbLine
 10
1.655511999999999
 20
4.871985999999999
 30
0.0
 11
1.655511999999999
 21
4.878969999999999
 31
0.0
  0
LINE
  5
661
330
B
100
AcDbEntity
 67
     1
  8
1
  6
Continuous
 62
    18
100
AcDbLine
 10
2.358632
 20
6.341065
 30
0.0
 11
2.361683999999999
 21
6.341178
 31
0.0
  0
LINE
  5
662
330
B
100
AcDbEntity
 67
     1
  8
1
  6
Continuous
 62
    18
100
AcDbLine
 10
1.673122999999999
 20
4.385023999999999
 30
0.0
 11
1.673265999999999
 21
4.398428
 31
0.0
  0
LINE
  5
663
330
B
100
AcDbEntity
 67
     1
  8
1
  6
Continuous
 62
    18
100
AcDbLine
 10
1.539651
 20
5.876883
 30
0.0
 11
1.529056999999999
 21
5.88128
 31
0.0
  0
LINE
  5
664
330
B
100
AcDbEntity
 67
     1
  8
1
  6
Continuous
 62
    18
100
AcDbLine
 10
1.918965
 20
4.016545999999999
 30
0.0
 11
1.918761
 21
4.024891
 31
0.0
  0
ARC
  5
665
330
B
100
AcDbEntity
 67
     1
  8
1
  6
Continuous
 62
    18
100
AcDbCircle
 10
2.490545999999999
 20
4.370023999999999
 30
0.0
 40
0.015
100
AcDbArc
 50
2.0
 51
90.0
  0
ARC
  5
666
330
B
100
AcDbEntity
 67
     1
  8
1
  6
Continuous
 62
    18
100
AcDbCircle
 10
5.679605999999999
 20
4.370023999999999
 30
0.0
 40
0.015
100
AcDbArc
 50
2.0
 51
90.0
  0
ARC
  5
667
330
B
100
AcDbEntity
 67
     1
  8
1
  6
Continuous
 62
    18
100
AcDbCircle
 10
2.324397999999999
 20
4.833670999999999
 30
0.0
 40
0.02
100
AcDbArc
 50
0.0
 51
90.0
  0
ARC
  5
668
330
B
100
AcDbEntity
 67
     1
  8
1
  6
Continuous
 62
    18
100
AcDbCircle
 10
1.539651
 20
4.370023999999999
 30
0.0
 40
0.015
100
AcDbArc
 50
90.0
 51
178.0
  0
ARC
  5
669
330
B
100
AcDbEntity
 67
     1
  8
1
  6
Continuous
 62
    18
100
AcDbCircle
 10
1.664525999999999
 20
4.732901
 30
0.0
 40
0.01
100
AcDbArc
 50
4.313793
 51
90.0
  0
ARC
  5
66A
330
B
100
AcDbEntity
 67
     1
  8
1
  6
Continuous
 62
    18
100
AcDbCircle
 10
1.655511999999999
 20
4.89658
 30
0.0
 40
0.093
100
AcDbArc
 50
90.0
 51
177.122577
  0
ARC
  5
66B
330
B
100
AcDbEntity
 67
     1
  8
1
  6
Continuous
 62
    18
100
AcDbCircle
 10
2.375306
 20
4.89658
 30
0.0
 40
0.093
100
AcDbArc
 50
2.877422999999999
 51
90.0
  0
ARC
  5
66C
330
B
100
AcDbEntity
 67
     1
  8
1
  6
Continuous
 62
    18
100
AcDbCircle
 10
2.324397999999999
 20
4.833670999999999
 30
0.0
 40
0.02
100
AcDbArc
 50
0.0
 51
90.0
  0
ARC
  5
66D
330
B
100
AcDbEntity
 67
     1
  8
1
  6
Continuous
 62
    18
100
AcDbCircle
 10
2.324397999999999
 20
6.723822
 30
0.0
 40
0.02
100
AcDbArc
 50
0.0
 51
6.842813
  0
ARC
  5
66E
330
B
100
AcDbEntity
 67
     1
  8
1
  6
Continuous
 62
    18
100
AcDbCircle
 10
4.727597
 20
4.89658
 30
0.0
 40
0.093
100
AcDbArc
 50
45.99999799999999
 51
135.0
  0
ARC
  5
66F
330
B
100
AcDbEntity
 67
     1
  8
1
  6
Continuous
 62
    18
100
AcDbCircle
 10
3.741205999999999
 20
4.370023999999999
 30
0.0
 40
0.015
100
AcDbArc
 50
90.0
 51
178.0
  0
ARC
  5
670
330
B
100
AcDbEntity
 67
     1
  8
1
  6
Continuous
 62
    18
100
AcDbCircle
 10
2.324397999999999
 20
6.723822
 30
0.0
 40
0.02
100
AcDbArc
 50
0.0
 51
6.842813
  0
ENDSEC
  0
SECTION
  2
OBJECTS
  0
DICTIONARY
  5
19
330
0
100
AcDbDictionary
281
     1
  3
ACAD_COLOR
350
69B
  3
ACAD_GROUP
350
1A
  3
ACAD_LAYOUT
350
1E
  3
ACAD_MATERIAL
350
686
  3
ACAD_MLINESTYLE
350
1B
  3
ACAD_PLOTSETTINGS
350
22
  3
ACAD_PLOTSTYLENAME
350
1F
  3
ACAD_TABLESTYLE
350
69C
  3
ACAD_VISUALSTYLE
350
68A
  3
ACAD_WIPEOUT_VARS
350
23
  3
AcDbVariableDictionary
350
6A5
  3
ASE_INDEX_DICTIONARY
350
6A2
  3
DWGPROPS
350
6AA
  0
DICTIONARY
  5
6AF
330
32
100
AcDbDictionary
280
     1
281
     1
  3
ACAD_XREC_ROUNDTRIP
360
6B0
  0
DICTIONARY
  5
69B
102
{ACAD_REACTORS
330
19
102
}
330
19
100
AcDbDictionary
281
     1
  0
DICTIONARY
  5
1A
102
{ACAD_REACTORS
330
19
102
}
330
19
100
AcDbDictionary
281
     1
  0
DICTIONARY
  5
1E
102
{ACAD_REACTORS
330
19
102
}
330
19
100
AcDbDictionary
281
     1
  3
DRAWING2
350
671
  3
Layout1
350
21
  3
Model
350
20
  0
DICTIONARY
  5
686
102
{ACAD_REACTORS
330
19
102
}
330
19
100
AcDbDictionary
281
     1
  3
ByBlock
350
688
  3
ByLayer
350
687
  3
Global
350
689
  0
DICTIONARY
  5
1B
102
{ACAD_REACTORS
330
19
102
}
330
19
100
AcDbDictionary
281
     1
  3
Standard
350
1C
  0
DICTIONARY
  5
22
102
{ACAD_REACTORS
330
19
102
}
330
19
100
AcDbDictionary
281
     1
  0
ACDBDICTIONARYWDFLT
  5
1F
102
{ACAD_REACTORS
330
19
102
}
330
19
100
AcDbDictionary
281
     1
  3
Normal
350
1D
100
AcDbDictionaryWithDefault
340
1D
  0
DICTIONARY
  5
69C
102
{ACAD_REACTORS
330
19
102
}
330
19
100
AcDbDictionary
281
     1
  3
Standard
350
69D
  0
DICTIONARY
  5
68A
102
{ACAD_REACTORS
330
19
102
}
330
19
100
AcDbDictionary
281
     1
  3
2dWireframe
350
690
  3
3D Hidden
350
692
  3
3dWireframe
350
691
  3
Basic
350
68F
  3
Brighten
350
696
  3
ColorChange
350
69A
  3
Conceptual
350
693
  3
Dim
350
695
  3
Facepattern
350
699
  3
Flat
350
68B
  3
FlatWithEdges
350
68C
  3
Gouraud
350
68D
  3
GouraudWithEdges
350
68E
  3
Linepattern
350
698
  3
Realistic
350
694
  3
Thicken
350
697
  0
WIPEOUTVARIABLES
  5
23
330
19
100
AcDbWipeoutVariables
 70
     1
  0
DICTIONARY
  5
6A5
102
{ACAD_REACTORS
330
19
102
}
330
19
100
AcDbDictionary
281
     1
  3
CTABLESTYLE
350
6A6
  3
DIMASSOC
350
6A9
  3
INDEXCTL
350
6A8
  3
SORTENTS
350
6A7
  0
DICTIONARY
  5
6A2
102
{ACAD_REACTORS
330
19
102
}
330
19
100
AcDbDictionary
281
     1
  3
ASEBlockHierarchyIndexRecord
350
6A4
1001
DCO15
1040
1745559096.72
  0
XRECORD
  5
6AA
102
{ACAD_REACTORS
330
19
102
}
330
19
100
AcDbXrecord
280
     1
  1
DWGPROPS COOKIE
  2

  3

  4

  6

  7

  8
bjn
  9

300
=
301
=
302
=
303
=
304
=
305
=
306
=
307
=
308
=
309
=
 40
0.0008208449074074
 41
2456006.441345336
 42
2456006.442137963
  1

 90
        0
  0
XRECORD
  5
6B0
102
{ACAD_REACTORS
330
6AF
102
}
330
6AF
100
AcDbXrecord
280
     1
102
SHADEPLOT
 70
     0
  0
LAYOUT
  5
671
102
{ACAD_XDICTIONARY
360
6B1
102
}
102
{ACAD_REACTORS
330
1E
102
}
330
1E
100
AcDbPlotSettings
  1

  2

  4

  6

 40
20.0
 41
20.0
 42
20.0
 43
20.0
 44
319.4
 45
255.9
 46
0.0
 47
0.0
 48
0.0
 49
0.0
140
319.4
141
255.9
142
1.0
143
1.0
 70
     0
 72
     0
 73
     0
 74
     1
  7

 75
     0
147
1.0
148
0.0
149
0.0
100
AcDbLayout
  1
DRAWING2
 70
     0
 71
     2
 10
0.0
 20
0.0
 11
11.0
 21
8.5
 12
0.0
 22
0.0
 32
0.0
 14
0.0
 24
0.0
 34
0.0
 15
11.0
 25
8.5
 35
0.0
146
0.0
 13
0.0
 23
0.0
 33
0.0
 16
0.0
 26
0.0
 36
0.0
 17
0.0
 27
0.0
 37
0.0
 76
     0
330
B
331
32
  0
LAYOUT
  5
21
102
{ACAD_XDICTIONARY
360
6AD
102
}
102
{ACAD_REACTORS
330
1E
102
}
330
1E
100
AcDbPlotSettings
  1

  2
\\NSPRINTSRV\OPLaser1
  4
Letter
  6

 40
5.027082920074462
 41
5.027072429656982
 42
5.365737915039062
 43
5.365753173828125
 44
215.8999938964844
 45
279.3999938964844
 46
0.0
 47
0.0
 48
0.0
 49
0.0
140
0.0
141
0.0
142
1.0
143
0.4861186948768498
 70
    16
 72
     0
 73
     1
 74
     1
  7

 75
     0
147
2.057110764385092
148
-38.70364606464701
149
-99.38501958363342
100
AcDbLayout
  1
Layout1
 70
     0
 71
     1
 10
1.421072958061195
 20
3.816585062814532
 11
6.768378484894217
 21
7.948593852455431
 12
0.0
 22
0.0
 32
0.0
 14
1.523765593096339
 24
3.912796046599741
 34
-0.0004043445228632
 15
5.694831868744024
 25
7.845901509451099
 35
0.0000152657740013
146
0.0
 13
0.0
 23
0.0
 33
0.0
 16
1.0
 26
0.0
 36
0.0
 17
0.0
 27
1.0
 37
0.0
 76
     0
330
B
331
32
1001
ACAD_PSEXT
1000
\\NSPRINTSRV\OPLaser1
1000
HP LaserJet 4200 PS
1000
Orland Park
1000
Copper Engineering
1070
     0
  0
LAYOUT
  5
20
102
{ACAD_XDICTIONARY
360
6AB
102
}
102
{ACAD_REACTORS
330
1E
102
}
330
1E
100
AcDbPlotSettings
  1

  2

  4

  6

 40
0.0
 41
0.0
 42
0.0
 43
0.0
 44
0.0
 45
0.0
 46
0.0
 47
0.0
 48
0.0
 49
0.0
140
0.0
141
0.0
142
1.0
143
1.0
 70
  1024
 72
     0
 73
     0
 74
     0
  7

 75
     0
147
1.0
148
0.0
149
0.0
100
AcDbLayout
  1
Model
 70
     0
 71
     0
 10
0.0
 20
0.0
 11
0.0
 21
0.0
 12
0.0
 22
0.0
 32
0.0
 14
0.0
 24
0.0
 34
0.0
 15
0.0
 25
0.0
 35
0.0
146
0.0
 13
0.0
 23
0.0
 33
0.0
 16
0.0
 26
0.0
 36
0.0
 17
0.0
 27
0.0
 37
0.0
 76
     0
330
A
  0
MATERIAL
  5
688
102
{ACAD_XDICTIONARY
360
6B5
102
}
102
{ACAD_REACTORS
330
686
102
}
330
686
100
AcDbMaterial
  1
ByBlock
  0
MATERIAL
  5
687
102
{ACAD_XDICTIONARY
360
6B3
102
}
102
{ACAD_REACTORS
330
686
102
}
330
686
100
AcDbMaterial
  1
ByLayer
  0
MATERIAL
  5
689
102
{ACAD_XDICTIONARY
360
6B7
102
}
102
{ACAD_REACTORS
330
686
102
}
330
686
100
AcDbMaterial
  1
Global
  0
MLINESTYLE
  5
1C
102
{ACAD_REACTORS
330
1B
102
}
330
1B
100
AcDbMlineStyle
  2
STANDARD
 70
     0
  3

 62
     0
 51
90.0
 52
90.0
 71
     2
 49
0.5
 62
   256
  6
BYLAYER
 49
-0.5
 62
   256
  6
BYLAYER
  0
ACDBPLACEHOLDER
  5
1D
102
{ACAD_REACTORS
330
1F
102
}
330
1F
  0
TABLESTYLE
  5
69D
102
{ACAD_XDICTIONARY
360
6B9
102
}
102
{ACAD_REACTORS
330
69C
102
}
330
69C
100
AcDbTableStyle
  3
Standard
 70
     0
 71
     0
 40
0.06
 41
0.06
280
     0
281
     0
  7
Standard
140
0.18
170
     2
 62
     0
 63
     7
283
     0
274
    -2
284
     1
 64
     0
275
    -2
285
     1
 65
     0
276
    -2
286
     1
 66
     0
277
    -2
287
     1
 67
     0
278
    -2
288
     1
 68
     0
279
    -2
289
     1
 69
     0
  7
Standard
140
0.25
170
     5
 62
     0
 63
     7
283
     0
274
    -2
284
     1
 64
     0
275
    -2
285
     1
 65
     0
276
    -2
286
     1
 66
     0
277
    -2
287
     1
 67
     0
278
    -2
288
     1
 68
     0
279
    -2
289
     1
 69
     0
  7
Standard
140
0.18
170
     5
 62
     0
 63
     7
283
     0
274
    -2
284
     1
 64
     0
275
    -2
285
     1
 65
     0
276
    -2
286
     1
 66
     0
277
    -2
287
     1
 67
     0
278
    -2
288
     1
 68
     0
279
    -2
289
     1
 69
     0
  0
VISUALSTYLE
  5
690
102
{ACAD_REACTORS
330
68A
102
}
330
68A
100
AcDbVisualStyle
  2
2dWireframe
 70
     4
 71
     0
 72
     2
 73
     0
 90
        0
 40
-0.6
 41
-30.0
 62
     5
 63
     7
 74
     1
 91
        4
 64
     7
 65
   257
 75
     1
175
     1
 42
1.0
 92
        0
 66
   257
 43
1.0
 76
     1
 77
     6
 78
     2
 67
     7
 79
     5
170
     0
171
     0
290
     0
174
     0
 93
        1
 44
0.0
173
     0
291
     0
 45
0.0
1001
ACAD
1000
AcDbSavedByObjectVersion
1070
     0
  0
VISUALSTYLE
  5
692
102
{ACAD_REACTORS
330
68A
102
}
330
68A
100
AcDbVisualStyle
  2
3D Hidden
 70
     6
 71
     1
 72
     2
 73
     2
 90
        0
 40
-0.6
 41
-30.0
 62
     5
 63
     7
 74
     2
 91
        2
 64
     7
 65
   257
 75
     2
175
     1
 42
40.0
 92
        0
 66
   257
 43
1.0
 76
     1
 77
     6
 78
     2
 67
     7
 79
     3
170
     0
171
     0
290
     0
174
     0
 93
        1
 44
0.0
173
     0
291
     0
 45
0.0
1001
ACAD
1000
AcDbSavedByObjectVersion
1070
     0
  0
VISUALSTYLE
  5
691
102
{ACAD_REACTORS
330
68A
102
}
330
68A
100
AcDbVisualStyle
  2
3dWireframe
 70
     5
 71
     0
 72
     2
 73
     0
 90
        0
 40
-0.6
 41
-30.0
 62
     5
 63
     7
 74
     1
 91
        4
 64
     7
 65
   257
 75
     1
175
     1
 42
1.0
 92
        0
 66
   257
 43
1.0
 76
     1
 77
     6
 78
     2
 67
     7
 79
     5
170
     0
171
     0
290
     0
174
     0
 93
        1
 44
0.0
173
     0
291
     0
 45
0.0
1001
ACAD
1000
AcDbSavedByObjectVersion
1070
     0
  0
VISUALSTYLE
  5
68F
102
{ACAD_REACTORS
330
68A
102
}
330
68A
100
AcDbVisualStyle
  2
Basic
 70
     7
 71
     1
 72
     0
 73
     1
 90
        0
 40
-0.6
 41
-30.0
 62
     5
 63
     7
 74
     0
 91
        4
 64
     7
 65
   257
 75
     1
175
     1
 42
1.0
 92
        8
 66
     7
 43
1.0
 76
     1
 77
     6
 78
     2
 67
     7
 79
     5
170
     0
171
     0
290
     0
174
     0
 93
        1
 44
0.0
173
     0
291
     1
 45
0.0
1001
ACAD
1000
AcDbSavedByObjectVersion
1070
     0
  0
VISUALSTYLE
  5
696
102
{ACAD_REACTORS
330
68A
102
}
330
68A
100
AcDbVisualStyle
  2
Brighten
 70
    12
 71
     2
 72
     2
 73
     0
 90
        0
 40
-0.6
 41
-30.0
 62
     5
 63
     7
 74
     1
 91
        4
 64
     7
 65
   257
 75
     1
175
     1
 42
1.0
 92
        8
 66
     7
 43
1.0
 76
     1
 77
     6
 78
     2
 67
     7
 79
     5
170
     0
171
     0
290
     0
174
     0
 93
        1
 44
50.0
173
     0
291
     1
 45
0.0
1001
ACAD
1000
AcDbSavedByObjectVersion
1070
     0
  0
VISUALSTYLE
  5
69A
102
{ACAD_REACTORS
330
68A
102
}
330
68A
100
AcDbVisualStyle
  2
ColorChange
 70
    16
 71
     2
 72
     2
 73
     3
 90
        0
 40
-0.6
 41
-30.0
 62
     5
 63
     8
 74
     1
 91
        4
 64
     7
 65
   257
 75
     1
175
     1
 42
1.0
 92
        8
 66
     8
 43
1.0
 76
     1
 77
     6
 78
     2
 67
     7
 79
     5
170
     0
171
     0
290
     0
174
     0
 93
        1
 44
0.0
173
     0
291
     1
 45
0.0
1001
ACAD
1000
AcDbSavedByObjectVersion
1070
     0
  0
VISUALSTYLE
  5
693
102
{ACAD_REACTORS
330
68A
102
}
330
68A
100
AcDbVisualStyle
  2
Conceptual
 70
     9
 71
     3
 72
     2
 73
     0
 90
        0
 40
-0.6
 41
-30.0
 62
     5
 63
     7
 74
     2
 91
        2
 64
     7
 65
   257
 75
     1
175
     1
 42
40.0
 92
        8
 66
     7
 43
1.0
 76
     1
 77
     6
 78
     2
 67
     7
 79
     3
170
     0
171
     0
290
     0
174
     0
 93
        1
 44
0.0
173
     0
291
     0
 45
0.0
1001
ACAD
1000
AcDbSavedByObjectVersion
1070
     0
  0
VISUALSTYLE
  5
695
102
{ACAD_REACTORS
330
68A
102
}
330
68A
100
AcDbVisualStyle
  2
Dim
 70
    11
 71
     2
 72
     2
 73
     0
 90
        0
 40
-0.6
 41
-30.0
 62
     5
 63
     7
 74
     1
 91
        4
 64
     7
 65
   257
 75
     1
175
     1
 42
1.0
 92
        8
 66
     7
 43
1.0
 76
     1
 77
     6
 78
     2
 67
     7
 79
     5
170
     0
171
     0
290
     0
174
     0
 93
        1
 44
-50.0
173
     0
291
     1
 45
0.0
1001
ACAD
1000
AcDbSavedByObjectVersion
1070
     0
  0
VISUALSTYLE
  5
699
102
{ACAD_REACTORS
330
68A
102
}
330
68A
100
AcDbVisualStyle
  2
Facepattern
 70
    15
 71
     2
 72
     2
 73
     0
 90
        0
 40
-0.6
 41
-30.0
 62
     5
 63
     7
 74
     1
 91
        4
 64
     7
 65
   257
 75
     1
175
     1
 42
1.0
 92
        8
 66
     7
 43
1.0
 76
     1
 77
     6
 78
     2
 67
     7
 79
     5
170
     0
171
     0
290
     0
174
     0
 93
        1
 44
0.0
173
     0
291
     1
 45
0.0
1001
ACAD
1000
AcDbSavedByObjectVersion
1070
     0
  0
VISUALSTYLE
  5
68B
102
{ACAD_REACTORS
330
68A
102
}
330
68A
100
AcDbVisualStyle
  2
Flat
 70
     0
 71
     2
 72
     1
 73
     1
 90
        2
 40
-0.6
 41
30.0
 62
     5
 63
     7
 74
     0
 91
        4
 64
     7
 65
   257
 75
     1
175
     1
 42
1.0
 92
        8
 66
     7
 43
1.0
 76
     1
 77
     6
 78
     2
 67
     7
 79
     5
170
     0
171
     0
290
     0
174
     0
 93
       13
 44
0.0
173
     0
291
     1
 45
0.0
1001
ACAD
1000
AcDbSavedByObjectVersion
1070
     0
  0
VISUALSTYLE
  5
68C
102
{ACAD_REACTORS
330
68A
102
}
330
68A
100
AcDbVisualStyle
  2
FlatWithEdges
 70
     1
 71
     2
 72
     1
 73
     1
 90
        2
 40
-0.6
 41
30.0
 62
     5
 63
     7
 74
     1
 91
        4
 64
     7
 65
   257
 75
     1
175
     1
 42
1.0
 92
        0
 66
   257
 43
1.0
 76
     1
 77
     6
 78
     2
 67
     7
 79
     5
170
     0
171
     0
290
     0
174
     0
 93
       13
 44
0.0
173
     0
291
     1
 45
0.0
1001
ACAD
1000
AcDbSavedByObjectVersion
1070
     0
  0
VISUALSTYLE
  5
68D
102
{ACAD_REACTORS
330
68A
102
}
330
68A
100
AcDbVisualStyle
  2
Gouraud
 70
     2
 71
     2
 72
     2
 73
     1
 90
        2
 40
-0.6
 41
30.0
 62
     5
 63
     7
 74
     0
 91
        4
 64
     7
 65
   257
 75
     1
175
     1
 42
1.0
 92
        0
 66
     7
 43
1.0
 76
     1
 77
     6
 78
     2
 67
     7
 79
     5
170
     0
171
     0
290
     0
174
     0
 93
       13
 44
0.0
173
     0
291
     1
 45
0.0
1001
ACAD
1000
AcDbSavedByObjectVersion
1070
     0
  0
VISUALSTYLE
  5
68E
102
{ACAD_REACTORS
330
68A
102
}
330
68A
100
AcDbVisualStyle
  2
GouraudWithEdges
 70
     3
 71
     2
 72
     2
 73
     1
 90
        2
 40
-0.6
 41
30.0
 62
     5
 63
     7
 74
     1
 91
        4
 64
     7
 65
   257
 75
     1
175
     1
 42
1.0
 92
        0
 66
   257
 43
1.0
 76
     1
 77
     6
 78
     2
 67
     7
 79
     5
170
     0
171
     0
290
     0
174
     0
 93
       13
 44
0.0
173
     0
291
     1
 45
0.0
1001
ACAD
1000
AcDbSavedByObjectVersion
1070
     0
  0
VISUALSTYLE
  5
698
102
{ACAD_REACTORS
330
68A
102
}
330
68A
100
AcDbVisualStyle
  2
Linepattern
 70
    14
 71
     2
 72
     2
 73
     0
 90
        0
 40
-0.6
 41
-30.0
 62
     5
 63
     7
 74
     1
 91
        4
 64
     7
 65
   257
 75
     7
175
     7
 42
1.0
 92
        8
 66
     7
 43
1.0
 76
     1
 77
     6
 78
     2
 67
     7
 79
     5
170
     0
171
     0
290
     0
174
     0
 93
        1
 44
0.0
173
     0
291
     1
 45
0.0
1001
ACAD
1000
AcDbSavedByObjectVersion
1070
     0
  0
VISUALSTYLE
  5
694
102
{ACAD_REACTORS
330
68A
102
}
330
68A
100
AcDbVisualStyle
  2
Realistic
 70
     8
 71
     2
 72
     2
 73
     0
 90
        0
 40
-0.6
 41
-30.0
 62
     5
 63
     7
 74
     1
 91
        0
 64
     7
 65
   257
 75
     1
175
     1
 42
1.0
 92
        8
 66
     8
 43
1.0
 76
     1
 77
     6
 78
     2
 67
     7
 79
     5
170
     0
171
     0
290
     0
174
     0
 93
       13
 44
0.0
173
     0
291
     0
 45
0.0
1001
ACAD
1000
AcDbSavedByObjectVersion
1070
     0
  0
VISUALSTYLE
  5
697
102
{ACAD_REACTORS
330
68A
102
}
330
68A
100
AcDbVisualStyle
  2
Thicken
 70
    13
 71
     2
 72
     2
 73
     0
 90
        0
 40
-0.6
 41
-30.0
 62
     5
 63
     7
 74
     1
 91
        4
 64
     7
 65
   257
 75
     1
175
     1
 42
1.0
 92
       12
 66
     7
 43
1.0
 76
     1
 77
     6
 78
     2
 67
     7
 79
     5
170
     0
171
     0
290
     0
174
     0
 93
        1
 44
0.0
173
     0
291
     1
 45
0.0
1001
ACAD
1000
AcDbSavedByObjectVersion
1070
     0
  0
DICTIONARYVAR
  5
6A6
102
{ACAD_REACTORS
330
6A5
102
}
330
6A5
100
DictionaryVariables
280
     0
  1
STANDARD
  0
DICTIONARYVAR
  5
6A9
102
{ACAD_REACTORS
330
6A5
102
}
330
6A5
100
DictionaryVariables
280
     0
  1
1
  0
DICTIONARYVAR
  5
6A8
102
{ACAD_REACTORS
330
6A5
102
}
330
6A5
100
DictionaryVariables
280
     0
  1
0
  0
DICTIONARYVAR
  5
6A7
102
{ACAD_REACTORS
330
6A5
102
}
330
6A5
100
DictionaryVariables
280
     0
  1
127
  0
XRECORD
  5
6A4
102
{ACAD_REACTORS
330
6A2
102
}
330
6A2
100
AcDbXrecord
280
     1
  0
DICTIONARY
  5
6B1
330
671
100
AcDbDictionary
280
     1
281
     1
  3
ACAD_XREC_ROUNDTRIP
360
6B2
  0
DICTIONARY
  5
6AD
330
21
100
AcDbDictionary
280
     1
281
     1
  3
ACAD_XREC_ROUNDTRIP
360
6AE
  0
DICTIONARY
  5
6AB
330
20
100
AcDbDictionary
280
     1
281
     1
  3
ACAD_XREC_ROUNDTRIP
360
6AC
  0
DICTIONARY
  5
6B5
330
688
100
AcDbDictionary
280
     1
281
     1
  3
ACAD_XREC_ROUNDTRIP
360
6B6
  0
DICTIONARY
  5
6B3
330
687
100
AcDbDictionary
280
     1
281
     1
  3
ACAD_XREC_ROUNDTRIP
360
6B4
  0
DICTIONARY
  5
6B7
330
689
100
AcDbDictionary
280
     1
281
     1
  3
ACAD_XREC_ROUNDTRIP
360
6B8
  0
DICTIONARY
  5
6B9
330
69D
100
AcDbDictionary
280
     1
281
     1
  3
ACAD_XREC_ROUNDTRIP
360
6BA
  0
XRECORD
  5
6B2
102
{ACAD_REACTORS
330
6B1
102
}
330
6B1
100
AcDbXrecord
280
     1
102
SHADEPLOT
 70
     0
102
SHADEPLOTRESLEVEL
 70
     2
102
SHADEPLOTCUSTOMDPI
 70
   300
  0
XRECORD
  5
6AE
102
{ACAD_REACTORS
330
6AD
102
}
330
6AD
100
AcDbXrecord
280
     1
102
SHADEPLOT
 70
     0
102
SHADEPLOTRESLEVEL
 70
     2
102
SHADEPLOTCUSTOMDPI
 70
   300
  0
XRECORD
  5
6AC
102
{ACAD_REACTORS
330
6AB
102
}
330
6AB
100
AcDbXrecord
280
     1
102
SHADEPLOT
 70
     0
102
SHADEPLOTRESLEVEL
 70
     2
102
SHADEPLOTCUSTOMDPI
 70
   300
  0
XRECORD
  5
6B6
102
{ACAD_REACTORS
330
6B5
102
}
330
6B5
100
AcDbXrecord
280
     1
102
MATERIAL
148
0.0
149
0.0
149
0.0
 93
        0
 94
       63
282
     0
 72
     1
 77
     1
171
     1
175
     1
179
     1
273
     0
  0
XRECORD
  5
6B4
102
{ACAD_REACTORS
330
6B3
102
}
330
6B3
100
AcDbXrecord
280
     1
102
MATERIAL
148
0.0
149
0.0
149
0.0
 93
        0
 94
       63
282
     0
 72
     1
 77
     1
171
     1
175
     1
179
     1
273
     0
  0
XRECORD
  5
6B8
102
{ACAD_REACTORS
330
6B7
102
}
330
6B7
100
AcDbXrecord
280
     1
102
MATERIAL
148
0.0
149
0.0
149
0.0
 93
        0
 94
       63
282
     0
 72
     1
 77
     1
171
     1
175
     1
179
     1
273
     0
  0
XRECORD
  5
6BA
102
{ACAD_REACTORS
330
6B9
102
}
330
6B9
100
AcDbXrecord
280
     1
102
ACAD_ROUNDTRIP_PRE2007_TABLESTYLE
 90
      512
 91
        0
  1

 92
      512
 93
        0
  2

 94
      512
 95
        0
  3

  0
ENDSEC
  0
EOF
