  0
SECTION
  2
HEADER
  9
$ACADVER
  1
AC1014
  9
$ACADMAINTVER
 70
     0
  9
$DWGCODEPAGE
  3
ANSI_1252
  9
$INSBASE
 10
0.0
 20
0.0
 30
0.0
  9
$EXTMIN
 10
-0.5
 20
-0.5
 30
-0.5
  9
$EXTMAX
 10
5.0
 20
5.0
 30
5.0
  9
$LIMMIN
 10
-0.5
 20
-0.5
  9
$LIMMAX
 10
5.0
 20
5.0
  9
$ORTHOMODE
 70
     0
  9
$REGENMODE
 70
     1
  9
$FILLMODE
 70
     1
  9
$QTEXTMODE
 70
     0
  9
$MIRRTEXT
 70
     1
  9
$DRAGMODE
 70
     2
  9
$LTSCALE
 40
1.0
  9
$OSMODE
 70
     0
  9
$ATTMODE
 70
     1
  9
$TEXTSIZE
 40
0.2
  9
$TRACEWID
 40
0.05
  9
$TEXTSTYLE
  7
STANDARD
  9
$CLAYER
  8
0
  9
$CELTYPE
  6
CONTINUOUS
  9
$CECOLOR
 62
   256
  9
$CELTSCALE
 40
1.0
  9
$DELOBJ
 70
     1
  9
$DISPSILH
 70
     0
  9
$DIMSCALE
 40
1.0
  9
$DIMASZ
 40
0.18
  9
$DIMEXO
 40
0.0625
  9
$DIMDLI
 40
0.38
  9
$DIMRND
 40
0.0
  9
$DIMDLE
 40
0.0
  9
$DIMEXE
 40
0.18
  9
$DIMTP
 40
0.0
  9
$DIMTM
 40
0.0
  9
$DIMTXT
 40
0.18
  9
$DIMCEN
 40
0.09
  9
$DIMTSZ
 40
0.0
  9
$DIMTOL
 70
     0
  9
$DIMLIM
 70
     0
  9
$DIMTIH
 70
     1
  9
$DIMTOH
 70
     1
  9
$DIMSE1
 70
     0
  9
$DIMSE2
 70
     0
  9
$DIMTAD
 70
     0
  9
$DIMZIN
 70
     0
  9
$DIMBLK
  1

  9
$DIMASO
 70
     1
  9
$DIMSHO
 70
     1
  9
$DIMPOST
  1

  9
$DIMAPOST
  1

  9
$DIMALT
 70
     0
  9
$DIMALTD
 70
     2
  9
$DIMALTF
 40
25.4
  9
$DIMLFAC
 40
1.0
  9
$DIMTOFL
 70
     0
  9
$DIMTVP
 40
0.0
  9
$DIMTIX
 70
     0
  9
$DIMSOXD
 70
     0
  9
$DIMSAH
 70
     0
  9
$DIMBLK1
  1

  9
$DIMBLK2
  1

  9
$DIMSTYLE
  2
STANDARD
  9
$DIMCLRD
 70
     0
  9
$DIMCLRE
 70
     0
  9
$DIMCLRT
 70
     0
  9
$DIMTFAC
 40
1.0
  9
$DIMGAP
 40
0.09
  9
$DIMJUST
 70
     0
  9
$DIMSD1
 70
     0
  9
$DIMSD2
 70
     0
  9
$DIMTOLJ
 70
     1
  9
$DIMTZIN
 70
     0
  9
$DIMALTZ
 70
     0
  9
$DIMALTTZ
 70
     0
  9
$DIMFIT
 70
     3
  9
$DIMUPT
 70
     0
  9
$DIMUNIT
 70
     2
  9
$DIMDEC
 70
     4
  9
$DIMTDEC
 70
     4
  9
$DIMALTU
 70
     2
  9
$DIMALTTD
 70
     2
  9
$DIMTXSTY
  7
STANDARD
  9
$DIMAUNIT
 70
     0
  9
$LUNITS
 70
     2
  9
$LUPREC
 70
     4
  9
$SKETCHINC
 40
0.1
  9
$FILLETRAD
 40
0.0
  9
$AUNITS
 70
     0
  9
$AUPREC
 70
     0
  9
$MENU
  1
acad
  9
$ELEVATION
 40
0.0
  9
$PELEVATION
 40
0.0
  9
$THICKNESS
 40
0.0
  9
$LIMCHECK
 70
     0
  9
$BLIPMODE
 70
     1
  9
$CHAMFERA
 40
0.0
  9
$CHAMFERB
 40
0.0
  9
$CHAMFERC
 40
0.0
  9
$CHAMFERD
 40
0.0
  9
$SKPOLY
 70
     0
  9
$TDCREATE
 40
0.000000000
  9
$TDUPDATE
 40
0.000000000
  9
$TDINDWG
 40
0.0000000000
  9
$TDUSRTIMER
 40
0.0000000000
  9
$USRTIMER
 70
     1
  9
$ANGBASE
 50
0.0
  9
$ANGDIR
 70
     0
  9
$PDMODE
 70
     0
  9
$PDSIZE
 40
0.0
  9
$PLINEWID
 40
0.0
  9
$COORDS
 70
     0
  9
$SPLFRAME
 70
     0
  9
$SPLINETYPE
 70
     6
  9
$SPLINESEGS
 70
     8
  9
$ATTDIA
 70
     0
  9
$ATTREQ
 70
     1
  9
$HANDLING
 70
     1
  9
$HANDSEED
  5
2D6
  9
$SURFTAB1
 70
     6
  9
$SURFTAB2
 70
     6
  9
$SURFTYPE
 70
     6
  9
$SURFU
 70
     6
  9
$SURFV
 70
     6
  9
$UCSNAME
  2

  9
$UCSORG
 10
0.0
 20
0.0
 30
0.0
  9
$UCSXDIR
 10
1.0
 20
0.0
 30
0.0
  9
$UCSYDIR
 10
0.0
 20
1.0
 30
0.0
  9
$PUCSNAME
  2

  9
$PUCSORG
 10
0.0
 20
0.0
 30
0.0
  9
$PUCSXDIR
 10
1.0
 20
0.0
 30
0.0
  9
$PUCSYDIR
 10
0.0
 20
1.0
 30
0.0
  9
$USERI1
 70
     0
  9
$USERI2
 70
     0
  9
$USERI3
 70
     0
  9
$USERI4
 70
     0
  9
$USERI5
 70
     0
  9
$USERR1
 40
0.0
  9
$USERR2
 40
0.0
  9
$USERR3
 40
0.0
  9
$USERR4
 40
0.0
  9
$USERR5
 40
0.0
  9
$WORLDVIEW
 70
     1
  9
$SHADEDGE
 70
     3
  9
$SHADEDIF
 70
    70
  9
$TILEMODE
 70
     0
  9
$MAXACTVP
 70
    64
  9
$PINSBASE
 10
0.0
 20
0.0
 30
0.0
  9
$PLIMCHECK
 70
     0
  9
$PEXTMIN
 10
-0.5
 20
-0.5
 30
-0.5
  9
$PEXTMAX
 10
34.0
 20
22.0
 30
5.0
  9
$PLIMMIN
 10
-0.5
 20
-0.5
  9
$PLIMMAX
 10
34.0
 20
22.0
  9
$UNITMODE
 70
     0
  9
$VISRETAIN
 70
     0
  9
$PLINEGEN
 70
     1
  9
$PSLTSCALE
 70
     0
  9
$TREEDEPTH
 70
  3020
  9
$PICKSTYLE
 70
     1
  9
$CMLSTYLE
  2
STANDARD
  9
$CMLJUST
 70
     0
  9
$CMLSCALE
 40
1.0
  9
$PROXYGRAPHICS
 70
     0
  9
$MEASUREMENT
 70
     0
  0
ENDSEC
  0
SECTION
  2
CLASSES
  0
CLASS
  1
LWPOLYLINE
  2
AcDbPolyline
  3
"AutoCAD"
 90
        0
280
     0
281
     1
  0
CLASS
  1
IMAGE
  2
AcDbRasterImage
  3
ISM
 90
      127
280
     0
281
     1
  0
CLASS
  1
OLE2FRAME
  2
AcDbOle2Frame
  3
""
 90
        0
280
     0
281
     1
  0
CLASS
  1
HATCH
  2
AcDbHatch
  3
"ACAD_SEDONA"
 90
        0
280
     0
281
     1
  0
CLASS
  1
DICTIONARYVAR
  2
AcDbDictionaryVar
  3
"AutoCAD"
 90
        0
280
     0
281
     0
  0
CLASS
  1
RASTERVARIABLES
  2
AcDbRasterVariables
  3
ISM
 90
        0
280
     0
281
     0
  0
CLASS
  1
IMAGEDEF
  2
AcDbRasterImageDef
  3
ISM
 90
        0
280
     0
281
     0
  0
CLASS
  1
IMAGEDEF_REACTOR
  2
AcDbRasterImageDefReactor
  3
ISM
 90
        1
280
     0
281
     0
  0
CLASS
  1
IDBUFFER
  2
AcDbIdBuffer
  3
"Acad"
 90
        0
280
     0
281
     0
  0
CLASS
  1
SPATIAL_FILTER
  2
AcDbSpatialFilter
  3
"Acad"
 90
        0
280
     0
281
     0
  0
CLASS
  1
XRECORD
  2
AcDbXrecord
  3
"<Built In>"
 90
        0
280
     0
281
     0
  0
CLASS
  1
SORTENTSTABLE
  2
AcDbSortentsTable
  3
"AutoCAD"
 90
        0
280
     0
281
     0
  0
CLASS
  1
LAYER_INDEX
  2
AcDbLayerIndex
  3
"Acad"
 90
        0
280
     0
281
     0
  0
CLASS
  1
SPATIAL_INDEX
  2
AcDbSpatialIndex
  3
"Acad"
 90
        0
280
     0
281
     0
  0
CLASS
  1
OBJECT_PTR
  2
CAseDLPNTableRecord
  3
"ASE-LPNTableRecord"
 90
        1
280
     0
281
     0
  0
CLASS
  1
LAYOUT
  2
AcDbLayout
  3
"AutoCAD 2000"
 90
        0
280
     0
281
     0
  0
CLASS
  1
PLOTSETTINGS
  2
AcDbPlotSettings
  3
"AutoCAD 2000"
 90
        0
280
     0
281
     0
  0
CLASS
  1
ACDBDICTIONARYWDFLT
  2
AcDbDictionaryWithDefault
  3
"AutoCAD 2000"
 90
        0
280
     0
281
     0
  0
CLASS
  1
ACDBPLACEHOLDER
  2
AcDbPlaceHolder
  3
"AutoCAD 2000"
 90
        0
280
     0
281
     0
  0
CLASS
  1
VBA_PROJECT
  2
AcDbVbaProject
  3
"acadvba"
 90
        0
280
     0
281
     0
  0
CLASS
  1
WIPEOUT
  2
AcDbWipeout
  3
WipeOut|AutoCAD Express Tool|expresstools@autodesk.com
 90
      127
280
     0
281
     1
  0
CLASS
  1
WIPEOUTVARIABLES
  2
AcDbWipeoutVariables
  3
WipeOut|AutoCAD Express Tool|expresstools@autodesk.com
 90
        0
280
     0
281
     0
  0
CLASS
  1
RTEXT
  2
RText
  3
RText|AutoCAD Express Tool|expresstools@autodesk.com
 90
        0
280
     0
281
     1
  0
CLASS
  1
ARCALIGNEDTEXT
  2
AcDbArcAlignedText
  3
ATEXT|AutoCAD Express Tool|expresstools@autodesk.com
 90
        0
280
     0
281
     1
  0
ENDSEC
  0
SECTION
  2
TABLES
  0
TABLE
  2
VPORT
  5
7
100
AcDbSymbolTable
 70
    16
  0
VPORT
  5
2C6
100
AcDbSymbolTableRecord
100
AcDbViewportTableRecord
  2
*ACTIVE
 70
     0
 10
0.0
 20
0.0
 11
1.0
 21
1.0
 12
0.0
 22
0.0
 13
0.0
 23
0.0
 14
1.0
 24
1.0
 15
0.0
 25
0.0
 16
0.718873
 26
-0.585049
 36
0.375419
 17
0.0
 27
0.0
 37
0.0
 40
47.08074
 41
0.688564
 42
50.0
 43
23.252014
 44
-23.252014
 50
0.0
 51
0.0
 71
    16
 72
   100
 73
     1
 74
     1
 75
     0
 76
     0
 77
     0
 78
     0
  0
VPORT
  5
2C7
100
AcDbSymbolTableRecord
100
AcDbViewportTableRecord
  2
L1
 70
     0
 10
0.0
 20
0.0
 11
1.0
 21
1.0
 12
0.0
 22
0.0
 13
0.0
 23
0.0
 14
1.0
 24
1.0
 15
0.0
 25
0.0
 16
0.718873
 26
-0.585049
 36
0.375419
 17
0.0
 27
0.0
 37
0.0
 40
47.08074
 41
0.688564
 42
50.0
 43
23.252014
 44
-23.252014
 50
0.0
 51
0.0
 71
    16
 72
   100
 73
     1
 74
     1
 75
     0
 76
     0
 77
     0
 78
     0
  0
VPORT
  5
2C8
100
AcDbSymbolTableRecord
100
AcDbViewportTableRecord
  2
L2
 70
     0
 10
0.0
 20
0.0
 11
0.5
 21
1.0
 12
0.0
 22
0.0
 13
0.0
 23
0.0
 14
1.0
 24
1.0
 15
0.0
 25
0.0
 16
0.0
 26
-1.0
 36
0.0
 17
0.0
 27
0.0
 37
0.0
 40
45.369784
 41
0.688564
 42
50.0
 43
23.453304
 44
-23.453304
 50
0.0
 51
0.0
 71
    16
 72
   100
 73
     1
 74
     1
 75
     0
 76
     0
 77
     0
 78
     0
  0
VPORT
  5
2C9
100
AcDbSymbolTableRecord
100
AcDbViewportTableRecord
  2
L2
 70
     0
 10
0.5
 20
0.0
 11
1.0
 21
1.0
 12
0.0
 22
0.0
 13
0.0
 23
0.0
 14
1.0
 24
1.0
 15
0.0
 25
0.0
 16
1.0
 26
0.0
 36
0.0
 17
0.0
 27
0.0
 37
0.0
 40
45.369784
 41
0.688564
 42
50.0
 43
22.923064
 44
-22.923064
 50
0.0
 51
0.0
 71
    16
 72
   100
 73
     1
 74
     1
 75
     0
 76
     0
 77
     0
 78
     0
  0
VPORT
  5
2CA
100
AcDbSymbolTableRecord
100
AcDbViewportTableRecord
  2
L3
 70
     0
 10
0.0
 20
0.5
 11
1.0
 21
1.0
 12
0.0
 22
0.0
 13
0.0
 23
0.0
 14
1.0
 24
1.0
 15
0.0
 25
0.0
 16
0.0
 26
0.0
 36
1.0
 17
0.0
 27
0.0
 37
0.0
 40
6.591676
 41
0.688564
 42
50.0
 43
22.684892
 44
-22.684892
 50
0.0
 51
0.0
 71
    16
 72
   100
 73
     1
 74
     1
 75
     0
 76
     0
 77
     0
 78
     0
  0
VPORT
  5
2CB
100
AcDbSymbolTableRecord
100
AcDbViewportTableRecord
  2
L3
 70
     0
 10
0.0
 20
0.0
 11
1.0
 21
0.5
 12
0.0
 22
0.0
 13
0.0
 23
0.0
 14
1.0
 24
1.0
 15
0.0
 25
0.0
 16
0.0
 26
-1.0
 36
0.0
 17
0.0
 27
0.0
 37
0.0
 40
45.369784
 41
0.688564
 42
50.0
 43
23.453304
 44
-23.453304
 50
0.0
 51
0.0
 71
    16
 72
   100
 73
     1
 74
     1
 75
     0
 76
     0
 77
     0
 78
     0
  0
VPORT
  5
2CC
100
AcDbSymbolTableRecord
100
AcDbViewportTableRecord
  2
L4
 70
     0
 10
0.0
 20
0.5
 11
0.5
 21
1.0
 12
0.0
 22
0.0
 13
0.0
 23
0.0
 14
1.0
 24
1.0
 15
0.0
 25
0.0
 16
0.0
 26
0.0
 36
1.0
 17
0.0
 27
0.0
 37
0.0
 40
6.591676
 41
0.688564
 42
50.0
 43
22.684892
 44
-22.684892
 50
0.0
 51
0.0
 71
    16
 72
   100
 73
     1
 74
     1
 75
     0
 76
     0
 77
     0
 78
     0
  0
VPORT
  5
2CD
100
AcDbSymbolTableRecord
100
AcDbViewportTableRecord
  2
L4
 70
     0
 10
0.0
 20
0.0
 11
0.5
 21
0.5
 12
0.0
 22
0.0
 13
0.0
 23
0.0
 14
1.0
 24
1.0
 15
0.0
 25
0.0
 16
0.0
 26
-1.0
 36
0.0
 17
0.0
 27
0.0
 37
0.0
 40
45.369784
 41
0.688564
 42
50.0
 43
23.453304
 44
-23.453304
 50
0.0
 51
0.0
 71
    16
 72
   100
 73
     1
 74
     1
 75
     0
 76
     0
 77
     0
 78
     0
  0
VPORT
  5
2CE
100
AcDbSymbolTableRecord
100
AcDbViewportTableRecord
  2
L4
 70
     0
 10
0.5
 20
0.0
 11
1.0
 21
0.5
 12
0.0
 22
0.0
 13
0.0
 23
0.0
 14
1.0
 24
1.0
 15
0.0
 25
0.0
 16
1.0
 26
0.0
 36
0.0
 17
0.0
 27
0.0
 37
0.0
 40
45.369784
 41
0.688564
 42
50.0
 43
22.923064
 44
-22.923064
 50
0.0
 51
0.0
 71
    16
 72
   100
 73
     1
 74
     1
 75
     0
 76
     0
 77
     0
 78
     0
  0
VPORT
  5
2CF
100
AcDbSymbolTableRecord
100
AcDbViewportTableRecord
  2
L4
 70
     0
 10
0.5
 20
0.5
 11
1.0
 21
1.0
 12
0.0
 22
0.0
 13
0.0
 23
0.0
 14
1.0
 24
1.0
 15
0.0
 25
0.0
 16
0.57735
 26
-0.57735
 36
0.57735
 17
0.0
 27
0.0
 37
0.0
 40
44.596943
 41
0.688564
 42
50.0
 43
23.237985
 44
-23.237985
 50
0.0
 51
0.0
 71
    16
 72
   100
 73
     1
 74
     1
 75
     0
 76
     0
 77
     0
 78
     0
  0
VPORT
  5
2D0
100
AcDbSymbolTableRecord
100
AcDbViewportTableRecord
  2
L6
 70
     0
 10
0.0
 20
0.5
 11
0.333333
 21
1.0
 12
0.0
 22
0.0
 13
0.0
 23
0.0
 14
1.0
 24
1.0
 15
0.0
 25
0.0
 16
0.718873
 26
-0.585049
 36
0.375419
 17
0.0
 27
0.0
 37
0.0
 40
47.08074
 41
0.688564
 42
50.0
 43
23.252014
 44
-23.252014
 50
0.0
 51
0.0
 71
    16
 72
   100
 73
     1
 74
     1
 75
     0
 76
     0
 77
     0
 78
     0
  0
VPORT
  5
2D1
100
AcDbSymbolTableRecord
100
AcDbViewportTableRecord
  2
L6
 70
     0
 10
0.0
 20
0.0
 11
0.333333
 21
0.5
 12
0.0
 22
0.0
 13
0.0
 23
0.0
 14
1.0
 24
1.0
 15
0.0
 25
0.0
 16
-1.0
 26
0.0
 36
0.0
 17
0.0
 27
0.0
 37
0.0
 40
45.369784
 41
0.688564
 42
50.0
 43
22.923064
 44
-22.923064
 50
0.0
 51
0.0
 71
    16
 72
   100
 73
     1
 74
     1
 75
     0
 76
     0
 77
     0
 78
     0
  0
VPORT
  5
2D2
100
AcDbSymbolTableRecord
100
AcDbViewportTableRecord
  2
L6
 70
     0
 10
0.333333
 20
0.5
 11
0.666667
 21
1.0
 12
0.0
 22
0.0
 13
0.0
 23
0.0
 14
1.0
 24
1.0
 15
0.0
 25
0.0
 16
0.0
 26
0.0
 36
1.0
 17
0.0
 27
0.0
 37
0.0
 40
6.591676
 41
0.688564
 42
50.0
 43
22.684892
 44
-22.684892
 50
0.0
 51
0.0
 71
    16
 72
   100
 73
     1
 74
     1
 75
     0
 76
     0
 77
     0
 78
     0
  0
VPORT
  5
2D3
100
AcDbSymbolTableRecord
100
AcDbViewportTableRecord
  2
L6
 70
     0
 10
0.333333
 20
0.0
 11
0.666667
 21
0.5
 12
0.0
 22
0.0
 13
0.0
 23
0.0
 14
1.0
 24
1.0
 15
0.0
 25
0.0
 16
0.0
 26
-1.0
 36
0.0
 17
0.0
 27
0.0
 37
0.0
 40
45.369784
 41
0.688564
 42
50.0
 43
23.453304
 44
-23.453304
 50
0.0
 51
0.0
 71
    16
 72
   100
 73
     1
 74
     1
 75
     0
 76
     0
 77
     0
 78
     0
  0
VPORT
  5
2D4
100
AcDbSymbolTableRecord
100
AcDbViewportTableRecord
  2
L6
 70
     0
 10
0.666667
 20
0.5
 11
1.0
 21
1.0
 12
0.0
 22
0.0
 13
0.0
 23
0.0
 14
1.0
 24
1.0
 15
0.0
 25
0.0
 16
0.57735
 26
-0.57735
 36
0.57735
 17
0.0
 27
0.0
 37
0.0
 40
44.596943
 41
0.688564
 42
50.0
 43
23.237985
 44
-23.237985
 50
0.0
 51
0.0
 71
    16
 72
   100
 73
     1
 74
     1
 75
     0
 76
     0
 77
     0
 78
     0
  0
VPORT
  5
2D5
100
AcDbSymbolTableRecord
100
AcDbViewportTableRecord
  2
L6
 70
     0
 10
0.666667
 20
0.0
 11
1.0
 21
0.5
 12
0.0
 22
0.0
 13
0.0
 23
0.0
 14
1.0
 24
1.0
 15
0.0
 25
0.0
 16
1.0
 26
0.0
 36
0.0
 17
0.0
 27
0.0
 37
0.0
 40
45.369784
 41
0.688564
 42
50.0
 43
22.923064
 44
-22.923064
 50
0.0
 51
0.0
 71
    16
 72
   100
 73
     1
 74
     1
 75
     0
 76
     0
 77
     0
 78
     0
  0
ENDTAB
  0
TABLE
  2
LTYPE
  5
4
100
AcDbSymbolTable
 70
     9
  0
LTYPE
  5
11
100
AcDbSymbolTableRecord
100
AcDbLinetypeTableRecord
  2
BYBLOCK
 70
    64
  3

 72
    65
 73
     0
 40
0.0
  0
LTYPE
  5
12
100
AcDbSymbolTableRecord
100
AcDbLinetypeTableRecord
  2
BYLAYER
 70
    64
  3

 72
    65
 73
     0
 40
0.0
  0
LTYPE
  5
13
100
AcDbSymbolTableRecord
100
AcDbLinetypeTableRecord
  2
CONTINUOUS
 70
    64
  3
Solid line
 72
    65
 73
     0
 40
0.0
  0
LTYPE
  5
24
100
AcDbSymbolTableRecord
100
AcDbLinetypeTableRecord
  2
DASHED
 70
    64
  3
__ __ __ __ __ __ __ __ __
 72
    65
 73
     2
 40
25.72
 49
12.86
 74
     0
 49
-12.86
 74
     0
  0
LTYPE
  5
25
100
AcDbSymbolTableRecord
100
AcDbLinetypeTableRecord
  2
HIDDEN
 70
    64
  3
_ _ _ _ _ _ _ _ _ _ _ _ _ _ _
 72
    65
 73
     2
 40
0.5
 49
0.25
 74
     0
 49
-0.25
 74
     0
  0
LTYPE
  5
26
100
AcDbSymbolTableRecord
100
AcDbLinetypeTableRecord
  2
PHANTOM
 70
    64
  3
____ _ _ ____ _ _ _____ _ _ ____
 72
    65
 73
     6
 40
50.5
 49
18.0
 74
     0
 49
-6.5
 74
     0
 49
6.5
 74
     0
 49
-6.5
 74
     0
 49
6.5
 74
     0
 49
-6.5
 74
     0
  0
LTYPE
  5
27
100
AcDbSymbolTableRecord
100
AcDbLinetypeTableRecord
  2
CENTER
 70
    64
  3
____ _ ____ _ ____ _ ____
 72
    65
 73
     4
 40
47.5
 49
22.0
 74
     0
 49
-8.5
 74
     0
 49
8.5
 74
     0
 49
-8.5
 74
     0
  0
LTYPE
  5
28
100
AcDbSymbolTableRecord
100
AcDbLinetypeTableRecord
  2
DOT
 70
    64
  3
.........................
 72
    65
 73
     2
 40
10.0
 49
0.0
 74
     0
 49
-10.0
 74
     0
  0
LTYPE
  5
29
100
AcDbSymbolTableRecord
100
AcDbLinetypeTableRecord
  2
DASHDOT
 70
    64
  3
_._._._._._._._._._._._._._._._.
 72
    65
 73
     4
 40
70.0
 49
31.0
 74
     0
 49
-13.0
 74
     0
 49
13.0
 74
     0
 49
-13.0
 74
     0
  0
ENDTAB
  0
TABLE
  2
LAYER
  5
2
100
AcDbSymbolTable
 70
     2
  0
LAYER
  5
14
100
AcDbSymbolTableRecord
100
AcDbLayerTableRecord
  2
0
 70
     0
 62
     7
  6
CONTINUOUS
  0
LAYER
  5
34
100
AcDbSymbolTableRecord
100
AcDbLayerTableRecord
  2
1
 70
     0
 62
     7
  6
CONTINUOUS
  0
ENDTAB
  0
TABLE
  2
STYLE
  5
3
100
AcDbSymbolTable
 70
     1
  0
STYLE
  5
17
100
AcDbSymbolTableRecord
100
AcDbTextStyleTableRecord
  2
STANDARD
 70
     0
 40
0.0
 41
1.0
 50
0.0
 71
     0
 42
0.0
  3
txt
  4

  0
ENDTAB
  0
TABLE
  2
VIEW
  5
5
100
AcDbSymbolTable
 70
     8
  0
VIEW
  5
2A
100
AcDbSymbolTableRecord
100
AcDbViewTableRecord
  2
TOP
 70
     0
 40
6.591676
 10
0.0
 20
0.0
 41
11.908511
 11
0.0
 21
0.0
 31
1.0
 12
0.0
 22
0.0
 32
0.0
 42
50.0
 43
22.684892
 44
-22.684892
 50
0.0
 71
    16
  0
VIEW
  5
2B
100
AcDbSymbolTableRecord
100
AcDbViewTableRecord
  2
FRONT
 70
     0
 40
45.369784
 10
0.0
 20
0.0
 41
11.908511
 11
0.0
 21
-1.0
 31
0.0
 12
0.0
 22
0.0
 32
0.0
 42
50.0
 43
23.453304
 44
-23.453304
 50
0.0
 71
    16
  0
VIEW
  5
2C
100
AcDbSymbolTableRecord
100
AcDbViewTableRecord
  2
RIGHT
 70
     0
 40
45.369784
 10
0.0
 20
0.0
 41
6.591676
 11
1.0
 21
0.0
 31
0.0
 12
0.0
 22
0.0
 32
0.0
 42
50.0
 43
22.923064
 44
-22.923064
 50
0.0
 71
    16
  0
VIEW
  5
2D
100
AcDbSymbolTableRecord
100
AcDbViewTableRecord
  2
BACK
 70
     0
 40
45.369784
 10
0.0
 20
0.0
 41
11.908511
 11
0.0
 21
1.0
 31
0.0
 12
0.0
 22
0.0
 32
0.0
 42
50.0
 43
23.453304
 44
-23.453304
 50
0.0
 71
    16
  0
VIEW
  5
2E
100
AcDbSymbolTableRecord
100
AcDbViewTableRecord
  2
BOTTOM
 70
     0
 40
6.591676
 10
0.0
 20
0.0
 41
11.908511
 11
0.0
 21
0.0
 31
-1.0
 12
0.0
 22
0.0
 32
0.0
 42
50.0
 43
22.684892
 44
-22.684892
 50
180.0
 71
    16
  0
VIEW
  5
2F
100
AcDbSymbolTableRecord
100
AcDbViewTableRecord
  2
LEFT
 70
     0
 40
45.369784
 10
0.0
 20
0.0
 41
6.591676
 11
-1.0
 21
0.0
 31
0.0
 12
0.0
 22
0.0
 32
0.0
 42
50.0
 43
22.923064
 44
-22.923064
 50
0.0
 71
    16
  0
VIEW
  5
30
100
AcDbSymbolTableRecord
100
AcDbViewTableRecord
  2
TFR-ISO
 70
     0
 40
44.596943
 10
0.0
 20
0.0
 41
13.081608
 11
0.57735
 21
-0.57735
 31
0.57735
 12
0.0
 22
0.0
 32
0.0
 42
50.0
 43
23.237985
 44
-23.237985
 50
0.0
 71
    16
  0
VIEW
  5
31
100
AcDbSymbolTableRecord
100
AcDbViewTableRecord
  2
TFR-TRI
 70
     0
 40
47.08074
 10
0.0
 20
0.0
 41
12.629414
 11
0.718873
 21
-0.585049
 31
0.375419
 12
0.0
 22
0.0
 32
0.0
 42
50.0
 43
23.252014
 44
-23.252014
 50
0.0
 71
    16
  0
ENDTAB
  0
TABLE
  2
UCS
  5
6
100
AcDbSymbolTable
 70
     0
  0
ENDTAB
  0
TABLE
  2
APPID
  5
8
100
AcDbSymbolTable
 70
     1
  0
APPID
  5
16
100
AcDbSymbolTableRecord
100
AcDbRegAppTableRecord
  2
ACAD
 70
     0
  0
ENDTAB
  0
TABLE
  2
DIMSTYLE
  5
9
100
AcDbSymbolTable
 70
     1
  0
DIMSTYLE
105
18
100
AcDbSymbolTableRecord
100
AcDbDimStyleTableRecord
  2
STANDARD
 70
     0
  3

  4

  5

  6

  7

 40
1.0
 41
0.18
 42
0.0625
 43
0.38
 44
0.18
 45
0.0
 46
0.0
 47
0.0
 48
0.0
 71
     0
 72
     0
 73
     1
 74
     1
 75
     0
 76
     0
 77
     0
 78
     0
140
0.18
141
0.09
142
0.0
143
25.4
144
1.0
145
0.0
146
1.0
147
0.09
170
     0
171
     2
172
     0
173
     0
174
     0
175
     0
176
     0
177
     0
178
     0
270
     2
271
     4
272
     4
273
     2
274
     2
275
     0
280
     0
281
     0
282
     0
283
     1
284
     0
285
     0
286
     0
287
     3
288
     0
340
17
  0
ENDTAB
  0
TABLE
  2
BLOCK_RECORD
  5
1
100
AcDbSymbolTable
 70
     0
  0
BLOCK_RECORD
  5
A
100
AcDbSymbolTableRecord
100
AcDbBlockTableRecord
  2
*MODEL_SPACE
  0
BLOCK_RECORD
  5
B
100
AcDbSymbolTableRecord
100
AcDbBlockTableRecord
  2
*PAPER_SPACE
  0
ENDTAB
  0
ENDSEC
  0
SECTION
  2
BLOCKS
  0
BLOCK
  5
D
100
AcDbEntity
  8
0
100
AcDbBlockBegin
  2
*MODEL_SPACE
 70
     0
 10
0.0
 20
0.0
 30
0.0
  3
*MODEL_SPACE
  1

  0
ENDBLK
  5
E
100
AcDbEntity
  8
0
100
AcDbBlockEnd
  0
BLOCK
  5
F
100
AcDbEntity
 67
     1
  8
0
100
AcDbBlockBegin
  2
*PAPER_SPACE
 70
     0
 10
0.0
 20
0.0
 30
0.0
  3
*PAPER_SPACE
  1

  0
ENDBLK
  5
10
100
AcDbEntity
 67
     1
  8
0
100
AcDbBlockEnd
  0
ENDSEC
  0
SECTION
  2
ENTITIES
  0
VIEWPORT
  5
32
100
AcDbEntity
 67
     1
  8
0
100
AcDbViewport
 10
17.0
 20
11.0
 30
0.0
 40
34.0
 41
22.0
 68
     1
 69
     1
1001
ACAD
1000
MVIEW
1002
{
1070
    16
1010
0.0
1020
0.0
1030
0.0
1010
0.0
1020
0.0
1030
1.0
1040
0.0
1040
22.0
1040
17.0
1040
11.0
1040
14.61569
1040
0.0
1040
0.0
1070
     0
1070
   100
1070
     0
1070
     1
1070
     0
1070
     0
1070
     0
1070
     0
1040
0.0
1040
0.0
1040
0.0
1040
0.0
1040
0.0
1040
0.0
1040
0.0
1070
     0
1002
{
1002
}
1002
}
  0
LINE
  5
33
100
AcDbEntity
 67
     1
  8
1
  6
CONTINUOUS
 62
    30
100
AcDbLine
 10
3.952516
 20
7.303396
 30
0.0
 11
4.124567
 21
7.303396
 31
0.0
  0
LINE
  5
35
100
AcDbEntity
 67
     1
  8
1
  6
CONTINUOUS
 62
    30
100
AcDbLine
 10
29.01515
 20
7.333396
 30
0.0
 11
29.01515
 21
7.303396
 31
0.0
  0
LINE
  5
36
100
AcDbEntity
 67
     1
  8
1
  6
CONTINUOUS
 62
    30
100
AcDbLine
 10
21.063564
 20
7.301396
 30
0.0
 11
21.063564
 21
7.271396
 31
0.0
  0
LINE
  5
37
100
AcDbEntity
 67
     1
  8
1
  6
CONTINUOUS
 62
    30
100
AcDbLine
 10
19.34487
 20
17.173687
 30
0.0
 11
15.034869
 21
17.173687
 31
0.0
  0
LINE
  5
38
100
AcDbEntity
 67
     1
  8
1
  6
CONTINUOUS
 62
    30
100
AcDbLine
 10
3.05784
 20
17.377501
 30
0.0
 11
3.062407
 21
17.377501
 31
0.0
  0
LINE
  5
39
100
AcDbEntity
 67
     1
  8
1
  6
CONTINUOUS
 62
    30
100
AcDbLine
 10
3.902797
 20
7.333396
 30
0.0
 11
3.924366
 21
7.333396
 31
0.0
  0
LINE
  5
3A
100
AcDbEntity
 67
     1
  8
1
  6
CONTINUOUS
 62
     1
100
AcDbLine
 10
7.901869
 20
7.256689
 30
0.0
 11
7.901869
 21
7.230708
 31
0.0
  0
LINE
  5
3B
100
AcDbEntity
 67
     1
  8
1
  6
CONTINUOUS
 62
    30
100
AcDbLine
 10
21.874859
 20
17.3785
 30
0.0
 11
21.851898
 21
17.3785
 31
0.0
  0
LINE
  5
3C
100
AcDbEntity
 67
     1
  8
1
  6
CONTINUOUS
 62
    30
100
AcDbLine
 10
3.512066
 20
17.377501
 30
0.0
 11
3.525073
 21
17.377501
 31
0.0
  0
LINE
  5
3D
100
AcDbEntity
 67
     1
  8
1
  6
CONTINUOUS
 62
    30
100
AcDbLine
 10
3.906174
 20
7.271396
 30
0.0
 11
3.769606
 21
7.271396
 31
0.0
  0
LINE
  5
3E
100
AcDbEntity
 67
     1
  8
1
  6
CONTINUOUS
 62
     1
100
AcDbLine
 10
28.87509
 20
7.303396
 30
0.0
 11
28.87509
 21
7.333396
 31
0.0
  0
LINE
  5
3F
100
AcDbEntity
 67
     1
  8
1
  6
CONTINUOUS
 62
    30
100
AcDbLine
 10
21.299099
 20
17.6425
 30
0.0
 11
21.328182
 21
17.6425
 31
0.0
  0
LINE
  5
40
100
AcDbEntity
 67
     1
  8
1
  6
CONTINUOUS
 62
    30
100
AcDbLine
 10
3.719887
 20
7.301396
 30
0.0
 11
3.748037
 21
7.301396
 31
0.0
  0
LINE
  5
41
100
AcDbEntity
 67
     1
  8
1
  6
CONTINUOUS
 62
    30
100
AcDbLine
 10
29.189167
 20
6.88097
 30
0.0
 11
29.189167
 21
6.900435
 31
0.0
  0
LINE
  5
42
100
AcDbEntity
 67
     1
  8
1
  6
CONTINUOUS
 62
    30
100
AcDbLine
 10
25.264458
 20
7.333396
 30
0.0
 11
25.25746
 21
7.333396
 31
0.0
  0
LINE
  5
43
100
AcDbEntity
 67
     1
  8
1
  6
CONTINUOUS
 62
    30
100
AcDbLine
 10
3.608724
 20
7.256396
 30
0.0
 11
3.57964
 21
7.256396
 31
0.0
  0
LINE
  5
44
100
AcDbEntity
 67
     1
  8
1
  6
CONTINUOUS
 62
    30
100
AcDbLine
 10
21.345098
 20
17.4235
 30
0.0
 11
21.375099
 21
17.4235
 31
0.0
  0
LINE
  5
45
100
AcDbEntity
 67
     1
  8
1
  6
CONTINUOUS
 62
    30
100
AcDbLine
 10
19.34487
 20
7.333396
 30
0.0
 11
19.34487
 21
7.331386
 31
0.0
  0
LINE
  5
46
100
AcDbEntity
 67
     1
  8
1
  6
CONTINUOUS
 62
    30
100
AcDbLine
 10
9.934869
 20
7.325896
 30
0.0
 11
8.246831
 21
7.325896
 31
0.0
  0
LINE
  5
47
100
AcDbEntity
 67
     1
  8
1
  6
CONTINUOUS
 62
    30
100
AcDbLine
 10
28.871399
 20
7.333396
 30
0.0
 11
28.842163
 21
7.333396
 31
0.0
  0
LINE
  5
48
100
AcDbEntity
 67
     1
  8
1
  6
CONTINUOUS
 62
    30
100
AcDbLine
 10
21.344099
 20
17.4235
 30
0.0
 11
21.314098
 21
17.4235
 31
0.0
  0
LINE
  5
49
100
AcDbEntity
 67
     1
  8
1
  6
CONTINUOUS
 62
    30
100
AcDbLine
 10
15.034869
 20
7.331386
 30
0.0
 11
15.034869
 21
7.325896
 31
0.0
  0
LINE
  5
4A
100
AcDbEntity
 67
     1
  8
1
  6
CONTINUOUS
 62
    30
100
AcDbLine
 10
28.935381
 20
7.363396
 30
0.0
 11
28.930897
 21
7.363396
 31
0.0
  0
LINE
  5
4B
100
AcDbEntity
 67
     1
  8
1
  6
CONTINUOUS
 62
    30
100
AcDbLine
 10
21.444666
 20
17.377501
 30
0.0
 11
21.457672
 21
17.377501
 31
0.0
  0
LINE
  5
4C
100
AcDbEntity
 67
     1
  8
1
  6
CONTINUOUS
 62
    30
100
AcDbLine
 10
19.356417
 20
7.303396
 30
0.0
 11
20.819815
 21
7.303396
 31
0.0
  0
LINE
  5
4D
100
AcDbEntity
 67
     1
  8
1
  6
CONTINUOUS
 62
    30
100
AcDbLine
 10
28.784544
 20
7.363396
 30
0.0
 11
28.761326
 21
7.363396
 31
0.0
  0
LINE
  5
4E
100
AcDbEntity
 67
     1
  8
1
  6
CONTINUOUS
 62
     1
100
AcDbLine
 10
28.439482
 20
7.320216
 30
0.0
 11
28.384134
 21
7.264867
 31
0.0
  0
LINE
  5
4F
100
AcDbEntity
 67
     1
  8
1
  6
CONTINUOUS
 62
    30
100
AcDbLine
 10
21.907331
 20
17.377501
 30
0.0
 11
21.911898
 21
17.377501
 31
0.0
  0
LINE
  5
50
100
AcDbEntity
 67
     1
  8
1
  6
CONTINUOUS
 62
    30
100
AcDbLine
 10
21.200132
 20
7.303396
 30
0.0
 11
21.200132
 21
7.333396
 31
0.0
  0
LINE
  5
51
100
AcDbEntity
 67
     1
  8
1
  6
CONTINUOUS
 62
    30
100
AcDbLine
 10
4.136415
 20
7.333396
 30
0.0
 11
4.12475
 21
7.333396
 31
0.0
  0
LINE
  5
52
100
AcDbEntity
 67
     1
  8
1
  6
CONTINUOUS
 62
    30
100
AcDbLine
 10
21.477137
 20
17.3475
 30
0.0
 11
21.457672
 21
17.3475
 31
0.0
  0
LINE
  5
53
100
AcDbEntity
 67
     1
  8
1
  6
CONTINUOUS
 62
    30
100
AcDbLine
 10
3.719887
 20
7.303396
 30
0.0
 11
3.719887
 21
7.333396
 31
0.0
  0
LINE
  5
54
100
AcDbEntity
 67
     1
  8
1
  6
CONTINUOUS
 62
    30
100
AcDbLine
 10
29.189167
 20
6.900435
 30
0.0
 11
29.189167
 21
6.923396
 31
0.0
  0
LINE
  5
55
100
AcDbEntity
 67
     1
  8
1
  6
CONTINUOUS
 62
    30
100
AcDbLine
 10
3.46964
 20
17.3475
 30
0.0
 11
3.46964
 21
17.377501
 31
0.0
  0
LINE
  5
56
100
AcDbEntity
 67
     1
  8
1
  6
CONTINUOUS
 62
    30
100
AcDbLine
 10
4.149924
 20
7.333396
 30
0.0
 11
4.149924
 21
7.303396
 31
0.0
  0
LINE
  5
57
100
AcDbEntity
 67
     1
  8
1
  6
CONTINUOUS
 62
    30
100
AcDbLine
 10
30.058167
 20
7.303396
 30
0.0
 11
30.058167
 21
7.333396
 31
0.0
  0
LINE
  5
58
100
AcDbEntity
 67
     1
  8
1
  6
CONTINUOUS
 62
    30
100
AcDbLine
 10
29.219166
 20
6.923396
 30
0.0
 11
29.219166
 21
6.900435
 31
0.0
  0
LINE
  5
59
100
AcDbEntity
 67
     1
  8
1
  6
CONTINUOUS
 62
    30
100
AcDbLine
 10
21.063564
 20
7.271396
 30
0.0
 11
21.041994
 21
7.271396
 31
0.0
  0
LINE
  5
5A
100
AcDbEntity
 67
     1
  8
1
  6
CONTINUOUS
 62
    30
100
AcDbLine
 10
19.356417
 20
7.303396
 30
0.0
 11
19.348087
 21
7.303396
 31
0.0
  0
LINE
  5
5B
100
AcDbEntity
 67
     1
  8
1
  6
CONTINUOUS
 62
    30
100
AcDbLine
 10
29.219166
 20
7.295357
 30
0.0
 11
29.219166
 21
7.272396
 31
0.0
  0
LINE
  5
5C
100
AcDbEntity
 67
     1
  8
1
  6
CONTINUOUS
 62
    30
100
AcDbLine
 10
21.299099
 20
7.302396
 30
0.0
 11
21.299099
 21
7.301396
 31
0.0
  0
LINE
  5
5D
100
AcDbEntity
 67
     1
  8
1
  6
CONTINUOUS
 62
    30
100
AcDbLine
 10
3.67064
 20
17.6425
 30
0.0
 11
3.719887
 21
17.6425
 31
0.0
  0
LINE
  5
5E
100
AcDbEntity
 67
     1
  8
1
  6
CONTINUOUS
 62
     1
100
AcDbLine
 10
8.003768
 20
7.231938
 30
0.0
 11
8.121869
 21
7.231938
 31
0.0
  0
LINE
  5
5F
100
AcDbEntity
 67
     1
  8
1
  6
CONTINUOUS
 62
    30
100
AcDbLine
 10
29.453167
 20
7.333396
 30
0.0
 11
30.008165
 21
7.333396
 31
0.0
  0
LINE
  5
60
100
AcDbEntity
 67
     1
  8
1
  6
CONTINUOUS
 62
     1
100
AcDbLine
 10
7.776869
 20
7.303396
 30
0.0
 11
7.761869
 21
7.303396
 31
0.0
  0
LINE
  5
61
100
AcDbEntity
 67
     1
  8
1
  6
CONTINUOUS
 62
    30
100
AcDbLine
 10
9.934869
 20
18.247501
 30
0.0
 11
3.67064
 21
18.247501
 31
0.0
  0
LINE
  5
62
100
AcDbEntity
 67
     1
  8
1
  6
CONTINUOUS
 62
    30
100
AcDbLine
 10
30.008165
 20
7.311136
 30
0.0
 11
30.008165
 21
7.28648
 31
0.0
  0
LINE
  5
63
100
AcDbEntity
 67
     1
  8
1
  6
CONTINUOUS
 62
     1
100
AcDbLine
 10
7.871869
 20
7.320216
 30
0.0
 11
8.121869
 21
7.320216
 31
0.0
  0
LINE
  5
64
100
AcDbEntity
 67
     1
  8
1
  6
CONTINUOUS
 62
    30
100
AcDbLine
 10
3.67064
 20
18.263
 30
0.0
 11
3.67064
 21
18.274347
 31
0.0
  0
LINE
  5
65
100
AcDbEntity
 67
     1
  8
1
  6
CONTINUOUS
 62
    30
100
AcDbLine
 10
9.934869
 20
18.2785
 30
0.0
 11
3.67064
 21
18.2785
 31
0.0
  0
LINE
  5
66
100
AcDbEntity
 67
     1
  8
1
  6
CONTINUOUS
 62
    30
100
AcDbLine
 10
30.008165
 20
7.257396
 30
0.0
 11
30.008165
 21
7.023396
 31
0.0
  0
LINE
  5
67
100
AcDbEntity
 67
     1
  8
1
  6
CONTINUOUS
 62
     1
100
AcDbLine
 10
7.889721
 20
7.231993
 30
0.0
 11
7.871869
 21
7.231993
 31
0.0
  0
LINE
  5
68
100
AcDbEntity
 67
     1
  8
1
  6
CONTINUOUS
 62
    30
100
AcDbLine
 10
20.845171
 20
17.8925
 30
0.0
 11
21.017221
 21
17.8925
 31
0.0
  0
LINE
  5
69
100
AcDbEntity
 67
     1
  8
1
  6
CONTINUOUS
 62
    30
100
AcDbLine
 10
29.22356
 20
6.863396
 30
0.0
 11
29.219166
 21
6.863396
 31
0.0
  0
LINE
  5
6A
100
AcDbEntity
 67
     1
  8
1
  6
CONTINUOUS
 62
     1
100
AcDbLine
 10
7.871869
 20
7.314184
 30
0.0
 11
7.871869
 21
7.309689
 31
0.0
  0
LINE
  5
6B
100
AcDbEntity
 67
     1
  8
1
  6
CONTINUOUS
 62
    30
100
AcDbLine
 10
21.299099
 20
18.2785
 30
0.0
 11
15.034869
 21
18.2785
 31
0.0
  0
LINE
  5
6C
100
AcDbEntity
 67
     1
  8
1
  6
CONTINUOUS
 62
     1
100
AcDbLine
 10
7.991869
 20
7.256689
 30
0.0
 11
8.006869
 21
7.258698
 31
0.0
  0
LINE
  5
6D
100
AcDbEntity
 67
     1
  8
1
  6
CONTINUOUS
 62
    30
100
AcDbLine
 10
29.188166
 20
6.88097
 30
0.0
 11
29.188166
 21
6.867963
 31
0.0
  0
LINE
  5
6E
100
AcDbEntity
 67
     1
  8
1
  6
CONTINUOUS
 62
     1
100
AcDbLine
 10
27.86264
 20
7.288885
 30
0.0
 11
27.351816
 21
7.315656
 31
0.0
  0
LINE
  5
6F
100
AcDbEntity
 67
     1
  8
1
  6
CONTINUOUS
 62
    30
100
AcDbLine
 10
21.457672
 20
17.408501
 30
0.0
 11
21.477137
 21
17.408501
 31
0.0
  0
LINE
  5
70
100
AcDbEntity
 67
     1
  8
1
  6
CONTINUOUS
 62
    30
100
AcDbLine
 10
29.158167
 20
6.867963
 30
0.0
 11
29.158167
 21
6.88097
 31
0.0
  0
LINE
  5
71
100
AcDbEntity
 67
     1
  8
1
  6
CONTINUOUS
 62
    30
100
AcDbLine
 10
3.57964
 20
17.3785
 30
0.0
 11
3.52964
 21
17.3785
 31
0.0
  0
LINE
  5
72
100
AcDbEntity
 67
     1
  8
1
  6
CONTINUOUS
 62
     1
100
AcDbLine
 10
7.875888
 20
7.238208
 30
0.0
 11
7.871869
 21
7.245708
 31
0.0
  0
LINE
  5
73
100
AcDbEntity
 67
     1
  8
1
  6
CONTINUOUS
 62
    30
100
AcDbLine
 10
5.621651
 20
7.303396
 30
0.0
 11
5.613321
 21
7.303396
 31
0.0
  0
LINE
  5
74
100
AcDbEntity
 67
     1
  8
1
  6
CONTINUOUS
 62
    30
100
AcDbLine
 10
3.094879
 20
17.3785
 30
0.0
 11
3.075413
 21
17.3785
 31
0.0
  0
LINE
  5
75
100
AcDbEntity
 67
     1
  8
1
  6
CONTINUOUS
 62
     1
100
AcDbLine
 10
7.776869
 20
7.333396
 30
0.0
 11
7.776869
 21
7.303396
 31
0.0
  0
LINE
  5
76
100
AcDbEntity
 67
     1
  8
1
  6
CONTINUOUS
 62
    30
100
AcDbLine
 10
3.11784
 20
17.408501
 30
0.0
 11
3.46964
 21
17.408501
 31
0.0
  0
LINE
  5
77
100
AcDbEntity
 67
     1
  8
1
  6
CONTINUOUS
 62
    30
100
AcDbLine
 10
21.319883
 20
7.256396
 30
0.0
 11
21.336359
 21
7.256396
 31
0.0
  0
LINE
  5
78
100
AcDbEntity
 67
     1
  8
1
  6
CONTINUOUS
 62
    30
100
AcDbLine
 10
3.11784
 20
7.332396
 30
0.0
 11
3.46964
 21
7.332396
 31
0.0
  0
LINE
  5
79
100
AcDbEntity
 67
     1
  8
1
  6
CONTINUOUS
 62
    30
100
AcDbLine
 10
3.57964
 20
17.3475
 30
0.0
 11
3.52964
 21
17.3475
 31
0.0
  0
LINE
  5
7A
100
AcDbEntity
 67
     1
  8
1
  6
CONTINUOUS
 62
    30
100
AcDbLine
 10
3.65564
 20
7.256396
 30
0.0
 11
3.65564
 21
6.863396
 31
0.0
  0
LINE
  5
7B
100
AcDbEntity
 67
     1
  8
1
  6
CONTINUOUS
 62
    30
100
AcDbLine
 10
4.178493
 20
7.333396
 30
0.0
 11
4.15482
 21
7.333396
 31
0.0
  0
LINE
  5
7C
100
AcDbEntity
 67
     1
  8
1
  6
CONTINUOUS
 62
    30
100
AcDbLine
 10
20.844988
 20
7.333396
 30
0.0
 11
20.833323
 21
7.333396
 31
0.0
  0
LINE
  5
7D
100
AcDbEntity
 67
     1
  8
1
  6
CONTINUOUS
 62
    30
100
AcDbLine
 10
21.440098
 20
17.3785
 30
0.0
 11
21.440098
 21
17.408501
 31
0.0
  0
LINE
  5
7E
100
AcDbEntity
 67
     1
  8
1
  6
CONTINUOUS
 62
    30
100
AcDbLine
 10
20.814919
 20
7.363396
 30
0.0
 11
20.791245
 21
7.363396
 31
0.0
  0
LINE
  5
7F
100
AcDbEntity
 67
     1
  8
1
  6
CONTINUOUS
 62
    30
100
AcDbLine
 10
21.299099
 20
18.247501
 30
0.0
 11
21.299099
 21
18.263
 31
0.0
  0
LINE
  5
80
100
AcDbEntity
 67
     1
  8
1
  6
CONTINUOUS
 62
    30
100
AcDbLine
 10
9.934869
 20
7.303396
 30
0.0
 11
8.24683
 21
7.303396
 31
0.0
  0
LINE
  5
81
100
AcDbEntity
 67
     1
  8
1
  6
CONTINUOUS
 62
    30
100
AcDbLine
 10
9.934869
 20
17.134716
 30
0.0
 11
9.934869
 21
17.157215
 31
0.0
  0
LINE
  5
82
100
AcDbEntity
 67
     1
  8
1
  6
CONTINUOUS
 62
    30
100
AcDbLine
 10
3.641556
 20
17.6425
 30
0.0
 11
3.6169
 21
17.6425
 31
0.0
  0
LINE
  5
83
100
AcDbEntity
 67
     1
  8
1
  6
CONTINUOUS
 62
     1
100
AcDbLine
 10
8.021869
 20
7.309689
 30
0.0
 11
8.021869
 21
7.271688
 31
0.0
  0
LINE
  5
84
100
AcDbEntity
 67
     1
  8
1
  6
CONTINUOUS
 62
    30
100
AcDbLine
 10
19.34487
 20
17.157215
 30
0.0
 11
19.34487
 21
17.134716
 31
0.0
  0
LINE
  5
85
100
AcDbEntity
 67
     1
  8
1
  6
CONTINUOUS
 62
    30
100
AcDbLine
 10
3.955894
 20
7.301396
 30
0.0
 11
3.955894
 21
7.271396
 31
0.0
  0
LINE
  5
86
100
AcDbEntity
 67
     1
  8
1
  6
CONTINUOUS
 62
    30
100
AcDbLine
 10
3.65564
 20
17.6425
 30
0.0
 11
3.65564
 21
17.4235
 31
0.0
  0
LINE
  5
87
100
AcDbEntity
 67
     1
  8
1
  6
CONTINUOUS
 62
    30
100
AcDbLine
 10
3.67064
 20
7.303396
 30
0.0
 11
3.719887
 21
7.303396
 31
0.0
  0
LINE
  5
88
100
AcDbEntity
 67
     1
  8
1
  6
CONTINUOUS
 62
    30
100
AcDbLine
 10
3.492601
 20
17.3475
 30
0.0
 11
3.46964
 21
17.3475
 31
0.0
  0
LINE
  5
89
100
AcDbEntity
 67
     1
  8
1
  6
CONTINUOUS
 62
    30
100
AcDbLine
 10
3.952516
 20
7.303396
 30
0.0
 11
3.924366
 21
7.303396
 31
0.0
  0
LINE
  5
8A
100
AcDbEntity
 67
     1
  8
1
  6
CONTINUOUS
 62
    30
100
AcDbLine
 10
21.041994
 20
7.301396
 30
0.0
 11
21.063564
 21
7.301396
 31
0.0
  0
LINE
  5
8B
100
AcDbEntity
 67
     1
  8
1
  6
CONTINUOUS
 62
    30
100
AcDbLine
 10
28.744749
 20
7.363396
 30
0.0
 11
25.264458
 21
7.363396
 31
0.0
  0
LINE
  5
8C
100
AcDbEntity
 67
     1
  8
1
  6
CONTINUOUS
 62
    30
100
AcDbLine
 10
19.34487
 20
17.186359
 30
0.0
 11
19.344872
 21
17.186676
 31
0.0
  0
LINE
  5
8D
100
AcDbEntity
 67
     1
  8
1
  6
CONTINUOUS
 62
    30
100
AcDbLine
 10
3.062407
 20
17.377501
 30
0.0
 11
3.075413
 21
17.377501
 31
0.0
  0
LINE
  5
8E
100
AcDbEntity
 67
     1
  8
1
  6
CONTINUOUS
 62
    30
100
AcDbLine
 10
3.924366
 20
7.333396
 30
0.0
 11
3.952516
 21
7.333396
 31
0.0
  0
LINE
  5
8F
100
AcDbEntity
 67
     1
  8
1
  6
CONTINUOUS
 62
    30
100
AcDbLine
 10
28.871399
 20
7.363396
 30
0.0
 11
28.842163
 21
7.363396
 31
0.0
  0
LINE
  5
90
100
AcDbEntity
 67
     1
  8
1
  6
CONTINUOUS
 62
     1
100
AcDbLine
 10
27.276142
 20
7.245708
 30
0.0
 11
27.341961
 21
7.283708
 31
0.0
  0
LINE
  5
91
100
AcDbEntity
 67
     1
  8
1
  6
CONTINUOUS
 62
     1
100
AcDbLine
 10
27.263153
 20
7.238208
 30
0.0
 11
27.253643
 21
7.232718
 31
0.0
  0
LINE
  5
92
100
AcDbEntity
 67
     1
  8
1
  6
CONTINUOUS
 62
    30
100
AcDbLine
 10
21.851898
 20
17.3785
 30
0.0
 11
21.500099
 21
17.3785
 31
0.0
  0
LINE
  5
93
100
AcDbEntity
 67
     1
  8
1
  6
CONTINUOUS
 62
    30
100
AcDbLine
 10
3.525073
 20
17.377501
 30
0.0
 11
3.52964
 21
17.377501
 31
0.0
  0
LINE
  5
94
100
AcDbEntity
 67
     1
  8
1
  6
CONTINUOUS
 62
     1
100
AcDbLine
 10
28.471302
 20
7.303396
 30
0.0
 11
28.471302
 21
7.333396
 31
0.0
  0
LINE
  5
95
100
AcDbEntity
 67
     1
  8
1
  6
CONTINUOUS
 62
    30
100
AcDbLine
 10
3.608724
 20
6.863396
 30
0.0
 11
3.57964
 21
6.863396
 31
0.0
  0
LINE
  5
96
100
AcDbEntity
 67
     1
  8
1
  6
CONTINUOUS
 62
    30
100
AcDbLine
 10
21.328182
 20
17.6425
 30
0.0
 11
21.352839
 21
17.6425
 31
0.0
  0
LINE
  5
97
100
AcDbEntity
 67
     1
  8
1
  6
CONTINUOUS
 62
    30
100
AcDbLine
 10
3.748037
 20
7.301396
 30
0.0
 11
3.769606
 21
7.301396
 31
0.0
  0
LINE
  5
98
100
AcDbEntity
 67
     1
  8
1
  6
CONTINUOUS
 62
    30
100
AcDbLine
 10
25.25746
 20
7.333396
 30
0.0
 11
25.255089
 21
7.333396
 31
0.0
  0
LINE
  5
99
100
AcDbEntity
 67
     1
  8
1
  6
CONTINUOUS
 62
    30
100
AcDbLine
 10
19.34487
 20
7.331386
 30
0.0
 11
19.34487
 21
7.325896
 31
0.0
  0
LINE
  5
9A
100
AcDbEntity
 67
     1
  8
1
  6
CONTINUOUS
 62
    30
100
AcDbLine
 10
28.842163
 20
7.333396
 30
0.0
 11
28.812319
 21
7.333396
 31
0.0
  0
LINE
  5
9B
100
AcDbEntity
 67
     1
  8
1
  6
CONTINUOUS
 62
    30
100
AcDbLine
 10
9.934869
 20
17.134716
 30
0.0
 11
9.934869
 21
17.124716
 31
0.0
  0
LINE
  5
9C
100
AcDbEntity
 67
     1
  8
1
  6
CONTINUOUS
 62
    30
100
AcDbLine
 10
3.57964
 20
7.256396
 30
0.0
 11
3.52964
 21
7.256396
 31
0.0
  0
LINE
  5
9D
100
AcDbEntity
 67
     1
  8
1
  6
CONTINUOUS
 62
    30
100
AcDbLine
 10
28.930897
 20
7.363396
 30
0.0
 11
28.917849
 21
7.363396
 31
0.0
  0
LINE
  5
9E
100
AcDbEntity
 67
     1
  8
1
  6
CONTINUOUS
 62
    30
100
AcDbLine
 10
13.307117
 20
7.333396
 30
0.0
 11
13.285473
 21
7.333396
 31
0.0
  0
LINE
  5
9F
100
AcDbEntity
 67
     1
  8
1
  6
CONTINUOUS
 62
    30
100
AcDbLine
 10
21.457672
 20
17.377501
 30
0.0
 11
21.477137
 21
17.377501
 31
0.0
  0
LINE
  5
A0
100
AcDbEntity
 67
     1
  8
1
  6
CONTINUOUS
 62
    30
100
AcDbLine
 10
28.761326
 20
7.363396
 30
0.0
 11
28.744749
 21
7.363396
 31
0.0
  0
LINE
  5
A1
100
AcDbEntity
 67
     1
  8
1
  6
CONTINUOUS
 62
    30
100
AcDbLine
 10
5.624866
 20
17.186676
 30
0.0
 11
5.624869
 21
17.186359
 31
0.0
  0
LINE
  5
A2
100
AcDbEntity
 67
     1
  8
1
  6
CONTINUOUS
 62
    30
100
AcDbLine
 10
21.911898
 20
17.3475
 30
0.0
 11
21.907331
 21
17.3475
 31
0.0
  0
LINE
  5
A3
100
AcDbEntity
 67
     1
  8
1
  6
CONTINUOUS
 62
    30
100
AcDbLine
 10
29.158167
 20
7.332396
 30
0.0
 11
29.188166
 21
7.332396
 31
0.0
  0
LINE
  5
A4
100
AcDbEntity
 67
     1
  8
1
  6
CONTINUOUS
 62
    30
100
AcDbLine
 10
21.066942
 20
7.333396
 30
0.0
 11
21.200132
 21
7.333396
 31
0.0
  0
LINE
  5
A5
100
AcDbEntity
 67
     1
  8
1
  6
CONTINUOUS
 62
    30
100
AcDbLine
 10
28.935381
 20
7.333396
 30
0.0
 11
28.935381
 21
7.363396
 31
0.0
  0
LINE
  5
A6
100
AcDbEntity
 67
     1
  8
1
  6
CONTINUOUS
 62
    30
100
AcDbLine
 10
21.457672
 20
17.3475
 30
0.0
 11
21.444666
 21
17.3475
 31
0.0
  0
LINE
  5
A7
100
AcDbEntity
 67
     1
  8
1
  6
CONTINUOUS
 62
    30
100
AcDbLine
 10
3.67064
 20
7.303396
 30
0.0
 11
3.67064
 21
7.333396
 31
0.0
  0
LINE
  5
A8
100
AcDbEntity
 67
     1
  8
1
  6
CONTINUOUS
 62
    30
100
AcDbLine
 10
29.189167
 20
6.923396
 30
0.0
 11
29.189167
 21
7.272396
 31
0.0
  0
LINE
  5
A9
100
AcDbEntity
 67
     1
  8
1
  6
CONTINUOUS
 62
    30
100
AcDbLine
 10
15.034869
 20
7.303396
 30
0.0
 11
15.034869
 21
7.302396
 31
0.0
  0
LINE
  5
AA
100
AcDbEntity
 67
     1
  8
1
  6
CONTINUOUS
 62
    30
100
AcDbLine
 10
21.249851
 20
7.303396
 30
0.0
 11
21.221703
 21
7.303396
 31
0.0
  0
LINE
  5
AB
100
AcDbEntity
 67
     1
  8
1
  6
CONTINUOUS
 62
    30
100
AcDbLine
 10
29.219166
 20
6.900435
 30
0.0
 11
29.219166
 21
6.88097
 31
0.0
  0
LINE
  5
AC
100
AcDbEntity
 67
     1
  8
1
  6
CONTINUOUS
 62
    30
100
AcDbLine
 10
21.041994
 20
7.271396
 30
0.0
 11
21.013845
 21
7.271396
 31
0.0
  0
LINE
  5
AD
100
AcDbEntity
 67
     1
  8
1
  6
CONTINUOUS
 62
    30
100
AcDbLine
 10
19.348087
 20
7.303396
 30
0.0
 11
19.344872
 21
7.303396
 31
0.0
  0
LINE
  5
AE
100
AcDbEntity
 67
     1
  8
1
  6
CONTINUOUS
 62
    30
100
AcDbLine
 10
30.058167
 20
7.301396
 30
0.0
 11
30.008165
 21
7.301396
 31
0.0
  0
LINE
  5
AF
100
AcDbEntity
 67
     1
  8
1
  6
CONTINUOUS
 62
    30
100
AcDbLine
 10
21.500099
 20
17.377501
 30
0.0
 11
21.500099
 21
17.3475
 31
0.0
  0
LINE
  5
B0
100
AcDbEntity
 67
     1
  8
1
  6
CONTINUOUS
 62
     1
100
AcDbLine
 10
28.475321
 20
7.303396
 30
0.0
 11
28.471302
 21
7.303396
 31
0.0
  0
LINE
  5
B1
100
AcDbEntity
 67
     1
  8
1
  6
CONTINUOUS
 62
    30
100
AcDbLine
 10
3.769606
 20
7.271396
 30
0.0
 11
3.748037
 21
7.271396
 31
0.0
  0
LINE
  5
B2
100
AcDbEntity
 67
     1
  8
1
  6
CONTINUOUS
 62
     1
100
AcDbLine
 10
8.121869
 20
7.320216
 30
0.0
 11
8.121869
 21
7.27713
 31
0.0
  0
LINE
  5
B3
100
AcDbEntity
 67
     1
  8
1
  6
CONTINUOUS
 62
    30
100
AcDbLine
 10
21.851898
 20
17.3785
 30
0.0
 11
21.851898
 21
17.408501
 31
0.0
  0
LINE
  5
B4
100
AcDbEntity
 67
     1
  8
1
  6
CONTINUOUS
 62
    30
100
AcDbLine
 10
28.997343
 20
7.333396
 30
0.0
 11
29.007904
 21
7.333396
 31
0.0
  0
LINE
  5
B5
100
AcDbEntity
 67
     1
  8
1
  6
CONTINUOUS
 62
     1
100
AcDbLine
 10
7.761869
 20
7.303396
 30
0.0
 11
7.750888
 21
7.303396
 31
0.0
  0
LINE
  5
B6
100
AcDbEntity
 67
     1
  8
1
  6
CONTINUOUS
 62
    30
100
AcDbLine
 10
3.67064
 20
18.247501
 30
0.0
 11
3.67064
 21
18.1975
 31
0.0
  0
LINE
  5
B7
100
AcDbEntity
 67
     1
  8
1
  6
CONTINUOUS
 62
    30
100
AcDbLine
 10
30.008165
 20
7.28648
 30
0.0
 11
30.008165
 21
7.257396
 31
0.0
  0
LINE
  5
B8
100
AcDbEntity
 67
     1
  8
1
  6
CONTINUOUS
 62
     1
100
AcDbLine
 10
7.871869
 20
7.320216
 30
0.0
 11
7.871869
 21
7.315717
 31
0.0
  0
LINE
  5
B9
100
AcDbEntity
 67
     1
  8
1
  6
CONTINUOUS
 62
    30
100
AcDbLine
 10
3.67064
 20
18.274347
 30
0.0
 11
3.67064
 21
18.2785
 31
0.0
  0
LINE
  5
BA
100
AcDbEntity
 67
     1
  8
1
  6
CONTINUOUS
 62
    30
100
AcDbLine
 10
21.361015
 20
6.863396
 30
0.0
 11
21.390099
 21
6.863396
 31
0.0
  0
LINE
  5
BB
100
AcDbEntity
 67
     1
  8
1
  6
CONTINUOUS
 62
    30
100
AcDbLine
 10
29.453167
 20
7.257396
 30
0.0
 11
29.453167
 21
7.256396
 31
0.0
  0
LINE
  5
BC
100
AcDbEntity
 67
     1
  8
1
  6
CONTINUOUS
 62
     1
100
AcDbLine
 10
8.121869
 20
7.247171
 30
0.0
 11
8.121869
 21
7.27713
 31
0.0
  0
LINE
  5
BD
100
AcDbEntity
 67
     1
  8
1
  6
CONTINUOUS
 62
    30
100
AcDbLine
 10
19.344872
 20
17.186676
 30
0.0
 11
15.034869
 21
17.186676
 31
0.0
  0
LINE
  5
BE
100
AcDbEntity
 67
     1
  8
1
  6
CONTINUOUS
 62
    30
100
AcDbLine
 10
29.234165
 20
7.256396
 30
0.0
 11
29.22356
 21
7.256396
 31
0.0
  0
LINE
  5
BF
100
AcDbEntity
 67
     1
  8
1
  6
CONTINUOUS
 62
     1
100
AcDbLine
 10
8.021869
 20
7.315717
 30
0.0
 11
8.021869
 21
7.314184
 31
0.0
  0
LINE
  5
C0
100
AcDbEntity
 67
     1
  8
1
  6
CONTINUOUS
 62
    30
100
AcDbLine
 10
9.934869
 20
17.179176
 30
0.0
 11
9.934869
 21
17.186676
 31
0.0
  0
LINE
  5
C1
100
AcDbEntity
 67
     1
  8
1
  6
CONTINUOUS
 62
    30
100
AcDbLine
 10
29.189167
 20
6.863396
 30
0.0
 11
29.188417
 21
6.863396
 31
0.0
  0
LINE
  5
C2
100
AcDbEntity
 67
     1
  8
1
  6
CONTINUOUS
 62
     1
100
AcDbLine
 10
8.006869
 20
7.258698
 30
0.0
 11
8.01785
 21
7.264189
 31
0.0
  0
LINE
  5
C3
100
AcDbEntity
 67
     1
  8
1
  6
CONTINUOUS
 62
    30
100
AcDbLine
 10
21.457672
 20
17.3785
 30
0.0
 11
21.444666
 21
17.3785
 31
0.0
  0
LINE
  5
C4
100
AcDbEntity
 67
     1
  8
1
  6
CONTINUOUS
 62
    30
100
AcDbLine
 10
3.52964
 20
7.272396
 30
0.0
 11
3.52964
 21
7.256396
 31
0.0
  0
LINE
  5
C5
100
AcDbEntity
 67
     1
  8
1
  6
CONTINUOUS
 62
    30
100
AcDbLine
 10
3.63338
 20
6.863396
 30
0.0
 11
3.608724
 21
6.863396
 31
0.0
  0
LINE
  5
C6
100
AcDbEntity
 67
     1
  8
1
  6
CONTINUOUS
 62
    30
100
AcDbLine
 10
21.477137
 20
17.408501
 30
0.0
 11
21.500099
 21
17.408501
 31
0.0
  0
LINE
  5
C7
100
AcDbEntity
 67
     1
  8
1
  6
CONTINUOUS
 62
    30
100
AcDbLine
 10
29.158167
 20
6.88097
 30
0.0
 11
29.158167
 21
6.900435
 31
0.0
  0
LINE
  5
C8
100
AcDbEntity
 67
     1
  8
1
  6
CONTINUOUS
 62
    30
100
AcDbLine
 10
3.52964
 20
17.3785
 30
0.0
 11
3.525073
 21
17.3785
 31
0.0
  0
LINE
  5
C9
100
AcDbEntity
 67
     1
  8
1
  6
CONTINUOUS
 62
    30
100
AcDbLine
 10
29.188417
 20
7.256396
 30
0.0
 11
29.188166
 21
7.256396
 31
0.0
  0
LINE
  5
CA
100
AcDbEntity
 67
     1
  8
1
  6
CONTINUOUS
 62
    30
100
AcDbLine
 10
3.075413
 20
17.3785
 30
0.0
 11
3.062407
 21
17.3785
 31
0.0
  0
LINE
  5
CB
100
AcDbEntity
 67
     1
  8
1
  6
CONTINUOUS
 62
    30
100
AcDbLine
 10
3.769606
 20
7.301396
 30
0.0
 11
3.769606
 21
7.271396
 31
0.0
  0
LINE
  5
CC
100
AcDbEntity
 67
     1
  8
1
  6
CONTINUOUS
 62
    30
100
AcDbLine
 10
21.249851
 20
7.301396
 30
0.0
 11
21.249851
 21
7.271396
 31
0.0
  0
LINE
  5
CD
100
AcDbEntity
 67
     1
  8
1
  6
CONTINUOUS
 62
    30
100
AcDbLine
 10
3.46964
 20
17.408501
 30
0.0
 11
3.492601
 21
17.408501
 31
0.0
  0
LINE
  5
CE
100
AcDbEntity
 67
     1
  8
1
  6
CONTINUOUS
 62
    30
100
AcDbLine
 10
4.178493
 20
7.333396
 30
0.0
 11
4.178493
 21
7.363396
 31
0.0
  0
LINE
  5
CF
100
AcDbEntity
 67
     1
  8
1
  6
CONTINUOUS
 62
    30
100
AcDbLine
 10
3.57964
 20
17.377501
 30
0.0
 11
3.57964
 21
17.3475
 31
0.0
  0
LINE
  5
D0
100
AcDbEntity
 67
     1
  8
1
  6
CONTINUOUS
 62
    30
100
AcDbLine
 10
21.390099
 20
7.256396
 30
0.0
 11
21.440098
 21
7.256396
 31
0.0
  0
LINE
  5
D1
100
AcDbEntity
 67
     1
  8
1
  6
CONTINUOUS
 62
    30
100
AcDbLine
 10
21.440098
 20
17.3475
 30
0.0
 11
21.440098
 21
17.377501
 31
0.0
  0
LINE
  5
D2
100
AcDbEntity
 67
     1
  8
1
  6
CONTINUOUS
 62
    30
100
AcDbLine
 10
21.319883
 20
6.863396
 30
0.0
 11
21.336359
 21
6.863396
 31
0.0
  0
LINE
  5
D3
100
AcDbEntity
 67
     1
  8
1
  6
CONTINUOUS
 62
    30
100
AcDbLine
 10
11.684265
 20
7.363396
 30
0.0
 11
13.285473
 21
7.363396
 31
0.0
  0
LINE
  5
D4
100
AcDbEntity
 67
     1
  8
1
  6
CONTINUOUS
 62
    30
100
AcDbLine
 10
21.299099
 20
17.6425
 30
0.0
 11
21.299099
 21
18.1975
 31
0.0
  0
LINE
  5
D5
100
AcDbEntity
 67
     1
  8
1
  6
CONTINUOUS
 62
    30
100
AcDbLine
 10
11.642003
 20
7.333396
 30
0.0
 11
11.642003
 21
7.363396
 31
0.0
  0
LINE
  5
D6
100
AcDbEntity
 67
     1
  8
1
  6
CONTINUOUS
 62
    30
100
AcDbLine
 10
4.178493
 20
7.363396
 30
0.0
 11
4.15482
 21
7.363396
 31
0.0
  0
LINE
  5
D7
100
AcDbEntity
 67
     1
  8
1
  6
CONTINUOUS
 62
    30
100
AcDbLine
 10
21.299099
 20
18.263
 30
0.0
 11
21.299099
 21
18.274347
 31
0.0
  0
LINE
  5
D8
100
AcDbEntity
 67
     1
  8
1
  6
CONTINUOUS
 62
    30
100
AcDbLine
 10
9.934869
 20
17.173687
 30
0.0
 11
5.624869
 21
17.173687
 31
0.0
  0
LINE
  5
D9
100
AcDbEntity
 67
     1
  8
1
  6
CONTINUOUS
 62
    30
100
AcDbLine
 10
7.74687
 20
7.303396
 30
0.0
 11
5.624866
 21
7.303396
 31
0.0
  0
LINE
  5
DA
100
AcDbEntity
 67
     1
  8
1
  6
CONTINUOUS
 62
    30
100
AcDbLine
 10
3.6169
 20
17.6425
 30
0.0
 11
3.600425
 21
17.6425
 31
0.0
  0
LINE
  5
DB
100
AcDbEntity
 67
     1
  8
1
  6
CONTINUOUS
 62
    30
100
AcDbLine
 10
9.934869
 20
7.325896
 30
0.0
 11
9.934869
 21
7.331386
 31
0.0
  0
LINE
  5
DC
100
AcDbEntity
 67
     1
  8
1
  6
CONTINUOUS
 62
     1
100
AcDbLine
 10
7.871869
 20
7.271688
 30
0.0
 11
7.875888
 21
7.264189
 31
0.0
  0
LINE
  5
DD
100
AcDbEntity
 67
     1
  8
1
  6
CONTINUOUS
 62
    30
100
AcDbLine
 10
3.59464
 20
17.4235
 30
0.0
 11
3.59464
 21
17.6425
 31
0.0
  0
LINE
  5
DE
100
AcDbEntity
 67
     1
  8
1
  6
CONTINUOUS
 62
    30
100
AcDbLine
 10
9.934869
 20
7.271396
 30
0.0
 11
8.121839
 21
7.271396
 31
0.0
  0
LINE
  5
DF
100
AcDbEntity
 67
     1
  8
1
  6
CONTINUOUS
 62
    30
100
AcDbLine
 10
3.62564
 20
17.4235
 30
0.0
 11
3.65564
 21
17.4235
 31
0.0
  0
LINE
  5
E0
100
AcDbEntity
 67
     1
  8
1
  6
CONTINUOUS
 62
    30
100
AcDbLine
 10
5.624866
 20
7.303396
 30
0.0
 11
5.621651
 21
7.303396
 31
0.0
  0
LINE
  5
E1
100
AcDbEntity
 67
     1
  8
1
  6
CONTINUOUS
 62
    30
100
AcDbLine
 10
21.345098
 20
7.257396
 30
0.0
 11
21.345098
 21
7.256396
 31
0.0
  0
LINE
  5
E2
100
AcDbEntity
 67
     1
  8
1
  6
CONTINUOUS
 62
    30
100
AcDbLine
 10
3.11784
 20
17.3475
 30
0.0
 11
3.46964
 21
17.3475
 31
0.0
  0
LINE
  5
E3
100
AcDbEntity
 67
     1
  8
1
  6
CONTINUOUS
 62
    30
100
AcDbLine
 10
3.924366
 20
7.303396
 30
0.0
 11
3.902797
 21
7.303396
 31
0.0
  0
LINE
  5
E4
100
AcDbEntity
 67
     1
  8
1
  6
CONTINUOUS
 62
    30
100
AcDbLine
 10
15.034869
 20
17.173687
 30
0.0
 11
15.034869
 21
17.157215
 31
0.0
  0
LINE
  5
E5
100
AcDbEntity
 67
     1
  8
1
  6
CONTINUOUS
 62
    30
100
AcDbLine
 10
3.952516
 20
7.333396
 30
0.0
 11
4.120755
 21
7.333396
 31
0.0
  0
LINE
  5
E6
100
AcDbEntity
 67
     1
  8
1
  6
CONTINUOUS
 62
     1
100
AcDbLine
 10
27.253643
 20
7.232718
 30
0.0
 11
27.250162
 21
7.230708
 31
0.0
  0
LINE
  5
E7
100
AcDbEntity
 67
     1
  8
1
  6
CONTINUOUS
 62
    30
100
AcDbLine
 10
11.642003
 20
13.453793
 30
0.0
 11
4.178493
 21
16.934084
 31
0.0
  0
LINE
  5
E8
100
AcDbEntity
 67
     1
  8
1
  6
CONTINUOUS
 62
    30
100
AcDbLine
 10
3.600425
 20
18.1975
 30
0.0
 11
3.59464
 21
18.1975
 31
0.0
  0
LINE
  5
E9
100
AcDbEntity
 67
     1
  8
1
  6
CONTINUOUS
 62
    30
100
AcDbLine
 10
3.748037
 20
7.271396
 30
0.0
 11
3.719887
 21
7.271396
 31
0.0
  0
LINE
  5
EA
100
AcDbEntity
 67
     1
  8
1
  6
CONTINUOUS
 62
    30
100
AcDbLine
 10
19.34487
 20
17.124716
 30
0.0
 11
20.748983
 21
17.124716
 31
0.0
  0
LINE
  5
EB
100
AcDbEntity
 67
     1
  8
1
  6
CONTINUOUS
 62
     1
100
AcDbLine
 10
28.905088
 20
7.333396
 30
0.0
 11
28.905088
 21
7.303396
 31
0.0
  0
LINE
  5
EC
100
AcDbEntity
 67
     1
  8
1
  6
CONTINUOUS
 62
    30
100
AcDbLine
 10
21.352839
 20
17.6425
 30
0.0
 11
21.369312
 21
17.6425
 31
0.0
  0
LINE
  5
ED
100
AcDbEntity
 67
     1
  8
1
  6
CONTINUOUS
 62
    30
100
AcDbLine
 10
21.361015
 20
7.256396
 30
0.0
 11
21.390099
 21
7.256396
 31
0.0
  0
LINE
  5
EE
100
AcDbEntity
 67
     1
  8
1
  6
CONTINUOUS
 62
    30
100
AcDbLine
 10
3.906174
 20
7.301396
 30
0.0
 11
3.769606
 21
7.301396
 31
0.0
  0
LINE
  5
EF
100
AcDbEntity
 67
     1
  8
1
  6
CONTINUOUS
 62
    30
100
AcDbLine
 10
28.945381
 20
7.333396
 30
0.0
 11
28.935381
 21
7.333396
 31
0.0
  0
LINE
  5
F0
100
AcDbEntity
 67
     1
  8
1
  6
CONTINUOUS
 62
    30
100
AcDbLine
 10
21.390099
 20
17.3785
 30
0.0
 11
21.390099
 21
17.408501
 31
0.0
  0
LINE
  5
F1
100
AcDbEntity
 67
     1
  8
1
  6
CONTINUOUS
 62
    30
100
AcDbLine
 10
20.791245
 20
7.333396
 30
0.0
 11
20.791245
 21
7.363396
 31
0.0
  0
LINE
  5
F2
100
AcDbEntity
 67
     1
  8
1
  6
CONTINUOUS
 62
    30
100
AcDbLine
 10
28.812319
 20
7.333396
 30
0.0
 11
28.784544
 21
7.333396
 31
0.0
  0
LINE
  5
F3
100
AcDbEntity
 67
     1
  8
1
  6
CONTINUOUS
 62
     1
100
AcDbLine
 10
8.246869
 20
7.303396
 30
0.0
 11
8.24285
 21
7.303396
 31
0.0
  0
LINE
  5
F4
100
AcDbEntity
 67
     1
  8
1
  6
CONTINUOUS
 62
    30
100
AcDbLine
 10
21.390099
 20
17.3475
 30
0.0
 11
21.390099
 21
17.377501
 31
0.0
  0
LINE
  5
F5
100
AcDbEntity
 67
     1
  8
1
  6
CONTINUOUS
 62
    30
100
AcDbLine
 10
21.013845
 20
7.271396
 30
0.0
 11
15.034869
 21
7.271396
 31
0.0
  0
LINE
  5
F6
100
AcDbEntity
 67
     1
  8
1
  6
CONTINUOUS
 62
    30
100
AcDbLine
 10
28.917849
 20
7.363396
 30
0.0
 11
28.897404
 21
7.363396
 31
0.0
  0
LINE
  5
F7
100
AcDbEntity
 67
     1
  8
1
  6
CONTINUOUS
 62
    30
100
AcDbLine
 10
21.477137
 20
17.377501
 30
0.0
 11
21.500099
 21
17.377501
 31
0.0
  0
LINE
  5
F8
100
AcDbEntity
 67
     1
  8
1
  6
CONTINUOUS
 62
    30
100
AcDbLine
 10
20.845171
 20
7.303396
 30
0.0
 11
21.017221
 21
7.303396
 31
0.0
  0
LINE
  5
F9
100
AcDbEntity
 67
     1
  8
1
  6
CONTINUOUS
 62
    30
100
AcDbLine
 10
28.945381
 20
7.363396
 30
0.0
 11
28.935381
 21
7.363396
 31
0.0
  0
LINE
  5
FA
100
AcDbEntity
 67
     1
  8
1
  6
CONTINUOUS
 62
    30
100
AcDbLine
 10
21.907331
 20
17.3475
 30
0.0
 11
21.894325
 21
17.3475
 31
0.0
  0
LINE
  5
FB
100
AcDbEntity
 67
     1
  8
1
  6
CONTINUOUS
 62
    30
100
AcDbLine
 10
21.066942
 20
7.333396
 30
0.0
 11
21.066942
 21
7.303396
 31
0.0
  0
LINE
  5
FC
100
AcDbEntity
 67
     1
  8
1
  6
CONTINUOUS
 62
    30
100
AcDbLine
 10
28.997343
 20
7.303396
 30
0.0
 11
28.997025
 21
7.303397
 31
0.0
  0
LINE
  5
FD
100
AcDbEntity
 67
     1
  8
1
  6
CONTINUOUS
 62
    30
100
AcDbLine
 10
21.444666
 20
17.3475
 30
0.0
 11
21.440098
 21
17.3475
 31
0.0
  0
LINE
  5
FE
100
AcDbEntity
 67
     1
  8
1
  6
CONTINUOUS
 62
    30
100
AcDbLine
 10
3.769606
 20
7.333396
 30
0.0
 11
3.769606
 21
7.303396
 31
0.0
  0
LINE
  5
FF
100
AcDbEntity
 67
     1
  8
1
  6
CONTINUOUS
 62
    30
100
AcDbLine
 10
29.189167
 20
7.272396
 30
0.0
 11
29.189167
 21
7.295357
 31
0.0
  0
LINE
  5
100
100
AcDbEntity
 67
     1
  8
1
  6
CONTINUOUS
 62
    30
100
AcDbLine
 10
3.512066
 20
17.3475
 30
0.0
 11
3.492601
 21
17.3475
 31
0.0
  0
LINE
  5
101
100
AcDbEntity
 67
     1
  8
1
  6
CONTINUOUS
 62
     1
100
AcDbLine
 10
28.384134
 20
7.264867
 30
0.0
 11
28.405348
 21
7.243654
 31
0.0
  0
LINE
  5
102
100
AcDbEntity
 67
     1
  8
1
  6
CONTINUOUS
 62
    30
100
AcDbLine
 10
15.034869
 20
7.302396
 30
0.0
 11
15.034869
 21
7.301396
 31
0.0
  0
LINE
  5
103
100
AcDbEntity
 67
     1
  8
1
  6
CONTINUOUS
 62
    30
100
AcDbLine
 10
21.221703
 20
7.303396
 30
0.0
 11
21.200132
 21
7.303396
 31
0.0
  0
LINE
  5
104
100
AcDbEntity
 67
     1
  8
1
  6
CONTINUOUS
 62
    30
100
AcDbLine
 10
3.59464
 20
7.257396
 30
0.0
 11
3.62464
 21
7.257396
 31
0.0
  0
LINE
  5
105
100
AcDbEntity
 67
     1
  8
1
  6
CONTINUOUS
 62
    30
100
AcDbLine
 10
29.219166
 20
6.88097
 30
0.0
 11
29.219166
 21
6.867963
 31
0.0
  0
LINE
  5
106
100
AcDbEntity
 67
     1
  8
1
  6
CONTINUOUS
 62
    30
100
AcDbLine
 10
21.063564
 20
7.301396
 30
0.0
 11
21.200132
 21
7.301396
 31
0.0
  0
LINE
  5
107
100
AcDbEntity
 67
     1
  8
1
  6
CONTINUOUS
 62
    30
100
AcDbLine
 10
4.220755
 20
17.124716
 30
0.0
 11
5.624869
 21
17.124716
 31
0.0
  0
LINE
  5
108
100
AcDbEntity
 67
     1
  8
1
  6
CONTINUOUS
 62
    30
100
AcDbLine
 10
21.200132
 20
7.333396
 30
0.0
 11
21.221703
 21
7.333396
 31
0.0
  0
LINE
  5
109
100
AcDbEntity
 67
     1
  8
1
  6
CONTINUOUS
 62
    30
100
AcDbLine
 10
30.058167
 20
7.271396
 30
0.0
 11
30.008165
 21
7.271396
 31
0.0
  0
LINE
  5
10A
100
AcDbEntity
 67
     1
  8
1
  6
CONTINUOUS
 62
    30
100
AcDbLine
 10
21.851898
 20
17.3475
 30
0.0
 11
21.851898
 21
17.377501
 31
0.0
  0
LINE
  5
10B
100
AcDbEntity
 67
     1
  8
1
  6
CONTINUOUS
 62
    30
100
AcDbLine
 10
29.01515
 20
7.303396
 30
0.0
 11
29.158176
 21
7.303396
 31
0.0
  0
LINE
  5
10C
100
AcDbEntity
 67
     1
  8
1
  6
CONTINUOUS
 62
    30
100
AcDbLine
 10
3.769606
 20
17.668915
 30
0.0
 11
3.902797
 21
17.866087
 31
0.0
  0
LINE
  5
10D
100
AcDbEntity
 67
     1
  8
1
  6
CONTINUOUS
 62
    30
100
AcDbLine
 10
3.952516
 20
17.8925
 30
0.0
 11
4.124567
 21
17.8925
 31
0.0
  0
LINE
  5
10E
100
AcDbEntity
 67
     1
  8
1
  6
CONTINUOUS
 62
    30
100
AcDbLine
 10
29.007904
 20
7.333396
 30
0.0
 11
29.01515
 21
7.333396
 31
0.0
  0
LINE
  5
10F
100
AcDbEntity
 67
     1
  8
1
  6
CONTINUOUS
 62
     1
100
AcDbLine
 10
7.750888
 20
7.303396
 30
0.0
 11
7.746869
 21
7.303396
 31
0.0
  0
LINE
  5
110
100
AcDbEntity
 67
     1
  8
1
  6
CONTINUOUS
 62
    30
100
AcDbLine
 10
3.67064
 20
18.1975
 30
0.0
 11
3.67064
 21
17.6425
 31
0.0
  0
LINE
  5
111
100
AcDbEntity
 67
     1
  8
1
  6
CONTINUOUS
 62
    30
100
AcDbLine
 10
13.327735
 20
7.363396
 30
0.0
 11
13.327735
 21
7.333396
 31
0.0
  0
LINE
  5
112
100
AcDbEntity
 67
     1
  8
1
  6
CONTINUOUS
 62
    30
100
AcDbLine
 10
29.453167
 20
7.333396
 30
0.0
 11
29.453167
 21
7.327611
 31
0.0
  0
LINE
  5
113
100
AcDbEntity
 67
     1
  8
1
  6
CONTINUOUS
 62
     1
100
AcDbLine
 10
8.121869
 20
7.231938
 30
0.0
 11
8.121869
 21
7.231952
 31
0.0
  0
LINE
  5
114
100
AcDbEntity
 67
     1
  8
1
  6
CONTINUOUS
 62
    30
100
AcDbLine
 10
19.34487
 20
17.186359
 30
0.0
 11
19.34487
 21
17.179039
 31
0.0
  0
LINE
  5
115
100
AcDbEntity
 67
     1
  8
1
  6
CONTINUOUS
 62
    30
100
AcDbLine
 10
29.234165
 20
6.863396
 30
0.0
 11
29.848166
 21
6.863396
 31
0.0
  0
LINE
  5
116
100
AcDbEntity
 67
     1
  8
1
  6
CONTINUOUS
 62
    30
100
AcDbLine
 10
19.34487
 20
7.325896
 30
0.0
 11
15.034869
 21
7.325896
 31
0.0
  0
LINE
  5
117
100
AcDbEntity
 67
     1
  8
1
  6
CONTINUOUS
 62
     1
100
AcDbLine
 10
8.121869
 20
7.231993
 30
0.0
 11
8.121869
 21
7.247171
 31
0.0
  0
LINE
  5
118
100
AcDbEntity
 67
     1
  8
1
  6
CONTINUOUS
 62
     1
100
AcDbLine
 10
8.021869
 20
7.314184
 30
0.0
 11
8.021869
 21
7.309689
 31
0.0
  0
LINE
  5
119
100
AcDbEntity
 67
     1
  8
1
  6
CONTINUOUS
 62
    30
100
AcDbLine
 10
3.65564
 20
7.256396
 30
0.0
 11
3.649855
 21
7.256396
 31
0.0
  0
LINE
  5
11A
100
AcDbEntity
 67
     1
  8
1
  6
CONTINUOUS
 62
     1
100
AcDbLine
 10
28.374969
 20
7.231993
 30
0.0
 11
28.085367
 21
7.247171
 31
0.0
  0
LINE
  5
11B
100
AcDbEntity
 67
     1
  8
1
  6
CONTINUOUS
 62
    30
100
AcDbLine
 10
21.444666
 20
17.3785
 30
0.0
 11
21.440098
 21
17.3785
 31
0.0
  0
LINE
  5
11C
100
AcDbEntity
 67
     1
  8
1
  6
CONTINUOUS
 62
    30
100
AcDbLine
 10
29.188166
 20
7.332396
 30
0.0
 11
29.188166
 21
7.327829
 31
0.0
  0
LINE
  5
11D
100
AcDbEntity
 67
     1
  8
1
  6
CONTINUOUS
 62
    30
100
AcDbLine
 10
11.684265
 20
7.363396
 30
0.0
 11
11.684265
 21
7.333396
 31
0.0
  0
LINE
  5
11E
100
AcDbEntity
 67
     1
  8
1
  6
CONTINUOUS
 62
    30
100
AcDbLine
 10
21.851898
 20
17.408501
 30
0.0
 11
21.500099
 21
17.408501
 31
0.0
  0
LINE
  5
11F
100
AcDbEntity
 67
     1
  8
1
  6
CONTINUOUS
 62
    30
100
AcDbLine
 10
3.05784
 20
7.272396
 30
0.0
 11
3.05784
 21
6.923396
 31
0.0
  0
LINE
  5
120
100
AcDbEntity
 67
     1
  8
1
  6
CONTINUOUS
 62
    30
100
AcDbLine
 10
3.525073
 20
17.3785
 30
0.0
 11
3.512066
 21
17.3785
 31
0.0
  0
LINE
  5
121
100
AcDbEntity
 67
     1
  8
1
  6
CONTINUOUS
 62
    30
100
AcDbLine
 10
29.188166
 20
7.272396
 30
0.0
 11
29.158167
 21
7.272396
 31
0.0
  0
LINE
  5
122
100
AcDbEntity
 67
     1
  8
1
  6
CONTINUOUS
 62
    30
100
AcDbLine
 10
3.062407
 20
17.3785
 30
0.0
 11
3.05784
 21
17.3785
 31
0.0
  0
LINE
  5
123
100
AcDbEntity
 67
     1
  8
1
  6
CONTINUOUS
 62
     1
100
AcDbLine
 10
8.006869
 20
7.232718
 30
0.0
 11
7.991869
 21
7.230708
 31
0.0
  0
LINE
  5
124
100
AcDbEntity
 67
     1
  8
1
  6
CONTINUOUS
 62
    30
100
AcDbLine
 10
21.299099
 20
7.301396
 30
0.0
 11
21.299099
 21
7.271396
 31
0.0
  0
LINE
  5
125
100
AcDbEntity
 67
     1
  8
1
  6
CONTINUOUS
 62
     1
100
AcDbLine
 10
7.901869
 20
7.230708
 30
0.0
 11
7.886869
 21
7.232718
 31
0.0
  0
LINE
  5
126
100
AcDbEntity
 67
     1
  8
1
  6
CONTINUOUS
 62
    30
100
AcDbLine
 10
3.492601
 20
17.408501
 30
0.0
 11
3.512066
 21
17.408501
 31
0.0
  0
LINE
  5
127
100
AcDbEntity
 67
     1
  8
1
  6
CONTINUOUS
 62
    30
100
AcDbLine
 10
21.314098
 20
6.863396
 30
0.0
 11
21.314098
 21
7.256396
 31
0.0
  0
LINE
  5
128
100
AcDbEntity
 67
     1
  8
1
  6
CONTINUOUS
 62
    30
100
AcDbLine
 10
13.327735
 20
7.333396
 30
0.0
 11
13.307117
 21
7.333396
 31
0.0
  0
LINE
  5
129
100
AcDbEntity
 67
     1
  8
1
  6
CONTINUOUS
 62
    30
100
AcDbLine
 10
3.57964
 20
17.408501
 30
0.0
 11
3.57964
 21
17.3785
 31
0.0
  0
LINE
  5
12A
100
AcDbEntity
 67
     1
  8
1
  6
CONTINUOUS
 62
    30
100
AcDbLine
 10
21.390099
 20
6.863396
 30
0.0
 11
21.851898
 21
6.863396
 31
0.0
  0
LINE
  5
12B
100
AcDbEntity
 67
     1
  8
1
  6
CONTINUOUS
 62
    30
100
AcDbLine
 10
13.285473
 20
7.363396
 30
0.0
 11
13.307117
 21
7.363396
 31
0.0
  0
LINE
  5
12C
100
AcDbEntity
 67
     1
  8
1
  6
CONTINUOUS
 62
    30
100
AcDbLine
 10
21.299099
 20
18.247501
 30
0.0
 11
15.034869
 21
18.247501
 31
0.0
  0
LINE
  5
12D
100
AcDbEntity
 67
     1
  8
1
  6
CONTINUOUS
 62
    30
100
AcDbLine
 10
4.15482
 20
7.363396
 30
0.0
 11
4.136415
 21
7.363396
 31
0.0
  0
LINE
  5
12E
100
AcDbEntity
 67
     1
  8
1
  6
CONTINUOUS
 62
    30
100
AcDbLine
 10
3.57964
 20
7.256396
 30
0.0
 11
3.57964
 21
6.863396
 31
0.0
  0
LINE
  5
12F
100
AcDbEntity
 67
     1
  8
1
  6
CONTINUOUS
 62
    30
100
AcDbLine
 10
21.299099
 20
18.274347
 30
0.0
 11
21.299099
 21
18.2785
 31
0.0
  0
LINE
  5
130
100
AcDbEntity
 67
     1
  8
1
  6
CONTINUOUS
 62
    30
100
AcDbLine
 10
9.934869
 20
7.331386
 30
0.0
 11
9.934869
 21
7.333396
 31
0.0
  0
LINE
  5
131
100
AcDbEntity
 67
     1
  8
1
  6
CONTINUOUS
 62
    30
100
AcDbLine
 10
9.934869
 20
7.303396
 30
0.0
 11
9.934869
 21
7.309425
 31
0.0
  0
LINE
  5
132
100
AcDbEntity
 67
     1
  8
1
  6
CONTINUOUS
 62
    30
100
AcDbLine
 10
3.600425
 20
17.6425
 30
0.0
 11
3.59464
 21
17.6425
 31
0.0
  0
LINE
  5
133
100
AcDbEntity
 67
     1
  8
1
  6
CONTINUOUS
 62
     1
100
AcDbLine
 10
7.875888
 20
7.264189
 30
0.0
 11
7.886869
 21
7.258698
 31
0.0
  0
LINE
  5
134
100
AcDbEntity
 67
     1
  8
1
  6
CONTINUOUS
 62
    30
100
AcDbLine
 10
29.234165
 20
6.863396
 30
0.0
 11
29.22356
 21
6.863396
 31
0.0
  0
LINE
  5
135
100
AcDbEntity
 67
     1
  8
1
  6
CONTINUOUS
 62
    30
100
AcDbLine
 10
3.62464
 20
17.4235
 30
0.0
 11
3.59464
 21
17.4235
 31
0.0
  0
LINE
  5
136
100
AcDbEntity
 67
     1
  8
1
  6
CONTINUOUS
 62
    30
100
AcDbLine
 10
7.871842
 20
7.271396
 30
0.0
 11
3.955894
 21
7.271396
 31
0.0
  0
LINE
  5
137
100
AcDbEntity
 67
     1
  8
1
  6
CONTINUOUS
 62
    30
100
AcDbLine
 10
3.63338
 20
7.256396
 30
0.0
 11
3.608724
 21
7.256396
 31
0.0
  0
LINE
  5
138
100
AcDbEntity
 67
     1
  8
1
  6
CONTINUOUS
 62
    30
100
AcDbLine
 10
3.11784
 20
17.3475
 30
0.0
 11
3.094879
 21
17.3475
 31
0.0
  0
LINE
  5
139
100
AcDbEntity
 67
     1
  8
1
  6
CONTINUOUS
 62
    30
100
AcDbLine
 10
3.67064
 20
7.333396
 30
0.0
 11
3.719887
 21
7.333396
 31
0.0
  0
LINE
  5
13A
100
AcDbEntity
 67
     1
  8
1
  6
CONTINUOUS
 62
    30
100
AcDbLine
 10
15.034869
 20
17.157215
 30
0.0
 11
15.034869
 21
17.134716
 31
0.0
  0
LINE
  5
13B
100
AcDbEntity
 67
     1
  8
1
  6
CONTINUOUS
 62
    30
100
AcDbLine
 10
9.934869
 20
7.301396
 30
0.0
 11
9.934869
 21
7.302396
 31
0.0
  0
LINE
  5
13C
100
AcDbEntity
 67
     1
  8
1
  6
CONTINUOUS
 62
     1
100
AcDbLine
 10
27.250162
 20
7.230708
 30
0.0
 11
27.235163
 21
7.256689
 31
0.0
  0
LINE
  5
13D
100
AcDbEntity
 67
     1
  8
1
  6
CONTINUOUS
 62
    30
100
AcDbLine
 10
11.684265
 20
13.444424
 30
0.0
 11
13.285473
 21
13.444424
 31
0.0
  0
LINE
  5
13E
100
AcDbEntity
 67
     1
  8
1
  6
CONTINUOUS
 62
    30
100
AcDbLine
 10
3.59464
 20
18.1975
 30
0.0
 11
3.59464
 21
17.6425
 31
0.0
  0
LINE
  5
13F
100
AcDbEntity
 67
     1
  8
1
  6
CONTINUOUS
 62
     1
100
AcDbLine
 10
8.216869
 20
7.303396
 30
0.0
 11
8.216869
 21
7.333396
 31
0.0
  0
LINE
  5
140
100
AcDbEntity
 67
     1
  8
1
  6
CONTINUOUS
 62
    30
100
AcDbLine
 10
3.719887
 20
7.271396
 30
0.0
 11
3.67064
 21
7.271396
 31
0.0
  0
LINE
  5
141
100
AcDbEntity
 67
     1
  8
1
  6
CONTINUOUS
 62
    30
100
AcDbLine
 10
19.34487
 20
17.134716
 30
0.0
 11
19.34487
 21
17.124716
 31
0.0
  0
LINE
  5
142
100
AcDbEntity
 67
     1
  8
1
  6
CONTINUOUS
 62
    30
100
AcDbLine
 10
21.369312
 20
17.6425
 30
0.0
 11
21.375099
 21
17.6425
 31
0.0
  0
LINE
  5
143
100
AcDbEntity
 67
     1
  8
1
  6
CONTINUOUS
 62
    30
100
AcDbLine
 10
28.935381
 20
7.333396
 30
0.0
 11
28.930897
 21
7.333396
 31
0.0
  0
LINE
  5
144
100
AcDbEntity
 67
     1
  8
1
  6
CONTINUOUS
 62
    30
100
AcDbLine
 10
21.299099
 20
18.1975
 30
0.0
 11
21.328182
 21
18.1975
 31
0.0
  0
LINE
  5
145
100
AcDbEntity
 67
     1
  8
1
  6
CONTINUOUS
 62
    30
100
AcDbLine
 10
15.034869
 20
7.325896
 30
0.0
 11
15.034869
 21
7.309425
 31
0.0
  0
LINE
  5
146
100
AcDbEntity
 67
     1
  8
1
  6
CONTINUOUS
 62
    30
100
AcDbLine
 10
5.624869
 20
7.309505
 30
0.0
 11
5.624869
 21
7.303397
 31
0.0
  0
LINE
  5
147
100
AcDbEntity
 67
     1
  8
1
  6
CONTINUOUS
 62
    30
100
AcDbLine
 10
21.013845
 20
7.271396
 30
0.0
 11
21.013845
 21
7.301396
 31
0.0
  0
LINE
  5
148
100
AcDbEntity
 67
     1
  8
1
  6
CONTINUOUS
 62
    30
100
AcDbLine
 10
21.851898
 20
17.377501
 30
0.0
 11
21.500099
 21
17.377501
 31
0.0
  0
LINE
  5
149
100
AcDbEntity
 67
     1
  8
1
  6
CONTINUOUS
 62
    30
100
AcDbLine
 10
21.017221
 20
7.303396
 30
0.0
 11
21.017221
 21
7.333396
 31
0.0
  0
LINE
  5
14A
100
AcDbEntity
 67
     1
  8
1
  6
CONTINUOUS
 62
    30
100
AcDbLine
 10
21.894325
 20
17.3475
 30
0.0
 11
21.874859
 21
17.3475
 31
0.0
  0
LINE
  5
14B
100
AcDbEntity
 67
     1
  8
1
  6
CONTINUOUS
 62
    30
100
AcDbLine
 10
21.249851
 20
7.333396
 30
0.0
 11
21.299099
 21
7.333396
 31
0.0
  0
LINE
  5
14C
100
AcDbEntity
 67
     1
  8
1
  6
CONTINUOUS
 62
    30
100
AcDbLine
 10
28.997025
 20
7.333399
 30
0.0
 11
28.997343
 21
7.333396
 31
0.0
  0
LINE
  5
14D
100
AcDbEntity
 67
     1
  8
1
  6
CONTINUOUS
 62
    30
100
AcDbLine
 10
3.906174
 20
7.301396
 30
0.0
 11
3.927744
 21
7.301396
 31
0.0
  0
LINE
  5
14E
100
AcDbEntity
 67
     1
  8
1
  6
CONTINUOUS
 62
    30
100
AcDbLine
 10
21.911898
 20
17.377501
 30
0.0
 11
21.911898
 21
17.3475
 31
0.0
  0
LINE
  5
14F
100
AcDbEntity
 67
     1
  8
1
  6
CONTINUOUS
 62
    30
100
AcDbLine
 10
3.902797
 20
7.303396
 30
0.0
 11
3.902797
 21
7.333396
 31
0.0
  0
LINE
  5
150
100
AcDbEntity
 67
     1
  8
1
  6
CONTINUOUS
 62
    30
100
AcDbLine
 10
29.189167
 20
7.295357
 30
0.0
 11
29.189167
 21
7.314822
 31
0.0
  0
LINE
  5
151
100
AcDbEntity
 67
     1
  8
1
  6
CONTINUOUS
 62
    30
100
AcDbLine
 10
21.066942
 20
7.303396
 30
0.0
 11
21.045372
 21
7.303396
 31
0.0
  0
LINE
  5
152
100
AcDbEntity
 67
     1
  8
1
  6
CONTINUOUS
 62
    30
100
AcDbLine
 10
29.219166
 20
6.867963
 30
0.0
 11
29.219166
 21
6.863396
 31
0.0
  0
LINE
  5
153
100
AcDbEntity
 67
     1
  8
1
  6
CONTINUOUS
 62
    30
100
AcDbLine
 10
21.200132
 20
7.301396
 30
0.0
 11
21.221703
 21
7.301396
 31
0.0
  0
LINE
  5
154
100
AcDbEntity
 67
     1
  8
1
  6
CONTINUOUS
 62
    30
100
AcDbLine
 10
5.624869
 20
17.186359
 30
0.0
 11
5.624869
 21
17.179039
 31
0.0
  0
LINE
  5
155
100
AcDbEntity
 67
     1
  8
1
  6
CONTINUOUS
 62
    30
100
AcDbLine
 10
30.058167
 20
7.301396
 30
0.0
 11
30.058167
 21
7.271396
 31
0.0
  0
LINE
  5
156
100
AcDbEntity
 67
     1
  8
1
  6
CONTINUOUS
 62
    30
100
AcDbLine
 10
13.307117
 20
7.363396
 30
0.0
 11
13.327735
 21
7.363396
 31
0.0
  0
LINE
  5
157
100
AcDbEntity
 67
     1
  8
1
  6
CONTINUOUS
 62
    30
100
AcDbLine
 10
20.848984
 20
7.333396
 30
0.0
 11
20.848984
 21
7.363396
 31
0.0
  0
LINE
  5
158
100
AcDbEntity
 67
     1
  8
1
  6
CONTINUOUS
 62
     1
100
AcDbLine
 10
8.021869
 20
7.271688
 30
0.0
 11
8.021869
 21
7.245708
 31
0.0
  0
LINE
  5
159
100
AcDbEntity
 67
     1
  8
1
  6
CONTINUOUS
 62
    30
100
AcDbLine
 10
29.188169
 20
7.303396
 30
0.0
 11
29.189173
 21
7.303396
 31
0.0
  0
LINE
  5
15A
100
AcDbEntity
 67
     1
  8
1
  6
CONTINUOUS
 62
     1
100
AcDbLine
 10
8.24285
 20
7.303396
 30
0.0
 11
8.231869
 21
7.303396
 31
0.0
  0
LINE
  5
15B
100
AcDbEntity
 67
     1
  8
1
  6
CONTINUOUS
 62
    30
100
AcDbLine
 10
9.934869
 20
18.247501
 30
0.0
 11
9.934869
 21
17.186676
 31
0.0
  0
LINE
  5
15C
100
AcDbEntity
 67
     1
  8
1
  6
CONTINUOUS
 62
     1
100
AcDbLine
 10
7.871869
 20
7.333396
 30
0.0
 11
7.871869
 21
7.32997
 31
0.0
  0
LINE
  5
15D
100
AcDbEntity
 67
     1
  8
1
  6
CONTINUOUS
 62
    30
100
AcDbLine
 10
9.934869
 20
18.2785
 30
0.0
 11
9.934869
 21
18.274347
 31
0.0
  0
LINE
  5
15E
100
AcDbEntity
 67
     1
  8
1
  6
CONTINUOUS
 62
    30
100
AcDbLine
 10
3.65564
 20
6.863396
 30
0.0
 11
3.649855
 21
6.863396
 31
0.0
  0
LINE
  5
15F
100
AcDbEntity
 67
     1
  8
1
  6
CONTINUOUS
 62
    30
100
AcDbLine
 10
29.453167
 20
7.327611
 30
0.0
 11
29.453167
 21
7.311136
 31
0.0
  0
LINE
  5
160
100
AcDbEntity
 67
     1
  8
1
  6
CONTINUOUS
 62
     1
100
AcDbLine
 10
8.121869
 20
7.231952
 30
0.0
 11
8.121869
 21
7.231993
 31
0.0
  0
LINE
  5
161
100
AcDbEntity
 67
     1
  8
1
  6
CONTINUOUS
 62
    30
100
AcDbLine
 10
19.34487
 20
17.179039
 30
0.0
 11
19.34487
 21
17.173687
 31
0.0
  0
LINE
  5
162
100
AcDbEntity
 67
     1
  8
1
  6
CONTINUOUS
 62
     1
100
AcDbLine
 10
7.871869
 20
7.231993
 30
0.0
 11
7.871869
 21
7.245708
 31
0.0
  0
LINE
  5
163
100
AcDbEntity
 67
     1
  8
1
  6
CONTINUOUS
 62
    30
100
AcDbLine
 10
29.219166
 20
6.863396
 30
0.0
 11
29.189167
 21
6.863396
 31
0.0
  0
LINE
  5
164
100
AcDbEntity
 67
     1
  8
1
  6
CONTINUOUS
 62
     1
100
AcDbLine
 10
7.871869
 20
7.309689
 30
0.0
 11
8.021869
 21
7.309689
 31
0.0
  0
LINE
  5
165
100
AcDbEntity
 67
     1
  8
1
  6
CONTINUOUS
 62
    30
100
AcDbLine
 10
20.791245
 20
16.934084
 30
0.0
 11
13.327735
 21
13.453793
 31
0.0
  0
LINE
  5
166
100
AcDbEntity
 67
     1
  8
1
  6
CONTINUOUS
 62
    30
100
AcDbLine
 10
29.188166
 20
6.863396
 30
0.0
 11
29.158167
 21
6.863396
 31
0.0
  0
LINE
  5
167
100
AcDbEntity
 67
     1
  8
1
  6
CONTINUOUS
 62
     1
100
AcDbLine
 10
28.376539
 20
7.261952
 30
0.0
 11
28.086937
 21
7.27713
 31
0.0
  0
LINE
  5
168
100
AcDbEntity
 67
     1
  8
1
  6
CONTINUOUS
 62
    30
100
AcDbLine
 10
21.390099
 20
17.3785
 30
0.0
 11
21.440098
 21
17.3785
 31
0.0
  0
LINE
  5
169
100
AcDbEntity
 67
     1
  8
1
  6
CONTINUOUS
 62
    30
100
AcDbLine
 10
4.12475
 20
7.333396
 30
0.0
 11
4.120755
 21
7.333396
 31
0.0
  0
LINE
  5
16A
100
AcDbEntity
 67
     1
  8
1
  6
CONTINUOUS
 62
    30
100
AcDbLine
 10
29.188166
 20
7.327829
 30
0.0
 11
29.188166
 21
7.314822
 31
0.0
  0
LINE
  5
16B
100
AcDbEntity
 67
     1
  8
1
  6
CONTINUOUS
 62
     1
100
AcDbLine
 10
27.235163
 20
7.256689
 30
0.0
 11
27.238644
 21
7.258698
 31
0.0
  0
LINE
  5
16C
100
AcDbEntity
 67
     1
  8
1
  6
CONTINUOUS
 62
    30
100
AcDbLine
 10
21.851898
 20
17.408501
 30
0.0
 11
21.874859
 21
17.408501
 31
0.0
  0
LINE
  5
16D
100
AcDbEntity
 67
     1
  8
1
  6
CONTINUOUS
 62
    30
100
AcDbLine
 10
9.934869
 20
7.309425
 30
0.0
 11
9.934869
 21
7.325896
 31
0.0
  0
LINE
  5
16E
100
AcDbEntity
 67
     1
  8
1
  6
CONTINUOUS
 62
    30
100
AcDbLine
 10
29.158167
 20
6.923396
 30
0.0
 11
29.158167
 21
7.272396
 31
0.0
  0
LINE
  5
16F
100
AcDbEntity
 67
     1
  8
1
  6
CONTINUOUS
 62
    30
100
AcDbLine
 10
3.512066
 20
17.3785
 30
0.0
 11
3.492601
 21
17.3785
 31
0.0
  0
LINE
  5
170
100
AcDbEntity
 67
     1
  8
1
  6
CONTINUOUS
 62
    30
100
AcDbLine
 10
3.05784
 20
17.408501
 30
0.0
 11
3.062407
 21
17.408501
 31
0.0
  0
LINE
  5
171
100
AcDbEntity
 67
     1
  8
1
  6
CONTINUOUS
 62
     1
100
AcDbLine
 10
7.991869
 20
7.230708
 30
0.0
 11
7.991869
 21
7.256689
 31
0.0
  0
LINE
  5
172
100
AcDbEntity
 67
     1
  8
1
  6
CONTINUOUS
 62
     1
100
AcDbLine
 10
7.991869
 20
7.230708
 30
0.0
 11
7.901869
 21
7.230708
 31
0.0
  0
LINE
  5
173
100
AcDbEntity
 67
     1
  8
1
  6
CONTINUOUS
 62
    30
100
AcDbLine
 10
3.512066
 20
17.408501
 30
0.0
 11
3.525073
 21
17.408501
 31
0.0
  0
LINE
  5
174
100
AcDbEntity
 67
     1
  8
1
  6
CONTINUOUS
 62
    30
100
AcDbLine
 10
21.314098
 20
6.863396
 30
0.0
 11
21.319883
 21
6.863396
 31
0.0
  0
LINE
  5
175
100
AcDbEntity
 67
     1
  8
1
  6
CONTINUOUS
 62
    30
100
AcDbLine
 10
3.11784
 20
17.377501
 30
0.0
 11
3.11784
 21
17.3475
 31
0.0
  0
LINE
  5
176
100
AcDbEntity
 67
     1
  8
1
  6
CONTINUOUS
 62
     1
100
AcDbLine
 10
28.376539
 20
7.261952
 30
0.0
 11
28.374969
 21
7.231993
 31
0.0
  0
LINE
  5
177
100
AcDbEntity
 67
     1
  8
1
  6
CONTINUOUS
 62
    30
100
AcDbLine
 10
21.851898
 20
7.332396
 30
0.0
 11
21.500099
 21
7.332396
 31
0.0
  0
LINE
  5
178
100
AcDbEntity
 67
     1
  8
1
  6
CONTINUOUS
 62
    30
100
AcDbLine
 10
15.034869
 20
17.186676
 30
0.0
 11
15.034869
 21
18.247501
 31
0.0
  0
LINE
  5
179
100
AcDbEntity
 67
     1
  8
1
  6
CONTINUOUS
 62
    30
100
AcDbLine
 10
4.136415
 20
7.363396
 30
0.0
 11
4.12475
 21
7.363396
 31
0.0
  0
LINE
  5
17A
100
AcDbEntity
 67
     1
  8
1
  6
CONTINUOUS
 62
    30
100
AcDbLine
 10
15.034869
 20
18.247501
 30
0.0
 11
15.034869
 21
18.263
 31
0.0
  0
LINE
  5
17B
100
AcDbEntity
 67
     1
  8
1
  6
CONTINUOUS
 62
    30
100
AcDbLine
 10
28.784544
 20
7.333396
 30
0.0
 11
28.761326
 21
7.333396
 31
0.0
  0
LINE
  5
17C
100
AcDbEntity
 67
     1
  8
1
  6
CONTINUOUS
 62
     1
100
AcDbLine
 10
28.90107
 20
7.303396
 30
0.0
 11
28.890089
 21
7.303396
 31
0.0
  0
LINE
  5
17D
100
AcDbEntity
 67
     1
  8
1
  6
CONTINUOUS
 62
    30
100
AcDbLine
 10
3.67064
 20
18.1975
 30
0.0
 11
3.641556
 21
18.1975
 31
0.0
  0
LINE
  5
17E
100
AcDbEntity
 67
     1
  8
1
  6
CONTINUOUS
 62
    30
100
AcDbLine
 10
3.67064
 20
7.301396
 30
0.0
 11
3.67064
 21
7.271396
 31
0.0
  0
LINE
  5
17F
100
AcDbEntity
 67
     1
  8
1
  6
CONTINUOUS
 62
    30
100
AcDbLine
 10
4.15482
 20
7.333396
 30
0.0
 11
4.136415
 21
7.333396
 31
0.0
  0
LINE
  5
180
100
AcDbEntity
 67
     1
  8
1
  6
CONTINUOUS
 62
     1
100
AcDbLine
 10
28.085367
 20
7.247171
 30
0.0
 11
28.086937
 21
7.27713
 31
0.0
  0
LINE
  5
181
100
AcDbEntity
 67
     1
  8
1
  6
CONTINUOUS
 62
     1
100
AcDbLine
 10
7.886869
 20
7.258698
 30
0.0
 11
7.901869
 21
7.256689
 31
0.0
  0
LINE
  5
182
100
AcDbEntity
 67
     1
  8
1
  6
CONTINUOUS
 62
    30
100
AcDbLine
 10
9.934869
 20
7.301396
 30
0.0
 11
9.934869
 21
7.271396
 31
0.0
  0
LINE
  5
183
100
AcDbEntity
 67
     1
  8
1
  6
CONTINUOUS
 62
    30
100
AcDbLine
 10
4.149924
 20
7.303396
 30
0.0
 11
5.613321
 21
7.303396
 31
0.0
  0
LINE
  5
184
100
AcDbEntity
 67
     1
  8
1
  6
CONTINUOUS
 62
    30
100
AcDbLine
 10
3.094879
 20
17.3475
 30
0.0
 11
3.075413
 21
17.3475
 31
0.0
  0
LINE
  5
185
100
AcDbEntity
 67
     1
  8
1
  6
CONTINUOUS
 62
    30
100
AcDbLine
 10
3.719887
 20
7.333396
 30
0.0
 11
3.748037
 21
7.333396
 31
0.0
  0
LINE
  5
186
100
AcDbEntity
 67
     1
  8
1
  6
CONTINUOUS
 62
    30
100
AcDbLine
 10
21.911898
 20
17.3785
 30
0.0
 11
21.907331
 21
17.3785
 31
0.0
  0
LINE
  5
187
100
AcDbEntity
 67
     1
  8
1
  6
CONTINUOUS
 62
    30
100
AcDbLine
 10
3.11784
 20
17.377501
 30
0.0
 11
3.46964
 21
17.377501
 31
0.0
  0
LINE
  5
188
100
AcDbEntity
 67
     1
  8
1
  6
CONTINUOUS
 62
    30
100
AcDbLine
 10
9.934869
 20
7.302396
 30
0.0
 11
9.934869
 21
7.303396
 31
0.0
  0
LINE
  5
189
100
AcDbEntity
 67
     1
  8
1
  6
CONTINUOUS
 62
     1
100
AcDbLine
 10
27.861071
 20
7.258925
 30
0.0
 11
27.86264
 21
7.288885
 31
0.0
  0
LINE
  5
18A
100
AcDbEntity
 67
     1
  8
1
  6
CONTINUOUS
 62
    30
100
AcDbLine
 10
3.62464
 20
17.4235
 30
0.0
 11
3.62464
 21
17.6425
 31
0.0
  0
LINE
  5
18B
100
AcDbEntity
 67
     1
  8
1
  6
CONTINUOUS
 62
    30
100
AcDbLine
 10
21.328182
 20
18.1975
 30
0.0
 11
21.352839
 21
18.1975
 31
0.0
  0
LINE
  5
18C
100
AcDbEntity
 67
     1
  8
1
  6
CONTINUOUS
 62
    30
100
AcDbLine
 10
3.955894
 20
7.271396
 30
0.0
 11
3.927744
 21
7.271396
 31
0.0
  0
LINE
  5
18D
100
AcDbEntity
 67
     1
  8
1
  6
CONTINUOUS
 62
    30
100
AcDbLine
 10
15.034869
 20
17.134716
 30
0.0
 11
19.34487
 21
17.134716
 31
0.0
  0
LINE
  5
18E
100
AcDbEntity
 67
     1
  8
1
  6
CONTINUOUS
 62
    30
100
AcDbLine
 10
25.264458
 20
7.363396
 30
0.0
 11
25.264458
 21
7.333396
 31
0.0
  0
LINE
  5
18F
100
AcDbEntity
 67
     1
  8
1
  6
CONTINUOUS
 62
    30
100
AcDbLine
 10
21.375099
 20
17.6425
 30
0.0
 11
21.375099
 21
18.1975
 31
0.0
  0
LINE
  5
190
100
AcDbEntity
 67
     1
  8
1
  6
CONTINUOUS
 62
    30
100
AcDbLine
 10
3.927744
 20
7.301396
 30
0.0
 11
3.955894
 21
7.301396
 31
0.0
  0
LINE
  5
191
100
AcDbEntity
 67
     1
  8
1
  6
CONTINUOUS
 62
    30
100
AcDbLine
 10
28.930897
 20
7.333396
 30
0.0
 11
28.917849
 21
7.333396
 31
0.0
  0
LINE
  5
192
100
AcDbEntity
 67
     1
  8
1
  6
CONTINUOUS
 62
    30
100
AcDbLine
 10
21.907331
 20
17.408501
 30
0.0
 11
21.911898
 21
17.408501
 31
0.0
  0
LINE
  5
193
100
AcDbEntity
 67
     1
  8
1
  6
CONTINUOUS
 62
    30
100
AcDbLine
 10
21.911898
 20
17.408501
 30
0.0
 11
21.911898
 21
17.3785
 31
0.0
  0
LINE
  5
194
100
AcDbEntity
 67
     1
  8
1
  6
CONTINUOUS
 62
    30
100
AcDbLine
 10
15.034869
 20
7.309425
 30
0.0
 11
15.034869
 21
7.303396
 31
0.0
  0
LINE
  5
195
100
AcDbEntity
 67
     1
  8
1
  6
CONTINUOUS
 62
    30
100
AcDbLine
 10
21.440098
 20
7.272396
 30
0.0
 11
21.440098
 21
7.256396
 31
0.0
  0
LINE
  5
196
100
AcDbEntity
 67
     1
  8
1
  6
CONTINUOUS
 62
    30
100
AcDbLine
 10
28.761326
 20
7.333396
 30
0.0
 11
28.744749
 21
7.333396
 31
0.0
  0
LINE
  5
197
100
AcDbEntity
 67
     1
  8
1
  6
CONTINUOUS
 62
    30
100
AcDbLine
 10
21.390099
 20
17.377501
 30
0.0
 11
21.440098
 21
17.377501
 31
0.0
  0
LINE
  5
198
100
AcDbEntity
 67
     1
  8
1
  6
CONTINUOUS
 62
    30
100
AcDbLine
 10
15.034869
 20
7.301396
 30
0.0
 11
21.013845
 21
7.301396
 31
0.0
  0
LINE
  5
199
100
AcDbEntity
 67
     1
  8
1
  6
CONTINUOUS
 62
    30
100
AcDbLine
 10
21.851898
 20
17.377501
 30
0.0
 11
21.874859
 21
17.377501
 31
0.0
  0
LINE
  5
19A
100
AcDbEntity
 67
     1
  8
1
  6
CONTINUOUS
 62
    30
100
AcDbLine
 10
20.848984
 20
7.333396
 30
0.0
 11
21.017221
 21
7.333396
 31
0.0
  0
LINE
  5
19B
100
AcDbEntity
 67
     1
  8
1
  6
CONTINUOUS
 62
    30
100
AcDbLine
 10
28.997025
 20
7.303397
 30
0.0
 11
28.997025
 21
7.333399
 31
0.0
  0
LINE
  5
19C
100
AcDbEntity
 67
     1
  8
1
  6
CONTINUOUS
 62
    30
100
AcDbLine
 10
21.874859
 20
17.3475
 30
0.0
 11
21.851898
 21
17.3475
 31
0.0
  0
LINE
  5
19D
100
AcDbEntity
 67
     1
  8
1
  6
CONTINUOUS
 62
    30
100
AcDbLine
 10
21.249851
 20
7.333396
 30
0.0
 11
21.249851
 21
7.303396
 31
0.0
  0
LINE
  5
19E
100
AcDbEntity
 67
     1
  8
1
  6
CONTINUOUS
 62
    30
100
AcDbLine
 10
29.189167
 20
6.863396
 30
0.0
 11
29.189167
 21
6.867963
 31
0.0
  0
LINE
  5
19F
100
AcDbEntity
 67
     1
  8
1
  6
CONTINUOUS
 62
    30
100
AcDbLine
 10
29.158167
 20
7.327829
 30
0.0
 11
29.158167
 21
7.332396
 31
0.0
  0
LINE
  5
1A0
100
AcDbEntity
 67
     1
  8
1
  6
CONTINUOUS
 62
    30
100
AcDbLine
 10
3.52964
 20
17.408501
 30
0.0
 11
3.52964
 21
17.3785
 31
0.0
  0
LINE
  5
1A1
100
AcDbEntity
 67
     1
  8
1
  6
CONTINUOUS
 62
    30
100
AcDbLine
 10
4.124567
 20
7.303396
 30
0.0
 11
4.124567
 21
7.333396
 31
0.0
  0
LINE
  5
1A2
100
AcDbEntity
 67
     1
  8
1
  6
CONTINUOUS
 62
     1
100
AcDbLine
 10
28.87509
 20
7.303396
 30
0.0
 11
28.501303
 21
7.303396
 31
0.0
  0
LINE
  5
1A3
100
AcDbEntity
 67
     1
  8
1
  6
CONTINUOUS
 62
     1
100
AcDbLine
 10
7.901869
 20
7.256689
 30
0.0
 11
7.991869
 21
7.256689
 31
0.0
  0
LINE
  5
1A4
100
AcDbEntity
 67
     1
  8
1
  6
CONTINUOUS
 62
    30
100
AcDbLine
 10
21.345098
 20
7.257396
 30
0.0
 11
21.375099
 21
7.257396
 31
0.0
  0
LINE
  5
1A5
100
AcDbEntity
 67
     1
  8
1
  6
CONTINUOUS
 62
    30
100
AcDbLine
 10
29.189167
 20
7.314822
 30
0.0
 11
29.189167
 21
7.327829
 31
0.0
  0
LINE
  5
1A6
100
AcDbEntity
 67
     1
  8
1
  6
CONTINUOUS
 62
    30
100
AcDbLine
 10
3.649855
 20
7.256396
 30
0.0
 11
3.63338
 21
7.256396
 31
0.0
  0
LINE
  5
1A7
100
AcDbEntity
 67
     1
  8
1
  6
CONTINUOUS
 62
    30
100
AcDbLine
 10
21.249851
 20
7.271396
 30
0.0
 11
21.221703
 21
7.271396
 31
0.0
  0
LINE
  5
1A8
100
AcDbEntity
 67
     1
  8
1
  6
CONTINUOUS
 62
    30
100
AcDbLine
 10
29.219166
 20
7.332396
 30
0.0
 11
29.219166
 21
7.327829
 31
0.0
  0
LINE
  5
1A9
100
AcDbEntity
 67
     1
  8
1
  6
CONTINUOUS
 62
    30
100
AcDbLine
 10
21.221703
 20
7.301396
 30
0.0
 11
21.249851
 21
7.301396
 31
0.0
  0
LINE
  5
1AA
100
AcDbEntity
 67
     1
  8
1
  6
CONTINUOUS
 62
    30
100
AcDbLine
 10
21.017221
 20
7.333396
 30
0.0
 11
21.045372
 21
7.333396
 31
0.0
  0
LINE
  5
1AB
100
AcDbEntity
 67
     1
  8
1
  6
CONTINUOUS
 62
    30
100
AcDbLine
 10
5.624869
 20
17.179039
 30
0.0
 11
5.624869
 21
17.173687
 31
0.0
  0
LINE
  5
1AC
100
AcDbEntity
 67
     1
  8
1
  6
CONTINUOUS
 62
    30
100
AcDbLine
 10
3.264869
 20
6.958396
 30
0.0
 11
3.384869
 21
6.958396
 31
0.0
  0
LINE
  5
1AD
100
AcDbEntity
 67
     1
  8
1
  6
CONTINUOUS
 62
    30
100
AcDbLine
 10
30.008165
 20
7.333396
 30
0.0
 11
30.058167
 21
7.333396
 31
0.0
  0
LINE
  5
1AE
100
AcDbEntity
 67
     1
  8
1
  6
CONTINUOUS
 62
    30
100
AcDbLine
 10
4.120755
 20
7.363396
 30
0.0
 11
4.120755
 21
7.333396
 31
0.0
  0
LINE
  5
1AF
100
AcDbEntity
 67
     1
  8
1
  6
CONTINUOUS
 62
    30
100
AcDbLine
 10
29.219175
 20
7.303396
 30
0.0
 11
29.453163
 21
7.303396
 31
0.0
  0
LINE
  5
1B0
100
AcDbEntity
 67
     1
  8
1
  6
CONTINUOUS
 62
     1
100
AcDbLine
 10
8.231869
 20
7.303396
 30
0.0
 11
8.216869
 21
7.303396
 31
0.0
  0
LINE
  5
1B1
100
AcDbEntity
 67
     1
  8
1
  6
CONTINUOUS
 62
    30
100
AcDbLine
 10
4.149924
 20
17.886879
 30
0.0
 11
5.613321
 21
17.204485
 31
0.0
  0
LINE
  5
1B2
100
AcDbEntity
 67
     1
  8
1
  6
CONTINUOUS
 62
     1
100
AcDbLine
 10
7.871869
 20
7.32997
 30
0.0
 11
7.871869
 21
7.320216
 31
0.0
  0
LINE
  5
1B3
100
AcDbEntity
 67
     1
  8
1
  6
CONTINUOUS
 62
    30
100
AcDbLine
 10
9.934869
 20
18.274347
 30
0.0
 11
9.934869
 21
18.263
 31
0.0
  0
LINE
  5
1B4
100
AcDbEntity
 67
     1
  8
1
  6
CONTINUOUS
 62
    30
100
AcDbLine
 10
29.453167
 20
7.311136
 30
0.0
 11
29.453167
 21
7.28648
 31
0.0
  0
LINE
  5
1B5
100
AcDbEntity
 67
     1
  8
1
  6
CONTINUOUS
 62
     1
100
AcDbLine
 10
7.871869
 20
7.231938
 30
0.0
 11
7.871869
 21
7.231952
 31
0.0
  0
LINE
  5
1B6
100
AcDbEntity
 67
     1
  8
1
  6
CONTINUOUS
 62
    30
100
AcDbLine
 10
19.34487
 20
17.173687
 30
0.0
 11
19.34487
 21
17.157215
 31
0.0
  0
LINE
  5
1B7
100
AcDbEntity
 67
     1
  8
1
  6
CONTINUOUS
 62
    30
100
AcDbLine
 10
21.013845
 20
7.301396
 30
0.0
 11
21.041994
 21
7.301396
 31
0.0
  0
LINE
  5
1B8
100
AcDbEntity
 67
     1
  8
1
  6
CONTINUOUS
 62
    30
100
AcDbLine
 10
29.453167
 20
7.256396
 30
0.0
 11
29.234165
 21
7.256396
 31
0.0
  0
LINE
  5
1B9
100
AcDbEntity
 67
     1
  8
1
  6
CONTINUOUS
 62
     1
100
AcDbLine
 10
8.021869
 20
7.258925
 30
0.0
 11
8.121869
 21
7.247171
 31
0.0
  0
LINE
  5
1BA
100
AcDbEntity
 67
     1
  8
1
  6
CONTINUOUS
 62
    30
100
AcDbLine
 10
3.719887
 20
7.271396
 30
0.0
 11
3.719887
 21
7.301396
 31
0.0
  0
LINE
  5
1BB
100
AcDbEntity
 67
     1
  8
1
  6
CONTINUOUS
 62
     1
100
AcDbLine
 10
27.276142
 20
7.245708
 30
0.0
 11
27.263153
 21
7.238208
 31
0.0
  0
LINE
  5
1BC
100
AcDbEntity
 67
     1
  8
1
  6
CONTINUOUS
 62
     1
100
AcDbLine
 10
7.871869
 20
7.245708
 30
0.0
 11
7.871869
 21
7.271688
 31
0.0
  0
LINE
  5
1BD
100
AcDbEntity
 67
     1
  8
1
  6
CONTINUOUS
 62
    30
100
AcDbLine
 10
29.188166
 20
7.272396
 30
0.0
 11
29.188166
 21
6.923396
 31
0.0
  0
LINE
  5
1BE
100
AcDbEntity
 67
     1
  8
1
  6
CONTINUOUS
 62
     1
100
AcDbLine
 10
27.861071
 20
7.258925
 30
0.0
 11
28.085367
 21
7.247171
 31
0.0
  0
LINE
  5
1BF
100
AcDbEntity
 67
     1
  8
1
  6
CONTINUOUS
 62
    30
100
AcDbLine
 10
21.500099
 20
17.3785
 30
0.0
 11
21.477137
 21
17.3785
 31
0.0
  0
LINE
  5
1C0
100
AcDbEntity
 67
     1
  8
1
  6
CONTINUOUS
 62
    30
100
AcDbLine
 10
21.390099
 20
17.408501
 30
0.0
 11
21.440098
 21
17.408501
 31
0.0
  0
LINE
  5
1C1
100
AcDbEntity
 67
     1
  8
1
  6
CONTINUOUS
 62
    30
100
AcDbLine
 10
29.188166
 20
7.314822
 30
0.0
 11
29.188166
 21
7.295357
 31
0.0
  0
LINE
  5
1C2
100
AcDbEntity
 67
     1
  8
1
  6
CONTINUOUS
 62
     1
100
AcDbLine
 10
27.238644
 20
7.258698
 30
0.0
 11
27.248152
 21
7.264189
 31
0.0
  0
LINE
  5
1C3
100
AcDbEntity
 67
     1
  8
1
  6
CONTINUOUS
 62
    30
100
AcDbLine
 10
3.748037
 20
7.303396
 30
0.0
 11
3.719887
 21
7.303396
 31
0.0
  0
LINE
  5
1C4
100
AcDbEntity
 67
     1
  8
1
  6
CONTINUOUS
 62
    30
100
AcDbLine
 10
21.874859
 20
17.408501
 30
0.0
 11
21.894325
 21
17.408501
 31
0.0
  0
LINE
  5
1C5
100
AcDbEntity
 67
     1
  8
1
  6
CONTINUOUS
 62
    30
100
AcDbLine
 10
29.158167
 20
7.272396
 30
0.0
 11
29.158167
 21
7.295357
 31
0.0
  0
LINE
  5
1C6
100
AcDbEntity
 67
     1
  8
1
  6
CONTINUOUS
 62
    30
100
AcDbLine
 10
3.492601
 20
17.3785
 30
0.0
 11
3.46964
 21
17.3785
 31
0.0
  0
LINE
  5
1C7
100
AcDbEntity
 67
     1
  8
1
  6
CONTINUOUS
 62
    30
100
AcDbLine
 10
21.375099
 20
7.257396
 30
0.0
 11
21.375099
 21
7.256396
 31
0.0
  0
LINE
  5
1C8
100
AcDbEntity
 67
     1
  8
1
  6
CONTINUOUS
 62
    30
100
AcDbLine
 10
29.188417
 20
6.863396
 30
0.0
 11
29.188166
 21
6.863396
 31
0.0
  0
LINE
  5
1C9
100
AcDbEntity
 67
     1
  8
1
  6
CONTINUOUS
 62
    30
100
AcDbLine
 10
3.062407
 20
17.408501
 30
0.0
 11
3.075413
 21
17.408501
 31
0.0
  0
LINE
  5
1CA
100
AcDbEntity
 67
     1
  8
1
  6
CONTINUOUS
 62
     1
100
AcDbLine
 10
28.905088
 20
7.303396
 30
0.0
 11
28.90107
 21
7.303396
 31
0.0
  0
LINE
  5
1CB
100
AcDbEntity
 67
     1
  8
1
  6
CONTINUOUS
 62
    30
100
AcDbLine
 10
3.525073
 20
17.408501
 30
0.0
 11
3.52964
 21
17.408501
 31
0.0
  0
LINE
  5
1CC
100
AcDbEntity
 67
     1
  8
1
  6
CONTINUOUS
 62
    30
100
AcDbLine
 10
4.12475
 20
7.363396
 30
0.0
 11
4.120755
 21
7.363396
 31
0.0
  0
LINE
  5
1CD
100
AcDbEntity
 67
     1
  8
1
  6
CONTINUOUS
 62
    30
100
AcDbLine
 10
13.285473
 20
7.333396
 30
0.0
 11
11.684265
 21
7.333396
 31
0.0
  0
LINE
  5
1CE
100
AcDbEntity
 67
     1
  8
1
  6
CONTINUOUS
 62
    30
100
AcDbLine
 10
3.52964
 20
17.377501
 30
0.0
 11
3.52964
 21
17.3475
 31
0.0
  0
LINE
  5
1CF
100
AcDbEntity
 67
     1
  8
1
  6
CONTINUOUS
 62
    30
100
AcDbLine
 10
21.584869
 20
7.238396
 30
0.0
 11
21.704868
 21
7.238396
 31
0.0
  0
LINE
  5
1D0
100
AcDbEntity
 67
     1
  8
1
  6
CONTINUOUS
 62
    30
100
AcDbLine
 10
20.848984
 20
7.363396
 30
0.0
 11
20.844988
 21
7.363396
 31
0.0
  0
LINE
  5
1D1
100
AcDbEntity
 67
     1
  8
1
  6
CONTINUOUS
 62
    30
100
AcDbLine
 10
21.390099
 20
6.863396
 30
0.0
 11
21.390099
 21
7.256396
 31
0.0
  0
LINE
  5
1D2
100
AcDbEntity
 67
     1
  8
1
  6
CONTINUOUS
 62
    30
100
AcDbLine
 10
9.934869
 20
17.124716
 30
0.0
 11
15.034869
 21
17.124716
 31
0.0
  0
LINE
  5
1D3
100
AcDbEntity
 67
     1
  8
1
  6
CONTINUOUS
 62
     1
100
AcDbLine
 10
28.439482
 20
7.320216
 30
0.0
 11
28.460695
 21
7.299003
 31
0.0
  0
LINE
  5
1D4
100
AcDbEntity
 67
     1
  8
1
  6
CONTINUOUS
 62
    30
100
AcDbLine
 10
15.034869
 20
18.263
 30
0.0
 11
15.034869
 21
18.274347
 31
0.0
  0
LINE
  5
1D5
100
AcDbEntity
 67
     1
  8
1
  6
CONTINUOUS
 62
     1
100
AcDbLine
 10
28.890089
 20
7.303396
 30
0.0
 11
28.87509
 21
7.303396
 31
0.0
  0
LINE
  5
1D6
100
AcDbEntity
 67
     1
  8
1
  6
CONTINUOUS
 62
    30
100
AcDbLine
 10
9.934869
 20
17.186676
 30
0.0
 11
5.624866
 21
17.186676
 31
0.0
  0
LINE
  5
1D7
100
AcDbEntity
 67
     1
  8
1
  6
CONTINUOUS
 62
    30
100
AcDbLine
 10
3.641556
 20
18.1975
 30
0.0
 11
3.6169
 21
18.1975
 31
0.0
  0
LINE
  5
1D8
100
AcDbEntity
 67
     1
  8
1
  6
CONTINUOUS
 62
    30
100
AcDbLine
 10
29.189167
 20
7.332396
 30
0.0
 11
29.219166
 21
7.332396
 31
0.0
  0
LINE
  5
1D9
100
AcDbEntity
 67
     1
  8
1
  6
CONTINUOUS
 62
    30
100
AcDbLine
 10
5.624869
 20
7.331386
 30
0.0
 11
5.624869
 21
7.325896
 31
0.0
  0
LINE
  5
1DA
100
AcDbEntity
 67
     1
  8
1
  6
CONTINUOUS
 62
     1
100
AcDbLine
 10
8.021869
 20
7.245708
 30
0.0
 11
8.01785
 21
7.238208
 31
0.0
  0
LINE
  5
1DB
100
AcDbEntity
 67
     1
  8
1
  6
CONTINUOUS
 62
    30
100
AcDbLine
 10
3.769606
 20
7.303396
 30
0.0
 11
3.902797
 21
7.303396
 31
0.0
  0
LINE
  5
1DC
100
AcDbEntity
 67
     1
  8
1
  6
CONTINUOUS
 62
    30
100
AcDbLine
 10
3.52964
 20
17.3475
 30
0.0
 11
3.525073
 21
17.3475
 31
0.0
  0
LINE
  5
1DD
100
AcDbEntity
 67
     1
  8
1
  6
CONTINUOUS
 62
    30
100
AcDbLine
 10
4.149924
 20
7.303396
 30
0.0
 11
4.137553
 21
7.303396
 31
0.0
  0
LINE
  5
1DE
100
AcDbEntity
 67
     1
  8
1
  6
CONTINUOUS
 62
    30
100
AcDbLine
 10
3.62464
 20
7.257396
 30
0.0
 11
3.62464
 21
7.256396
 31
0.0
  0
LINE
  5
1DF
100
AcDbEntity
 67
     1
  8
1
  6
CONTINUOUS
 62
    30
100
AcDbLine
 10
15.034869
 20
17.186676
 30
0.0
 11
15.034869
 21
17.179176
 31
0.0
  0
LINE
  5
1E0
100
AcDbEntity
 67
     1
  8
1
  6
CONTINUOUS
 62
    30
100
AcDbLine
 10
3.075413
 20
17.3475
 30
0.0
 11
3.062407
 21
17.3475
 31
0.0
  0
LINE
  5
1E1
100
AcDbEntity
 67
     1
  8
1
  6
CONTINUOUS
 62
    30
100
AcDbLine
 10
3.748037
 20
7.333396
 30
0.0
 11
3.769606
 21
7.333396
 31
0.0
  0
LINE
  5
1E2
100
AcDbEntity
 67
     1
  8
1
  6
CONTINUOUS
 62
     1
100
AcDbLine
 10
28.486301
 20
7.303396
 30
0.0
 11
28.475321
 21
7.303396
 31
0.0
  0
LINE
  5
1E3
100
AcDbEntity
 67
     1
  8
1
  6
CONTINUOUS
 62
    30
100
AcDbLine
 10
3.906174
 20
7.271396
 30
0.0
 11
3.906174
 21
7.301396
 31
0.0
  0
LINE
  5
1E4
100
AcDbEntity
 67
     1
  8
1
  6
CONTINUOUS
 62
    30
100
AcDbLine
 10
21.907331
 20
17.3785
 30
0.0
 11
21.894325
 21
17.3785
 31
0.0
  0
LINE
  5
1E5
100
AcDbEntity
 67
     1
  8
1
  6
CONTINUOUS
 62
    30
100
AcDbLine
 10
3.46964
 20
17.377501
 30
0.0
 11
3.492601
 21
17.377501
 31
0.0
  0
LINE
  5
1E6
100
AcDbEntity
 67
     1
  8
1
  6
CONTINUOUS
 62
    30
100
AcDbLine
 10
3.67064
 20
7.303396
 30
0.0
 11
3.67064
 21
7.302396
 31
0.0
  0
LINE
  5
1E7
100
AcDbEntity
 67
     1
  8
1
  6
CONTINUOUS
 62
     1
100
AcDbLine
 10
27.261143
 20
7.271688
 30
0.0
 11
27.276142
 21
7.245708
 31
0.0
  0
LINE
  5
1E8
100
AcDbEntity
 67
     1
  8
1
  6
CONTINUOUS
 62
    30
100
AcDbLine
 10
21.477137
 20
17.3785
 30
0.0
 11
21.457672
 21
17.3785
 31
0.0
  0
LINE
  5
1E9
100
AcDbEntity
 67
     1
  8
1
  6
CONTINUOUS
 62
    30
100
AcDbLine
 10
21.352839
 20
18.1975
 30
0.0
 11
21.369312
 21
18.1975
 31
0.0
  0
LINE
  5
1EA
100
AcDbEntity
 67
     1
  8
1
  6
CONTINUOUS
 62
    30
100
AcDbLine
 10
3.927744
 20
7.271396
 30
0.0
 11
3.906174
 21
7.271396
 31
0.0
  0
LINE
  5
1EB
100
AcDbEntity
 67
     1
  8
1
  6
CONTINUOUS
 62
    30
100
AcDbLine
 10
15.034869
 20
17.124716
 30
0.0
 11
15.034869
 21
17.134716
 31
0.0
  0
LINE
  5
1EC
100
AcDbEntity
 67
     1
  8
1
  6
CONTINUOUS
 62
    30
100
AcDbLine
 10
28.744749
 20
7.333396
 30
0.0
 11
25.264458
 21
7.333396
 31
0.0
  0
LINE
  5
1ED
100
AcDbEntity
 67
     1
  8
1
  6
CONTINUOUS
 62
    30
100
AcDbLine
 10
21.345098
 20
17.6425
 30
0.0
 11
21.345098
 21
17.4235
 31
0.0
  0
LINE
  5
1EE
100
AcDbEntity
 67
     1
  8
1
  6
CONTINUOUS
 62
    30
100
AcDbLine
 10
19.34487
 20
7.325896
 30
0.0
 11
19.34487
 21
7.309505
 31
0.0
  0
LINE
  5
1EF
100
AcDbEntity
 67
     1
  8
1
  6
CONTINUOUS
 62
    30
100
AcDbLine
 10
21.336359
 20
6.863396
 30
0.0
 11
21.361015
 21
6.863396
 31
0.0
  0
LINE
  5
1F0
100
AcDbEntity
 67
     1
  8
1
  6
CONTINUOUS
 62
    30
100
AcDbLine
 10
28.917849
 20
7.333396
 30
0.0
 11
28.897404
 21
7.333396
 31
0.0
  0
LINE
  5
1F1
100
AcDbEntity
 67
     1
  8
1
  6
CONTINUOUS
 62
    30
100
AcDbLine
 10
20.814919
 20
7.333396
 30
0.0
 11
20.791245
 21
7.333396
 31
0.0
  0
LINE
  5
1F2
100
AcDbEntity
 67
     1
  8
1
  6
CONTINUOUS
 62
    30
100
AcDbLine
 10
21.344099
 20
17.4235
 30
0.0
 11
21.344099
 21
17.6425
 31
0.0
  0
LINE
  5
1F3
100
AcDbEntity
 67
     1
  8
1
  6
CONTINUOUS
 62
    30
100
AcDbLine
 10
19.344872
 20
7.303396
 30
0.0
 11
15.034869
 21
7.303396
 31
0.0
  0
LINE
  5
1F4
100
AcDbEntity
 67
     1
  8
1
  6
CONTINUOUS
 62
    30
100
AcDbLine
 10
11.642003
 20
7.363396
 30
0.0
 11
4.178493
 21
7.363396
 31
0.0
  0
LINE
  5
1F5
100
AcDbEntity
 67
     1
  8
1
  6
CONTINUOUS
 62
    30
100
AcDbLine
 10
25.255089
 20
7.363396
 30
0.0
 11
25.25746
 21
7.363396
 31
0.0
  0
LINE
  5
1F6
100
AcDbEntity
 67
     1
  8
1
  6
CONTINUOUS
 62
    30
100
AcDbLine
 10
13.285473
 20
7.333396
 30
0.0
 11
13.285473
 21
7.363396
 31
0.0
  0
LINE
  5
1F7
100
AcDbEntity
 67
     1
  8
1
  6
CONTINUOUS
 62
    30
100
AcDbLine
 10
21.390099
 20
17.3475
 30
0.0
 11
21.440098
 21
17.3475
 31
0.0
  0
LINE
  5
1F8
100
AcDbEntity
 67
     1
  8
1
  6
CONTINUOUS
 62
    30
100
AcDbLine
 10
15.034869
 20
7.271396
 30
0.0
 11
15.034869
 21
7.301396
 31
0.0
  0
LINE
  5
1F9
100
AcDbEntity
 67
     1
  8
1
  6
CONTINUOUS
 62
    30
100
AcDbLine
 10
28.842163
 20
7.363396
 30
0.0
 11
28.812319
 21
7.363396
 31
0.0
  0
LINE
  5
1FA
100
AcDbEntity
 67
     1
  8
1
  6
CONTINUOUS
 62
    30
100
AcDbLine
 10
29.158167
 20
6.923396
 30
0.0
 11
29.188166
 21
6.923396
 31
0.0
  0
LINE
  5
1FB
100
AcDbEntity
 67
     1
  8
1
  6
CONTINUOUS
 62
    30
100
AcDbLine
 10
5.624869
 20
17.173687
 30
0.0
 11
5.624869
 21
17.157215
 31
0.0
  0
LINE
  5
1FC
100
AcDbEntity
 67
     1
  8
1
  6
CONTINUOUS
 62
    30
100
AcDbLine
 10
21.874859
 20
17.377501
 30
0.0
 11
21.894325
 21
17.377501
 31
0.0
  0
LINE
  5
1FD
100
AcDbEntity
 67
     1
  8
1
  6
CONTINUOUS
 62
    30
100
AcDbLine
 10
20.845171
 20
7.333396
 30
0.0
 11
20.845171
 21
7.303396
 31
0.0
  0
LINE
  5
1FE
100
AcDbEntity
 67
     1
  8
1
  6
CONTINUOUS
 62
    30
100
AcDbLine
 10
21.851898
 20
17.3475
 30
0.0
 11
21.500099
 21
17.3475
 31
0.0
  0
LINE
  5
1FF
100
AcDbEntity
 67
     1
  8
1
  6
CONTINUOUS
 62
    30
100
AcDbLine
 10
21.249851
 20
7.303396
 30
0.0
 11
21.299099
 21
7.303396
 31
0.0
  0
LINE
  5
200
100
AcDbEntity
 67
     1
  8
1
  6
CONTINUOUS
 62
    30
100
AcDbLine
 10
29.189167
 20
6.867963
 30
0.0
 11
29.189167
 21
6.88097
 31
0.0
  0
LINE
  5
201
100
AcDbEntity
 67
     1
  8
1
  6
CONTINUOUS
 62
    30
100
AcDbLine
 10
3.46964
 20
17.3785
 30
0.0
 11
3.46964
 21
17.408501
 31
0.0
  0
LINE
  5
202
100
AcDbEntity
 67
     1
  8
1
  6
CONTINUOUS
 62
    30
100
AcDbLine
 10
3.952516
 20
7.333396
 30
0.0
 11
3.952516
 21
7.303396
 31
0.0
  0
LINE
  5
203
100
AcDbEntity
 67
     1
  8
1
  6
CONTINUOUS
 62
    30
100
AcDbLine
 10
5.624869
 20
17.134716
 30
0.0
 11
9.934869
 21
17.134716
 31
0.0
  0
LINE
  5
204
100
AcDbEntity
 67
     1
  8
1
  6
CONTINUOUS
 62
    30
100
AcDbLine
 10
29.189167
 20
7.327829
 30
0.0
 11
29.189167
 21
7.332396
 31
0.0
  0
LINE
  5
205
100
AcDbEntity
 67
     1
  8
1
  6
CONTINUOUS
 62
     1
100
AcDbLine
 10
28.501303
 20
7.303396
 30
0.0
 11
28.486301
 21
7.303396
 31
0.0
  0
LINE
  5
206
100
AcDbEntity
 67
     1
  8
1
  6
CONTINUOUS
 62
    30
100
AcDbLine
 10
29.189167
 20
7.256396
 30
0.0
 11
29.188417
 21
7.256396
 31
0.0
  0
LINE
  5
207
100
AcDbEntity
 67
     1
  8
1
  6
CONTINUOUS
 62
    30
100
AcDbLine
 10
21.221703
 20
7.271396
 30
0.0
 11
21.200132
 21
7.271396
 31
0.0
  0
LINE
  5
208
100
AcDbEntity
 67
     1
  8
1
  6
CONTINUOUS
 62
    30
100
AcDbLine
 10
21.911898
 20
6.923396
 30
0.0
 11
21.911898
 21
7.272396
 31
0.0
  0
LINE
  5
209
100
AcDbEntity
 67
     1
  8
1
  6
CONTINUOUS
 62
    30
100
AcDbLine
 10
20.845171
 20
7.303396
 30
0.0
 11
20.832186
 21
7.303396
 31
0.0
  0
LINE
  5
20A
100
AcDbEntity
 67
     1
  8
1
  6
CONTINUOUS
 62
    30
100
AcDbLine
 10
29.219166
 20
7.327829
 30
0.0
 11
29.219166
 21
7.314822
 31
0.0
  0
LINE
  5
20B
100
AcDbEntity
 67
     1
  8
1
  6
CONTINUOUS
 62
    30
100
AcDbLine
 10
3.59464
 20
7.257396
 30
0.0
 11
3.59464
 21
7.256396
 31
0.0
  0
LINE
  5
20C
100
AcDbEntity
 67
     1
  8
1
  6
CONTINUOUS
 62
    30
100
AcDbLine
 10
21.249851
 20
7.301396
 30
0.0
 11
21.299099
 21
7.301396
 31
0.0
  0
LINE
  5
20D
100
AcDbEntity
 67
     1
  8
1
  6
CONTINUOUS
 62
    30
100
AcDbLine
 10
21.045372
 20
7.333396
 30
0.0
 11
21.066942
 21
7.333396
 31
0.0
  0
LINE
  5
20E
100
AcDbEntity
 67
     1
  8
1
  6
CONTINUOUS
 62
    30
100
AcDbLine
 10
30.008165
 20
7.303396
 30
0.0
 11
30.058167
 21
7.303396
 31
0.0
  0
LINE
  5
20F
100
AcDbEntity
 67
     1
  8
1
  6
CONTINUOUS
 62
     1
100
AcDbLine
 10
8.021869
 20
7.315717
 30
0.0
 11
7.871869
 21
7.315717
 31
0.0
  0
LINE
  5
210
100
AcDbEntity
 67
     1
  8
1
  6
CONTINUOUS
 62
    30
100
AcDbLine
 10
21.045372
 20
7.303396
 30
0.0
 11
21.017221
 21
7.303396
 31
0.0
  0
LINE
  5
211
100
AcDbEntity
 67
     1
  8
1
  6
CONTINUOUS
 62
    30
100
AcDbLine
 10
29.01515
 20
7.303396
 30
0.0
 11
29.007904
 21
7.303396
 31
0.0
  0
LINE
  5
212
100
AcDbEntity
 67
     1
  8
1
  6
CONTINUOUS
 62
     1
100
AcDbLine
 10
8.216869
 20
7.303396
 30
0.0
 11
8.121869
 21
7.303396
 31
0.0
  0
LINE
  5
213
100
AcDbEntity
 67
     1
  8
1
  6
CONTINUOUS
 62
    30
100
AcDbLine
 10
3.094879
 20
17.377501
 30
0.0
 11
3.11784
 21
17.377501
 31
0.0
  0
LINE
  5
214
100
AcDbEntity
 67
     1
  8
1
  6
CONTINUOUS
 62
    30
100
AcDbLine
 10
30.008165
 20
7.333396
 30
0.0
 11
30.008165
 21
7.327611
 31
0.0
  0
LINE
  5
215
100
AcDbEntity
 67
     1
  8
1
  6
CONTINUOUS
 62
     1
100
AcDbLine
 10
8.121869
 20
7.333396
 30
0.0
 11
8.121869
 21
7.32997
 31
0.0
  0
LINE
  5
216
100
AcDbEntity
 67
     1
  8
1
  6
CONTINUOUS
 62
    30
100
AcDbLine
 10
9.934869
 20
18.263
 30
0.0
 11
9.934869
 21
18.247501
 31
0.0
  0
LINE
  5
217
100
AcDbEntity
 67
     1
  8
1
  6
CONTINUOUS
 62
    30
100
AcDbLine
 10
29.453167
 20
7.28648
 30
0.0
 11
29.453167
 21
7.257396
 31
0.0
  0
LINE
  5
218
100
AcDbEntity
 67
     1
  8
1
  6
CONTINUOUS
 62
    30
100
AcDbLine
 10
11.642003
 20
7.333396
 30
0.0
 11
4.178493
 21
7.333396
 31
0.0
  0
LINE
  5
219
100
AcDbEntity
 67
     1
  8
1
  6
CONTINUOUS
 62
     1
100
AcDbLine
 10
7.871869
 20
7.231952
 30
0.0
 11
7.871869
 21
7.231993
 31
0.0
  0
LINE
  5
21A
100
AcDbEntity
 67
     1
  8
1
  6
CONTINUOUS
 62
    30
100
AcDbLine
 10
21.299099
 20
18.1975
 30
0.0
 11
21.299099
 21
18.247501
 31
0.0
  0
LINE
  5
21B
100
AcDbEntity
 67
     1
  8
1
  6
CONTINUOUS
 62
    30
100
AcDbLine
 10
29.234165
 20
7.256396
 30
0.0
 11
29.234165
 21
6.863396
 31
0.0
  0
LINE
  5
21C
100
AcDbEntity
 67
     1
  8
1
  6
CONTINUOUS
 62
     1
100
AcDbLine
 10
8.121869
 20
7.27713
 30
0.0
 11
8.021869
 21
7.288885
 31
0.0
  0
LINE
  5
21D
100
AcDbEntity
 67
     1
  8
1
  6
CONTINUOUS
 62
    30
100
AcDbLine
 10
29.219166
 20
7.272396
 30
0.0
 11
29.189167
 21
7.272396
 31
0.0
  0
LINE
  5
21E
100
AcDbEntity
 67
     1
  8
1
  6
CONTINUOUS
 62
     1
100
AcDbLine
 10
7.871869
 20
7.309689
 30
0.0
 11
7.871869
 21
7.271688
 31
0.0
  0
LINE
  5
21F
100
AcDbEntity
 67
     1
  8
1
  6
CONTINUOUS
 62
    30
100
AcDbLine
 10
3.384869
 20
7.238396
 30
0.0
 11
3.264869
 21
7.238396
 31
0.0
  0
LINE
  5
220
100
AcDbEntity
 67
     1
  8
1
  6
CONTINUOUS
 62
    30
100
AcDbLine
 10
29.188166
 20
6.923396
 30
0.0
 11
29.188166
 21
6.900435
 31
0.0
  0
LINE
  5
221
100
AcDbEntity
 67
     1
  8
1
  6
CONTINUOUS
 62
     1
100
AcDbLine
 10
27.350246
 20
7.285697
 30
0.0
 11
27.861071
 21
7.258925
 31
0.0
  0
LINE
  5
222
100
AcDbEntity
 67
     1
  8
1
  6
CONTINUOUS
 62
    30
100
AcDbLine
 10
21.440098
 20
17.408501
 30
0.0
 11
21.444666
 21
17.408501
 31
0.0
  0
LINE
  5
223
100
AcDbEntity
 67
     1
  8
1
  6
CONTINUOUS
 62
     1
100
AcDbLine
 10
27.248152
 20
7.264189
 30
0.0
 11
27.261143
 21
7.271688
 31
0.0
  0
LINE
  5
224
100
AcDbEntity
 67
     1
  8
1
  6
CONTINUOUS
 62
    30
100
AcDbLine
 10
29.189167
 20
6.923396
 30
0.0
 11
29.219166
 21
6.923396
 31
0.0
  0
LINE
  5
225
100
AcDbEntity
 67
     1
  8
1
  6
CONTINUOUS
 62
    30
100
AcDbLine
 10
21.894325
 20
17.408501
 30
0.0
 11
21.907331
 21
17.408501
 31
0.0
  0
LINE
  5
226
100
AcDbEntity
 67
     1
  8
1
  6
CONTINUOUS
 62
     1
100
AcDbLine
 10
28.460695
 20
7.299003
 30
0.0
 11
28.405348
 21
7.243654
 31
0.0
  0
LINE
  5
227
100
AcDbEntity
 67
     1
  8
1
  6
CONTINUOUS
 62
    30
100
AcDbLine
 10
29.158167
 20
7.295357
 30
0.0
 11
29.158167
 21
7.314822
 31
0.0
  0
LINE
  5
228
100
AcDbEntity
 67
     1
  8
1
  6
CONTINUOUS
 62
    30
100
AcDbLine
 10
21.221703
 20
7.333396
 30
0.0
 11
21.249851
 21
7.333396
 31
0.0
  0
LINE
  5
229
100
AcDbEntity
 67
     1
  8
1
  6
CONTINUOUS
 62
    30
100
AcDbLine
 10
3.11784
 20
17.3785
 30
0.0
 11
3.46964
 21
17.3785
 31
0.0
  0
LINE
  5
22A
100
AcDbEntity
 67
     1
  8
1
  6
CONTINUOUS
 62
    30
100
AcDbLine
 10
25.255089
 20
7.333396
 30
0.0
 11
25.255089
 21
7.363396
 31
0.0
  0
LINE
  5
22B
100
AcDbEntity
 67
     1
  8
1
  6
CONTINUOUS
 62
    30
100
AcDbLine
 10
3.075413
 20
17.408501
 30
0.0
 11
3.094879
 21
17.408501
 31
0.0
  0
LINE
  5
22C
100
AcDbEntity
 67
     1
  8
1
  6
CONTINUOUS
 62
    30
100
AcDbLine
 10
3.57964
 20
17.408501
 30
0.0
 11
3.52964
 21
17.408501
 31
0.0
  0
LINE
  5
22D
100
AcDbEntity
 67
     1
  8
1
  6
CONTINUOUS
 62
    30
100
AcDbLine
 10
11.684265
 20
7.333396
 30
0.0
 11
11.662621
 21
7.333396
 31
0.0
  0
LINE
  5
22E
100
AcDbEntity
 67
     1
  8
1
  6
CONTINUOUS
 62
     1
100
AcDbLine
 10
7.886869
 20
7.232718
 30
0.0
 11
7.875888
 21
7.238208
 31
0.0
  0
LINE
  5
22F
100
AcDbEntity
 67
     1
  8
1
  6
CONTINUOUS
 62
    30
100
AcDbLine
 10
21.336359
 20
7.256396
 30
0.0
 11
21.361015
 21
7.256396
 31
0.0
  0
LINE
  5
230
100
AcDbEntity
 67
     1
  8
1
  6
CONTINUOUS
 62
    30
100
AcDbLine
 10
21.500099
 20
17.408501
 30
0.0
 11
21.500099
 21
17.3785
 31
0.0
  0
LINE
  5
231
100
AcDbEntity
 67
     1
  8
1
  6
CONTINUOUS
 62
    30
100
AcDbLine
 10
21.066942
 20
17.866087
 30
0.0
 11
21.200132
 21
17.668915
 31
0.0
  0
LINE
  5
232
100
AcDbEntity
 67
     1
  8
1
  6
CONTINUOUS
 62
    30
100
AcDbLine
 10
20.791245
 20
7.333396
 30
0.0
 11
13.327735
 21
7.333396
 31
0.0
  0
LINE
  5
233
100
AcDbEntity
 67
     1
  8
1
  6
CONTINUOUS
 62
    30
100
AcDbLine
 10
20.844988
 20
7.363396
 30
0.0
 11
20.833323
 21
7.363396
 31
0.0
  0
LINE
  5
234
100
AcDbEntity
 67
     1
  8
1
  6
CONTINUOUS
 62
    30
100
AcDbLine
 10
11.642003
 20
7.363396
 30
0.0
 11
11.662621
 21
7.363396
 31
0.0
  0
LINE
  5
235
100
AcDbEntity
 67
     1
  8
1
  6
CONTINUOUS
 62
    30
100
AcDbLine
 10
15.034869
 20
18.274347
 30
0.0
 11
15.034869
 21
18.2785
 31
0.0
  0
LINE
  5
236
100
AcDbEntity
 67
     1
  8
1
  6
CONTINUOUS
 62
    30
100
AcDbLine
 10
7.746871
 20
7.325896
 30
0.0
 11
5.624869
 21
7.325896
 31
0.0
  0
LINE
  5
237
100
AcDbEntity
 67
     1
  8
1
  6
CONTINUOUS
 62
    30
100
AcDbLine
 10
3.6169
 20
18.1975
 30
0.0
 11
3.600425
 21
18.1975
 31
0.0
  0
LINE
  5
238
100
AcDbEntity
 67
     1
  8
1
  6
CONTINUOUS
 62
    30
100
AcDbLine
 10
3.955894
 20
7.301396
 30
0.0
 11
7.871842
 21
7.301396
 31
0.0
  0
LINE
  5
239
100
AcDbEntity
 67
     1
  8
1
  6
CONTINUOUS
 62
    30
100
AcDbLine
 10
21.249851
 20
7.271396
 30
0.0
 11
21.299099
 21
7.271396
 31
0.0
  0
LINE
  5
23A
100
AcDbEntity
 67
     1
  8
1
  6
CONTINUOUS
 62
    30
100
AcDbLine
 10
29.22356
 20
7.256396
 30
0.0
 11
29.219166
 21
7.256396
 31
0.0
  0
LINE
  5
23B
100
AcDbEntity
 67
     1
  8
1
  6
CONTINUOUS
 62
    30
100
AcDbLine
 10
3.05784
 20
17.3785
 30
0.0
 11
3.05784
 21
17.408501
 31
0.0
  0
LINE
  5
23C
100
AcDbEntity
 67
     1
  8
1
  6
CONTINUOUS
 62
    30
100
AcDbLine
 10
3.769606
 20
7.303396
 30
0.0
 11
3.748037
 21
7.303396
 31
0.0
  0
LINE
  5
23D
100
AcDbEntity
 67
     1
  8
1
  6
CONTINUOUS
 62
    30
100
AcDbLine
 10
3.525073
 20
17.3475
 30
0.0
 11
3.512066
 21
17.3475
 31
0.0
  0
LINE
  5
23E
100
AcDbEntity
 67
     1
  8
1
  6
CONTINUOUS
 62
    30
100
AcDbLine
 10
4.137553
 20
7.303396
 30
0.0
 11
4.124567
 21
7.303396
 31
0.0
  0
LINE
  5
23F
100
AcDbEntity
 67
     1
  8
1
  6
CONTINUOUS
 62
    30
100
AcDbLine
 10
3.57964
 20
17.377501
 30
0.0
 11
3.52964
 21
17.377501
 31
0.0
  0
LINE
  5
240
100
AcDbEntity
 67
     1
  8
1
  6
CONTINUOUS
 62
    30
100
AcDbLine
 10
15.034869
 20
17.179176
 30
0.0
 11
15.034869
 21
17.173687
 31
0.0
  0
LINE
  5
241
100
AcDbEntity
 67
     1
  8
1
  6
CONTINUOUS
 62
    30
100
AcDbLine
 10
3.062407
 20
17.3475
 30
0.0
 11
3.05784
 21
17.3475
 31
0.0
  0
LINE
  5
242
100
AcDbEntity
 67
     1
  8
1
  6
CONTINUOUS
 62
    30
100
AcDbLine
 10
3.769606
 20
7.333396
 30
0.0
 11
3.902797
 21
7.333396
 31
0.0
  0
LINE
  5
243
100
AcDbEntity
 67
     1
  8
1
  6
CONTINUOUS
 62
    30
100
AcDbLine
 10
21.894325
 20
17.3785
 30
0.0
 11
21.874859
 21
17.3785
 31
0.0
  0
LINE
  5
244
100
AcDbEntity
 67
     1
  8
1
  6
CONTINUOUS
 62
    30
100
AcDbLine
 10
3.492601
 20
17.377501
 30
0.0
 11
3.512066
 21
17.377501
 31
0.0
  0
LINE
  5
245
100
AcDbEntity
 67
     1
  8
1
  6
CONTINUOUS
 62
    30
100
AcDbLine
 10
3.67064
 20
7.302396
 30
0.0
 11
3.67064
 21
7.301396
 31
0.0
  0
LINE
  5
246
100
AcDbEntity
 67
     1
  8
1
  6
CONTINUOUS
 62
    30
100
AcDbLine
 10
5.624869
 20
7.333396
 30
0.0
 11
5.624869
 21
7.331386
 31
0.0
  0
LINE
  5
247
100
AcDbEntity
 67
     1
  8
1
  6
CONTINUOUS
 62
     1
100
AcDbLine
 10
28.501303
 20
7.333396
 30
0.0
 11
28.501303
 21
7.303396
 31
0.0
  0
LINE
  5
248
100
AcDbEntity
 67
     1
  8
1
  6
CONTINUOUS
 62
    30
100
AcDbLine
 10
21.369312
 20
18.1975
 30
0.0
 11
21.375099
 21
18.1975
 31
0.0
  0
LINE
  5
249
100
AcDbEntity
 67
     1
  8
1
  6
CONTINUOUS
 62
    30
100
AcDbLine
 10
3.719887
 20
7.301396
 30
0.0
 11
3.67064
 21
7.301396
 31
0.0
  0
LINE
  5
24A
100
AcDbEntity
 67
     1
  8
1
  6
CONTINUOUS
 62
    30
100
AcDbLine
 10
28.744749
 20
7.333396
 30
0.0
 11
28.744749
 21
7.363396
 31
0.0
  0
LINE
  5
24B
100
AcDbEntity
 67
     1
  8
1
  6
CONTINUOUS
 62
    30
100
AcDbLine
 10
20.791245
 20
7.363396
 30
0.0
 11
13.327735
 21
7.363396
 31
0.0
  0
LINE
  5
24C
100
AcDbEntity
 67
     1
  8
1
  6
CONTINUOUS
 62
    30
100
AcDbLine
 10
21.375099
 20
17.6425
 30
0.0
 11
21.375099
 21
17.4235
 31
0.0
  0
LINE
  5
24D
100
AcDbEntity
 67
     1
  8
1
  6
CONTINUOUS
 62
    30
100
AcDbLine
 10
19.34487
 20
7.309505
 30
0.0
 11
19.34487
 21
7.303397
 31
0.0
  0
LINE
  5
24E
100
AcDbEntity
 67
     1
  8
1
  6
CONTINUOUS
 62
    30
100
AcDbLine
 10
28.897404
 20
7.333396
 30
0.0
 11
28.871399
 21
7.333396
 31
0.0
  0
LINE
  5
24F
100
AcDbEntity
 67
     1
  8
1
  6
CONTINUOUS
 62
    30
100
AcDbLine
 10
29.158167
 20
6.900435
 30
0.0
 11
29.158167
 21
6.923396
 31
0.0
  0
LINE
  5
250
100
AcDbEntity
 67
     1
  8
1
  6
CONTINUOUS
 62
     1
100
AcDbLine
 10
7.746869
 20
7.303396
 30
0.0
 11
7.746869
 21
7.333396
 31
0.0
  0
LINE
  5
251
100
AcDbEntity
 67
     1
  8
1
  6
CONTINUOUS
 62
    30
100
AcDbLine
 10
21.314098
 20
17.4235
 30
0.0
 11
21.314098
 21
17.6425
 31
0.0
  0
LINE
  5
252
100
AcDbEntity
 67
     1
  8
1
  6
CONTINUOUS
 62
    30
100
AcDbLine
 10
15.034869
 20
7.333396
 30
0.0
 11
15.034869
 21
7.331386
 31
0.0
  0
LINE
  5
253
100
AcDbEntity
 67
     1
  8
1
  6
CONTINUOUS
 62
    30
100
AcDbLine
 10
25.25746
 20
7.363396
 30
0.0
 11
25.264458
 21
7.363396
 31
0.0
  0
LINE
  5
254
100
AcDbEntity
 67
     1
  8
1
  6
CONTINUOUS
 62
    30
100
AcDbLine
 10
3.57964
 20
6.863396
 30
0.0
 11
3.11784
 21
6.863396
 31
0.0
  0
LINE
  5
255
100
AcDbEntity
 67
     1
  8
1
  6
CONTINUOUS
 62
    30
100
AcDbLine
 10
19.356417
 20
7.333396
 30
0.0
 11
19.356417
 21
7.303396
 31
0.0
  0
LINE
  5
256
100
AcDbEntity
 67
     1
  8
1
  6
CONTINUOUS
 62
    30
100
AcDbLine
 10
28.812319
 20
7.363396
 30
0.0
 11
28.784544
 21
7.363396
 31
0.0
  0
LINE
  5
257
100
AcDbEntity
 67
     1
  8
1
  6
CONTINUOUS
 62
    30
100
AcDbLine
 10
29.188166
 20
6.867963
 30
0.0
 11
29.188166
 21
6.863396
 31
0.0
  0
LINE
  5
258
100
AcDbEntity
 67
     1
  8
1
  6
CONTINUOUS
 62
    30
100
AcDbLine
 10
21.894325
 20
17.377501
 30
0.0
 11
21.907331
 21
17.377501
 31
0.0
  0
LINE
  5
259
100
AcDbEntity
 67
     1
  8
1
  6
CONTINUOUS
 62
    30
100
AcDbLine
 10
21.066942
 20
7.303396
 30
0.0
 11
21.200132
 21
7.303396
 31
0.0
  0
LINE
  5
25A
100
AcDbEntity
 67
     1
  8
1
  6
CONTINUOUS
 62
    30
100
AcDbLine
 10
21.500099
 20
17.3475
 30
0.0
 11
21.477137
 21
17.3475
 31
0.0
  0
LINE
  5
25B
100
AcDbEntity
 67
     1
  8
1
  6
CONTINUOUS
 62
    30
100
AcDbLine
 10
21.299099
 20
7.303396
 30
0.0
 11
21.299099
 21
7.333396
 31
0.0
  0
LINE
  5
25C
100
AcDbEntity
 67
     1
  8
1
  6
CONTINUOUS
 62
    30
100
AcDbLine
 10
28.897404
 20
7.363396
 30
0.0
 11
28.871399
 21
7.363396
 31
0.0
  0
LINE
  5
25D
100
AcDbEntity
 67
     1
  8
1
  6
CONTINUOUS
 62
    30
100
AcDbLine
 10
3.11784
 20
17.408501
 30
0.0
 11
3.11784
 21
17.3785
 31
0.0
  0
LINE
  5
25E
100
AcDbEntity
 67
     1
  8
1
  6
CONTINUOUS
 62
    30
100
AcDbLine
 10
5.613321
 20
7.303396
 30
0.0
 11
5.613321
 21
7.333396
 31
0.0
  0
LINE
  5
25F
100
AcDbEntity
 67
     1
  8
1
  6
CONTINUOUS
 62
    30
100
AcDbLine
 10
5.624869
 20
17.124716
 30
0.0
 11
5.624869
 21
17.134716
 31
0.0
  0
LINE
  5
260
100
AcDbEntity
 67
     1
  8
1
  6
CONTINUOUS
 62
    30
100
AcDbLine
 10
29.219166
 20
7.272396
 30
0.0
 11
29.219166
 21
6.923396
 31
0.0
  0
LINE
  5
261
100
AcDbEntity
 67
     1
  8
1
  6
CONTINUOUS
 62
    30
100
AcDbLine
 10
21.063564
 20
7.271396
 30
0.0
 11
21.200132
 21
7.271396
 31
0.0
  0
LINE
  5
262
100
AcDbEntity
 67
     1
  8
1
  6
CONTINUOUS
 62
    30
100
AcDbLine
 10
9.934869
 20
17.173687
 30
0.0
 11
9.934869
 21
17.179176
 31
0.0
  0
LINE
  5
263
100
AcDbEntity
 67
     1
  8
1
  6
CONTINUOUS
 62
    30
100
AcDbLine
 10
29.219166
 20
7.314822
 30
0.0
 11
29.219166
 21
7.295357
 31
0.0
  0
LINE
  5
264
100
AcDbEntity
 67
     1
  8
1
  6
CONTINUOUS
 62
    30
100
AcDbLine
 10
20.819815
 20
7.303396
 30
0.0
 11
20.819815
 21
7.333396
 31
0.0
  0
LINE
  5
265
100
AcDbEntity
 67
     1
  8
1
  6
CONTINUOUS
 62
    30
100
AcDbLine
 10
21.299099
 20
7.303396
 30
0.0
 11
21.299099
 21
7.302396
 31
0.0
  0
LINE
  5
266
100
AcDbEntity
 67
     1
  8
1
  6
CONTINUOUS
 62
    30
100
AcDbLine
 10
9.934869
 20
17.157215
 30
0.0
 11
9.934869
 21
17.173687
 31
0.0
  0
LINE
  5
267
100
AcDbEntity
 67
     1
  8
1
  6
CONTINUOUS
 62
    30
100
AcDbLine
 10
5.624869
 20
17.157215
 30
0.0
 11
5.624869
 21
17.134716
 31
0.0
  0
LINE
  5
268
100
AcDbEntity
 67
     1
  8
1
  6
CONTINUOUS
 62
     1
100
AcDbLine
 10
7.871869
 20
7.231938
 30
0.0
 11
7.889971
 21
7.231938
 31
0.0
  0
LINE
  5
269
100
AcDbEntity
 67
     1
  8
1
  6
CONTINUOUS
 62
    30
100
AcDbLine
 10
29.007904
 20
7.303396
 30
0.0
 11
28.997343
 21
7.303396
 31
0.0
  0
LINE
  5
26A
100
AcDbEntity
 67
     1
  8
1
  6
CONTINUOUS
 62
     1
100
AcDbLine
 10
7.776869
 20
7.303396
 30
0.0
 11
7.871869
 21
7.303396
 31
0.0
  0
LINE
  5
26B
100
AcDbEntity
 67
     1
  8
1
  6
CONTINUOUS
 62
    30
100
AcDbLine
 10
30.008165
 20
7.327611
 30
0.0
 11
30.008165
 21
7.311136
 31
0.0
  0
LINE
  5
26C
100
AcDbEntity
 67
     1
  8
1
  6
CONTINUOUS
 62
     1
100
AcDbLine
 10
8.121869
 20
7.32997
 30
0.0
 11
8.121869
 21
7.320216
 31
0.0
  0
LINE
  5
26D
100
AcDbEntity
 67
     1
  8
1
  6
CONTINUOUS
 62
    30
100
AcDbLine
 10
20.833323
 20
7.333396
 30
0.0
 11
20.814919
 21
7.333396
 31
0.0
  0
LINE
  5
26E
100
AcDbEntity
 67
     1
  8
1
  6
CONTINUOUS
 62
    30
100
AcDbLine
 10
3.67064
 20
18.247501
 30
0.0
 11
3.67064
 21
18.263
 31
0.0
  0
LINE
  5
26F
100
AcDbEntity
 67
     1
  8
1
  6
CONTINUOUS
 62
    30
100
AcDbLine
 10
29.453167
 20
7.257396
 30
0.0
 11
30.008165
 21
7.257396
 31
0.0
  0
LINE
  5
270
100
AcDbEntity
 67
     1
  8
1
  6
CONTINUOUS
 62
     1
100
AcDbLine
 10
8.121869
 20
7.231993
 30
0.0
 11
8.004018
 21
7.231993
 31
0.0
  0
LINE
  5
271
100
AcDbEntity
 67
     1
  8
1
  6
CONTINUOUS
 62
    30
100
AcDbLine
 10
19.356417
 20
17.204485
 30
0.0
 11
20.819815
 21
17.886879
 31
0.0
  0
LINE
  5
272
100
AcDbEntity
 67
     1
  8
1
  6
CONTINUOUS
 62
     1
100
AcDbLine
 10
7.871869
 20
7.315717
 30
0.0
 11
7.871869
 21
7.314184
 31
0.0
  0
LINE
  5
273
100
AcDbEntity
 67
     1
  8
1
  6
CONTINUOUS
 62
    30
100
AcDbLine
 10
29.188166
 20
6.900435
 30
0.0
 11
29.188166
 21
6.88097
 31
0.0
  0
LINE
  5
274
100
AcDbEntity
 67
     1
  8
1
  6
CONTINUOUS
 62
     1
100
AcDbLine
 10
28.086937
 20
7.27713
 30
0.0
 11
27.86264
 21
7.288885
 31
0.0
  0
LINE
  5
275
100
AcDbEntity
 67
     1
  8
1
  6
CONTINUOUS
 62
    30
100
AcDbLine
 10
21.444666
 20
17.408501
 30
0.0
 11
21.457672
 21
17.408501
 31
0.0
  0
LINE
  5
276
100
AcDbEntity
 67
     1
  8
1
  6
CONTINUOUS
 62
    30
100
AcDbLine
 10
29.158167
 20
6.863396
 30
0.0
 11
29.158167
 21
6.867963
 31
0.0
  0
LINE
  5
277
100
AcDbEntity
 67
     1
  8
1
  6
CONTINUOUS
 62
     1
100
AcDbLine
 10
27.326962
 20
7.309689
 30
0.0
 11
27.261143
 21
7.271688
 31
0.0
  0
LINE
  5
278
100
AcDbEntity
 67
     1
  8
1
  6
CONTINUOUS
 62
    30
100
AcDbLine
 10
29.158167
 20
7.314822
 30
0.0
 11
29.158167
 21
7.327829
 31
0.0
  0
LINE
  5
279
100
AcDbEntity
 67
     1
  8
1
  6
CONTINUOUS
 62
     1
100
AcDbLine
 10
8.01785
 20
7.238208
 30
0.0
 11
8.006869
 21
7.232718
 31
0.0
  0
LINE
  5
27A
100
AcDbEntity
 67
     1
  8
1
  6
CONTINUOUS
 62
    30
100
AcDbLine
 10
3.11784
 20
17.3785
 30
0.0
 11
3.094879
 21
17.3785
 31
0.0
  0
LINE
  5
27B
100
AcDbEntity
 67
     1
  8
1
  6
CONTINUOUS
 62
    30
100
AcDbLine
 10
21.200132
 20
7.271396
 30
0.0
 11
21.200132
 21
7.301396
 31
0.0
  0
LINE
  5
27C
100
AcDbEntity
 67
     1
  8
1
  6
CONTINUOUS
 62
    30
100
AcDbLine
 10
20.832186
 20
7.303396
 30
0.0
 11
20.819815
 21
7.303396
 31
0.0
  0
LINE
  5
27D
100
AcDbEntity
 67
     1
  8
1
  6
CONTINUOUS
 62
    30
100
AcDbLine
 10
3.094879
 20
17.408501
 30
0.0
 11
3.11784
 21
17.408501
 31
0.0
  0
LINE
  5
27E
100
AcDbEntity
 67
     1
  8
1
  6
CONTINUOUS
 62
    30
100
AcDbLine
 10
21.440098
 20
17.377501
 30
0.0
 11
21.444666
 21
17.377501
 31
0.0
  0
LINE
  5
27F
100
AcDbEntity
 67
     1
  8
1
  6
CONTINUOUS
 62
    30
100
AcDbLine
 10
21.314098
 20
7.256396
 30
0.0
 11
21.319883
 21
7.256396
 31
0.0
  0
LINE
  5
280
100
AcDbEntity
 67
     1
  8
1
  6
CONTINUOUS
 62
     1
100
AcDbLine
 10
8.246869
 20
7.333396
 30
0.0
 11
8.246869
 21
7.303396
 31
0.0
  0
LINE
  5
281
100
AcDbEntity
 67
     1
  8
1
  6
CONTINUOUS
 62
    30
100
AcDbLine
 10
3.075413
 20
17.377501
 30
0.0
 11
3.094879
 21
17.377501
 31
0.0
  0
LINE
  5
282
100
AcDbEntity
 67
     1
  8
1
  6
CONTINUOUS
 62
    30
100
AcDbLine
 10
11.662621
 20
7.333396
 30
0.0
 11
11.642003
 21
7.333396
 31
0.0
  0
LINE
  5
283
100
AcDbEntity
 67
     1
  8
1
  6
CONTINUOUS
 62
    30
100
AcDbLine
 10
29.188166
 20
7.295357
 30
0.0
 11
29.188166
 21
7.272396
 31
0.0
  0
LINE
  5
284
100
AcDbEntity
 67
     1
  8
1
  6
CONTINUOUS
 62
    30
100
AcDbLine
 10
3.05784
 20
17.3475
 30
0.0
 11
3.05784
 21
17.377501
 31
0.0
  0
LINE
  5
285
100
AcDbEntity
 67
     1
  8
1
  6
CONTINUOUS
 62
    30
100
AcDbLine
 10
21.704868
 20
6.958396
 30
0.0
 11
21.584869
 21
6.958396
 31
0.0
  0
LINE
  5
286
100
AcDbEntity
 67
     1
  8
1
  6
CONTINUOUS
 62
    30
100
AcDbLine
 10
21.249851
 20
17.6425
 30
0.0
 11
21.299099
 21
17.6425
 31
0.0
  0
LINE
  5
287
100
AcDbEntity
 67
     1
  8
1
  6
CONTINUOUS
 62
    30
100
AcDbLine
 10
3.649855
 20
6.863396
 30
0.0
 11
3.63338
 21
6.863396
 31
0.0
  0
LINE
  5
288
100
AcDbEntity
 67
     1
  8
1
  6
CONTINUOUS
 62
    30
100
AcDbLine
 10
20.833323
 20
7.363396
 30
0.0
 11
20.814919
 21
7.363396
 31
0.0
  0
LINE
  5
289
100
AcDbEntity
 67
     1
  8
1
  6
CONTINUOUS
 62
    30
100
AcDbLine
 10
11.662621
 20
7.363396
 30
0.0
 11
11.684265
 21
7.363396
 31
0.0
  0
LINE
  5
28A
100
AcDbEntity
 67
     1
  8
1
  6
CONTINUOUS
 62
    30
100
AcDbLine
 10
3.67064
 20
17.6425
 30
0.0
 11
3.641556
 21
17.6425
 31
0.0
  0
LINE
  5
28B
100
AcDbEntity
 67
     1
  8
1
  6
CONTINUOUS
 62
    30
100
AcDbLine
 10
5.624869
 20
7.325896
 30
0.0
 11
5.624869
 21
7.309505
 31
0.0
  0
LINE
  5
28C
100
AcDbEntity
 67
     1
  8
1
  6
CONTINUOUS
 62
     1
100
AcDbLine
 10
8.01785
 20
7.264189
 30
0.0
 11
8.021869
 21
7.271688
 31
0.0
  0
LINE
  5
28D
100
AcDbEntity
 67
     1
  8
1
  6
CONTINUOUS
 62
    30
100
AcDbLine
 10
29.01515
 20
7.333396
 30
0.0
 11
29.453163
 21
7.333396
 31
0.0
  0
LINE
  5
28E
100
AcDbEntity
 67
     1
  8
1
  6
CONTINUOUS
 62
    30
100
AcDbLine
 10
8.121839
 20
7.301396
 30
0.0
 11
9.934869
 21
7.301396
 31
0.0
  0
LINE
  5
28F
100
AcDbEntity
 67
     1
  8
1
  6
CONTINUOUS
 62
    30
100
AcDbLine
 10
20.848984
 20
7.333396
 30
0.0
 11
20.844988
 21
7.333396
 31
0.0
  0
LINE
  5
290
100
AcDbEntity
 67
     1
  8
1
  6
CONTINUOUS
 62
    30
100
AcDbLine
 10
3.62564
 20
17.6425
 30
0.0
 11
3.62564
 21
17.4235
 31
0.0
  0
ARC
  5
291
100
AcDbEntity
 67
     1
  8
1
  6
CONTINUOUS
 62
    30
100
AcDbCircle
 10
28.945381
 20
7.318396
 30
0.0
 40
0.015
100
AcDbArc
 50
30.0
 51
90.0
  0
CIRCLE
  5
292
100
AcDbEntity
 67
     1
  8
1
  6
CONTINUOUS
 62
    30
100
AcDbCircle
 10
7.896869
 20
16.994423
 30
0.0
 40
0.05
  0
ARC
  5
293
100
AcDbEntity
 67
     1
  8
1
  6
CONTINUOUS
 62
    30
100
AcDbCircle
 10
3.67064
 20
7.256396
 30
0.0
 40
0.015
100
AcDbArc
 50
90.0
 51
180.0
  0
ARC
  5
294
100
AcDbEntity
 67
     1
  8
1
  6
CONTINUOUS
 62
    30
100
AcDbCircle
 10
21.851898
 20
6.923396
 30
0.0
 40
0.06
100
AcDbArc
 50
270.0
 51
360.0
  0
ARC
  5
295
100
AcDbEntity
 67
     1
  8
1
  6
CONTINUOUS
 62
    30
100
AcDbCircle
 10
21.249851
 20
17.702501
 30
0.0
 40
0.06
100
AcDbArc
 50
214.039378
 51
270.0
  0
ARC
  5
296
100
AcDbEntity
 67
     1
  8
1
  6
CONTINUOUS
 62
     1
100
AcDbCircle
 10
28.377064
 20
7.271938
 30
0.0
 40
0.01
100
AcDbArc
 50
267.0
 51
315.0
  0
ARC
  5
297
100
AcDbEntity
 67
     1
  8
1
  6
CONTINUOUS
 62
    30
100
AcDbCircle
 10
21.390099
 20
17.4235
 30
0.0
 40
0.045
100
AcDbArc
 50
180.0
 51
270.0
  0
CIRCLE
  5
298
100
AcDbEntity
 67
     1
  8
1
  6
CONTINUOUS
 62
    30
100
AcDbCircle
 10
8.096869
 20
16.760633
 30
0.0
 40
0.05
  0
ARC
  5
299
100
AcDbEntity
 67
     1
  8
1
  6
CONTINUOUS
 62
    30
100
AcDbCircle
 10
3.719887
 20
17.702501
 30
0.0
 40
0.06
100
AcDbArc
 50
270.0
 51
325.960622
  0
ARC
  5
29A
100
AcDbEntity
 67
     1
  8
1
  6
CONTINUOUS
 62
    30
100
AcDbCircle
 10
3.11784
 20
7.272396
 30
0.0
 40
0.06
100
AcDbArc
 50
90.0
 51
180.0
  0
ARC
  5
29B
100
AcDbEntity
 67
     1
  8
1
  6
CONTINUOUS
 62
     1
100
AcDbCircle
 10
27.349461
 20
7.270718
 30
0.0
 40
0.045
100
AcDbArc
 50
87.0
 51
120.0
  0
ARC
  5
29C
100
AcDbEntity
 67
     1
  8
1
  6
CONTINUOUS
 62
    30
100
AcDbCircle
 10
21.299099
 20
7.257396
 30
0.0
 40
0.046
100
AcDbArc
 50
0.0
 51
90.0
  0
ARC
  5
29D
100
AcDbEntity
 67
     1
  8
1
  6
CONTINUOUS
 62
    30
100
AcDbCircle
 10
20.845171
 20
17.8325
 30
0.0
 40
0.06
100
AcDbArc
 50
90.0
 51
114.999999
  0
ARC
  5
29E
100
AcDbEntity
 67
     1
  8
1
  6
CONTINUOUS
 62
    30
100
AcDbCircle
 10
4.220755
 20
17.024715
 30
0.0
 40
0.1
100
AcDbArc
 50
90.0
 51
244.999999
  0
ARC
  5
29F
100
AcDbEntity
 67
     1
  8
1
  6
CONTINUOUS
 62
    30
100
AcDbCircle
 10
3.264869
 20
7.098396
 30
0.0
 40
0.14
100
AcDbArc
 50
90.0
 51
270.0
  0
ARC
  5
2A0
100
AcDbEntity
 67
     1
  8
1
  6
CONTINUOUS
 62
     1
100
AcDbCircle
 10
27.349461
 20
7.270718
 30
0.0
 40
0.015
100
AcDbArc
 50
87.0
 51
120.0
  0
ARC
  5
2A1
100
AcDbEntity
 67
     1
  8
1
  6
CONTINUOUS
 62
     1
100
AcDbCircle
 10
28.377064
 20
7.271938
 30
0.0
 40
0.04
100
AcDbArc
 50
267.0
 51
315.0
  0
ARC
  5
2A2
100
AcDbEntity
 67
     1
  8
1
  6
CONTINUOUS
 62
    30
100
AcDbCircle
 10
3.57964
 20
17.4235
 30
0.0
 40
0.046
100
AcDbArc
 50
270.0
 51
360.0
  0
ARC
  5
2A3
100
AcDbEntity
 67
     1
  8
1
  6
CONTINUOUS
 62
    30
100
AcDbCircle
 10
21.390099
 20
17.4235
 30
0.0
 40
0.015
100
AcDbArc
 50
180.0
 51
270.0
  0
ARC
  5
2A4
100
AcDbEntity
 67
     1
  8
1
  6
CONTINUOUS
 62
    30
100
AcDbCircle
 10
21.390099
 20
17.4235
 30
0.0
 40
0.046
100
AcDbArc
 50
180.0
 51
270.0
  0
ARC
  5
2A5
100
AcDbEntity
 67
     1
  8
1
  6
CONTINUOUS
 62
    30
100
AcDbCircle
 10
28.997343
 20
7.348396
 30
0.0
 40
0.045
100
AcDbArc
 50
210.0
 51
269.595742
  0
ARC
  5
2A6
100
AcDbEntity
 67
     1
  8
1
  6
CONTINUOUS
 62
    30
100
AcDbCircle
 10
4.124567
 20
17.8325
 30
0.0
 40
0.06
100
AcDbArc
 50
65.000001
 51
90.0
  0
ARC
  5
2A7
100
AcDbEntity
 67
     1
  8
1
  6
CONTINUOUS
 62
    30
100
AcDbCircle
 10
30.058167
 20
7.302396
 30
0.0
 40
0.001
100
AcDbArc
 50
270.0
 51
450.0
  0
ARC
  5
2A8
100
AcDbEntity
 67
     1
  8
1
  6
CONTINUOUS
 62
    30
100
AcDbCircle
 10
29.848166
 20
7.023396
 30
0.0
 40
0.16
100
AcDbArc
 50
270.0
 51
360.0
  0
ARC
  5
2A9
100
AcDbEntity
 67
     1
  8
1
  6
CONTINUOUS
 62
    30
100
AcDbCircle
 10
21.390099
 20
17.4235
 30
0.0
 40
0.076
100
AcDbArc
 50
180.0
 51
270.0
  0
ARC
  5
2AA
100
AcDbEntity
 67
     1
  8
1
  6
CONTINUOUS
 62
    30
100
AcDbCircle
 10
21.299099
 20
7.257396
 30
0.0
 40
0.076
100
AcDbArc
 50
0.0
 51
90.0
  0
ARC
  5
2AB
100
AcDbEntity
 67
     1
  8
1
  6
CONTINUOUS
 62
    30
100
AcDbCircle
 10
21.299099
 20
7.256396
 30
0.0
 40
0.015
100
AcDbArc
 50
0.0
 51
90.0
  0
ARC
  5
2AC
100
AcDbEntity
 67
     1
  8
1
  6
CONTINUOUS
 62
    30
100
AcDbCircle
 10
21.585136
 20
7.098396
 30
0.0
 40
0.14
100
AcDbArc
 50
90.109116
 51
269.890884
  0
ARC
  5
2AD
100
AcDbEntity
 67
     1
  8
1
  6
CONTINUOUS
 62
    30
100
AcDbCircle
 10
3.57964
 20
17.4235
 30
0.0
 40
0.015
100
AcDbArc
 50
270.0
 51
360.0
  0
ARC
  5
2AE
100
AcDbEntity
 67
     1
  8
1
  6
CONTINUOUS
 62
    30
100
AcDbCircle
 10
3.57964
 20
17.4235
 30
0.0
 40
0.076
100
AcDbArc
 50
270.0
 51
360.0
  0
ARC
  5
2AF
100
AcDbEntity
 67
     1
  8
1
  6
CONTINUOUS
 62
    30
100
AcDbCircle
 10
13.285473
 20
13.544423
 30
0.0
 40
0.1
100
AcDbArc
 50
270.0
 51
295.000001
  0
ARC
  5
2B0
100
AcDbEntity
 67
     1
  8
1
  6
CONTINUOUS
 62
     1
100
AcDbCircle
 10
28.471302
 20
7.288396
 30
0.0
 40
0.015
100
AcDbArc
 50
90.0
 51
135.0
  0
ARC
  5
2B1
100
AcDbEntity
 67
     1
  8
1
  6
CONTINUOUS
 62
    30
100
AcDbCircle
 10
11.684265
 20
13.544423
 30
0.0
 40
0.1
100
AcDbArc
 50
244.999999
 51
270.0
  0
ARC
  5
2B2
100
AcDbEntity
 67
     1
  8
1
  6
CONTINUOUS
 62
    30
100
AcDbCircle
 10
21.299099
 20
7.256396
 30
0.0
 40
0.045
100
AcDbArc
 50
0.0
 51
90.0
  0
ARC
  5
2B3
100
AcDbEntity
 67
     1
  8
1
  6
CONTINUOUS
 62
    30
100
AcDbCircle
 10
19.36487
 20
17.186359
 30
0.0
 40
0.02
100
AcDbArc
 50
114.999999
 51
179.090388
  0
ARC
  5
2B4
100
AcDbEntity
 67
     1
  8
1
  6
CONTINUOUS
 62
    30
100
AcDbCircle
 10
3.46964
 20
7.272396
 30
0.0
 40
0.06
100
AcDbArc
 50
0.0
 51
90.0
  0
ARC
  5
2B5
100
AcDbEntity
 67
     1
  8
1
  6
CONTINUOUS
 62
    30
100
AcDbCircle
 10
3.57964
 20
17.4235
 30
0.0
 40
0.045
100
AcDbArc
 50
270.0
 51
360.0
  0
ARC
  5
2B6
100
AcDbEntity
 67
     1
  8
1
  6
CONTINUOUS
 62
    30
100
AcDbCircle
 10
20.748983
 20
17.024715
 30
0.0
 40
0.1
100
AcDbArc
 50
295.000001
 51
450.0
  0
ARC
  5
2B7
100
AcDbEntity
 67
     1
  8
1
  6
CONTINUOUS
 62
    30
100
AcDbCircle
 10
28.997343
 20
7.348396
 30
0.0
 40
0.015
100
AcDbArc
 50
210.0
 51
268.787144
  0
ARC
  5
2B8
100
AcDbEntity
 67
     1
  8
1
  6
CONTINUOUS
 62
    30
100
AcDbCircle
 10
3.11784
 20
6.923396
 30
0.0
 40
0.06
100
AcDbArc
 50
180.0
 51
270.0
  0
ARC
  5
2B9
100
AcDbEntity
 67
     1
  8
1
  6
CONTINUOUS
 62
    30
100
AcDbCircle
 10
5.604869
 20
17.186359
 30
0.0
 40
0.02
100
AcDbArc
 50
0.909612
 51
65.000001
  0
ARC
  5
2BA
100
AcDbEntity
 67
     1
  8
1
  6
CONTINUOUS
 62
    30
100
AcDbCircle
 10
3.384603
 20
7.098396
 30
0.0
 40
0.14
100
AcDbArc
 50
270.109116
 51
449.890884
  0
ARC
  5
2BB
100
AcDbEntity
 67
     1
  8
1
  6
CONTINUOUS
 62
    30
100
AcDbCircle
 10
21.704868
 20
7.098396
 30
0.0
 40
0.14
100
AcDbArc
 50
270.0
 51
450.0
  0
ARC
  5
2BC
100
AcDbEntity
 67
     1
  8
1
  6
CONTINUOUS
 62
    30
100
AcDbCircle
 10
3.952516
 20
17.8325
 30
0.0
 40
0.06
100
AcDbArc
 50
90.0
 51
145.960622
  0
ARC
  5
2BD
100
AcDbEntity
 67
     1
  8
1
  6
CONTINUOUS
 62
    30
100
AcDbCircle
 10
3.67064
 20
7.257396
 30
0.0
 40
0.076
100
AcDbArc
 50
90.0
 51
180.0
  0
ARC
  5
2BE
100
AcDbEntity
 67
     1
  8
1
  6
CONTINUOUS
 62
    30
100
AcDbCircle
 10
28.945381
 20
7.318396
 30
0.0
 40
0.045
100
AcDbArc
 50
30.0
 51
90.0
  0
ARC
  5
2BF
100
AcDbEntity
 67
     1
  8
1
  6
CONTINUOUS
 62
     1
100
AcDbCircle
 10
28.471302
 20
7.288396
 30
0.0
 40
0.045
100
AcDbArc
 50
90.0
 51
135.0
  0
ARC
  5
2C0
100
AcDbEntity
 67
     1
  8
1
  6
CONTINUOUS
 62
    30
100
AcDbCircle
 10
30.058167
 20
7.302396
 30
0.0
 40
0.031
100
AcDbArc
 50
270.0
 51
450.0
  0
ARC
  5
2C1
100
AcDbEntity
 67
     1
  8
1
  6
CONTINUOUS
 62
    30
100
AcDbCircle
 10
3.67064
 20
7.257396
 30
0.0
 40
0.046
100
AcDbArc
 50
90.0
 51
180.0
  0
ARC
  5
2C2
100
AcDbEntity
 67
     1
  8
1
  6
CONTINUOUS
 62
    30
100
AcDbCircle
 10
3.67064
 20
7.256396
 30
0.0
 40
0.045
100
AcDbArc
 50
90.0
 51
180.0
  0
ARC
  5
2C3
100
AcDbEntity
 67
     1
  8
1
  6
CONTINUOUS
 62
    30
100
AcDbCircle
 10
21.500099
 20
7.272396
 30
0.0
 40
0.06
100
AcDbArc
 50
90.0
 51
180.0
  0
ARC
  5
2C4
100
AcDbEntity
 67
     1
  8
1
  6
CONTINUOUS
 62
    30
100
AcDbCircle
 10
21.017221
 20
17.8325
 30
0.0
 40
0.06
100
AcDbArc
 50
34.039378
 51
90.0
  0
ARC
  5
2C5
100
AcDbEntity
 67
     1
  8
1
  6
CONTINUOUS
 62
    30
100
AcDbCircle
 10
21.851898
 20
7.272396
 30
0.0
 40
0.06
100
AcDbArc
 50
0.0
 51
90.0
  0
ENDSEC
  0
SECTION
  2
OBJECTS
  0
DICTIONARY
  5
19
100
AcDbDictionary
  3
ACAD_GROUP
350
1A
  3
ACAD_MLINESTYLE
350
1B
  0
DICTIONARY
  5
1A
102
{ACAD_REACTORS
330
19
102
}
100
AcDbDictionary
  0
DICTIONARY
  5
1B
102
{ACAD_REACTORS
330
19
102
}
100
AcDbDictionary
  3
STANDARD
350
1C
  0
MLINESTYLE
  5
1C
102
{ACAD_REACTORS
330
1B
102
}
100
AcDbMlineStyle
  2
STANDARD
 70
     0
  3

 62
     0
 51
90.0
 52
90.0
 71
     2
 49
0.5
 62
   256
  6
BYLAYER
 49
-0.5
 62
   256
  6
BYLAYER
  0
DICTIONARY
  5
22
102
{ACAD_REACTORS
330
19
102
}
100
AcDbDictionary
  0
ENDSEC
  0
EOF
