  0
SECTION
  2
HEADER
  9
$ACADVER
  1
AC1015
  9
$ACADMAINTVER
 70
     6
  9
$DWGCODEPAGE
  3
ANSI_1252
  9
$INSBASE
 10
0.0
 20
0.0
 30
0.0
  9
$EXTMIN
 10
6.636993495092016
 20
3.975616510929097
 30
-0.0015258207003612
  9
$EXTMAX
 10
30.0607605726234
 20
18.27783207813957
 30
0.0000000349246008
  9
$LIMMIN
 10
0.0
 20
0.0
  9
$LIMMAX
 10
0.0
 20
0.0
  9
$ORTHOMODE
 70
     0
  9
$REGENMODE
 70
     1
  9
$FILLMODE
 70
     1
  9
$QTEXTMODE
 70
     0
  9
$MIRRTEXT
 70
     1
  9
$LTSCALE
 40
1.0
  9
$ATTMODE
 70
     1
  9
$TEXTSIZE
 40
0.0
  9
$TRACEWID
 40
0.05
  9
$TEXTSTYLE
  7
STANDARD
  9
$CLAYER
  8
0
  9
$CELTYPE
  6
CONTINUOUS
  9
$CECOLOR
 62
   256
  9
$CELTSCALE
 40
1.0
  9
$DISPSILH
 70
     0
  9
$DIMSCALE
 40
1.0
  9
$DIMASZ
 40
0.0
  9
$DIMEXO
 40
0.0
  9
$DIMDLI
 40
0.38
  9
$DIMRND
 40
0.0
  9
$DIMDLE
 40
0.0
  9
$DIMEXE
 40
0.18
  9
$DIMTP
 40
0.0
  9
$DIMTM
 40
0.0
  9
$DIMTXT
 40
0.2755905512
  9
$DIMCEN
 40
0.09
  9
$DIMTSZ
 40
0.0
  9
$DIMTOL
 70
     0
  9
$DIMLIM
 70
     0
  9
$DIMTIH
 70
     1
  9
$DIMTOH
 70
     1
  9
$DIMSE1
 70
     0
  9
$DIMSE2
 70
     0
  9
$DIMTAD
 70
     1
  9
$DIMZIN
 70
     0
  9
$DIMBLK
  1

  9
$DIMASO
 70
     1
  9
$DIMSHO
 70
     1
  9
$DIMPOST
  1

  9
$DIMAPOST
  1

  9
$DIMALT
 70
     0
  9
$DIMALTD
 70
     2
  9
$DIMALTF
 40
25.4
  9
$DIMLFAC
 40
1.0
  9
$DIMTOFL
 70
     0
  9
$DIMTVP
 40
0.0
  9
$DIMTIX
 70
     0
  9
$DIMSOXD
 70
     0
  9
$DIMSAH
 70
     0
  9
$DIMBLK1
  1

  9
$DIMBLK2
  1

  9
$DIMSTYLE
  2
STANDARD
  9
$DIMCLRD
 70
     0
  9
$DIMCLRE
 70
     0
  9
$DIMCLRT
 70
     0
  9
$DIMTFAC
 40
1.0
  9
$DIMGAP
 40
0.0
  9
$DIMJUST
 70
     0
  9
$DIMSD1
 70
     0
  9
$DIMSD2
 70
     0
  9
$DIMTOLJ
 70
     1
  9
$DIMTZIN
 70
     0
  9
$DIMALTZ
 70
     0
  9
$DIMALTTZ
 70
     0
  9
$DIMUPT
 70
     0
  9
$DIMDEC
 70
     4
  9
$DIMTDEC
 70
     4
  9
$DIMALTU
 70
     2
  9
$DIMALTTD
 70
     2
  9
$DIMTXSTY
  7
STANDARD
  9
$DIMAUNIT
 70
     0
  9
$DIMADEC
 70
     0
  9
$DIMALTRND
 40
0.0
  9
$DIMAZIN
 70
     0
  9
$DIMDSEP
 70
    46
  9
$DIMATFIT
 70
     3
  9
$DIMFRAC
 70
     0
  9
$DIMLDRBLK
  1

  9
$DIMLUNIT
 70
     2
  9
$DIMLWD
 70
    -2
  9
$DIMLWE
 70
    -2
  9
$DIMTMOVE
 70
     0
  9
$LUNITS
 70
     2
  9
$LUPREC
 70
     2
  9
$SKETCHINC
 40
0.1
  9
$FILLETRAD
 40
0.0
  9
$AUNITS
 70
     0
  9
$AUPREC
 70
     2
  9
$MENU
  1
acad
  9
$ELEVATION
 40
0.0
  9
$PELEVATION
 40
0.0
  9
$THICKNESS
 40
0.0
  9
$LIMCHECK
 70
     0
  9
$CHAMFERA
 40
0.0
  9
$CHAMFERB
 40
0.0
  9
$CHAMFERC
 40
0.0
  9
$CHAMFERD
 40
0.0
  9
$SKPOLY
 70
     0
  9
$TDCREATE
 40
2312272.517363611
  9
$TDUCREATE
 40
2312272.767363611
  9
$TDUPDATE
 40
2454524.658856423
  9
$TDUUPDATE
 40
2454524.908856423
  9
$TDINDWG
 40
0.0001640741
  9
$TDUSRTIMER
 40
0.0001639005
  9
$USRTIMER
 70
     1
  9
$ANGBASE
 50
0.0
  9
$ANGDIR
 70
     0
  9
$PDMODE
 70
     0
  9
$PDSIZE
 40
-1.0
  9
$PLINEWID
 40
0.0
  9
$SPLFRAME
 70
     0
  9
$SPLINETYPE
 70
     6
  9
$SPLINESEGS
 70
     8
  9
$HANDSEED
  5
7C3
  9
$SURFTAB1
 70
     6
  9
$SURFTAB2
 70
     6
  9
$SURFTYPE
 70
     6
  9
$SURFU
 70
     6
  9
$SURFV
 70
     6
  9
$UCSBASE
  2

  9
$UCSNAME
  2

  9
$UCSORG
 10
0.0
 20
0.0
 30
0.0
  9
$UCSXDIR
 10
1.0
 20
0.0
 30
0.0
  9
$UCSYDIR
 10
0.0
 20
1.0
 30
0.0
  9
$UCSORTHOREF
  2

  9
$UCSORTHOVIEW
 70
     0
  9
$UCSORGTOP
 10
0.0
 20
0.0
 30
0.0
  9
$UCSORGBOTTOM
 10
0.0
 20
0.0
 30
0.0
  9
$UCSORGLEFT
 10
0.0
 20
0.0
 30
0.0
  9
$UCSORGRIGHT
 10
0.0
 20
0.0
 30
0.0
  9
$UCSORGFRONT
 10
0.0
 20
0.0
 30
0.0
  9
$UCSORGBACK
 10
0.0
 20
0.0
 30
0.0
  9
$PUCSBASE
  2

  9
$PUCSNAME
  2

  9
$PUCSORG
 10
0.0
 20
0.0
 30
0.0
  9
$PUCSXDIR
 10
1.0
 20
0.0
 30
0.0
  9
$PUCSYDIR
 10
0.0
 20
1.0
 30
0.0
  9
$PUCSORTHOREF
  2

  9
$PUCSORTHOVIEW
 70
     0
  9
$PUCSORGTOP
 10
0.0
 20
0.0
 30
0.0
  9
$PUCSORGBOTTOM
 10
0.0
 20
0.0
 30
0.0
  9
$PUCSORGLEFT
 10
0.0
 20
0.0
 30
0.0
  9
$PUCSORGRIGHT
 10
0.0
 20
0.0
 30
0.0
  9
$PUCSORGFRONT
 10
0.0
 20
0.0
 30
0.0
  9
$PUCSORGBACK
 10
0.0
 20
0.0
 30
0.0
  9
$USERI1
 70
     0
  9
$USERI2
 70
     0
  9
$USERI3
 70
     0
  9
$USERI4
 70
     0
  9
$USERI5
 70
     0
  9
$USERR1
 40
0.0
  9
$USERR2
 40
0.0
  9
$USERR3
 40
0.0
  9
$USERR4
 40
0.0
  9
$USERR5
 40
0.0
  9
$WORLDVIEW
 70
     1
  9
$SHADEDGE
 70
     3
  9
$SHADEDIF
 70
    70
  9
$TILEMODE
 70
     1
  9
$MAXACTVP
 70
    16
  9
$PINSBASE
 10
0.0
 20
0.0
 30
0.0
  9
$PLIMCHECK
 70
     0
  9
$PEXTMIN
 10
1.000000000000000E+20
 20
1.000000000000000E+20
 30
1.000000000000000E+20
  9
$PEXTMAX
 10
-1.000000000000000E+20
 20
-1.000000000000000E+20
 30
-1.000000000000000E+20
  9
$PLIMMIN
 10
0.0
 20
0.0
  9
$PLIMMAX
 10
12.0
 20
9.0
  9
$UNITMODE
 70
     0
  9
$VISRETAIN
 70
     0
  9
$PLINEGEN
 70
     1
  9
$PSLTSCALE
 70
     1
  9
$TREEDEPTH
 70
  3020
  9
$CMLSTYLE
  2
STANDARD
  9
$CMLJUST
 70
     0
  9
$CMLSCALE
 40
1.0
  9
$PROXYGRAPHICS
 70
     0
  9
$MEASUREMENT
 70
     0
  9
$CELWEIGHT
370
    -1
  9
$ENDCAPS
280
     0
  9
$JOINSTYLE
280
     0
  9
$LWDISPLAY
290
     0
  9
$INSUNITS
 70
     0
  9
$HYPERLINKBASE
  1

  9
$STYLESHEET
  1

  9
$XEDIT
290
     1
  9
$CEPSNTYPE
380
     0
  9
$PSTYLEMODE
290
     1
  9
$FINGERPRINTGUID
  2
{862917F4-5098-4442-8810-605935A96F43}
  9
$VERSIONGUID
  2
{D7B51D15-23D9-4B15-A6F3-DEA345224EC9}
  9
$EXTNAMES
290
     1
  9
$PSVPSCALE
 40
0.0
  9
$OLESTARTUP
290
     0
  0
ENDSEC
  0
SECTION
  2
CLASSES
  0
CLASS
  1
LWPOLYLINE
  2
AcDbPolyline
  3
AutoCAD 2000
 90
    32768
280
     0
281
     1
  0
CLASS
  1
IMAGE
  2
AcDbRasterImage
  3
ISM
 90
    32895
280
     0
281
     1
  0
CLASS
  1
OLE2FRAME
  2
AcDbOle2Frame
  3
AutoCAD 2000
 90
    32768
280
     0
281
     1
  0
CLASS
  1
HATCH
  2
AcDbHatch
  3
AutoCAD 2000
 90
    32768
280
     0
281
     1
  0
CLASS
  1
DICTIONARYVAR
  2
AcDbDictionaryVar
  3
AutoCAD 2000
 90
    32768
280
     0
281
     0
  0
CLASS
  1
RASTERVARIABLES
  2
AcDbRasterVariables
  3
ISM
 90
    32768
280
     0
281
     0
  0
CLASS
  1
IMAGEDEF
  2
AcDbRasterImageDef
  3
ISM
 90
    32768
280
     0
281
     0
  0
CLASS
  1
IMAGEDEF_REACTOR
  2
AcDbRasterImageDefReactor
  3
ISM
 90
    32769
280
     0
281
     0
  0
CLASS
  1
IDBUFFER
  2
AcDbIdBuffer
  3
AutoCAD 2000
 90
    32768
280
     0
281
     0
  0
CLASS
  1
SPATIAL_FILTER
  2
AcDbSpatialFilter
  3
AutoCAD 2000
 90
    32768
280
     0
281
     0
  0
CLASS
  1
XRECORD
  2
AcDbXrecord
  3
AutoCAD 2000
 90
    32768
280
     0
281
     0
  0
CLASS
  1
SORTENTSTABLE
  2
AcDbSortentsTable
  3
AutoCAD 2000
 90
    32768
280
     0
281
     0
  0
CLASS
  1
LAYER_INDEX
  2
AcDbLayerIndex
  3
AutoCAD 2000
 90
    32768
280
     0
281
     0
  0
CLASS
  1
SPATIAL_INDEX
  2
AcDbSpatialIndex
  3
AutoCAD 2000
 90
    32768
280
     0
281
     0
  0
CLASS
  1
OBJECT_PTR
  2
CAseDLPNTableRecord
  3
ASE-LPNTableRecord
 90
    32769
280
     0
281
     0
  0
CLASS
  1
LAYOUT
  2
AcDbLayout
  3
AutoCAD 2000
 90
        0
280
     0
281
     0
  0
CLASS
  1
PLOTSETTINGS
  2
AcDbPlotSettings
  3
AutoCAD 2000
 90
    32768
280
     0
281
     0
  0
CLASS
  1
ACDBDICTIONARYWDFLT
  2
AcDbDictionaryWithDefault
  3
AutoCAD 2000
 90
        0
280
     0
281
     0
  0
CLASS
  1
ACDBPLACEHOLDER
  2
AcDbPlaceHolder
  3
AutoCAD 2000
 90
        0
280
     0
281
     0
  0
CLASS
  1
VBA_PROJECT
  2
AcDbVbaProject
  3
acadvba
 90
    32768
280
     0
281
     0
  0
CLASS
  1
WIPEOUT
  2
AcDbWipeout
  3
WipeOut|AutoCAD Express Tool|expresstools@autodesk.com
 90
    32895
280
     0
281
     1
  0
CLASS
  1
WIPEOUTVARIABLES
  2
AcDbWipeoutVariables
  3
WipeOut|AutoCAD Express Tool|expresstools@autodesk.com
 90
    32768
280
     0
281
     0
  0
CLASS
  1
RTEXT
  2
RText
  3
RText|AutoCAD Express Tool|expresstools@autodesk.com
 90
    32768
280
     0
281
     1
  0
CLASS
  1
ARCALIGNEDTEXT
  2
AcDbArcAlignedText
  3
ATEXT|AutoCAD Express Tool|expresstools@autodesk.com
 90
    32768
280
     0
281
     1
  0
ENDSEC
  0
SECTION
  2
TABLES
  0
TABLE
  2
VPORT
  5
7
330
0
100
AcDbSymbolTable
 70
     2
  0
VPORT
  5
7C2
330
7
100
AcDbSymbolTableRecord
100
AcDbViewportTableRecord
  2
*Active
 70
     0
 10
0.0
 20
0.0
 11
1.0
 21
1.0
 12
15.0303802863117
 22
9.138916039069787
 13
0.0
 23
0.0
 14
1.0
 24
1.0
 15
0.0
 25
0.0
 16
0.0
 26
0.0
 36
1.0
 17
0.0
 27
0.0
 37
0.0
 40
19.20841108623283
 41
1.571134020618556
 42
50.0
 43
0.0
 44
0.0
 50
0.0
 51
0.0
 71
     0
 72
  2000
 73
     1
 74
     1
 75
     0
 76
     0
 77
     0
 78
     0
281
     0
 65
     1
110
0.0
120
0.0
130
0.0
111
1.0
121
0.0
131
0.0
112
0.0
122
1.0
132
0.0
 79
     0
146
0.0
  0
ENDTAB
  0
TABLE
  2
LTYPE
  5
4
330
0
100
AcDbSymbolTable
 70
     6
  0
LTYPE
  5
11
330
4
100
AcDbSymbolTableRecord
100
AcDbLinetypeTableRecord
  2
BYBLOCK
 70
     0
  3

 72
    65
 73
     0
 40
0.0
  0
LTYPE
  5
12
330
4
100
AcDbSymbolTableRecord
100
AcDbLinetypeTableRecord
  2
BYLAYER
 70
     0
  3

 72
    65
 73
     0
 40
0.0
  0
LTYPE
  5
13
330
4
100
AcDbSymbolTableRecord
100
AcDbLinetypeTableRecord
  2
CONTINUOUS
 70
     0
  3
Solid line
 72
    65
 73
     0
 40
0.0
  0
LTYPE
  5
1D
330
4
100
AcDbSymbolTableRecord
100
AcDbLinetypeTableRecord
  2
HIDDEN
 70
     0
  3
Hidden __ __ __ __ __ __ __ __ __ __ __ __ __ __
 72
    65
 73
     2
 40
0.075
 49
0.05
 74
     0
 49
-0.025
 74
     0
  0
LTYPE
  5
1E
330
4
100
AcDbSymbolTableRecord
100
AcDbLinetypeTableRecord
  2
PHANTOM
 70
     0
  3
Phantom ______  __  __  ______  __  __  ______
 72
    65
 73
     6
 40
0.5
 49
0.25
 74
     0
 49
-0.05
 74
     0
 49
0.05
 74
     0
 49
-0.05
 74
     0
 49
0.05
 74
     0
 49
-0.05
 74
     0
  0
LTYPE
  5
1F
330
4
100
AcDbSymbolTableRecord
100
AcDbLinetypeTableRecord
  2
CENTER
 70
     0
  3
Center ____ _ ____ _ ____ _ ____ _ ____ _ ____
 72
    65
 73
     4
 40
0.4
 49
0.25
 74
     0
 49
-0.05
 74
     0
 49
0.05
 74
     0
 49
-0.05
 74
     0
  0
LTYPE
  5
20
330
4
100
AcDbSymbolTableRecord
100
AcDbLinetypeTableRecord
  2
CENTERX2
 70
     0
  3
Center (2x) ________  __  ________  __  _____
 72
    65
 73
     4
 40
0.8
 49
0.5
 74
     0
 49
-0.1
 74
     0
 49
0.1
 74
     0
 49
-0.1
 74
     0
  0
LTYPE
  5
21
330
4
100
AcDbSymbolTableRecord
100
AcDbLinetypeTableRecord
  2
DOT2
 70
     0
  3
Dot (.5x) ........................................
 72
    65
 73
     2
 40
0.025
 49
0.0
 74
     0
 49
-0.025
 74
     0
  0
ENDTAB
  0
TABLE
  2
LAYER
  5
2
330
0
100
AcDbSymbolTable
 70
     2
  0
LAYER
  5
14
330
2
100
AcDbSymbolTableRecord
100
AcDbLayerTableRecord
  2
0
 70
     0
 62
     7
  6
CONTINUOUS
370
    -3
390
7B7
  0
LAYER
  5
23
330
2
100
AcDbSymbolTableRecord
100
AcDbLayerTableRecord
  2
DEFPOINTS
 70
     0
 62
     7
  6
CONTINUOUS
290
     0
370
    -3
390
7B7
  0
ENDTAB
  0
TABLE
  2
STYLE
  5
3
330
0
100
AcDbSymbolTable
 70
     1
  0
STYLE
  5
17
330
3
100
AcDbSymbolTableRecord
100
AcDbTextStyleTableRecord
  2
STANDARD
 70
     0
 40
0.0
 41
1.0
 50
0.0
 71
     0
 42
0.0
  3
txt
  4

  0
ENDTAB
  0
TABLE
  2
VIEW
  5
5
330
0
100
AcDbSymbolTable
 70
     0
  0
ENDTAB
  0
TABLE
  2
UCS
  5
6
330
0
100
AcDbSymbolTable
 70
     0
  0
ENDTAB
  0
TABLE
  2
APPID
  5
8
330
0
100
AcDbSymbolTable
 70
     2
  0
APPID
  5
16
330
8
100
AcDbSymbolTableRecord
100
AcDbRegAppTableRecord
  2
ACAD
 70
     0
  0
APPID
  5
7C0
330
8
100
AcDbSymbolTableRecord
100
AcDbRegAppTableRecord
  2
DCO15
 70
     0
  0
ENDTAB
  0
TABLE
  2
DIMSTYLE
  5
9
330
0
100
AcDbSymbolTable
 70
     1
100
AcDbDimStyleTable
 71
     0
  0
DIMSTYLE
105
18
330
9
100
AcDbSymbolTableRecord
100
AcDbDimStyleTableRecord
  2
STANDARD
 70
     0
340
17
  0
ENDTAB
  0
TABLE
  2
BLOCK_RECORD
  5
1
330
0
100
AcDbSymbolTable
 70
     0
  0
BLOCK_RECORD
  5
A
330
1
100
AcDbSymbolTableRecord
100
AcDbBlockTableRecord
  2
*MODEL_SPACE
340
7BA
  0
BLOCK_RECORD
  5
B
330
1
100
AcDbSymbolTableRecord
100
AcDbBlockTableRecord
  2
*PAPER_SPACE
340
7BB
  0
ENDTAB
  0
ENDSEC
  0
SECTION
  2
BLOCKS
  0
BLOCK
  5
D
330
A
100
AcDbEntity
  8
0
100
AcDbBlockBegin
  2
*MODEL_SPACE
 70
     0
 10
0.0
 20
0.0
 30
0.0
  3
*MODEL_SPACE
  1

  0
ENDBLK
  5
E
330
A
100
AcDbEntity
  8
0
100
AcDbBlockEnd
  0
BLOCK
  5
F
330
B
100
AcDbEntity
 67
     1
  8
0
100
AcDbBlockBegin
  2
*PAPER_SPACE
 70
     0
 10
0.0
 20
0.0
 30
0.0
  3
*PAPER_SPACE
  1

  0
ENDBLK
  5
10
330
B
100
AcDbEntity
 67
     1
  8
0
100
AcDbBlockEnd
  0
ENDSEC
  0
SECTION
  2
ENTITIES
  0
ARC
  5
24
330
A
100
AcDbEntity
  8
0
  6
Continuous
 62
     7
100
AcDbCircle
 10
10.3401599432
 20
5.257255362499999
 30
0.0
 40
0.1
100
AcDbArc
 50
90.0
 51
101.4783409552999
  0
ARC
  5
25
330
A
100
AcDbEntity
  8
0
  6
Continuous
 62
     7
100
AcDbCircle
 10
10.7990821737
 20
5.257255362499999
 30
0.0
 40
0.1
100
AcDbArc
 50
88.39129258600001
 51
90.0
  0
LINE
  5
26
330
A
100
AcDbEntity
  8
0
  6
Continuous
 62
     7
100
AcDbLine
 10
10.1566210584
 20
4.775134658499999
 30
0.0
 11
10.1566210584
 21
4.9553760665
 31
0.0
  0
LINE
  5
27
330
A
100
AcDbEntity
  8
0
  6
Continuous
 62
     7
100
AcDbLine
 10
10.96262105839999
 20
4.9553760665
 30
0.0
 11
10.96262105839999
 21
4.775134658499999
 31
0.0
  0
LINE
  5
28
330
A
100
AcDbEntity
  8
0
  6
Continuous
 62
     7
100
AcDbLine
 10
11.7166210584
 20
4.775134658499999
 30
0.0
 11
11.7166210584
 21
4.9553760665
 31
0.0
  0
LINE
  5
29
330
A
100
AcDbEntity
  8
0
  6
Continuous
 62
     7
100
AcDbLine
 10
12.5226210584
 20
4.9553760665
 30
0.0
 11
12.5226210584
 21
4.775134658499999
 31
0.0
  0
LINE
  5
2A
330
A
100
AcDbEntity
  8
0
  6
Continuous
 62
     7
100
AcDbLine
 10
6.685621058399999
 20
6.0166978433
 30
0.0
 11
6.6896210584
 21
6.0166978433
 31
0.0
  0
LINE
  5
2B
330
A
100
AcDbEntity
  8
0
  6
Continuous
 62
     7
100
AcDbLine
 10
6.6896210571
 20
4.907255362499999
 30
0.0
 11
6.6896210584
 21
6.0166978433
 31
0.0
  0
LINE
  5
2C
330
A
100
AcDbEntity
  8
0
  6
Continuous
 62
     7
100
AcDbLine
 10
6.685621058399999
 20
4.907255362499999
 30
0.0
 11
6.6896210571
 21
4.907255362499999
 31
0.0
  0
LINE
  5
2D
330
A
100
AcDbEntity
  8
0
  6
Continuous
 62
     7
100
AcDbLine
 10
6.685621058399999
 20
4.907255362499999
 30
0.0
 11
6.685621058399999
 21
6.0166978433
 31
0.0
  0
ARC
  5
2E
330
A
100
AcDbEntity
  8
0
  6
Continuous
 62
     7
100
AcDbCircle
 10
6.709621058399999
 20
4.9072553638
 30
0.0
 40
0.0240000019
100
AcDbArc
 50
180.0230894447
 51
243.9305036026
  0
ARC
  5
2F
330
A
100
AcDbEntity
  8
0
  6
Continuous
 62
     7
100
AcDbCircle
 10
6.709621058399999
 20
4.907255362499999
 30
0.0
 40
0.0200000013
100
AcDbArc
 50
180.0
 51
237.9011537273999
  0
LINE
  5
30
330
A
100
AcDbEntity
  8
0
  6
Continuous
 62
     7
100
AcDbLine
 10
13.4911333571
 20
5.5548081884
 30
0.0
 11
13.4911333571
 21
5.932974365599999
 31
0.0
  0
LWPOLYLINE
  5
31
330
A
100
AcDbEntity
  8
0
  6
Continuous
 62
     7
100
AcDbPolyline
 90
        9
 70
   128
 43
0.0
 10
13.3711333571
 20
5.4366312581
 10
13.39454419569999
 20
5.4389019946
 10
13.417055369
 20
5.445626941199999
 10
13.437801785
 20
5.456547662
 10
13.4559861708
 20
5.4712444796
 10
13.4709097105
 20
5.4891526037
 10
13.481998901
 20
5.509583835099999
 10
13.4888275907
 20
5.531753013
 10
13.4911333571
 20
5.5548081884
  0
LINE
  5
3C
330
A
100
AcDbEntity
  8
0
  6
Continuous
 62
     7
100
AcDbLine
 10
7.111133357099999
 20
5.4366312581
 30
0.0
 11
13.3711333571
 21
5.4366312581
 31
0.0
  0
LWPOLYLINE
  5
3D
330
A
100
AcDbEntity
  8
0
  6
Continuous
 62
     7
100
AcDbPolyline
 90
        9
 70
   128
 43
0.0
 10
6.991133357099999
 20
5.5548081884
 10
6.993439123399999
 20
5.531753013
 10
7.000267813199999
 20
5.509583835099999
 10
7.011357003599999
 20
5.4891526037
 10
7.0262805433
 20
5.4712444796
 10
7.0444649291
 20
5.456547662
 10
7.065211345199999
 20
5.445626941199999
 10
7.087722518399999
 20
5.4389019946
 10
7.111133357099999
 20
5.4366312581
  0
LINE
  5
48
330
A
100
AcDbEntity
  8
0
  6
Continuous
 62
     7
100
AcDbLine
 10
6.991133357099999
 20
5.932974365599999
 30
0.0
 11
6.991133357099999
 21
5.5548081884
 31
0.0
  0
LWPOLYLINE
  5
49
330
A
100
AcDbEntity
  8
0
  6
Continuous
 62
     7
100
AcDbPolyline
 90
        9
 70
   128
 43
0.0
 10
7.111133357099999
 20
6.051151295899999
 10
7.087722518399999
 20
6.048880559399999
 10
7.065211345199999
 20
6.0421556128
 10
7.0444649291
 20
6.031234891999999
 10
7.0262805433
 20
6.016538074399999
 10
7.011357003599999
 20
5.998629950299999
 10
7.000267813199999
 20
5.978198718899999
 10
6.993439123399999
 20
5.956029541
 10
6.991133357099999
 20
5.932974365599999
  0
LINE
  5
54
330
A
100
AcDbEntity
  8
0
  6
Continuous
 62
     7
100
AcDbLine
 10
13.3711333571
 20
6.051151295899999
 30
0.0
 11
7.111133357099999
 21
6.051151295899999
 31
0.0
  0
LWPOLYLINE
  5
55
330
A
100
AcDbEntity
  8
0
  6
Continuous
 62
     7
100
AcDbPolyline
 90
        9
 70
   128
 43
0.0
 10
13.4911333571
 20
5.932974365599999
 10
13.4888275907
 20
5.956029541
 10
13.481998901
 20
5.978198718899999
 10
13.4709097105
 20
5.998629950299999
 10
13.4559861708
 20
6.016538074399999
 10
13.437801785
 20
6.031234891999999
 10
13.417055369
 20
6.0421556128
 10
13.39454419569999
 20
6.048880559399999
 10
13.3711333571
 20
6.051151295899999
  0
LINE
  5
60
330
A
100
AcDbEntity
  8
0
  6
Continuous
 62
     7
100
AcDbLine
 10
6.991133357099999
 20
5.5548081884
 30
0.0
 11
6.991133357099999
 21
5.5548081884
 31
0.0
  0
LINE
  5
61
330
A
100
AcDbEntity
  8
0
  6
Continuous
 62
     7
100
AcDbLine
 10
13.4911333571
 20
5.5548081884
 30
0.0
 11
13.4911333571
 21
5.5548081884
 31
0.0
  0
LINE
  5
62
330
A
100
AcDbEntity
  8
0
  6
Continuous
 62
     7
100
AcDbLine
 10
6.938901380399999
 20
5.4272553625
 30
0.0
 11
6.9597324651
 21
4.233843318099999
 31
0.0
  0
LWPOLYLINE
  5
63
330
A
100
AcDbEntity
  8
0
  6
Continuous
 62
     7
100
AcDbPolyline
 90
        9
 70
   128
 43
0.0
 10
6.9597324651
 20
4.233843318099999
 10
6.911059964699999
 20
4.2338502994
 10
6.864250733799999
 20
4.2355189034
 10
6.8210967127
 20
4.238785252899999
 10
6.783249913599999
 20
4.2435243064
 10
6.752159179
 20
4.249554644399999
 10
6.7290147174
 20
4.2566454149
 10
6.7147025397
 20
4.264525170799999
 10
6.7097705413
 20
4.272892260899999
  0
LINE
  5
6E
330
A
100
AcDbEntity
  8
0
  6
Continuous
 62
     7
100
AcDbLine
 10
6.7097705413
 20
4.272892260899999
 30
0.0
 11
6.6896210584
 21
5.4272553625
 31
0.0
  0
LINE
  5
6F
330
A
100
AcDbEntity
  8
0
  6
Continuous
 62
     7
100
AcDbLine
 10
6.6896210584
 20
5.4272553625
 30
0.0
 11
6.938901380399999
 21
5.4272553625
 31
0.0
  0
LINE
  5
70
330
A
100
AcDbEntity
  8
0
  6
Continuous
 62
     7
100
AcDbLine
 10
11.23954231829999
 20
5.3572553625
 30
0.0
 11
11.25402417629999
 21
4.527590275499999
 31
0.0
  0
LINE
  5
71
330
A
100
AcDbEntity
  8
0
  6
Continuous
 62
     7
100
AcDbLine
 10
11.25470117589999
 20
4.488804993199999
 30
0.0
 11
11.25754285399999
 21
4.3260053625
 31
0.0
  0
LINE
  5
72
330
A
100
AcDbEntity
  8
0
  6
Continuous
 62
     7
100
AcDbLine
 10
9.8796997986
 20
5.3572553625
 30
0.0
 11
11.23954231829999
 21
5.3572553625
 31
0.0
  0
LINE
  5
73
330
A
100
AcDbEntity
  8
0
  6
Continuous
 62
     7
100
AcDbLine
 10
9.8616992629
 20
4.3260053625
 30
0.0
 11
9.864540940999999
 21
4.488804993199999
 31
0.0
  0
LINE
  5
74
330
A
100
AcDbEntity
  8
0
  6
Continuous
 62
     7
100
AcDbLine
 10
9.865217940599999
 20
4.527590275499999
 30
0.0
 11
9.8796997986
 21
5.3572553625
 31
0.0
  0
LINE
  5
75
330
A
100
AcDbEntity
  8
0
  6
Continuous
 62
     7
100
AcDbLine
 10
9.858499762899999
 20
4.3260053625
 30
0.0
 11
9.8616992629
 21
4.3260053625
 31
0.0
  0
LINE
  5
76
330
A
100
AcDbEntity
  8
0
  6
Continuous
 62
     7
100
AcDbLine
 10
9.858499762899999
 20
4.3260053625
 30
0.0
 11
9.859699798599999
 21
4.257255362499999
 31
0.0
  0
LINE
  5
77
330
A
100
AcDbEntity
  8
0
  6
Continuous
 62
     7
100
AcDbLine
 10
11.25954231829999
 20
4.257255362499999
 30
0.0
 11
11.0406347835
 21
4.257255362499999
 31
0.0
  0
LINE
  5
78
330
A
100
AcDbEntity
  8
0
  6
Continuous
 62
     7
100
AcDbLine
 10
10.8786073334
 20
4.257255362499999
 30
0.0
 11
10.2406347835
 21
4.257255362499999
 31
0.0
  0
LINE
  5
79
330
A
100
AcDbEntity
  8
0
  6
Continuous
 62
     7
100
AcDbLine
 10
10.0786073334
 20
4.257255362499999
 30
0.0
 11
9.859699798599999
 21
4.257255362499999
 31
0.0
  0
LINE
  5
7A
330
A
100
AcDbEntity
  8
0
  6
Continuous
 62
     7
100
AcDbLine
 10
11.25954231829999
 20
4.257255362499999
 30
0.0
 11
11.26074235399999
 21
4.3260053625
 31
0.0
  0
LINE
  5
7B
330
A
100
AcDbEntity
  8
0
  6
Continuous
 62
     7
100
AcDbLine
 10
11.26074235399999
 20
4.3260053625
 30
0.0
 11
11.25754285399999
 21
4.3260053625
 31
0.0
  0
LINE
  5
7C
330
A
100
AcDbEntity
  8
0
  6
Continuous
 62
     7
100
AcDbLine
 10
12.7995423183
 20
5.3572553625
 30
0.0
 11
12.8140241763
 21
4.527590275499999
 31
0.0
  0
LINE
  5
7D
330
A
100
AcDbEntity
  8
0
  6
Continuous
 62
     7
100
AcDbLine
 10
12.8147011759
 20
4.488804993199999
 30
0.0
 11
12.81754285399999
 21
4.3260053625
 31
0.0
  0
LINE
  5
7E
330
A
100
AcDbEntity
  8
0
  6
Continuous
 62
     7
100
AcDbLine
 10
11.4396997986
 20
5.3572553625
 30
0.0
 11
12.7995423183
 21
5.3572553625
 31
0.0
  0
LINE
  5
7F
330
A
100
AcDbEntity
  8
0
  6
Continuous
 62
     7
100
AcDbLine
 10
11.4216992629
 20
4.3260053625
 30
0.0
 11
11.424540941
 21
4.488804993199999
 31
0.0
  0
LINE
  5
80
330
A
100
AcDbEntity
  8
0
  6
Continuous
 62
     7
100
AcDbLine
 10
11.4252179406
 20
4.527590275499999
 30
0.0
 11
11.4396997986
 21
5.3572553625
 31
0.0
  0
LINE
  5
81
330
A
100
AcDbEntity
  8
0
  6
Continuous
 62
     7
100
AcDbLine
 10
11.4184997629
 20
4.3260053625
 30
0.0
 11
11.4216992629
 21
4.3260053625
 31
0.0
  0
LINE
  5
82
330
A
100
AcDbEntity
  8
0
  6
Continuous
 62
     7
100
AcDbLine
 10
11.4184997629
 20
4.3260053625
 30
0.0
 11
11.4196997986
 21
4.257255362499999
 31
0.0
  0
LINE
  5
83
330
A
100
AcDbEntity
  8
0
  6
Continuous
 62
     7
100
AcDbLine
 10
12.8195423183
 20
4.257255362499999
 30
0.0
 11
12.6006347835
 21
4.257255362499999
 31
0.0
  0
LINE
  5
84
330
A
100
AcDbEntity
  8
0
  6
Continuous
 62
     7
100
AcDbLine
 10
12.4386073334
 20
4.257255362499999
 30
0.0
 11
11.80063478349999
 21
4.257255362499999
 31
0.0
  0
LINE
  5
85
330
A
100
AcDbEntity
  8
0
  6
Continuous
 62
     7
100
AcDbLine
 10
11.63860733339999
 20
4.257255362499999
 30
0.0
 11
11.4196997986
 21
4.257255362499999
 31
0.0
  0
LINE
  5
86
330
A
100
AcDbEntity
  8
0
  6
Continuous
 62
     7
100
AcDbLine
 10
12.8195423183
 20
4.257255362499999
 30
0.0
 11
12.820742354
 21
4.3260053625
 31
0.0
  0
LINE
  5
87
330
A
100
AcDbEntity
  8
0
  6
Continuous
 62
     7
100
AcDbLine
 10
12.820742354
 20
4.3260053625
 30
0.0
 11
12.81754285399999
 21
4.3260053625
 31
0.0
  0
LINE
  5
88
330
A
100
AcDbEntity
  8
0
  6
Continuous
 62
     7
100
AcDbLine
 10
7.268621058399999
 20
4.6872553625
 30
0.0
 11
8.2536210584
 21
4.6872553625
 31
0.0
  0
LINE
  5
89
330
A
100
AcDbEntity
  8
0
  6
Continuous
 62
     7
100
AcDbLine
 10
8.2536210584
 20
4.6872553625
 30
0.0
 11
8.2665378065
 21
5.4272553625
 31
0.0
  0
LINE
  5
8A
330
A
100
AcDbEntity
  8
0
  6
Continuous
 62
     7
100
AcDbLine
 10
8.2665378065
 20
5.4272553625
 30
0.0
 11
9.3633992039
 21
5.4272553625
 31
0.0
  0
LINE
  5
8B
330
A
100
AcDbEntity
  8
0
  6
Continuous
 62
     7
100
AcDbLine
 10
9.3633992039
 20
5.4272553625
 30
0.0
 11
9.3653060667
 21
5.318011268
 31
0.0
  0
LINE
  5
8C
330
A
100
AcDbEntity
  8
0
  6
Continuous
 62
     7
100
AcDbLine
 10
9.3653060667
 20
5.318011268
 30
0.0
 11
9.463936050199999
 21
5.318011268
 31
0.0
  0
LINE
  5
8D
330
A
100
AcDbEntity
  8
0
  6
Continuous
 62
     7
100
AcDbLine
 10
9.465842912999999
 20
5.4272553625
 30
0.0
 11
15.7403407365
 21
5.4272553625
 31
0.0
  0
LINE
  5
8E
330
A
100
AcDbEntity
  8
0
  6
Continuous
 62
     7
100
AcDbLine
 10
15.7195096518
 20
4.233843318099999
 30
0.0
 11
15.7403407365
 21
5.4272553625
 31
0.0
  0
LINE
  5
8F
330
A
100
AcDbEntity
  8
0
  6
Continuous
 62
     7
100
AcDbLine
 10
13.8454465078
 20
4.5332553625
 30
0.0
 11
13.8456210584
 21
4.523255362499999
 31
0.0
  0
LINE
  5
90
330
A
100
AcDbEntity
  8
0
  6
Continuous
 62
     7
100
AcDbLine
 10
13.8456210584
 20
4.523255362499999
 30
0.0
 11
13.8852903498
 21
4.523255362499999
 31
0.0
  0
LINE
  5
91
330
A
100
AcDbEntity
  8
0
  6
Continuous
 62
     7
100
AcDbLine
 10
14.5939517671
 20
4.523255362499999
 30
0.0
 11
14.63362105839999
 21
4.523255362499999
 31
0.0
  0
LINE
  5
92
330
A
100
AcDbEntity
  8
0
  6
Continuous
 62
     7
100
AcDbLine
 10
14.63379560909999
 20
4.5332553625
 30
0.0
 11
14.63362105839999
 21
4.523255362499999
 31
0.0
  0
LINE
  5
93
330
A
100
AcDbEntity
  8
0
  6
Continuous
 62
     7
100
AcDbLine
 10
14.6333058293
 20
4.5332553625
 30
0.0
 11
14.63379560909999
 21
4.5332553625
 31
0.0
  0
LINE
  5
94
330
A
100
AcDbEntity
  8
0
  6
Continuous
 62
     7
100
AcDbLine
 10
14.6333058293
 20
4.5332553625
 30
0.0
 11
14.6196210584
 21
5.3172553625
 31
0.0
  0
LINE
  5
95
330
A
100
AcDbEntity
  8
0
  6
Continuous
 62
     7
100
AcDbLine
 10
14.6196210584
 20
5.3172553625
 30
0.0
 11
13.8596210584
 21
5.3172553625
 31
0.0
  0
LINE
  5
96
330
A
100
AcDbEntity
  8
0
  6
Continuous
 62
     7
100
AcDbLine
 10
13.8596210584
 20
5.3172553625
 30
0.0
 11
13.8459362875
 21
4.5332553625
 31
0.0
  0
LINE
  5
97
330
A
100
AcDbEntity
  8
0
  6
Continuous
 62
     7
100
AcDbLine
 10
13.8454465078
 20
4.5332553625
 30
0.0
 11
13.8459362875
 21
4.5332553625
 31
0.0
  0
LINE
  5
98
330
A
100
AcDbEntity
  8
0
  6
Continuous
 62
     7
100
AcDbLine
 10
9.463936050199999
 20
5.318011268
 30
0.0
 11
9.465842912999999
 21
5.4272553625
 31
0.0
  0
LINE
  5
99
330
A
100
AcDbEntity
  8
0
  6
Continuous
 62
     7
100
AcDbLine
 10
6.938901380399999
 20
5.4272553625
 30
0.0
 11
7.255704310399999
 21
5.4272553625
 31
0.0
  0
LINE
  5
9A
330
A
100
AcDbEntity
  8
0
  6
Continuous
 62
     7
100
AcDbLine
 10
7.255704310399999
 20
5.4272553625
 30
0.0
 11
7.268621058399999
 21
4.6872553625
 31
0.0
  0
LINE
  5
9B
330
A
100
AcDbEntity
  8
0
  6
Continuous
 62
     7
100
AcDbLine
 10
15.9896210584
 20
5.4272553625
 30
0.0
 11
15.9694715756
 21
4.272892260899999
 31
0.0
  0
LWPOLYLINE
  5
9C
330
A
100
AcDbEntity
  8
0
  6
Continuous
 62
     7
100
AcDbPolyline
 90
        9
 70
   128
 43
0.0
 10
15.9694715756
 20
4.272892260899999
 10
15.9645395772
 20
4.264525170799999
 10
15.9502273995
 20
4.2566454149
 10
15.9270829378
 20
4.249554644399999
 10
15.8959922033
 20
4.2435243064
 10
15.8581454042
 20
4.238785252899999
 10
15.814991383
 20
4.2355189034
 10
15.7681821522
 20
4.2338502994
 10
15.7195096518
 20
4.233843318099999
  0
LINE
  5
A7
330
A
100
AcDbEntity
  8
0
  6
Continuous
 62
     7
100
AcDbLine
 10
15.7403407365
 20
5.4272553625
 30
0.0
 11
15.9896210584
 21
5.4272553625
 31
0.0
  0
LINE
  5
A8
330
A
100
AcDbEntity
  8
0
  6
Continuous
 62
     7
100
AcDbLine
 10
15.7195096518
 20
4.0272553625
 30
0.0
 11
6.9597324651
 21
4.0272553625
 31
0.0
  0
LINE
  5
A9
330
A
100
AcDbEntity
  8
0
  6
Continuous
 62
     7
100
AcDbLine
 10
6.9597324651
 20
4.0272553625
 30
0.0
 11
6.9597324651
 21
4.233843318099999
 31
0.0
  0
LINE
  5
AA
330
A
100
AcDbEntity
  8
0
  6
Continuous
 62
     7
100
AcDbLine
 10
15.7195096518
 20
4.0272553625
 30
0.0
 11
15.7195096518
 21
4.233843318099999
 31
0.0
  0
ARC
  5
AB
330
A
100
AcDbEntity
  8
0
  6
Continuous
 62
     7
100
AcDbCircle
 10
6.9597324651
 20
4.2772553625
 30
0.0
 40
0.25
100
AcDbArc
 50
181.0
 51
270.0
  0
ARC
  5
AC
330
A
100
AcDbEntity
  8
0
  6
Continuous
 62
     7
100
AcDbCircle
 10
15.7195096518
 20
4.2772553625
 30
0.0
 40
0.25
100
AcDbArc
 50
270.0
 51
359.0
  0
LINE
  5
AD
330
A
100
AcDbEntity
  8
0
  6
Continuous
 62
     7
100
AcDbLine
 10
6.690249440799999
 20
5.391255362499999
 30
0.0
 11
6.6896210584
 21
5.4272553625
 31
0.0
  0
LINE
  5
AE
330
A
100
AcDbEntity
  8
0
  6
Continuous
 62
     7
100
AcDbLine
 10
13.8596210584
 20
4.523255362499999
 30
0.0
 11
13.8534419655
 21
4.877255362499999
 31
0.0
  0
LINE
  5
AF
330
A
100
AcDbEntity
  8
0
  6
Continuous
 62
     7
100
AcDbLine
 10
14.6258001514
 20
4.877255362499999
 30
0.0
 11
14.6196210584
 21
4.523255362499999
 31
0.0
  0
LINE
  5
B0
330
A
100
AcDbEntity
  8
0
  6
Continuous
 62
     7
100
AcDbLine
 10
14.6258001514
 20
4.877255362499999
 30
0.0
 11
14.627301287
 21
4.877255362499999
 31
0.0
  0
LINE
  5
B1
330
A
100
AcDbEntity
  8
0
  6
Continuous
 62
     7
100
AcDbLine
 10
13.8519408299
 20
4.877255362499999
 30
0.0
 11
13.8534419655
 21
4.877255362499999
 31
0.0
  0
LINE
  5
B2
330
A
100
AcDbEntity
  8
0
  6
Continuous
 62
     7
100
AcDbLine
 10
7.262686336399999
 20
5.0272553625
 30
0.0
 11
7.2901407435
 21
5.0272553625
 31
0.0
  0
LINE
  5
B3
330
A
100
AcDbEntity
  8
0
  6
Continuous
 62
     7
100
AcDbLine
 10
8.235022633199999
 20
5.0272553625
 30
0.0
 11
8.259555780499999
 21
5.0272553625
 31
0.0
  0
LINE
  5
B4
330
A
100
AcDbEntity
  8
0
  6
Continuous
 62
     7
100
AcDbLine
 10
13.8545590896
 20
5.0272553625
 30
0.0
 11
13.8852903498
 21
5.0272553625
 31
0.0
  0
LINE
  5
B5
330
A
100
AcDbEntity
  8
0
  6
Continuous
 62
     7
100
AcDbLine
 10
14.5939517671
 20
5.0272553625
 30
0.0
 11
14.6246830273
 21
5.0272553625
 31
0.0
  0
LINE
  5
B6
330
A
100
AcDbEntity
  8
0
  6
Continuous
 62
     7
100
AcDbLine
 10
11.4796210584
 20
5.2272553625
 30
0.0
 11
11.4374306402
 21
5.2272553625
 31
0.0
  0
LINE
  5
B7
330
A
100
AcDbEntity
  8
0
  6
Continuous
 62
     7
100
AcDbLine
 10
11.2418114767
 20
5.2272553625
 30
0.0
 11
11.19962105839999
 21
5.2272553625
 31
0.0
  0
LINE
  5
B8
330
A
100
AcDbEntity
  8
0
  6
Continuous
 62
     7
100
AcDbLine
 10
14.5939517671
 20
5.2272553625
 30
0.0
 11
14.6211920143
 21
5.2272553625
 31
0.0
  0
LINE
  5
B9
330
A
100
AcDbEntity
  8
0
  6
Continuous
 62
     7
100
AcDbLine
 10
12.7596210584
 20
5.2272553625
 30
0.0
 11
12.8018114767
 21
5.2272553625
 31
0.0
  0
LINE
  5
BA
330
A
100
AcDbEntity
  8
0
  6
Continuous
 62
     7
100
AcDbLine
 10
8.235022633199999
 20
5.2218216517
 30
0.0
 11
8.262951947699999
 21
5.2218216517
 31
0.0
  0
LINE
  5
BB
330
A
100
AcDbEntity
  8
0
  6
Continuous
 62
     7
100
AcDbLine
 10
9.8774306402
 20
5.2272553625
 30
0.0
 11
9.9196210584
 21
5.2272553625
 31
0.0
  0
LINE
  5
BC
330
A
100
AcDbEntity
  8
0
  6
Continuous
 62
     7
100
AcDbLine
 10
10.8018895289
 20
5.3572159485
 30
0.0
 11
10.8018553068
 21
5.3552553625
 31
0.0
  0
LINE
  5
BD
330
A
100
AcDbEntity
  8
0
  6
Continuous
 62
     7
100
AcDbLine
 10
11.8773519
 20
5.3572553625
 30
0.0
 11
11.8773868101
 21
5.3552553625
 31
0.0
  0
LINE
  5
BE
330
A
100
AcDbEntity
  8
0
  6
Continuous
 62
     7
100
AcDbLine
 10
11.8018902169
 20
5.3572553625
 30
0.0
 11
11.80185530679999
 21
5.3552553625
 31
0.0
  0
LINE
  5
BF
330
A
100
AcDbEntity
  8
0
  6
Continuous
 62
     7
100
AcDbLine
 10
10.8773519
 20
5.3572553625
 30
0.0
 11
10.8773868101
 21
5.3552553625
 31
0.0
  0
LINE
  5
C0
330
A
100
AcDbEntity
  8
0
  6
Continuous
 62
     7
100
AcDbLine
 10
15.7403407365
 20
5.4272553625
 30
0.0
 11
15.72945903879999
 21
6.050667406899999
 31
0.0
  0
LWPOLYLINE
  5
C1
330
A
100
AcDbEntity
  8
0
  6
Continuous
 62
     7
100
AcDbPolyline
 90
        9
 70
   128
 43
0.0
 10
15.72945903879999
 20
6.050667406899999
 10
15.7781315392
 20
6.0506604256
 10
15.82494077009999
 20
6.048991821599999
 10
15.8680947912
 20
6.045725471999999
 10
15.9059415903
 20
6.0409864186
 10
15.9370323249
 20
6.034956080599999
 10
15.96017678649999
 20
6.02786531
 10
15.9744889642
 20
6.019985554199999
 10
15.9794209626
 20
6.011618464099999
  0
LINE
  5
CC
330
A
100
AcDbEntity
  8
0
  6
Continuous
 62
     7
100
AcDbLine
 10
15.9794209626
 20
6.011618464099999
 30
0.0
 11
15.9896210584
 21
5.4272553625
 31
0.0
  0
LINE
  5
CD
330
A
100
AcDbEntity
  8
0
  6
Continuous
 62
     7
100
AcDbLine
 10
15.9896210584
 20
5.4272553625
 30
0.0
 11
15.7403407365
 21
5.4272553625
 31
0.0
  0
LINE
  5
CE
330
A
100
AcDbEntity
  8
0
  6
Continuous
 62
     7
100
AcDbLine
 10
6.9497830781
 20
6.050667406899999
 30
0.0
 11
6.938901380399999
 21
5.4272553625
 31
0.0
  0
LINE
  5
CF
330
A
100
AcDbEntity
  8
0
  6
Continuous
 62
     7
100
AcDbLine
 10
6.938901380399999
 20
5.4272553625
 30
0.0
 11
15.7403407365
 21
5.4272553625
 31
0.0
  0
LINE
  5
D0
330
A
100
AcDbEntity
  8
0
  6
Continuous
 62
     7
100
AcDbLine
 10
6.6896210584
 20
5.4272553625
 30
0.0
 11
6.6998211543
 21
6.011618464099999
 31
0.0
  0
LWPOLYLINE
  5
D1
330
A
100
AcDbEntity
  8
0
  6
Continuous
 62
     7
100
AcDbPolyline
 90
        9
 70
   128
 43
0.0
 10
6.6998211543
 20
6.011618464099999
 10
6.7047531527
 20
6.019985554199999
 10
6.7190653304
 20
6.02786531
 10
6.742209791999999
 20
6.034956080599999
 10
6.773300526599999
 20
6.0409864186
 10
6.8111473257
 20
6.045725471999999
 10
6.854301346799999
 20
6.048991821599999
 10
6.901110577699999
 20
6.0506604256
 10
6.9497830781
 20
6.050667406899999
  0
LINE
  5
DC
330
A
100
AcDbEntity
  8
0
  6
Continuous
 62
     7
100
AcDbLine
 10
6.938901380399999
 20
5.4272553625
 30
0.0
 11
6.6896210584
 21
5.4272553625
 31
0.0
  0
LINE
  5
DD
330
A
100
AcDbEntity
  8
0
  6
Continuous
 62
     7
100
AcDbLine
 10
9.364271957099999
 20
5.377255362499999
 30
0.0
 11
9.464970159699999
 21
5.377255362499999
 31
0.0
  0
LINE
  5
DE
330
A
100
AcDbEntity
  8
0
  6
Continuous
 62
     7
100
AcDbLine
 10
8.265315951899999
 20
5.3572553625
 30
0.0
 11
8.235022633199999
 21
5.3572553625
 31
0.0
  0
LINE
  5
DF
330
A
100
AcDbEntity
  8
0
  6
Continuous
 62
     7
100
AcDbLine
 10
7.2901407435
 20
5.3572553625
 30
0.0
 11
7.2569261649
 21
5.3572553625
 31
0.0
  0
LINE
  5
E0
330
A
100
AcDbEntity
  8
0
  6
Continuous
 62
     7
100
AcDbLine
 10
6.9497830781
 20
6.257255362499999
 30
0.0
 11
6.9497830781
 21
6.050667406899999
 31
0.0
  0
ARC
  5
E1
330
A
100
AcDbEntity
  8
0
  6
Continuous
 62
     7
100
AcDbCircle
 10
6.9497830781
 20
6.007255362499999
 30
0.0
 40
0.25
100
AcDbArc
 50
90.0
 51
179.0
  0
LINE
  5
E2
330
A
100
AcDbEntity
  8
0
  6
Continuous
 62
     7
100
AcDbLine
 10
6.9497830781
 20
6.257255362499999
 30
0.0
 11
15.72945903879999
 21
6.257255362499999
 31
0.0
  0
LINE
  5
E3
330
A
100
AcDbEntity
  8
0
  6
Continuous
 62
     7
100
AcDbLine
 10
15.72945903879999
 20
6.257255362499999
 30
0.0
 11
15.72945903879999
 21
6.050667406899999
 31
0.0
  0
ARC
  5
E4
330
A
100
AcDbEntity
  8
0
  6
Continuous
 62
     7
100
AcDbCircle
 10
15.72945903879999
 20
6.007255362499999
 30
0.0
 40
0.25
100
AcDbArc
 50
1.0
 51
90.0
  0
LINE
  5
E5
330
A
100
AcDbEntity
  8
0
  6
Continuous
 62
     7
100
AcDbLine
 10
6.690249440799999
 20
5.463255362499999
 30
0.0
 11
6.6896210584
 21
5.4272553625
 31
0.0
  0
LINE
  5
E6
330
A
100
AcDbEntity
  8
0
  6
Continuous
 62
     7
100
AcDbLine
 10
13.8852903498
 20
4.490924653799999
 30
0.0
 11
14.5939517671
 21
4.490924653799999
 31
0.0
  0
LINE
  5
E7
330
A
100
AcDbEntity
  8
0
  6
Continuous
 62
     7
100
AcDbLine
 10
13.8852903498
 20
5.3172553625
 30
0.0
 11
13.8852903498
 21
4.490924653799999
 31
0.0
  0
CIRCLE
  5
E8
330
A
100
AcDbEntity
  8
0
  6
Continuous
 62
     7
100
AcDbCircle
 10
14.2396210584
 20
4.845255362499999
 30
0.0
 40
0.2559055118
  0
LINE
  5
E9
330
A
100
AcDbEntity
  8
0
  6
Continuous
 62
     7
100
AcDbLine
 10
14.5939517671
 20
4.490924653799999
 30
0.0
 11
14.5939517671
 21
5.3172553625
 31
0.0
  0
CIRCLE
  5
EA
330
A
100
AcDbEntity
  8
0
  6
Continuous
 62
     7
100
AcDbCircle
 10
14.2396210584
 20
4.845255362499999
 30
0.0
 40
0.062992126
  0
CIRCLE
  5
EB
330
A
100
AcDbEntity
  8
0
  6
Continuous
 62
     7
100
AcDbCircle
 10
14.2396210584
 20
4.845255362499999
 30
0.0
 40
0.0787401575
  0
ARC
  5
EC
330
A
100
AcDbEntity
  8
0
  6
Continuous
 62
     7
100
AcDbCircle
 10
13.8931643655
 20
5.159420555299999
 30
0.0
 40
0.0393700787
100
AcDbArc
 50
201.8038655286999
 51
258.4630409672
  0
LINE
  5
ED
330
A
100
AcDbEntity
  8
0
  6
Continuous
 62
     7
100
AcDbLine
 10
8.2630118834
 20
5.225255362499999
 30
0.0
 11
8.235022633199999
 21
5.225255362499999
 31
0.0
  0
LINE
  5
EE
330
A
100
AcDbEntity
  8
0
  6
Continuous
 62
     7
100
AcDbLine
 10
7.527581688399999
 20
4.831712055399999
 30
0.0
 11
7.437581688399999
 21
4.831712055399999
 31
0.0
  0
LINE
  5
EF
330
A
100
AcDbEntity
  8
0
  6
Continuous
 62
     7
100
AcDbLine
 10
8.0875816884
 20
4.831712055399999
 30
0.0
 11
7.9975816884
 21
4.831712055399999
 31
0.0
  0
LINE
  5
F0
330
A
100
AcDbEntity
  8
0
  6
Continuous
 62
     7
100
AcDbLine
 10
8.0875816884
 20
4.711712055399999
 30
0.0
 11
8.0875816884
 21
4.831712055399999
 31
0.0
  0
LINE
  5
F1
330
A
100
AcDbEntity
  8
0
  6
Continuous
 62
     7
100
AcDbLine
 10
8.0875816884
 20
4.711712055399999
 30
0.0
 11
7.437581688399999
 21
4.711712055399999
 31
0.0
  0
LINE
  5
F2
330
A
100
AcDbEntity
  8
0
  6
Continuous
 62
     7
100
AcDbLine
 10
7.527581688399999
 20
4.823712055399999
 30
0.0
 11
7.9975816884
 21
4.823712055399999
 31
0.0
  0
LINE
  5
F3
330
A
100
AcDbEntity
  8
0
  6
Continuous
 62
     7
100
AcDbLine
 10
7.437581688399999
 20
4.711712055399999
 30
0.0
 11
7.437581688399999
 21
4.831712055399999
 31
0.0
  0
LINE
  5
F4
330
A
100
AcDbEntity
  8
0
  6
Continuous
 62
     7
100
AcDbLine
 10
7.527581688399999
 20
4.831712055399999
 30
0.0
 11
7.527581688399999
 21
4.823712055399999
 31
0.0
  0
LINE
  5
F5
330
A
100
AcDbEntity
  8
0
  6
Continuous
 62
     7
100
AcDbLine
 10
7.9975816884
 20
4.823712055399999
 30
0.0
 11
7.9975816884
 21
4.831712055399999
 31
0.0
  0
LINE
  5
F6
330
A
100
AcDbEntity
  8
0
  6
Continuous
 62
     7
100
AcDbLine
 10
8.0875816884
 20
4.831712055399999
 30
0.0
 11
8.0875816884
 21
4.9112553625
 31
0.0
  0
LINE
  5
F7
330
A
100
AcDbEntity
  8
0
  6
Continuous
 62
     7
100
AcDbLine
 10
8.0875816884
 20
4.9112553625
 30
0.0
 11
7.9975816884
 21
4.9112553625
 31
0.0
  0
LINE
  5
F8
330
A
100
AcDbEntity
  8
0
  6
Continuous
 62
     7
100
AcDbLine
 10
7.9975816884
 20
4.9112553625
 30
0.0
 11
7.9975816884
 21
4.831712055399999
 31
0.0
  0
LINE
  5
F9
330
A
100
AcDbEntity
  8
0
  6
Continuous
 62
     7
100
AcDbLine
 10
7.527581688399999
 20
4.9112553625
 30
0.0
 11
7.437581688399999
 21
4.9112553625
 31
0.0
  0
LINE
  5
FA
330
A
100
AcDbEntity
  8
0
  6
Continuous
 62
     7
100
AcDbLine
 10
7.437581688399999
 20
4.9112553625
 30
0.0
 11
7.437581688399999
 21
4.831712055399999
 31
0.0
  0
LINE
  5
FB
330
A
100
AcDbEntity
  8
0
  6
Continuous
 62
     7
100
AcDbLine
 10
7.527581688399999
 20
4.831712055399999
 30
0.0
 11
7.527581688399999
 21
4.9112553625
 31
0.0
  0
LINE
  5
FC
330
A
100
AcDbEntity
  8
0
  6
Continuous
 62
     7
100
AcDbLine
 10
8.187581688399999
 20
5.3012553625
 30
0.0
 11
8.187581688399999
 21
4.8172553625
 31
0.0
  0
LINE
  5
FD
330
A
100
AcDbEntity
  8
0
  6
Continuous
 62
     7
100
AcDbLine
 10
7.3375816884
 20
4.8172553625
 30
0.0
 11
7.437581688399999
 21
4.8172553625
 31
0.0
  0
LINE
  5
FE
330
A
100
AcDbEntity
  8
0
  6
Continuous
 62
     7
100
AcDbLine
 10
8.0875816884
 20
4.8172553625
 30
0.0
 11
8.187581688399999
 21
4.8172553625
 31
0.0
  0
LINE
  5
FF
330
A
100
AcDbEntity
  8
0
  6
Continuous
 62
     7
100
AcDbLine
 10
7.2901407435
 20
5.3652553625
 30
0.0
 11
7.2901407435
 21
4.711712055399999
 31
0.0
  0
LINE
  5
100
330
A
100
AcDbEntity
  8
0
  6
Continuous
 62
     7
100
AcDbLine
 10
7.3375816884
 20
4.8172553625
 30
0.0
 11
7.3375816884
 21
5.3012553625
 31
0.0
  0
LINE
  5
101
330
A
100
AcDbEntity
  8
0
  6
Continuous
 62
     7
100
AcDbLine
 10
7.3375816884
 20
5.3012553625
 30
0.0
 11
8.187581688399999
 21
5.3012553625
 31
0.0
  0
LINE
  5
102
330
A
100
AcDbEntity
  8
0
  6
Continuous
 62
     7
100
AcDbLine
 10
8.235022633199999
 20
5.3652553625
 30
0.0
 11
7.2901407435
 21
5.3652553625
 31
0.0
  0
LINE
  5
103
330
A
100
AcDbEntity
  8
0
  6
Continuous
 62
     7
100
AcDbLine
 10
8.235022633199999
 20
5.3652553625
 30
0.0
 11
8.235022633199999
 21
4.711712055399999
 31
0.0
  0
LINE
  5
104
330
A
100
AcDbEntity
  8
0
  6
Continuous
 62
     7
100
AcDbLine
 10
8.0875816884
 20
4.711712055399999
 30
0.0
 11
8.235022633199999
 21
4.711712055399999
 31
0.0
  0
LINE
  5
105
330
A
100
AcDbEntity
  8
0
  6
Continuous
 62
     7
100
AcDbLine
 10
7.2901407435
 20
4.711712055399999
 30
0.0
 11
7.437581688399999
 21
4.711712055399999
 31
0.0
  0
LINE
  5
106
330
A
100
AcDbEntity
  8
0
  6
Continuous
 62
     7
100
AcDbLine
 10
7.9975816884
 20
4.9112553625
 30
0.0
 11
7.527581688399999
 21
4.9112553625
 31
0.0
  0
LINE
  5
107
330
A
100
AcDbEntity
  8
0
  6
Continuous
 62
     7
100
AcDbLine
 10
13.8852903498
 20
5.105412842799999
 30
0.0
 11
13.85592333349999
 21
5.105412842799999
 31
0.0
  0
LINE
  5
108
330
A
100
AcDbEntity
  8
0
  6
Continuous
 62
     7
100
AcDbLine
 10
9.3870620033
 20
5.318011268
 30
0.0
 11
9.3870620033
 21
5.3652553625
 31
0.0
  0
LINE
  5
109
330
A
100
AcDbEntity
  8
0
  6
Continuous
 62
     7
100
AcDbLine
 10
9.3870620033
 20
5.318011268
 30
0.0
 11
9.3653060667
 21
5.318011268
 31
0.0
  0
LINE
  5
10A
330
A
100
AcDbEntity
  8
0
  6
Continuous
 62
     7
100
AcDbLine
 10
9.463936050199999
 20
5.318011268
 30
0.0
 11
9.442180113599999
 21
5.318011268
 31
0.0
  0
LINE
  5
10B
330
A
100
AcDbEntity
  8
0
  6
Continuous
 62
     7
100
AcDbLine
 10
9.442180113599999
 20
5.318011268
 30
0.0
 11
9.442180113599999
 21
5.3652553625
 31
0.0
  0
LINE
  5
10C
330
A
100
AcDbEntity
  8
0
  6
Continuous
 62
     7
100
AcDbLine
 10
9.442180113599999
 20
5.318011268
 30
0.0
 11
9.3870620033
 21
5.318011268
 31
0.0
  0
LINE
  5
10D
330
A
100
AcDbEntity
  8
0
  6
Continuous
 62
     7
100
AcDbLine
 10
10.3056210584
 20
4.4002553625
 30
0.0
 11
10.3056210584
 21
4.5382553625
 31
0.0
  0
LINE
  5
10E
330
A
100
AcDbEntity
  8
0
  6
Continuous
 62
     7
100
AcDbLine
 10
9.991621058399999
 20
4.4002553625
 30
0.0
 11
9.991621058399999
 21
4.5382553625
 31
0.0
  0
LINE
  5
10F
330
A
100
AcDbEntity
  8
0
  6
Continuous
 62
     7
100
AcDbLine
 10
10.3056210584
 20
4.4002553625
 30
0.0
 11
9.991621058399999
 21
4.4002553625
 31
0.0
  0
LINE
  5
110
330
A
100
AcDbEntity
  8
0
  6
Continuous
 62
     7
100
AcDbLine
 10
9.991621058399999
 20
4.5382553625
 30
0.0
 11
10.3056210584
 21
4.5382553625
 31
0.0
  0
LINE
  5
111
330
A
100
AcDbEntity
  8
0
  6
Continuous
 62
     7
100
AcDbLine
 10
11.1276210584
 20
4.4002553625
 30
0.0
 11
11.1276210584
 21
4.5382553625
 31
0.0
  0
LINE
  5
112
330
A
100
AcDbEntity
  8
0
  6
Continuous
 62
     7
100
AcDbLine
 10
11.1276210584
 20
4.5382553625
 30
0.0
 11
10.8136210584
 21
4.5382553625
 31
0.0
  0
LINE
  5
113
330
A
100
AcDbEntity
  8
0
  6
Continuous
 62
     7
100
AcDbLine
 10
10.8136210584
 20
4.4002553625
 30
0.0
 11
10.8136210584
 21
4.5382553625
 31
0.0
  0
LINE
  5
114
330
A
100
AcDbEntity
  8
0
  6
Continuous
 62
     7
100
AcDbLine
 10
10.8136210584
 20
4.4002553625
 30
0.0
 11
11.1276210584
 21
4.4002553625
 31
0.0
  0
LINE
  5
115
330
A
100
AcDbEntity
  8
0
  6
Continuous
 62
     7
100
AcDbLine
 10
10.0696210584
 20
4.555255362499999
 30
0.0
 11
9.9746210584
 21
4.555255362499999
 31
0.0
  0
LINE
  5
116
330
A
100
AcDbEntity
  8
0
  6
Continuous
 62
     7
100
AcDbLine
 10
9.9746210584
 20
4.555255362499999
 30
0.0
 11
9.9746210584
 21
4.3952553625
 31
0.0
  0
LINE
  5
117
330
A
100
AcDbEntity
  8
0
  6
Continuous
 62
     7
100
AcDbLine
 10
9.9746210584
 20
4.3952553625
 30
0.0
 11
10.3696210584
 21
4.3952553625
 31
0.0
  0
LINE
  5
118
330
A
100
AcDbEntity
  8
0
  6
Continuous
 62
     7
100
AcDbLine
 10
10.3696210584
 20
4.305255362499999
 30
0.0
 11
10.3696210584
 21
4.3952553625
 31
0.0
  0
LINE
  5
119
330
A
100
AcDbEntity
  8
0
  6
Continuous
 62
     7
100
AcDbLine
 10
9.9196210584
 20
4.305255362499999
 30
0.0
 11
10.3696210584
 21
4.305255362499999
 31
0.0
  0
LINE
  5
11A
330
A
100
AcDbEntity
  8
0
  6
Continuous
 62
     7
100
AcDbLine
 10
9.9196210584
 20
5.321255362499999
 30
0.0
 11
9.9196210584
 21
4.305255362499999
 31
0.0
  0
LINE
  5
11B
330
A
100
AcDbEntity
  8
0
  6
Continuous
 62
     7
100
AcDbLine
 10
9.9196210584
 20
5.321255362499999
 30
0.0
 11
10.1196210584
 21
5.321255362499999
 31
0.0
  0
LINE
  5
11C
330
A
100
AcDbEntity
  8
0
  6
Continuous
 62
     7
100
AcDbLine
 10
10.1196210584
 20
5.321255362499999
 30
0.0
 11
10.1196210584
 21
5.3552553625
 31
0.0
  0
LINE
  5
11D
330
A
100
AcDbEntity
  8
0
  6
Continuous
 62
     7
100
AcDbLine
 10
10.9996210584
 20
5.3552553625
 30
0.0
 11
10.1196210584
 21
5.3552553625
 31
0.0
  0
LINE
  5
11E
330
A
100
AcDbEntity
  8
0
  6
Continuous
 62
     7
100
AcDbLine
 10
10.9996210584
 20
5.321255362499999
 30
0.0
 11
10.9996210584
 21
5.3552553625
 31
0.0
  0
LINE
  5
11F
330
A
100
AcDbEntity
  8
0
  6
Continuous
 62
     7
100
AcDbLine
 10
10.9996210584
 20
5.321255362499999
 30
0.0
 11
11.19962105839999
 21
5.321255362499999
 31
0.0
  0
LINE
  5
120
330
A
100
AcDbEntity
  8
0
  6
Continuous
 62
     7
100
AcDbLine
 10
11.19962105839999
 20
4.305255362499999
 30
0.0
 11
11.19962105839999
 21
5.321255362499999
 31
0.0
  0
LINE
  5
121
330
A
100
AcDbEntity
  8
0
  6
Continuous
 62
     7
100
AcDbLine
 10
10.7496210584
 20
4.305255362499999
 30
0.0
 11
11.19962105839999
 21
4.305255362499999
 31
0.0
  0
LINE
  5
122
330
A
100
AcDbEntity
  8
0
  6
Continuous
 62
     7
100
AcDbLine
 10
10.7496210584
 20
4.3952553625
 30
0.0
 11
10.7496210584
 21
4.305255362499999
 31
0.0
  0
LINE
  5
123
330
A
100
AcDbEntity
  8
0
  6
Continuous
 62
     7
100
AcDbLine
 10
10.7496210584
 20
4.3952553625
 30
0.0
 11
11.1446210584
 21
4.3952553625
 31
0.0
  0
LINE
  5
124
330
A
100
AcDbEntity
  8
0
  6
Continuous
 62
     7
100
AcDbLine
 10
11.1446210584
 20
4.3952553625
 30
0.0
 11
11.1446210584
 21
4.555255362499999
 31
0.0
  0
LINE
  5
125
330
A
100
AcDbEntity
  8
0
  6
Continuous
 62
     7
100
AcDbLine
 10
11.1446210584
 20
4.555255362499999
 30
0.0
 11
11.0496210584
 21
4.555255362499999
 31
0.0
  0
LINE
  5
126
330
A
100
AcDbEntity
  8
0
  6
Continuous
 62
     7
100
AcDbLine
 10
11.0496210584
 20
4.555255362499999
 30
0.0
 11
11.0496210584
 21
4.7752553625
 31
0.0
  0
LINE
  5
127
330
A
100
AcDbEntity
  8
0
  6
Continuous
 62
     7
100
AcDbLine
 10
11.0496210584
 20
4.955255362499999
 30
0.0
 11
11.0496210584
 21
4.7752553625
 31
0.0
  0
LINE
  5
128
330
A
100
AcDbEntity
  8
0
  6
Continuous
 62
     7
100
AcDbLine
 10
11.0496210584
 20
5.175255362499999
 30
0.0
 11
11.0496210584
 21
4.955255362499999
 31
0.0
  0
LINE
  5
129
330
A
100
AcDbEntity
  8
0
  6
Continuous
 62
     7
100
AcDbLine
 10
10.0696210584
 20
5.175255362499999
 30
0.0
 11
11.0496210584
 21
5.175255362499999
 31
0.0
  0
LINE
  5
12A
330
A
100
AcDbEntity
  8
0
  6
Continuous
 62
     7
100
AcDbLine
 10
10.0696210584
 20
4.955255362499999
 30
0.0
 11
10.0696210584
 21
5.175255362499999
 31
0.0
  0
LINE
  5
12B
330
A
100
AcDbEntity
  8
0
  6
Continuous
 62
     7
100
AcDbLine
 10
10.0696210584
 20
4.7752553625
 30
0.0
 11
10.0696210584
 21
4.955255362499999
 31
0.0
  0
LINE
  5
12C
330
A
100
AcDbEntity
  8
0
  6
Continuous
 62
     7
100
AcDbLine
 10
10.0696210584
 20
4.7752553625
 30
0.0
 11
10.0696210584
 21
4.555255362499999
 31
0.0
  0
LINE
  5
12D
330
A
100
AcDbEntity
  8
0
  6
Continuous
 62
     7
100
AcDbLine
 10
11.0267160481
 20
4.955255362499999
 30
0.0
 11
11.0267160481
 21
4.7752553625
 31
0.0
  0
LINE
  5
12E
330
A
100
AcDbEntity
  8
0
  6
Continuous
 62
     7
100
AcDbLine
 10
11.0496210584
 20
4.955255362499999
 30
0.0
 11
11.0267160481
 21
4.955255362499999
 31
0.0
  0
LINE
  5
12F
330
A
100
AcDbEntity
  8
0
  6
Continuous
 62
     7
100
AcDbLine
 10
11.0496210584
 20
4.7752553625
 30
0.0
 11
11.0267160481
 21
4.7752553625
 31
0.0
  0
LINE
  5
130
330
A
100
AcDbEntity
  8
0
  6
Continuous
 62
     7
100
AcDbLine
 10
10.0925260688
 20
4.7752553625
 30
0.0
 11
10.0925260688
 21
4.955255362499999
 31
0.0
  0
LINE
  5
131
330
A
100
AcDbEntity
  8
0
  6
Continuous
 62
     7
100
AcDbLine
 10
10.0925260688
 20
4.7752553625
 30
0.0
 11
10.0696210584
 21
4.7752553625
 31
0.0
  0
LINE
  5
132
330
A
100
AcDbEntity
  8
0
  6
Continuous
 62
     7
100
AcDbLine
 10
10.0925260688
 20
4.955255362499999
 30
0.0
 11
10.0696210584
 21
4.955255362499999
 31
0.0
  0
LINE
  5
133
330
A
100
AcDbEntity
  8
0
  6
Continuous
 62
     7
100
AcDbLine
 10
10.0906210584
 20
4.955255362499999
 30
0.0
 11
10.0906210584
 21
5.175255362499999
 31
0.0
  0
LINE
  5
134
330
A
100
AcDbEntity
  8
0
  6
Continuous
 62
     7
100
AcDbLine
 10
11.0496210584
 20
5.1712553625
 30
0.0
 11
11.0286210584
 21
5.1712553625
 31
0.0
  0
LINE
  5
135
330
A
100
AcDbEntity
  8
0
  6
Continuous
 62
     7
100
AcDbLine
 10
11.0286210584
 20
5.1712553625
 30
0.0
 11
11.0286210584
 21
4.955255362499999
 31
0.0
  0
LINE
  5
136
330
A
100
AcDbEntity
  8
0
  6
Continuous
 62
     7
100
AcDbLine
 10
10.3696210584
 20
4.3206553625
 30
0.0
 11
10.7496210584
 21
4.3206553625
 31
0.0
  0
LINE
  5
137
330
A
100
AcDbEntity
  8
0
  6
Continuous
 62
     7
100
AcDbLine
 10
10.7496210584
 20
4.305255362499999
 30
0.0
 11
10.3696210584
 21
4.305255362499999
 31
0.0
  0
LINE
  5
138
330
A
100
AcDbEntity
  8
0
  6
Continuous
 62
     7
100
AcDbLine
 10
10.3116210584
 20
4.601255362499999
 30
0.0
 11
10.0906210584
 21
4.601255362499999
 31
0.0
  0
LINE
  5
139
330
A
100
AcDbEntity
  8
0
  6
Continuous
 62
     7
100
AcDbLine
 10
10.3116210584
 20
4.4692553625
 30
0.0
 11
10.3116210584
 21
4.601255362499999
 31
0.0
  0
LINE
  5
13A
330
A
100
AcDbEntity
  8
0
  6
Continuous
 62
     7
100
AcDbLine
 10
10.39962105839999
 20
4.4692553625
 30
0.0
 11
10.3116210584
 21
4.4692553625
 31
0.0
  0
LINE
  5
13B
330
A
100
AcDbEntity
  8
0
  6
Continuous
 62
     7
100
AcDbLine
 10
10.39962105839999
 20
4.3792553625
 30
0.0
 11
10.39962105839999
 21
4.4692553625
 31
0.0
  0
LINE
  5
13C
330
A
100
AcDbEntity
  8
0
  6
Continuous
 62
     7
100
AcDbLine
 10
10.71962105839999
 20
4.3792553625
 30
0.0
 11
10.39962105839999
 21
4.3792553625
 31
0.0
  0
LINE
  5
13D
330
A
100
AcDbEntity
  8
0
  6
Continuous
 62
     7
100
AcDbLine
 10
10.71962105839999
 20
4.4692553625
 30
0.0
 11
10.71962105839999
 21
4.3792553625
 31
0.0
  0
LINE
  5
13E
330
A
100
AcDbEntity
  8
0
  6
Continuous
 62
     7
100
AcDbLine
 10
10.8076210584
 20
4.4692553625
 30
0.0
 11
10.71962105839999
 21
4.4692553625
 31
0.0
  0
LINE
  5
13F
330
A
100
AcDbEntity
  8
0
  6
Continuous
 62
     7
100
AcDbLine
 10
10.8076210584
 20
4.601255362499999
 30
0.0
 11
10.8076210584
 21
4.4692553625
 31
0.0
  0
LINE
  5
140
330
A
100
AcDbEntity
  8
0
  6
Continuous
 62
     7
100
AcDbLine
 10
11.0286210584
 20
4.601255362499999
 30
0.0
 11
10.8076210584
 21
4.601255362499999
 31
0.0
  0
LINE
  5
141
330
A
100
AcDbEntity
  8
0
  6
Continuous
 62
     7
100
AcDbLine
 10
10.7496210584
 20
4.3252553625
 30
0.0
 11
10.3696210584
 21
4.3252553625
 31
0.0
  0
LINE
  5
142
330
A
100
AcDbEntity
  8
0
  6
Continuous
 62
     7
100
AcDbLine
 10
11.0286210584
 20
4.7752553625
 30
0.0
 11
11.0286210584
 21
4.601255362499999
 31
0.0
  0
LINE
  5
143
330
A
100
AcDbEntity
  8
0
  6
Continuous
 62
     7
100
AcDbLine
 10
10.0906210584
 20
4.601255362499999
 30
0.0
 11
10.0906210584
 21
4.7752553625
 31
0.0
  0
LINE
  5
144
330
A
100
AcDbEntity
  8
0
  6
Continuous
 62
     7
100
AcDbLine
 10
9.9396210584
 20
5.335255362499999
 30
0.0
 11
10.0906210584
 21
5.335255362499999
 31
0.0
  0
LINE
  5
145
330
A
100
AcDbEntity
  8
0
  6
Continuous
 62
     7
100
AcDbLine
 10
10.0906210584
 20
5.321255362499999
 30
0.0
 11
10.0906210584
 21
5.335255362499999
 31
0.0
  0
LINE
  5
146
330
A
100
AcDbEntity
  8
0
  6
Continuous
 62
     7
100
AcDbLine
 10
9.9396210584
 20
5.335255362499999
 30
0.0
 11
9.9396210584
 21
5.321255362499999
 31
0.0
  0
LINE
  5
147
330
A
100
AcDbEntity
  8
0
  6
Continuous
 62
     7
100
AcDbLine
 10
11.0286210584
 20
5.335255362499999
 30
0.0
 11
11.17962105839999
 21
5.335255362499999
 31
0.0
  0
LINE
  5
148
330
A
100
AcDbEntity
  8
0
  6
Continuous
 62
     7
100
AcDbLine
 10
11.0286210584
 20
5.335255362499999
 30
0.0
 11
11.0286210584
 21
5.321255362499999
 31
0.0
  0
LINE
  5
149
330
A
100
AcDbEntity
  8
0
  6
Continuous
 62
     7
100
AcDbLine
 10
11.17962105839999
 20
5.321255362499999
 30
0.0
 11
11.17962105839999
 21
5.335255362499999
 31
0.0
  0
LINE
  5
14A
330
A
100
AcDbEntity
  8
0
  6
Continuous
 62
     7
100
AcDbLine
 10
10.97199282519999
 20
4.955255362499999
 30
0.0
 11
10.97199282519999
 21
4.7752553625
 31
0.0
  0
LINE
  5
14B
330
A
100
AcDbEntity
  8
0
  6
Continuous
 62
     7
100
AcDbLine
 10
10.97199282519999
 20
4.7752553625
 30
0.0
 11
11.0267160481
 21
4.7752553625
 31
0.0
  0
LINE
  5
14C
330
A
100
AcDbEntity
  8
0
  6
Continuous
 62
     7
100
AcDbLine
 10
11.0267160481
 20
4.955255362499999
 30
0.0
 11
10.97199282519999
 21
4.955255362499999
 31
0.0
  0
LINE
  5
14D
330
A
100
AcDbEntity
  8
0
  6
Continuous
 62
     7
100
AcDbLine
 10
10.1472492917
 20
4.7752553625
 30
0.0
 11
10.1472492917
 21
4.955255362499999
 31
0.0
  0
LINE
  5
14E
330
A
100
AcDbEntity
  8
0
  6
Continuous
 62
     7
100
AcDbLine
 10
10.0925260688
 20
4.7752553625
 30
0.0
 11
10.1472492917
 21
4.7752553625
 31
0.0
  0
LINE
  5
14F
330
A
100
AcDbEntity
  8
0
  6
Continuous
 62
     7
100
AcDbLine
 10
10.1472492917
 20
4.955255362499999
 30
0.0
 11
10.0925260688
 21
4.955255362499999
 31
0.0
  0
LINE
  5
150
330
A
100
AcDbEntity
  8
0
  6
Continuous
 62
     7
100
AcDbLine
 10
11.01962105839999
 20
5.321255362499999
 30
0.0
 11
11.01962105839999
 21
5.330255362499999
 31
0.0
  0
LINE
  5
151
330
A
100
AcDbEntity
  8
0
  6
Continuous
 62
     7
100
AcDbLine
 10
11.01962105839999
 20
5.1742553625
 30
0.0
 11
11.0496210584
 21
5.1742553625
 31
0.0
  0
LINE
  5
152
330
A
100
AcDbEntity
  8
0
  6
Continuous
 62
     7
100
AcDbLine
 10
11.01962105839999
 20
5.140255362499999
 30
0.0
 11
11.01962105839999
 21
5.1742553625
 31
0.0
  0
LINE
  5
153
330
A
100
AcDbEntity
  8
0
  6
Continuous
 62
     7
100
AcDbLine
 10
10.2096210584
 20
5.140255362499999
 30
0.0
 11
10.2096210584
 21
5.175255362499999
 31
0.0
  0
LINE
  5
154
330
A
100
AcDbEntity
  8
0
  6
Continuous
 62
     7
100
AcDbLine
 10
10.0996210584
 20
5.330255362499999
 30
0.0
 11
10.1196210584
 21
5.330255362499999
 31
0.0
  0
LINE
  5
155
330
A
100
AcDbEntity
  8
0
  6
Continuous
 62
     7
100
AcDbLine
 10
10.9996210584
 20
5.330255362499999
 30
0.0
 11
11.01962105839999
 21
5.330255362499999
 31
0.0
  0
LINE
  5
156
330
A
100
AcDbEntity
  8
0
  6
Continuous
 62
     7
100
AcDbLine
 10
10.9096210584
 20
5.140255362499999
 30
0.0
 11
11.01962105839999
 21
5.140255362499999
 31
0.0
  0
LINE
  5
157
330
A
100
AcDbEntity
  8
0
  6
Continuous
 62
     7
100
AcDbLine
 10
10.0996210584
 20
5.330255362499999
 30
0.0
 11
10.0996210584
 21
5.321255362499999
 31
0.0
  0
LINE
  5
158
330
A
100
AcDbEntity
  8
0
  6
Continuous
 62
     7
100
AcDbLine
 10
10.0996210584
 20
5.175255362499999
 30
0.0
 11
10.0996210584
 21
5.140255362499999
 31
0.0
  0
LINE
  5
159
330
A
100
AcDbEntity
  8
0
  6
Continuous
 62
     7
100
AcDbLine
 10
10.0996210584
 20
5.140255362499999
 30
0.0
 11
10.2096210584
 21
5.140255362499999
 31
0.0
  0
LINE
  5
15A
330
A
100
AcDbEntity
  8
0
  6
Continuous
 62
     7
100
AcDbLine
 10
10.9096210584
 20
5.175255362499999
 30
0.0
 11
10.9096210584
 21
5.140255362499999
 31
0.0
  0
LWPOLYLINE
  5
15B
330
A
100
AcDbEntity
  8
0
  6
Continuous
 62
     7
100
AcDbPolyline
 90
        3
 70
   128
 43
0.0
 10
11.19962105839999
 20
4.465255362499999
 10
11.2456552068
 20
4.482974585
 10
11.25470117589999
 20
4.488804993199999
  0
LWPOLYLINE
  5
160
330
A
100
AcDbEntity
  8
0
  6
Continuous
 62
     7
100
AcDbPolyline
 90
        3
 70
   128
 43
0.0
 10
11.252001916
 20
4.6434454886
 10
11.2456552068
 20
4.647536139999999
 10
11.19962105839999
 20
4.665255362499999
  0
LWPOLYLINE
  5
165
330
A
100
AcDbEntity
  8
0
  6
Continuous
 62
     7
100
AcDbPolyline
 90
        3
 70
   128
 43
0.0
 10
9.873516595699999
 20
5.0030199048
 10
9.8735869101
 20
5.002974584899999
 10
9.9196210584
 20
4.9852553625
  0
LINE
  5
16A
330
A
100
AcDbEntity
  8
0
  6
Continuous
 62
     7
100
AcDbLine
 10
9.9196210584
 20
5.1852553625
 30
0.0
 11
9.876407185899999
 21
5.168621705699999
 31
0.0
  0
LWPOLYLINE
  5
16B
330
A
100
AcDbEntity
  8
0
  6
Continuous
 62
     7
100
AcDbPolyline
 90
        3
 70
   128
 43
0.0
 10
10.22554499299999
 20
4.233843318099999
 10
10.241901836
 20
4.2592212142
 10
10.2596210584
 20
4.305255362499999
  0
LWPOLYLINE
  5
170
330
A
100
AcDbEntity
  8
0
  6
Continuous
 62
     7
100
AcDbPolyline
 90
        3
 70
   128
 43
0.0
 10
10.05962105839999
 20
4.305255362499999
 10
10.0773402809
 20
4.2592212141
 10
10.0936971238
 20
4.233843318099999
  0
LWPOLYLINE
  5
175
330
A
100
AcDbEntity
  8
0
  6
Continuous
 62
     7
100
AcDbPolyline
 90
        3
 70
   128
 43
0.0
 10
11.19962105839999
 20
4.9852553625
 10
11.2456552068
 20
5.002974584999999
 10
11.2457255212
 20
5.0030199048
  0
LINE
  5
17A
330
A
100
AcDbEntity
  8
0
  6
Continuous
 62
     7
100
AcDbLine
 10
11.242834931
 20
5.168621705699999
 30
0.0
 11
11.19962105839999
 21
5.1852553625
 31
0.0
  0
LWPOLYLINE
  5
17B
330
A
100
AcDbEntity
  8
0
  6
Continuous
 62
     7
100
AcDbPolyline
 90
        3
 70
   128
 43
0.0
 10
9.864540940999999
 20
4.488804993199999
 10
9.8735869101
 20
4.482974585
 10
9.9196210584
 20
4.465255362499999
  0
LWPOLYLINE
  5
180
330
A
100
AcDbEntity
  8
0
  6
Continuous
 62
     7
100
AcDbPolyline
 90
        3
 70
   128
 43
0.0
 10
9.9196210584
 20
4.665255362499999
 10
9.8735869101
 20
4.647536139999999
 10
9.867240200899999
 20
4.6434454886
  0
LWPOLYLINE
  5
185
330
A
100
AcDbEntity
  8
0
  6
Continuous
 62
     7
100
AcDbPolyline
 90
        3
 70
   128
 43
0.0
 10
11.025544993
 20
4.233843318099999
 10
11.04190183599999
 20
4.2592212141
 10
11.05962105839999
 20
4.305255362499999
  0
LWPOLYLINE
  5
18A
330
A
100
AcDbEntity
  8
0
  6
Continuous
 62
     7
100
AcDbPolyline
 90
        3
 70
   128
 43
0.0
 10
10.85962105839999
 20
4.305255362499999
 10
10.8773402809
 20
4.2592212142
 10
10.8936971238
 20
4.233843318099999
  0
LINE
  5
18F
330
A
100
AcDbEntity
  8
0
  6
Continuous
 62
     7
100
AcDbLine
 10
10.47962105839999
 20
5.3552553625
 30
0.0
 11
10.47962105839999
 21
5.3572553625
 31
0.0
  0
LINE
  5
190
330
A
100
AcDbEntity
  8
0
  6
Continuous
 62
     7
100
AcDbLine
 10
10.63962105839999
 20
5.3552553625
 30
0.0
 11
10.63962105839999
 21
5.3572553625
 31
0.0
  0
LINE
  5
191
330
A
100
AcDbEntity
  8
0
  6
Continuous
 62
     7
100
AcDbLine
 10
10.1472492917
 20
4.7752553625
 30
0.0
 11
10.1557104891
 21
4.7752553625
 31
0.0
  0
LINE
  5
192
330
A
100
AcDbEntity
  8
0
  6
Continuous
 62
     7
100
AcDbLine
 10
10.1557104891
 20
4.955255362499999
 30
0.0
 11
10.1472492917
 21
4.955255362499999
 31
0.0
  0
LINE
  5
193
330
A
100
AcDbEntity
  8
0
  6
Continuous
 62
     7
100
AcDbLine
 10
10.97199282519999
 20
4.7752553625
 30
0.0
 11
10.9635316278
 21
4.7752553625
 31
0.0
  0
LINE
  5
194
330
A
100
AcDbEntity
  8
0
  6
Continuous
 62
     7
100
AcDbLine
 10
10.97199282519999
 20
4.955255362499999
 30
0.0
 11
10.9635316278
 21
4.955255362499999
 31
0.0
  0
LINE
  5
195
330
A
100
AcDbEntity
  8
0
  6
Continuous
 62
     7
100
AcDbLine
 10
11.08862105839999
 20
5.335255362499999
 30
0.0
 11
11.08862105839999
 21
5.3572553625
 31
0.0
  0
LINE
  5
196
330
A
100
AcDbEntity
  8
0
  6
Continuous
 62
     7
100
AcDbLine
 10
11.05862105839999
 20
5.335255362499999
 30
0.0
 11
11.05862105839999
 21
5.3572553625
 31
0.0
  0
LINE
  5
197
330
A
100
AcDbEntity
  8
0
  6
Continuous
 62
     7
100
AcDbLine
 10
10.0606210584
 20
5.335255362499999
 30
0.0
 11
10.0606210584
 21
5.3572553625
 31
0.0
  0
LINE
  5
198
330
A
100
AcDbEntity
  8
0
  6
Continuous
 62
     7
100
AcDbLine
 10
10.03062105839999
 20
5.335255362499999
 30
0.0
 11
10.03062105839999
 21
5.3572553625
 31
0.0
  0
LINE
  5
199
330
A
100
AcDbEntity
  8
0
  6
Continuous
 62
     7
100
AcDbLine
 10
10.53662105839999
 20
5.1433854502
 30
0.0
 11
10.53662105839999
 21
5.175255362499999
 31
0.0
  0
LINE
  5
19A
330
A
100
AcDbEntity
  8
0
  6
Continuous
 62
     7
100
AcDbLine
 10
10.53662105839999
 20
5.1433854502
 30
0.0
 11
10.5026210584
 21
5.1433854502
 31
0.0
  0
LINE
  5
19B
330
A
100
AcDbEntity
  8
0
  6
Continuous
 62
     7
100
AcDbLine
 10
10.5026210584
 20
5.175255362499999
 30
0.0
 11
10.5026210584
 21
5.1433854502
 31
0.0
  0
LINE
  5
19C
330
A
100
AcDbEntity
  8
0
  6
Continuous
 62
     7
100
AcDbLine
 10
10.37662105839999
 20
5.1433854502
 30
0.0
 11
10.37662105839999
 21
5.175255362499999
 31
0.0
  0
LINE
  5
19D
330
A
100
AcDbEntity
  8
0
  6
Continuous
 62
     7
100
AcDbLine
 10
10.37662105839999
 20
5.1433854502
 30
0.0
 11
10.3426210584
 21
5.1433854502
 31
0.0
  0
LINE
  5
19E
330
A
100
AcDbEntity
  8
0
  6
Continuous
 62
     7
100
AcDbLine
 10
10.3426210584
 20
5.175255362499999
 30
0.0
 11
10.3426210584
 21
5.1433854502
 31
0.0
  0
LINE
  5
19F
330
A
100
AcDbEntity
  8
0
  6
Continuous
 62
     7
100
AcDbLine
 10
10.69662105839999
 20
5.1433854502
 30
0.0
 11
10.69662105839999
 21
5.175255362499999
 31
0.0
  0
LINE
  5
1A0
330
A
100
AcDbEntity
  8
0
  6
Continuous
 62
     7
100
AcDbLine
 10
10.69662105839999
 20
5.1433854502
 30
0.0
 11
10.66262105839999
 21
5.1433854502
 31
0.0
  0
LINE
  5
1A1
330
A
100
AcDbEntity
  8
0
  6
Continuous
 62
     7
100
AcDbLine
 10
10.66262105839999
 20
5.175255362499999
 30
0.0
 11
10.66262105839999
 21
5.1433854502
 31
0.0
  0
LINE
  5
1A2
330
A
100
AcDbEntity
  8
0
  6
Continuous
 62
     7
100
AcDbLine
 10
10.58262105839999
 20
5.1433854502
 30
0.0
 11
10.58262105839999
 21
5.175255362499999
 31
0.0
  0
LINE
  5
1A3
330
A
100
AcDbEntity
  8
0
  6
Continuous
 62
     7
100
AcDbLine
 10
10.61662105839999
 20
5.1433854502
 30
0.0
 11
10.61662105839999
 21
5.175255362499999
 31
0.0
  0
LINE
  5
1A4
330
A
100
AcDbEntity
  8
0
  6
Continuous
 62
     7
100
AcDbLine
 10
10.58262105839999
 20
5.1433854502
 30
0.0
 11
10.61662105839999
 21
5.1433854502
 31
0.0
  0
LINE
  5
1A5
330
A
100
AcDbEntity
  8
0
  6
Continuous
 62
     7
100
AcDbLine
 10
10.74262105839999
 20
5.1433854502
 30
0.0
 11
10.77662105839999
 21
5.1433854502
 31
0.0
  0
LINE
  5
1A6
330
A
100
AcDbEntity
  8
0
  6
Continuous
 62
     7
100
AcDbLine
 10
10.77662105839999
 20
5.1433854502
 30
0.0
 11
10.77662105839999
 21
5.175255362499999
 31
0.0
  0
LINE
  5
1A7
330
A
100
AcDbEntity
  8
0
  6
Continuous
 62
     7
100
AcDbLine
 10
10.74262105839999
 20
5.1433854502
 30
0.0
 11
10.74262105839999
 21
5.175255362499999
 31
0.0
  0
LINE
  5
1A8
330
A
100
AcDbEntity
  8
0
  6
Continuous
 62
     7
100
AcDbLine
 10
10.8566210584
 20
5.1433854502
 30
0.0
 11
10.8566210584
 21
5.175255362499999
 31
0.0
  0
LINE
  5
1A9
330
A
100
AcDbEntity
  8
0
  6
Continuous
 62
     7
100
AcDbLine
 10
10.8566210584
 20
5.1433854502
 30
0.0
 11
10.82262105839999
 21
5.1433854502
 31
0.0
  0
LINE
  5
1AA
330
A
100
AcDbEntity
  8
0
  6
Continuous
 62
     7
100
AcDbLine
 10
10.82262105839999
 20
5.175255362499999
 30
0.0
 11
10.82262105839999
 21
5.1433854502
 31
0.0
  0
LINE
  5
1AB
330
A
100
AcDbEntity
  8
0
  6
Continuous
 62
     7
100
AcDbLine
 10
10.4226210584
 20
5.1433854502
 30
0.0
 11
10.45662105839999
 21
5.1433854502
 31
0.0
  0
LINE
  5
1AC
330
A
100
AcDbEntity
  8
0
  6
Continuous
 62
     7
100
AcDbLine
 10
10.45662105839999
 20
5.1433854502
 30
0.0
 11
10.45662105839999
 21
5.175255362499999
 31
0.0
  0
LINE
  5
1AD
330
A
100
AcDbEntity
  8
0
  6
Continuous
 62
     7
100
AcDbLine
 10
10.4226210584
 20
5.1433854502
 30
0.0
 11
10.4226210584
 21
5.175255362499999
 31
0.0
  0
LINE
  5
1AE
330
A
100
AcDbEntity
  8
0
  6
Continuous
 62
     7
100
AcDbLine
 10
10.2626210584
 20
5.1433854502
 30
0.0
 11
10.29662105839999
 21
5.1433854502
 31
0.0
  0
LINE
  5
1AF
330
A
100
AcDbEntity
  8
0
  6
Continuous
 62
     7
100
AcDbLine
 10
10.2626210584
 20
5.1433854502
 30
0.0
 11
10.2626210584
 21
5.175255362499999
 31
0.0
  0
LINE
  5
1B0
330
A
100
AcDbEntity
  8
0
  6
Continuous
 62
     7
100
AcDbLine
 10
10.29662105839999
 20
5.1433854502
 30
0.0
 11
10.29662105839999
 21
5.175255362499999
 31
0.0
  0
LINE
  5
1B1
330
A
100
AcDbEntity
  8
0
  6
Continuous
 62
     7
100
AcDbLine
 10
11.0286210584
 20
5.3572553625
 30
0.0
 11
11.0286210584
 21
5.335255362499999
 31
0.0
  0
LINE
  5
1B2
330
A
100
AcDbEntity
  8
0
  6
Continuous
 62
     7
100
AcDbLine
 10
10.0906210584
 20
5.335255362499999
 30
0.0
 11
10.0906210584
 21
5.3572553625
 31
0.0
  0
LINE
  5
1B3
330
A
100
AcDbEntity
  8
0
  6
Continuous
 62
     7
100
AcDbLine
 10
10.41762105839999
 20
5.140255362499999
 30
0.0
 11
10.3816210584
 21
5.140255362499999
 31
0.0
  0
LINE
  5
1B4
330
A
100
AcDbEntity
  8
0
  6
Continuous
 62
     7
100
AcDbLine
 10
10.2096210584
 20
5.140255362499999
 30
0.0
 11
10.25762105839999
 21
5.140255362499999
 31
0.0
  0
LINE
  5
1B5
330
A
100
AcDbEntity
  8
0
  6
Continuous
 62
     7
100
AcDbLine
 10
10.49762105839999
 20
5.140255362499999
 30
0.0
 11
10.4616210584
 21
5.140255362499999
 31
0.0
  0
LINE
  5
1B6
330
A
100
AcDbEntity
  8
0
  6
Continuous
 62
     7
100
AcDbLine
 10
10.81762105839999
 20
5.140255362499999
 30
0.0
 11
10.7816210584
 21
5.140255362499999
 31
0.0
  0
LINE
  5
1B7
330
A
100
AcDbEntity
  8
0
  6
Continuous
 62
     7
100
AcDbLine
 10
10.33762105839999
 20
5.140255362499999
 30
0.0
 11
10.3016210584
 21
5.140255362499999
 31
0.0
  0
LINE
  5
1B8
330
A
100
AcDbEntity
  8
0
  6
Continuous
 62
     7
100
AcDbLine
 10
10.57762105839999
 20
5.140255362499999
 30
0.0
 11
10.5416210584
 21
5.140255362499999
 31
0.0
  0
LINE
  5
1B9
330
A
100
AcDbEntity
  8
0
  6
Continuous
 62
     7
100
AcDbLine
 10
10.8616210584
 20
5.140255362499999
 30
0.0
 11
10.9096210584
 21
5.140255362499999
 31
0.0
  0
LINE
  5
1BA
330
A
100
AcDbEntity
  8
0
  6
Continuous
 62
     7
100
AcDbLine
 10
10.73762105839999
 20
5.140255362499999
 30
0.0
 11
10.7016210584
 21
5.140255362499999
 31
0.0
  0
LINE
  5
1BB
330
A
100
AcDbEntity
  8
0
  6
Continuous
 62
     7
100
AcDbLine
 10
10.65762105839999
 20
5.140255362499999
 30
0.0
 11
10.6216210584
 21
5.140255362499999
 31
0.0
  0
LINE
  5
1BC
330
A
100
AcDbEntity
  8
0
  6
Continuous
 62
     7
100
AcDbLine
 10
10.58262105839999
 20
4.8542553625
 30
0.0
 11
10.61662105839999
 21
4.8542553625
 31
0.0
  0
LINE
  5
1BD
330
A
100
AcDbEntity
  8
0
  6
Continuous
 62
     7
100
AcDbLine
 10
10.61662105839999
 20
4.8542553625
 30
0.0
 11
10.61662105839999
 21
5.1433854502
 31
0.0
  0
LINE
  5
1BE
330
A
100
AcDbEntity
  8
0
  6
Continuous
 62
     7
100
AcDbLine
 10
10.58262105839999
 20
4.8542553625
 30
0.0
 11
10.58262105839999
 21
5.1433854502
 31
0.0
  0
LINE
  5
1BF
330
A
100
AcDbEntity
  8
0
  6
Continuous
 62
     7
100
AcDbLine
 10
10.2626210584
 20
4.8542553625
 30
0.0
 11
10.29662105839999
 21
4.8542553625
 31
0.0
  0
LINE
  5
1C0
330
A
100
AcDbEntity
  8
0
  6
Continuous
 62
     7
100
AcDbLine
 10
10.2626210584
 20
4.8542553625
 30
0.0
 11
10.2626210584
 21
5.1433854502
 31
0.0
  0
LINE
  5
1C1
330
A
100
AcDbEntity
  8
0
  6
Continuous
 62
     7
100
AcDbLine
 10
10.29662105839999
 20
4.8542553625
 30
0.0
 11
10.29662105839999
 21
5.1433854502
 31
0.0
  0
LINE
  5
1C2
330
A
100
AcDbEntity
  8
0
  6
Continuous
 62
     7
100
AcDbLine
 10
10.74262105839999
 20
4.8542553625
 30
0.0
 11
10.77662105839999
 21
4.8542553625
 31
0.0
  0
LINE
  5
1C3
330
A
100
AcDbEntity
  8
0
  6
Continuous
 62
     7
100
AcDbLine
 10
10.77662105839999
 20
4.8542553625
 30
0.0
 11
10.77662105839999
 21
5.1433854502
 31
0.0
  0
LINE
  5
1C4
330
A
100
AcDbEntity
  8
0
  6
Continuous
 62
     7
100
AcDbLine
 10
10.74262105839999
 20
4.8542553625
 30
0.0
 11
10.74262105839999
 21
5.1433854502
 31
0.0
  0
LINE
  5
1C5
330
A
100
AcDbEntity
  8
0
  6
Continuous
 62
     7
100
AcDbLine
 10
10.4226210584
 20
4.8542553625
 30
0.0
 11
10.45662105839999
 21
4.8542553625
 31
0.0
  0
LINE
  5
1C6
330
A
100
AcDbEntity
  8
0
  6
Continuous
 62
     7
100
AcDbLine
 10
10.45662105839999
 20
4.8542553625
 30
0.0
 11
10.45662105839999
 21
5.1433854502
 31
0.0
  0
LINE
  5
1C7
330
A
100
AcDbEntity
  8
0
  6
Continuous
 62
     7
100
AcDbLine
 10
10.4226210584
 20
4.8542553625
 30
0.0
 11
10.4226210584
 21
5.1433854502
 31
0.0
  0
LINE
  5
1C8
330
A
100
AcDbEntity
  8
0
  6
Continuous
 62
     7
100
AcDbLine
 10
10.8566210584
 20
4.8542553625
 30
0.0
 11
10.82262105839999
 21
4.8542553625
 31
0.0
  0
LINE
  5
1C9
330
A
100
AcDbEntity
  8
0
  6
Continuous
 62
     7
100
AcDbLine
 10
10.8566210584
 20
5.1433854502
 30
0.0
 11
10.8566210584
 21
4.8542553625
 31
0.0
  0
LINE
  5
1CA
330
A
100
AcDbEntity
  8
0
  6
Continuous
 62
     7
100
AcDbLine
 10
10.82262105839999
 20
5.1433854502
 30
0.0
 11
10.82262105839999
 21
4.8542553625
 31
0.0
  0
LINE
  5
1CB
330
A
100
AcDbEntity
  8
0
  6
Continuous
 62
     7
100
AcDbLine
 10
10.69662105839999
 20
4.8542553625
 30
0.0
 11
10.66262105839999
 21
4.8542553625
 31
0.0
  0
LINE
  5
1CC
330
A
100
AcDbEntity
  8
0
  6
Continuous
 62
     7
100
AcDbLine
 10
10.69662105839999
 20
5.1433854502
 30
0.0
 11
10.69662105839999
 21
4.8542553625
 31
0.0
  0
LINE
  5
1CD
330
A
100
AcDbEntity
  8
0
  6
Continuous
 62
     7
100
AcDbLine
 10
10.66262105839999
 20
5.1433854502
 30
0.0
 11
10.66262105839999
 21
4.8542553625
 31
0.0
  0
LINE
  5
1CE
330
A
100
AcDbEntity
  8
0
  6
Continuous
 62
     7
100
AcDbLine
 10
10.37662105839999
 20
4.8542553625
 30
0.0
 11
10.3426210584
 21
4.8542553625
 31
0.0
  0
LINE
  5
1CF
330
A
100
AcDbEntity
  8
0
  6
Continuous
 62
     7
100
AcDbLine
 10
10.37662105839999
 20
5.1433854502
 30
0.0
 11
10.37662105839999
 21
4.8542553625
 31
0.0
  0
LINE
  5
1D0
330
A
100
AcDbEntity
  8
0
  6
Continuous
 62
     7
100
AcDbLine
 10
10.3426210584
 20
5.1433854502
 30
0.0
 11
10.3426210584
 21
4.8542553625
 31
0.0
  0
LINE
  5
1D1
330
A
100
AcDbEntity
  8
0
  6
Continuous
 62
     7
100
AcDbLine
 10
10.53662105839999
 20
4.8542553625
 30
0.0
 11
10.5026210584
 21
4.8542553625
 31
0.0
  0
LINE
  5
1D2
330
A
100
AcDbEntity
  8
0
  6
Continuous
 62
     7
100
AcDbLine
 10
10.53662105839999
 20
5.1433854502
 30
0.0
 11
10.53662105839999
 21
4.8542553625
 31
0.0
  0
LINE
  5
1D3
330
A
100
AcDbEntity
  8
0
  6
Continuous
 62
     7
100
AcDbLine
 10
10.5026210584
 20
5.1433854502
 30
0.0
 11
10.5026210584
 21
4.8542553625
 31
0.0
  0
LINE
  5
1D4
330
A
100
AcDbEntity
  8
0
  6
Continuous
 62
     7
100
AcDbLine
 10
11.1746210584
 20
5.335255362499999
 30
0.0
 11
11.1746210584
 21
5.3572553625
 31
0.0
  0
LINE
  5
1D5
330
A
100
AcDbEntity
  8
0
  6
Continuous
 62
     7
100
AcDbLine
 10
9.944621058399999
 20
5.335255362499999
 30
0.0
 11
9.944621058399999
 21
5.3572553625
 31
0.0
  0
LINE
  5
1D6
330
A
100
AcDbEntity
  8
0
  6
Continuous
 62
     7
100
AcDbLine
 10
11.0286210584
 20
5.335255362499999
 30
0.0
 11
10.9996210584
 21
5.335255362499999
 31
0.0
  0
LINE
  5
1D7
330
A
100
AcDbEntity
  8
0
  6
Continuous
 62
     7
100
AcDbLine
 10
11.0286210584
 20
5.1742553625
 30
0.0
 11
11.0286210584
 21
5.1712553625
 31
0.0
  0
LINE
  5
1D8
330
A
100
AcDbEntity
  8
0
  6
Continuous
 62
     7
100
AcDbLine
 10
10.1196210584
 20
5.335255362499999
 30
0.0
 11
10.0906210584
 21
5.335255362499999
 31
0.0
  0
LINE
  5
1D9
330
A
100
AcDbEntity
  8
0
  6
Continuous
 62
     7
100
AcDbLine
 10
10.4226210584
 20
5.3572553625
 30
0.0
 11
10.4226210584
 21
5.3552553625
 31
0.0
  0
LINE
  5
1DA
330
A
100
AcDbEntity
  8
0
  6
Continuous
 62
     7
100
AcDbLine
 10
10.45662105839999
 20
5.3552553625
 30
0.0
 11
10.45662105839999
 21
5.3572553625
 31
0.0
  0
LINE
  5
1DB
330
A
100
AcDbEntity
  8
0
  6
Continuous
 62
     7
100
AcDbLine
 10
10.29662105839999
 20
5.3552553625
 30
0.0
 11
10.29662105839999
 21
5.3572553625
 31
0.0
  0
LINE
  5
1DC
330
A
100
AcDbEntity
  8
0
  6
Continuous
 62
     7
100
AcDbLine
 10
10.2626210584
 20
5.3572553625
 30
0.0
 11
10.2626210584
 21
5.3552553625
 31
0.0
  0
LINE
  5
1DD
330
A
100
AcDbEntity
  8
0
  6
Continuous
 62
     7
100
AcDbLine
 10
10.77662105839999
 20
5.3552553625
 30
0.0
 11
10.77662105839999
 21
5.3572553625
 31
0.0
  0
LINE
  5
1DE
330
A
100
AcDbEntity
  8
0
  6
Continuous
 62
     7
100
AcDbLine
 10
10.74262105839999
 20
5.3572553625
 30
0.0
 11
10.74262105839999
 21
5.3552553625
 31
0.0
  0
LINE
  5
1DF
330
A
100
AcDbEntity
  8
0
  6
Continuous
 62
     7
100
AcDbLine
 10
11.1842210584
 20
5.321255362499999
 30
0.0
 11
11.1842210584
 21
5.3572553625
 31
0.0
  0
LINE
  5
1E0
330
A
100
AcDbEntity
  8
0
  6
Continuous
 62
     7
100
AcDbLine
 10
11.19962105839999
 20
5.3572553625
 30
0.0
 11
11.19962105839999
 21
5.321255362499999
 31
0.0
  0
LINE
  5
1E1
330
A
100
AcDbEntity
  8
0
  6
Continuous
 62
     7
100
AcDbLine
 10
9.9350210584
 20
5.3572553625
 30
0.0
 11
9.9350210584
 21
5.321255362499999
 31
0.0
  0
LINE
  5
1E2
330
A
100
AcDbEntity
  8
0
  6
Continuous
 62
     7
100
AcDbLine
 10
9.9196210584
 20
5.321255362499999
 30
0.0
 11
9.9196210584
 21
5.3572553625
 31
0.0
  0
LINE
  5
1E3
330
A
100
AcDbEntity
  8
0
  6
Continuous
 62
     7
100
AcDbLine
 10
10.8566210584
 20
5.3552553625
 30
0.0
 11
10.8566210584
 21
5.3572553625
 31
0.0
  0
LINE
  5
1E4
330
A
100
AcDbEntity
  8
0
  6
Continuous
 62
     7
100
AcDbLine
 10
10.82262105839999
 20
5.3572553625
 30
0.0
 11
10.82262105839999
 21
5.3552553625
 31
0.0
  0
LINE
  5
1E5
330
A
100
AcDbEntity
  8
0
  6
Continuous
 62
     7
100
AcDbLine
 10
10.66262105839999
 20
5.3572553625
 30
0.0
 11
10.66262105839999
 21
5.3552553625
 31
0.0
  0
LINE
  5
1E6
330
A
100
AcDbEntity
  8
0
  6
Continuous
 62
     7
100
AcDbLine
 10
10.69662105839999
 20
5.3552553625
 30
0.0
 11
10.69662105839999
 21
5.3572553625
 31
0.0
  0
LINE
  5
1E7
330
A
100
AcDbEntity
  8
0
  6
Continuous
 62
     7
100
AcDbLine
 10
10.3426210584
 20
5.3572553625
 30
0.0
 11
10.3426210584
 21
5.3552553625
 31
0.0
  0
LINE
  5
1E8
330
A
100
AcDbEntity
  8
0
  6
Continuous
 62
     7
100
AcDbLine
 10
10.37662105839999
 20
5.3552553625
 30
0.0
 11
10.37662105839999
 21
5.3572553625
 31
0.0
  0
LWPOLYLINE
  5
1E9
330
A
100
AcDbEntity
  8
0
  6
Continuous
 62
     7
100
AcDbPolyline
 90
        3
 70
   128
 43
0.0
 10
11.1746210584
 20
5.355164780099999
 10
11.1779116036
 20
5.3545029992
 10
11.1842210584
 20
5.3502288985
  0
LWPOLYLINE
  5
1EE
330
A
100
AcDbEntity
  8
0
  6
Continuous
 62
     7
100
AcDbPolyline
 90
        3
 70
   128
 43
0.0
 10
9.9350210584
 20
5.3502288985
 10
9.9413305133
 20
5.3545029992
 10
9.944621058399999
 20
5.355164780099999
  0
LINE
  5
1F3
330
A
100
AcDbEntity
  8
0
  6
Continuous
 62
     7
100
AcDbLine
 10
10.9416210584
 20
4.7852553625
 30
0.0
 11
10.9416210584
 21
5.140255362499999
 31
0.0
  0
LINE
  5
1F4
330
A
100
AcDbEntity
  8
0
  6
Continuous
 62
     7
100
AcDbLine
 10
10.9776210584
 20
5.140255362499999
 30
0.0
 11
10.9776210584
 21
4.955255362499999
 31
0.0
  0
LINE
  5
1F5
330
A
100
AcDbEntity
  8
0
  6
Continuous
 62
     7
100
AcDbLine
 10
10.9416210584
 20
4.7852553625
 30
0.0
 11
10.96262105839999
 21
4.7852553625
 31
0.0
  0
LINE
  5
1F6
330
A
100
AcDbEntity
  8
0
  6
Continuous
 62
     7
100
AcDbLine
 10
10.2216210584
 20
4.7852553625
 30
0.0
 11
10.25762105839999
 21
4.7852553625
 31
0.0
  0
LINE
  5
1F7
330
A
100
AcDbEntity
  8
0
  6
Continuous
 62
     7
100
AcDbLine
 10
10.2216210584
 20
4.7852553625
 30
0.0
 11
10.2216210584
 21
5.140255362499999
 31
0.0
  0
LINE
  5
1F8
330
A
100
AcDbEntity
  8
0
  6
Continuous
 62
     7
100
AcDbLine
 10
10.25762105839999
 20
5.1392989683
 30
0.0
 11
10.25762105839999
 21
4.7852553625
 31
0.0
  0
LINE
  5
1F9
330
A
100
AcDbEntity
  8
0
  6
Continuous
 62
     7
100
AcDbLine
 10
10.89762105839999
 20
5.140255362499999
 30
0.0
 11
10.89762105839999
 21
4.7852553625
 31
0.0
  0
LINE
  5
1FA
330
A
100
AcDbEntity
  8
0
  6
Continuous
 62
     7
100
AcDbLine
 10
10.8616210584
 20
4.7852553625
 30
0.0
 11
10.8616210584
 21
5.1392989683
 31
0.0
  0
LINE
  5
1FB
330
A
100
AcDbEntity
  8
0
  6
Continuous
 62
     7
100
AcDbLine
 10
10.8616210584
 20
4.7852553625
 30
0.0
 11
10.89762105839999
 21
4.7852553625
 31
0.0
  0
LINE
  5
1FC
330
A
100
AcDbEntity
  8
0
  6
Continuous
 62
     7
100
AcDbLine
 10
10.5416210584
 20
4.7852553625
 30
0.0
 11
10.57762105839999
 21
4.7852553625
 31
0.0
  0
LINE
  5
1FD
330
A
100
AcDbEntity
  8
0
  6
Continuous
 62
     7
100
AcDbLine
 10
10.5416210584
 20
4.7852553625
 30
0.0
 11
10.5416210584
 21
5.1392989683
 31
0.0
  0
LINE
  5
1FE
330
A
100
AcDbEntity
  8
0
  6
Continuous
 62
     7
100
AcDbLine
 10
10.57762105839999
 20
5.1392989683
 30
0.0
 11
10.57762105839999
 21
4.7852553625
 31
0.0
  0
LINE
  5
1FF
330
A
100
AcDbEntity
  8
0
  6
Continuous
 62
     7
100
AcDbLine
 10
10.7816210584
 20
4.7852553625
 30
0.0
 11
10.81762105839999
 21
4.7852553625
 31
0.0
  0
LINE
  5
200
330
A
100
AcDbEntity
  8
0
  6
Continuous
 62
     7
100
AcDbLine
 10
10.7816210584
 20
4.7852553625
 30
0.0
 11
10.7816210584
 21
5.1392989683
 31
0.0
  0
LINE
  5
201
330
A
100
AcDbEntity
  8
0
  6
Continuous
 62
     7
100
AcDbLine
 10
10.81762105839999
 20
5.1392989683
 30
0.0
 11
10.81762105839999
 21
4.7852553625
 31
0.0
  0
LINE
  5
202
330
A
100
AcDbEntity
  8
0
  6
Continuous
 62
     7
100
AcDbLine
 10
10.73762105839999
 20
5.1392989683
 30
0.0
 11
10.73762105839999
 21
4.7852553625
 31
0.0
  0
LINE
  5
203
330
A
100
AcDbEntity
  8
0
  6
Continuous
 62
     7
100
AcDbLine
 10
10.7016210584
 20
4.7852553625
 30
0.0
 11
10.7016210584
 21
5.1392989683
 31
0.0
  0
LINE
  5
204
330
A
100
AcDbEntity
  8
0
  6
Continuous
 62
     7
100
AcDbLine
 10
10.7016210584
 20
4.7852553625
 30
0.0
 11
10.73762105839999
 21
4.7852553625
 31
0.0
  0
LINE
  5
205
330
A
100
AcDbEntity
  8
0
  6
Continuous
 62
     7
100
AcDbLine
 10
10.4616210584
 20
4.7852553625
 30
0.0
 11
10.49762105839999
 21
4.7852553625
 31
0.0
  0
LINE
  5
206
330
A
100
AcDbEntity
  8
0
  6
Continuous
 62
     7
100
AcDbLine
 10
10.4616210584
 20
4.7852553625
 30
0.0
 11
10.4616210584
 21
5.1392989683
 31
0.0
  0
LINE
  5
207
330
A
100
AcDbEntity
  8
0
  6
Continuous
 62
     7
100
AcDbLine
 10
10.49762105839999
 20
5.1392989683
 30
0.0
 11
10.49762105839999
 21
4.7852553625
 31
0.0
  0
LINE
  5
208
330
A
100
AcDbEntity
  8
0
  6
Continuous
 62
     7
100
AcDbLine
 10
10.3816210584
 20
4.7852553625
 30
0.0
 11
10.41762105839999
 21
4.7852553625
 31
0.0
  0
LINE
  5
209
330
A
100
AcDbEntity
  8
0
  6
Continuous
 62
     7
100
AcDbLine
 10
10.41762105839999
 20
5.1392989683
 30
0.0
 11
10.41762105839999
 21
4.7852553625
 31
0.0
  0
LINE
  5
20A
330
A
100
AcDbEntity
  8
0
  6
Continuous
 62
     7
100
AcDbLine
 10
10.3816210584
 20
4.7852553625
 30
0.0
 11
10.3816210584
 21
5.1392989683
 31
0.0
  0
LINE
  5
20B
330
A
100
AcDbEntity
  8
0
  6
Continuous
 62
     7
100
AcDbLine
 10
10.6216210584
 20
4.7852553625
 30
0.0
 11
10.65762105839999
 21
4.7852553625
 31
0.0
  0
LINE
  5
20C
330
A
100
AcDbEntity
  8
0
  6
Continuous
 62
     7
100
AcDbLine
 10
10.6216210584
 20
4.7852553625
 30
0.0
 11
10.6216210584
 21
5.1392989683
 31
0.0
  0
LINE
  5
20D
330
A
100
AcDbEntity
  8
0
  6
Continuous
 62
     7
100
AcDbLine
 10
10.65762105839999
 20
5.1392989683
 30
0.0
 11
10.65762105839999
 21
4.7852553625
 31
0.0
  0
LINE
  5
20E
330
A
100
AcDbEntity
  8
0
  6
Continuous
 62
     7
100
AcDbLine
 10
10.1416210584
 20
4.955255362499999
 30
0.0
 11
10.1416210584
 21
5.140255362499999
 31
0.0
  0
LINE
  5
20F
330
A
100
AcDbEntity
  8
0
  6
Continuous
 62
     7
100
AcDbLine
 10
10.1566210584
 20
4.7852553625
 30
0.0
 11
10.17762105839999
 21
4.7852553625
 31
0.0
  0
LINE
  5
210
330
A
100
AcDbEntity
  8
0
  6
Continuous
 62
     7
100
AcDbLine
 10
10.17762105839999
 20
5.140255362499999
 30
0.0
 11
10.17762105839999
 21
4.7852553625
 31
0.0
  0
LINE
  5
211
330
A
100
AcDbEntity
  8
0
  6
Continuous
 62
     7
100
AcDbLine
 10
10.33762105839999
 20
5.1392989683
 30
0.0
 11
10.33762105839999
 21
4.7852553625
 31
0.0
  0
LINE
  5
212
330
A
100
AcDbEntity
  8
0
  6
Continuous
 62
     7
100
AcDbLine
 10
10.3016210584
 20
4.7852553625
 30
0.0
 11
10.3016210584
 21
5.1392989683
 31
0.0
  0
LINE
  5
213
330
A
100
AcDbEntity
  8
0
  6
Continuous
 62
     7
100
AcDbLine
 10
10.3016210584
 20
4.7852553625
 30
0.0
 11
10.33762105839999
 21
4.7852553625
 31
0.0
  0
LINE
  5
214
330
A
100
AcDbEntity
  8
0
  6
Continuous
 62
     7
100
AcDbLine
 10
11.2150210584
 20
4.6593276754
 30
0.0
 11
11.2150210584
 21
4.9911830496
 31
0.0
  0
LINE
  5
215
330
A
100
AcDbEntity
  8
0
  6
Continuous
 62
     7
100
AcDbLine
 10
9.904221058399999
 20
4.9911830496
 30
0.0
 11
9.904221058399999
 21
4.6593276754
 31
0.0
  0
LINE
  5
216
330
A
100
AcDbEntity
  8
0
  6
Continuous
 62
     7
100
AcDbLine
 10
10.93962105839999
 20
5.3572553625
 30
0.0
 11
10.93962105839999
 21
5.3552553625
 31
0.0
  0
LINE
  5
217
330
A
100
AcDbEntity
  8
0
  6
Continuous
 62
     7
100
AcDbLine
 10
10.89962105839999
 20
5.3572553625
 30
0.0
 11
10.89962105839999
 21
5.3552553625
 31
0.0
  0
LINE
  5
218
330
A
100
AcDbEntity
  8
0
  6
Continuous
 62
     7
100
AcDbLine
 10
9.904221058399999
 20
4.9452553625
 30
0.0
 11
9.895021058399999
 21
4.9452553625
 31
0.0
  0
LINE
  5
219
330
A
100
AcDbEntity
  8
0
  6
Continuous
 62
     7
100
AcDbLine
 10
9.895021058399999
 20
4.7452553625
 30
0.0
 11
9.895021058399999
 21
4.9452553625
 31
0.0
  0
LINE
  5
21A
330
A
100
AcDbEntity
  8
0
  6
Continuous
 62
     7
100
AcDbLine
 10
9.895021058399999
 20
4.7452553625
 30
0.0
 11
9.904221058399999
 21
4.7452553625
 31
0.0
  0
LINE
  5
21B
330
A
100
AcDbEntity
  8
0
  6
Continuous
 62
     7
100
AcDbLine
 10
11.2150210584
 20
4.7452553625
 30
0.0
 11
11.22422105839999
 21
4.7452553625
 31
0.0
  0
LINE
  5
21C
330
A
100
AcDbEntity
  8
0
  6
Continuous
 62
     7
100
AcDbLine
 10
11.22422105839999
 20
4.9452553625
 30
0.0
 11
11.22422105839999
 21
4.7452553625
 31
0.0
  0
LINE
  5
21D
330
A
100
AcDbEntity
  8
0
  6
Continuous
 62
     7
100
AcDbLine
 10
11.2150210584
 20
4.9452553625
 30
0.0
 11
11.22422105839999
 21
4.9452553625
 31
0.0
  0
LINE
  5
21E
330
A
100
AcDbEntity
  8
0
  6
Continuous
 62
     7
100
AcDbLine
 10
10.1796210584
 20
5.3552553625
 30
0.0
 11
10.1796210584
 21
5.3572553625
 31
0.0
  0
LINE
  5
21F
330
A
100
AcDbEntity
  8
0
  6
Continuous
 62
     7
100
AcDbLine
 10
10.21962105839999
 20
5.3572553625
 30
0.0
 11
10.21962105839999
 21
5.3552553625
 31
0.0
  0
LINE
  5
220
330
A
100
AcDbEntity
  8
0
  6
Continuous
 62
     7
100
AcDbLine
 10
11.86562105839999
 20
4.4002553625
 30
0.0
 11
11.86562105839999
 21
4.5382553625
 31
0.0
  0
LINE
  5
221
330
A
100
AcDbEntity
  8
0
  6
Continuous
 62
     7
100
AcDbLine
 10
11.5516210584
 20
4.4002553625
 30
0.0
 11
11.5516210584
 21
4.5382553625
 31
0.0
  0
LINE
  5
222
330
A
100
AcDbEntity
  8
0
  6
Continuous
 62
     7
100
AcDbLine
 10
11.86562105839999
 20
4.4002553625
 30
0.0
 11
11.5516210584
 21
4.4002553625
 31
0.0
  0
LINE
  5
223
330
A
100
AcDbEntity
  8
0
  6
Continuous
 62
     7
100
AcDbLine
 10
11.5516210584
 20
4.5382553625
 30
0.0
 11
11.86562105839999
 21
4.5382553625
 31
0.0
  0
LINE
  5
224
330
A
100
AcDbEntity
  8
0
  6
Continuous
 62
     7
100
AcDbLine
 10
12.6876210584
 20
4.4002553625
 30
0.0
 11
12.6876210584
 21
4.5382553625
 31
0.0
  0
LINE
  5
225
330
A
100
AcDbEntity
  8
0
  6
Continuous
 62
     7
100
AcDbLine
 10
12.6876210584
 20
4.5382553625
 30
0.0
 11
12.37362105839999
 21
4.5382553625
 31
0.0
  0
LINE
  5
226
330
A
100
AcDbEntity
  8
0
  6
Continuous
 62
     7
100
AcDbLine
 10
12.37362105839999
 20
4.4002553625
 30
0.0
 11
12.37362105839999
 21
4.5382553625
 31
0.0
  0
LINE
  5
227
330
A
100
AcDbEntity
  8
0
  6
Continuous
 62
     7
100
AcDbLine
 10
12.37362105839999
 20
4.4002553625
 30
0.0
 11
12.6876210584
 21
4.4002553625
 31
0.0
  0
LINE
  5
228
330
A
100
AcDbEntity
  8
0
  6
Continuous
 62
     7
100
AcDbLine
 10
11.62962105839999
 20
4.555255362499999
 30
0.0
 11
11.5346210584
 21
4.555255362499999
 31
0.0
  0
LINE
  5
229
330
A
100
AcDbEntity
  8
0
  6
Continuous
 62
     7
100
AcDbLine
 10
11.5346210584
 20
4.555255362499999
 30
0.0
 11
11.5346210584
 21
4.3952553625
 31
0.0
  0
LINE
  5
22A
330
A
100
AcDbEntity
  8
0
  6
Continuous
 62
     7
100
AcDbLine
 10
11.5346210584
 20
4.3952553625
 30
0.0
 11
11.9296210584
 21
4.3952553625
 31
0.0
  0
LINE
  5
22B
330
A
100
AcDbEntity
  8
0
  6
Continuous
 62
     7
100
AcDbLine
 10
11.9296210584
 20
4.305255362499999
 30
0.0
 11
11.9296210584
 21
4.3952553625
 31
0.0
  0
LINE
  5
22C
330
A
100
AcDbEntity
  8
0
  6
Continuous
 62
     7
100
AcDbLine
 10
11.4796210584
 20
4.305255362499999
 30
0.0
 11
11.9296210584
 21
4.305255362499999
 31
0.0
  0
LINE
  5
22D
330
A
100
AcDbEntity
  8
0
  6
Continuous
 62
     7
100
AcDbLine
 10
11.4796210584
 20
5.321255362499999
 30
0.0
 11
11.4796210584
 21
4.305255362499999
 31
0.0
  0
LINE
  5
22E
330
A
100
AcDbEntity
  8
0
  6
Continuous
 62
     7
100
AcDbLine
 10
11.4796210584
 20
5.321255362499999
 30
0.0
 11
11.6796210584
 21
5.321255362499999
 31
0.0
  0
LINE
  5
22F
330
A
100
AcDbEntity
  8
0
  6
Continuous
 62
     7
100
AcDbLine
 10
11.6796210584
 20
5.321255362499999
 30
0.0
 11
11.6796210584
 21
5.3552553625
 31
0.0
  0
LINE
  5
230
330
A
100
AcDbEntity
  8
0
  6
Continuous
 62
     7
100
AcDbLine
 10
12.5596210584
 20
5.3552553625
 30
0.0
 11
11.6796210584
 21
5.3552553625
 31
0.0
  0
LINE
  5
231
330
A
100
AcDbEntity
  8
0
  6
Continuous
 62
     7
100
AcDbLine
 10
12.5596210584
 20
5.321255362499999
 30
0.0
 11
12.5596210584
 21
5.3552553625
 31
0.0
  0
LINE
  5
232
330
A
100
AcDbEntity
  8
0
  6
Continuous
 62
     7
100
AcDbLine
 10
12.5596210584
 20
5.321255362499999
 30
0.0
 11
12.7596210584
 21
5.321255362499999
 31
0.0
  0
LINE
  5
233
330
A
100
AcDbEntity
  8
0
  6
Continuous
 62
     7
100
AcDbLine
 10
12.7596210584
 20
4.305255362499999
 30
0.0
 11
12.7596210584
 21
5.321255362499999
 31
0.0
  0
LINE
  5
234
330
A
100
AcDbEntity
  8
0
  6
Continuous
 62
     7
100
AcDbLine
 10
12.30962105839999
 20
4.305255362499999
 30
0.0
 11
12.7596210584
 21
4.305255362499999
 31
0.0
  0
LINE
  5
235
330
A
100
AcDbEntity
  8
0
  6
Continuous
 62
     7
100
AcDbLine
 10
12.30962105839999
 20
4.3952553625
 30
0.0
 11
12.30962105839999
 21
4.305255362499999
 31
0.0
  0
LINE
  5
236
330
A
100
AcDbEntity
  8
0
  6
Continuous
 62
     7
100
AcDbLine
 10
12.30962105839999
 20
4.3952553625
 30
0.0
 11
12.7046210584
 21
4.3952553625
 31
0.0
  0
LINE
  5
237
330
A
100
AcDbEntity
  8
0
  6
Continuous
 62
     7
100
AcDbLine
 10
12.7046210584
 20
4.3952553625
 30
0.0
 11
12.7046210584
 21
4.555255362499999
 31
0.0
  0
LINE
  5
238
330
A
100
AcDbEntity
  8
0
  6
Continuous
 62
     7
100
AcDbLine
 10
12.7046210584
 20
4.555255362499999
 30
0.0
 11
12.6096210584
 21
4.555255362499999
 31
0.0
  0
LINE
  5
239
330
A
100
AcDbEntity
  8
0
  6
Continuous
 62
     7
100
AcDbLine
 10
12.6096210584
 20
4.555255362499999
 30
0.0
 11
12.6096210584
 21
4.7752553625
 31
0.0
  0
LINE
  5
23A
330
A
100
AcDbEntity
  8
0
  6
Continuous
 62
     7
100
AcDbLine
 10
12.6096210584
 20
4.955255362499999
 30
0.0
 11
12.6096210584
 21
4.7752553625
 31
0.0
  0
LINE
  5
23B
330
A
100
AcDbEntity
  8
0
  6
Continuous
 62
     7
100
AcDbLine
 10
12.6096210584
 20
5.175255362499999
 30
0.0
 11
12.6096210584
 21
4.955255362499999
 31
0.0
  0
LINE
  5
23C
330
A
100
AcDbEntity
  8
0
  6
Continuous
 62
     7
100
AcDbLine
 10
11.62962105839999
 20
5.175255362499999
 30
0.0
 11
12.6096210584
 21
5.175255362499999
 31
0.0
  0
LINE
  5
23D
330
A
100
AcDbEntity
  8
0
  6
Continuous
 62
     7
100
AcDbLine
 10
11.62962105839999
 20
4.955255362499999
 30
0.0
 11
11.62962105839999
 21
5.175255362499999
 31
0.0
  0
LINE
  5
23E
330
A
100
AcDbEntity
  8
0
  6
Continuous
 62
     7
100
AcDbLine
 10
11.62962105839999
 20
4.7752553625
 30
0.0
 11
11.62962105839999
 21
4.955255362499999
 31
0.0
  0
LINE
  5
23F
330
A
100
AcDbEntity
  8
0
  6
Continuous
 62
     7
100
AcDbLine
 10
11.62962105839999
 20
4.7752553625
 30
0.0
 11
11.62962105839999
 21
4.555255362499999
 31
0.0
  0
LINE
  5
240
330
A
100
AcDbEntity
  8
0
  6
Continuous
 62
     7
100
AcDbLine
 10
12.58671604809999
 20
4.955255362499999
 30
0.0
 11
12.58671604809999
 21
4.7752553625
 31
0.0
  0
LINE
  5
241
330
A
100
AcDbEntity
  8
0
  6
Continuous
 62
     7
100
AcDbLine
 10
12.6096210584
 20
4.955255362499999
 30
0.0
 11
12.58671604809999
 21
4.955255362499999
 31
0.0
  0
LINE
  5
242
330
A
100
AcDbEntity
  8
0
  6
Continuous
 62
     7
100
AcDbLine
 10
12.6096210584
 20
4.7752553625
 30
0.0
 11
12.58671604809999
 21
4.7752553625
 31
0.0
  0
LINE
  5
243
330
A
100
AcDbEntity
  8
0
  6
Continuous
 62
     7
100
AcDbLine
 10
11.65252606879999
 20
4.7752553625
 30
0.0
 11
11.65252606879999
 21
4.955255362499999
 31
0.0
  0
LINE
  5
244
330
A
100
AcDbEntity
  8
0
  6
Continuous
 62
     7
100
AcDbLine
 10
11.65252606879999
 20
4.7752553625
 30
0.0
 11
11.62962105839999
 21
4.7752553625
 31
0.0
  0
LINE
  5
245
330
A
100
AcDbEntity
  8
0
  6
Continuous
 62
     7
100
AcDbLine
 10
11.65252606879999
 20
4.955255362499999
 30
0.0
 11
11.62962105839999
 21
4.955255362499999
 31
0.0
  0
LINE
  5
246
330
A
100
AcDbEntity
  8
0
  6
Continuous
 62
     7
100
AcDbLine
 10
12.6096210584
 20
5.1712553625
 30
0.0
 11
12.5886210584
 21
5.1712553625
 31
0.0
  0
LINE
  5
247
330
A
100
AcDbEntity
  8
0
  6
Continuous
 62
     7
100
AcDbLine
 10
12.5886210584
 20
5.1712553625
 30
0.0
 11
12.5886210584
 21
4.955255362499999
 31
0.0
  0
LINE
  5
248
330
A
100
AcDbEntity
  8
0
  6
Continuous
 62
     7
100
AcDbLine
 10
11.9296210584
 20
4.3206553625
 30
0.0
 11
12.30962105839999
 21
4.3206553625
 31
0.0
  0
LINE
  5
249
330
A
100
AcDbEntity
  8
0
  6
Continuous
 62
     7
100
AcDbLine
 10
12.30962105839999
 20
4.305255362499999
 30
0.0
 11
11.9296210584
 21
4.305255362499999
 31
0.0
  0
LINE
  5
24A
330
A
100
AcDbEntity
  8
0
  6
Continuous
 62
     7
100
AcDbLine
 10
11.8716210584
 20
4.601255362499999
 30
0.0
 11
11.6506210584
 21
4.601255362499999
 31
0.0
  0
LINE
  5
24B
330
A
100
AcDbEntity
  8
0
  6
Continuous
 62
     7
100
AcDbLine
 10
11.8716210584
 20
4.4692553625
 30
0.0
 11
11.8716210584
 21
4.601255362499999
 31
0.0
  0
LINE
  5
24C
330
A
100
AcDbEntity
  8
0
  6
Continuous
 62
     7
100
AcDbLine
 10
11.9596210584
 20
4.4692553625
 30
0.0
 11
11.8716210584
 21
4.4692553625
 31
0.0
  0
LINE
  5
24D
330
A
100
AcDbEntity
  8
0
  6
Continuous
 62
     7
100
AcDbLine
 10
11.9596210584
 20
4.3792553625
 30
0.0
 11
11.9596210584
 21
4.4692553625
 31
0.0
  0
LINE
  5
24E
330
A
100
AcDbEntity
  8
0
  6
Continuous
 62
     7
100
AcDbLine
 10
12.2796210584
 20
4.3792553625
 30
0.0
 11
11.9596210584
 21
4.3792553625
 31
0.0
  0
LINE
  5
24F
330
A
100
AcDbEntity
  8
0
  6
Continuous
 62
     7
100
AcDbLine
 10
12.2796210584
 20
4.4692553625
 30
0.0
 11
12.2796210584
 21
4.3792553625
 31
0.0
  0
LINE
  5
250
330
A
100
AcDbEntity
  8
0
  6
Continuous
 62
     7
100
AcDbLine
 10
12.3676210584
 20
4.4692553625
 30
0.0
 11
12.2796210584
 21
4.4692553625
 31
0.0
  0
LINE
  5
251
330
A
100
AcDbEntity
  8
0
  6
Continuous
 62
     7
100
AcDbLine
 10
12.3676210584
 20
4.601255362499999
 30
0.0
 11
12.3676210584
 21
4.4692553625
 31
0.0
  0
LINE
  5
252
330
A
100
AcDbEntity
  8
0
  6
Continuous
 62
     7
100
AcDbLine
 10
12.5886210584
 20
4.601255362499999
 30
0.0
 11
12.3676210584
 21
4.601255362499999
 31
0.0
  0
LINE
  5
253
330
A
100
AcDbEntity
  8
0
  6
Continuous
 62
     7
100
AcDbLine
 10
12.30962105839999
 20
4.3252553625
 30
0.0
 11
11.9296210584
 21
4.3252553625
 31
0.0
  0
LINE
  5
254
330
A
100
AcDbEntity
  8
0
  6
Continuous
 62
     7
100
AcDbLine
 10
12.5886210584
 20
4.7752553625
 30
0.0
 11
12.5886210584
 21
4.601255362499999
 31
0.0
  0
LINE
  5
255
330
A
100
AcDbEntity
  8
0
  6
Continuous
 62
     7
100
AcDbLine
 10
11.6506210584
 20
4.601255362499999
 30
0.0
 11
11.6506210584
 21
4.7752553625
 31
0.0
  0
LINE
  5
256
330
A
100
AcDbEntity
  8
0
  6
Continuous
 62
     7
100
AcDbLine
 10
11.6506210584
 20
4.955255362499999
 30
0.0
 11
11.6506210584
 21
5.175255362499999
 31
0.0
  0
LINE
  5
257
330
A
100
AcDbEntity
  8
0
  6
Continuous
 62
     7
100
AcDbLine
 10
11.4996210584
 20
5.335255362499999
 30
0.0
 11
11.6506210584
 21
5.335255362499999
 31
0.0
  0
LINE
  5
258
330
A
100
AcDbEntity
  8
0
  6
Continuous
 62
     7
100
AcDbLine
 10
11.6506210584
 20
5.321255362499999
 30
0.0
 11
11.6506210584
 21
5.335255362499999
 31
0.0
  0
LINE
  5
259
330
A
100
AcDbEntity
  8
0
  6
Continuous
 62
     7
100
AcDbLine
 10
11.4996210584
 20
5.335255362499999
 30
0.0
 11
11.4996210584
 21
5.321255362499999
 31
0.0
  0
LINE
  5
25A
330
A
100
AcDbEntity
  8
0
  6
Continuous
 62
     7
100
AcDbLine
 10
12.5886210584
 20
5.335255362499999
 30
0.0
 11
12.73962105839999
 21
5.335255362499999
 31
0.0
  0
LINE
  5
25B
330
A
100
AcDbEntity
  8
0
  6
Continuous
 62
     7
100
AcDbLine
 10
12.5886210584
 20
5.335255362499999
 30
0.0
 11
12.5886210584
 21
5.321255362499999
 31
0.0
  0
LINE
  5
25C
330
A
100
AcDbEntity
  8
0
  6
Continuous
 62
     7
100
AcDbLine
 10
12.73962105839999
 20
5.321255362499999
 30
0.0
 11
12.73962105839999
 21
5.335255362499999
 31
0.0
  0
LINE
  5
25D
330
A
100
AcDbEntity
  8
0
  6
Continuous
 62
     7
100
AcDbLine
 10
12.5319928252
 20
4.955255362499999
 30
0.0
 11
12.5319928252
 21
4.7752553625
 31
0.0
  0
LINE
  5
25E
330
A
100
AcDbEntity
  8
0
  6
Continuous
 62
     7
100
AcDbLine
 10
12.5319928252
 20
4.7752553625
 30
0.0
 11
12.58671604809999
 21
4.7752553625
 31
0.0
  0
LINE
  5
25F
330
A
100
AcDbEntity
  8
0
  6
Continuous
 62
     7
100
AcDbLine
 10
12.58671604809999
 20
4.955255362499999
 30
0.0
 11
12.5319928252
 21
4.955255362499999
 31
0.0
  0
LINE
  5
260
330
A
100
AcDbEntity
  8
0
  6
Continuous
 62
     7
100
AcDbLine
 10
11.7072492917
 20
4.7752553625
 30
0.0
 11
11.7072492917
 21
4.955255362499999
 31
0.0
  0
LINE
  5
261
330
A
100
AcDbEntity
  8
0
  6
Continuous
 62
     7
100
AcDbLine
 10
11.65252606879999
 20
4.7752553625
 30
0.0
 11
11.7072492917
 21
4.7752553625
 31
0.0
  0
LINE
  5
262
330
A
100
AcDbEntity
  8
0
  6
Continuous
 62
     7
100
AcDbLine
 10
11.7072492917
 20
4.955255362499999
 30
0.0
 11
11.65252606879999
 21
4.955255362499999
 31
0.0
  0
LINE
  5
263
330
A
100
AcDbEntity
  8
0
  6
Continuous
 62
     7
100
AcDbLine
 10
12.5796210584
 20
5.321255362499999
 30
0.0
 11
12.5796210584
 21
5.330255362499999
 31
0.0
  0
LINE
  5
264
330
A
100
AcDbEntity
  8
0
  6
Continuous
 62
     7
100
AcDbLine
 10
12.5796210584
 20
5.1742553625
 30
0.0
 11
12.6096210584
 21
5.1742553625
 31
0.0
  0
LINE
  5
265
330
A
100
AcDbEntity
  8
0
  6
Continuous
 62
     7
100
AcDbLine
 10
12.5796210584
 20
5.140255362499999
 30
0.0
 11
12.5796210584
 21
5.1742553625
 31
0.0
  0
LINE
  5
266
330
A
100
AcDbEntity
  8
0
  6
Continuous
 62
     7
100
AcDbLine
 10
11.7696210584
 20
5.140255362499999
 30
0.0
 11
11.7696210584
 21
5.175255362499999
 31
0.0
  0
LINE
  5
267
330
A
100
AcDbEntity
  8
0
  6
Continuous
 62
     7
100
AcDbLine
 10
11.6596210584
 20
5.330255362499999
 30
0.0
 11
11.6796210584
 21
5.330255362499999
 31
0.0
  0
LINE
  5
268
330
A
100
AcDbEntity
  8
0
  6
Continuous
 62
     7
100
AcDbLine
 10
12.5596210584
 20
5.330255362499999
 30
0.0
 11
12.5796210584
 21
5.330255362499999
 31
0.0
  0
LINE
  5
269
330
A
100
AcDbEntity
  8
0
  6
Continuous
 62
     7
100
AcDbLine
 10
12.4696210584
 20
5.140255362499999
 30
0.0
 11
12.5796210584
 21
5.140255362499999
 31
0.0
  0
LINE
  5
26A
330
A
100
AcDbEntity
  8
0
  6
Continuous
 62
     7
100
AcDbLine
 10
11.6596210584
 20
5.330255362499999
 30
0.0
 11
11.6596210584
 21
5.321255362499999
 31
0.0
  0
LINE
  5
26B
330
A
100
AcDbEntity
  8
0
  6
Continuous
 62
     7
100
AcDbLine
 10
11.6596210584
 20
5.175255362499999
 30
0.0
 11
11.6596210584
 21
5.140255362499999
 31
0.0
  0
LINE
  5
26C
330
A
100
AcDbEntity
  8
0
  6
Continuous
 62
     7
100
AcDbLine
 10
11.6596210584
 20
5.140255362499999
 30
0.0
 11
11.7696210584
 21
5.140255362499999
 31
0.0
  0
LINE
  5
26D
330
A
100
AcDbEntity
  8
0
  6
Continuous
 62
     7
100
AcDbLine
 10
12.4696210584
 20
5.175255362499999
 30
0.0
 11
12.4696210584
 21
5.140255362499999
 31
0.0
  0
LWPOLYLINE
  5
26E
330
A
100
AcDbEntity
  8
0
  6
Continuous
 62
     7
100
AcDbPolyline
 90
        3
 70
   128
 43
0.0
 10
12.7596210584
 20
4.465255362499999
 10
12.80565520679999
 20
4.482974585
 10
12.8147011759
 20
4.488804993199999
  0
LWPOLYLINE
  5
273
330
A
100
AcDbEntity
  8
0
  6
Continuous
 62
     7
100
AcDbPolyline
 90
        3
 70
   128
 43
0.0
 10
12.81200191599999
 20
4.6434454886
 10
12.80565520679999
 20
4.647536139999999
 10
12.7596210584
 20
4.665255362499999
  0
LWPOLYLINE
  5
278
330
A
100
AcDbEntity
  8
0
  6
Continuous
 62
     7
100
AcDbPolyline
 90
        3
 70
   128
 43
0.0
 10
11.4335165957
 20
5.0030199048
 10
11.4335869101
 20
5.002974584899999
 10
11.4796210584
 20
4.9852553625
  0
LINE
  5
27D
330
A
100
AcDbEntity
  8
0
  6
Continuous
 62
     7
100
AcDbLine
 10
11.4796210584
 20
5.1852553625
 30
0.0
 11
11.4364071859
 21
5.168621705699999
 31
0.0
  0
LWPOLYLINE
  5
27E
330
A
100
AcDbEntity
  8
0
  6
Continuous
 62
     7
100
AcDbPolyline
 90
        3
 70
   128
 43
0.0
 10
11.785544993
 20
4.233843318099999
 10
11.801901836
 20
4.2592212142
 10
11.8196210584
 20
4.305255362499999
  0
LWPOLYLINE
  5
283
330
A
100
AcDbEntity
  8
0
  6
Continuous
 62
     7
100
AcDbPolyline
 90
        3
 70
   128
 43
0.0
 10
11.6196210584
 20
4.305255362499999
 10
11.6373402809
 20
4.2592212141
 10
11.6536971238
 20
4.233843318099999
  0
LWPOLYLINE
  5
288
330
A
100
AcDbEntity
  8
0
  6
Continuous
 62
     7
100
AcDbPolyline
 90
        3
 70
   128
 43
0.0
 10
12.7596210584
 20
4.9852553625
 10
12.80565520679999
 20
5.002974584999999
 10
12.80572552119999
 20
5.0030199048
  0
LINE
  5
28D
330
A
100
AcDbEntity
  8
0
  6
Continuous
 62
     7
100
AcDbLine
 10
12.802834931
 20
5.168621705699999
 30
0.0
 11
12.7596210584
 21
5.1852553625
 31
0.0
  0
LWPOLYLINE
  5
28E
330
A
100
AcDbEntity
  8
0
  6
Continuous
 62
     7
100
AcDbPolyline
 90
        3
 70
   128
 43
0.0
 10
11.424540941
 20
4.488804993199999
 10
11.4335869101
 20
4.482974585
 10
11.4796210584
 20
4.465255362499999
  0
LWPOLYLINE
  5
293
330
A
100
AcDbEntity
  8
0
  6
Continuous
 62
     7
100
AcDbPolyline
 90
        3
 70
   128
 43
0.0
 10
11.4796210584
 20
4.665255362499999
 10
11.4335869101
 20
4.647536139999999
 10
11.42724020089999
 20
4.6434454886
  0
LWPOLYLINE
  5
298
330
A
100
AcDbEntity
  8
0
  6
Continuous
 62
     7
100
AcDbPolyline
 90
        3
 70
   128
 43
0.0
 10
12.58554499299999
 20
4.233843318099999
 10
12.601901836
 20
4.2592212141
 10
12.6196210584
 20
4.305255362499999
  0
LWPOLYLINE
  5
29D
330
A
100
AcDbEntity
  8
0
  6
Continuous
 62
     7
100
AcDbPolyline
 90
        3
 70
   128
 43
0.0
 10
12.4196210584
 20
4.305255362499999
 10
12.4373402809
 20
4.2592212142
 10
12.4536971238
 20
4.233843318099999
  0
LINE
  5
2A2
330
A
100
AcDbEntity
  8
0
  6
Continuous
 62
     7
100
AcDbLine
 10
12.0396210584
 20
5.3552553625
 30
0.0
 11
12.0396210584
 21
5.3572553625
 31
0.0
  0
LINE
  5
2A3
330
A
100
AcDbEntity
  8
0
  6
Continuous
 62
     7
100
AcDbLine
 10
12.1996210584
 20
5.3552553625
 30
0.0
 11
12.1996210584
 21
5.3572553625
 31
0.0
  0
LINE
  5
2A4
330
A
100
AcDbEntity
  8
0
  6
Continuous
 62
     7
100
AcDbLine
 10
11.7072492917
 20
4.7752553625
 30
0.0
 11
11.71571048909999
 21
4.7752553625
 31
0.0
  0
LINE
  5
2A5
330
A
100
AcDbEntity
  8
0
  6
Continuous
 62
     7
100
AcDbLine
 10
11.71571048909999
 20
4.955255362499999
 30
0.0
 11
11.7072492917
 21
4.955255362499999
 31
0.0
  0
LINE
  5
2A6
330
A
100
AcDbEntity
  8
0
  6
Continuous
 62
     7
100
AcDbLine
 10
12.5319928252
 20
4.7752553625
 30
0.0
 11
12.5235316278
 21
4.7752553625
 31
0.0
  0
LINE
  5
2A7
330
A
100
AcDbEntity
  8
0
  6
Continuous
 62
     7
100
AcDbLine
 10
12.5319928252
 20
4.955255362499999
 30
0.0
 11
12.5235316278
 21
4.955255362499999
 31
0.0
  0
LINE
  5
2A8
330
A
100
AcDbEntity
  8
0
  6
Continuous
 62
     7
100
AcDbLine
 10
11.6206210584
 20
5.335255362499999
 30
0.0
 11
11.6206210584
 21
5.3572553625
 31
0.0
  0
LINE
  5
2A9
330
A
100
AcDbEntity
  8
0
  6
Continuous
 62
     7
100
AcDbLine
 10
11.5906210584
 20
5.335255362499999
 30
0.0
 11
11.5906210584
 21
5.3572553625
 31
0.0
  0
LINE
  5
2AA
330
A
100
AcDbEntity
  8
0
  6
Continuous
 62
     7
100
AcDbLine
 10
12.6486210584
 20
5.335255362499999
 30
0.0
 11
12.6486210584
 21
5.3572553625
 31
0.0
  0
LINE
  5
2AB
330
A
100
AcDbEntity
  8
0
  6
Continuous
 62
     7
100
AcDbLine
 10
12.6186210584
 20
5.335255362499999
 30
0.0
 11
12.6186210584
 21
5.3572553625
 31
0.0
  0
LINE
  5
2AC
330
A
100
AcDbEntity
  8
0
  6
Continuous
 62
     7
100
AcDbLine
 10
12.0966210584
 20
5.1433854502
 30
0.0
 11
12.0966210584
 21
5.175255362499999
 31
0.0
  0
LINE
  5
2AD
330
A
100
AcDbEntity
  8
0
  6
Continuous
 62
     7
100
AcDbLine
 10
12.0966210584
 20
5.1433854502
 30
0.0
 11
12.0626210584
 21
5.1433854502
 31
0.0
  0
LINE
  5
2AE
330
A
100
AcDbEntity
  8
0
  6
Continuous
 62
     7
100
AcDbLine
 10
12.0626210584
 20
5.175255362499999
 30
0.0
 11
12.0626210584
 21
5.1433854502
 31
0.0
  0
LINE
  5
2AF
330
A
100
AcDbEntity
  8
0
  6
Continuous
 62
     7
100
AcDbLine
 10
12.1426210584
 20
5.1433854502
 30
0.0
 11
12.1426210584
 21
5.175255362499999
 31
0.0
  0
LINE
  5
2B0
330
A
100
AcDbEntity
  8
0
  6
Continuous
 62
     7
100
AcDbLine
 10
12.1766210584
 20
5.1433854502
 30
0.0
 11
12.1766210584
 21
5.175255362499999
 31
0.0
  0
LINE
  5
2B1
330
A
100
AcDbEntity
  8
0
  6
Continuous
 62
     7
100
AcDbLine
 10
12.1426210584
 20
5.1433854502
 30
0.0
 11
12.1766210584
 21
5.1433854502
 31
0.0
  0
LINE
  5
2B2
330
A
100
AcDbEntity
  8
0
  6
Continuous
 62
     7
100
AcDbLine
 10
12.3026210584
 20
5.1433854502
 30
0.0
 11
12.3366210584
 21
5.1433854502
 31
0.0
  0
LINE
  5
2B3
330
A
100
AcDbEntity
  8
0
  6
Continuous
 62
     7
100
AcDbLine
 10
12.3366210584
 20
5.1433854502
 30
0.0
 11
12.3366210584
 21
5.175255362499999
 31
0.0
  0
LINE
  5
2B4
330
A
100
AcDbEntity
  8
0
  6
Continuous
 62
     7
100
AcDbLine
 10
12.3026210584
 20
5.1433854502
 30
0.0
 11
12.3026210584
 21
5.175255362499999
 31
0.0
  0
LINE
  5
2B5
330
A
100
AcDbEntity
  8
0
  6
Continuous
 62
     7
100
AcDbLine
 10
11.8226210584
 20
5.1433854502
 30
0.0
 11
11.8566210584
 21
5.1433854502
 31
0.0
  0
LINE
  5
2B6
330
A
100
AcDbEntity
  8
0
  6
Continuous
 62
     7
100
AcDbLine
 10
11.8226210584
 20
5.1433854502
 30
0.0
 11
11.8226210584
 21
5.175255362499999
 31
0.0
  0
LINE
  5
2B7
330
A
100
AcDbEntity
  8
0
  6
Continuous
 62
     7
100
AcDbLine
 10
11.8566210584
 20
5.1433854502
 30
0.0
 11
11.8566210584
 21
5.175255362499999
 31
0.0
  0
LINE
  5
2B8
330
A
100
AcDbEntity
  8
0
  6
Continuous
 62
     7
100
AcDbLine
 10
11.9366210584
 20
5.1433854502
 30
0.0
 11
11.9366210584
 21
5.175255362499999
 31
0.0
  0
LINE
  5
2B9
330
A
100
AcDbEntity
  8
0
  6
Continuous
 62
     7
100
AcDbLine
 10
11.9366210584
 20
5.1433854502
 30
0.0
 11
11.9026210584
 21
5.1433854502
 31
0.0
  0
LINE
  5
2BA
330
A
100
AcDbEntity
  8
0
  6
Continuous
 62
     7
100
AcDbLine
 10
11.9026210584
 20
5.175255362499999
 30
0.0
 11
11.9026210584
 21
5.1433854502
 31
0.0
  0
LINE
  5
2BB
330
A
100
AcDbEntity
  8
0
  6
Continuous
 62
     7
100
AcDbLine
 10
12.4166210584
 20
5.1433854502
 30
0.0
 11
12.4166210584
 21
5.175255362499999
 31
0.0
  0
LINE
  5
2BC
330
A
100
AcDbEntity
  8
0
  6
Continuous
 62
     7
100
AcDbLine
 10
12.4166210584
 20
5.1433854502
 30
0.0
 11
12.3826210584
 21
5.1433854502
 31
0.0
  0
LINE
  5
2BD
330
A
100
AcDbEntity
  8
0
  6
Continuous
 62
     7
100
AcDbLine
 10
12.3826210584
 20
5.175255362499999
 30
0.0
 11
12.3826210584
 21
5.1433854502
 31
0.0
  0
LINE
  5
2BE
330
A
100
AcDbEntity
  8
0
  6
Continuous
 62
     7
100
AcDbLine
 10
12.2566210584
 20
5.1433854502
 30
0.0
 11
12.2566210584
 21
5.175255362499999
 31
0.0
  0
LINE
  5
2BF
330
A
100
AcDbEntity
  8
0
  6
Continuous
 62
     7
100
AcDbLine
 10
12.2566210584
 20
5.1433854502
 30
0.0
 11
12.2226210584
 21
5.1433854502
 31
0.0
  0
LINE
  5
2C0
330
A
100
AcDbEntity
  8
0
  6
Continuous
 62
     7
100
AcDbLine
 10
12.2226210584
 20
5.175255362499999
 30
0.0
 11
12.2226210584
 21
5.1433854502
 31
0.0
  0
LINE
  5
2C1
330
A
100
AcDbEntity
  8
0
  6
Continuous
 62
     7
100
AcDbLine
 10
11.9826210584
 20
5.1433854502
 30
0.0
 11
12.0166210584
 21
5.1433854502
 31
0.0
  0
LINE
  5
2C2
330
A
100
AcDbEntity
  8
0
  6
Continuous
 62
     7
100
AcDbLine
 10
12.0166210584
 20
5.1433854502
 30
0.0
 11
12.0166210584
 21
5.175255362499999
 31
0.0
  0
LINE
  5
2C3
330
A
100
AcDbEntity
  8
0
  6
Continuous
 62
     7
100
AcDbLine
 10
11.9826210584
 20
5.1433854502
 30
0.0
 11
11.9826210584
 21
5.175255362499999
 31
0.0
  0
LINE
  5
2C4
330
A
100
AcDbEntity
  8
0
  6
Continuous
 62
     7
100
AcDbLine
 10
12.5886210584
 20
5.3572553625
 30
0.0
 11
12.5886210584
 21
5.335255362499999
 31
0.0
  0
LINE
  5
2C5
330
A
100
AcDbEntity
  8
0
  6
Continuous
 62
     7
100
AcDbLine
 10
11.6506210584
 20
5.335255362499999
 30
0.0
 11
11.6506210584
 21
5.3572553625
 31
0.0
  0
LINE
  5
2C6
330
A
100
AcDbEntity
  8
0
  6
Continuous
 62
     7
100
AcDbLine
 10
12.3776210584
 20
5.140255362499999
 30
0.0
 11
12.3416210584
 21
5.140255362499999
 31
0.0
  0
LINE
  5
2C7
330
A
100
AcDbEntity
  8
0
  6
Continuous
 62
     7
100
AcDbLine
 10
11.9776210584
 20
5.140255362499999
 30
0.0
 11
11.9416210584
 21
5.140255362499999
 31
0.0
  0
LINE
  5
2C8
330
A
100
AcDbEntity
  8
0
  6
Continuous
 62
     7
100
AcDbLine
 10
12.2176210584
 20
5.140255362499999
 30
0.0
 11
12.1816210584
 21
5.140255362499999
 31
0.0
  0
LINE
  5
2C9
330
A
100
AcDbEntity
  8
0
  6
Continuous
 62
     7
100
AcDbLine
 10
12.4216210584
 20
5.140255362499999
 30
0.0
 11
12.4696210584
 21
5.140255362499999
 31
0.0
  0
LINE
  5
2CA
330
A
100
AcDbEntity
  8
0
  6
Continuous
 62
     7
100
AcDbLine
 10
11.8976210584
 20
5.140255362499999
 30
0.0
 11
11.8616210584
 21
5.140255362499999
 31
0.0
  0
LINE
  5
2CB
330
A
100
AcDbEntity
  8
0
  6
Continuous
 62
     7
100
AcDbLine
 10
12.0576210584
 20
5.140255362499999
 30
0.0
 11
12.0216210584
 21
5.140255362499999
 31
0.0
  0
LINE
  5
2CC
330
A
100
AcDbEntity
  8
0
  6
Continuous
 62
     7
100
AcDbLine
 10
12.2976210584
 20
5.140255362499999
 30
0.0
 11
12.2616210584
 21
5.140255362499999
 31
0.0
  0
LINE
  5
2CD
330
A
100
AcDbEntity
  8
0
  6
Continuous
 62
     7
100
AcDbLine
 10
12.1376210584
 20
5.140255362499999
 30
0.0
 11
12.1016210584
 21
5.140255362499999
 31
0.0
  0
LINE
  5
2CE
330
A
100
AcDbEntity
  8
0
  6
Continuous
 62
     7
100
AcDbLine
 10
11.7696210584
 20
5.140255362499999
 30
0.0
 11
11.8176210584
 21
5.140255362499999
 31
0.0
  0
LINE
  5
2CF
330
A
100
AcDbEntity
  8
0
  6
Continuous
 62
     7
100
AcDbLine
 10
12.3026210584
 20
4.8542553625
 30
0.0
 11
12.3366210584
 21
4.8542553625
 31
0.0
  0
LINE
  5
2D0
330
A
100
AcDbEntity
  8
0
  6
Continuous
 62
     7
100
AcDbLine
 10
12.3366210584
 20
4.8542553625
 30
0.0
 11
12.3366210584
 21
5.1433854502
 31
0.0
  0
LINE
  5
2D1
330
A
100
AcDbEntity
  8
0
  6
Continuous
 62
     7
100
AcDbLine
 10
12.3026210584
 20
4.8542553625
 30
0.0
 11
12.3026210584
 21
5.1433854502
 31
0.0
  0
LINE
  5
2D2
330
A
100
AcDbEntity
  8
0
  6
Continuous
 62
     7
100
AcDbLine
 10
12.1426210584
 20
4.8542553625
 30
0.0
 11
12.1766210584
 21
4.8542553625
 31
0.0
  0
LINE
  5
2D3
330
A
100
AcDbEntity
  8
0
  6
Continuous
 62
     7
100
AcDbLine
 10
12.1766210584
 20
4.8542553625
 30
0.0
 11
12.1766210584
 21
5.1433854502
 31
0.0
  0
LINE
  5
2D4
330
A
100
AcDbEntity
  8
0
  6
Continuous
 62
     7
100
AcDbLine
 10
12.1426210584
 20
4.8542553625
 30
0.0
 11
12.1426210584
 21
5.1433854502
 31
0.0
  0
LINE
  5
2D5
330
A
100
AcDbEntity
  8
0
  6
Continuous
 62
     7
100
AcDbLine
 10
11.9826210584
 20
4.8542553625
 30
0.0
 11
12.0166210584
 21
4.8542553625
 31
0.0
  0
LINE
  5
2D6
330
A
100
AcDbEntity
  8
0
  6
Continuous
 62
     7
100
AcDbLine
 10
12.0166210584
 20
4.8542553625
 30
0.0
 11
12.0166210584
 21
5.1433854502
 31
0.0
  0
LINE
  5
2D7
330
A
100
AcDbEntity
  8
0
  6
Continuous
 62
     7
100
AcDbLine
 10
11.9826210584
 20
4.8542553625
 30
0.0
 11
11.9826210584
 21
5.1433854502
 31
0.0
  0
LINE
  5
2D8
330
A
100
AcDbEntity
  8
0
  6
Continuous
 62
     7
100
AcDbLine
 10
11.8226210584
 20
4.8542553625
 30
0.0
 11
11.8566210584
 21
4.8542553625
 31
0.0
  0
LINE
  5
2D9
330
A
100
AcDbEntity
  8
0
  6
Continuous
 62
     7
100
AcDbLine
 10
11.8226210584
 20
4.8542553625
 30
0.0
 11
11.8226210584
 21
5.1433854502
 31
0.0
  0
LINE
  5
2DA
330
A
100
AcDbEntity
  8
0
  6
Continuous
 62
     7
100
AcDbLine
 10
11.8566210584
 20
4.8542553625
 30
0.0
 11
11.8566210584
 21
5.1433854502
 31
0.0
  0
LINE
  5
2DB
330
A
100
AcDbEntity
  8
0
  6
Continuous
 62
     7
100
AcDbLine
 10
12.0966210584
 20
4.8542553625
 30
0.0
 11
12.0626210584
 21
4.8542553625
 31
0.0
  0
LINE
  5
2DC
330
A
100
AcDbEntity
  8
0
  6
Continuous
 62
     7
100
AcDbLine
 10
12.0966210584
 20
5.1433854502
 30
0.0
 11
12.0966210584
 21
4.8542553625
 31
0.0
  0
LINE
  5
2DD
330
A
100
AcDbEntity
  8
0
  6
Continuous
 62
     7
100
AcDbLine
 10
12.0626210584
 20
5.1433854502
 30
0.0
 11
12.0626210584
 21
4.8542553625
 31
0.0
  0
LINE
  5
2DE
330
A
100
AcDbEntity
  8
0
  6
Continuous
 62
     7
100
AcDbLine
 10
11.9366210584
 20
4.8542553625
 30
0.0
 11
11.9026210584
 21
4.8542553625
 31
0.0
  0
LINE
  5
2DF
330
A
100
AcDbEntity
  8
0
  6
Continuous
 62
     7
100
AcDbLine
 10
11.9366210584
 20
5.1433854502
 30
0.0
 11
11.9366210584
 21
4.8542553625
 31
0.0
  0
LINE
  5
2E0
330
A
100
AcDbEntity
  8
0
  6
Continuous
 62
     7
100
AcDbLine
 10
11.9026210584
 20
5.1433854502
 30
0.0
 11
11.9026210584
 21
4.8542553625
 31
0.0
  0
LINE
  5
2E1
330
A
100
AcDbEntity
  8
0
  6
Continuous
 62
     7
100
AcDbLine
 10
12.4166210584
 20
4.8542553625
 30
0.0
 11
12.3826210584
 21
4.8542553625
 31
0.0
  0
LINE
  5
2E2
330
A
100
AcDbEntity
  8
0
  6
Continuous
 62
     7
100
AcDbLine
 10
12.4166210584
 20
5.1433854502
 30
0.0
 11
12.4166210584
 21
4.8542553625
 31
0.0
  0
LINE
  5
2E3
330
A
100
AcDbEntity
  8
0
  6
Continuous
 62
     7
100
AcDbLine
 10
12.3826210584
 20
5.1433854502
 30
0.0
 11
12.3826210584
 21
4.8542553625
 31
0.0
  0
LINE
  5
2E4
330
A
100
AcDbEntity
  8
0
  6
Continuous
 62
     7
100
AcDbLine
 10
12.2566210584
 20
4.8542553625
 30
0.0
 11
12.2226210584
 21
4.8542553625
 31
0.0
  0
LINE
  5
2E5
330
A
100
AcDbEntity
  8
0
  6
Continuous
 62
     7
100
AcDbLine
 10
12.2566210584
 20
5.1433854502
 30
0.0
 11
12.2566210584
 21
4.8542553625
 31
0.0
  0
LINE
  5
2E6
330
A
100
AcDbEntity
  8
0
  6
Continuous
 62
     7
100
AcDbLine
 10
12.2226210584
 20
5.1433854502
 30
0.0
 11
12.2226210584
 21
4.8542553625
 31
0.0
  0
LINE
  5
2E7
330
A
100
AcDbEntity
  8
0
  6
Continuous
 62
     7
100
AcDbLine
 10
12.7346210584
 20
5.335255362499999
 30
0.0
 11
12.7346210584
 21
5.3572553625
 31
0.0
  0
LINE
  5
2E8
330
A
100
AcDbEntity
  8
0
  6
Continuous
 62
     7
100
AcDbLine
 10
11.50462105839999
 20
5.335255362499999
 30
0.0
 11
11.50462105839999
 21
5.3572553625
 31
0.0
  0
LINE
  5
2E9
330
A
100
AcDbEntity
  8
0
  6
Continuous
 62
     7
100
AcDbLine
 10
12.5886210584
 20
5.335255362499999
 30
0.0
 11
12.5596210584
 21
5.335255362499999
 31
0.0
  0
LINE
  5
2EA
330
A
100
AcDbEntity
  8
0
  6
Continuous
 62
     7
100
AcDbLine
 10
12.5886210584
 20
5.1742553625
 30
0.0
 11
12.5886210584
 21
5.1712553625
 31
0.0
  0
LINE
  5
2EB
330
A
100
AcDbEntity
  8
0
  6
Continuous
 62
     7
100
AcDbLine
 10
11.6796210584
 20
5.335255362499999
 30
0.0
 11
11.6506210584
 21
5.335255362499999
 31
0.0
  0
LINE
  5
2EC
330
A
100
AcDbEntity
  8
0
  6
Continuous
 62
     7
100
AcDbLine
 10
12.3366210584
 20
5.3552553625
 30
0.0
 11
12.3366210584
 21
5.3572553625
 31
0.0
  0
LINE
  5
2ED
330
A
100
AcDbEntity
  8
0
  6
Continuous
 62
     7
100
AcDbLine
 10
12.3026210584
 20
5.3572553625
 30
0.0
 11
12.3026210584
 21
5.3552553625
 31
0.0
  0
LINE
  5
2EE
330
A
100
AcDbEntity
  8
0
  6
Continuous
 62
     7
100
AcDbLine
 10
11.9826210584
 20
5.3572553625
 30
0.0
 11
11.9826210584
 21
5.3552553625
 31
0.0
  0
LINE
  5
2EF
330
A
100
AcDbEntity
  8
0
  6
Continuous
 62
     7
100
AcDbLine
 10
12.0166210584
 20
5.3552553625
 30
0.0
 11
12.0166210584
 21
5.3572553625
 31
0.0
  0
LINE
  5
2F0
330
A
100
AcDbEntity
  8
0
  6
Continuous
 62
     7
100
AcDbLine
 10
11.8566210584
 20
5.3552553625
 30
0.0
 11
11.8566210584
 21
5.3572553625
 31
0.0
  0
LINE
  5
2F1
330
A
100
AcDbEntity
  8
0
  6
Continuous
 62
     7
100
AcDbLine
 10
11.8226210584
 20
5.3572553625
 30
0.0
 11
11.8226210584
 21
5.3552553625
 31
0.0
  0
LINE
  5
2F2
330
A
100
AcDbEntity
  8
0
  6
Continuous
 62
     7
100
AcDbLine
 10
12.7442210584
 20
5.321255362499999
 30
0.0
 11
12.7442210584
 21
5.3572553625
 31
0.0
  0
LINE
  5
2F3
330
A
100
AcDbEntity
  8
0
  6
Continuous
 62
     7
100
AcDbLine
 10
12.7596210584
 20
5.3572553625
 30
0.0
 11
12.7596210584
 21
5.321255362499999
 31
0.0
  0
LINE
  5
2F4
330
A
100
AcDbEntity
  8
0
  6
Continuous
 62
     7
100
AcDbLine
 10
11.4950210584
 20
5.3572553625
 30
0.0
 11
11.4950210584
 21
5.321255362499999
 31
0.0
  0
LINE
  5
2F5
330
A
100
AcDbEntity
  8
0
  6
Continuous
 62
     7
100
AcDbLine
 10
11.4796210584
 20
5.321255362499999
 30
0.0
 11
11.4796210584
 21
5.3572553625
 31
0.0
  0
LINE
  5
2F6
330
A
100
AcDbEntity
  8
0
  6
Continuous
 62
     7
100
AcDbLine
 10
12.4166210584
 20
5.3552553625
 30
0.0
 11
12.4166210584
 21
5.3572553625
 31
0.0
  0
LINE
  5
2F7
330
A
100
AcDbEntity
  8
0
  6
Continuous
 62
     7
100
AcDbLine
 10
12.3826210584
 20
5.3572553625
 30
0.0
 11
12.3826210584
 21
5.3552553625
 31
0.0
  0
LINE
  5
2F8
330
A
100
AcDbEntity
  8
0
  6
Continuous
 62
     7
100
AcDbLine
 10
11.9026210584
 20
5.3572553625
 30
0.0
 11
11.9026210584
 21
5.3552553625
 31
0.0
  0
LINE
  5
2F9
330
A
100
AcDbEntity
  8
0
  6
Continuous
 62
     7
100
AcDbLine
 10
11.9366210584
 20
5.3552553625
 30
0.0
 11
11.9366210584
 21
5.3572553625
 31
0.0
  0
LINE
  5
2FA
330
A
100
AcDbEntity
  8
0
  6
Continuous
 62
     7
100
AcDbLine
 10
12.2226210584
 20
5.3572553625
 30
0.0
 11
12.2226210584
 21
5.3552553625
 31
0.0
  0
LINE
  5
2FB
330
A
100
AcDbEntity
  8
0
  6
Continuous
 62
     7
100
AcDbLine
 10
12.2566210584
 20
5.3552553625
 30
0.0
 11
12.2566210584
 21
5.3572553625
 31
0.0
  0
LWPOLYLINE
  5
2FC
330
A
100
AcDbEntity
  8
0
  6
Continuous
 62
     7
100
AcDbPolyline
 90
        3
 70
   128
 43
0.0
 10
12.7346210584
 20
5.355164780099999
 10
12.7379116036
 20
5.3545029992
 10
12.7442210584
 20
5.3502288985
  0
LWPOLYLINE
  5
301
330
A
100
AcDbEntity
  8
0
  6
Continuous
 62
     7
100
AcDbPolyline
 90
        3
 70
   128
 43
0.0
 10
11.4950210584
 20
5.3502288985
 10
11.50133051329999
 20
5.3545029992
 10
11.50462105839999
 20
5.355164780099999
  0
LINE
  5
306
330
A
100
AcDbEntity
  8
0
  6
Continuous
 62
     7
100
AcDbLine
 10
12.0216210584
 20
4.7852553625
 30
0.0
 11
12.0576210584
 21
4.7852553625
 31
0.0
  0
LINE
  5
307
330
A
100
AcDbEntity
  8
0
  6
Continuous
 62
     7
100
AcDbLine
 10
12.0216210584
 20
4.7852553625
 30
0.0
 11
12.0216210584
 21
5.1392989683
 31
0.0
  0
LINE
  5
308
330
A
100
AcDbEntity
  8
0
  6
Continuous
 62
     7
100
AcDbLine
 10
12.0576210584
 20
5.1392989683
 30
0.0
 11
12.0576210584
 21
4.7852553625
 31
0.0
  0
LINE
  5
309
330
A
100
AcDbEntity
  8
0
  6
Continuous
 62
     7
100
AcDbLine
 10
12.1016210584
 20
4.7852553625
 30
0.0
 11
12.1376210584
 21
4.7852553625
 31
0.0
  0
LINE
  5
30A
330
A
100
AcDbEntity
  8
0
  6
Continuous
 62
     7
100
AcDbLine
 10
12.1016210584
 20
4.7852553625
 30
0.0
 11
12.1016210584
 21
5.1392989683
 31
0.0
  0
LINE
  5
30B
330
A
100
AcDbEntity
  8
0
  6
Continuous
 62
     7
100
AcDbLine
 10
12.1376210584
 20
5.1392989683
 30
0.0
 11
12.1376210584
 21
4.7852553625
 31
0.0
  0
LINE
  5
30C
330
A
100
AcDbEntity
  8
0
  6
Continuous
 62
     7
100
AcDbLine
 10
12.1816210584
 20
4.7852553625
 30
0.0
 11
12.2176210584
 21
4.7852553625
 31
0.0
  0
LINE
  5
30D
330
A
100
AcDbEntity
  8
0
  6
Continuous
 62
     7
100
AcDbLine
 10
12.1816210584
 20
4.7852553625
 30
0.0
 11
12.1816210584
 21
5.1392989683
 31
0.0
  0
LINE
  5
30E
330
A
100
AcDbEntity
  8
0
  6
Continuous
 62
     7
100
AcDbLine
 10
12.2176210584
 20
5.1392989683
 30
0.0
 11
12.2176210584
 21
4.7852553625
 31
0.0
  0
LINE
  5
30F
330
A
100
AcDbEntity
  8
0
  6
Continuous
 62
     7
100
AcDbLine
 10
12.2976210584
 20
5.1392989683
 30
0.0
 11
12.2976210584
 21
4.7852553625
 31
0.0
  0
LINE
  5
310
330
A
100
AcDbEntity
  8
0
  6
Continuous
 62
     7
100
AcDbLine
 10
12.2616210584
 20
4.7852553625
 30
0.0
 11
12.2616210584
 21
5.1392989683
 31
0.0
  0
LINE
  5
311
330
A
100
AcDbEntity
  8
0
  6
Continuous
 62
     7
100
AcDbLine
 10
12.2616210584
 20
4.7852553625
 30
0.0
 11
12.2976210584
 21
4.7852553625
 31
0.0
  0
LINE
  5
312
330
A
100
AcDbEntity
  8
0
  6
Continuous
 62
     7
100
AcDbLine
 10
11.7016210584
 20
4.955255362499999
 30
0.0
 11
11.7016210584
 21
5.140255362499999
 31
0.0
  0
LINE
  5
313
330
A
100
AcDbEntity
  8
0
  6
Continuous
 62
     7
100
AcDbLine
 10
11.7166210584
 20
4.7852553625
 30
0.0
 11
11.7376210584
 21
4.7852553625
 31
0.0
  0
LINE
  5
314
330
A
100
AcDbEntity
  8
0
  6
Continuous
 62
     7
100
AcDbLine
 10
11.7376210584
 20
5.140255362499999
 30
0.0
 11
11.7376210584
 21
4.7852553625
 31
0.0
  0
LINE
  5
315
330
A
100
AcDbEntity
  8
0
  6
Continuous
 62
     7
100
AcDbLine
 10
12.3416210584
 20
4.7852553625
 30
0.0
 11
12.3776210584
 21
4.7852553625
 31
0.0
  0
LINE
  5
316
330
A
100
AcDbEntity
  8
0
  6
Continuous
 62
     7
100
AcDbLine
 10
12.3416210584
 20
4.7852553625
 30
0.0
 11
12.3416210584
 21
5.1392989683
 31
0.0
  0
LINE
  5
317
330
A
100
AcDbEntity
  8
0
  6
Continuous
 62
     7
100
AcDbLine
 10
12.3776210584
 20
5.1392989683
 30
0.0
 11
12.3776210584
 21
4.7852553625
 31
0.0
  0
LINE
  5
318
330
A
100
AcDbEntity
  8
0
  6
Continuous
 62
     7
100
AcDbLine
 10
11.9416210584
 20
4.7852553625
 30
0.0
 11
11.9776210584
 21
4.7852553625
 31
0.0
  0
LINE
  5
319
330
A
100
AcDbEntity
  8
0
  6
Continuous
 62
     7
100
AcDbLine
 10
11.9776210584
 20
5.1392989683
 30
0.0
 11
11.9776210584
 21
4.7852553625
 31
0.0
  0
LINE
  5
31A
330
A
100
AcDbEntity
  8
0
  6
Continuous
 62
     7
100
AcDbLine
 10
11.9416210584
 20
4.7852553625
 30
0.0
 11
11.9416210584
 21
5.1392989683
 31
0.0
  0
LINE
  5
31B
330
A
100
AcDbEntity
  8
0
  6
Continuous
 62
     7
100
AcDbLine
 10
11.8976210584
 20
5.1392989683
 30
0.0
 11
11.8976210584
 21
4.7852553625
 31
0.0
  0
LINE
  5
31C
330
A
100
AcDbEntity
  8
0
  6
Continuous
 62
     7
100
AcDbLine
 10
11.8616210584
 20
4.7852553625
 30
0.0
 11
11.8616210584
 21
5.1392989683
 31
0.0
  0
LINE
  5
31D
330
A
100
AcDbEntity
  8
0
  6
Continuous
 62
     7
100
AcDbLine
 10
11.8616210584
 20
4.7852553625
 30
0.0
 11
11.8976210584
 21
4.7852553625
 31
0.0
  0
LINE
  5
31E
330
A
100
AcDbEntity
  8
0
  6
Continuous
 62
     7
100
AcDbLine
 10
11.7816210584
 20
4.7852553625
 30
0.0
 11
11.8176210584
 21
4.7852553625
 31
0.0
  0
LINE
  5
31F
330
A
100
AcDbEntity
  8
0
  6
Continuous
 62
     7
100
AcDbLine
 10
11.7816210584
 20
4.7852553625
 30
0.0
 11
11.7816210584
 21
5.140255362499999
 31
0.0
  0
LINE
  5
320
330
A
100
AcDbEntity
  8
0
  6
Continuous
 62
     7
100
AcDbLine
 10
11.8176210584
 20
5.1392989683
 30
0.0
 11
11.8176210584
 21
4.7852553625
 31
0.0
  0
LINE
  5
321
330
A
100
AcDbEntity
  8
0
  6
Continuous
 62
     7
100
AcDbLine
 10
12.45762105839999
 20
5.140255362499999
 30
0.0
 11
12.45762105839999
 21
4.7852553625
 31
0.0
  0
LINE
  5
322
330
A
100
AcDbEntity
  8
0
  6
Continuous
 62
     7
100
AcDbLine
 10
12.4216210584
 20
4.7852553625
 30
0.0
 11
12.4216210584
 21
5.1392989683
 31
0.0
  0
LINE
  5
323
330
A
100
AcDbEntity
  8
0
  6
Continuous
 62
     7
100
AcDbLine
 10
12.4216210584
 20
4.7852553625
 30
0.0
 11
12.45762105839999
 21
4.7852553625
 31
0.0
  0
LINE
  5
324
330
A
100
AcDbEntity
  8
0
  6
Continuous
 62
     7
100
AcDbLine
 10
12.5016210584
 20
4.7852553625
 30
0.0
 11
12.5016210584
 21
5.140255362499999
 31
0.0
  0
LINE
  5
325
330
A
100
AcDbEntity
  8
0
  6
Continuous
 62
     7
100
AcDbLine
 10
12.53762105839999
 20
5.140255362499999
 30
0.0
 11
12.53762105839999
 21
4.955255362499999
 31
0.0
  0
LINE
  5
326
330
A
100
AcDbEntity
  8
0
  6
Continuous
 62
     7
100
AcDbLine
 10
12.5016210584
 20
4.7852553625
 30
0.0
 11
12.5226210584
 21
4.7852553625
 31
0.0
  0
LINE
  5
327
330
A
100
AcDbEntity
  8
0
  6
Continuous
 62
     7
100
AcDbLine
 10
11.46422105839999
 20
4.9911830496
 30
0.0
 11
11.46422105839999
 21
4.6593276754
 31
0.0
  0
LINE
  5
328
330
A
100
AcDbEntity
  8
0
  6
Continuous
 62
     7
100
AcDbLine
 10
12.7750210584
 20
4.6593276754
 30
0.0
 11
12.7750210584
 21
4.9911830496
 31
0.0
  0
LINE
  5
329
330
A
100
AcDbEntity
  8
0
  6
Continuous
 62
     7
100
AcDbLine
 10
12.4996210584
 20
5.3572553625
 30
0.0
 11
12.4996210584
 21
5.3552553625
 31
0.0
  0
LINE
  5
32A
330
A
100
AcDbEntity
  8
0
  6
Continuous
 62
     7
100
AcDbLine
 10
12.4596210584
 20
5.3572553625
 30
0.0
 11
12.4596210584
 21
5.3552553625
 31
0.0
  0
LINE
  5
32B
330
A
100
AcDbEntity
  8
0
  6
Continuous
 62
     7
100
AcDbLine
 10
11.46422105839999
 20
4.9452553625
 30
0.0
 11
11.4550210584
 21
4.9452553625
 31
0.0
  0
LINE
  5
32C
330
A
100
AcDbEntity
  8
0
  6
Continuous
 62
     7
100
AcDbLine
 10
11.4550210584
 20
4.7452553625
 30
0.0
 11
11.4550210584
 21
4.9452553625
 31
0.0
  0
LINE
  5
32D
330
A
100
AcDbEntity
  8
0
  6
Continuous
 62
     7
100
AcDbLine
 10
11.4550210584
 20
4.7452553625
 30
0.0
 11
11.46422105839999
 21
4.7452553625
 31
0.0
  0
LINE
  5
32E
330
A
100
AcDbEntity
  8
0
  6
Continuous
 62
     7
100
AcDbLine
 10
12.7750210584
 20
4.7452553625
 30
0.0
 11
12.7842210584
 21
4.7452553625
 31
0.0
  0
LINE
  5
32F
330
A
100
AcDbEntity
  8
0
  6
Continuous
 62
     7
100
AcDbLine
 10
12.7842210584
 20
4.9452553625
 30
0.0
 11
12.7842210584
 21
4.7452553625
 31
0.0
  0
LINE
  5
330
330
A
100
AcDbEntity
  8
0
  6
Continuous
 62
     7
100
AcDbLine
 10
12.7750210584
 20
4.9452553625
 30
0.0
 11
12.7842210584
 21
4.9452553625
 31
0.0
  0
LINE
  5
331
330
A
100
AcDbEntity
  8
0
  6
Continuous
 62
     7
100
AcDbLine
 10
11.7396210584
 20
5.3552553625
 30
0.0
 11
11.7396210584
 21
5.3572553625
 31
0.0
  0
LINE
  5
332
330
A
100
AcDbEntity
  8
0
  6
Continuous
 62
     7
100
AcDbLine
 10
11.7796210584
 20
5.3572553625
 30
0.0
 11
11.7796210584
 21
5.3552553625
 31
0.0
  0
LINE
  5
333
330
A
100
AcDbEntity
  8
0
  6
Continuous
 62
     7
100
AcDbLine
 10
9.3644814179
 20
5.3652553625
 30
0.0
 11
9.464760698999999
 21
5.3652553625
 31
0.0
  0
LINE
  5
334
330
A
100
AcDbEntity
  8
0
  6
Continuous
 62
     7
100
AcDbLine
 10
15.2400748901
 20
6.257255362499999
 30
0.0
 11
15.2400748901
 21
6.2672553625
 31
0.0
  0
LINE
  5
335
330
A
100
AcDbEntity
  8
0
  6
Continuous
 62
     7
100
AcDbLine
 10
14.98007489009999
 20
6.257255362499999
 30
0.0
 11
14.98007489009999
 21
6.2672553625
 31
0.0
  0
LINE
  5
336
330
A
100
AcDbEntity
  8
0
  6
Continuous
 62
     7
100
AcDbLine
 10
14.98007489009999
 20
6.2672553625
 30
0.0
 11
15.2400748901
 21
6.2672553625
 31
0.0
  0
LINE
  5
337
330
A
100
AcDbEntity
  8
0
  6
Continuous
 62
     7
100
AcDbLine
 10
15.3600748901
 20
6.257255362499999
 30
0.0
 11
15.3600748901
 21
6.2672553625
 31
0.0
  0
LINE
  5
338
330
A
100
AcDbEntity
  8
0
  6
Continuous
 62
     7
100
AcDbLine
 10
15.2400748901
 20
6.2672553625
 30
0.0
 11
15.3600748901
 21
6.2672553625
 31
0.0
  0
LINE
  5
339
330
A
100
AcDbEntity
  8
0
  6
Continuous
 62
     7
100
AcDbLine
 10
14.8600748901
 20
6.257255362499999
 30
0.0
 11
14.8600748901
 21
6.2672553625
 31
0.0
  0
LINE
  5
33A
330
A
100
AcDbEntity
  8
0
  6
Continuous
 62
     7
100
AcDbLine
 10
14.8600748901
 20
6.2672553625
 30
0.0
 11
14.98007489009999
 21
6.2672553625
 31
0.0
  0
LINE
  5
33B
330
A
100
AcDbEntity
  8
0
  6
Continuous
 62
     7
100
AcDbLine
 10
13.3711333571
 20
5.4366312581
 30
0.0
 11
13.3711333571
 21
5.4366312581
 31
0.0
  0
LINE
  5
33C
330
A
100
AcDbEntity
  8
0
  6
Continuous
 62
     7
100
AcDbLine
 10
7.111133357099999
 20
5.4366312581
 30
0.0
 11
7.111133357099999
 21
5.4366312581
 31
0.0
  0
LINE
  5
33D
330
A
100
AcDbEntity
  8
0
  6
Continuous
 62
     7
100
AcDbLine
 10
6.9597324651
 20
4.233843318099999
 30
0.0
 11
10.0936971238
 21
4.233843318099999
 31
0.0
  0
LINE
  5
33E
330
A
100
AcDbEntity
  8
0
  6
Continuous
 62
     7
100
AcDbLine
 10
10.22554499299999
 20
4.233843318099999
 30
0.0
 11
10.8936971238
 21
4.233843318099999
 31
0.0
  0
LINE
  5
33F
330
A
100
AcDbEntity
  8
0
  6
Continuous
 62
     7
100
AcDbLine
 10
11.025544993
 20
4.233843318099999
 30
0.0
 11
11.6536971238
 21
4.233843318099999
 31
0.0
  0
LINE
  5
340
330
A
100
AcDbEntity
  8
0
  6
Continuous
 62
     7
100
AcDbLine
 10
11.785544993
 20
4.233843318099999
 30
0.0
 11
12.4536971238
 21
4.233843318099999
 31
0.0
  0
LINE
  5
341
330
A
100
AcDbEntity
  8
0
  6
Continuous
 62
     7
100
AcDbLine
 10
12.58554499299999
 20
4.233843318099999
 30
0.0
 11
15.7195096518
 21
4.233843318099999
 31
0.0
  0
LINE
  5
342
330
A
100
AcDbEntity
  8
0
  6
Continuous
 62
     7
100
AcDbLine
 10
9.8596841117
 20
4.2581540629
 30
0.0
 11
10.07802809299999
 21
4.2581540629
 31
0.0
  0
LINE
  5
343
330
A
100
AcDbEntity
  8
0
  6
Continuous
 62
     7
100
AcDbLine
 10
10.2412140238
 20
4.2581540629
 30
0.0
 11
10.878028093
 21
4.2581540629
 31
0.0
  0
LINE
  5
344
330
A
100
AcDbEntity
  8
0
  6
Continuous
 62
     7
100
AcDbLine
 10
11.0412140238
 20
4.2581540629
 30
0.0
 11
11.2595580052
 21
4.2581540629
 31
0.0
  0
LINE
  5
345
330
A
100
AcDbEntity
  8
0
  6
Continuous
 62
     7
100
AcDbLine
 10
11.4196841117
 20
4.2581540629
 30
0.0
 11
11.638028093
 21
4.2581540629
 31
0.0
  0
LINE
  5
346
330
A
100
AcDbEntity
  8
0
  6
Continuous
 62
     7
100
AcDbLine
 10
11.80121402379999
 20
4.2581540629
 30
0.0
 11
12.43802809299999
 21
4.2581540629
 31
0.0
  0
LINE
  5
347
330
A
100
AcDbEntity
  8
0
  6
Continuous
 62
     7
100
AcDbLine
 10
12.6012140238
 20
4.2581540629
 30
0.0
 11
12.8195580052
 21
4.2581540629
 31
0.0
  0
LINE
  5
348
330
A
100
AcDbEntity
  8
0
  6
Continuous
 62
     7
100
AcDbLine
 10
14.624812405
 20
4.8206674069
 30
0.0
 11
14.5939517671
 21
4.8206674069
 31
0.0
  0
LINE
  5
349
330
A
100
AcDbEntity
  8
0
  6
Continuous
 62
     7
100
AcDbLine
 10
13.8852903498
 20
4.8206674069
 30
0.0
 11
13.8544297119
 21
4.8206674069
 31
0.0
  0
LINE
  5
34A
330
A
100
AcDbEntity
  8
0
  6
Continuous
 62
     7
100
AcDbLine
 10
12.8089084959
 20
4.8206674069
 30
0.0
 11
12.7842210584
 21
4.8206674069
 31
0.0
  0
LINE
  5
34B
330
A
100
AcDbEntity
  8
0
  6
Continuous
 62
     7
100
AcDbLine
 10
11.4550210584
 20
4.8206674069
 30
0.0
 11
11.430333621
 21
4.8206674069
 31
0.0
  0
LINE
  5
34C
330
A
100
AcDbEntity
  8
0
  6
Continuous
 62
     7
100
AcDbLine
 10
11.2489084959
 20
4.8206674069
 30
0.0
 11
11.22422105839999
 21
4.8206674069
 31
0.0
  0
LINE
  5
34D
330
A
100
AcDbEntity
  8
0
  6
Continuous
 62
     7
100
AcDbLine
 10
9.895021058399999
 20
4.8206674069
 30
0.0
 11
9.870333621
 21
4.8206674069
 31
0.0
  0
LINE
  5
34E
330
A
100
AcDbEntity
  8
0
  6
Continuous
 62
     7
100
AcDbLine
 10
8.255949774299999
 20
4.8206674069
 30
0.0
 11
8.235022633199999
 21
4.8206674069
 31
0.0
  0
LINE
  5
34F
330
A
100
AcDbEntity
  8
0
  6
Continuous
 62
     7
100
AcDbLine
 10
7.2901407435
 20
4.8206674069
 30
0.0
 11
7.266292342499999
 21
4.8206674069
 31
0.0
  0
LINE
  5
350
330
A
100
AcDbEntity
  8
0
  6
Continuous
 62
     7
100
AcDbLine
 10
7.2621718234
 20
5.056731790299999
 30
0.0
 11
7.2901407435
 21
5.056731790299999
 31
0.0
  0
LINE
  5
351
330
A
100
AcDbEntity
  8
0
  6
Continuous
 62
     7
100
AcDbLine
 10
7.2901407435
 20
5.259000603099999
 30
0.0
 11
7.2586412081
 21
5.259000603099999
 31
0.0
  0
LINE
  5
352
330
A
100
AcDbEntity
  8
0
  6
Continuous
 62
     7
100
AcDbLine
 10
14.6231469816
 20
5.1152553625
 30
0.0
 11
14.5939517671
 21
5.1152553625
 31
0.0
  0
LINE
  5
353
330
A
100
AcDbEntity
  8
0
  6
Continuous
 62
     7
100
AcDbLine
 10
8.261091826199999
 20
5.1152553625
 30
0.0
 11
8.235022633199999
 21
5.1152553625
 31
0.0
  0
LINE
  5
354
330
A
100
AcDbEntity
  8
0
  6
Continuous
 62
     7
100
AcDbLine
 10
10.81962105839999
 20
5.3572553625
 30
0.0
 11
10.81962105839999
 21
5.3552553625
 31
0.0
  0
LINE
  5
355
330
A
100
AcDbEntity
  8
0
  6
Continuous
 62
     7
100
AcDbLine
 10
11.8596210584
 20
5.3572553625
 30
0.0
 11
11.8596210584
 21
5.3552553625
 31
0.0
  0
LINE
  5
356
330
A
100
AcDbEntity
  8
0
  6
Continuous
 62
     7
100
AcDbLine
 10
11.8196210584
 20
5.3572553625
 30
0.0
 11
11.8196210584
 21
5.3552553625
 31
0.0
  0
LINE
  5
357
330
A
100
AcDbEntity
  8
0
  6
Continuous
 62
     7
100
AcDbLine
 10
10.85962105839999
 20
5.3572553625
 30
0.0
 11
10.85962105839999
 21
5.3552553625
 31
0.0
  0
LINE
  5
358
330
A
100
AcDbEntity
  8
0
  6
Continuous
 62
     7
100
AcDbLine
 10
15.72945903879999
 20
6.050667406899999
 30
0.0
 11
13.381981559
 21
6.050667406899999
 31
0.0
  0
LINE
  5
359
330
A
100
AcDbEntity
  8
0
  6
Continuous
 62
     7
100
AcDbLine
 10
7.100285155099999
 20
6.050667406899999
 30
0.0
 11
6.9497830781
 21
6.050667406899999
 31
0.0
  0
LINE
  5
35A
330
A
100
AcDbEntity
  8
0
  6
Continuous
 62
     7
100
AcDbLine
 10
10.069892897
 20
5.3572553625
 30
0.0
 11
10.069892897
 21
5.335255362499999
 31
0.0
  0
LINE
  5
35B
330
A
100
AcDbEntity
  8
0
  6
Continuous
 62
     7
100
AcDbLine
 10
11.04934921989999
 20
5.335255362499999
 30
0.0
 11
11.04934921989999
 21
5.3572553625
 31
0.0
  0
LINE
  5
35C
330
A
100
AcDbEntity
  8
0
  6
Continuous
 62
     7
100
AcDbLine
 10
12.6093492199
 20
5.335255362499999
 30
0.0
 11
12.6093492199
 21
5.3572553625
 31
0.0
  0
LINE
  5
35D
330
A
100
AcDbEntity
  8
0
  6
Continuous
 62
     7
100
AcDbLine
 10
11.629892897
 20
5.3572553625
 30
0.0
 11
11.629892897
 21
5.335255362499999
 31
0.0
  0
LINE
  5
35E
330
A
100
AcDbEntity
  8
0
  6
Continuous
 62
     7
100
AcDbLine
 10
6.685621058399999
 20
12.0777543547
 30
0.0
 11
6.6896210584
 21
12.0777543547
 31
0.0
  0
LINE
  5
35F
330
A
100
AcDbEntity
  8
0
  6
Continuous
 62
     7
100
AcDbLine
 10
6.685621058399999
 20
13.5777543547
 30
0.0
 11
6.6896210584
 21
13.5777543547
 31
0.0
  0
LINE
  5
360
330
A
100
AcDbEntity
  8
0
  6
Continuous
 62
     7
100
AcDbLine
 10
6.6896210584
 20
12.0777543547
 30
0.0
 11
6.6896210584
 21
13.5777543547
 31
0.0
  0
LINE
  5
361
330
A
100
AcDbEntity
  8
0
  6
Continuous
 62
     7
100
AcDbLine
 10
6.685621058399999
 20
12.0777543547
 30
0.0
 11
6.685621058399999
 21
13.5777543547
 31
0.0
  0
LINE
  5
362
330
A
100
AcDbEntity
  8
0
  6
Continuous
 62
     7
100
AcDbLine
 10
13.4911333571
 20
10.1474157656
 30
0.0
 11
13.4911333571
 21
10.2140966658
 31
0.0
  0
LWPOLYLINE
  5
363
330
A
100
AcDbEntity
  8
0
  6
Continuous
 62
     7
100
AcDbPolyline
 90
        9
 70
   128
 43
0.0
 10
13.3711333571
 20
10.1265779843
 10
13.39454419569999
 20
10.12697837639999
 10
13.417055369
 20
10.12816416599999
 10
13.437801785
 20
10.1300897837
 10
13.4559861708
 20
10.1326812291
 10
13.4709097105
 20
10.1358389146
 10
13.481998901
 20
10.1394414919
 10
13.4888275907
 20
10.1433505162
 10
13.4911333571
 20
10.1474157656
  0
LINE
  5
36E
330
A
100
AcDbEntity
  8
0
  6
Continuous
 62
     7
100
AcDbLine
 10
7.111133357099999
 20
10.1265779843
 30
0.0
 11
13.3711333571
 21
10.1265779843
 31
0.0
  0
LWPOLYLINE
  5
36F
330
A
100
AcDbEntity
  8
0
  6
Continuous
 62
     7
100
AcDbPolyline
 90
        9
 70
   128
 43
0.0
 10
6.991133357099999
 20
10.1474157656
 10
6.993439123399999
 20
10.1433505162
 10
7.000267813199999
 20
10.1394414919
 10
7.011357003599999
 20
10.1358389146
 10
7.0262805433
 20
10.1326812291
 10
7.0444649291
 20
10.1300897837
 10
7.065211345199999
 20
10.12816416599999
 10
7.087722518399999
 20
10.12697837639999
 10
7.111133357099999
 20
10.1265779843
  0
LINE
  5
37A
330
A
100
AcDbEntity
  8
0
  6
Continuous
 62
     7
100
AcDbLine
 10
6.991133357099999
 20
10.2140966658
 30
0.0
 11
6.991133357099999
 21
10.1474157656
 31
0.0
  0
LWPOLYLINE
  5
37B
330
A
100
AcDbEntity
  8
0
  6
Continuous
 62
     7
100
AcDbPolyline
 90
        9
 70
   128
 43
0.0
 10
7.111133357099999
 20
10.2349344472
 10
7.087722518399999
 20
10.23453405499999
 10
7.065211345199999
 20
10.23334826549999
 10
7.0444649291
 20
10.2314226478
 10
7.0262805433
 20
10.2288312023
 10
7.011357003599999
 20
10.2256735169
 10
7.000267813199999
 20
10.2220709395
 10
6.993439123399999
 20
10.21816191529999
 10
6.991133357099999
 20
10.2140966658
  0
LINE
  5
386
330
A
100
AcDbEntity
  8
0
  6
Continuous
 62
     7
100
AcDbLine
 10
13.3711333571
 20
10.2349344472
 30
0.0
 11
7.111133357099999
 21
10.2349344472
 31
0.0
  0
LWPOLYLINE
  5
387
330
A
100
AcDbEntity
  8
0
  6
Continuous
 62
     7
100
AcDbPolyline
 90
        9
 70
   128
 43
0.0
 10
13.4911333571
 20
10.2140966658
 10
13.4888275907
 20
10.21816191529999
 10
13.481998901
 20
10.2220709395
 10
13.4709097105
 20
10.2256735169
 10
13.4559861708
 20
10.2288312023
 10
13.437801785
 20
10.2314226478
 10
13.417055369
 20
10.23334826549999
 10
13.39454419569999
 20
10.23453405499999
 10
13.3711333571
 20
10.2349344472
  0
LINE
  5
392
330
A
100
AcDbEntity
  8
0
  6
Continuous
 62
     7
100
AcDbLine
 10
6.991133357099999
 20
10.216840937
 30
0.0
 11
6.991133357099999
 21
10.2140966658
 31
0.0
  0
LINE
  5
393
330
A
100
AcDbEntity
  8
0
  6
Continuous
 62
     7
100
AcDbLine
 10
13.4911333571
 20
10.216840937
 30
0.0
 11
13.4911333571
 21
10.2140966658
 31
0.0
  0
ARC
  5
394
330
A
100
AcDbEntity
  8
0
  6
Continuous
 62
     7
100
AcDbCircle
 10
8.039621058399999
 20
15.6477543547
 30
0.0
 40
0.2
100
AcDbArc
 50
90.0
 51
180.0
  0
LINE
  5
395
330
A
100
AcDbEntity
  8
0
  6
Continuous
 62
     7
100
AcDbLine
 10
14.8396210584
 20
15.6477543547
 30
0.0
 11
14.8396210584
 21
11.0477543547
 31
0.0
  0
ARC
  5
396
330
A
100
AcDbEntity
  8
0
  6
Continuous
 62
     7
100
AcDbCircle
 10
14.6396210584
 20
11.0477543547
 30
0.0
 40
0.2
100
AcDbArc
 50
270.0
 51
0.0
  0
LINE
  5
397
330
A
100
AcDbEntity
  8
0
  6
Continuous
 62
     7
100
AcDbLine
 10
14.6396210584
 20
10.84775435469999
 30
0.0
 11
8.039621058399999
 21
10.84775435469999
 31
0.0
  0
ARC
  5
398
330
A
100
AcDbEntity
  8
0
  6
Continuous
 62
     7
100
AcDbCircle
 10
8.039621058399999
 20
11.0477543547
 30
0.0
 40
0.2
100
AcDbArc
 50
180.0
 51
270.0
  0
LINE
  5
399
330
A
100
AcDbEntity
  8
0
  6
Continuous
 62
     7
100
AcDbLine
 10
7.839621058399999
 20
11.0477543547
 30
0.0
 11
7.839621058399999
 21
15.6477543547
 31
0.0
  0
ARC
  5
39A
330
A
100
AcDbEntity
  8
0
  6
Continuous
 62
     7
100
AcDbCircle
 10
14.6396210584
 20
15.6477543547
 30
0.0
 40
0.2
100
AcDbArc
 50
0.0
 51
90.0
  0
LINE
  5
39B
330
A
100
AcDbEntity
  8
0
  6
Continuous
 62
     7
100
AcDbLine
 10
8.039621058399999
 20
15.8477543547
 30
0.0
 11
14.6396210584
 21
15.8477543547
 31
0.0
  0
LINE
  5
39C
330
A
100
AcDbEntity
  8
0
  6
Continuous
 62
     7
100
AcDbLine
 10
6.6896210584
 20
17.1336926711
 30
0.0
 11
6.6896210584
 21
13.5777543547
 31
0.0
  0
LINE
  5
39D
330
A
100
AcDbEntity
  8
0
  6
Continuous
 62
     7
100
AcDbLine
 10
6.6896210584
 20
12.0777543547
 30
0.0
 11
6.6896210584
 21
11.12897620929999
 31
0.0
  0
ARC
  5
39E
330
A
100
AcDbEntity
  8
0
  6
Continuous
 62
     7
100
AcDbCircle
 10
6.9395324549
 20
17.1337812834
 30
0.0
 40
0.2499114122
100
AcDbArc
 50
90.0058709299
 51
180.0203156577
  0
LINE
  5
39F
330
A
100
AcDbEntity
  8
0
  6
Continuous
 62
     7
100
AcDbLine
 10
6.939506847199999
 20
17.38369269429999
 30
0.0
 11
7.6056561685
 21
17.38369269429999
 31
0.0
  0
LINE
  5
3A0
330
A
100
AcDbEntity
  8
0
  6
Continuous
 62
     7
100
AcDbLine
 10
15.9896210584
 20
10.38084167519999
 30
0.0
 11
15.9896210584
 21
17.1336926711
 31
0.0
  0
ARC
  5
3A1
330
A
100
AcDbEntity
  8
0
  6
Continuous
 62
     7
100
AcDbCircle
 10
15.73858123189999
 20
10.3787963473
 30
0.0
 40
0.2510481585
100
AcDbArc
 50
270.4015684173
 51
0.4668026812
  0
LINE
  5
3A2
330
A
100
AcDbEntity
  8
0
  6
Continuous
 62
     7
100
AcDbLine
 10
13.41088224679999
 20
10.1277543547
 30
0.0
 11
15.7403407365
 21
10.1277543547
 31
0.0
  0
LINE
  5
3A3
330
A
100
AcDbEntity
  8
0
  6
Continuous
 62
     7
100
AcDbLine
 10
15.0735859484
 20
17.38369269429999
 30
0.0
 11
15.7397352697
 21
17.38369269429999
 31
0.0
  0
ARC
  5
3A4
330
A
100
AcDbEntity
  8
0
  6
Continuous
 62
     7
100
AcDbCircle
 10
15.739709662
 20
17.1337812834
 30
0.0
 40
0.2499114122
100
AcDbArc
 50
359.9796843441
 51
89.9941290701
  0
LINE
  5
3A5
330
A
100
AcDbEntity
  8
0
  6
Continuous
 62
     7
100
AcDbLine
 10
6.6896210584
 20
11.0265325002
 30
0.0
 11
6.6896210584
 21
10.7289762093
 31
0.0
  0
LINE
  5
3A6
330
A
100
AcDbEntity
  8
0
  6
Continuous
 62
     7
100
AcDbLine
 10
6.938901380399999
 20
10.1277543547
 30
0.0
 11
7.071384467299999
 21
10.1277543547
 31
0.0
  0
ARC
  5
3A7
330
A
100
AcDbEntity
  8
0
  6
Continuous
 62
     7
100
AcDbCircle
 10
6.940660884999999
 20
10.3787963473
 30
0.0
 40
0.2510481585
100
AcDbArc
 50
179.5331973208
 51
269.5984315827
  0
LINE
  5
3A8
330
A
100
AcDbEntity
  8
0
  6
Continuous
 62
     7
100
AcDbLine
 10
6.6896210584
 20
10.6265325002
 30
0.0
 11
6.6896210584
 21
10.38084167519999
 31
0.0
  0
ARC
  5
3A9
330
A
100
AcDbEntity
  8
0
  6
Continuous
 62
     7
100
AcDbCircle
 10
15.6617309479
 20
13.7790039642
 30
0.0
 40
0.2191048182
100
AcDbArc
 50
222.9841724531
 51
263.5345776003999
  0
ARC
  5
3AA
330
A
100
AcDbEntity
  8
0
  6
Continuous
 62
     7
100
AcDbCircle
 10
15.6589672149
 20
14.2624439938
 30
0.0
 40
0.6521350263
100
AcDbArc
 50
256.0221907494999
 51
268.0748055778999
  0
LINE
  5
3AB
330
A
100
AcDbEntity
  8
0
  6
Continuous
 62
     7
100
AcDbLine
 10
15.6370589611
 20
13.5612926544
 30
0.0
 11
15.6370589611
 21
13.6106770715
 31
0.0
  0
LWPOLYLINE
  5
3AC
330
A
100
AcDbEntity
  8
0
  6
Continuous
 62
     7
100
AcDbPolyline
 90
        9
 70
   128
 43
0.0
 10
15.669068816
 20
13.6224262548
 10
15.6633906291
 20
13.62312520769999
 10
15.6579234895
 20
13.6248994969
 10
15.6528706006
 20
13.6276831752
 10
15.6484197685
 20
13.63137277879999
 10
15.6447364222
 20
13.635831172
 10
15.6419574648
 20
13.6408926448
 10
15.6401861847
 20
13.6463690719
 10
15.6394884171
 20
13.652056905
  0
ARC
  5
3B7
330
A
100
AcDbEntity
  8
0
  6
Continuous
 62
     7
100
AcDbCircle
 10
15.62296395299999
 20
13.6985569007
 30
0.0
 40
0.0890029979
100
AcDbArc
 50
279.1120391805
 51
301.1991767416
  0
ARC
  5
3B8
330
A
100
AcDbEntity
  8
0
  6
Continuous
 62
     7
100
AcDbCircle
 10
15.5274282824
 20
13.9056239022
 30
0.0
 40
0.2772249914
100
AcDbArc
 50
264.6223058099999
 51
293.8423137379999
  0
LINE
  5
3B9
330
A
100
AcDbEntity
  8
0
  6
Continuous
 62
     7
100
AcDbLine
 10
7.0421831558
 20
13.5612926544
 30
0.0
 11
7.0421831558
 21
13.6106770715
 31
0.0
  0
ARC
  5
3BA
330
A
100
AcDbEntity
  8
0
  6
Continuous
 62
     7
100
AcDbCircle
 10
7.0018817882
 20
14.3941264677
 30
0.0
 40
0.7844852814
100
AcDbArc
 50
272.9447527239
 51
282.9582509485999
  0
ARC
  5
3BB
330
A
100
AcDbEntity
  8
0
  6
Continuous
 62
     7
100
AcDbCircle
 10
7.017511168999999
 20
13.7790039642
 30
0.0
 40
0.2191048182
100
AcDbArc
 50
276.4654223995
 51
317.0158275469
  0
LWPOLYLINE
  5
3BC
330
A
100
AcDbEntity
  8
0
  6
Continuous
 62
     7
100
AcDbPolyline
 90
        9
 70
   128
 43
0.0
 10
7.0397536998
 20
13.652056905
 10
7.0390559322
 20
13.6463690719
 10
7.0372846521
 20
13.6408926448
 10
7.034505694699999
 20
13.635831172
 10
7.0308223484
 20
13.63137277879999
 10
7.0263715163
 20
13.6276831752
 10
7.0213186274
 20
13.6248994969
 10
7.0158514878
 20
13.62312520769999
 10
7.0101733009
 20
13.6224262548
  0
ARC
  5
3C7
330
A
100
AcDbEntity
  8
0
  6
Continuous
 62
     7
100
AcDbCircle
 10
7.1518138345
 20
13.9056239022
 30
0.0
 40
0.2772249914
100
AcDbArc
 50
246.1576862621
 51
275.3776941899
  0
ARC
  5
3C8
330
A
100
AcDbEntity
  8
0
  6
Continuous
 62
     7
100
AcDbCircle
 10
7.0474334681
 20
13.6744601257
 30
0.0
 40
0.0639987795
100
AcDbArc
 50
234.3944862024
 51
265.2942978761
  0
LINE
  5
3C9
330
A
100
AcDbEntity
  8
0
  6
Continuous
 62
     7
100
AcDbLine
 10
7.177795561399999
 20
16.3195798518
 30
0.0
 11
7.177795561399999
 21
16.3175584782
 31
0.0
  0
LINE
  5
3CA
330
A
100
AcDbEntity
  8
0
  6
Continuous
 62
     7
100
AcDbLine
 10
11.2772393182
 20
16.3195798518
 30
0.0
 11
7.177795561399999
 21
16.3195798518
 31
0.0
  0
LINE
  5
3CB
330
A
100
AcDbEntity
  8
0
  6
Continuous
 62
     7
100
AcDbLine
 10
11.2772393182
 20
17.0251437103
 30
0.0
 11
11.2772393182
 21
16.3195798518
 31
0.0
  0
ARC
  5
3CC
330
A
100
AcDbEntity
  8
0
  6
Continuous
 62
     7
100
AcDbCircle
 10
11.32722854999999
 20
17.0251468632
 30
0.0
 40
0.0499892319
100
AcDbArc
 50
89.99638622229999
 51
180.0
  0
LINE
  5
3CD
330
A
100
AcDbEntity
  8
0
  6
Continuous
 62
     7
100
AcDbLine
 10
11.35201041389999
 20
17.075136095
 30
0.0
 11
11.3272317029
 21
17.075136095
 31
0.0
  0
ARC
  5
3CE
330
A
100
AcDbEntity
  8
0
  6
Continuous
 62
     7
100
AcDbCircle
 10
11.3520135669
 20
17.0251468632
 30
0.0
 40
0.0499892319
100
AcDbArc
 50
360.0
 51
90.0036137786
  0
LINE
  5
3CF
330
A
100
AcDbEntity
  8
0
  6
Continuous
 62
     7
100
AcDbLine
 10
11.40200279869999
 20
16.3195798518
 30
0.0
 11
11.40200279869999
 21
17.0251437103
 31
0.0
  0
LINE
  5
3D0
330
A
100
AcDbEntity
  8
0
  6
Continuous
 62
     7
100
AcDbLine
 10
15.5014465555
 20
16.3195798518
 30
0.0
 11
11.40200279869999
 21
16.3195798518
 31
0.0
  0
LINE
  5
3D1
330
A
100
AcDbEntity
  8
0
  6
Continuous
 62
     7
100
AcDbLine
 10
15.5014465555
 20
16.3175584782
 30
0.0
 11
15.5014465555
 21
16.3195798518
 31
0.0
  0
LINE
  5
3D2
330
A
100
AcDbEntity
  8
0
  6
Continuous
 62
     7
100
AcDbLine
 10
15.5014465555
 20
13.6296191093
 30
0.0
 11
15.5014465555
 21
16.3175584782
 31
0.0
  0
LINE
  5
3D3
330
A
100
AcDbEntity
  8
0
  6
Continuous
 62
     7
100
AcDbLine
 10
15.72945903879999
 20
13.5612926544
 30
0.0
 11
15.6370589611
 21
13.5612926544
 31
0.0
  0
LINE
  5
3D4
330
A
100
AcDbEntity
  8
0
  6
Continuous
 62
     7
100
AcDbLine
 10
15.72945903879999
 20
10.48388065649999
 30
0.0
 11
15.72945903879999
 21
13.5612926544
 31
0.0
  0
LINE
  5
3D5
330
A
100
AcDbEntity
  8
0
  6
Continuous
 62
     7
100
AcDbLine
 10
6.9497830781
 20
10.48388065649999
 30
0.0
 11
15.72945903879999
 21
10.48388065649999
 31
0.0
  0
LINE
  5
3D6
330
A
100
AcDbEntity
  8
0
  6
Continuous
 62
     7
100
AcDbLine
 10
6.9497830781
 20
13.5612926544
 30
0.0
 11
6.9497830781
 21
10.48388065649999
 31
0.0
  0
LINE
  5
3D7
330
A
100
AcDbEntity
  8
0
  6
Continuous
 62
     7
100
AcDbLine
 10
7.0421831558
 20
13.5612926544
 30
0.0
 11
6.9497830781
 21
13.5612926544
 31
0.0
  0
LINE
  5
3D8
330
A
100
AcDbEntity
  8
0
  6
Continuous
 62
     7
100
AcDbLine
 10
7.177795561399999
 20
16.3175584782
 30
0.0
 11
7.177795561399999
 21
13.6296191093
 31
0.0
  0
ARC
  5
3D9
330
A
100
AcDbEntity
  8
0
  6
Continuous
 62
     7
100
AcDbCircle
 10
14.6596210584
 20
15.6677543547
 30
0.0
 40
0.2004538317
100
AcDbArc
 50
0.0
 51
90.0
  0
LINE
  5
3DA
330
A
100
AcDbEntity
  8
0
  6
Continuous
 62
     7
100
AcDbLine
 10
14.6596210584
 20
15.8682081864
 30
0.0
 11
8.0196210584
 21
15.8682081864
 31
0.0
  0
ARC
  5
3DB
330
A
100
AcDbEntity
  8
0
  6
Continuous
 62
     7
100
AcDbCircle
 10
8.0196210584
 20
15.6677543547
 30
0.0
 40
0.2004538317
100
AcDbArc
 50
90.0
 51
180.0
  0
LINE
  5
3DC
330
A
100
AcDbEntity
  8
0
  6
Continuous
 62
     7
100
AcDbLine
 10
7.8191672268
 20
15.6677543547
 30
0.0
 11
7.8191672268
 21
11.0277543547
 31
0.0
  0
ARC
  5
3DD
330
A
100
AcDbEntity
  8
0
  6
Continuous
 62
     7
100
AcDbCircle
 10
8.0196210584
 20
11.0277543547
 30
0.0
 40
0.2004538317
100
AcDbArc
 50
180.0
 51
270.0
  0
LINE
  5
3DE
330
A
100
AcDbEntity
  8
0
  6
Continuous
 62
     7
100
AcDbLine
 10
8.0196210584
 20
10.8273005231
 30
0.0
 11
14.6596210584
 21
10.8273005231
 31
0.0
  0
ARC
  5
3DF
330
A
100
AcDbEntity
  8
0
  6
Continuous
 62
     7
100
AcDbCircle
 10
14.6596210584
 20
11.0277543547
 30
0.0
 40
0.2004538317
100
AcDbArc
 50
270.0
 51
0.0
  0
LINE
  5
3E0
330
A
100
AcDbEntity
  8
0
  6
Continuous
 62
     7
100
AcDbLine
 10
11.3246134432
 20
17.0777543547
 30
0.0
 11
11.3272317029
 21
17.075136095
 31
0.0
  0
LINE
  5
3E1
330
A
100
AcDbEntity
  8
0
  6
Continuous
 62
     7
100
AcDbLine
 10
11.3546286737
 20
17.0777543547
 30
0.0
 11
11.3246134432
 21
17.0777543547
 31
0.0
  0
LINE
  5
3E2
330
A
100
AcDbEntity
  8
0
  6
Continuous
 62
     7
100
AcDbLine
 10
11.35201041389999
 20
17.075136095
 30
0.0
 11
11.3546286737
 21
17.0777543547
 31
0.0
  0
ARC
  5
3E3
330
A
100
AcDbEntity
  8
0
  6
Continuous
 62
     7
100
AcDbCircle
 10
11.3546318266
 20
17.0277651229
 30
0.0
 40
0.0499892319
100
AcDbArc
 50
360.0
 51
90.0036137779
  0
LINE
  5
3E4
330
A
100
AcDbEntity
  8
0
  6
Continuous
 62
     7
100
AcDbLine
 10
11.40462105839999
 20
17.02776197
 30
0.0
 11
11.40200279869999
 21
17.0251437103
 31
0.0
  0
LINE
  5
3E5
330
A
100
AcDbEntity
  8
0
  6
Continuous
 62
     7
100
AcDbLine
 10
11.2772393182
 20
17.0251437103
 30
0.0
 11
11.2746210584
 21
17.02776197
 31
0.0
  0
ARC
  5
3E6
330
A
100
AcDbEntity
  8
0
  6
Continuous
 62
     7
100
AcDbCircle
 10
11.3246102903
 20
17.0277651229
 30
0.0
 40
0.0499892319
100
AcDbArc
 50
89.9963862228
 51
180.0
  0
ARC
  5
3E7
330
A
100
AcDbEntity
  8
0
  6
Continuous
 62
     7
100
AcDbCircle
 10
8.425837931
 20
16.3465512961
 30
0.0
 40
2.851528946
100
AcDbArc
 50
359.4580546089999
 51
2.2323029378
  0
ARC
  5
3E8
330
A
100
AcDbEntity
  8
0
  6
Continuous
 62
     7
100
AcDbCircle
 10
12.0893071691
 20
16.4893561183
 30
0.0
 40
0.8147225559999998
100
AcDbArc
 50
179.4580546089999
 51
182.2323029377999
  0
LINE
  5
3E9
330
A
100
AcDbEntity
  8
0
  6
Continuous
 62
     7
100
AcDbLine
 10
11.2746210584
 20
17.02776197
 30
0.0
 11
11.2746210584
 21
16.4970622453
 31
0.0
  0
ARC
  5
3EA
330
A
100
AcDbEntity
  8
0
  6
Continuous
 62
     7
100
AcDbCircle
 10
10.58993494779999
 20
16.4893561183
 30
0.0
 40
0.8147225559999998
100
AcDbArc
 50
357.7676970621999
 51
0.5419453909000001
  0
ARC
  5
3EB
330
A
100
AcDbEntity
  8
0
  6
Continuous
 62
     7
100
AcDbCircle
 10
14.2534041859
 20
16.3465512961
 30
0.0
 40
2.851528946
100
AcDbArc
 50
177.7676970622
 51
180.541945391
  0
LINE
  5
3EC
330
A
100
AcDbEntity
  8
0
  6
Continuous
 62
     7
100
AcDbLine
 10
11.40462105839999
 20
16.4970622453
 30
0.0
 11
11.40462105839999
 21
17.02776197
 31
0.0
  0
LINE
  5
3ED
330
A
100
AcDbEntity
  8
0
  6
Continuous
 62
     7
100
AcDbLine
 10
7.177795561399999
 20
16.3195798518
 30
0.0
 11
7.0397536998
 21
16.45762171339999
 31
0.0
  0
LINE
  5
3EE
330
A
100
AcDbEntity
  8
0
  6
Continuous
 62
     7
100
AcDbLine
 10
7.0397536998
 20
13.652056905
 30
0.0
 11
7.0397536998
 21
16.45762171339999
 31
0.0
  0
LINE
  5
3EF
330
A
100
AcDbEntity
  8
0
  6
Continuous
 62
     7
100
AcDbLine
 10
11.40403922289999
 20
16.45762171339999
 30
0.0
 11
15.6394884171
 21
16.45762171339999
 31
0.0
  0
LINE
  5
3F0
330
A
100
AcDbEntity
  8
0
  6
Continuous
 62
     7
100
AcDbLine
 10
15.6394884171
 20
16.45762171339999
 30
0.0
 11
15.5014465555
 21
16.3195798518
 31
0.0
  0
LINE
  5
3F1
330
A
100
AcDbEntity
  8
0
  6
Continuous
 62
     7
100
AcDbLine
 10
15.6394884171
 20
16.45762171339999
 30
0.0
 11
15.6394884171
 21
13.652056905
 31
0.0
  0
LINE
  5
3F2
330
A
100
AcDbEntity
  8
0
  6
Continuous
 62
     7
100
AcDbLine
 10
7.0397536998
 20
16.45762171339999
 30
0.0
 11
11.2752028939
 21
16.45762171339999
 31
0.0
  0
LINE
  5
3F3
330
A
100
AcDbEntity
  8
0
  6
Continuous
 62
     7
100
AcDbLine
 10
14.6596210584
 20
15.8677543547
 30
0.0
 11
14.6596210584
 21
15.8682081864
 31
0.0
  0
LINE
  5
3F4
330
A
100
AcDbEntity
  8
0
  6
Continuous
 62
     7
100
AcDbLine
 10
14.6596210584
 20
15.8677543547
 30
0.0
 11
8.0196210584
 21
15.8677543547
 31
0.0
  0
LINE
  5
3F5
330
A
100
AcDbEntity
  8
0
  6
Continuous
 62
     7
100
AcDbLine
 10
8.0196210584
 20
15.8677543547
 30
0.0
 11
8.0196210584
 21
15.8682081864
 31
0.0
  0
LINE
  5
3F6
330
A
100
AcDbEntity
  8
0
  6
Continuous
 62
     7
100
AcDbLine
 10
14.8596210584
 20
15.6677543547
 30
0.0
 11
14.8600748901
 21
15.6677543547
 31
0.0
  0
ARC
  5
3F7
330
A
100
AcDbEntity
  8
0
  6
Continuous
 62
     7
100
AcDbCircle
 10
14.6596210584
 20
15.6677543547
 30
0.0
 40
0.2
100
AcDbArc
 50
0.0
 51
90.0
  0
ARC
  5
3F8
330
A
100
AcDbEntity
  8
0
  6
Continuous
 62
     7
100
AcDbCircle
 10
8.0196210584
 20
15.6677543547
 30
0.0
 40
0.2
100
AcDbArc
 50
90.0
 51
180.0
  0
LINE
  5
3F9
330
A
100
AcDbEntity
  8
0
  6
Continuous
 62
     7
100
AcDbLine
 10
7.8196210584
 20
15.6677543547
 30
0.0
 11
7.8191672268
 21
15.6677543547
 31
0.0
  0
LINE
  5
3FA
330
A
100
AcDbEntity
  8
0
  6
Continuous
 62
     7
100
AcDbLine
 10
14.8596210584
 20
11.0277543547
 30
0.0
 11
14.8600748901
 21
11.0277543547
 31
0.0
  0
LINE
  5
3FB
330
A
100
AcDbEntity
  8
0
  6
Continuous
 62
     7
100
AcDbLine
 10
14.8596210584
 20
11.0277543547
 30
0.0
 11
14.8596210584
 21
15.6677543547
 31
0.0
  0
LINE
  5
3FC
330
A
100
AcDbEntity
  8
0
  6
Continuous
 62
     7
100
AcDbLine
 10
7.8196210584
 20
15.6677543547
 30
0.0
 11
7.8196210584
 21
11.0277543547
 31
0.0
  0
LINE
  5
3FD
330
A
100
AcDbEntity
  8
0
  6
Continuous
 62
     7
100
AcDbLine
 10
7.8196210584
 20
11.0277543547
 30
0.0
 11
7.8191672268
 21
11.0277543547
 31
0.0
  0
LINE
  5
3FE
330
A
100
AcDbEntity
  8
0
  6
Continuous
 62
     7
100
AcDbLine
 10
6.9497830781
 20
10.48388065649999
 30
0.0
 11
6.6998211543
 21
10.48388065649999
 31
0.0
  0
LINE
  5
3FF
330
A
100
AcDbEntity
  8
0
  6
Continuous
 62
     7
100
AcDbLine
 10
6.6998211543
 20
10.48388065649999
 30
0.0
 11
6.6998211543
 21
13.595702369
 31
0.0
  0
LWPOLYLINE
  5
400
330
A
100
AcDbEntity
  8
0
  6
Continuous
 62
     7
100
AcDbPolyline
 90
        3
 70
   128
 43
0.0
 10
6.704839630999999
 20
13.586630735
 10
6.7012777509
 20
13.590270682
 10
6.6998211543
 20
13.595702369
  0
ARC
  5
405
330
A
100
AcDbEntity
  8
0
  6
Continuous
 62
     7
100
AcDbCircle
 10
6.897578786699999
 20
14.2532375788
 30
0.0
 40
0.6939114254
100
AcDbArc
 50
253.8735846582
 51
274.3145482041999
  0
ARC
  5
406
330
A
100
AcDbEntity
  8
0
  6
Continuous
 62
     7
100
AcDbCircle
 10
15.7667791787
 20
14.3971228019
 30
0.0
 40
0.8366629119999998
100
AcDbArc
 50
267.4434193226999
 51
284.368447815
  0
LINE
  5
407
330
A
100
AcDbEntity
  8
0
  6
Continuous
 62
     7
100
AcDbLine
 10
15.72945903879999
 20
13.5612926544
 30
0.0
 11
15.72945903879999
 21
13.6106770715
 31
0.0
  0
ARC
  5
408
330
A
100
AcDbEntity
  8
0
  6
Continuous
 62
     7
100
AcDbCircle
 10
15.7708391596
 20
14.0610470646
 30
0.0
 40
0.4522670065
100
AcDbArc
 50
264.750387047
 51
289.9851993057
  0
LWPOLYLINE
  5
409
330
A
100
AcDbEntity
  8
0
  6
Continuous
 62
     7
100
AcDbPolyline
 90
        9
 70
   128
 43
0.0
 10
15.9744024859
 20
13.586630735
 10
15.9732047845
 20
13.5960801564
 10
15.97024276179999
 20
13.6051807293
 10
15.9656257681
 20
13.6135964838
 10
15.9595242511
 20
13.62101673169999
 10
15.95216346319999
 20
13.6271675364
 10
15.9438151459
 20
13.6318218258
 10
15.9347874978
 20
13.6348077756
 10
15.9254137965
 20
13.636015152
  0
LINE
  5
414
330
A
100
AcDbEntity
  8
0
  6
Continuous
 62
     7
100
AcDbLine
 10
6.9497830781
 20
13.5612926544
 30
0.0
 11
6.9497830781
 21
13.6106770715
 31
0.0
  0
LINE
  5
415
330
A
100
AcDbEntity
  8
0
  6
Continuous
 62
     7
100
AcDbLine
 10
6.9497830781
 20
13.6106770715
 30
0.0
 11
7.0421831558
 21
13.6106770715
 31
0.0
  0
LINE
  5
416
330
A
100
AcDbEntity
  8
0
  6
Continuous
 62
     7
100
AcDbLine
 10
15.6370589611
 20
13.6106770715
 30
0.0
 11
15.72945903879999
 21
13.6106770715
 31
0.0
  0
LWPOLYLINE
  5
417
330
A
100
AcDbEntity
  8
0
  6
Continuous
 62
     7
100
AcDbPolyline
 90
        9
 70
   128
 43
0.0
 10
6.704839630999999
 20
13.586630735
 10
6.7060373324
 20
13.5960801564
 10
6.708999355099999
 20
13.6051807293
 10
6.713616348799999
 20
13.6135964838
 10
6.719717865799999
 20
13.62101673169999
 10
6.727078653699999
 20
13.6271675364
 10
6.735426970999999
 20
13.6318218258
 10
6.744454619099999
 20
13.6348077756
 10
6.7538283204
 20
13.636015152
  0
ARC
  5
422
330
A
100
AcDbEntity
  8
0
  6
Continuous
 62
     7
100
AcDbCircle
 10
6.920200990899999
 20
14.1522884205
 30
0.0
 40
0.5424186144
100
AcDbArc
 50
252.1381011702
 51
273.1263124770999
  0
LINE
  5
423
330
A
100
AcDbEntity
  8
0
  6
Continuous
 62
     7
100
AcDbLine
 10
15.72945903879999
 20
10.48388065649999
 30
0.0
 11
15.9794209626
 21
10.48388065649999
 31
0.0
  0
LWPOLYLINE
  5
424
330
A
100
AcDbEntity
  8
0
  6
Continuous
 62
     7
100
AcDbPolyline
 90
        3
 70
   128
 43
0.0
 10
15.9794209626
 20
13.595702369
 10
15.9779990104
 20
13.5903329119
 10
15.9744024859
 20
13.586630735
  0
LINE
  5
429
330
A
100
AcDbEntity
  8
0
  6
Continuous
 62
     7
100
AcDbLine
 10
15.9794209626
 20
13.595702369
 30
0.0
 11
15.9794209626
 21
10.48388065649999
 31
0.0
  0
ARC
  5
42A
330
A
100
AcDbEntity
  8
0
  6
Continuous
 62
     7
100
AcDbCircle
 10
8.0196210584
 20
11.0277543547
 30
0.0
 40
0.2
100
AcDbArc
 50
180.0
 51
270.0
  0
LINE
  5
42B
330
A
100
AcDbEntity
  8
0
  6
Continuous
 62
     7
100
AcDbLine
 10
8.0196210584
 20
10.8277543547
 30
0.0
 11
8.0196210584
 21
10.8273005231
 31
0.0
  0
LINE
  5
42C
330
A
100
AcDbEntity
  8
0
  6
Continuous
 62
     7
100
AcDbLine
 10
14.6596210584
 20
10.8277543547
 30
0.0
 11
14.6596210584
 21
10.8273005231
 31
0.0
  0
ARC
  5
42D
330
A
100
AcDbEntity
  8
0
  6
Continuous
 62
     7
100
AcDbCircle
 10
14.6596210584
 20
11.0277543547
 30
0.0
 40
0.2
100
AcDbArc
 50
270.0
 51
0.0
  0
LINE
  5
42E
330
A
100
AcDbEntity
  8
0
  6
Continuous
 62
     7
100
AcDbLine
 10
8.0196210584
 20
10.8277543547
 30
0.0
 11
14.6596210584
 21
10.8277543547
 31
0.0
  0
LINE
  5
42F
330
A
100
AcDbEntity
  8
0
  6
Continuous
 62
     7
100
AcDbLine
 10
15.72945903879999
 20
10.48388065649999
 30
0.0
 11
15.72945903879999
 21
10.2376787183
 31
0.0
  0
LINE
  5
430
330
A
100
AcDbEntity
  8
0
  6
Continuous
 62
     7
100
AcDbLine
 10
15.72945903879999
 20
10.2376787183
 30
0.0
 11
6.9497830781
 21
10.2376787183
 31
0.0
  0
LINE
  5
431
330
A
100
AcDbEntity
  8
0
  6
Continuous
 62
     7
100
AcDbLine
 10
6.9497830781
 20
10.48388065649999
 30
0.0
 11
6.9497830781
 21
10.2376787183
 31
0.0
  0
LWPOLYLINE
  5
432
330
A
100
AcDbEntity
  8
0
  6
Continuous
 62
     7
100
AcDbPolyline
 90
        9
 70
   128
 43
0.0
 10
6.6998211543
 20
10.48388065649999
 10
6.7047531527
 20
10.4359402992
 10
6.7190653304
 20
10.3898351837
 10
6.742209791999999
 20
10.3473302954
 10
6.773300526599999
 20
10.3100527967
 10
6.8111473257
 20
10.27942973619999
 10
6.854301346799999
 20
10.256633419
 10
6.901110577699999
 20
10.2425365284
 10
6.9497830781
 20
10.2376787183
  0
LWPOLYLINE
  5
43D
330
A
100
AcDbEntity
  8
0
  6
Continuous
 62
     7
100
AcDbPolyline
 90
        9
 70
   128
 43
0.0
 10
15.72945903879999
 20
10.2376787183
 10
15.7781315392
 20
10.2425365284
 10
15.82494077009999
 20
10.256633419
 10
15.8680947912
 20
10.27942973619999
 10
15.9059415903
 20
10.3100527967
 10
15.9370323249
 20
10.3473302954
 10
15.96017678649999
 20
10.3898351837
 10
15.9744889642
 20
10.4359402992
 10
15.9794209626
 20
10.48388065649999
  0
ARC
  5
448
330
A
100
AcDbEntity
  8
0
  6
Continuous
 62
     7
100
AcDbCircle
 10
15.6770501731
 20
13.6002914273
 30
0.0
 40
0.0235298246
100
AcDbArc
 50
85.4202530991
 51
109.8282462762
  0
LINE
  5
449
330
A
100
AcDbEntity
  8
0
  6
Continuous
 62
     7
100
AcDbLine
 10
15.7320772985
 20
13.6237461251
 30
0.0
 11
15.67892894899999
 21
13.6237461251
 31
0.0
  0
ARC
  5
44A
330
A
100
AcDbEntity
  8
0
  6
Continuous
 62
     7
100
AcDbCircle
 10
15.7424796323
 20
14.9892671729
 30
0.0
 40
1.365560668899999
100
AcDbArc
 50
269.5635378197999
 51
277.6986408727
  0
ARC
  5
44B
330
A
100
AcDbEntity
  8
0
  6
Continuous
 62
     7
100
AcDbCircle
 10
6.9367624846
 20
14.9892671729
 30
0.0
 40
1.365560668899999
100
AcDbArc
 50
262.3013591272999
 51
270.4364621802
  0
LINE
  5
44C
330
A
100
AcDbEntity
  8
0
  6
Continuous
 62
     7
100
AcDbLine
 10
7.000313167899999
 20
13.6237461251
 30
0.0
 11
6.9471648184
 21
13.6237461251
 31
0.0
  0
ARC
  5
44D
330
A
100
AcDbEntity
  8
0
  6
Continuous
 62
     7
100
AcDbCircle
 10
7.002191943799999
 20
13.6002914274
 30
0.0
 40
0.0235298246
100
AcDbArc
 50
70.1717537235
 51
94.57974690749999
  0
ARC
  5
44E
330
A
100
AcDbEntity
  8
0
  6
Continuous
 62
     7
100
AcDbCircle
 10
7.0080095577
 20
13.2934178566
 30
0.0
 40
0.3600411887
100
AcDbArc
 50
84.9417729093
 51
91.22487164769999
  0
LINE
  5
44F
330
A
100
AcDbEntity
  8
0
  6
Continuous
 62
     7
100
AcDbLine
 10
7.000313167899999
 20
13.6533767753
 30
0.0
 11
7.000313167899999
 21
13.6237461251
 31
0.0
  0
ARC
  5
450
330
A
100
AcDbEntity
  8
0
  6
Continuous
 62
     7
100
AcDbCircle
 10
15.6712325592
 20
13.2934178566
 30
0.0
 40
0.3600411887
100
AcDbArc
 50
88.7751283521
 51
95.058227091
  0
LINE
  5
451
330
A
100
AcDbEntity
  8
0
  6
Continuous
 62
     7
100
AcDbLine
 10
15.67892894899999
 20
13.6237461251
 30
0.0
 11
15.67892894899999
 21
13.6533767753
 31
0.0
  0
LINE
  5
452
330
A
100
AcDbEntity
  8
0
  6
Continuous
 62
     7
100
AcDbLine
 10
7.0397536998
 20
16.45762171339999
 30
0.0
 11
7.000313167899999
 21
16.4970622453
 31
0.0
  0
LINE
  5
453
330
A
100
AcDbEntity
  8
0
  6
Continuous
 62
     7
100
AcDbLine
 10
7.000313167899999
 20
13.6533767753
 30
0.0
 11
7.000313167899999
 21
16.4970622453
 31
0.0
  0
LINE
  5
454
330
A
100
AcDbEntity
  8
0
  6
Continuous
 62
     7
100
AcDbLine
 10
15.6394884171
 20
16.45762171339999
 30
0.0
 11
15.67892894899999
 21
16.4970622453
 31
0.0
  0
LINE
  5
455
330
A
100
AcDbEntity
  8
0
  6
Continuous
 62
     7
100
AcDbLine
 10
15.67892894899999
 20
16.4970622453
 30
0.0
 11
15.67892894899999
 21
13.6533767753
 31
0.0
  0
LINE
  5
456
330
A
100
AcDbEntity
  8
0
  6
Continuous
 62
     7
100
AcDbLine
 10
7.000313167899999
 20
16.4970622453
 30
0.0
 11
11.2746210584
 21
16.4970622453
 31
0.0
  0
LINE
  5
457
330
A
100
AcDbEntity
  8
0
  6
Continuous
 62
     7
100
AcDbLine
 10
11.40462105839999
 20
16.4970622453
 30
0.0
 11
15.67892894899999
 21
16.4970622453
 31
0.0
  0
LINE
  5
458
330
A
100
AcDbEntity
  8
0
  6
Continuous
 62
     7
100
AcDbLine
 10
15.7320772985
 20
13.6237461251
 30
0.0
 11
15.7320772985
 21
13.6533767753
 31
0.0
  0
ARC
  5
459
330
A
100
AcDbEntity
  8
0
  6
Continuous
 62
     7
100
AcDbCircle
 10
15.7911204122
 20
14.0534184443
 30
0.0
 40
0.4043753531000001
100
AcDbArc
 50
261.6041911385
 51
298.1728212274
  0
ARC
  5
45A
330
A
100
AcDbEntity
  8
0
  6
Continuous
 62
     7
100
AcDbCircle
 10
15.910320994
 20
13.7077166358
 30
0.0
 40
0.0725218251
100
AcDbArc
 50
294.4123526492999
 51
351.4626275809
  0
LWPOLYLINE
  5
45B
330
A
100
AcDbEntity
  8
0
  6
Continuous
 62
     7
100
AcDbPolyline
 90
        3
 70
   128
 43
0.0
 10
15.9254137965
 20
13.636015152
 10
15.933321029
 20
13.6384827054
 10
15.9402943194
 20
13.6416786552
  0
LINE
  5
460
330
A
100
AcDbEntity
  8
0
  6
Continuous
 62
     7
100
AcDbLine
 10
6.9471648184
 20
13.6533767753
 30
0.0
 11
6.9471648184
 21
13.6237461251
 31
0.0
  0
LWPOLYLINE
  5
461
330
A
100
AcDbEntity
  8
0
  6
Continuous
 62
     7
100
AcDbPolyline
 90
        3
 70
   128
 43
0.0
 10
6.738947797499999
 20
13.6416786552
 10
6.745874880199999
 20
13.6385001955
 10
6.7538283204
 20
13.636015152
  0
LWPOLYLINE
  5
466
330
A
100
AcDbEntity
  8
0
  6
Continuous
 62
     7
100
AcDbPolyline
 90
        6
 70
   128
 43
0.0
 10
6.6972028946
 20
13.6969504455
 10
6.6972189218
 20
13.6966450007
 10
6.697283557399999
 20
13.6956831349
 10
6.697906158
 20
13.6909979177
 10
6.7077578378
 20
13.6689963811
 10
6.738947797499999
 20
13.6416786552
  0
ARC
  5
46E
330
A
100
AcDbEntity
  8
0
  6
Continuous
 62
     7
100
AcDbCircle
 10
6.888121704699999
 20
14.0534184443
 30
0.0
 40
0.4043753531000001
100
AcDbArc
 50
241.8271787726
 51
278.3958088615
  0
LINE
  5
46F
330
A
100
AcDbEntity
  8
0
  6
Continuous
 62
     7
100
AcDbLine
 10
15.67892894899999
 20
13.6533767753
 30
0.0
 11
15.7320772985
 21
13.6533767753
 31
0.0
  0
LINE
  5
470
330
A
100
AcDbEntity
  8
0
  6
Continuous
 62
     7
100
AcDbLine
 10
6.9471648184
 20
13.6533767753
 30
0.0
 11
7.000313167899999
 21
13.6533767753
 31
0.0
  0
ARC
  5
471
330
A
100
AcDbEntity
  8
0
  6
Continuous
 62
     7
100
AcDbCircle
 10
7.590478182
 20
17.4268972312
 30
0.0
 40
0.1199741566
100
AcDbArc
 50
269.9963862221999
 51
0.0
  0
LINE
  5
472
330
A
100
AcDbEntity
  8
0
  6
Continuous
 62
     7
100
AcDbLine
 10
7.710452338399999
 20
17.9377543547
 30
0.0
 11
7.710452338399999
 21
17.4269047982
 31
0.0
  0
LINE
  5
473
330
A
100
AcDbEntity
  8
0
  6
Continuous
 62
     7
100
AcDbLine
 10
14.9687897785
 20
17.9377543547
 30
0.0
 11
7.710452338399999
 21
17.9377543547
 31
0.0
  0
LINE
  5
474
330
A
100
AcDbEntity
  8
0
  6
Continuous
 62
     7
100
AcDbLine
 10
14.9687897785
 20
17.4269047982
 30
0.0
 11
14.9687897785
 21
17.9377543547
 31
0.0
  0
ARC
  5
475
330
A
100
AcDbEntity
  8
0
  6
Continuous
 62
     7
100
AcDbCircle
 10
15.0887639349
 20
17.4268972312
 30
0.0
 40
0.1199741566
100
AcDbArc
 50
180.0
 51
270.0036137780999
  0
LINE
  5
476
330
A
100
AcDbEntity
  8
0
  6
Continuous
 62
     7
100
AcDbLine
 10
15.72881871639999
 20
17.3069230748
 30
0.0
 11
15.0887715019
 21
17.3069230748
 31
0.0
  0
LINE
  5
477
330
A
100
AcDbEntity
  8
0
  6
Continuous
 62
     7
100
AcDbLine
 10
15.7320772985
 20
17.3068951338
 30
0.0
 11
15.72881871639999
 21
17.3069230748
 31
0.0
  0
LINE
  5
478
330
A
100
AcDbEntity
  8
0
  6
Continuous
 62
     7
100
AcDbLine
 10
15.7320772985
 20
13.6533767753
 30
0.0
 11
15.7320772985
 21
17.3068951338
 31
0.0
  0
LINE
  5
479
330
A
100
AcDbEntity
  8
0
  6
Continuous
 62
     7
100
AcDbLine
 10
6.9471648184
 20
17.3068951338
 30
0.0
 11
6.9471648184
 21
13.6533767753
 31
0.0
  0
LINE
  5
47A
330
A
100
AcDbEntity
  8
0
  6
Continuous
 62
     7
100
AcDbLine
 10
6.9504234005
 20
17.3069230748
 30
0.0
 11
6.9471648184
 21
17.3068951338
 31
0.0
  0
LINE
  5
47B
330
A
100
AcDbEntity
  8
0
  6
Continuous
 62
     7
100
AcDbLine
 10
7.590470615
 20
17.3069230748
 30
0.0
 11
6.9504234005
 21
17.3069230748
 31
0.0
  0
ARC
  5
47C
330
A
100
AcDbEntity
  8
0
  6
Continuous
 62
     7
100
AcDbCircle
 10
14.9997330863
 20
18.0117037117
 30
0.0
 40
0.0260709551
100
AcDbArc
 50
351.2870094031
 51
92.26185656410001
  0
ARC
  5
47D
330
A
100
AcDbEntity
  8
0
  6
Continuous
 62
     7
100
AcDbCircle
 10
14.948847491
 20
18.0118857726
 30
0.0
 40
0.0767669326
100
AcDbArc
 50
285.0568336723
 51
356.9149838997
  0
LWPOLYLINE
  5
47E
330
A
100
AcDbEntity
  8
0
  6
Continuous
 62
     7
100
AcDbPolyline
 90
        8
 70
   128
 43
0.0
 10
7.653738945499999
 20
18.0077543547
 10
7.6580705537
 20
17.99099756589999
 10
7.664037048099999
 20
17.9758225439
 10
7.671452208699999
 20
17.96270291589999
 10
7.680084601099999
 20
17.952048158
 10
7.6896647999
 20
17.9441908157
 10
7.699893797999999
 20
17.93937612419999
 10
7.710452338399999
 20
17.9377543547
  0
ARC
  5
488
330
A
100
AcDbEntity
  8
0
  6
Continuous
 62
     7
100
AcDbCircle
 10
7.679122783999999
 20
18.012048746
 30
0.0
 40
0.0257445344
100
AcDbArc
 50
86.84885995770001
 51
189.6022740873
  0
LINE
  5
489
330
A
100
AcDbEntity
  8
0
  6
Continuous
 62
     7
100
AcDbLine
 10
7.680537962299999
 20
18.03775435469999
 30
0.0
 11
14.9987041546
 21
18.03775435469999
 31
0.0
  0
LINE
  5
48A
330
A
100
AcDbEntity
  8
0
  6
Continuous
 62
     7
100
AcDbLine
 10
15.0287806402
 20
17.4269047982
 30
0.0
 11
14.9687897785
 21
17.4269047982
 31
0.0
  0
LINE
  5
48B
330
A
100
AcDbEntity
  8
0
  6
Continuous
 62
     7
100
AcDbLine
 10
15.0287806402
 20
18.0077543547
 30
0.0
 11
15.0255031714
 21
18.0077543547
 31
0.0
  0
LINE
  5
48C
330
A
100
AcDbEntity
  8
0
  6
Continuous
 62
     7
100
AcDbLine
 10
15.0287806402
 20
18.0077543547
 30
0.0
 11
15.0287806402
 21
17.4269047982
 31
0.0
  0
LINE
  5
48D
330
A
100
AcDbEntity
  8
0
  6
Continuous
 62
     7
100
AcDbLine
 10
7.710452338399999
 20
17.4269047982
 30
0.0
 11
7.6504614767
 21
17.4269047982
 31
0.0
  0
LINE
  5
48E
330
A
100
AcDbEntity
  8
0
  6
Continuous
 62
     7
100
AcDbLine
 10
7.6504614767
 20
17.4269047982
 30
0.0
 11
7.6504614767
 21
18.0077543547
 31
0.0
  0
LINE
  5
48F
330
A
100
AcDbEntity
  8
0
  6
Continuous
 62
     7
100
AcDbLine
 10
7.653738945499999
 20
18.0077543547
 30
0.0
 11
7.6504614767
 21
18.0077543547
 31
0.0
  0
ARC
  5
490
330
A
100
AcDbEntity
  8
0
  6
Continuous
 62
     7
100
AcDbCircle
 10
15.0887419002
 20
17.4268751965
 30
0.0
 40
0.0599612673
100
AcDbArc
 50
179.9717139741
 51
270.0282857955
  0
LINE
  5
491
330
A
100
AcDbEntity
  8
0
  6
Continuous
 62
     7
100
AcDbLine
 10
15.0887715019
 20
17.3669139365
 30
0.0
 11
15.0887715019
 21
17.3069230748
 31
0.0
  0
LINE
  5
492
330
A
100
AcDbEntity
  8
0
  6
Continuous
 62
     7
100
AcDbLine
 10
6.6972028946
 20
13.6969504455
 30
0.0
 11
6.6972028946
 21
17.1202105948
 31
0.0
  0
ARC
  5
493
330
A
100
AcDbEntity
  8
0
  6
Continuous
 62
     7
100
AcDbCircle
 10
6.923684152999999
 20
17.0776486833
 30
0.0
 40
0.2304458217
100
AcDbArc
 50
84.1518493919
 51
169.3567199499
  0
ARC
  5
494
330
A
100
AcDbEntity
  8
0
  6
Continuous
 62
     7
100
AcDbCircle
 10
15.75555796389999
 20
17.0776486833
 30
0.0
 40
0.2304458217
100
AcDbArc
 50
10.6432800501
 51
95.84815060809999
  0
LINE
  5
495
330
A
100
AcDbEntity
  8
0
  6
Continuous
 62
     7
100
AcDbLine
 10
15.98203922229999
 20
17.1202105948
 30
0.0
 11
15.98203922229999
 21
13.6969504455
 31
0.0
  0
LINE
  5
496
330
A
100
AcDbEntity
  8
0
  6
Continuous
 62
     7
100
AcDbLine
 10
7.590470615
 20
17.3069230748
 30
0.0
 11
7.590470615
 21
17.3669139365
 31
0.0
  0
ARC
  5
497
330
A
100
AcDbEntity
  8
0
  6
Continuous
 62
     7
100
AcDbCircle
 10
7.590500216699999
 20
17.4268751965
 30
0.0
 40
0.0599612673
100
AcDbArc
 50
269.9717142045
 51
0.0282863696
  0
LINE
  5
498
330
A
100
AcDbEntity
  8
0
  6
Continuous
 62
     7
100
AcDbLine
 10
15.0887715019
 20
17.3669139365
 30
0.0
 11
15.72881871639999
 21
17.3669139365
 31
0.0
  0
LINE
  5
499
330
A
100
AcDbEntity
  8
0
  6
Continuous
 62
     7
100
AcDbLine
 10
15.72881871639999
 20
17.3669139365
 30
0.0
 11
15.72881871639999
 21
17.3069230748
 31
0.0
  0
LINE
  5
49A
330
A
100
AcDbEntity
  8
0
  6
Continuous
 62
     7
100
AcDbLine
 10
15.72881871639999
 20
17.3669139365
 30
0.0
 11
15.7331060138
 21
17.3668768614
 31
0.0
  0
LINE
  5
49B
330
A
100
AcDbEntity
  8
0
  6
Continuous
 62
     7
100
AcDbLine
 10
15.7331060138
 20
17.3668768614
 30
0.0
 11
15.7320772985
 21
17.3068951338
 31
0.0
  0
LINE
  5
49C
330
A
100
AcDbEntity
  8
0
  6
Continuous
 62
     7
100
AcDbLine
 10
6.9471648184
 20
17.3068951338
 30
0.0
 11
6.946136103099999
 21
17.3668768614
 31
0.0
  0
LINE
  5
49D
330
A
100
AcDbEntity
  8
0
  6
Continuous
 62
     7
100
AcDbLine
 10
6.946136103099999
 20
17.3668768614
 30
0.0
 11
6.9504234005
 21
17.3669139365
 31
0.0
  0
LINE
  5
49E
330
A
100
AcDbEntity
  8
0
  6
Continuous
 62
     7
100
AcDbLine
 10
6.9504234005
 20
17.3069230748
 30
0.0
 11
6.9504234005
 21
17.3669139365
 31
0.0
  0
ARC
  5
49F
330
A
100
AcDbEntity
  8
0
  6
Continuous
 62
     7
100
AcDbCircle
 10
15.7297080317
 20
17.1145040253
 30
0.0
 40
0.2523957105
100
AcDbArc
 50
1.295545842299999
 51
89.22860845989999
  0
ARC
  5
4A0
330
A
100
AcDbEntity
  8
0
  6
Continuous
 62
     7
100
AcDbCircle
 10
6.949534085199999
 20
17.1145040253
 30
0.0
 40
0.2523957105
100
AcDbArc
 50
90.77139153999999
 51
178.7044541578
  0
LINE
  5
4A1
330
A
100
AcDbEntity
  8
0
  6
Continuous
 62
     7
100
AcDbLine
 10
6.9504234005
 20
17.3669139365
 30
0.0
 11
7.590470615
 21
17.3669139365
 31
0.0
  0
LINE
  5
4A2
330
A
100
AcDbEntity
  8
0
  6
Continuous
 62
     7
100
AcDbLine
 10
14.9987041546
 20
18.03775435469999
 30
0.0
 11
14.9987852094
 21
18.03775435469999
 31
0.0
  0
LWPOLYLINE
  5
4A3
330
A
100
AcDbEntity
  8
0
  6
Continuous
 62
     7
100
AcDbPolyline
 90
        9
 70
   128
 43
0.0
 10
15.0287806402
 20
18.0077543547
 10
15.02820428639999
 20
18.01360706439999
 10
15.026497374
 20
18.01923485769999
 10
15.0237254986
 20
18.0244214617
 10
15.0199951819
 20
18.0289675582
 10
15.0154497779
 20
18.03269844309999
 10
15.0102639638
 20
18.03547074069999
 10
15.0046370276
 20
18.0371779132
 10
14.9987852094
 20
18.03775435469999
  0
LINE
  5
4AE
330
A
100
AcDbEntity
  8
0
  6
Continuous
 62
     7
100
AcDbLine
 10
7.680456907499999
 20
18.03775435469999
 30
0.0
 11
7.680537962299999
 21
18.03775435469999
 31
0.0
  0
LWPOLYLINE
  5
4AF
330
A
100
AcDbEntity
  8
0
  6
Continuous
 62
     7
100
AcDbPolyline
 90
        9
 70
   128
 43
0.0
 10
7.680456907499999
 20
18.03775435469999
 10
7.674605089299999
 20
18.0371779132
 10
7.6689781531
 20
18.03547074069999
 10
7.663792338999999
 20
18.03269844309999
 10
7.659246934999999
 20
18.0289675582
 10
7.6555166183
 20
18.0244214617
 10
7.6527447429
 20
18.01923485769999
 10
7.651037830499999
 20
18.01360706439999
 10
7.6504614767
 20
18.0077543547
  0
LWPOLYLINE
  5
4BA
330
A
100
AcDbEntity
  8
0
  6
Continuous
 62
     7
100
AcDbPolyline
 90
        9
 70
   128
 43
0.0
 10
15.9794209626
 20
13.595702369
 10
15.9786666211
 20
13.60359977929999
 10
15.97652191979999
 20
13.61127418639999
 10
15.9730474199
 20
13.6185088841
 10
15.9683412323
 20
13.6250995826
 10
15.9625362483
 20
13.630860177
 10
15.9557963861
 20
13.6356280024
 10
15.9483119626
 20
13.63926842729999
 10
15.9402943194
 20
13.6416786552
  0
LWPOLYLINE
  5
4C5
330
A
100
AcDbEntity
  8
0
  6
Continuous
 62
     7
100
AcDbPolyline
 90
        9
 70
   128
 43
0.0
 10
6.6998211543
 20
13.595702369
 10
6.700575495799999
 20
13.60359977929999
 10
6.702720196999999
 20
13.61127418639999
 10
6.706194696999999
 20
13.6185088841
 10
6.7109008846
 20
13.6250995826
 10
6.7167058686
 20
13.630860177
 10
6.723445730799999
 20
13.6356280024
 10
6.7309301543
 20
13.63926842729999
 10
6.738947797499999
 20
13.6416786552
  0
LINE
  5
4D0
330
A
100
AcDbEntity
  8
0
  6
Continuous
 62
     7
100
AcDbLine
 10
15.7403407365
 20
10.1277543547
 30
0.0
 11
15.72945903879999
 21
10.2376787183
 31
0.0
  0
LINE
  5
4D1
330
A
100
AcDbEntity
  8
0
  6
Continuous
 62
     7
100
AcDbLine
 10
15.9794209626
 20
10.48388065649999
 30
0.0
 11
15.9896210584
 21
10.38084167519999
 31
0.0
  0
ARC
  5
4D2
330
A
100
AcDbEntity
  8
0
  6
Continuous
 62
     7
100
AcDbCircle
 10
15.73858123189999
 20
10.3787963473
 30
0.0
 40
0.2510481585
100
AcDbArc
 50
270.4015684173999
 51
0.466802681
  0
LINE
  5
4D3
330
A
100
AcDbEntity
  8
0
  6
Continuous
 62
     7
100
AcDbLine
 10
6.6896210584
 20
10.38084167519999
 30
0.0
 11
6.6998211543
 21
10.48388065649999
 31
0.0
  0
LINE
  5
4D4
330
A
100
AcDbEntity
  8
0
  6
Continuous
 62
     7
100
AcDbLine
 10
6.9497830781
 20
10.2376787183
 30
0.0
 11
6.938901380399999
 21
10.1277543547
 31
0.0
  0
ARC
  5
4D5
330
A
100
AcDbEntity
  8
0
  6
Continuous
 62
     7
100
AcDbCircle
 10
6.940660884999999
 20
10.3787963473
 30
0.0
 40
0.2510481585
100
AcDbArc
 50
179.5331973208
 51
269.5984315826
  0
LINE
  5
4D6
330
A
100
AcDbEntity
  8
0
  6
Continuous
 62
     7
100
AcDbLine
 10
6.938901380399999
 20
10.1277543547
 30
0.0
 11
7.071384467299999
 21
10.1277543547
 31
0.0
  0
LINE
  5
4D7
330
A
100
AcDbEntity
  8
0
  6
Continuous
 62
     7
100
AcDbLine
 10
13.41088224679999
 20
10.1277543547
 30
0.0
 11
15.7403407365
 21
10.1277543547
 31
0.0
  0
ARC
  5
4D8
330
A
100
AcDbEntity
  8
0
  6
Continuous
 62
     7
100
AcDbCircle
 10
15.0996081366
 20
17.4377414329
 30
0.0
 40
0.0599870783
100
AcDbArc
 50
180.0
 51
270.0036137782
  0
LINE
  5
4D9
330
A
100
AcDbEntity
  8
0
  6
Continuous
 62
     7
100
AcDbLine
 10
15.0996119202
 20
17.37775435469999
 30
0.0
 11
15.0887715019
 21
17.3669139365
 31
0.0
  0
LINE
  5
4DA
330
A
100
AcDbEntity
  8
0
  6
Continuous
 62
     7
100
AcDbLine
 10
15.0287806402
 20
17.4269047982
 30
0.0
 11
15.0396210584
 21
17.4377452165
 31
0.0
  0
ARC
  5
4DB
330
A
100
AcDbEntity
  8
0
  6
Continuous
 62
     7
100
AcDbCircle
 10
7.579633980299999
 20
17.4377414329
 30
0.0
 40
0.0599870783
100
AcDbArc
 50
269.9963862216999
 51
0.0
  0
LINE
  5
4DC
330
A
100
AcDbEntity
  8
0
  6
Continuous
 62
     7
100
AcDbLine
 10
7.6396210584
 20
17.4377452165
 30
0.0
 11
7.6504614767
 21
17.4269047982
 31
0.0
  0
LINE
  5
4DD
330
A
100
AcDbEntity
  8
0
  6
Continuous
 62
     7
100
AcDbLine
 10
7.590470615
 20
17.3669139365
 30
0.0
 11
7.5796301967
 21
17.37775435469999
 31
0.0
  0
LINE
  5
4DE
330
A
100
AcDbEntity
  8
0
  6
Continuous
 62
     7
100
AcDbLine
 10
15.72881871639999
 20
17.3669139365
 30
0.0
 11
15.7396591347
 21
17.37775435469999
 31
0.0
  0
ARC
  5
4DF
330
A
100
AcDbEntity
  8
0
  6
Continuous
 62
     7
100
AcDbCircle
 10
15.7396748993
 20
17.1278081956
 30
0.0
 40
0.2499461596
100
AcDbArc
 50
360.0
 51
90.003613778
  0
LINE
  5
4E0
330
A
100
AcDbEntity
  8
0
  6
Continuous
 62
     7
100
AcDbLine
 10
15.9896210584
 20
17.12779243099999
 30
0.0
 11
15.98203922229999
 21
17.1202105948
 31
0.0
  0
ARC
  5
4E1
330
A
100
AcDbEntity
  8
0
  6
Continuous
 62
     7
100
AcDbCircle
 10
6.939567217499999
 20
17.1278081956
 30
0.0
 40
0.2499461596
100
AcDbArc
 50
89.99638622209999
 51
180.0
  0
LINE
  5
4E2
330
A
100
AcDbEntity
  8
0
  6
Continuous
 62
     7
100
AcDbLine
 10
6.9395829822
 20
17.37775435469999
 30
0.0
 11
6.9504234005
 21
17.3669139365
 31
0.0
  0
LINE
  5
4E3
330
A
100
AcDbEntity
  8
0
  6
Continuous
 62
     7
100
AcDbLine
 10
6.6972028946
 20
17.1202105948
 30
0.0
 11
6.6896210584
 21
17.12779243099999
 31
0.0
  0
LINE
  5
4E4
330
A
100
AcDbEntity
  8
0
  6
Continuous
 62
     7
100
AcDbLine
 10
7.6504614767
 20
18.0077543547
 30
0.0
 11
7.649055932499999
 21
18.0077543547
 31
0.0
  0
LWPOLYLINE
  5
4E5
330
A
100
AcDbEntity
  8
0
  6
Continuous
 62
     7
100
AcDbPolyline
 90
        9
 70
   128
 43
0.0
 10
7.6790513633
 20
18.03775435469999
 10
7.6731995451
 20
18.0371779132
 10
7.667572608899999
 20
18.03547074069999
 10
7.662386794799999
 20
18.03269844309999
 10
7.657841390799999
 20
18.0289675582
 10
7.6541110741
 20
18.0244214617
 10
7.651339198699999
 20
18.01923485769999
 10
7.6496322863
 20
18.01360706439999
 10
7.649055932499999
 20
18.0077543547
  0
LINE
  5
4F0
330
A
100
AcDbEntity
  8
0
  6
Continuous
 62
     7
100
AcDbLine
 10
7.6396210584
 20
18.0077543547
 30
0.0
 11
7.6396210584
 21
17.4377452165
 31
0.0
  0
LINE
  5
4F1
330
A
100
AcDbEntity
  8
0
  6
Continuous
 62
     7
100
AcDbLine
 10
7.649055932499999
 20
18.0077543547
 30
0.0
 11
7.6396210584
 21
18.0077543547
 31
0.0
  0
LINE
  5
4F2
330
A
100
AcDbEntity
  8
0
  6
Continuous
 62
     7
100
AcDbLine
 10
15.0396210584
 20
18.0077543547
 30
0.0
 11
15.0396210584
 21
17.4377452165
 31
0.0
  0
LINE
  5
4F3
330
A
100
AcDbEntity
  8
0
  6
Continuous
 62
     7
100
AcDbLine
 10
15.0301861844
 20
18.0077543547
 30
0.0
 11
15.0287806402
 21
18.0077543547
 31
0.0
  0
LINE
  5
4F4
330
A
100
AcDbEntity
  8
0
  6
Continuous
 62
     7
100
AcDbLine
 10
15.0396210584
 20
18.0077543547
 30
0.0
 11
15.0301861844
 21
18.0077543547
 31
0.0
  0
LWPOLYLINE
  5
4F5
330
A
100
AcDbEntity
  8
0
  6
Continuous
 62
     7
100
AcDbPolyline
 90
        9
 70
   128
 43
0.0
 10
15.0301861844
 20
18.0077543547
 10
15.0296098306
 20
18.01360706439999
 10
15.0279029182
 20
18.01923485769999
 10
15.0251310428
 20
18.0244214617
 10
15.0214007261
 20
18.0289675582
 10
15.0168553221
 20
18.03269844309999
 10
15.011669508
 20
18.03547074069999
 10
15.0060425718
 20
18.0371779132
 10
15.0001907535
 20
18.03775435469999
  0
LINE
  5
500
330
A
100
AcDbEntity
  8
0
  6
Continuous
 62
     7
100
AcDbLine
 10
15.7396591347
 20
17.37775435469999
 30
0.0
 11
15.0996119202
 21
17.37775435469999
 31
0.0
  0
LINE
  5
501
330
A
100
AcDbEntity
  8
0
  6
Continuous
 62
     7
100
AcDbLine
 10
7.5796301967
 20
17.37775435469999
 30
0.0
 11
6.9395829822
 21
17.37775435469999
 31
0.0
  0
ARC
  5
502
330
A
100
AcDbEntity
  8
0
  6
Continuous
 62
     7
100
AcDbCircle
 10
13.00611805059999
 20
13.7232494187
 30
0.0
 40
2.9760373748
100
AcDbArc
 50
357.5436643515999
 51
359.4936757862
  0
ARC
  5
503
330
A
100
AcDbEntity
  8
0
  6
Continuous
 62
     7
100
AcDbCircle
 10
13.5753278192
 20
13.8241598097
 30
0.0
 40
6.8793011782
100
AcDbArc
 50
181.05955168
 51
181.9031081821999
  0
LINE
  5
504
330
A
100
AcDbEntity
  8
0
  6
Continuous
 62
     7
100
AcDbLine
 10
6.6896210584
 20
10.6277543547
 30
0.0
 11
6.6896210584
 21
10.38084167519999
 31
0.0
  0
LINE
  5
505
330
A
100
AcDbEntity
  8
0
  6
Continuous
 62
     7
100
AcDbLine
 10
6.690249440799999
 20
10.6309039466
 30
0.0
 11
6.6896210584
 21
10.6277543547
 31
0.0
  0
LINE
  5
506
330
A
100
AcDbEntity
  8
0
  6
Continuous
 62
     7
100
AcDbLine
 10
6.690249440799999
 20
10.6309039466
 30
0.0
 11
6.690249440799999
 21
10.7246047629
 31
0.0
  0
LINE
  5
507
330
A
100
AcDbEntity
  8
0
  6
Continuous
 62
     7
100
AcDbLine
 10
6.690249440799999
 20
10.7246047629
 30
0.0
 11
6.6896210584
 21
10.7277543547
 31
0.0
  0
LINE
  5
508
330
A
100
AcDbEntity
  8
0
  6
Continuous
 62
     7
100
AcDbLine
 10
6.6896210584
 20
11.0277543547
 30
0.0
 11
6.6896210584
 21
10.7277543547
 31
0.0
  0
LINE
  5
509
330
A
100
AcDbEntity
  8
0
  6
Continuous
 62
     7
100
AcDbLine
 10
6.690249440799999
 20
11.0309039466
 30
0.0
 11
6.6896210584
 21
11.0277543547
 31
0.0
  0
LINE
  5
50A
330
A
100
AcDbEntity
  8
0
  6
Continuous
 62
     7
100
AcDbLine
 10
6.690249440799999
 20
11.0309039466
 30
0.0
 11
6.690249440799999
 21
11.1246047629
 31
0.0
  0
LINE
  5
50B
330
A
100
AcDbEntity
  8
0
  6
Continuous
 62
     7
100
AcDbLine
 10
6.690249440799999
 20
11.1246047629
 30
0.0
 11
6.6896210584
 21
11.1277543547
 31
0.0
  0
LINE
  5
50C
330
A
100
AcDbEntity
  8
0
  6
Continuous
 62
     7
100
AcDbLine
 10
6.6896210584
 20
17.12779243099999
 30
0.0
 11
6.6896210584
 21
13.5777543547
 31
0.0
  0
LINE
  5
50D
330
A
100
AcDbEntity
  8
0
  6
Continuous
 62
     7
100
AcDbLine
 10
6.6896210584
 20
12.0777543547
 30
0.0
 11
6.6896210584
 21
11.1277543547
 31
0.0
  0
LINE
  5
50E
330
A
100
AcDbEntity
  8
0
  6
Continuous
 62
     7
100
AcDbLine
 10
15.9896210584
 20
10.38084167519999
 30
0.0
 11
15.9896210584
 21
17.12779243099999
 31
0.0
  0
ARC
  5
50F
330
A
100
AcDbEntity
  8
0
  6
Continuous
 62
     7
100
AcDbCircle
 10
15.00962328369999
 20
18.0077539382
 30
0.0
 40
0.0299977747
100
AcDbArc
 50
0.0
 51
45.00537568619999
  0
LWPOLYLINE
  5
510
330
A
100
AcDbEntity
  8
0
  6
Continuous
 62
     7
100
AcDbPolyline
 90
        3
 70
   128
 43
0.0
 10
15.0096164886
 20
18.03775435469999
 10
15.0210984742
 20
18.03547074069999
 10
15.0308329234
 20
18.0289675582
  0
LINE
  5
515
330
A
100
AcDbEntity
  8
0
  6
Continuous
 62
     7
100
AcDbLine
 10
7.643524357299999
 20
18.0225483617
 30
0.0
 11
7.64376194
 21
18.0229597767
 31
0.0
  0
ARC
  5
516
330
A
100
AcDbEntity
  8
0
  6
Continuous
 62
     7
100
AcDbCircle
 10
7.6696256283
 20
18.0077497846
 30
0.0
 40
0.0300045702
100
AcDbArc
 50
89.99999999649999
 51
149.5409436334
  0
LWPOLYLINE
  5
517
330
A
100
AcDbEntity
  8
0
  6
Continuous
 62
     7
100
AcDbPolyline
 90
        3
 70
   128
 43
0.0
 10
7.6396210584
 20
18.0077543547
 10
7.640613872
 20
18.0154043406
 10
7.643524357299999
 20
18.0225483617
  0
LINE
  5
51C
330
A
100
AcDbEntity
  8
0
  6
Continuous
 62
     7
100
AcDbLine
 10
7.527581688399999
 20
10.1236376402
 30
0.0
 11
7.527581688399999
 21
10.1265779843
 31
0.0
  0
LINE
  5
51D
330
A
100
AcDbEntity
  8
0
  6
Continuous
 62
     7
100
AcDbLine
 10
7.527581688399999
 20
10.1236376402
 30
0.0
 11
7.437581688399999
 21
10.1236376402
 31
0.0
  0
LINE
  5
51E
330
A
100
AcDbEntity
  8
0
  6
Continuous
 62
     7
100
AcDbLine
 10
7.437581688399999
 20
10.1265779843
 30
0.0
 11
7.437581688399999
 21
10.1236376402
 31
0.0
  0
LINE
  5
51F
330
A
100
AcDbEntity
  8
0
  6
Continuous
 62
     7
100
AcDbLine
 10
8.0875816884
 20
10.1265779843
 30
0.0
 11
8.0875816884
 21
10.1236376402
 31
0.0
  0
LINE
  5
520
330
A
100
AcDbEntity
  8
0
  6
Continuous
 62
     7
100
AcDbLine
 10
8.0875816884
 20
10.1236376402
 30
0.0
 11
7.9975816884
 21
10.1236376402
 31
0.0
  0
LINE
  5
521
330
A
100
AcDbEntity
  8
0
  6
Continuous
 62
     7
100
AcDbLine
 10
7.9975816884
 20
10.1265779843
 30
0.0
 11
7.9975816884
 21
10.1236376402
 31
0.0
  0
LINE
  5
522
330
A
100
AcDbEntity
  8
0
  6
Continuous
 62
     7
100
AcDbLine
 10
8.0875816884
 20
9.985864591
 30
0.0
 11
7.9975816884
 21
9.985864591
 31
0.0
  0
LINE
  5
523
330
A
100
AcDbEntity
  8
0
  6
Continuous
 62
     7
100
AcDbLine
 10
7.9975816884
 20
10.1236376402
 30
0.0
 11
7.9975816884
 21
9.985864591
 31
0.0
  0
LINE
  5
524
330
A
100
AcDbEntity
  8
0
  6
Continuous
 62
     7
100
AcDbLine
 10
8.0875816884
 20
9.985864591
 30
0.0
 11
8.0875816884
 21
10.1236376402
 31
0.0
  0
LINE
  5
525
330
A
100
AcDbEntity
  8
0
  6
Continuous
 62
     7
100
AcDbLine
 10
7.527581688399999
 20
9.985864591
 30
0.0
 11
7.437581688399999
 21
9.985864591
 31
0.0
  0
LINE
  5
526
330
A
100
AcDbEntity
  8
0
  6
Continuous
 62
     7
100
AcDbLine
 10
7.527581688399999
 20
9.985864591
 30
0.0
 11
7.527581688399999
 21
10.1236376402
 31
0.0
  0
LINE
  5
527
330
A
100
AcDbEntity
  8
0
  6
Continuous
 62
     7
100
AcDbLine
 10
7.437581688399999
 20
10.1236376402
 30
0.0
 11
7.437581688399999
 21
9.985864591
 31
0.0
  0
LINE
  5
528
330
A
100
AcDbEntity
  8
0
  6
Continuous
 62
     7
100
AcDbLine
 10
7.857581688399999
 20
10.093864591
 30
0.0
 11
7.857581688399999
 21
10.1265779843
 31
0.0
  0
LINE
  5
529
330
A
100
AcDbEntity
  8
0
  6
Continuous
 62
     7
100
AcDbLine
 10
7.6675816884
 20
10.1265779843
 30
0.0
 11
7.6675816884
 21
10.093864591
 31
0.0
  0
LINE
  5
52A
330
A
100
AcDbEntity
  8
0
  6
Continuous
 62
     7
100
AcDbLine
 10
7.6675816884
 20
10.093864591
 30
0.0
 11
7.857581688399999
 21
10.093864591
 31
0.0
  0
LINE
  5
52B
330
A
100
AcDbEntity
  8
0
  6
Continuous
 62
     7
100
AcDbLine
 10
7.527581688399999
 20
9.985864591
 30
0.0
 11
7.9975816884
 21
9.985864591
 31
0.0
  0
LINE
  5
52C
330
A
100
AcDbEntity
  8
0
  6
Continuous
 62
     7
100
AcDbLine
 10
9.991621058399999
 20
10.0711543547
 30
0.0
 11
10.3056210584
 21
10.0711543547
 31
0.0
  0
LINE
  5
52D
330
A
100
AcDbEntity
  8
0
  6
Continuous
 62
     7
100
AcDbLine
 10
9.991621058399999
 20
10.1265779843
 30
0.0
 11
9.991621058399999
 21
10.0711543547
 31
0.0
  0
LINE
  5
52E
330
A
100
AcDbEntity
  8
0
  6
Continuous
 62
     7
100
AcDbLine
 10
10.3056210584
 20
10.0711543547
 30
0.0
 11
10.3056210584
 21
10.1265779843
 31
0.0
  0
LINE
  5
52F
330
A
100
AcDbEntity
  8
0
  6
Continuous
 62
     7
100
AcDbLine
 10
11.1276210584
 20
10.0711543547
 30
0.0
 11
10.8136210584
 21
10.0711543547
 31
0.0
  0
LINE
  5
530
330
A
100
AcDbEntity
  8
0
  6
Continuous
 62
     7
100
AcDbLine
 10
11.1276210584
 20
10.0711543547
 30
0.0
 11
11.1276210584
 21
10.1265779843
 31
0.0
  0
LINE
  5
531
330
A
100
AcDbEntity
  8
0
  6
Continuous
 62
     7
100
AcDbLine
 10
10.8136210584
 20
10.0711543547
 30
0.0
 11
10.8136210584
 21
10.1265779843
 31
0.0
  0
LINE
  5
532
330
A
100
AcDbEntity
  8
0
  6
Continuous
 62
     7
100
AcDbLine
 10
12.6876210584
 20
10.0711543547
 30
0.0
 11
12.37362105839999
 21
10.0711543547
 31
0.0
  0
LINE
  5
533
330
A
100
AcDbEntity
  8
0
  6
Continuous
 62
     7
100
AcDbLine
 10
12.6876210584
 20
10.0711543547
 30
0.0
 11
12.6876210584
 21
10.1265779843
 31
0.0
  0
LINE
  5
534
330
A
100
AcDbEntity
  8
0
  6
Continuous
 62
     7
100
AcDbLine
 10
12.37362105839999
 20
10.0711543547
 30
0.0
 11
12.37362105839999
 21
10.1265779843
 31
0.0
  0
LINE
  5
535
330
A
100
AcDbEntity
  8
0
  6
Continuous
 62
     7
100
AcDbLine
 10
11.5516210584
 20
10.0711543547
 30
0.0
 11
11.86562105839999
 21
10.0711543547
 31
0.0
  0
LINE
  5
536
330
A
100
AcDbEntity
  8
0
  6
Continuous
 62
     7
100
AcDbLine
 10
11.5516210584
 20
10.1265779843
 30
0.0
 11
11.5516210584
 21
10.0711543547
 31
0.0
  0
LINE
  5
537
330
A
100
AcDbEntity
  8
0
  6
Continuous
 62
     7
100
AcDbLine
 10
11.86562105839999
 20
10.0711543547
 30
0.0
 11
11.86562105839999
 21
10.1265779843
 31
0.0
  0
LINE
  5
538
330
A
100
AcDbEntity
  8
0
  6
Continuous
 62
     7
100
AcDbLine
 10
11.15592027099999
 20
18.1677543547
 30
0.0
 11
11.9233218458
 21
18.1677543547
 31
0.0
  0
LINE
  5
539
330
A
100
AcDbEntity
  8
0
  6
Continuous
 62
     7
100
AcDbLine
 10
11.15592027099999
 20
18.19775435469999
 30
0.0
 11
11.15592027099999
 21
18.1677543547
 31
0.0
  0
LINE
  5
53A
330
A
100
AcDbEntity
  8
0
  6
Continuous
 62
     7
100
AcDbLine
 10
11.23592027099999
 20
18.2777543547
 30
0.0
 11
11.15592027099999
 21
18.19775435469999
 31
0.0
  0
LINE
  5
53B
330
A
100
AcDbEntity
  8
0
  6
Continuous
 62
     7
100
AcDbLine
 10
11.23592027099999
 20
18.2777543547
 30
0.0
 11
11.8433218458
 21
18.2777543547
 31
0.0
  0
LINE
  5
53C
330
A
100
AcDbEntity
  8
0
  6
Continuous
 62
     7
100
AcDbLine
 10
11.9233218458
 20
18.19775435469999
 30
0.0
 11
11.8433218458
 21
18.2777543547
 31
0.0
  0
LINE
  5
53D
330
A
100
AcDbEntity
  8
0
  6
Continuous
 62
     7
100
AcDbLine
 10
11.9233218458
 20
18.1677543547
 30
0.0
 11
11.9233218458
 21
18.19775435469999
 31
0.0
  0
LINE
  5
53E
330
A
100
AcDbEntity
  8
0
  6
Continuous
 62
     7
100
AcDbLine
 10
13.8233218458
 20
18.19775435469999
 30
0.0
 11
13.7433218458
 21
18.2777543547
 31
0.0
  0
LINE
  5
53F
330
A
100
AcDbEntity
  8
0
  6
Continuous
 62
     7
100
AcDbLine
 10
13.8233218458
 20
18.1677543547
 30
0.0
 11
13.8233218458
 21
18.19775435469999
 31
0.0
  0
LINE
  5
540
330
A
100
AcDbEntity
  8
0
  6
Continuous
 62
     7
100
AcDbLine
 10
13.055920271
 20
18.1677543547
 30
0.0
 11
13.8233218458
 21
18.1677543547
 31
0.0
  0
LINE
  5
541
330
A
100
AcDbEntity
  8
0
  6
Continuous
 62
     7
100
AcDbLine
 10
13.055920271
 20
18.19775435469999
 30
0.0
 11
13.055920271
 21
18.1677543547
 31
0.0
  0
LINE
  5
542
330
A
100
AcDbEntity
  8
0
  6
Continuous
 62
     7
100
AcDbLine
 10
13.135920271
 20
18.2777543547
 30
0.0
 11
13.055920271
 21
18.19775435469999
 31
0.0
  0
LINE
  5
543
330
A
100
AcDbEntity
  8
0
  6
Continuous
 62
     7
100
AcDbLine
 10
13.135920271
 20
18.2777543547
 30
0.0
 11
13.7433218458
 21
18.2777543547
 31
0.0
  0
LINE
  5
544
330
A
100
AcDbEntity
  8
0
  6
Continuous
 62
     7
100
AcDbLine
 10
8.855920271
 20
18.1677543547
 30
0.0
 11
9.623321845799999
 21
18.1677543547
 31
0.0
  0
LINE
  5
545
330
A
100
AcDbEntity
  8
0
  6
Continuous
 62
     7
100
AcDbLine
 10
8.855920271
 20
18.19775435469999
 30
0.0
 11
8.855920271
 21
18.1677543547
 31
0.0
  0
LINE
  5
546
330
A
100
AcDbEntity
  8
0
  6
Continuous
 62
     7
100
AcDbLine
 10
8.935920271
 20
18.2777543547
 30
0.0
 11
8.855920271
 21
18.19775435469999
 31
0.0
  0
LINE
  5
547
330
A
100
AcDbEntity
  8
0
  6
Continuous
 62
     7
100
AcDbLine
 10
8.935920271
 20
18.2777543547
 30
0.0
 11
9.543321845799999
 21
18.2777543547
 31
0.0
  0
LINE
  5
548
330
A
100
AcDbEntity
  8
0
  6
Continuous
 62
     7
100
AcDbLine
 10
9.623321845799999
 20
18.19775435469999
 30
0.0
 11
9.543321845799999
 21
18.2777543547
 31
0.0
  0
LINE
  5
549
330
A
100
AcDbEntity
  8
0
  6
Continuous
 62
     7
100
AcDbLine
 10
9.623321845799999
 20
18.1677543547
 30
0.0
 11
9.623321845799999
 21
18.19775435469999
 31
0.0
  0
LINE
  5
54A
330
A
100
AcDbEntity
  8
0
  6
Continuous
 62
     7
100
AcDbLine
 10
13.055920271
 20
18.1677543547
 30
0.0
 11
13.055920271
 21
18.03775435469999
 31
0.0
  0
LINE
  5
54B
330
A
100
AcDbEntity
  8
0
  6
Continuous
 62
     7
100
AcDbLine
 10
11.9233218458
 20
18.03775435469999
 30
0.0
 11
11.9233218458
 21
18.1677543547
 31
0.0
  0
LINE
  5
54C
330
A
100
AcDbEntity
  8
0
  6
Continuous
 62
     7
100
AcDbLine
 10
8.855920271
 20
18.1677543547
 30
0.0
 11
8.855920271
 21
18.03775435469999
 31
0.0
  0
LINE
  5
54D
330
A
100
AcDbEntity
  8
0
  6
Continuous
 62
     7
100
AcDbLine
 10
9.623321845799999
 20
18.03775435469999
 30
0.0
 11
9.623321845799999
 21
18.1677543547
 31
0.0
  0
LINE
  5
54E
330
A
100
AcDbEntity
  8
0
  6
Continuous
 62
     7
100
AcDbLine
 10
11.15592027099999
 20
18.1677543547
 30
0.0
 11
11.15592027099999
 21
18.03775435469999
 31
0.0
  0
LINE
  5
54F
330
A
100
AcDbEntity
  8
0
  6
Continuous
 62
     7
100
AcDbLine
 10
13.8233218458
 20
18.03775435469999
 30
0.0
 11
13.8233218458
 21
18.1677543547
 31
0.0
  0
LINE
  5
550
330
A
100
AcDbEntity
  8
0
  6
Continuous
 62
     7
100
AcDbLine
 10
14.98007489009999
 20
10.8273005231
 30
0.0
 11
15.2400748901
 21
10.8273005231
 31
0.0
  0
ARC
  5
551
330
A
100
AcDbEntity
  8
0
  6
Continuous
 62
     7
100
AcDbCircle
 10
14.98007489009999
 20
10.94730052309999
 30
0.0
 40
0.12
100
AcDbArc
 50
180.0
 51
270.0
  0
LINE
  5
552
330
A
100
AcDbEntity
  8
0
  6
Continuous
 62
     7
100
AcDbLine
 10
14.8600748901
 20
15.7073005231
 30
0.0
 11
14.8600748901
 21
10.94730052309999
 31
0.0
  0
ARC
  5
553
330
A
100
AcDbEntity
  8
0
  6
Continuous
 62
     7
100
AcDbCircle
 10
14.98007489009999
 20
15.7073005231
 30
0.0
 40
0.12
100
AcDbArc
 50
90.0
 51
180.0
  0
LINE
  5
554
330
A
100
AcDbEntity
  8
0
  6
Continuous
 62
     7
100
AcDbLine
 10
15.2400748901
 20
15.8273005231
 30
0.0
 11
14.98007489009999
 21
15.8273005231
 31
0.0
  0
ARC
  5
555
330
A
100
AcDbEntity
  8
0
  6
Continuous
 62
     7
100
AcDbCircle
 10
15.2400748901
 20
15.7073005231
 30
0.0
 40
0.12
100
AcDbArc
 50
0.0
 51
90.0
  0
LINE
  5
556
330
A
100
AcDbEntity
  8
0
  6
Continuous
 62
     7
100
AcDbLine
 10
15.3600748901
 20
10.94730052309999
 30
0.0
 11
15.3600748901
 21
15.7073005231
 31
0.0
  0
ARC
  5
557
330
A
100
AcDbEntity
  8
0
  6
Continuous
 62
     7
100
AcDbCircle
 10
15.2400748901
 20
10.94730052309999
 30
0.0
 40
0.12
100
AcDbArc
 50
270.0
 51
0.0
  0
LINE
  5
558
330
A
100
AcDbEntity
  8
0
  6
Continuous
 62
     7
100
AcDbLine
 10
7.111133357099999
 20
10.2376787183
 30
0.0
 11
7.111133357099999
 21
10.2349344472
 31
0.0
  0
LINE
  5
559
330
A
100
AcDbEntity
  8
0
  6
Continuous
 62
     7
100
AcDbLine
 10
13.3711333571
 20
10.2376787183
 30
0.0
 11
13.3711333571
 21
10.2349344472
 31
0.0
  0
ARC
  5
55A
330
A
100
AcDbEntity
  8
0
  6
Continuous
 62
     7
100
AcDbCircle
 10
28.25942665539999
 20
5.425655362499999
 30
0.0
 40
0.3584
100
AcDbArc
 50
281.5984020448
 51
289.2313251945
  0
ARC
  5
55B
330
A
100
AcDbEntity
  8
0
  6
Continuous
 62
     7
100
AcDbCircle
 10
28.25942665539999
 20
5.425655362499999
 30
0.0
 40
0.3584
100
AcDbArc
 50
250.7686748055
 51
258.4390143124
  0
LINE
  5
55C
330
A
100
AcDbEntity
  8
0
  6
Continuous
 62
     7
100
AcDbLine
 10
28.1875994052
 20
5.074526602399999
 30
0.0
 11
28.1882720123
 21
5.080265083699999
 31
0.0
  0
LINE
  5
55D
330
A
100
AcDbEntity
  8
0
  6
Continuous
 62
     7
100
AcDbLine
 10
28.3305812985
 20
5.080265083699999
 30
0.0
 11
28.3314831908
 21
5.0745735833
 31
0.0
  0
ARC
  5
55E
330
A
100
AcDbEntity
  8
0
  6
Continuous
 62
     7
100
AcDbCircle
 10
28.6494266554
 20
5.425655362499999
 30
0.0
 40
0.3584
100
AcDbArc
 50
281.5984020448
 51
289.2313251945
  0
ARC
  5
55F
330
A
100
AcDbEntity
  8
0
  6
Continuous
 62
     7
100
AcDbCircle
 10
28.6494266554
 20
5.425655362499999
 30
0.0
 40
0.3584
100
AcDbArc
 50
250.7686748055
 51
258.4390143124
  0
LINE
  5
560
330
A
100
AcDbEntity
  8
0
  6
Continuous
 62
     7
100
AcDbLine
 10
28.5775994052
 20
5.074526602399999
 30
0.0
 11
28.5782720123
 21
5.080265083699999
 31
0.0
  0
LINE
  5
561
330
A
100
AcDbEntity
  8
0
  6
Continuous
 62
     7
100
AcDbLine
 10
28.7205812985
 20
5.080265083699999
 30
0.0
 11
28.7214831908
 21
5.0745735833
 31
0.0
  0
LWPOLYLINE
  5
562
330
A
100
AcDbEntity
  8
0
  6
Continuous
 62
     7
100
AcDbPolyline
 90
        9
 70
   128
 43
0.0
 10
28.3428093514
 20
5.077903414299999
 10
28.3437622496
 20
5.0781841276
 10
28.34471437259999
 20
5.0784689893
 10
28.3456657091
 20
5.0787579961
 10
28.3466162476
 20
5.0790511445
 10
28.3475659769
 20
5.079348431099999
 10
28.3485148855
 20
5.0796498522
 10
28.3494629622
 20
5.079955404299999
 10
28.3504101957
 20
5.080265083699999
  0
LWPOLYLINE
  5
56D
330
A
100
AcDbEntity
  8
0
  6
Continuous
 62
     7
100
AcDbPolyline
 90
        9
 70
   128
 43
0.0
 10
28.3566999702
 20
5.0828915725
 10
28.35773347419999
 20
5.083454720099999
 10
28.3580896024
 20
5.0844499902
 10
28.3561842474
 20
5.084865580599999
 10
28.3523848017
 20
5.084696306999999
 10
28.3471415864
 20
5.083988620499999
 10
28.3409291365
 20
5.082812099599999
 10
28.3343029747
 20
5.081264847599999
 10
28.3305812985
 20
5.080265083699999
  0
LWPOLYLINE
  5
578
330
A
100
AcDbEntity
  8
0
  6
Continuous
 62
     7
100
AcDbPolyline
 90
        9
 70
   128
 43
0.0
 10
28.3305812985
 20
5.080265083699999
 10
28.3294782217
 20
5.079955404299999
 10
28.328374163
 20
5.0796498522
 10
28.3272691355
 20
5.079348431099999
 10
28.3261631523
 20
5.0790511445
 10
28.3250562268
 20
5.0787579961
 10
28.323948372
 20
5.0784689893
 10
28.3228396013
 20
5.0781841276
 10
28.3217299278
 20
5.077903414299999
  0
ARC
  5
583
330
A
100
AcDbEntity
  8
0
  6
Continuous
 62
     7
100
AcDbCircle
 10
28.3011180034
 20
5.1295154499
 30
0.0
 40
0.055575657
100
AcDbArc
 50
248.2300731263
 51
291.7699268719
  0
LWPOLYLINE
  5
584
330
A
100
AcDbEntity
  8
0
  6
Continuous
 62
     7
100
AcDbPolyline
 90
        9
 70
   128
 43
0.0
 10
28.28050607899999
 20
5.077903414299999
 10
28.2803493037
 20
5.0781841276
 10
28.280192656
 20
5.0784689893
 10
28.2800361377
 20
5.0787579961
 10
28.2798797506
 20
5.0790511445
 10
28.2797234967
 20
5.079348431099999
 10
28.2795673779
 20
5.0796498522
 10
28.2794113959
 20
5.079955404299999
 10
28.2792555526
 20
5.080265083699999
  0
ARC
  5
58F
330
A
100
AcDbEntity
  8
0
  6
Continuous
 62
     7
100
AcDbCircle
 10
28.25942665539999
 20
5.041130608699999
 30
0.0
 40
0.0438713152
100
AcDbArc
 50
63.12929775940001
 51
116.8707022371
  0
LWPOLYLINE
  5
590
330
A
100
AcDbEntity
  8
0
  6
Continuous
 62
     7
100
AcDbPolyline
 90
        9
 70
   128
 43
0.0
 10
28.2395977581
 20
5.080265083699999
 10
28.23944191489999
 20
5.079955404299999
 10
28.2392859329
 20
5.0796498522
 10
28.239129814
 20
5.079348431099999
 10
28.2389735601
 20
5.0790511445
 10
28.23881717309999
 20
5.0787579961
 10
28.2386606548
 20
5.0784689893
 10
28.238504007
 20
5.0781841276
 10
28.2383472318
 20
5.077903414299999
  0
ARC
  5
59B
330
A
100
AcDbEntity
  8
0
  6
Continuous
 62
     7
100
AcDbCircle
 10
28.2177353074
 20
5.137078091
 30
0.0
 40
0.062661741
100
AcDbArc
 50
250.7955773329
 51
289.204422666
  0
LWPOLYLINE
  5
59C
330
A
100
AcDbEntity
  8
0
  6
Continuous
 62
     7
100
AcDbPolyline
 90
        9
 70
   128
 43
0.0
 10
28.197123383
 20
5.077903414299999
 10
28.1960137095
 20
5.0781841276
 10
28.1949049387
 20
5.0784689893
 10
28.193797084
 20
5.0787579961
 10
28.1926901584
 20
5.0790511445
 10
28.1915841752
 20
5.079348431099999
 10
28.1904791477
 20
5.0796498522
 10
28.18937508899999
 20
5.079955404299999
 10
28.1882720123
 20
5.080265083699999
  0
LWPOLYLINE
  5
5A7
330
A
100
AcDbEntity
  8
0
  6
Continuous
 62
     7
100
AcDbPolyline
 90
       10
 70
   128
 43
0.0
 10
28.1882720123
 20
5.080265083699999
 10
28.1815911962
 20
5.081991206399999
 10
28.1747152427
 20
5.083456275199999
 10
28.1685998156
 20
5.0844508692
 10
28.1639992892
 20
5.0848657259
 10
28.1613005695
 20
5.0846957535
 10
28.1606573373
 20
5.083987441899999
 10
28.16211169909999
 20
5.0828103953
 10
28.1656073563
 20
5.081262765199999
 10
28.168443115
 20
5.080265083699999
  0
LWPOLYLINE
  5
5B3
330
A
100
AcDbEntity
  8
0
  6
Continuous
 62
     7
100
AcDbPolyline
 90
        9
 70
   128
 43
0.0
 10
28.168443115
 20
5.080265083699999
 10
28.16939034849999
 20
5.079955404299999
 10
28.1703384252
 20
5.0796498522
 10
28.1712873339
 20
5.079348431099999
 10
28.1722370631
 20
5.0790511445
 10
28.1731876017
 20
5.0787579961
 10
28.1741389381
 20
5.0784689893
 10
28.1750910612
 20
5.0781841276
 10
28.1760439594
 20
5.077903414299999
  0
LWPOLYLINE
  5
5BE
330
A
100
AcDbEntity
  8
0
  6
Continuous
 62
     7
100
AcDbPolyline
 90
        4
 70
   128
 43
0.0
 10
28.1760439594
 20
5.077903414299999
 10
28.18281021589999
 20
5.0759312755
 10
28.1868760846
 20
5.0747515411
 10
28.1874694275
 20
5.074579725299999
  0
LWPOLYLINE
  5
5C4
330
A
100
AcDbEntity
  8
0
  6
Continuous
 62
     7
100
AcDbPolyline
 90
        5
 70
   128
 43
0.0
 10
28.3313879277
 20
5.074580896499999
 10
28.3311796637
 20
5.074520588999999
 10
28.33353945929999
 20
5.0752043619
 10
28.33873367449999
 20
5.0767141552
 10
28.3428093514
 20
5.077903414299999
  0
LWPOLYLINE
  5
5CB
330
A
100
AcDbEntity
  8
0
  6
Continuous
 62
     7
100
AcDbPolyline
 90
        9
 70
   128
 43
0.0
 10
28.7328093514
 20
5.077903414299999
 10
28.7337622496
 20
5.0781841276
 10
28.7347143726
 20
5.0784689893
 10
28.7356657091
 20
5.0787579961
 10
28.7366162476
 20
5.0790511445
 10
28.7375659769
 20
5.079348431099999
 10
28.7385148855
 20
5.0796498522
 10
28.7394629622
 20
5.079955404299999
 10
28.7404101957
 20
5.080265083699999
  0
LWPOLYLINE
  5
5D6
330
A
100
AcDbEntity
  8
0
  6
Continuous
 62
     7
100
AcDbPolyline
 90
        8
 70
   128
 43
0.0
 10
28.7479653316
 20
5.0841026912
 10
28.7480896024
 20
5.0844499902
 10
28.74618424739999
 20
5.084865580599999
 10
28.74238480169999
 20
5.084696306999999
 10
28.7371415864
 20
5.083988620499999
 10
28.73092913649999
 20
5.082812099599999
 10
28.7243029747
 20
5.081264847599999
 10
28.7205812985
 20
5.080265083699999
  0
LWPOLYLINE
  5
5E0
330
A
100
AcDbEntity
  8
0
  6
Continuous
 62
     7
100
AcDbPolyline
 90
        9
 70
   128
 43
0.0
 10
28.7205812985
 20
5.080265083699999
 10
28.7194782217
 20
5.079955404299999
 10
28.718374163
 20
5.0796498522
 10
28.7172691355
 20
5.079348431099999
 10
28.71616315229999
 20
5.0790511445
 10
28.7150562268
 20
5.0787579961
 10
28.713948372
 20
5.0784689893
 10
28.7128396013
 20
5.0781841276
 10
28.7117299278
 20
5.077903414299999
  0
ARC
  5
5EB
330
A
100
AcDbEntity
  8
0
  6
Continuous
 62
     7
100
AcDbCircle
 10
28.6911180034
 20
5.1295154499
 30
0.0
 40
0.055575657
100
AcDbArc
 50
248.2300731223
 51
291.7699268768
  0
LWPOLYLINE
  5
5EC
330
A
100
AcDbEntity
  8
0
  6
Continuous
 62
     7
100
AcDbPolyline
 90
        9
 70
   128
 43
0.0
 10
28.67050607899999
 20
5.077903414299999
 10
28.6703493037
 20
5.0781841276
 10
28.670192656
 20
5.0784689893
 10
28.6700361377
 20
5.0787579961
 10
28.6698797506
 20
5.0790511445
 10
28.6697234967
 20
5.079348431099999
 10
28.6695673779
 20
5.0796498522
 10
28.6694113959
 20
5.079955404299999
 10
28.66925555259999
 20
5.080265083699999
  0
ARC
  5
5F7
330
A
100
AcDbEntity
  8
0
  6
Continuous
 62
     7
100
AcDbCircle
 10
28.6494266554
 20
5.041130608699999
 30
0.0
 40
0.0438713152
100
AcDbArc
 50
63.12929776059999
 51
116.8707022405999
  0
LWPOLYLINE
  5
5F8
330
A
100
AcDbEntity
  8
0
  6
Continuous
 62
     7
100
AcDbPolyline
 90
        9
 70
   128
 43
0.0
 10
28.6295977581
 20
5.080265083699999
 10
28.6294419149
 20
5.079955404299999
 10
28.6292859329
 20
5.0796498522
 10
28.629129814
 20
5.079348431099999
 10
28.6289735601
 20
5.0790511445
 10
28.6288171731
 20
5.0787579961
 10
28.6286606548
 20
5.0784689893
 10
28.628504007
 20
5.0781841276
 10
28.6283472318
 20
5.077903414299999
  0
ARC
  5
603
330
A
100
AcDbEntity
  8
0
  6
Continuous
 62
     7
100
AcDbCircle
 10
28.60773530739999
 20
5.137078091
 30
0.0
 40
0.062661741
100
AcDbArc
 50
250.7955773328
 51
289.2044226689
  0
LWPOLYLINE
  5
604
330
A
100
AcDbEntity
  8
0
  6
Continuous
 62
     7
100
AcDbPolyline
 90
        9
 70
   128
 43
0.0
 10
28.587123383
 20
5.077903414299999
 10
28.5860137095
 20
5.0781841276
 10
28.5849049387
 20
5.0784689893
 10
28.583797084
 20
5.0787579961
 10
28.58269015839999
 20
5.0790511445
 10
28.5815841752
 20
5.079348431099999
 10
28.5804791477
 20
5.0796498522
 10
28.579375089
 20
5.079955404299999
 10
28.5782720123
 20
5.080265083699999
  0
ARC
  5
60F
330
A
100
AcDbEntity
  8
0
  6
Continuous
 62
     7
100
AcDbCircle
 10
28.5570194087
 20
5.028703115299999
 30
0.0
 40
0.055770151
100
AcDbArc
 50
67.599720926
 51
96.422882357
  0
LWPOLYLINE
  5
610
330
A
100
AcDbEntity
  8
0
  6
Continuous
 62
     7
100
AcDbPolyline
 90
        9
 70
   128
 43
0.0
 10
28.558443115
 20
5.080265083699999
 10
28.5593903485
 20
5.079955404299999
 10
28.5603384252
 20
5.0796498522
 10
28.5612873339
 20
5.079348431099999
 10
28.5622370631
 20
5.0790511445
 10
28.5631876017
 20
5.0787579961
 10
28.5641389381
 20
5.0784689893
 10
28.5650910612
 20
5.0781841276
 10
28.5660439594
 20
5.077903414299999
  0
LWPOLYLINE
  5
61B
330
A
100
AcDbEntity
  8
0
  6
Continuous
 62
     7
100
AcDbPolyline
 90
        4
 70
   128
 43
0.0
 10
28.5660439594
 20
5.077903414299999
 10
28.57281021589999
 20
5.0759312755
 10
28.5768760846
 20
5.0747515411
 10
28.57746942749999
 20
5.074579725299999
  0
LWPOLYLINE
  5
621
330
A
100
AcDbEntity
  8
0
  6
Continuous
 62
     7
100
AcDbPolyline
 90
        5
 70
   128
 43
0.0
 10
28.7213879277
 20
5.074580896499999
 10
28.7211796637
 20
5.074520588999999
 10
28.7235394593
 20
5.0752043619
 10
28.72873367449999
 20
5.0767141552
 10
28.7328093514
 20
5.077903414299999
  0
LINE
  5
628
330
A
100
AcDbEntity
  8
0
  6
Continuous
 62
     7
100
AcDbLine
 10
24.9433985492
 20
4.883255362499999
 30
0.0
 11
23.8771171683
 21
4.883255362499999
 31
0.0
  0
LINE
  5
629
330
A
100
AcDbEntity
  8
0
  6
Continuous
 62
     7
100
AcDbLine
 10
23.90651104519999
 20
4.8872553625
 30
0.0
 11
23.8594266554
 21
4.8872553625
 31
0.0
  0
LINE
  5
62A
330
A
100
AcDbEntity
  8
0
  6
Continuous
 62
     7
100
AcDbLine
 10
22.0193510189
 20
6.050667406899999
 30
0.0
 11
22.0166067478
 21
6.051151295899999
 31
0.0
  0
LINE
  5
62B
330
A
100
AcDbEntity
  8
0
  6
Continuous
 62
     7
100
AcDbLine
 10
21.9957689665
 20
5.932974365599999
 30
0.0
 11
22.0166067478
 21
6.051151295899999
 31
0.0
  0
LINE
  5
62C
330
A
100
AcDbEntity
  8
0
  6
Continuous
 62
     7
100
AcDbLine
 10
21.92908806619999
 20
5.5548081884
 30
0.0
 11
21.9957689665
 21
5.932974365599999
 31
0.0
  0
LINE
  5
62D
330
A
100
AcDbEntity
  8
0
  6
Continuous
 62
     7
100
AcDbLine
 10
21.91099455599999
 20
5.436147369
 30
0.0
 11
21.90825028489999
 21
5.4366312581
 31
0.0
  0
LINE
  5
62E
330
A
100
AcDbEntity
  8
0
  6
Continuous
 62
     7
100
AcDbLine
 10
21.90825028489999
 20
5.4366312581
 30
0.0
 11
21.92908806619999
 21
5.5548081884
 31
0.0
  0
ARC
  5
62F
330
A
100
AcDbEntity
  8
0
  6
Continuous
 62
     7
100
AcDbCircle
 10
25.83098002359999
 20
5.036815909999999
 30
0.0
 40
0.476836787
100
AcDbArc
 50
141.6168268926
 51
168.3760794839999
  0
ARC
  5
630
330
A
100
AcDbEntity
  8
0
  6
Continuous
 62
     7
100
AcDbCircle
 10
26.4218445093
 20
5.020009203299999
 30
0.0
 40
1.014118539
100
AcDbArc
 50
162.0295105618
 51
173.7459010025
  0
LWPOLYLINE
  5
631
330
A
100
AcDbEntity
  8
0
  6
Continuous
 62
     7
100
AcDbPolyline
 90
        9
 70
   128
 43
0.0
 10
25.3639225793
 20
5.1328922609
 10
25.3733668554
 20
5.1322943801
 10
25.3824696717
 20
5.1317496656
 10
25.3909019138
 20
5.1312778116
 10
25.3983587123
 20
5.130895878199999
 10
25.4045704649
 20
5.130617674199999
 10
25.4093125846
 20
5.1304532582
 10
25.4124136187
 20
5.130408574599999
 10
25.413761449
 20
5.1304852389
  0
ARC
  5
63C
330
A
100
AcDbEntity
  8
0
  6
Continuous
 62
     7
100
AcDbCircle
 10
25.4522255589
 20
5.047255362499999
 30
0.0
 40
0.04
100
AcDbArc
 50
90.0
 51
179.0
  0
LINE
  5
63D
330
A
100
AcDbEntity
  8
0
  6
Continuous
 62
     7
100
AcDbLine
 10
25.413761449
 20
5.1304852389
 30
0.0
 11
25.413565156
 21
5.124349906399999
 31
0.0
  0
LINE
  5
63E
330
A
100
AcDbEntity
  8
0
  6
Continuous
 62
     7
100
AcDbLine
 10
25.4571991842
 20
5.332892260899999
 30
0.0
 11
25.4522255589
 21
5.087255362499999
 31
0.0
  0
ARC
  5
63F
330
A
100
AcDbEntity
  8
0
  6
Continuous
 62
     7
100
AcDbCircle
 10
23.90651104519999
 20
4.772892260899999
 30
0.0
 40
0.36
100
AcDbArc
 50
90.0
 51
170.0
  0
LINE
  5
640
330
A
100
AcDbEntity
  8
0
  6
Continuous
 62
     7
100
AcDbLine
 10
23.4527939746
 20
4.272892260899999
 30
0.0
 11
23.5519802541
 21
4.8354056048
 31
0.0
  0
LINE
  5
641
330
A
100
AcDbEntity
  8
0
  6
Continuous
 62
     7
100
AcDbLine
 10
22.36605933619999
 20
4.272892260899999
 30
0.0
 11
23.4527939746
 21
4.272892260899999
 31
0.0
  0
LINE
  5
642
330
A
100
AcDbEntity
  8
0
  6
Continuous
 62
     7
100
AcDbLine
 10
22.1625139758
 20
5.4272553625
 30
0.0
 11
22.36605933619999
 21
4.272892260899999
 31
0.0
  0
LINE
  5
643
330
A
100
AcDbEntity
  8
0
  6
Continuous
 62
     7
100
AcDbLine
 10
22.1625139758
 20
5.4272553625
 30
0.0
 11
28.9153649717
 21
5.4272553625
 31
0.0
  0
LINE
  5
644
330
A
100
AcDbEntity
  8
0
  6
Continuous
 62
     7
100
AcDbLine
 10
28.9120697396
 20
5.332892260899999
 30
0.0
 11
28.9153649717
 21
5.4272553625
 31
0.0
  0
LINE
  5
645
330
A
100
AcDbEntity
  8
0
  6
Continuous
 62
     7
100
AcDbLine
 10
25.4571991842
 20
5.332892260899999
 30
0.0
 11
28.9120697396
 21
5.332892260899999
 31
0.0
  0
LINE
  5
646
330
A
100
AcDbEntity
  8
0
  6
Continuous
 62
     7
100
AcDbLine
 10
23.90651104519999
 20
5.1328922609
 30
0.0
 11
25.3639225793
 21
5.1328922609
 31
0.0
  0
LINE
  5
647
330
A
100
AcDbEntity
  8
0
  6
Continuous
 62
     7
100
AcDbLine
 10
29.1653649949
 20
5.4272553625
 30
0.0
 11
29.15349193329999
 21
5.087255362499999
 31
0.0
  0
LINE
  5
648
330
A
100
AcDbEntity
  8
0
  6
Continuous
 62
     7
100
AcDbLine
 10
29.15349193329999
 20
5.087255362499999
 30
0.0
 11
29.1534564466
 21
5.087255362499999
 31
0.0
  0
ARC
  5
649
330
A
100
AcDbEntity
  8
0
  6
Continuous
 62
     7
100
AcDbCircle
 10
36.1922539232
 20
12.24568583289999
 30
0.0
 40
10.0393125619
100
AcDbArc
 50
223.5172081431
 51
225.4827916712999
  0
LINE
  5
64A
330
A
100
AcDbEntity
  8
0
  6
Continuous
 62
     7
100
AcDbLine
 10
28.9153649717
 20
5.4272553625
 30
0.0
 11
29.1653649949
 21
5.4272553625
 31
0.0
  0
LWPOLYLINE
  5
64B
330
A
100
AcDbEntity
  8
0
  6
Continuous
 62
     7
100
AcDbPolyline
 90
        9
 70
   128
 43
0.0
 10
22.36605933619999
 20
4.272892260899999
 10
22.3181189789
 20
4.264525170799999
 10
22.27201386329999
 20
4.2566454149
 10
22.229508975
 20
4.249554644399999
 10
22.1922314763
 20
4.2435243064
 10
22.1616084158
 20
4.238785252899999
 10
22.13881209859999
 20
4.2355189034
 10
22.124715208
 20
4.2338502994
 10
22.11985739789999
 20
4.233843318099999
  0
LINE
  5
656
330
A
100
AcDbEntity
  8
0
  6
Continuous
 62
     7
100
AcDbLine
 10
22.11985739789999
 20
4.233843318099999
 30
0.0
 11
21.9094266554
 21
5.4272553625
 31
0.0
  0
LINE
  5
657
330
A
100
AcDbEntity
  8
0
  6
Continuous
 62
     7
100
AcDbLine
 10
21.9094266554
 20
5.4272553625
 30
0.0
 11
22.1625139758
 21
5.4272553625
 31
0.0
  0
LINE
  5
658
330
A
100
AcDbEntity
  8
0
  6
Continuous
 62
     7
100
AcDbLine
 10
29.1534564466
 20
5.087255362499999
 30
0.0
 11
25.4522255589
 21
5.087255362499999
 31
0.0
  0
LINE
  5
659
330
A
100
AcDbEntity
  8
0
  6
Continuous
 62
     7
100
AcDbLine
 10
25.3635727713
 20
5.1222143178
 30
0.0
 11
25.3639225793
 21
5.1328922609
 31
0.0
  0
LWPOLYLINE
  5
65A
330
A
100
AcDbEntity
  8
0
  6
Continuous
 62
     7
100
AcDbPolyline
 90
        9
 70
   128
 43
0.0
 10
25.3635727713
 20
5.1222143178
 10
25.3733193715
 20
5.122102531
 10
25.38269191439999
 20
5.1221104841
 10
25.391330698
 20
5.122237872
 10
25.3989041812
 20
5.1224798056
 10
25.405121707
 20
5.1228270001
 10
25.4097446575
 20
5.1232661307
 10
25.412595612
 20
5.1237803444
 10
25.413565156
 20
5.124349906399999
  0
LINE
  5
665
330
A
100
AcDbEntity
  8
0
  6
Continuous
 62
     7
100
AcDbLine
 10
23.90651104519999
 20
4.8872553625
 30
0.0
 11
23.90651104519999
 21
5.1328922609
 31
0.0
  0
LINE
  5
666
330
A
100
AcDbEntity
  8
0
  6
Continuous
 62
     7
100
AcDbLine
 10
25.3602917922
 20
4.8872553625
 30
0.0
 11
25.3635727713
 21
5.1222143178
 31
0.0
  0
LINE
  5
667
330
A
100
AcDbEntity
  8
0
  6
Continuous
 62
     7
100
AcDbLine
 10
25.3602917922
 20
4.8872553625
 30
0.0
 11
24.3813697534
 21
4.8872553625
 31
0.0
  0
LWPOLYLINE
  5
668
330
A
100
AcDbEntity
  8
0
  6
Continuous
 62
     7
100
AcDbPolyline
 90
        3
 70
   128
 43
0.0
 10
24.23748355729999
 20
4.8872553625
 10
24.3226218532
 20
4.887491752499999
 10
24.3813697534
 20
4.8872553625
  0
LINE
  5
66D
330
A
100
AcDbEntity
  8
0
  6
Continuous
 62
     7
100
AcDbLine
 10
24.23748355729999
 20
4.8872553625
 30
0.0
 11
23.90651104519999
 21
4.8872553625
 31
0.0
  0
ARC
  5
66E
330
A
100
AcDbEntity
  8
0
  6
Continuous
 62
     7
100
AcDbCircle
 10
23.90651104519999
 20
4.7772553625
 30
0.0
 40
0.11
100
AcDbArc
 50
90.0000000002
 51
170.0
  0
LWPOLYLINE
  5
66F
330
A
100
AcDbEntity
  8
0
  6
Continuous
 62
     7
100
AcDbPolyline
 90
        9
 70
   128
 43
0.0
 10
23.7981821924
 20
4.796356661999999
 10
23.7933243823
 20
4.7963636434
 10
23.7792274917
 20
4.7980322474
 10
23.7564311744
 20
4.801298596899999
 10
23.725808114
 20
4.8060376504
 10
23.68853061529999
 20
4.812067988399999
 10
23.64602572689999
 20
4.819158758899999
 10
23.5999206114
 20
4.827038514699999
 10
23.5519802541
 20
4.8354056048
  0
LINE
  5
67A
330
A
100
AcDbEntity
  8
0
  6
Continuous
 62
     7
100
AcDbLine
 10
25.413565156
 20
5.124349906399999
 30
0.0
 11
25.410284177
 21
4.9363827422
 31
0.0
  0
ARC
  5
67B
330
A
100
AcDbEntity
  8
0
  6
Continuous
 62
     7
100
AcDbCircle
 10
25.3602917922
 20
4.9372553625
 30
0.0
 40
0.05
100
AcDbArc
 50
270.0
 51
358.9999999999
  0
LINE
  5
67C
330
A
100
AcDbEntity
  8
0
  6
Continuous
 62
     7
100
AcDbLine
 10
23.7981821924
 20
4.796356661999999
 30
0.0
 11
23.6989959128
 21
4.233843318099999
 31
0.0
  0
LWPOLYLINE
  5
67D
330
A
100
AcDbEntity
  8
0
  6
Continuous
 62
     7
100
AcDbPolyline
 90
        9
 70
   128
 43
0.0
 10
23.6989959128
 20
4.233843318099999
 10
23.6941381028
 20
4.2338502994
 10
23.6800412121
 20
4.2355189034
 10
23.6572448949
 20
4.238785252899999
 10
23.6266218344
 20
4.2435243064
 10
23.5893443357
 20
4.249554644399999
 10
23.5468394474
 20
4.2566454149
 10
23.50073433189999
 20
4.264525170799999
 10
23.4527939746
 20
4.272892260899999
  0
ARC
  5
688
330
A
100
AcDbEntity
  8
0
  6
Continuous
 62
     7
100
AcDbCircle
 10
23.4527939746
 20
4.2772553625
 30
0.0
 40
0.25
100
AcDbArc
 50
270.0
 51
350.0
  0
LINE
  5
689
330
A
100
AcDbEntity
  8
0
  6
Continuous
 62
     7
100
AcDbLine
 10
23.4527939746
 20
4.272892260899999
 30
0.0
 11
23.4527939746
 21
4.0272553625
 31
0.0
  0
LINE
  5
68A
330
A
100
AcDbEntity
  8
0
  6
Continuous
 62
     7
100
AcDbLine
 10
23.4527939746
 20
4.0272553625
 30
0.0
 11
22.36605933619999
 21
4.0272553625
 31
0.0
  0
LINE
  5
68B
330
A
100
AcDbEntity
  8
0
  6
Continuous
 62
     7
100
AcDbLine
 10
22.36605933619999
 20
4.272892260899999
 30
0.0
 11
22.36605933619999
 21
4.0272553625
 31
0.0
  0
ARC
  5
68C
330
A
100
AcDbEntity
  8
0
  6
Continuous
 62
     7
100
AcDbCircle
 10
22.36605933619999
 20
4.2772553625
 30
0.0
 40
0.25
100
AcDbArc
 50
190.0
 51
270.0
  0
LINE
  5
68D
330
A
100
AcDbEntity
  8
0
  6
Continuous
 62
     7
100
AcDbLine
 10
24.5646751509
 20
4.8872553625
 30
0.0
 11
24.3813697534
 21
4.8872553625
 31
0.0
  0
LINE
  5
68E
330
A
100
AcDbEntity
  8
0
  6
Continuous
 62
     7
100
AcDbLine
 10
24.23748355729999
 20
4.8872553625
 30
0.0
 11
24.0541781599
 21
4.8872553625
 31
0.0
  0
LINE
  5
68F
330
A
100
AcDbEntity
  8
0
  6
Continuous
 62
     7
100
AcDbLine
 10
25.99592209889999
 20
4.9328975753
 30
0.0
 11
25.9963033558
 21
4.9372553625
 31
0.0
  0
LINE
  5
690
330
A
100
AcDbEntity
  8
0
  6
Continuous
 62
     7
100
AcDbLine
 10
25.4101015271
 20
4.9328975753
 30
0.0
 11
25.99592209889999
 21
4.9328975753
 31
0.0
  0
LINE
  5
691
330
A
100
AcDbEntity
  8
0
  6
Continuous
 62
     7
100
AcDbLine
 10
25.9963033558
 20
4.9372553625
 30
0.0
 11
25.410284177
 21
4.9363827422
 31
0.0
  0
ARC
  5
692
330
A
100
AcDbEntity
  8
0
  6
Continuous
 62
     7
100
AcDbCircle
 10
25.946112364
 20
4.9372553625
 30
0.0
 40
0.05
100
AcDbArc
 50
269.9999999981
 51
354.9999999954
  0
LINE
  5
693
330
A
100
AcDbEntity
  8
0
  6
Continuous
 62
     7
100
AcDbLine
 10
25.946112364
 20
4.8872553625
 30
0.0
 11
25.3602917922
 21
4.8872553625
 31
0.0
  0
LINE
  5
694
330
A
100
AcDbEntity
  8
0
  6
Continuous
 62
     7
100
AcDbLine
 10
29.371299717
 20
5.087255362499999
 30
0.0
 11
29.3709505093
 21
5.0972553625
 31
0.0
  0
LINE
  5
695
330
A
100
AcDbEntity
  8
0
  6
Continuous
 62
     7
100
AcDbLine
 10
29.15349193329999
 20
5.087255362499999
 30
0.0
 11
29.371299717
 21
5.087255362499999
 31
0.0
  0
ARC
  5
696
330
A
100
AcDbEntity
  8
0
  6
Continuous
 62
     7
100
AcDbCircle
 10
26.0460799023
 20
5.047255362499999
 30
0.0
 40
0.04
100
AcDbArc
 50
90.0000000028
 51
174.9999999918
  0
LINE
  5
697
330
A
100
AcDbEntity
  8
0
  6
Continuous
 62
     7
100
AcDbLine
 10
25.9963033558
 20
4.9372553625
 30
0.0
 11
26.0062321144
 21
5.050741592199999
 31
0.0
  0
LINE
  5
698
330
A
100
AcDbEntity
  8
0
  6
Continuous
 62
     7
100
AcDbLine
 10
26.81555086179999
 20
5.087255362499999
 30
0.0
 11
26.768347967
 21
5.087255362499999
 31
0.0
  0
LINE
  5
699
330
A
100
AcDbEntity
  8
0
  6
Continuous
 62
     7
100
AcDbLine
 10
26.0016398072
 20
4.998251280799999
 30
0.0
 11
26.19942665539999
 21
5.087255362499999
 31
0.0
  0
LINE
  5
69A
330
A
100
AcDbEntity
  8
0
  6
Continuous
 62
     7
100
AcDbLine
 10
25.0469657644
 20
4.778539788199999
 30
0.0
 11
25.5089612229
 21
4.778539788199999
 31
0.0
  0
LINE
  5
69B
330
A
100
AcDbEntity
  8
0
  6
Continuous
 62
     7
100
AcDbLine
 10
26.19942665539999
 20
5.087255362499999
 30
0.0
 11
26.768347967
 21
5.087255362499999
 31
0.0
  0
LINE
  5
69C
330
A
100
AcDbEntity
  8
0
  6
Continuous
 62
     7
100
AcDbLine
 10
25.6159356424
 20
4.8872553625
 30
0.0
 11
25.6141596726
 21
4.785510121799999
 31
0.0
  0
LWPOLYLINE
  5
69D
330
A
100
AcDbEntity
  8
0
  6
Continuous
 62
     7
100
AcDbPolyline
 90
        9
 70
   128
 43
0.0
 10
25.6141596726
 20
4.785510121799999
 10
25.6120821098
 20
4.7837714047
 10
25.6059964186
 20
4.782175313899999
 10
25.5961517352
 20
4.780787190299999
 10
25.5829510817
 20
4.7796638609
 10
25.56693486669999
 20
4.778851312699999
 10
25.5487587626
 20
4.7783828097
 10
25.5291668634
 20
4.778277531599999
 10
25.5089612229
 20
4.778539788199999
  0
LWPOLYLINE
  5
6A8
330
A
100
AcDbEntity
  8
0
  6
Continuous
 62
     7
100
AcDbPolyline
 90
        9
 70
   128
 43
0.0
 10
24.9525599748
 20
4.778539788199999
 10
24.95446703029999
 20
4.7771529059
 10
24.9598505446
 20
4.776125453499999
 10
24.9685189804
 20
4.775493986399999
 10
24.980163928
 20
4.775280971099999
 10
24.994371078
 20
4.775493986399999
 10
25.0106349615
 20
4.776125453499999
 10
25.0283769344
 20
4.7771529059
 10
25.0469657644
 20
4.778539788199999
  0
LINE
  5
6B3
330
A
100
AcDbEntity
  8
0
  6
Continuous
 62
     7
100
AcDbLine
 10
24.9525599748
 20
4.778539788199999
 30
0.0
 11
24.9430485945
 21
4.8872553625
 31
0.0
  0
LWPOLYLINE
  5
6B4
330
A
100
AcDbEntity
  8
0
  6
Continuous
 62
     7
100
AcDbPolyline
 90
        9
 70
   128
 43
0.0
 10
25.51417490309999
 20
4.6872553625
 10
25.5132099316
 20
4.688969863299999
 10
25.51227804899999
 20
4.6940545756
 10
25.5114112095
 20
4.7023351443
 10
25.5106391371
 20
4.713527628799999
 10
25.5099883062
 20
4.727248238499999
 10
25.5094810338
 20
4.7430264935
 10
25.5091347143
 20
4.760321357099999
 10
25.5089612229
 20
4.778539788199999
  0
ARC
  5
6BF
330
A
100
AcDbEntity
  8
0
  6
Continuous
 62
     7
100
AcDbCircle
 10
25.51417490309999
 20
4.787255362499999
 30
0.0
 40
0.1
100
AcDbArc
 50
270.0
 51
358.9999999999
  0
LINE
  5
6C0
330
A
100
AcDbEntity
  8
0
  6
Continuous
 62
     7
100
AcDbLine
 10
25.51417490309999
 20
4.6872553625
 30
0.0
 11
25.0521794446
 21
4.6872553625
 31
0.0
  0
LWPOLYLINE
  5
6C1
330
A
100
AcDbEntity
  8
0
  6
Continuous
 62
     7
100
AcDbPolyline
 90
        9
 70
   128
 43
0.0
 10
25.0521794446
 20
4.6872553625
 10
25.0512144731
 20
4.688969863299999
 10
25.0502825905
 20
4.6940545756
 10
25.049415751
 20
4.7023351443
 10
25.0486436787
 20
4.713527628799999
 10
25.0479928478
 20
4.727248238499999
 10
25.0474855754
 20
4.7430264935
 10
25.0471392558
 20
4.760321357099999
 10
25.0469657644
 20
4.778539788199999
  0
ARC
  5
6CC
330
A
100
AcDbEntity
  8
0
  6
Continuous
 62
     7
100
AcDbCircle
 10
25.0521794446
 20
4.787255362499999
 30
0.0
 40
0.1
100
AcDbArc
 50
185.0
 51
270.0
  0
LINE
  5
6CD
330
A
100
AcDbEntity
  8
0
  6
Continuous
 62
     7
100
AcDbLine
 10
24.8602105058
 20
4.8872553625
 30
0.0
 11
24.7658047162
 21
4.8872553625
 31
0.0
  0
LINE
  5
6CE
330
A
100
AcDbEntity
  8
0
  6
Continuous
 62
     7
100
AcDbLine
 10
24.9430485945
 20
4.8872553625
 30
0.0
 11
24.8602105058
 21
4.8872553625
 31
0.0
  0
LINE
  5
6CF
330
A
100
AcDbEntity
  8
0
  6
Continuous
 62
     7
100
AcDbLine
 10
28.7953613774
 20
5.087255362499999
 30
0.0
 11
29.15349193329999
 21
5.087255362499999
 31
0.0
  0
LINE
  5
6D0
330
A
100
AcDbEntity
  8
0
  6
Continuous
 62
     7
100
AcDbLine
 10
21.9094266554
 20
5.4272553625
 30
0.0
 11
21.92882262319999
 21
5.3172553625
 31
0.0
  0
LINE
  5
6D1
330
A
100
AcDbEntity
  8
0
  6
Continuous
 62
     7
100
AcDbLine
 10
25.946112364
 20
4.8872553625
 30
0.0
 11
25.6159356424
 21
4.8872553625
 31
0.0
  0
LINE
  5
6D2
330
A
100
AcDbEntity
  8
0
  6
Continuous
 62
     7
100
AcDbLine
 10
28.53137581889999
 20
5.087255362499999
 30
0.0
 11
28.39766916989999
 21
5.087255362499999
 31
0.0
  0
LWPOLYLINE
  5
6D3
330
A
100
AcDbEntity
  8
0
  6
Continuous
 62
     7
100
AcDbPolyline
 90
        9
 70
   128
 43
0.0
 10
25.3773746696
 20
6.011618464099999
 10
25.3852720799
 20
6.0143853498
 10
25.392946487
 20
6.0170494649
 10
25.4001811848
 20
6.019535581399999
 10
25.4067718833
 20
6.021773497599999
 10
25.4125324776
 20
6.023700020299999
 10
25.417300303
 20
6.0252607493
 10
25.4209407279
 20
6.026411613599999
 10
25.4233509558
 20
6.027120115399999
  0
ARC
  5
6DE
330
A
100
AcDbEntity
  8
0
  6
Continuous
 62
     7
100
AcDbCircle
 10
27.90866166529999
 20
6.7651471246
 30
0.0
 40
2.592576554199999
100
AcDbArc
 50
196.5390833751
 51
200.3959667466999
  0
ARC
  5
6DF
330
A
100
AcDbEntity
  8
0
  6
Continuous
 62
     7
100
AcDbCircle
 10
25.7503074285
 20
6.154172717399999
 30
0.0
 40
0.399249994
100
AcDbArc
 50
200.9194504269999
 51
227.1182400421
  0
ARC
  5
6E0
330
A
100
AcDbEntity
  8
0
  6
Continuous
 62
     7
100
AcDbCircle
 10
25.4350490759
 20
6.1372553625
 30
0.0
 40
0.03
100
AcDbArc
 50
189.0
 51
270.0
  0
LINE
  5
6E1
330
A
100
AcDbEntity
  8
0
  6
Continuous
 62
     7
100
AcDbLine
 10
25.4350490759
 20
6.1072553625
 30
0.0
 11
25.4786227461
 21
5.8616184641
 31
0.0
  0
LWPOLYLINE
  5
6E2
330
A
100
AcDbEntity
  8
0
  6
Continuous
 62
     7
100
AcDbPolyline
 90
        3
 70
   128
 43
0.0
 10
25.4176874526
 20
6.0550987414
 10
25.420155006
 20
6.041341326699999
 10
25.4233509558
 20
6.027120115399999
  0
LINE
  5
6E7
330
A
100
AcDbEntity
  8
0
  6
Continuous
 62
     7
100
AcDbLine
 10
28.9094647316
 20
5.4272553625
 30
0.0
 11
28.9018828954
 21
5.8616184641
 31
0.0
  0
LINE
  5
6E8
330
A
100
AcDbEntity
  8
0
  6
Continuous
 62
     7
100
AcDbLine
 10
22.1625139758
 20
5.4272553625
 30
0.0
 11
28.9094647316
 21
5.4272553625
 31
0.0
  0
LINE
  5
6E9
330
A
100
AcDbEntity
  8
0
  6
Continuous
 62
     7
100
AcDbLine
 10
22.2655529572
 20
6.011618464099999
 30
0.0
 11
22.1625139758
 21
5.4272553625
 31
0.0
  0
LINE
  5
6EA
330
A
100
AcDbEntity
  8
0
  6
Continuous
 62
     7
100
AcDbLine
 10
25.3773746696
 20
6.011618464099999
 30
0.0
 11
22.2655529572
 21
6.011618464099999
 31
0.0
  0
LINE
  5
6EB
330
A
100
AcDbEntity
  8
0
  6
Continuous
 62
     7
100
AcDbLine
 10
28.9018828954
 20
5.8616184641
 30
0.0
 11
25.4786227461
 21
5.8616184641
 31
0.0
  0
LINE
  5
6EC
330
A
100
AcDbEntity
  8
0
  6
Continuous
 62
     7
100
AcDbLine
 10
29.1485862371
 20
6.048302506899999
 30
0.0
 11
29.1594266554
 21
5.4272553625
 31
0.0
  0
ARC
  5
6ED
330
A
100
AcDbEntity
  8
0
  6
Continuous
 62
     7
100
AcDbCircle
 10
33.3237633537
 20
0.2758254477
 30
0.0
 40
7.124191912699999
100
AcDbArc
 50
125.8780115274
 51
128.3661884449
  0
LINE
  5
6EE
330
A
100
AcDbEntity
  8
0
  6
Continuous
 62
     7
100
AcDbLine
 10
29.1485862371
 20
6.048302506899999
 30
0.0
 11
29.14854916199999
 21
6.048320303699999
 31
0.0
  0
LINE
  5
6EF
330
A
100
AcDbEntity
  8
0
  6
Continuous
 62
     7
100
AcDbLine
 10
21.9094266554
 20
5.4272553625
 30
0.0
 11
22.0193510189
 21
6.050667406899999
 31
0.0
  0
LWPOLYLINE
  5
6F0
330
A
100
AcDbEntity
  8
0
  6
Continuous
 62
     7
100
AcDbPolyline
 90
        9
 70
   128
 43
0.0
 10
22.0193510189
 20
6.050667406899999
 10
22.02420882899999
 20
6.0506604256
 10
22.0383057196
 20
6.048991821599999
 10
22.0611020368
 20
6.045725471999999
 10
22.0917250973
 20
6.0409864186
 10
22.129002596
 20
6.034956080599999
 10
22.1715074843
 20
6.02786531
 10
22.2176125999
 20
6.019985554199999
 10
22.2655529572
 20
6.011618464099999
  0
LINE
  5
6FB
330
A
100
AcDbEntity
  8
0
  6
Continuous
 62
     7
100
AcDbLine
 10
22.1625139758
 20
5.4272553625
 30
0.0
 11
21.9094266554
 21
5.4272553625
 31
0.0
  0
LINE
  5
6FC
330
A
100
AcDbEntity
  8
0
  6
Continuous
 62
     7
100
AcDbLine
 10
25.4350490759
 20
6.1072553625
 30
0.0
 11
29.0885674344
 21
6.1072553625
 31
0.0
  0
ARC
  5
6FD
330
A
100
AcDbEntity
  8
0
  6
Continuous
 62
     7
100
AcDbCircle
 10
36.41183108429999
 20
0.3478014319
 30
0.0
 40
9.3167322632
100
AcDbArc
 50
141.8163654676
 51
143.7138198327
  0
LWPOLYLINE
  5
6FE
330
A
100
AcDbEntity
  8
0
  6
Continuous
 62
     7
100
AcDbPolyline
 90
        9
 70
   128
 43
0.0
 10
29.14854916199999
 20
6.048320303699999
 10
29.147217037
 20
6.059873300199999
 10
29.14368153099999
 20
6.0709522589
 10
29.1380754679
 20
6.081140959399999
 10
29.13060945939999
 20
6.0900566269
 10
29.1215639927
 20
6.097364312699999
 10
29.1112788929
 20
6.1027894775
 10
29.1001405564
 20
6.1061283058
 10
29.0885674344
 20
6.1072553625
  0
LWPOLYLINE
  5
709
330
A
100
AcDbEntity
  8
0
  6
Continuous
 62
     7
100
AcDbPolyline
 90
        3
 70
   128
 43
0.0
 10
25.3773746696
 20
6.011618464099999
 10
25.37200521249999
 20
6.0342346598
 10
25.3683030356
 20
6.0572824321
  0
LWPOLYLINE
  5
70E
330
A
100
AcDbEntity
  8
0
  6
Continuous
 62
     7
100
AcDbPolyline
 90
        9
 70
   128
 43
0.0
 10
25.3683030356
 20
6.0572824321
 10
25.377752457
 20
6.0585344558
 10
25.38685303
 20
6.059370883599999
 10
25.3952687844
 20
6.059760836699999
 10
25.4026890323
 20
6.0596899192
 10
25.408839837
 20
6.059160749
 10
25.4134941265
 20
6.0581928619
 10
25.4164800762
 20
6.0568219896
 10
25.4176874526
 20
6.0550987414
  0
LINE
  5
719
330
A
100
AcDbEntity
  8
0
  6
Continuous
 62
     7
100
AcDbLine
 10
22.2655529572
 20
6.257255362499999
 30
0.0
 11
22.2655529572
 21
6.011618464099999
 31
0.0
  0
LINE
  5
71A
330
A
100
AcDbEntity
  8
0
  6
Continuous
 62
     7
100
AcDbLine
 10
22.2655529572
 20
6.257255362499999
 30
0.0
 11
25.342964955
 21
6.257255362499999
 31
0.0
  0
LINE
  5
71B
330
A
100
AcDbEntity
  8
0
  6
Continuous
 62
     7
100
AcDbLine
 10
25.3683030356
 20
6.0572824321
 30
0.0
 11
25.342964955
 21
6.257255362499999
 31
0.0
  0
ARC
  5
71C
330
A
100
AcDbEntity
  8
0
  6
Continuous
 62
     7
100
AcDbCircle
 10
22.2655529572
 20
6.007255362499999
 30
0.0
 40
0.25
100
AcDbArc
 50
90.0
 51
170.0
  0
ARC
  5
71D
330
A
100
AcDbEntity
  8
0
  6
Continuous
 62
     7
100
AcDbCircle
 10
25.342964955
 20
6.207255362499999
 30
0.0
 40
0.05
100
AcDbArc
 50
9.0
 51
90.0
  0
LINE
  5
71E
330
A
100
AcDbEntity
  8
0
  6
Continuous
 62
     7
100
AcDbLine
 10
25.3923493721
 20
6.215077085699999
 30
0.0
 11
25.4176874526
 21
6.0550987414
 31
0.0
  0
ARC
  5
71F
330
A
100
AcDbEntity
  8
0
  6
Continuous
 62
     7
100
AcDbCircle
 10
29.0885953754
 20
6.047255362499999
 30
0.0
 40
0.06
100
AcDbArc
 50
1.0
 51
90.0
  0
LINE
  5
720
330
A
100
AcDbEntity
  8
0
  6
Continuous
 62
     7
100
AcDbLine
 10
25.43372920559999
 20
6.140588695799999
 30
0.0
 11
25.4350490759
 21
6.1072553625
 31
0.0
  0
LINE
  5
721
330
A
100
AcDbEntity
  8
0
  6
Continuous
 62
     7
100
AcDbLine
 10
28.239294014
 20
6.140588695799999
 30
0.0
 11
25.43372920559999
 21
6.140588695799999
 31
0.0
  0
ARC
  5
722
330
A
100
AcDbEntity
  8
0
  6
Continuous
 62
     7
100
AcDbCircle
 10
28.2787345459
 20
6.1472553625
 30
0.0
 40
0.04
100
AcDbArc
 50
189.5940682355999
 51
269.9999999948
  0
LWPOLYLINE
  5
723
330
A
100
AcDbEntity
  8
0
  6
Continuous
 62
     7
100
AcDbPolyline
 90
        9
 70
   128
 43
0.0
 10
25.4040985554
 20
6.1408956619
 10
25.4047975084
 20
6.140046576399999
 10
25.4065717975
 20
6.1394034809
 10
25.4093554759
 20
6.138990278099999
 10
25.4130450794
 20
6.138822325999999
 10
25.4175034726
 20
6.1389058669
 10
25.4225649454
 20
6.139237795899999
 10
25.4280413725
 20
6.1398057758
 10
25.43372920559999
 20
6.140588695799999
  0
LWPOLYLINE
  5
72E
330
A
100
AcDbEntity
  8
0
  6
Continuous
 62
     7
100
AcDbPolyline
 90
        6
 70
   128
 43
0.0
 10
25.41129140989999
 20
6.257255362499999
 10
25.4111411298
 20
6.257254174399999
 10
25.4082226157
 20
6.2567343897
 10
25.399659256
 20
6.248518620599999
 10
25.392604328
 20
6.228167381599999
 10
25.3923493721
 20
6.215077085699999
  0
LINE
  5
736
330
A
100
AcDbEntity
  8
0
  6
Continuous
 62
     7
100
AcDbLine
 10
25.41129140989999
 20
6.257255362499999
 30
0.0
 11
25.43372920559999
 21
6.140588695799999
 31
0.0
  0
ARC
  5
737
330
A
100
AcDbEntity
  8
0
  6
Continuous
 62
     7
100
AcDbCircle
 10
28.1012521524
 20
6.117255362499999
 30
0.0
 40
0.14
100
AcDbArc
 50
9.594068226999999
 51
89.9999999999
  0
LINE
  5
738
330
A
100
AcDbEntity
  8
0
  6
Continuous
 62
     7
100
AcDbLine
 10
28.0992307788
 20
6.257255362499999
 30
0.0
 11
28.1012521524
 21
6.257255362499999
 31
0.0
  0
LINE
  5
739
330
A
100
AcDbEntity
  8
0
  6
Continuous
 62
     7
100
AcDbLine
 10
25.41129140989999
 20
6.257255362499999
 30
0.0
 11
28.0992307788
 21
6.257255362499999
 31
0.0
  0
LINE
  5
73A
330
A
100
AcDbEntity
  8
0
  6
Continuous
 62
     7
100
AcDbLine
 10
25.342964955
 20
6.257255362499999
 30
0.0
 11
25.41129140989999
 21
6.257255362499999
 31
0.0
  0
ARC
  5
73B
330
A
100
AcDbEntity
  8
0
  6
Continuous
 62
     7
100
AcDbCircle
 10
29.178581668
 20
5.189102552299999
 30
0.0
 40
0.8597233787
100
AcDbArc
 50
88.0005656468
 51
91.9994343531
  0
LINE
  5
73C
330
A
100
AcDbEntity
  8
0
  6
Continuous
 62
     7
100
AcDbLine
 10
29.20857709879999
 20
6.048302506899999
 30
0.0
 11
29.21941751709999
 21
5.4272553625
 31
0.0
  0
LINE
  5
73D
330
A
100
AcDbEntity
  8
0
  6
Continuous
 62
     7
100
AcDbLine
 10
29.21941751709999
 20
5.4272553625
 30
0.0
 11
29.1653649949
 21
5.4272553625
 31
0.0
  0
LINE
  5
73E
330
A
100
AcDbEntity
  8
0
  6
Continuous
 62
     7
100
AcDbLine
 10
29.20857709879999
 20
6.048302506899999
 30
0.0
 11
29.20857709879999
 21
6.1072553625
 31
0.0
  0
LINE
  5
73F
330
A
100
AcDbEntity
  8
0
  6
Continuous
 62
     7
100
AcDbLine
 10
29.0885953754
 20
6.1072553625
 30
0.0
 11
29.20857709879999
 21
6.1072553625
 31
0.0
  0
LINE
  5
740
330
A
100
AcDbEntity
  8
0
  6
Continuous
 62
     7
100
AcDbLine
 10
29.78942665539999
 20
5.0972553625
 30
0.0
 11
29.78942665539999
 21
5.4272553625
 31
0.0
  0
LINE
  5
741
330
A
100
AcDbEntity
  8
0
  6
Continuous
 62
     7
100
AcDbLine
 10
29.78942665539999
 20
5.0972553625
 30
0.0
 11
29.2009505093
 21
5.0972553625
 31
0.0
  0
LINE
  5
742
330
A
100
AcDbEntity
  8
0
  6
Continuous
 62
     7
100
AcDbLine
 10
29.2009505093
 20
5.0972553625
 30
0.0
 11
29.18942665539999
 21
5.4272553625
 31
0.0
  0
LINE
  5
743
330
A
100
AcDbEntity
  8
0
  6
Continuous
 62
     7
100
AcDbLine
 10
29.78942665539999
 20
5.4272553625
 30
0.0
 11
29.21941751709999
 21
5.4272553625
 31
0.0
  0
LINE
  5
744
330
A
100
AcDbEntity
  8
0
  6
Continuous
 62
     7
100
AcDbLine
 10
29.8079028014
 20
5.0972553625
 30
0.0
 11
29.8194266554
 21
5.4272553625
 31
0.0
  0
LINE
  5
745
330
A
100
AcDbEntity
  8
0
  6
Continuous
 62
     7
100
AcDbLine
 10
29.8079028014
 20
5.0972553625
 30
0.0
 11
29.78942665539999
 21
5.0972553625
 31
0.0
  0
LWPOLYLINE
  5
746
330
A
100
AcDbEntity
  8
0
  6
Continuous
 62
     7
100
AcDbPolyline
 90
        4
 70
   128
 43
0.0
 10
29.8106398588
 20
5.4272553625
 10
29.80589211159999
 20
5.4272557251
 10
29.8006085502
 20
5.4272559843
 10
29.78942665539999
 20
5.4272553625
  0
LWPOLYLINE
  5
74C
330
A
100
AcDbEntity
  8
0
  6
Continuous
 62
     7
100
AcDbPolyline
 90
        3
 70
   128
 43
0.0
 10
29.8194266554
 20
5.4272553625
 10
29.8171430413
 20
5.4272706142
 10
29.8106398588
 20
5.4272553625
  0
LINE
  5
751
330
A
100
AcDbEntity
  8
0
  6
Continuous
 62
     7
100
AcDbLine
 10
29.78942665539999
 20
6.048302506899999
 30
0.0
 11
29.20857709879999
 21
6.048302506899999
 31
0.0
  0
LINE
  5
752
330
A
100
AcDbEntity
  8
0
  6
Continuous
 62
     7
100
AcDbLine
 10
29.78942665539999
 20
5.9677789347
 30
0.0
 11
29.78942665539999
 21
6.048302506899999
 31
0.0
  0
LINE
  5
753
330
A
100
AcDbEntity
  8
0
  6
Continuous
 62
     7
100
AcDbLine
 10
29.78942665539999
 20
5.4272553625
 30
0.0
 11
29.78942665539999
 21
5.9677789347
 31
0.0
  0
LWPOLYLINE
  5
754
330
A
100
AcDbEntity
  8
0
  6
Continuous
 62
     7
100
AcDbPolyline
 90
        9
 70
   128
 43
0.0
 10
29.78942665539999
 20
5.9677789347
 10
29.795279365
 20
5.967768874399999
 10
29.8009071583
 20
5.9677390801
 10
29.8060937624
 20
5.9676906969
 10
29.8106398588
 20
5.9676255839
 10
29.8143707437
 20
5.9675462436
 10
29.8171430413
 20
5.967455724899999
 10
29.8188502138
 20
5.967357506399999
 10
29.8194266554
 20
5.9672553625
  0
LINE
  5
75F
330
A
100
AcDbEntity
  8
0
  6
Continuous
 62
     7
100
AcDbLine
 10
29.8194266554
 20
5.9672553625
 30
0.0
 11
29.8194266554
 21
5.4272553625
 31
0.0
  0
LWPOLYLINE
  5
760
330
A
100
AcDbEntity
  8
0
  6
Continuous
 62
     7
100
AcDbPolyline
 90
        9
 70
   128
 43
0.0
 10
29.78942665539999
 20
6.048302506899999
 10
29.795279365
 20
6.048292446599999
 10
29.8009071583
 20
6.0482626523
 10
29.8060937624
 20
6.048214268999999
 10
29.8106398588
 20
6.0481491561
 10
29.8143707437
 20
6.048069815799999
 10
29.8171430413
 20
6.0479792971
 10
29.8188502138
 20
6.047881078499999
 10
29.8194266554
 20
6.0477789347
  0
LINE
  5
76B
330
A
100
AcDbEntity
  8
0
  6
Continuous
 62
     7
100
AcDbLine
 10
29.8194266554
 20
6.0477789347
 30
0.0
 11
29.8194266554
 21
5.9672553625
 31
0.0
  0
LINE
  5
76C
330
A
100
AcDbEntity
  8
0
  6
Continuous
 62
     7
100
AcDbLine
 10
29.7194266554
 20
6.1072553625
 30
0.0
 11
29.78942665539999
 21
6.066840843599999
 31
0.0
  0
LINE
  5
76D
330
A
100
AcDbEntity
  8
0
  6
Continuous
 62
     7
100
AcDbLine
 10
29.78942665539999
 20
6.048302506899999
 30
0.0
 11
29.78942665539999
 21
6.066840843599999
 31
0.0
  0
LINE
  5
76E
330
A
100
AcDbEntity
  8
0
  6
Continuous
 62
     7
100
AcDbLine
 10
29.20857709879999
 20
6.1072553625
 30
0.0
 11
29.7194266554
 21
6.1072553625
 31
0.0
  0
LINE
  5
76F
330
A
100
AcDbEntity
  8
0
  6
Continuous
 62
     7
100
AcDbLine
 10
29.8194266554
 20
6.049520335599999
 30
0.0
 11
29.8194266554
 21
6.0477789347
 31
0.0
  0
LINE
  5
770
330
A
100
AcDbEntity
  8
0
  6
Continuous
 62
     7
100
AcDbLine
 10
29.78942665539999
 20
6.066840843599999
 30
0.0
 11
29.8194266554
 21
6.049520335599999
 31
0.0
  0
LINE
  5
771
330
A
100
AcDbEntity
  8
0
  6
Continuous
 62
     7
100
AcDbLine
 10
29.8194266554
 20
5.9672553625
 30
0.0
 11
29.8194266554
 21
5.9083025069
 31
0.0
  0
LINE
  5
772
330
A
100
AcDbEntity
  8
0
  6
Continuous
 62
     7
100
AcDbLine
 10
29.8194266554
 20
5.9083025069
 30
0.0
 11
29.8194266554
 21
5.489255362499999
 31
0.0
  0
LINE
  5
773
330
A
100
AcDbEntity
  8
0
  6
Continuous
 62
     7
100
AcDbLine
 10
28.8094342706
 20
6.1072553625
 30
0.0
 11
28.8068160109
 21
6.257255362499999
 31
0.0
  0
LINE
  5
774
330
A
100
AcDbEntity
  8
0
  6
Continuous
 62
     7
100
AcDbLine
 10
28.1012521524
 20
6.257255362499999
 30
0.0
 11
28.8068160109
 21
6.257255362499999
 31
0.0
  0
LINE
  5
775
330
A
100
AcDbEntity
  8
0
  6
Continuous
 62
     7
100
AcDbLine
 10
28.8568083956
 20
6.257255362499999
 30
0.0
 11
28.8594266554
 21
6.1072553625
 31
0.0
  0
LINE
  5
776
330
A
100
AcDbEntity
  8
0
  6
Continuous
 62
     7
100
AcDbLine
 10
28.8068160109
 20
6.257255362499999
 30
0.0
 11
28.8568083956
 21
6.257255362499999
 31
0.0
  0
LINE
  5
777
330
A
100
AcDbEntity
  8
0
  6
Continuous
 62
     7
100
AcDbLine
 10
22.0611668128
 20
4.566694166099999
 30
0.0
 11
22.0611668128
 21
4.490924653799999
 31
0.0
  0
LINE
  5
778
330
A
100
AcDbEntity
  8
0
  6
Continuous
 62
     7
100
AcDbLine
 10
22.0611668128
 20
4.490924653799999
 30
0.0
 11
21.9824266554
 21
4.490924653799999
 31
0.0
  0
LINE
  5
779
330
A
100
AcDbEntity
  8
0
  6
Continuous
 62
     7
100
AcDbLine
 10
21.9824266554
 20
4.490924653799999
 30
0.0
 11
21.9824266554
 21
5.013251789699999
 31
0.0
  0
LINE
  5
77A
330
A
100
AcDbEntity
  8
0
  6
Continuous
 62
     7
100
AcDbLine
 10
22.07175021929999
 20
4.506672685299999
 30
0.0
 11
22.0611668128
 21
4.506672685299999
 31
0.0
  0
LINE
  5
77B
330
A
100
AcDbEntity
  8
0
  6
Continuous
 62
     7
100
AcDbLine
 10
21.76753689159999
 20
4.711712055399999
 30
0.0
 11
21.76753689159999
 21
4.831712055399999
 31
0.0
  0
LINE
  5
77C
330
A
100
AcDbEntity
  8
0
  6
Continuous
 62
     7
100
AcDbLine
 10
21.76753689159999
 20
4.831712055399999
 30
0.0
 11
21.90530994089999
 21
4.9112553625
 31
0.0
  0
LINE
  5
77D
330
A
100
AcDbEntity
  8
0
  6
Continuous
 62
     7
100
AcDbLine
 10
21.92942665539999
 20
4.9112553625
 30
0.0
 11
21.90530994089999
 21
4.9112553625
 31
0.0
  0
LINE
  5
77E
330
A
100
AcDbEntity
  8
0
  6
Continuous
 62
     7
100
AcDbLine
 10
21.92942665539999
 20
4.711712055399999
 30
0.0
 11
21.76753689159999
 21
4.711712055399999
 31
0.0
  0
LINE
  5
77F
330
A
100
AcDbEntity
  8
0
  6
Continuous
 62
     7
100
AcDbLine
 10
21.96942665539999
 20
4.465255362499999
 30
0.0
 11
21.96942665539999
 21
4.665255362499999
 31
0.0
  0
LINE
  5
780
330
A
100
AcDbEntity
  8
0
  6
Continuous
 62
     7
100
AcDbLine
 10
21.9824266554
 20
4.6623624108
 30
0.0
 11
21.96942665539999
 21
4.665255362499999
 31
0.0
  0
LWPOLYLINE
  5
781
330
A
100
AcDbEntity
  8
0
  6
Continuous
 62
     7
100
AcDbPolyline
 90
        3
 70
   128
 43
0.0
 10
21.96942665539999
 20
4.465255362499999
 10
22.0490511758
 20
4.482974585
 10
22.07491646489999
 20
4.488716014599999
  0
LINE
  5
786
330
A
100
AcDbEntity
  8
0
  6
Continuous
 62
     7
100
AcDbLine
 10
21.96942665539999
 20
4.9852553625
 30
0.0
 11
21.9824266554
 21
4.9881483142
 31
0.0
  0
LINE
  5
787
330
A
100
AcDbEntity
  8
0
  6
Continuous
 62
     7
100
AcDbLine
 10
21.96942665539999
 20
4.9852553625
 30
0.0
 11
21.96942665539999
 21
5.0869784533
 31
0.0
  0
LINE
  5
788
330
A
100
AcDbEntity
  8
0
  6
Continuous
 62
     7
100
AcDbLine
 10
22.1072655277
 20
4.305255362499999
 30
0.0
 11
21.92942665539999
 21
4.305255362499999
 31
0.0
  0
LINE
  5
789
330
A
100
AcDbEntity
  8
0
  6
Continuous
 62
     7
100
AcDbLine
 10
21.92942665539999
 20
4.305255362499999
 30
0.0
 11
21.92942665539999
 21
5.313829726099999
 31
0.0
  0
LINE
  5
78A
330
A
100
AcDbEntity
  8
0
  6
Continuous
 62
     7
100
AcDbLine
 10
22.0817067329
 20
4.4502064908
 30
0.0
 11
21.96942665539999
 21
4.425255362499999
 31
0.0
  0
LINE
  5
78B
330
A
100
AcDbEntity
  8
0
  6
Continuous
 62
     7
100
AcDbLine
 10
21.96942665539999
 20
4.705255362499999
 30
0.0
 11
21.9824266554
 21
4.702366473599999
 31
0.0
  0
LINE
  5
78C
330
A
100
AcDbEntity
  8
0
  6
Continuous
 62
     7
100
AcDbLine
 10
21.96942665539999
 20
4.665255362499999
 30
0.0
 11
21.96942665539999
 21
4.705255362499999
 31
0.0
  0
LINE
  5
78D
330
A
100
AcDbEntity
  8
0
  6
Continuous
 62
     7
100
AcDbLine
 10
21.96942665539999
 20
4.425255362499999
 30
0.0
 11
21.96942665539999
 21
4.465255362499999
 31
0.0
  0
LINE
  5
78E
330
A
100
AcDbEntity
  8
0
  6
Continuous
 62
     7
100
AcDbLine
 10
21.9824266554
 20
4.948144251399999
 30
0.0
 11
21.96942665539999
 21
4.9452553625
 31
0.0
  0
LINE
  5
78F
330
A
100
AcDbEntity
  8
0
  6
Continuous
 62
     7
100
AcDbLine
 10
21.96942665539999
 20
4.9452553625
 30
0.0
 11
21.96942665539999
 21
4.9852553625
 31
0.0
  0
LINE
  5
790
330
A
100
AcDbEntity
  8
0
  6
Continuous
 62
     7
100
AcDbLine
 10
21.8528266554
 20
4.5382553625
 30
0.0
 11
21.92942665539999
 21
4.5382553625
 31
0.0
  0
LINE
  5
791
330
A
100
AcDbEntity
  8
0
  6
Continuous
 62
     7
100
AcDbLine
 10
21.8528266554
 20
4.4002553625
 30
0.0
 11
21.92942665539999
 21
4.4002553625
 31
0.0
  0
LINE
  5
792
330
A
100
AcDbEntity
  8
0
  6
Continuous
 62
     7
100
AcDbLine
 10
21.8528266554
 20
4.4002553625
 30
0.0
 11
21.8528266554
 21
4.5382553625
 31
0.0
  0
LWPOLYLINE
  5
793
330
A
100
AcDbEntity
  8
0
  6
Continuous
 62
     7
100
AcDbPolyline
 90
        3
 70
   128
 43
0.0
 10
22.1195516138
 20
4.234941103799999
 10
22.0490511758
 20
4.2592212141
 10
21.96942665539999
 20
4.305255362499999
  0
LWPOLYLINE
  5
798
330
A
100
AcDbEntity
  8
0
  6
Continuous
 62
     7
100
AcDbPolyline
 90
        3
 70
   128
 43
0.0
 10
22.117352801
 20
4.248047592699999
 10
22.05518674789999
 20
4.2696635353
 10
21.9953269907
 20
4.305255362499999
  0
LINE
  5
79D
330
A
100
AcDbEntity
  8
0
  6
Continuous
 62
     7
100
AcDbLine
 10
29.94942665539999
 20
5.489255362499999
 30
0.0
 11
29.9794266554
 21
5.474528089799999
 31
0.0
  0
LINE
  5
79E
330
A
100
AcDbEntity
  8
0
  6
Continuous
 62
     7
100
AcDbLine
 10
29.9794266554
 20
5.3799826352
 30
0.0
 11
29.9794266554
 21
5.474528089799999
 31
0.0
  0
LINE
  5
79F
330
A
100
AcDbEntity
  8
0
  6
Continuous
 62
     7
100
AcDbLine
 10
29.9794266554
 20
5.3799826352
 30
0.0
 11
29.94942665539999
 21
5.3652553625
 31
0.0
  0
LINE
  5
7A0
330
A
100
AcDbEntity
  8
0
  6
Continuous
 62
     7
100
AcDbLine
 10
29.8194266554
 20
5.489255362499999
 30
0.0
 11
29.94942665539999
 21
5.489255362499999
 31
0.0
  0
LINE
  5
7A1
330
A
100
AcDbEntity
  8
0
  6
Continuous
 62
     7
100
AcDbLine
 10
29.8172615677
 20
5.3652553625
 30
0.0
 11
29.94942665539999
 21
5.3652553625
 31
0.0
  0
LINE
  5
7A2
330
A
100
AcDbEntity
  8
0
  6
Continuous
 62
     7
100
AcDbLine
 10
30.0594266554
 20
5.4352553625
 30
0.0
 11
30.0594266554
 21
5.4192553625
 31
0.0
  0
LINE
  5
7A3
330
A
100
AcDbEntity
  8
0
  6
Continuous
 62
     7
100
AcDbLine
 10
29.9794266554
 20
5.474528089799999
 30
0.0
 11
30.0594266554
 21
5.4352553625
 31
0.0
  0
LINE
  5
7A4
330
A
100
AcDbEntity
  8
0
  6
Continuous
 62
     7
100
AcDbLine
 10
30.0594266554
 20
5.4192553625
 30
0.0
 11
29.9794266554
 21
5.3799826352
 31
0.0
  0
LINE
  5
7A5
330
A
100
AcDbEntity
  8
0
  6
Continuous
 62
     7
100
AcDbLine
 10
27.6089728237
 20
6.257255362499999
 30
0.0
 11
27.6089728237
 21
6.2672553625
 31
0.0
  0
LINE
  5
7A6
330
A
100
AcDbEntity
  8
0
  6
Continuous
 62
     7
100
AcDbLine
 10
27.4889728237
 20
6.257255362499999
 30
0.0
 11
27.4889728237
 21
6.2672553625
 31
0.0
  0
LINE
  5
7A7
330
A
100
AcDbEntity
  8
0
  6
Continuous
 62
     7
100
AcDbLine
 10
27.4889728237
 20
6.2672553625
 30
0.0
 11
27.6089728237
 21
6.2672553625
 31
0.0
  0
LINE
  5
7A8
330
A
100
AcDbEntity
  8
0
  6
Continuous
 62
     7
100
AcDbLine
 10
22.7289728237
 20
6.257255362499999
 30
0.0
 11
22.7289728237
 21
6.2672553625
 31
0.0
  0
LINE
  5
7A9
330
A
100
AcDbEntity
  8
0
  6
Continuous
 62
     7
100
AcDbLine
 10
22.7289728237
 20
6.2672553625
 30
0.0
 11
27.4889728237
 21
6.2672553625
 31
0.0
  0
LINE
  5
7AA
330
A
100
AcDbEntity
  8
0
  6
Continuous
 62
     7
100
AcDbLine
 10
22.6089728237
 20
6.257255362499999
 30
0.0
 11
22.6089728237
 21
6.2672553625
 31
0.0
  0
LINE
  5
7AB
330
A
100
AcDbEntity
  8
0
  6
Continuous
 62
     7
100
AcDbLine
 10
22.6089728237
 20
6.2672553625
 30
0.0
 11
22.7289728237
 21
6.2672553625
 31
0.0
  0
LINE
  5
7AC
330
A
100
AcDbEntity
  8
0
  6
Continuous
 62
     7
100
AcDbLine
 10
28.3428093514
 20
5.0831681768
 30
0.0
 11
28.3428093514
 21
5.077903414299999
 31
0.0
  0
LINE
  5
7AD
330
A
100
AcDbEntity
  8
0
  6
Continuous
 62
     7
100
AcDbLine
 10
28.1760439594
 20
5.083173163799999
 30
0.0
 11
28.1760439594
 21
5.077903414299999
 31
0.0
  0
LINE
  5
7AE
330
A
100
AcDbEntity
  8
0
  6
Continuous
 62
     7
100
AcDbLine
 10
28.7328093514
 20
5.0831681768
 30
0.0
 11
28.7328093514
 21
5.077903414299999
 31
0.0
  0
LINE
  5
7AF
330
A
100
AcDbEntity
  8
0
  6
Continuous
 62
     7
100
AcDbLine
 10
28.5660439594
 20
5.083173163799999
 30
0.0
 11
28.5660439594
 21
5.077903414299999
 31
0.0
  0
LINE
  5
7B0
330
A
100
AcDbEntity
  8
0
  6
Continuous
 62
     7
100
AcDbLine
 10
21.9985132376
 20
5.932490476499999
 30
0.0
 11
21.9957689665
 21
5.932974365599999
 31
0.0
  0
LINE
  5
7B1
330
A
100
AcDbEntity
  8
0
  6
Continuous
 62
     7
100
AcDbLine
 10
21.9318323374
 20
5.5543242994
 30
0.0
 11
21.92908806619999
 21
5.5548081884
 31
0.0
  0
LINE
  5
7B2
330
A
100
AcDbEntity
  8
0
  6
Continuous
 62
     7
100
AcDbLine
 10
25.5089612229
 20
4.778539788199999
 30
0.0
 11
25.5108588603
 21
4.8872553625
 31
0.0
  0
LINE
  5
7B3
330
A
100
AcDbEntity
  8
0
  6
Continuous
 62
     7
100
AcDbLine
 10
25.0374543841
 20
4.8872553625
 30
0.0
 11
25.0469657644
 21
4.778539788199999
 31
0.0
  0
ENDSEC
  0
SECTION
  2
OBJECTS
  0
DICTIONARY
  5
19
330
0
100
AcDbDictionary
281
     1
  3
ACAD_GROUP
350
1A
  3
ACAD_MLINESTYLE
350
1B
  3
ACAD_PLOTSTYLENAME
350
7B6
  3
ACAD_LAYOUT
350
7B8
  3
ACAD_PLOTSETTINGS
350
7B9
  3
ASE_INDEX_DICTIONARY
350
7BF
  0
DICTIONARY
  5
1A
102
{ACAD_REACTORS
330
19
102
}
330
19
100
AcDbDictionary
281
     1
  0
DICTIONARY
  5
1B
102
{ACAD_REACTORS
330
19
102
}
330
19
100
AcDbDictionary
281
     1
  3
STANDARD
350
1C
  0
ACDBDICTIONARYWDFLT
  5
7B6
102
{ACAD_REACTORS
330
19
102
}
330
19
100
AcDbDictionary
281
     1
  3
Normal
350
7B7
100
AcDbDictionaryWithDefault
340
7B7
  0
DICTIONARY
  5
7B8
102
{ACAD_REACTORS
330
19
102
}
330
19
100
AcDbDictionary
281
     1
  3
Model
350
7BA
  3
Layout1
350
7BB
  0
DICTIONARY
  5
7B9
102
{ACAD_REACTORS
330
19
102
}
330
19
100
AcDbDictionary
281
     1
  0
DICTIONARY
  5
7BF
102
{ACAD_REACTORS
330
19
102
}
330
19
100
AcDbDictionary
281
     1
  3
ASEBlockHierarchyIndexRecord
350
7C1
1001
DCO15
1040
1617533021.195
  0
MLINESTYLE
  5
1C
102
{ACAD_REACTORS
330
1B
102
}
330
1B
100
AcDbMlineStyle
  2
STANDARD
 70
     0
  3

 62
     0
 51
90.0
 52
90.0
 71
     2
 49
0.5
 62
   256
  6
BYLAYER
 49
-0.5
 62
   256
  6
BYLAYER
  0
ACDBPLACEHOLDER
  5
7B7
102
{ACAD_REACTORS
330
7B6
102
}
330
7B6
  0
LAYOUT
  5
7BA
102
{ACAD_REACTORS
330
7B8
102
}
330
7B8
100
AcDbPlotSettings
  1

  2
\\nseng\OPLASERACM
  4

  6

 40
0.0
 41
0.0
 42
0.0
 43
0.0
 44
0.0
 45
0.0
 46
0.0
 47
0.0
 48
0.0
 49
0.0
140
0.0
141
0.0
142
1.0
143
1.0
 70
  1712
 72
     0
 73
     0
 74
     0
  7

 75
     0
147
1.0
148
0.0
149
0.0
100
AcDbLayout
  1
Model
 70
     1
 71
     0
 10
0.0
 20
0.0
 11
12.0
 21
9.0
 12
0.0
 22
0.0
 32
0.0
 14
0.0
 24
0.0
 34
0.0
 15
0.0
 25
0.0
 35
0.0
146
0.0
 13
0.0
 23
0.0
 33
0.0
 16
1.0
 26
0.0
 36
0.0
 17
0.0
 27
1.0
 37
0.0
 76
     0
330
A
  0
LAYOUT
  5
7BB
102
{ACAD_REACTORS
330
7B8
102
}
330
7B8
100
AcDbPlotSettings
  1

  2
\\nseng\OPLASERACM
  4

  6

 40
0.0
 41
0.0
 42
0.0
 43
0.0
 44
0.0
 45
0.0
 46
0.0
 47
0.0
 48
0.0
 49
0.0
140
0.0
141
0.0
142
1.0
143
1.0
 70
   688
 72
     0
 73
     0
 74
     5
  7

 75
    16
147
1.0
148
0.0
149
0.0
100
AcDbLayout
  1
Layout1
 70
     1
 71
     1
 10
0.0
 20
0.0
 11
12.0
 21
9.0
 12
0.0
 22
0.0
 32
0.0
 14
1.000000000000000E+20
 24
1.000000000000000E+20
 34
1.000000000000000E+20
 15
-1.000000000000000E+20
 25
-1.000000000000000E+20
 35
-1.000000000000000E+20
146
0.0
 13
0.0
 23
0.0
 33
0.0
 16
1.0
 26
0.0
 36
0.0
 17
0.0
 27
1.0
 37
0.0
 76
     0
330
B
  0
XRECORD
  5
7C1
102
{ACAD_REACTORS
330
7BF
102
}
330
7BF
100
AcDbXrecord
280
     1
  0
ENDSEC
  0
EOF
