  0
SECTION
  2
HEADER
  9
$ACADVER
  1
AC1012
  9
$DWGCODEPAGE
  3
ANSI_1252
  9
$INSBASE
 10
0.0
 20
0.0
 30
0.0
  9
$EXTMIN
 10
0.6084595013042673
 20
2.561599755382165
 30
-0.0015258207003583
  9
$EXTMAX
 10
6.95306398690802
 20
7.062561053855532
 30
0.0000000349246037
  9
$LIMMIN
 10
0.0
 20
0.0
  9
$LIMMAX
 10
12.0
 20
9.0
  9
$ORTHOMODE
 70
     0
  9
$REGENMODE
 70
     1
  9
$FILLMODE
 70
     1
  9
$QTEXTMODE
 70
     0
  9
$MIRRTEXT
 70
     1
  9
$DRAGMODE
 70
     2
  9
$LTSCALE
 40
1.0
  9
$OSMODE
 70
   547
  9
$ATTMODE
 70
     1
  9
$TEXTSIZE
 40
0.2
  9
$TRACEWID
 40
0.05
  9
$TEXTSTYLE
  7
STANDARD
  9
$CLAYER
  8
0
  9
$CELTYPE
  6
BYLAYER
  9
$CECOLOR
 62
   256
  9
$CELTSCALE
 40
1.0
  9
$DELOBJ
 70
     1
  9
$DISPSILH
 70
     0
  9
$DIMSCALE
 40
1.0
  9
$DIMASZ
 40
0.18
  9
$DIMEXO
 40
0.0625
  9
$DIMDLI
 40
0.38
  9
$DIMRND
 40
0.0
  9
$DIMDLE
 40
0.0
  9
$DIMEXE
 40
0.18
  9
$DIMTP
 40
0.0
  9
$DIMTM
 40
0.0
  9
$DIMTXT
 40
0.18
  9
$DIMCEN
 40
0.09
  9
$DIMTSZ
 40
0.0
  9
$DIMTOL
 70
     0
  9
$DIMLIM
 70
     0
  9
$DIMTIH
 70
     1
  9
$DIMTOH
 70
     1
  9
$DIMSE1
 70
     0
  9
$DIMSE2
 70
     0
  9
$DIMTAD
 70
     0
  9
$DIMZIN
 70
     0
  9
$DIMBLK
  1

  9
$DIMASO
 70
     1
  9
$DIMSHO
 70
     1
  9
$DIMPOST
  1

  9
$DIMAPOST
  1

  9
$DIMALT
 70
     0
  9
$DIMALTD
 70
     2
  9
$DIMALTF
 40
25.4
  9
$DIMLFAC
 40
1.0
  9
$DIMTOFL
 70
     0
  9
$DIMTVP
 40
0.0
  9
$DIMTIX
 70
     0
  9
$DIMSOXD
 70
     0
  9
$DIMSAH
 70
     0
  9
$DIMBLK1
  1

  9
$DIMBLK2
  1

  9
$DIMSTYLE
  2
STANDARD
  9
$DIMCLRD
 70
     0
  9
$DIMCLRE
 70
     0
  9
$DIMCLRT
 70
     0
  9
$DIMTFAC
 40
1.0
  9
$DIMGAP
 40
0.09
  9
$DIMJUST
 70
     0
  9
$DIMSD1
 70
     0
  9
$DIMSD2
 70
     0
  9
$DIMTOLJ
 70
     1
  9
$DIMTZIN
 70
     0
  9
$DIMALTZ
 70
     0
  9
$DIMALTTZ
 70
     0
  9
$DIMFIT
 70
     5
  9
$DIMUPT
 70
     0
  9
$DIMUNIT
 70
     2
  9
$DIMDEC
 70
     4
  9
$DIMTDEC
 70
     4
  9
$DIMALTU
 70
     2
  9
$DIMALTTD
 70
     2
  9
$DIMTXSTY
  7
STANDARD
  9
$DIMAUNIT
 70
     0
  9
$LUNITS
 70
     2
  9
$LUPREC
 70
     4
  9
$SKETCHINC
 40
0.1
  9
$FILLETRAD
 40
0.0
  9
$AUNITS
 70
     0
  9
$AUPREC
 70
     0
  9
$MENU
  1
acad
  9
$ELEVATION
 40
0.0
  9
$PELEVATION
 40
0.0
  9
$THICKNESS
 40
0.0
  9
$LIMCHECK
 70
     0
  9
$BLIPMODE
 70
     0
  9
$CHAMFERA
 40
0.0
  9
$CHAMFERB
 40
0.0
  9
$CHAMFERC
 40
0.0
  9
$CHAMFERD
 40
0.0
  9
$SKPOLY
 70
     0
  9
$TDCREATE
 40
2454204.309178240
  9
$TDUPDATE
 40
2454204.319842627
  9
$TDINDWG
 40
0.0020882176
  9
$TDUSRTIMER
 40
0.0020882176
  9
$USRTIMER
 70
     1
  9
$ANGBASE
 50
0.0
  9
$ANGDIR
 70
     0
  9
$PDMODE
 70
     0
  9
$PDSIZE
 40
0.0
  9
$PLINEWID
 40
0.0
  9
$COORDS
 70
     1
  9
$SPLFRAME
 70
     0
  9
$SPLINETYPE
 70
     6
  9
$SPLINESEGS
 70
     8
  9
$ATTDIA
 70
     0
  9
$ATTREQ
 70
     1
  9
$HANDLING
 70
  4097
  9
$HANDSEED
  5
2C6F
  9
$SURFTAB1
 70
     6
  9
$SURFTAB2
 70
     6
  9
$SURFTYPE
 70
     6
  9
$SURFU
 70
     6
  9
$SURFV
 70
     6
  9
$UCSNAME
  2

  9
$UCSORG
 10
0.0
 20
0.0
 30
0.0
  9
$UCSXDIR
 10
1.0
 20
0.0
 30
0.0
  9
$UCSYDIR
 10
0.0
 20
1.0
 30
0.0
  9
$PUCSNAME
  2

  9
$PUCSORG
 10
0.0
 20
0.0
 30
0.0
  9
$PUCSXDIR
 10
1.0
 20
0.0
 30
0.0
  9
$PUCSYDIR
 10
0.0
 20
1.0
 30
0.0
  9
$USERI1
 70
     0
  9
$USERI2
 70
     0
  9
$USERI3
 70
     0
  9
$USERI4
 70
     0
  9
$USERI5
 70
     0
  9
$USERR1
 40
0.0
  9
$USERR2
 40
0.0
  9
$USERR3
 40
0.0
  9
$USERR4
 40
0.0
  9
$USERR5
 40
0.0
  9
$WORLDVIEW
 70
     1
  9
$SHADEDGE
 70
     3
  9
$SHADEDIF
 70
    70
  9
$TILEMODE
 70
     1
  9
$MAXACTVP
 70
    16
  9
$PINSBASE
 10
0.0
 20
0.0
 30
0.0
  9
$PLIMCHECK
 70
     0
  9
$PEXTMIN
 10
1.000000000000000E+20
 20
1.000000000000000E+20
 30
1.000000000000000E+20
  9
$PEXTMAX
 10
-1.000000000000000E+20
 20
-1.000000000000000E+20
 30
-1.000000000000000E+20
  9
$PLIMMIN
 10
0.0
 20
0.0
  9
$PLIMMAX
 10
12.0
 20
9.0
  9
$UNITMODE
 70
     0
  9
$VISRETAIN
 70
     0
  9
$PLINEGEN
 70
     0
  9
$PSLTSCALE
 70
     1
  9
$TREEDEPTH
 70
  3020
  9
$PICKSTYLE
 70
     1
  9
$CMLSTYLE
  2
STANDARD
  9
$CMLJUST
 70
     0
  9
$CMLSCALE
 40
1.0
  9
$SAVEIMAGES
 70
     1
  0
ENDSEC
  0
SECTION
  2
CLASSES
  0
CLASS
  1
ACDBDICTIONARYWDFLT
  2
AcDbDictionaryWithDefault
  3
AutoCAD 2000
 90
    32768
280
     0
281
     0
  0
CLASS
  1
ACDBPLACEHOLDER
  2
AcDbPlaceHolder
  3
AutoCAD 2000
 90
    32768
280
     0
281
     0
  0
CLASS
  1
LAYOUT
  2
AcDbLayout
  3
AutoCAD 2000
 90
    32768
280
     0
281
     0
  0
CLASS
  1
LONG_TRANSACTION
  2
AcDbLongTransaction
  3
AutoCAD 2000
 90
    32768
280
     0
281
     0
  0
CLASS
  1
LWPOLYLINE
  2
AcDbPolyline
  3
AutoCAD 2000
 90
    32768
280
     0
281
     1
  0
CLASS
  1
HATCH
  2
AcDbHatch
  3
AutoCAD 2000
 90
    32768
280
     0
281
     1
  0
CLASS
  1
XRECORD
  2
AcDbXrecord
  3
AutoCAD 2000
 90
    32768
280
     0
281
     0
  0
ENDSEC
  0
SECTION
  2
TABLES
  0
TABLE
  2
VPORT
  5
8
330
0
100
AcDbSymbolTable
 70
     7
  0
VPORT
  5
2B0A
330
8
100
AcDbSymbolTableRecord
100
AcDbViewportTableRecord
  2
*ACTIVE
 70
     0
 10
0.0
 20
0.0
 11
1.0
 21
1.0
 12
3.780761744106143
 22
4.812080404618848
 13
0.0
 23
0.0
 14
1.0
 24
1.0
 15
0.0
 25
0.0
 16
0.0
 26
0.0
 36
1.0
 17
0.0
 27
0.0
 37
0.0
 40
4.55143936911045
 41
1.747191011235955
 42
50.0
 43
0.0
 44
0.0
 50
0.0
 51
0.0
 71
     0
 72
   100
 73
     1
 74
     1
 75
     0
 76
     0
 77
     0
 78
     0
  0
ENDTAB
  0
TABLE
  2
LTYPE
  5
5
330
0
100
AcDbSymbolTable
 70
    25
  0
LTYPE
  5
13
330
5
100
AcDbSymbolTableRecord
100
AcDbLinetypeTableRecord
  2
BYBLOCK
 70
     0
  3

 72
    65
 73
     0
 40
0.0
  0
LTYPE
  5
14
330
5
100
AcDbSymbolTableRecord
100
AcDbLinetypeTableRecord
  2
BYLAYER
 70
     0
  3

 72
    65
 73
     0
 40
0.0
  0
LTYPE
  5
15
330
5
100
AcDbSymbolTableRecord
100
AcDbLinetypeTableRecord
  2
CONTINUOUS
 70
     0
  3
Solid line
 72
    65
 73
     0
 40
0.0
  0
LTYPE
  5
22
330
5
100
AcDbSymbolTableRecord
100
AcDbLinetypeTableRecord
  2
BORDER
 70
     0
  3
__ __ . __ __ . __ __ . __ __ . __ __ . __ __ .
 72
    65
 73
     6
 40
1.75
 49
0.5
 74
     0
 49
-0.25
 74
     0
 49
0.5
 74
     0
 49
-0.25
 74
     0
 49
0.5
 74
     0
 49
-0.25
 74
     0
  0
LTYPE
  5
23
330
5
100
AcDbSymbolTableRecord
100
AcDbLinetypeTableRecord
  2
BORDER2
 70
     0
  3
__.__.__.__.__.__.__.__.
 72
    65
 73
     6
 40
0.875
 49
0.25
 74
     0
 49
-0.125
 74
     0
 49
0.25
 74
     0
 49
-0.125
 74
     0
 49
0.25
 74
     0
 49
-0.125
 74
     0
  0
LTYPE
  5
24
330
5
100
AcDbSymbolTableRecord
100
AcDbLinetypeTableRecord
  2
BORDERX2
 70
     0
  3
____  ____  .  
 72
    65
 73
     6
 40
3.5
 49
1.0
 74
     0
 49
-0.5
 74
     0
 49
1.0
 74
     0
 49
-0.5
 74
     0
 49
1.0
 74
     0
 49
-0.5
 74
     0
  0
LTYPE
  5
25
330
5
100
AcDbSymbolTableRecord
100
AcDbLinetypeTableRecord
  2
CENTER
 70
     0
  3
____ _ ____ _ ____ _ 
 72
    65
 73
     4
 40
2.0
 49
1.25
 74
     0
 49
-0.25
 74
     0
 49
0.25
 74
     0
 49
-0.25
 74
     0
  0
LTYPE
  5
26
330
5
100
AcDbSymbolTableRecord
100
AcDbLinetypeTableRecord
  2
CENTER2
 70
     0
  3
____ _ ____ _ ____ _ 
 72
    65
 73
     4
 40
1.125
 49
0.75
 74
     0
 49
-0.125
 74
     0
 49
0.125
 74
     0
 49
-0.125
 74
     0
  0
LTYPE
  5
27
330
5
100
AcDbSymbolTableRecord
100
AcDbLinetypeTableRecord
  2
CENTERX2
 70
     0
  3
________  __  
 72
    65
 73
     4
 40
4.0
 49
2.5
 74
     0
 49
-0.5
 74
     0
 49
0.5
 74
     0
 49
-0.5
 74
     0
  0
LTYPE
  5
28
330
5
100
AcDbSymbolTableRecord
100
AcDbLinetypeTableRecord
  2
DASHDOT
 70
     0
  3
__ . __ . __ . __ . 
 72
    65
 73
     4
 40
1.0
 49
0.5
 74
     0
 49
-0.25
 74
     0
 49
0.0
 74
     0
 49
-0.25
 74
     0
  0
LTYPE
  5
29
330
5
100
AcDbSymbolTableRecord
100
AcDbLinetypeTableRecord
  2
DASHDOT2
 70
     0
  3
_._._._._._._._._.
 72
    65
 73
     4
 40
0.5
 49
0.25
 74
     0
 49
-0.125
 74
     0
 49
0.0
 74
     0
 49
-0.125
 74
     0
  0
LTYPE
  5
2A
330
5
100
AcDbSymbolTableRecord
100
AcDbLinetypeTableRecord
  2
DASHDOTX2
 70
     0
  3
____  .  ____  .  
 72
    65
 73
     4
 40
2.0
 49
1.0
 74
     0
 49
-0.5
 74
     0
 49
0.0
 74
     0
 49
-0.5
 74
     0
  0
LTYPE
  5
2B
330
5
100
AcDbSymbolTableRecord
100
AcDbLinetypeTableRecord
  2
DASHED
 70
     0
  3
__ __ __ __ __ __ __ 
 72
    65
 73
     2
 40
0.75
 49
0.5
 74
     0
 49
-0.25
 74
     0
  0
LTYPE
  5
2C
330
5
100
AcDbSymbolTableRecord
100
AcDbLinetypeTableRecord
  2
DASHED2
 70
     0
  3
_ _ _ _ _ _ _ _ _ _ 
 72
    65
 73
     2
 40
0.375
 49
0.25
 74
     0
 49
-0.125
 74
     0
  0
LTYPE
  5
2D
330
5
100
AcDbSymbolTableRecord
100
AcDbLinetypeTableRecord
  2
DASHEDX2
 70
     0
  3
____  ____  ____  
 72
    65
 73
     2
 40
1.5
 49
1.0
 74
     0
 49
-0.5
 74
     0
  0
LTYPE
  5
2E
330
5
100
AcDbSymbolTableRecord
100
AcDbLinetypeTableRecord
  2
DIVIDE
 70
     0
  3
____ . . ____ . . 
 72
    65
 73
     6
 40
1.25
 49
0.5
 74
     0
 49
-0.25
 74
     0
 49
0.0
 74
     0
 49
-0.25
 74
     0
 49
0.0
 74
     0
 49
-0.25
 74
     0
  0
LTYPE
  5
2F
330
5
100
AcDbSymbolTableRecord
100
AcDbLinetypeTableRecord
  2
DIVIDE2
 70
     0
  3
__..__..__..__..__..
 72
    65
 73
     6
 40
0.625
 49
0.25
 74
     0
 49
-0.125
 74
     0
 49
0.0
 74
     0
 49
-0.125
 74
     0
 49
0.0
 74
     0
 49
-0.125
 74
     0
  0
LTYPE
  5
30
330
5
100
AcDbSymbolTableRecord
100
AcDbLinetypeTableRecord
  2
DIVIDEX2
 70
     0
  3
________  .  .  
 72
    65
 73
     6
 40
2.5
 49
1.0
 74
     0
 49
-0.5
 74
     0
 49
0.0
 74
     0
 49
-0.5
 74
     0
 49
0.0
 74
     0
 49
-0.5
 74
     0
  0
LTYPE
  5
31
330
5
100
AcDbSymbolTableRecord
100
AcDbLinetypeTableRecord
  2
DOT
 70
     0
  3
. . . . . . . . . 
 72
    65
 73
     2
 40
0.25
 49
0.0
 74
     0
 49
-0.25
 74
     0
  0
LTYPE
  5
32
330
5
100
AcDbSymbolTableRecord
100
AcDbLinetypeTableRecord
  2
DOT2
 70
     0
  3
..................
 72
    65
 73
     2
 40
0.125
 49
0.0
 74
     0
 49
-0.125
 74
     0
  0
LTYPE
  5
33
330
5
100
AcDbSymbolTableRecord
100
AcDbLinetypeTableRecord
  2
DOTX2
 70
     0
  3
.  .  .  .  .  .  
 72
    65
 73
     2
 40
0.5
 49
0.0
 74
     0
 49
-0.5
 74
     0
  0
LTYPE
  5
34
330
5
100
AcDbSymbolTableRecord
100
AcDbLinetypeTableRecord
  2
HIDDEN
 70
     0
  3
__ __ __ __ __ __ 
 72
    65
 73
     2
 40
0.375
 49
0.25
 74
     0
 49
-0.125
 74
     0
  0
LTYPE
  5
35
330
5
100
AcDbSymbolTableRecord
100
AcDbLinetypeTableRecord
  2
HIDDEN2
 70
     0
  3
_ _ _ _ _ _ _ _ _ 
 72
    65
 73
     2
 40
0.1875
 49
0.125
 74
     0
 49
-0.0625
 74
     0
  0
LTYPE
  5
36
330
5
100
AcDbSymbolTableRecord
100
AcDbLinetypeTableRecord
  2
HIDDENX2
 70
     0
  3
____ ____ ____ ____ 
 72
    65
 73
     2
 40
0.75
 49
0.5
 74
     0
 49
-0.25
 74
     0
  0
LTYPE
  5
37
330
5
100
AcDbSymbolTableRecord
100
AcDbLinetypeTableRecord
  2
PHANTOM
 70
     0
  3
______  __  __  
 72
    65
 73
     6
 40
2.5
 49
1.25
 74
     0
 49
-0.25
 74
     0
 49
0.25
 74
     0
 49
-0.25
 74
     0
 49
0.25
 74
     0
 49
-0.25
 74
     0
  0
LTYPE
  5
38
330
5
100
AcDbSymbolTableRecord
100
AcDbLinetypeTableRecord
  2
PHANTOM2
 70
     0
  3
___ _ _ ___ _ _ 
 72
    65
 73
     6
 40
1.25
 49
0.625
 74
     0
 49
-0.125
 74
     0
 49
0.125
 74
     0
 49
-0.125
 74
     0
 49
0.125
 74
     0
 49
-0.125
 74
     0
  0
LTYPE
  5
39
330
5
100
AcDbSymbolTableRecord
100
AcDbLinetypeTableRecord
  2
PHANTOMX2
 70
     0
  3
___ _ _ ___ _ _ 
 72
    65
 73
     6
 40
5.0
 49
2.5
 74
     0
 49
-0.5
 74
     0
 49
0.5
 74
     0
 49
-0.5
 74
     0
 49
0.5
 74
     0
 49
-0.5
 74
     0
  0
ENDTAB
  0
TABLE
  2
LAYER
  5
2
330
0
100
AcDbSymbolTable
 70
   257
  0
LAYER
  5
10
330
2
100
AcDbSymbolTableRecord
100
AcDbLayerTableRecord
  2
0
 70
     0
 62
     7
  6
CONTINUOUS
  0
LAYER
  5
3A
330
2
100
AcDbSymbolTableRecord
100
AcDbLayerTableRecord
  2
1
 70
     0
 62
     1
  6
CONTINUOUS
  0
LAYER
  5
3B
330
2
100
AcDbSymbolTableRecord
100
AcDbLayerTableRecord
  2
2
 70
     0
 62
     2
  6
CONTINUOUS
  0
LAYER
  5
3C
330
2
100
AcDbSymbolTableRecord
100
AcDbLayerTableRecord
  2
3
 70
     0
 62
     3
  6
CONTINUOUS
  0
LAYER
  5
3D
330
2
100
AcDbSymbolTableRecord
100
AcDbLayerTableRecord
  2
4
 70
     0
 62
     4
  6
CONTINUOUS
  0
LAYER
  5
3E
330
2
100
AcDbSymbolTableRecord
100
AcDbLayerTableRecord
  2
5
 70
     0
 62
     5
  6
CONTINUOUS
  0
LAYER
  5
3F
330
2
100
AcDbSymbolTableRecord
100
AcDbLayerTableRecord
  2
6
 70
     0
 62
     6
  6
CONTINUOUS
  0
LAYER
  5
40
330
2
100
AcDbSymbolTableRecord
100
AcDbLayerTableRecord
  2
7
 70
     0
 62
     7
  6
CONTINUOUS
  0
LAYER
  5
41
330
2
100
AcDbSymbolTableRecord
100
AcDbLayerTableRecord
  2
8
 70
     0
 62
     8
  6
CONTINUOUS
  0
LAYER
  5
42
330
2
100
AcDbSymbolTableRecord
100
AcDbLayerTableRecord
  2
9
 70
     0
 62
     9
  6
CONTINUOUS
  0
LAYER
  5
43
330
2
100
AcDbSymbolTableRecord
100
AcDbLayerTableRecord
  2
10
 70
     0
 62
    10
  6
CONTINUOUS
  0
LAYER
  5
44
330
2
100
AcDbSymbolTableRecord
100
AcDbLayerTableRecord
  2
11
 70
     0
 62
    11
  6
CONTINUOUS
  0
LAYER
  5
45
330
2
100
AcDbSymbolTableRecord
100
AcDbLayerTableRecord
  2
12
 70
     0
 62
    12
  6
CONTINUOUS
  0
LAYER
  5
46
330
2
100
AcDbSymbolTableRecord
100
AcDbLayerTableRecord
  2
13
 70
     0
 62
    13
  6
CONTINUOUS
  0
LAYER
  5
47
330
2
100
AcDbSymbolTableRecord
100
AcDbLayerTableRecord
  2
14
 70
     0
 62
    14
  6
CONTINUOUS
  0
LAYER
  5
48
330
2
100
AcDbSymbolTableRecord
100
AcDbLayerTableRecord
  2
15
 70
     0
 62
    15
  6
CONTINUOUS
  0
LAYER
  5
49
330
2
100
AcDbSymbolTableRecord
100
AcDbLayerTableRecord
  2
16
 70
     0
 62
    16
  6
CONTINUOUS
  0
LAYER
  5
4A
330
2
100
AcDbSymbolTableRecord
100
AcDbLayerTableRecord
  2
17
 70
     0
 62
    17
  6
CONTINUOUS
  0
LAYER
  5
4B
330
2
100
AcDbSymbolTableRecord
100
AcDbLayerTableRecord
  2
18
 70
     0
 62
    18
  6
CONTINUOUS
  0
LAYER
  5
4C
330
2
100
AcDbSymbolTableRecord
100
AcDbLayerTableRecord
  2
19
 70
     0
 62
    19
  6
CONTINUOUS
  0
LAYER
  5
4D
330
2
100
AcDbSymbolTableRecord
100
AcDbLayerTableRecord
  2
20
 70
     0
 62
    20
  6
CONTINUOUS
  0
LAYER
  5
4E
330
2
100
AcDbSymbolTableRecord
100
AcDbLayerTableRecord
  2
21
 70
     0
 62
    21
  6
CONTINUOUS
  0
LAYER
  5
4F
330
2
100
AcDbSymbolTableRecord
100
AcDbLayerTableRecord
  2
22
 70
     0
 62
    22
  6
CONTINUOUS
  0
LAYER
  5
50
330
2
100
AcDbSymbolTableRecord
100
AcDbLayerTableRecord
  2
23
 70
     0
 62
    23
  6
CONTINUOUS
  0
LAYER
  5
51
330
2
100
AcDbSymbolTableRecord
100
AcDbLayerTableRecord
  2
24
 70
     0
 62
    24
  6
CONTINUOUS
  0
LAYER
  5
52
330
2
100
AcDbSymbolTableRecord
100
AcDbLayerTableRecord
  2
25
 70
     0
 62
    25
  6
CONTINUOUS
  0
LAYER
  5
53
330
2
100
AcDbSymbolTableRecord
100
AcDbLayerTableRecord
  2
26
 70
     0
 62
    26
  6
CONTINUOUS
  0
LAYER
  5
54
330
2
100
AcDbSymbolTableRecord
100
AcDbLayerTableRecord
  2
27
 70
     0
 62
    27
  6
CONTINUOUS
  0
LAYER
  5
55
330
2
100
AcDbSymbolTableRecord
100
AcDbLayerTableRecord
  2
28
 70
     0
 62
    28
  6
CONTINUOUS
  0
LAYER
  5
56
330
2
100
AcDbSymbolTableRecord
100
AcDbLayerTableRecord
  2
29
 70
     0
 62
    29
  6
CONTINUOUS
  0
LAYER
  5
57
330
2
100
AcDbSymbolTableRecord
100
AcDbLayerTableRecord
  2
30
 70
     0
 62
    30
  6
CONTINUOUS
  0
LAYER
  5
58
330
2
100
AcDbSymbolTableRecord
100
AcDbLayerTableRecord
  2
31
 70
     0
 62
    31
  6
CONTINUOUS
  0
LAYER
  5
59
330
2
100
AcDbSymbolTableRecord
100
AcDbLayerTableRecord
  2
32
 70
     0
 62
    32
  6
CONTINUOUS
  0
LAYER
  5
5A
330
2
100
AcDbSymbolTableRecord
100
AcDbLayerTableRecord
  2
33
 70
     0
 62
    33
  6
CONTINUOUS
  0
LAYER
  5
5B
330
2
100
AcDbSymbolTableRecord
100
AcDbLayerTableRecord
  2
34
 70
     0
 62
    34
  6
CONTINUOUS
  0
LAYER
  5
5C
330
2
100
AcDbSymbolTableRecord
100
AcDbLayerTableRecord
  2
35
 70
     0
 62
    35
  6
CONTINUOUS
  0
LAYER
  5
5D
330
2
100
AcDbSymbolTableRecord
100
AcDbLayerTableRecord
  2
36
 70
     0
 62
    36
  6
CONTINUOUS
  0
LAYER
  5
5E
330
2
100
AcDbSymbolTableRecord
100
AcDbLayerTableRecord
  2
37
 70
     0
 62
    37
  6
CONTINUOUS
  0
LAYER
  5
5F
330
2
100
AcDbSymbolTableRecord
100
AcDbLayerTableRecord
  2
38
 70
     0
 62
    38
  6
CONTINUOUS
  0
LAYER
  5
60
330
2
100
AcDbSymbolTableRecord
100
AcDbLayerTableRecord
  2
39
 70
     0
 62
    39
  6
CONTINUOUS
  0
LAYER
  5
61
330
2
100
AcDbSymbolTableRecord
100
AcDbLayerTableRecord
  2
40
 70
     0
 62
    40
  6
CONTINUOUS
  0
LAYER
  5
62
330
2
100
AcDbSymbolTableRecord
100
AcDbLayerTableRecord
  2
41
 70
     0
 62
    41
  6
CONTINUOUS
  0
LAYER
  5
63
330
2
100
AcDbSymbolTableRecord
100
AcDbLayerTableRecord
  2
42
 70
     0
 62
    42
  6
CONTINUOUS
  0
LAYER
  5
64
330
2
100
AcDbSymbolTableRecord
100
AcDbLayerTableRecord
  2
43
 70
     0
 62
    43
  6
CONTINUOUS
  0
LAYER
  5
65
330
2
100
AcDbSymbolTableRecord
100
AcDbLayerTableRecord
  2
44
 70
     0
 62
    44
  6
CONTINUOUS
  0
LAYER
  5
66
330
2
100
AcDbSymbolTableRecord
100
AcDbLayerTableRecord
  2
45
 70
     0
 62
    45
  6
CONTINUOUS
  0
LAYER
  5
67
330
2
100
AcDbSymbolTableRecord
100
AcDbLayerTableRecord
  2
46
 70
     0
 62
    46
  6
CONTINUOUS
  0
LAYER
  5
68
330
2
100
AcDbSymbolTableRecord
100
AcDbLayerTableRecord
  2
47
 70
     0
 62
    47
  6
CONTINUOUS
  0
LAYER
  5
69
330
2
100
AcDbSymbolTableRecord
100
AcDbLayerTableRecord
  2
48
 70
     0
 62
    48
  6
CONTINUOUS
  0
LAYER
  5
6A
330
2
100
AcDbSymbolTableRecord
100
AcDbLayerTableRecord
  2
49
 70
     0
 62
    49
  6
CONTINUOUS
  0
LAYER
  5
6B
330
2
100
AcDbSymbolTableRecord
100
AcDbLayerTableRecord
  2
50
 70
     0
 62
    50
  6
CONTINUOUS
  0
LAYER
  5
6C
330
2
100
AcDbSymbolTableRecord
100
AcDbLayerTableRecord
  2
51
 70
     0
 62
    51
  6
CONTINUOUS
  0
LAYER
  5
6D
330
2
100
AcDbSymbolTableRecord
100
AcDbLayerTableRecord
  2
52
 70
     0
 62
    52
  6
CONTINUOUS
  0
LAYER
  5
6E
330
2
100
AcDbSymbolTableRecord
100
AcDbLayerTableRecord
  2
53
 70
     0
 62
    53
  6
CONTINUOUS
  0
LAYER
  5
6F
330
2
100
AcDbSymbolTableRecord
100
AcDbLayerTableRecord
  2
54
 70
     0
 62
    54
  6
CONTINUOUS
  0
LAYER
  5
70
330
2
100
AcDbSymbolTableRecord
100
AcDbLayerTableRecord
  2
55
 70
     0
 62
    55
  6
CONTINUOUS
  0
LAYER
  5
71
330
2
100
AcDbSymbolTableRecord
100
AcDbLayerTableRecord
  2
56
 70
     0
 62
    56
  6
CONTINUOUS
  0
LAYER
  5
72
330
2
100
AcDbSymbolTableRecord
100
AcDbLayerTableRecord
  2
57
 70
     0
 62
    57
  6
CONTINUOUS
  0
LAYER
  5
73
330
2
100
AcDbSymbolTableRecord
100
AcDbLayerTableRecord
  2
58
 70
     0
 62
    58
  6
CONTINUOUS
  0
LAYER
  5
74
330
2
100
AcDbSymbolTableRecord
100
AcDbLayerTableRecord
  2
59
 70
     0
 62
    59
  6
CONTINUOUS
  0
LAYER
  5
75
330
2
100
AcDbSymbolTableRecord
100
AcDbLayerTableRecord
  2
60
 70
     0
 62
    60
  6
CONTINUOUS
  0
LAYER
  5
76
330
2
100
AcDbSymbolTableRecord
100
AcDbLayerTableRecord
  2
61
 70
     0
 62
    61
  6
CONTINUOUS
  0
LAYER
  5
77
330
2
100
AcDbSymbolTableRecord
100
AcDbLayerTableRecord
  2
62
 70
     0
 62
    62
  6
CONTINUOUS
  0
LAYER
  5
78
330
2
100
AcDbSymbolTableRecord
100
AcDbLayerTableRecord
  2
63
 70
     0
 62
    63
  6
CONTINUOUS
  0
LAYER
  5
79
330
2
100
AcDbSymbolTableRecord
100
AcDbLayerTableRecord
  2
64
 70
     0
 62
    64
  6
CONTINUOUS
  0
LAYER
  5
7A
330
2
100
AcDbSymbolTableRecord
100
AcDbLayerTableRecord
  2
65
 70
     0
 62
    65
  6
CONTINUOUS
  0
LAYER
  5
7B
330
2
100
AcDbSymbolTableRecord
100
AcDbLayerTableRecord
  2
66
 70
     0
 62
    66
  6
CONTINUOUS
  0
LAYER
  5
7C
330
2
100
AcDbSymbolTableRecord
100
AcDbLayerTableRecord
  2
67
 70
     0
 62
    67
  6
CONTINUOUS
  0
LAYER
  5
7D
330
2
100
AcDbSymbolTableRecord
100
AcDbLayerTableRecord
  2
68
 70
     0
 62
    68
  6
CONTINUOUS
  0
LAYER
  5
7E
330
2
100
AcDbSymbolTableRecord
100
AcDbLayerTableRecord
  2
69
 70
     0
 62
    69
  6
CONTINUOUS
  0
LAYER
  5
7F
330
2
100
AcDbSymbolTableRecord
100
AcDbLayerTableRecord
  2
70
 70
     0
 62
    70
  6
CONTINUOUS
  0
LAYER
  5
80
330
2
100
AcDbSymbolTableRecord
100
AcDbLayerTableRecord
  2
71
 70
     0
 62
    71
  6
CONTINUOUS
  0
LAYER
  5
81
330
2
100
AcDbSymbolTableRecord
100
AcDbLayerTableRecord
  2
72
 70
     0
 62
    72
  6
CONTINUOUS
  0
LAYER
  5
82
330
2
100
AcDbSymbolTableRecord
100
AcDbLayerTableRecord
  2
73
 70
     0
 62
    73
  6
CONTINUOUS
  0
LAYER
  5
83
330
2
100
AcDbSymbolTableRecord
100
AcDbLayerTableRecord
  2
74
 70
     0
 62
    74
  6
CONTINUOUS
  0
LAYER
  5
84
330
2
100
AcDbSymbolTableRecord
100
AcDbLayerTableRecord
  2
75
 70
     0
 62
    75
  6
CONTINUOUS
  0
LAYER
  5
85
330
2
100
AcDbSymbolTableRecord
100
AcDbLayerTableRecord
  2
76
 70
     0
 62
    76
  6
CONTINUOUS
  0
LAYER
  5
86
330
2
100
AcDbSymbolTableRecord
100
AcDbLayerTableRecord
  2
77
 70
     0
 62
    77
  6
CONTINUOUS
  0
LAYER
  5
87
330
2
100
AcDbSymbolTableRecord
100
AcDbLayerTableRecord
  2
78
 70
     0
 62
    78
  6
CONTINUOUS
  0
LAYER
  5
88
330
2
100
AcDbSymbolTableRecord
100
AcDbLayerTableRecord
  2
79
 70
     0
 62
    79
  6
CONTINUOUS
  0
LAYER
  5
89
330
2
100
AcDbSymbolTableRecord
100
AcDbLayerTableRecord
  2
80
 70
     0
 62
    80
  6
CONTINUOUS
  0
LAYER
  5
8A
330
2
100
AcDbSymbolTableRecord
100
AcDbLayerTableRecord
  2
81
 70
     0
 62
    81
  6
CONTINUOUS
  0
LAYER
  5
8B
330
2
100
AcDbSymbolTableRecord
100
AcDbLayerTableRecord
  2
82
 70
     0
 62
    82
  6
CONTINUOUS
  0
LAYER
  5
8C
330
2
100
AcDbSymbolTableRecord
100
AcDbLayerTableRecord
  2
83
 70
     0
 62
    83
  6
CONTINUOUS
  0
LAYER
  5
8D
330
2
100
AcDbSymbolTableRecord
100
AcDbLayerTableRecord
  2
84
 70
     0
 62
    84
  6
CONTINUOUS
  0
LAYER
  5
8E
330
2
100
AcDbSymbolTableRecord
100
AcDbLayerTableRecord
  2
85
 70
     0
 62
    85
  6
CONTINUOUS
  0
LAYER
  5
8F
330
2
100
AcDbSymbolTableRecord
100
AcDbLayerTableRecord
  2
86
 70
     0
 62
    86
  6
CONTINUOUS
  0
LAYER
  5
90
330
2
100
AcDbSymbolTableRecord
100
AcDbLayerTableRecord
  2
87
 70
     0
 62
    87
  6
CONTINUOUS
  0
LAYER
  5
91
330
2
100
AcDbSymbolTableRecord
100
AcDbLayerTableRecord
  2
88
 70
     0
 62
    88
  6
CONTINUOUS
  0
LAYER
  5
92
330
2
100
AcDbSymbolTableRecord
100
AcDbLayerTableRecord
  2
89
 70
     0
 62
    89
  6
CONTINUOUS
  0
LAYER
  5
93
330
2
100
AcDbSymbolTableRecord
100
AcDbLayerTableRecord
  2
90
 70
     0
 62
    90
  6
CONTINUOUS
  0
LAYER
  5
94
330
2
100
AcDbSymbolTableRecord
100
AcDbLayerTableRecord
  2
91
 70
     0
 62
    91
  6
CONTINUOUS
  0
LAYER
  5
95
330
2
100
AcDbSymbolTableRecord
100
AcDbLayerTableRecord
  2
92
 70
     0
 62
    92
  6
CONTINUOUS
  0
LAYER
  5
96
330
2
100
AcDbSymbolTableRecord
100
AcDbLayerTableRecord
  2
93
 70
     0
 62
    93
  6
CONTINUOUS
  0
LAYER
  5
97
330
2
100
AcDbSymbolTableRecord
100
AcDbLayerTableRecord
  2
94
 70
     0
 62
    94
  6
CONTINUOUS
  0
LAYER
  5
98
330
2
100
AcDbSymbolTableRecord
100
AcDbLayerTableRecord
  2
95
 70
     0
 62
    95
  6
CONTINUOUS
  0
LAYER
  5
99
330
2
100
AcDbSymbolTableRecord
100
AcDbLayerTableRecord
  2
96
 70
     0
 62
    96
  6
CONTINUOUS
  0
LAYER
  5
9A
330
2
100
AcDbSymbolTableRecord
100
AcDbLayerTableRecord
  2
97
 70
     0
 62
    97
  6
CONTINUOUS
  0
LAYER
  5
9B
330
2
100
AcDbSymbolTableRecord
100
AcDbLayerTableRecord
  2
98
 70
     0
 62
    98
  6
CONTINUOUS
  0
LAYER
  5
9C
330
2
100
AcDbSymbolTableRecord
100
AcDbLayerTableRecord
  2
99
 70
     0
 62
    99
  6
CONTINUOUS
  0
LAYER
  5
9D
330
2
100
AcDbSymbolTableRecord
100
AcDbLayerTableRecord
  2
100
 70
     0
 62
   100
  6
CONTINUOUS
  0
LAYER
  5
9E
330
2
100
AcDbSymbolTableRecord
100
AcDbLayerTableRecord
  2
101
 70
     0
 62
   101
  6
CONTINUOUS
  0
LAYER
  5
9F
330
2
100
AcDbSymbolTableRecord
100
AcDbLayerTableRecord
  2
102
 70
     0
 62
   102
  6
CONTINUOUS
  0
LAYER
  5
A0
330
2
100
AcDbSymbolTableRecord
100
AcDbLayerTableRecord
  2
103
 70
     0
 62
   103
  6
CONTINUOUS
  0
LAYER
  5
A1
330
2
100
AcDbSymbolTableRecord
100
AcDbLayerTableRecord
  2
104
 70
     0
 62
   104
  6
CONTINUOUS
  0
LAYER
  5
A2
330
2
100
AcDbSymbolTableRecord
100
AcDbLayerTableRecord
  2
105
 70
     0
 62
   105
  6
CONTINUOUS
  0
LAYER
  5
A3
330
2
100
AcDbSymbolTableRecord
100
AcDbLayerTableRecord
  2
106
 70
     0
 62
   106
  6
CONTINUOUS
  0
LAYER
  5
A4
330
2
100
AcDbSymbolTableRecord
100
AcDbLayerTableRecord
  2
107
 70
     0
 62
   107
  6
CONTINUOUS
  0
LAYER
  5
A5
330
2
100
AcDbSymbolTableRecord
100
AcDbLayerTableRecord
  2
108
 70
     0
 62
   108
  6
CONTINUOUS
  0
LAYER
  5
A6
330
2
100
AcDbSymbolTableRecord
100
AcDbLayerTableRecord
  2
109
 70
     0
 62
   109
  6
CONTINUOUS
  0
LAYER
  5
A7
330
2
100
AcDbSymbolTableRecord
100
AcDbLayerTableRecord
  2
110
 70
     0
 62
   110
  6
CONTINUOUS
  0
LAYER
  5
A8
330
2
100
AcDbSymbolTableRecord
100
AcDbLayerTableRecord
  2
111
 70
     0
 62
   111
  6
CONTINUOUS
  0
LAYER
  5
A9
330
2
100
AcDbSymbolTableRecord
100
AcDbLayerTableRecord
  2
112
 70
     0
 62
   112
  6
CONTINUOUS
  0
LAYER
  5
AA
330
2
100
AcDbSymbolTableRecord
100
AcDbLayerTableRecord
  2
113
 70
     0
 62
   113
  6
CONTINUOUS
  0
LAYER
  5
AB
330
2
100
AcDbSymbolTableRecord
100
AcDbLayerTableRecord
  2
114
 70
     0
 62
   114
  6
CONTINUOUS
  0
LAYER
  5
AC
330
2
100
AcDbSymbolTableRecord
100
AcDbLayerTableRecord
  2
115
 70
     0
 62
   115
  6
CONTINUOUS
  0
LAYER
  5
AD
330
2
100
AcDbSymbolTableRecord
100
AcDbLayerTableRecord
  2
116
 70
     0
 62
   116
  6
CONTINUOUS
  0
LAYER
  5
AE
330
2
100
AcDbSymbolTableRecord
100
AcDbLayerTableRecord
  2
117
 70
     0
 62
   117
  6
CONTINUOUS
  0
LAYER
  5
AF
330
2
100
AcDbSymbolTableRecord
100
AcDbLayerTableRecord
  2
118
 70
     0
 62
   118
  6
CONTINUOUS
  0
LAYER
  5
B0
330
2
100
AcDbSymbolTableRecord
100
AcDbLayerTableRecord
  2
119
 70
     0
 62
   119
  6
CONTINUOUS
  0
LAYER
  5
B1
330
2
100
AcDbSymbolTableRecord
100
AcDbLayerTableRecord
  2
120
 70
     0
 62
   120
  6
CONTINUOUS
  0
LAYER
  5
B2
330
2
100
AcDbSymbolTableRecord
100
AcDbLayerTableRecord
  2
121
 70
     0
 62
   121
  6
CONTINUOUS
  0
LAYER
  5
B3
330
2
100
AcDbSymbolTableRecord
100
AcDbLayerTableRecord
  2
122
 70
     0
 62
   122
  6
CONTINUOUS
  0
LAYER
  5
B4
330
2
100
AcDbSymbolTableRecord
100
AcDbLayerTableRecord
  2
123
 70
     0
 62
   123
  6
CONTINUOUS
  0
LAYER
  5
B5
330
2
100
AcDbSymbolTableRecord
100
AcDbLayerTableRecord
  2
124
 70
     0
 62
   124
  6
CONTINUOUS
  0
LAYER
  5
B6
330
2
100
AcDbSymbolTableRecord
100
AcDbLayerTableRecord
  2
125
 70
     0
 62
   125
  6
CONTINUOUS
  0
LAYER
  5
B7
330
2
100
AcDbSymbolTableRecord
100
AcDbLayerTableRecord
  2
126
 70
     0
 62
   126
  6
CONTINUOUS
  0
LAYER
  5
B8
330
2
100
AcDbSymbolTableRecord
100
AcDbLayerTableRecord
  2
127
 70
     0
 62
   127
  6
CONTINUOUS
  0
LAYER
  5
B9
330
2
100
AcDbSymbolTableRecord
100
AcDbLayerTableRecord
  2
128
 70
     0
 62
   128
  6
CONTINUOUS
  0
LAYER
  5
BA
330
2
100
AcDbSymbolTableRecord
100
AcDbLayerTableRecord
  2
129
 70
     0
 62
   129
  6
CONTINUOUS
  0
LAYER
  5
BB
330
2
100
AcDbSymbolTableRecord
100
AcDbLayerTableRecord
  2
130
 70
     0
 62
   130
  6
CONTINUOUS
  0
LAYER
  5
BC
330
2
100
AcDbSymbolTableRecord
100
AcDbLayerTableRecord
  2
131
 70
     0
 62
   131
  6
CONTINUOUS
  0
LAYER
  5
BD
330
2
100
AcDbSymbolTableRecord
100
AcDbLayerTableRecord
  2
132
 70
     0
 62
   132
  6
CONTINUOUS
  0
LAYER
  5
BE
330
2
100
AcDbSymbolTableRecord
100
AcDbLayerTableRecord
  2
133
 70
     0
 62
   133
  6
CONTINUOUS
  0
LAYER
  5
BF
330
2
100
AcDbSymbolTableRecord
100
AcDbLayerTableRecord
  2
134
 70
     0
 62
   134
  6
CONTINUOUS
  0
LAYER
  5
C0
330
2
100
AcDbSymbolTableRecord
100
AcDbLayerTableRecord
  2
135
 70
     0
 62
   135
  6
CONTINUOUS
  0
LAYER
  5
C1
330
2
100
AcDbSymbolTableRecord
100
AcDbLayerTableRecord
  2
136
 70
     0
 62
   136
  6
CONTINUOUS
  0
LAYER
  5
C2
330
2
100
AcDbSymbolTableRecord
100
AcDbLayerTableRecord
  2
137
 70
     0
 62
   137
  6
CONTINUOUS
  0
LAYER
  5
C3
330
2
100
AcDbSymbolTableRecord
100
AcDbLayerTableRecord
  2
138
 70
     0
 62
   138
  6
CONTINUOUS
  0
LAYER
  5
C4
330
2
100
AcDbSymbolTableRecord
100
AcDbLayerTableRecord
  2
139
 70
     0
 62
   139
  6
CONTINUOUS
  0
LAYER
  5
C5
330
2
100
AcDbSymbolTableRecord
100
AcDbLayerTableRecord
  2
140
 70
     0
 62
   140
  6
CONTINUOUS
  0
LAYER
  5
C6
330
2
100
AcDbSymbolTableRecord
100
AcDbLayerTableRecord
  2
141
 70
     0
 62
   141
  6
CONTINUOUS
  0
LAYER
  5
C7
330
2
100
AcDbSymbolTableRecord
100
AcDbLayerTableRecord
  2
142
 70
     0
 62
   142
  6
CONTINUOUS
  0
LAYER
  5
C8
330
2
100
AcDbSymbolTableRecord
100
AcDbLayerTableRecord
  2
143
 70
     0
 62
   143
  6
CONTINUOUS
  0
LAYER
  5
C9
330
2
100
AcDbSymbolTableRecord
100
AcDbLayerTableRecord
  2
144
 70
     0
 62
   144
  6
CONTINUOUS
  0
LAYER
  5
CA
330
2
100
AcDbSymbolTableRecord
100
AcDbLayerTableRecord
  2
145
 70
     0
 62
   145
  6
CONTINUOUS
  0
LAYER
  5
CB
330
2
100
AcDbSymbolTableRecord
100
AcDbLayerTableRecord
  2
146
 70
     0
 62
   146
  6
CONTINUOUS
  0
LAYER
  5
CC
330
2
100
AcDbSymbolTableRecord
100
AcDbLayerTableRecord
  2
147
 70
     0
 62
   147
  6
CONTINUOUS
  0
LAYER
  5
CD
330
2
100
AcDbSymbolTableRecord
100
AcDbLayerTableRecord
  2
148
 70
     0
 62
   148
  6
CONTINUOUS
  0
LAYER
  5
CE
330
2
100
AcDbSymbolTableRecord
100
AcDbLayerTableRecord
  2
149
 70
     0
 62
   149
  6
CONTINUOUS
  0
LAYER
  5
CF
330
2
100
AcDbSymbolTableRecord
100
AcDbLayerTableRecord
  2
150
 70
     0
 62
   150
  6
CONTINUOUS
  0
LAYER
  5
D0
330
2
100
AcDbSymbolTableRecord
100
AcDbLayerTableRecord
  2
151
 70
     0
 62
   151
  6
CONTINUOUS
  0
LAYER
  5
D1
330
2
100
AcDbSymbolTableRecord
100
AcDbLayerTableRecord
  2
152
 70
     0
 62
   152
  6
CONTINUOUS
  0
LAYER
  5
D2
330
2
100
AcDbSymbolTableRecord
100
AcDbLayerTableRecord
  2
153
 70
     0
 62
   153
  6
CONTINUOUS
  0
LAYER
  5
D3
330
2
100
AcDbSymbolTableRecord
100
AcDbLayerTableRecord
  2
154
 70
     0
 62
   154
  6
CONTINUOUS
  0
LAYER
  5
D4
330
2
100
AcDbSymbolTableRecord
100
AcDbLayerTableRecord
  2
155
 70
     0
 62
   155
  6
CONTINUOUS
  0
LAYER
  5
D5
330
2
100
AcDbSymbolTableRecord
100
AcDbLayerTableRecord
  2
156
 70
     0
 62
   156
  6
CONTINUOUS
  0
LAYER
  5
D6
330
2
100
AcDbSymbolTableRecord
100
AcDbLayerTableRecord
  2
157
 70
     0
 62
   157
  6
CONTINUOUS
  0
LAYER
  5
D7
330
2
100
AcDbSymbolTableRecord
100
AcDbLayerTableRecord
  2
158
 70
     0
 62
   158
  6
CONTINUOUS
  0
LAYER
  5
D8
330
2
100
AcDbSymbolTableRecord
100
AcDbLayerTableRecord
  2
159
 70
     0
 62
   159
  6
CONTINUOUS
  0
LAYER
  5
D9
330
2
100
AcDbSymbolTableRecord
100
AcDbLayerTableRecord
  2
160
 70
     0
 62
   160
  6
CONTINUOUS
  0
LAYER
  5
DA
330
2
100
AcDbSymbolTableRecord
100
AcDbLayerTableRecord
  2
161
 70
     0
 62
   161
  6
CONTINUOUS
  0
LAYER
  5
DB
330
2
100
AcDbSymbolTableRecord
100
AcDbLayerTableRecord
  2
162
 70
     0
 62
   162
  6
CONTINUOUS
  0
LAYER
  5
DC
330
2
100
AcDbSymbolTableRecord
100
AcDbLayerTableRecord
  2
163
 70
     0
 62
   163
  6
CONTINUOUS
  0
LAYER
  5
DD
330
2
100
AcDbSymbolTableRecord
100
AcDbLayerTableRecord
  2
164
 70
     0
 62
   164
  6
CONTINUOUS
  0
LAYER
  5
DE
330
2
100
AcDbSymbolTableRecord
100
AcDbLayerTableRecord
  2
165
 70
     0
 62
   165
  6
CONTINUOUS
  0
LAYER
  5
DF
330
2
100
AcDbSymbolTableRecord
100
AcDbLayerTableRecord
  2
166
 70
     0
 62
   166
  6
CONTINUOUS
  0
LAYER
  5
E0
330
2
100
AcDbSymbolTableRecord
100
AcDbLayerTableRecord
  2
167
 70
     0
 62
   167
  6
CONTINUOUS
  0
LAYER
  5
E1
330
2
100
AcDbSymbolTableRecord
100
AcDbLayerTableRecord
  2
168
 70
     0
 62
   168
  6
CONTINUOUS
  0
LAYER
  5
E2
330
2
100
AcDbSymbolTableRecord
100
AcDbLayerTableRecord
  2
169
 70
     0
 62
   169
  6
CONTINUOUS
  0
LAYER
  5
E3
330
2
100
AcDbSymbolTableRecord
100
AcDbLayerTableRecord
  2
170
 70
     0
 62
   170
  6
CONTINUOUS
  0
LAYER
  5
E4
330
2
100
AcDbSymbolTableRecord
100
AcDbLayerTableRecord
  2
171
 70
     0
 62
   171
  6
CONTINUOUS
  0
LAYER
  5
E5
330
2
100
AcDbSymbolTableRecord
100
AcDbLayerTableRecord
  2
172
 70
     0
 62
   172
  6
CONTINUOUS
  0
LAYER
  5
E6
330
2
100
AcDbSymbolTableRecord
100
AcDbLayerTableRecord
  2
173
 70
     0
 62
   173
  6
CONTINUOUS
  0
LAYER
  5
E7
330
2
100
AcDbSymbolTableRecord
100
AcDbLayerTableRecord
  2
174
 70
     0
 62
   174
  6
CONTINUOUS
  0
LAYER
  5
E8
330
2
100
AcDbSymbolTableRecord
100
AcDbLayerTableRecord
  2
175
 70
     0
 62
   175
  6
CONTINUOUS
  0
LAYER
  5
E9
330
2
100
AcDbSymbolTableRecord
100
AcDbLayerTableRecord
  2
176
 70
     0
 62
   176
  6
CONTINUOUS
  0
LAYER
  5
EA
330
2
100
AcDbSymbolTableRecord
100
AcDbLayerTableRecord
  2
177
 70
     0
 62
   177
  6
CONTINUOUS
  0
LAYER
  5
EB
330
2
100
AcDbSymbolTableRecord
100
AcDbLayerTableRecord
  2
178
 70
     0
 62
   178
  6
CONTINUOUS
  0
LAYER
  5
EC
330
2
100
AcDbSymbolTableRecord
100
AcDbLayerTableRecord
  2
179
 70
     0
 62
   179
  6
CONTINUOUS
  0
LAYER
  5
ED
330
2
100
AcDbSymbolTableRecord
100
AcDbLayerTableRecord
  2
180
 70
     0
 62
   180
  6
CONTINUOUS
  0
LAYER
  5
EE
330
2
100
AcDbSymbolTableRecord
100
AcDbLayerTableRecord
  2
181
 70
     0
 62
   181
  6
CONTINUOUS
  0
LAYER
  5
EF
330
2
100
AcDbSymbolTableRecord
100
AcDbLayerTableRecord
  2
182
 70
     0
 62
   182
  6
CONTINUOUS
  0
LAYER
  5
F0
330
2
100
AcDbSymbolTableRecord
100
AcDbLayerTableRecord
  2
183
 70
     0
 62
   183
  6
CONTINUOUS
  0
LAYER
  5
F1
330
2
100
AcDbSymbolTableRecord
100
AcDbLayerTableRecord
  2
184
 70
     0
 62
   184
  6
CONTINUOUS
  0
LAYER
  5
F2
330
2
100
AcDbSymbolTableRecord
100
AcDbLayerTableRecord
  2
185
 70
     0
 62
   185
  6
CONTINUOUS
  0
LAYER
  5
F3
330
2
100
AcDbSymbolTableRecord
100
AcDbLayerTableRecord
  2
186
 70
     0
 62
   186
  6
CONTINUOUS
  0
LAYER
  5
F4
330
2
100
AcDbSymbolTableRecord
100
AcDbLayerTableRecord
  2
187
 70
     0
 62
   187
  6
CONTINUOUS
  0
LAYER
  5
F5
330
2
100
AcDbSymbolTableRecord
100
AcDbLayerTableRecord
  2
188
 70
     0
 62
   188
  6
CONTINUOUS
  0
LAYER
  5
F6
330
2
100
AcDbSymbolTableRecord
100
AcDbLayerTableRecord
  2
189
 70
     0
 62
   189
  6
CONTINUOUS
  0
LAYER
  5
F7
330
2
100
AcDbSymbolTableRecord
100
AcDbLayerTableRecord
  2
190
 70
     0
 62
   190
  6
CONTINUOUS
  0
LAYER
  5
F8
330
2
100
AcDbSymbolTableRecord
100
AcDbLayerTableRecord
  2
191
 70
     0
 62
   191
  6
CONTINUOUS
  0
LAYER
  5
F9
330
2
100
AcDbSymbolTableRecord
100
AcDbLayerTableRecord
  2
192
 70
     0
 62
   192
  6
CONTINUOUS
  0
LAYER
  5
FA
330
2
100
AcDbSymbolTableRecord
100
AcDbLayerTableRecord
  2
193
 70
     0
 62
   193
  6
CONTINUOUS
  0
LAYER
  5
FB
330
2
100
AcDbSymbolTableRecord
100
AcDbLayerTableRecord
  2
194
 70
     0
 62
   194
  6
CONTINUOUS
  0
LAYER
  5
FC
330
2
100
AcDbSymbolTableRecord
100
AcDbLayerTableRecord
  2
195
 70
     0
 62
   195
  6
CONTINUOUS
  0
LAYER
  5
FD
330
2
100
AcDbSymbolTableRecord
100
AcDbLayerTableRecord
  2
196
 70
     0
 62
   196
  6
CONTINUOUS
  0
LAYER
  5
FE
330
2
100
AcDbSymbolTableRecord
100
AcDbLayerTableRecord
  2
197
 70
     0
 62
   197
  6
CONTINUOUS
  0
LAYER
  5
FF
330
2
100
AcDbSymbolTableRecord
100
AcDbLayerTableRecord
  2
198
 70
     0
 62
   198
  6
CONTINUOUS
  0
LAYER
  5
100
330
2
100
AcDbSymbolTableRecord
100
AcDbLayerTableRecord
  2
199
 70
     0
 62
   199
  6
CONTINUOUS
  0
LAYER
  5
101
330
2
100
AcDbSymbolTableRecord
100
AcDbLayerTableRecord
  2
200
 70
     0
 62
   200
  6
CONTINUOUS
  0
LAYER
  5
102
330
2
100
AcDbSymbolTableRecord
100
AcDbLayerTableRecord
  2
201
 70
     0
 62
   201
  6
CONTINUOUS
  0
LAYER
  5
103
330
2
100
AcDbSymbolTableRecord
100
AcDbLayerTableRecord
  2
202
 70
     0
 62
   202
  6
CONTINUOUS
  0
LAYER
  5
104
330
2
100
AcDbSymbolTableRecord
100
AcDbLayerTableRecord
  2
203
 70
     0
 62
   203
  6
CONTINUOUS
  0
LAYER
  5
105
330
2
100
AcDbSymbolTableRecord
100
AcDbLayerTableRecord
  2
204
 70
     0
 62
   204
  6
CONTINUOUS
  0
LAYER
  5
106
330
2
100
AcDbSymbolTableRecord
100
AcDbLayerTableRecord
  2
205
 70
     0
 62
   205
  6
CONTINUOUS
  0
LAYER
  5
107
330
2
100
AcDbSymbolTableRecord
100
AcDbLayerTableRecord
  2
206
 70
     0
 62
   206
  6
CONTINUOUS
  0
LAYER
  5
108
330
2
100
AcDbSymbolTableRecord
100
AcDbLayerTableRecord
  2
207
 70
     0
 62
   207
  6
CONTINUOUS
  0
LAYER
  5
109
330
2
100
AcDbSymbolTableRecord
100
AcDbLayerTableRecord
  2
208
 70
     0
 62
   208
  6
CONTINUOUS
  0
LAYER
  5
10A
330
2
100
AcDbSymbolTableRecord
100
AcDbLayerTableRecord
  2
209
 70
     0
 62
   209
  6
CONTINUOUS
  0
LAYER
  5
10B
330
2
100
AcDbSymbolTableRecord
100
AcDbLayerTableRecord
  2
210
 70
     0
 62
   210
  6
CONTINUOUS
  0
LAYER
  5
10C
330
2
100
AcDbSymbolTableRecord
100
AcDbLayerTableRecord
  2
211
 70
     0
 62
   211
  6
CONTINUOUS
  0
LAYER
  5
10D
330
2
100
AcDbSymbolTableRecord
100
AcDbLayerTableRecord
  2
212
 70
     0
 62
   212
  6
CONTINUOUS
  0
LAYER
  5
10E
330
2
100
AcDbSymbolTableRecord
100
AcDbLayerTableRecord
  2
213
 70
     0
 62
   213
  6
CONTINUOUS
  0
LAYER
  5
10F
330
2
100
AcDbSymbolTableRecord
100
AcDbLayerTableRecord
  2
214
 70
     0
 62
   214
  6
CONTINUOUS
  0
LAYER
  5
110
330
2
100
AcDbSymbolTableRecord
100
AcDbLayerTableRecord
  2
215
 70
     0
 62
   215
  6
CONTINUOUS
  0
LAYER
  5
111
330
2
100
AcDbSymbolTableRecord
100
AcDbLayerTableRecord
  2
216
 70
     0
 62
   216
  6
CONTINUOUS
  0
LAYER
  5
112
330
2
100
AcDbSymbolTableRecord
100
AcDbLayerTableRecord
  2
217
 70
     0
 62
   217
  6
CONTINUOUS
  0
LAYER
  5
113
330
2
100
AcDbSymbolTableRecord
100
AcDbLayerTableRecord
  2
218
 70
     0
 62
   218
  6
CONTINUOUS
  0
LAYER
  5
114
330
2
100
AcDbSymbolTableRecord
100
AcDbLayerTableRecord
  2
219
 70
     0
 62
   219
  6
CONTINUOUS
  0
LAYER
  5
115
330
2
100
AcDbSymbolTableRecord
100
AcDbLayerTableRecord
  2
220
 70
     0
 62
   220
  6
CONTINUOUS
  0
LAYER
  5
116
330
2
100
AcDbSymbolTableRecord
100
AcDbLayerTableRecord
  2
221
 70
     0
 62
   221
  6
CONTINUOUS
  0
LAYER
  5
117
330
2
100
AcDbSymbolTableRecord
100
AcDbLayerTableRecord
  2
222
 70
     0
 62
   222
  6
CONTINUOUS
  0
LAYER
  5
118
330
2
100
AcDbSymbolTableRecord
100
AcDbLayerTableRecord
  2
223
 70
     0
 62
   223
  6
CONTINUOUS
  0
LAYER
  5
119
330
2
100
AcDbSymbolTableRecord
100
AcDbLayerTableRecord
  2
224
 70
     0
 62
   224
  6
CONTINUOUS
  0
LAYER
  5
11A
330
2
100
AcDbSymbolTableRecord
100
AcDbLayerTableRecord
  2
225
 70
     0
 62
   225
  6
CONTINUOUS
  0
LAYER
  5
11B
330
2
100
AcDbSymbolTableRecord
100
AcDbLayerTableRecord
  2
226
 70
     0
 62
   226
  6
CONTINUOUS
  0
LAYER
  5
11C
330
2
100
AcDbSymbolTableRecord
100
AcDbLayerTableRecord
  2
227
 70
     0
 62
   227
  6
CONTINUOUS
  0
LAYER
  5
11D
330
2
100
AcDbSymbolTableRecord
100
AcDbLayerTableRecord
  2
228
 70
     0
 62
   228
  6
CONTINUOUS
  0
LAYER
  5
11E
330
2
100
AcDbSymbolTableRecord
100
AcDbLayerTableRecord
  2
229
 70
     0
 62
   229
  6
CONTINUOUS
  0
LAYER
  5
11F
330
2
100
AcDbSymbolTableRecord
100
AcDbLayerTableRecord
  2
230
 70
     0
 62
   230
  6
CONTINUOUS
  0
LAYER
  5
120
330
2
100
AcDbSymbolTableRecord
100
AcDbLayerTableRecord
  2
231
 70
     0
 62
   231
  6
CONTINUOUS
  0
LAYER
  5
121
330
2
100
AcDbSymbolTableRecord
100
AcDbLayerTableRecord
  2
232
 70
     0
 62
   232
  6
CONTINUOUS
  0
LAYER
  5
122
330
2
100
AcDbSymbolTableRecord
100
AcDbLayerTableRecord
  2
233
 70
     0
 62
   233
  6
CONTINUOUS
  0
LAYER
  5
123
330
2
100
AcDbSymbolTableRecord
100
AcDbLayerTableRecord
  2
234
 70
     0
 62
   234
  6
CONTINUOUS
  0
LAYER
  5
124
330
2
100
AcDbSymbolTableRecord
100
AcDbLayerTableRecord
  2
235
 70
     0
 62
   235
  6
CONTINUOUS
  0
LAYER
  5
125
330
2
100
AcDbSymbolTableRecord
100
AcDbLayerTableRecord
  2
236
 70
     0
 62
   236
  6
CONTINUOUS
  0
LAYER
  5
126
330
2
100
AcDbSymbolTableRecord
100
AcDbLayerTableRecord
  2
237
 70
     0
 62
   237
  6
CONTINUOUS
  0
LAYER
  5
127
330
2
100
AcDbSymbolTableRecord
100
AcDbLayerTableRecord
  2
238
 70
     0
 62
   238
  6
CONTINUOUS
  0
LAYER
  5
128
330
2
100
AcDbSymbolTableRecord
100
AcDbLayerTableRecord
  2
239
 70
     0
 62
   239
  6
CONTINUOUS
  0
LAYER
  5
129
330
2
100
AcDbSymbolTableRecord
100
AcDbLayerTableRecord
  2
240
 70
     0
 62
   240
  6
CONTINUOUS
  0
LAYER
  5
12A
330
2
100
AcDbSymbolTableRecord
100
AcDbLayerTableRecord
  2
241
 70
     0
 62
   241
  6
CONTINUOUS
  0
LAYER
  5
12B
330
2
100
AcDbSymbolTableRecord
100
AcDbLayerTableRecord
  2
242
 70
     0
 62
   242
  6
CONTINUOUS
  0
LAYER
  5
12C
330
2
100
AcDbSymbolTableRecord
100
AcDbLayerTableRecord
  2
243
 70
     0
 62
   243
  6
CONTINUOUS
  0
LAYER
  5
12D
330
2
100
AcDbSymbolTableRecord
100
AcDbLayerTableRecord
  2
244
 70
     0
 62
   244
  6
CONTINUOUS
  0
LAYER
  5
12E
330
2
100
AcDbSymbolTableRecord
100
AcDbLayerTableRecord
  2
245
 70
     0
 62
   245
  6
CONTINUOUS
  0
LAYER
  5
12F
330
2
100
AcDbSymbolTableRecord
100
AcDbLayerTableRecord
  2
246
 70
     0
 62
   246
  6
CONTINUOUS
  0
LAYER
  5
130
330
2
100
AcDbSymbolTableRecord
100
AcDbLayerTableRecord
  2
247
 70
     0
 62
   247
  6
CONTINUOUS
  0
LAYER
  5
131
330
2
100
AcDbSymbolTableRecord
100
AcDbLayerTableRecord
  2
248
 70
     0
 62
   248
  6
CONTINUOUS
  0
LAYER
  5
132
330
2
100
AcDbSymbolTableRecord
100
AcDbLayerTableRecord
  2
249
 70
     0
 62
   249
  6
CONTINUOUS
  0
LAYER
  5
133
330
2
100
AcDbSymbolTableRecord
100
AcDbLayerTableRecord
  2
250
 70
     0
 62
   250
  6
CONTINUOUS
  0
LAYER
  5
134
330
2
100
AcDbSymbolTableRecord
100
AcDbLayerTableRecord
  2
251
 70
     0
 62
   251
  6
CONTINUOUS
  0
LAYER
  5
135
330
2
100
AcDbSymbolTableRecord
100
AcDbLayerTableRecord
  2
252
 70
     0
 62
   252
  6
CONTINUOUS
  0
LAYER
  5
136
330
2
100
AcDbSymbolTableRecord
100
AcDbLayerTableRecord
  2
253
 70
     0
 62
   253
  6
CONTINUOUS
  0
LAYER
  5
137
330
2
100
AcDbSymbolTableRecord
100
AcDbLayerTableRecord
  2
254
 70
     0
 62
   254
  6
CONTINUOUS
  0
LAYER
  5
138
330
2
100
AcDbSymbolTableRecord
100
AcDbLayerTableRecord
  2
255
 70
     0
 62
   255
  6
CONTINUOUS
  0
LAYER
  5
2AEE
330
2
100
AcDbSymbolTableRecord
100
AcDbLayerTableRecord
  2
DEFPOINTS
 70
     0
 62
     7
  6
CONTINUOUS
  0
ENDTAB
  0
TABLE
  2
STYLE
  5
3
330
0
100
AcDbSymbolTable
 70
     1
  0
STYLE
  5
11
330
3
100
AcDbSymbolTableRecord
100
AcDbTextStyleTableRecord
  2
STANDARD
 70
     0
 40
0.0
 41
1.0
 50
0.0
 71
     0
 42
0.2
  3
txt
  4

  0
ENDTAB
  0
TABLE
  2
VIEW
  5
6
330
0
100
AcDbSymbolTable
 70
     0
  0
ENDTAB
  0
TABLE
  2
UCS
  5
7
330
0
100
AcDbSymbolTable
 70
     0
  0
ENDTAB
  0
TABLE
  2
APPID
  5
9
330
0
100
AcDbSymbolTable
 70
     1
  0
APPID
  5
12
330
9
100
AcDbSymbolTableRecord
100
AcDbRegAppTableRecord
  2
ACAD
 70
     0
  0
ENDTAB
  0
TABLE
  2
DIMSTYLE
  5
A
330
0
100
AcDbSymbolTable
 70
     1
  0
DIMSTYLE
105
2AE9
102
{ACAD_REACTORS
330
2AED
102
}
330
A
100
AcDbSymbolTableRecord
100
AcDbDimStyleTableRecord
  2
STANDARD
 70
     0
  3

  4

  5

  6

  7

 40
1.0
 41
0.18
 42
0.0625
 43
0.38
 44
0.18
 45
0.0
 46
0.0
 47
0.0
 48
0.0
140
0.18
141
0.09
142
0.0
143
25.4
144
1.0
145
0.0
146
1.0
147
0.09
 71
     0
 72
     0
 73
     1
 74
     1
 75
     0
 76
     0
 77
     0
 78
     0
170
     0
171
     2
172
     0
173
     0
174
     0
175
     0
176
     0
177
     0
178
     0
270
     2
271
     4
272
     4
273
     2
274
     2
340
11
275
     0
280
     0
281
     0
282
     0
283
     1
284
     0
285
     0
286
     0
287
     3
288
     0
  0
ENDTAB
  0
TABLE
  2
BLOCK_RECORD
  5
1
330
0
100
AcDbSymbolTable
 70
     1
  0
BLOCK_RECORD
  5
1E
102
{ACAD_XDICTIONARY
360
2B0D
102
}
330
1
100
AcDbSymbolTableRecord
100
AcDbBlockTableRecord
  2
*MODEL_SPACE
  0
BLOCK_RECORD
  5
1A
102
{ACAD_XDICTIONARY
360
2B0B
102
}
330
1
100
AcDbSymbolTableRecord
100
AcDbBlockTableRecord
  2
*PAPER_SPACE
  0
BLOCK_RECORD
  5
2AEF
330
1
100
AcDbSymbolTableRecord
100
AcDbBlockTableRecord
  2
*D0
  0
ENDTAB
  0
ENDSEC
  0
SECTION
  2
BLOCKS
  0
BLOCK
  5
13B
330
1E
100
AcDbEntity
  8
0
100
AcDbBlockBegin
  2
*MODEL_SPACE
 70
     0
 10
0.0
 20
0.0
 30
0.0
  3
*MODEL_SPACE
  1

  0
ENDBLK
  5
13C
330
1E
100
AcDbEntity
  8
0
100
AcDbBlockEnd
  0
BLOCK
  5
139
330
1A
100
AcDbEntity
 67
     1
  8
0
100
AcDbBlockBegin
  2
*PAPER_SPACE
 70
     0
 10
0.0
 20
0.0
 30
0.0
  3
*PAPER_SPACE
  1

  0
ENDBLK
  5
13A
330
1A
100
AcDbEntity
 67
     1
  8
0
100
AcDbBlockEnd
  0
BLOCK
  5
2AFA
330
2AEF
100
AcDbEntity
  8
0
100
AcDbBlockBegin
  2
*D0
 70
     1
 10
0.0
 20
0.0
 30
0.0
  3
*D0
  1

  0
LINE
  5
2AFC
330
2AEF
100
AcDbEntity
  8
0
 62
     0
100
AcDbLine
 10
-0.0898950057824807
 20
7.062007874015748
 30
0.0
 11
-1.355688872474145
 21
7.062007874015748
 31
0.0
  0
LINE
  5
2AFD
330
2AEF
100
AcDbEntity
  8
0
 62
     0
100
AcDbLine
 10
-0.0898950057824807
 20
2.562007885265748
 30
0.0
 11
-1.355688872474146
 21
2.562007885265748
 31
0.0
  0
LINE
  5
2AFE
330
2AEF
100
AcDbEntity
  8
0
 62
     0
100
AcDbLine
 10
-1.175688872474145
 20
6.882007874015748
 30
0.0
 11
-1.175688872474146
 21
4.992007879640747
 31
0.0
  0
LINE
  5
2AFF
330
2AEF
100
AcDbEntity
  8
0
 62
     0
100
AcDbLine
 10
-1.175688872474146
 20
2.742007885265748
 30
0.0
 11
-1.175688872474146
 21
4.632007879640748
 31
0.0
  0
SOLID
  5
2B00
330
2AEF
100
AcDbEntity
  8
0
 62
     0
100
AcDbTrace
 10
-1.205688872474145
 20
6.882007874015748
 30
0.0
 11
-1.145688872474145
 21
6.882007874015748
 31
0.0
 12
-1.175688872474145
 22
7.062007874015748
 32
0.0
 13
-1.175688872474145
 23
7.062007874015748
 33
0.0
  0
SOLID
  5
2B01
330
2AEF
100
AcDbEntity
  8
0
 62
     0
100
AcDbTrace
 10
-1.205688872474146
 20
2.742007885265748
 30
0.0
 11
-1.145688872474146
 21
2.742007885265748
 31
0.0
 12
-1.175688872474146
 22
2.562007885265748
 32
0.0
 13
-1.175688872474146
 23
2.562007885265748
 33
0.0
  0
MTEXT
  5
2B02
330
2AEF
100
AcDbEntity
  8
0
 62
     0
100
AcDbMText
 10
-1.175688872474146
 20
4.812007879640748
 30
0.0
 40
0.18
 41
0.0
 71
     5
 72
     1
  1
\A1;4.5000
1001
ACAD
1000
MTEXTBEGIN
1070
    73
1070
     1
1070
    44
1040
1.0
1070
    74
1070
     0
1000
MTEXTEND
  0
POINT
  5
2B03
330
2AEF
100
AcDbEntity
  8
DEFPOINTS
 62
     0
100
AcDbPoint
 10
-0.0273950057824807
 20
7.062007874015748
 30
0.0
  0
POINT
  5
2B04
330
2AEF
100
AcDbEntity
  8
DEFPOINTS
 62
     0
100
AcDbPoint
 10
-0.0273950057824807
 20
2.562007885265748
 30
0.0
  0
POINT
  5
2B05
330
2AEF
100
AcDbEntity
  8
DEFPOINTS
 62
     0
100
AcDbPoint
 10
-1.175688872474146
 20
2.562007885265748
 30
0.0
  0
ENDBLK
  5
2AFB
330
2AEF
100
AcDbEntity
  8
0
100
AcDbBlockEnd
  0
ENDSEC
  0
SECTION
  2
ENTITIES
  0
POLYLINE
  5
2921
330
1E
100
AcDbEntity
  8
0
100
AcDb2dPolyline
 66
     1
 10
0.0
 20
0.0
 30
0.0
  0
VERTEX
  5
2B0F
330
2921
100
AcDbEntity
  8
0
100
AcDbVertex
100
AcDb2dVertex
 10
4.433234904325787
 20
4.681430452145669
 30
0.0
  0
VERTEX
  5
2B10
330
2921
100
AcDbEntity
  8
0
100
AcDbVertex
100
AcDb2dVertex
 10
4.410925193095472
 20
4.604002630816928
 30
0.0
  0
VERTEX
  5
2B11
330
2921
100
AcDbEntity
  8
0
100
AcDbVertex
100
AcDb2dVertex
 10
4.376804458272637
 20
4.529199481397636
 30
0.0
  0
VERTEX
  5
2B12
330
2921
100
AcDbEntity
  8
0
100
AcDbVertex
100
AcDb2dVertex
 10
4.334809707721456
 20
4.460958011751968
 30
0.0
  0
VERTEX
  5
2B13
330
2921
100
AcDbEntity
  8
0
100
AcDbVertex
100
AcDb2dVertex
 10
4.28231626953248
 20
4.397965885925196
 30
0.0
  0
VERTEX
  5
2B14
330
2921
100
AcDbEntity
  8
0
100
AcDbVertex
100
AcDb2dVertex
 10
4.221948815615157
 20
4.342847775826771
 30
0.0
  0
VERTEX
  5
2B15
330
2921
100
AcDbEntity
  8
0
100
AcDbVertex
100
AcDb2dVertex
 10
4.156332017878936
 20
4.296916017411417
 30
0.0
  0
VERTEX
  5
2B16
330
2921
100
AcDbEntity
  8
0
100
AcDbVertex
100
AcDb2dVertex
 10
4.084153540369094
 20
4.260170610679133
 30
0.0
  0
VERTEX
  5
2B17
330
2921
100
AcDbEntity
  8
0
100
AcDbVertex
100
AcDb2dVertex
 10
4.006725719040354
 20
4.232611555629921
 30
0.0
  0
VERTEX
  5
2B18
330
2921
100
AcDbEntity
  8
0
100
AcDbVertex
100
AcDb2dVertex
 10
3.926673225802165
 20
4.216863524173228
 30
0.0
  0
VERTEX
  5
2B19
330
2921
100
AcDbEntity
  8
0
100
AcDbVertex
100
AcDb2dVertex
 10
3.846620732563976
 20
4.211614180354331
 30
0.0
  0
VERTEX
  5
2B1A
330
2921
100
AcDbEntity
  8
0
100
AcDbVertex
100
AcDb2dVertex
 10
3.765255903371063
 20
4.216863524173228
 30
0.0
  0
VERTEX
  5
2B1B
330
2921
100
AcDbEntity
  8
0
100
AcDbVertex
100
AcDb2dVertex
 10
3.685203410132873
 20
4.232611555629921
 30
0.0
  0
VERTEX
  5
2B1C
330
2921
100
AcDbEntity
  8
0
100
AcDbVertex
100
AcDb2dVertex
 10
3.609087924758858
 20
4.260170610679133
 30
0.0
  0
VERTEX
  5
2B1D
330
2921
100
AcDbEntity
  8
0
100
AcDbVertex
100
AcDb2dVertex
 10
3.536909447249015
 20
4.296916017411417
 30
0.0
  0
VERTEX
  5
2B1E
330
2921
100
AcDbEntity
  8
0
100
AcDbVertex
100
AcDb2dVertex
 10
3.46998031355807
 20
4.342847775826771
 30
0.0
  0
VERTEX
  5
2B1F
330
2921
100
AcDbEntity
  8
0
100
AcDbVertex
100
AcDb2dVertex
 10
3.409612859640748
 20
4.397965885925196
 30
0.0
  0
VERTEX
  5
2B20
330
2921
100
AcDbEntity
  8
0
100
AcDbVertex
100
AcDb2dVertex
 10
3.358431757406496
 20
4.460958011751968
 30
0.0
  0
VERTEX
  5
2B21
330
2921
100
AcDbEntity
  8
0
100
AcDbVertex
100
AcDb2dVertex
 10
3.31512467090059
 20
4.529199481397636
 30
0.0
  0
VERTEX
  5
2B22
330
2921
100
AcDbEntity
  8
0
100
AcDbVertex
100
AcDb2dVertex
 10
3.28231627203248
 20
4.604002630816928
 30
0.0
  0
VERTEX
  5
2B23
330
2921
100
AcDbEntity
  8
0
100
AcDbVertex
100
AcDb2dVertex
 10
3.258694224847441
 20
4.681430452145669
 30
0.0
  0
SEQEND
  5
2B24
330
2921
100
AcDbEntity
  8
0
  0
POLYLINE
  5
2938
330
1E
100
AcDbEntity
  8
0
100
AcDb2dPolyline
 66
     1
 10
0.0
 20
0.0
 30
0.0
  0
VERTEX
  5
2B25
330
2938
100
AcDbEntity
  8
0
100
AcDbVertex
100
AcDb2dVertex
 10
2.557906825024605
 20
4.681430452145669
 30
0.0
  0
VERTEX
  5
2B26
330
2938
100
AcDbEntity
  8
0
100
AcDbVertex
100
AcDb2dVertex
 10
2.535597113794291
 20
4.604002630816928
 30
0.0
  0
VERTEX
  5
2B27
330
2938
100
AcDbEntity
  8
0
100
AcDbVertex
100
AcDb2dVertex
 10
2.50278871492618
 20
4.529199481397636
 30
0.0
  0
VERTEX
  5
2B28
330
2938
100
AcDbEntity
  8
0
100
AcDbVertex
100
AcDb2dVertex
 10
2.459481628420275
 20
4.460958011751968
 30
0.0
  0
VERTEX
  5
2B29
330
2938
100
AcDbEntity
  8
0
100
AcDbVertex
100
AcDb2dVertex
 10
2.406988190231299
 20
4.397965885925196
 30
0.0
  0
VERTEX
  5
2B2A
330
2938
100
AcDbEntity
  8
0
100
AcDbVertex
100
AcDb2dVertex
 10
2.3479330722687
 20
4.342847775826771
 30
0.0
  0
VERTEX
  5
2B2B
330
2938
100
AcDbEntity
  8
0
100
AcDbVertex
100
AcDb2dVertex
 10
2.281003938577755
 20
4.296916017411417
 30
0.0
  0
VERTEX
  5
2B2C
330
2938
100
AcDbEntity
  8
0
100
AcDbVertex
100
AcDb2dVertex
 10
2.208825461067912
 20
4.260170610679133
 30
0.0
  0
VERTEX
  5
2B2D
330
2938
100
AcDbEntity
  8
0
100
AcDbVertex
100
AcDb2dVertex
 10
2.131397639739173
 20
4.232611555629921
 30
0.0
  0
VERTEX
  5
2B2E
330
2938
100
AcDbEntity
  8
0
100
AcDbVertex
100
AcDb2dVertex
 10
2.052657482455708
 20
4.216863524173228
 30
0.0
  0
VERTEX
  5
2B2F
330
2938
100
AcDbEntity
  8
0
100
AcDbVertex
100
AcDb2dVertex
 10
1.971292653262795
 20
4.211614180354331
 30
0.0
  0
VERTEX
  5
2B30
330
2938
100
AcDbEntity
  8
0
100
AcDbVertex
100
AcDb2dVertex
 10
1.889927824069881
 20
4.216863524173228
 30
0.0
  0
VERTEX
  5
2B31
330
2938
100
AcDbEntity
  8
0
100
AcDbVertex
100
AcDb2dVertex
 10
1.811187666786417
 20
4.232611555629921
 30
0.0
  0
VERTEX
  5
2B32
330
2938
100
AcDbEntity
  8
0
100
AcDbVertex
100
AcDb2dVertex
 10
1.733759845457676
 20
4.260170610679133
 30
0.0
  0
VERTEX
  5
2B33
330
2938
100
AcDbEntity
  8
0
100
AcDbVertex
100
AcDb2dVertex
 10
1.661581367947834
 20
4.296916017411417
 30
0.0
  0
VERTEX
  5
2B34
330
2938
100
AcDbEntity
  8
0
100
AcDbVertex
100
AcDb2dVertex
 10
1.594652234256889
 20
4.342847775826771
 30
0.0
  0
VERTEX
  5
2B35
330
2938
100
AcDbEntity
  8
0
100
AcDbVertex
100
AcDb2dVertex
 10
1.535597116294291
 20
4.397965885925196
 30
0.0
  0
VERTEX
  5
2B36
330
2938
100
AcDbEntity
  8
0
100
AcDbVertex
100
AcDb2dVertex
 10
1.483103678105314
 20
4.460958011751968
 30
0.0
  0
VERTEX
  5
2B37
330
2938
100
AcDbEntity
  8
0
100
AcDbVertex
100
AcDb2dVertex
 10
1.439796591599409
 20
4.529199481397636
 30
0.0
  0
VERTEX
  5
2B38
330
2938
100
AcDbEntity
  8
0
100
AcDbVertex
100
AcDb2dVertex
 10
1.406988192731299
 20
4.604002630816928
 30
0.0
  0
VERTEX
  5
2B39
330
2938
100
AcDbEntity
  8
0
100
AcDbVertex
100
AcDb2dVertex
 10
1.384678481500984
 20
4.681430452145669
 30
0.0
  0
SEQEND
  5
2B3A
330
2938
100
AcDbEntity
  8
0
  0
LINE
  5
294F
330
1E
100
AcDbEntity
  8
0
100
AcDbLine
 10
5.088090545733267
 20
6.876968504399606
 30
0.0
 11
5.088090545733267
 21
2.748359590836614
 31
0.0
  0
LINE
  5
2950
330
1E
100
AcDbEntity
  8
0
100
AcDbLine
 10
5.208825453567913
 20
2.626312347047243
 30
0.0
 11
5.088090545733267
 21
2.748359590836614
 31
0.0
  0
LINE
  5
2951
330
1E
100
AcDbEntity
  8
0
100
AcDbLine
 10
5.208825453567913
 20
6.997703412234251
 30
0.0
 11
5.208825453567913
 21
2.626312347047243
 31
0.0
  0
LINE
  5
2952
330
1E
100
AcDbEntity
  8
0
100
AcDbLine
 10
5.208825453567913
 20
6.997703412234251
 30
0.0
 11
5.088090545733267
 21
6.876968504399606
 31
0.0
  0
POLYLINE
  5
2953
330
1E
100
AcDbEntity
  8
0
100
AcDb2dPolyline
 66
     1
 10
0.0
 20
0.0
 30
0.0
  0
VERTEX
  5
2B3B
330
2953
100
AcDbEntity
  8
0
100
AcDbVertex
100
AcDb2dVertex
 10
5.023786083951772
 20
6.876968504399606
 30
0.0
  0
VERTEX
  5
2B3C
330
2953
100
AcDbEntity
  8
0
100
AcDbVertex
100
AcDb2dVertex
 10
5.057906818774606
 20
6.876968504399606
 30
0.0
  0
VERTEX
  5
2B3D
330
2953
100
AcDbEntity
  8
0
100
AcDbVertex
100
AcDb2dVertex
 10
5.088090545733267
 20
6.876968504399606
 30
0.0
  0
SEQEND
  5
2B3E
330
2953
100
AcDbEntity
  8
0
  0
LINE
  5
2958
330
1E
100
AcDbEntity
  8
0
100
AcDbLine
 10
5.023786083951772
 20
2.748359590836614
 30
0.0
 11
5.023786083951772
 21
6.876968504399606
 31
0.0
  0
POLYLINE
  5
2959
330
1E
100
AcDbEntity
  8
0
100
AcDb2dPolyline
 66
     1
 10
0.0
 20
0.0
 30
0.0
  0
VERTEX
  5
2B3F
330
2959
100
AcDbEntity
  8
0
100
AcDbVertex
100
AcDb2dVertex
 10
5.023786083951772
 20
2.748359590836614
 30
0.0
  0
VERTEX
  5
2B40
330
2959
100
AcDbEntity
  8
0
100
AcDbVertex
100
AcDb2dVertex
 10
5.057906818774606
 20
2.748359590836614
 30
0.0
  0
VERTEX
  5
2B41
330
2959
100
AcDbEntity
  8
0
100
AcDbVertex
100
AcDb2dVertex
 10
5.088090545733267
 20
2.748359590836614
 30
0.0
  0
SEQEND
  5
2B42
330
2959
100
AcDbEntity
  8
0
  0
POLYLINE
  5
295E
330
1E
100
AcDbEntity
  8
0
100
AcDb2dPolyline
 66
     1
 10
0.0
 20
0.0
 30
0.0
  0
VERTEX
  5
2B43
330
295E
100
AcDbEntity
  8
0
100
AcDbVertex
100
AcDb2dVertex
 10
5.088090545733267
 20
6.876968504399606
 30
0.0
  0
VERTEX
  5
2B44
330
295E
100
AcDbEntity
  8
0
100
AcDbVertex
100
AcDb2dVertex
 10
5.05921915472933
 20
6.913713911131889
 30
0.0
  0
VERTEX
  5
2B45
330
295E
100
AcDbEntity
  8
0
100
AcDbVertex
100
AcDb2dVertex
 10
5.023786083951772
 20
6.941272966181102
 30
0.0
  0
SEQEND
  5
2B46
330
295E
100
AcDbEntity
  8
0
  0
POLYLINE
  5
2963
330
1E
100
AcDbEntity
  8
0
100
AcDb2dPolyline
 66
     1
 10
0.0
 20
0.0
 30
0.0
  0
VERTEX
  5
2B47
330
2963
100
AcDbEntity
  8
0
100
AcDbVertex
100
AcDb2dVertex
 10
5.023786083951772
 20
6.876968504399606
 30
0.0
  0
VERTEX
  5
2B48
330
2963
100
AcDbEntity
  8
0
100
AcDbVertex
100
AcDb2dVertex
 10
5.023786083951772
 20
6.911089239222441
 30
0.0
  0
VERTEX
  5
2B49
330
2963
100
AcDbEntity
  8
0
100
AcDbVertex
100
AcDb2dVertex
 10
5.023786083951772
 20
6.941272966181102
 30
0.0
  0
SEQEND
  5
2B4A
330
2963
100
AcDbEntity
  8
0
  0
POLYLINE
  5
2968
330
1E
100
AcDbEntity
  8
0
100
AcDb2dPolyline
 66
     1
 10
0.0
 20
0.0
 30
0.0
  0
VERTEX
  5
2B4B
330
2968
100
AcDbEntity
  8
0
100
AcDbVertex
100
AcDb2dVertex
 10
5.023786083951772
 20
2.748359590836614
 30
0.0
  0
VERTEX
  5
2B4C
330
2968
100
AcDbEntity
  8
0
100
AcDbVertex
100
AcDb2dVertex
 10
5.023786083951772
 20
2.714238856013778
 30
0.0
  0
VERTEX
  5
2B4D
330
2968
100
AcDbEntity
  8
0
100
AcDbVertex
100
AcDb2dVertex
 10
5.023786083951772
 20
2.684055129055117
 30
0.0
  0
SEQEND
  5
2B4E
330
2968
100
AcDbEntity
  8
0
  0
POLYLINE
  5
296D
330
1E
100
AcDbEntity
  8
0
100
AcDb2dPolyline
 66
     1
 10
0.0
 20
0.0
 30
0.0
  0
VERTEX
  5
2B4F
330
296D
100
AcDbEntity
  8
0
100
AcDbVertex
100
AcDb2dVertex
 10
5.088090545733267
 20
2.748359590836614
 30
0.0
  0
VERTEX
  5
2B50
330
296D
100
AcDbEntity
  8
0
100
AcDbVertex
100
AcDb2dVertex
 10
5.05921915472933
 20
2.711614184104329
 30
0.0
  0
VERTEX
  5
2B51
330
296D
100
AcDbEntity
  8
0
100
AcDbVertex
100
AcDb2dVertex
 10
5.023786083951772
 20
2.684055129055117
 30
0.0
  0
SEQEND
  5
2B52
330
296D
100
AcDbEntity
  8
0
  0
LINE
  5
2972
330
1E
100
AcDbEntity
  8
0
100
AcDbLine
 10
5.023786083951772
 20
2.684055129055117
 30
0.0
 11
5.144520991786417
 21
2.562007885265748
 31
0.0
  0
POLYLINE
  5
2973
330
1E
100
AcDbEntity
  8
0
100
AcDb2dPolyline
 66
     1
 10
0.0
 20
0.0
 30
0.0
  0
VERTEX
  5
2B53
330
2973
100
AcDbEntity
  8
0
100
AcDbVertex
100
AcDb2dVertex
 10
5.144520991786417
 20
2.562007885265748
 30
0.0
  0
VERTEX
  5
2B54
330
2973
100
AcDbEntity
  8
0
100
AcDbVertex
100
AcDb2dVertex
 10
5.176017054699803
 20
2.562007885265748
 30
0.0
  0
VERTEX
  5
2B55
330
2973
100
AcDbEntity
  8
0
100
AcDbVertex
100
AcDb2dVertex
 10
5.208825453567913
 20
2.562007885265748
 30
0.0
  0
SEQEND
  5
2B56
330
2973
100
AcDbEntity
  8
0
  0
POLYLINE
  5
2978
330
1E
100
AcDbEntity
  8
0
100
AcDb2dPolyline
 66
     1
 10
0.0
 20
0.0
 30
0.0
  0
VERTEX
  5
2B57
330
2978
100
AcDbEntity
  8
0
100
AcDbVertex
100
AcDb2dVertex
 10
5.208825453567913
 20
2.562007885265748
 30
0.0
  0
VERTEX
  5
2B58
330
2978
100
AcDbEntity
  8
0
100
AcDbVertex
100
AcDb2dVertex
 10
5.208825453567913
 20
2.596128620088582
 30
0.0
  0
VERTEX
  5
2B59
330
2978
100
AcDbEntity
  8
0
100
AcDbVertex
100
AcDb2dVertex
 10
5.208825453567913
 20
2.626312347047243
 30
0.0
  0
SEQEND
  5
2B5A
330
2978
100
AcDbEntity
  8
0
  0
POLYLINE
  5
297D
330
1E
100
AcDbEntity
  8
0
100
AcDb2dPolyline
 66
     1
 10
0.0
 20
0.0
 30
0.0
  0
VERTEX
  5
2B5B
330
297D
100
AcDbEntity
  8
0
100
AcDbVertex
100
AcDb2dVertex
 10
5.208825453567913
 20
7.062007874015748
 30
0.0
  0
VERTEX
  5
2B5C
330
297D
100
AcDbEntity
  8
0
100
AcDbVertex
100
AcDb2dVertex
 10
5.208825453567913
 20
7.029199475147636
 30
0.0
  0
VERTEX
  5
2B5D
330
297D
100
AcDbEntity
  8
0
100
AcDbVertex
100
AcDb2dVertex
 10
5.208825453567913
 20
6.997703412234251
 30
0.0
  0
SEQEND
  5
2B5E
330
297D
100
AcDbEntity
  8
0
  0
POLYLINE
  5
2982
330
1E
100
AcDbEntity
  8
0
100
AcDb2dPolyline
 66
     1
 10
0.0
 20
0.0
 30
0.0
  0
VERTEX
  5
2B5F
330
2982
100
AcDbEntity
  8
0
100
AcDbVertex
100
AcDb2dVertex
 10
5.144520991786417
 20
7.062007874015748
 30
0.0
  0
VERTEX
  5
2B60
330
2982
100
AcDbEntity
  8
0
100
AcDbVertex
100
AcDb2dVertex
 10
5.176017054699803
 20
7.062007874015748
 30
0.0
  0
VERTEX
  5
2B61
330
2982
100
AcDbEntity
  8
0
100
AcDbVertex
100
AcDb2dVertex
 10
5.208825453567913
 20
7.062007874015748
 30
0.0
  0
SEQEND
  5
2B62
330
2982
100
AcDbEntity
  8
0
  0
LINE
  5
2987
330
1E
100
AcDbEntity
  8
0
100
AcDbLine
 10
5.023786083951772
 20
6.941272966181102
 30
0.0
 11
5.144520991786417
 21
7.062007874015748
 31
0.0
  0
LINE
  5
2988
330
1E
100
AcDbEntity
  8
0
100
AcDbLine
 10
0.6733923940403544
 20
7.062007874015748
 30
0.0
 11
5.144520991786417
 21
7.062007874015748
 31
0.0
  0
LINE
  5
2989
330
1E
100
AcDbEntity
  8
0
100
AcDbLine
 10
0.6733923940403544
 20
7.062007874015748
 30
0.0
 11
0.7941273018749997
 21
6.941272966181102
 31
0.0
  0
LINE
  5
298A
330
1E
100
AcDbEntity
  8
0
100
AcDbLine
 10
0.7941273018749997
 20
6.941272966181102
 30
0.0
 11
5.023786083951772
 21
6.941272966181102
 31
0.0
  0
POLYLINE
  5
298B
330
1E
100
AcDbEntity
  8
0
100
AcDb2dPolyline
 66
     1
 10
0.0
 20
0.0
 30
0.0
  0
VERTEX
  5
2B63
330
298B
100
AcDbEntity
  8
0
100
AcDbVertex
100
AcDb2dVertex
 10
0.7941273018749996
 20
6.876968504399606
 30
0.0
  0
VERTEX
  5
2B64
330
298B
100
AcDbEntity
  8
0
100
AcDbVertex
100
AcDb2dVertex
 10
0.7941273018749996
 20
6.911089239222441
 30
0.0
  0
VERTEX
  5
2B65
330
298B
100
AcDbEntity
  8
0
100
AcDbVertex
100
AcDb2dVertex
 10
0.7941273018749996
 20
6.941272966181102
 30
0.0
  0
SEQEND
  5
2B66
330
298B
100
AcDbEntity
  8
0
  0
LINE
  5
2990
330
1E
100
AcDbEntity
  8
0
100
AcDbLine
 10
5.023786083951772
 20
6.876968504399606
 30
0.0
 11
0.7941273018749997
 21
6.876968504399606
 31
0.0
  0
LINE
  5
2991
330
1E
100
AcDbEntity
  8
0
100
AcDbLine
 10
0.7941273018749997
 20
2.684055129055117
 30
0.0
 11
5.023786083951772
 21
2.684055129055117
 31
0.0
  0
LINE
  5
2992
330
1E
100
AcDbEntity
  8
0
100
AcDbLine
 10
0.6733923940403544
 20
2.562007885265748
 30
0.0
 11
0.7941273018749997
 21
2.684055129055117
 31
0.0
  0
LINE
  5
2993
330
1E
100
AcDbEntity
  8
0
100
AcDbLine
 10
0.6733923940403544
 20
2.562007885265748
 30
0.0
 11
5.144520991786417
 21
2.562007885265748
 31
0.0
  0
LINE
  5
2994
330
1E
100
AcDbEntity
  8
0
100
AcDbLine
 10
5.023786083951772
 20
2.748359590836614
 30
0.0
 11
0.7941273018749997
 21
2.748359590836614
 31
0.0
  0
POLYLINE
  5
2995
330
1E
100
AcDbEntity
  8
0
100
AcDb2dPolyline
 66
     1
 10
0.0
 20
0.0
 30
0.0
  0
VERTEX
  5
2B67
330
2995
100
AcDbEntity
  8
0
100
AcDbVertex
100
AcDb2dVertex
 10
0.7941273018749996
 20
2.748359590836614
 30
0.0
  0
VERTEX
  5
2B68
330
2995
100
AcDbEntity
  8
0
100
AcDbVertex
100
AcDb2dVertex
 10
0.7941273018749996
 20
2.714238856013778
 30
0.0
  0
VERTEX
  5
2B69
330
2995
100
AcDbEntity
  8
0
100
AcDbVertex
100
AcDb2dVertex
 10
0.7941273018749996
 20
2.684055129055117
 30
0.0
  0
SEQEND
  5
2B6A
330
2995
100
AcDbEntity
  8
0
  0
LINE
  5
299A
330
1E
100
AcDbEntity
  8
0
100
AcDbLine
 10
4.401738841412401
 20
4.749671921791338
 30
0.0
 11
4.401738841412401
 21
4.875656173444881
 31
0.0
  0
POLYLINE
  5
299B
330
1E
100
AcDbEntity
  8
0
100
AcDb2dPolyline
 66
     1
 10
0.0
 20
0.0
 30
0.0
  0
VERTEX
  5
2B6B
330
299B
100
AcDbEntity
  8
0
100
AcDbVertex
100
AcDb2dVertex
 10
4.401738841412401
 20
4.749671921791338
 30
0.0
  0
VERTEX
  5
2B6C
330
299B
100
AcDbEntity
  8
0
100
AcDbVertex
100
AcDb2dVertex
 10
4.401738841412401
 20
4.745734913927164
 30
0.0
  0
VERTEX
  5
2B6D
330
299B
100
AcDbEntity
  8
0
100
AcDbVertex
100
AcDb2dVertex
 10
4.403051177367125
 20
4.741797906062991
 30
0.0
  0
SEQEND
  5
2B6E
330
299B
100
AcDbEntity
  8
0
  0
LINE
  5
29A0
330
1E
100
AcDbEntity
  8
0
100
AcDbLine
 10
4.403051177367125
 20
4.741797906062991
 30
0.0
 11
4.431922568371062
 21
4.693241475738188
 31
0.0
  0
POLYLINE
  5
29A1
330
1E
100
AcDbEntity
  8
0
100
AcDb2dPolyline
 66
     1
 10
0.0
 20
0.0
 30
0.0
  0
VERTEX
  5
2B6F
330
29A1
100
AcDbEntity
  8
0
100
AcDbVertex
100
AcDb2dVertex
 10
4.431922568371063
 20
4.693241475738188
 30
0.0
  0
VERTEX
  5
2B70
330
29A1
100
AcDbEntity
  8
0
100
AcDbVertex
100
AcDb2dVertex
 10
4.433234904325787
 20
4.68799213191929
 30
0.0
  0
VERTEX
  5
2B71
330
29A1
100
AcDbEntity
  8
0
100
AcDbVertex
100
AcDb2dVertex
 10
4.433234904325787
 20
4.681430452145669
 30
0.0
  0
SEQEND
  5
2B72
330
29A1
100
AcDbEntity
  8
0
  0
POLYLINE
  5
29A6
330
1E
100
AcDbEntity
  8
0
100
AcDb2dPolyline
 66
     1
 10
0.0
 20
0.0
 30
0.0
  0
VERTEX
  5
2B73
330
29A6
100
AcDbEntity
  8
0
100
AcDbVertex
100
AcDb2dVertex
 10
3.258694224847441
 20
4.681430452145669
 30
0.0
  0
VERTEX
  5
2B74
330
29A6
100
AcDbEntity
  8
0
100
AcDbVertex
100
AcDb2dVertex
 10
3.258694224847441
 20
4.68799213191929
 30
0.0
  0
VERTEX
  5
2B75
330
29A6
100
AcDbEntity
  8
0
100
AcDbVertex
100
AcDb2dVertex
 10
3.26131889675689
 20
4.693241475738188
 30
0.0
  0
SEQEND
  5
2B76
330
29A6
100
AcDbEntity
  8
0
  0
LINE
  5
29AB
330
1E
100
AcDbEntity
  8
0
100
AcDbLine
 10
3.288877951806102
 20
4.741797906062991
 30
0.0
 11
3.261318896756889
 21
4.693241475738188
 31
0.0
  0
POLYLINE
  5
29AC
330
1E
100
AcDbEntity
  8
0
100
AcDb2dPolyline
 66
     1
 10
0.0
 20
0.0
 30
0.0
  0
VERTEX
  5
2B77
330
29AC
100
AcDbEntity
  8
0
100
AcDbVertex
100
AcDb2dVertex
 10
3.288877951806101
 20
4.741797906062991
 30
0.0
  0
VERTEX
  5
2B78
330
29AC
100
AcDbEntity
  8
0
100
AcDbVertex
100
AcDb2dVertex
 10
3.290190287760826
 20
4.745734913927164
 30
0.0
  0
VERTEX
  5
2B79
330
29AC
100
AcDbEntity
  8
0
100
AcDbVertex
100
AcDb2dVertex
 10
3.29150262371555
 20
4.749671921791338
 30
0.0
  0
SEQEND
  5
2B7A
330
29AC
100
AcDbEntity
  8
0
  0
LINE
  5
29B1
330
1E
100
AcDbEntity
  8
0
100
AcDbLine
 10
3.291502623715551
 20
4.749671921791338
 30
0.0
 11
3.291502623715551
 21
4.875656173444881
 31
0.0
  0
POLYLINE
  5
29B2
330
1E
100
AcDbEntity
  8
0
100
AcDb2dPolyline
 66
     1
 10
0.0
 20
0.0
 30
0.0
  0
VERTEX
  5
2B7B
330
29B2
100
AcDbEntity
  8
0
100
AcDbVertex
100
AcDb2dVertex
 10
3.29150262371555
 20
4.875656173444881
 30
0.0
  0
VERTEX
  5
2B7C
330
29B2
100
AcDbEntity
  8
0
100
AcDbVertex
100
AcDb2dVertex
 10
3.290190287760826
 20
4.879593181309054
 30
0.0
  0
VERTEX
  5
2B7D
330
29B2
100
AcDbEntity
  8
0
100
AcDbVertex
100
AcDb2dVertex
 10
3.288877951806101
 20
4.883530189173228
 30
0.0
  0
SEQEND
  5
2B7E
330
29B2
100
AcDbEntity
  8
0
  0
LINE
  5
29B7
330
1E
100
AcDbEntity
  8
0
100
AcDbLine
 10
3.288877951806102
 20
4.883530189173228
 30
0.0
 11
3.261318896756889
 21
4.932086619498031
 31
0.0
  0
POLYLINE
  5
29B8
330
1E
100
AcDbEntity
  8
0
100
AcDb2dPolyline
 66
     1
 10
0.0
 20
0.0
 30
0.0
  0
VERTEX
  5
2B7F
330
29B8
100
AcDbEntity
  8
0
100
AcDbVertex
100
AcDb2dVertex
 10
3.26131889675689
 20
4.932086619498031
 30
0.0
  0
VERTEX
  5
2B80
330
29B8
100
AcDbEntity
  8
0
100
AcDbVertex
100
AcDb2dVertex
 10
3.258694224847441
 20
4.937335963316929
 30
0.0
  0
VERTEX
  5
2B81
330
29B8
100
AcDbEntity
  8
0
100
AcDbVertex
100
AcDb2dVertex
 10
3.258694224847441
 20
4.942585307135826
 30
0.0
  0
SEQEND
  5
2B82
330
29B8
100
AcDbEntity
  8
0
  0
POLYLINE
  5
29BD
330
1E
100
AcDbEntity
  8
0
100
AcDb2dPolyline
 66
     1
 10
0.0
 20
0.0
 30
0.0
  0
VERTEX
  5
2B83
330
29BD
100
AcDbEntity
  8
0
100
AcDbVertex
100
AcDb2dVertex
 10
3.258694224847441
 20
4.942585307135826
 30
0.0
  0
VERTEX
  5
2B84
330
29BD
100
AcDbEntity
  8
0
100
AcDbVertex
100
AcDb2dVertex
 10
3.28231627203248
 20
5.021325464419291
 30
0.0
  0
VERTEX
  5
2B85
330
29BD
100
AcDbEntity
  8
0
100
AcDbVertex
100
AcDb2dVertex
 10
3.31512467090059
 20
5.094816277883857
 30
0.0
  0
VERTEX
  5
2B86
330
29BD
100
AcDbEntity
  8
0
100
AcDbVertex
100
AcDb2dVertex
 10
3.358431757406496
 20
5.164370083484251
 30
0.0
  0
VERTEX
  5
2B87
330
29BD
100
AcDbEntity
  8
0
100
AcDbVertex
100
AcDb2dVertex
 10
3.409612859640748
 20
5.226049873356299
 30
0.0
  0
VERTEX
  5
2B88
330
29BD
100
AcDbEntity
  8
0
100
AcDbVertex
100
AcDb2dVertex
 10
3.46998031355807
 20
5.281167983454724
 30
0.0
  0
VERTEX
  5
2B89
330
29BD
100
AcDbEntity
  8
0
100
AcDbVertex
100
AcDb2dVertex
 10
3.536909447249015
 20
5.328412077824802
 30
0.0
  0
VERTEX
  5
2B8A
330
29BD
100
AcDbEntity
  8
0
100
AcDbVertex
100
AcDb2dVertex
 10
3.609087924758858
 20
5.365157484557086
 30
0.0
  0
VERTEX
  5
2B8B
330
29BD
100
AcDbEntity
  8
0
100
AcDbVertex
100
AcDb2dVertex
 10
3.685203410132873
 20
5.392716539606298
 30
0.0
  0
VERTEX
  5
2B8C
330
29BD
100
AcDbEntity
  8
0
100
AcDbVertex
100
AcDb2dVertex
 10
3.765255903371063
 20
5.408464571062991
 30
0.0
  0
VERTEX
  5
2B8D
330
29BD
100
AcDbEntity
  8
0
100
AcDbVertex
100
AcDb2dVertex
 10
3.846620732563976
 20
5.413713914881888
 30
0.0
  0
VERTEX
  5
2B8E
330
29BD
100
AcDbEntity
  8
0
100
AcDbVertex
100
AcDb2dVertex
 10
3.926673225802165
 20
5.408464571062991
 30
0.0
  0
VERTEX
  5
2B8F
330
29BD
100
AcDbEntity
  8
0
100
AcDbVertex
100
AcDb2dVertex
 10
4.006725719040354
 20
5.392716539606298
 30
0.0
  0
VERTEX
  5
2B90
330
29BD
100
AcDbEntity
  8
0
100
AcDbVertex
100
AcDb2dVertex
 10
4.084153540369094
 20
5.365157484557086
 30
0.0
  0
VERTEX
  5
2B91
330
29BD
100
AcDbEntity
  8
0
100
AcDbVertex
100
AcDb2dVertex
 10
4.156332017878936
 20
5.328412077824802
 30
0.0
  0
VERTEX
  5
2B92
330
29BD
100
AcDbEntity
  8
0
100
AcDbVertex
100
AcDb2dVertex
 10
4.221948815615157
 20
5.281167983454724
 30
0.0
  0
VERTEX
  5
2B93
330
29BD
100
AcDbEntity
  8
0
100
AcDbVertex
100
AcDb2dVertex
 10
4.28231626953248
 20
5.226049873356299
 30
0.0
  0
VERTEX
  5
2B94
330
29BD
100
AcDbEntity
  8
0
100
AcDbVertex
100
AcDb2dVertex
 10
4.334809707721456
 20
5.164370083484251
 30
0.0
  0
VERTEX
  5
2B95
330
29BD
100
AcDbEntity
  8
0
100
AcDbVertex
100
AcDb2dVertex
 10
4.376804458272637
 20
5.094816277883857
 30
0.0
  0
VERTEX
  5
2B96
330
29BD
100
AcDbEntity
  8
0
100
AcDbVertex
100
AcDb2dVertex
 10
4.410925193095472
 20
5.021325464419291
 30
0.0
  0
VERTEX
  5
2B97
330
29BD
100
AcDbEntity
  8
0
100
AcDbVertex
100
AcDb2dVertex
 10
4.433234904325787
 20
4.942585307135826
 30
0.0
  0
SEQEND
  5
2B98
330
29BD
100
AcDbEntity
  8
0
  0
POLYLINE
  5
29D4
330
1E
100
AcDbEntity
  8
0
100
AcDb2dPolyline
 66
     1
 10
0.0
 20
0.0
 30
0.0
  0
VERTEX
  5
2B99
330
29D4
100
AcDbEntity
  8
0
100
AcDbVertex
100
AcDb2dVertex
 10
4.433234904325787
 20
4.942585307135826
 30
0.0
  0
VERTEX
  5
2B9A
330
29D4
100
AcDbEntity
  8
0
100
AcDbVertex
100
AcDb2dVertex
 10
4.433234904325787
 20
4.937335963316929
 30
0.0
  0
VERTEX
  5
2B9B
330
29D4
100
AcDbEntity
  8
0
100
AcDbVertex
100
AcDb2dVertex
 10
4.431922568371063
 20
4.932086619498031
 30
0.0
  0
SEQEND
  5
2B9C
330
29D4
100
AcDbEntity
  8
0
  0
LINE
  5
29D9
330
1E
100
AcDbEntity
  8
0
100
AcDbLine
 10
4.403051177367125
 20
4.883530189173228
 30
0.0
 11
4.431922568371062
 21
4.932086619498031
 31
0.0
  0
POLYLINE
  5
29DA
330
1E
100
AcDbEntity
  8
0
100
AcDb2dPolyline
 66
     1
 10
0.0
 20
0.0
 30
0.0
  0
VERTEX
  5
2B9D
330
29DA
100
AcDbEntity
  8
0
100
AcDbVertex
100
AcDb2dVertex
 10
4.403051177367125
 20
4.883530189173228
 30
0.0
  0
VERTEX
  5
2B9E
330
29DA
100
AcDbEntity
  8
0
100
AcDbVertex
100
AcDb2dVertex
 10
4.401738841412401
 20
4.879593181309054
 30
0.0
  0
VERTEX
  5
2B9F
330
29DA
100
AcDbEntity
  8
0
100
AcDbVertex
100
AcDb2dVertex
 10
4.401738841412401
 20
4.875656173444881
 30
0.0
  0
SEQEND
  5
2BA0
330
29DA
100
AcDbEntity
  8
0
  0
LINE
  5
29DF
330
1E
100
AcDbEntity
  8
0
100
AcDbLine
 10
2.52641076211122
 20
4.749671921791338
 30
0.0
 11
2.52641076211122
 21
4.875656173444881
 31
0.0
  0
POLYLINE
  5
29E0
330
1E
100
AcDbEntity
  8
0
100
AcDb2dPolyline
 66
     1
 10
0.0
 20
0.0
 30
0.0
  0
VERTEX
  5
2BA1
330
29E0
100
AcDbEntity
  8
0
100
AcDbVertex
100
AcDb2dVertex
 10
2.52641076211122
 20
4.749671921791338
 30
0.0
  0
VERTEX
  5
2BA2
330
29E0
100
AcDbEntity
  8
0
100
AcDbVertex
100
AcDb2dVertex
 10
2.52641076211122
 20
4.745734913927164
 30
0.0
  0
VERTEX
  5
2BA3
330
29E0
100
AcDbEntity
  8
0
100
AcDbVertex
100
AcDb2dVertex
 10
2.527723098065944
 20
4.741797906062991
 30
0.0
  0
SEQEND
  5
2BA4
330
29E0
100
AcDbEntity
  8
0
  0
LINE
  5
29E5
330
1E
100
AcDbEntity
  8
0
100
AcDbLine
 10
2.527723098065944
 20
4.741797906062991
 30
0.0
 11
2.556594489069881
 21
4.693241475738188
 31
0.0
  0
POLYLINE
  5
29E6
330
1E
100
AcDbEntity
  8
0
100
AcDb2dPolyline
 66
     1
 10
0.0
 20
0.0
 30
0.0
  0
VERTEX
  5
2BA5
330
29E6
100
AcDbEntity
  8
0
100
AcDbVertex
100
AcDb2dVertex
 10
2.556594489069881
 20
4.693241475738188
 30
0.0
  0
VERTEX
  5
2BA6
330
29E6
100
AcDbEntity
  8
0
100
AcDbVertex
100
AcDb2dVertex
 10
2.55921916097933
 20
4.68799213191929
 30
0.0
  0
VERTEX
  5
2BA7
330
29E6
100
AcDbEntity
  8
0
100
AcDbVertex
100
AcDb2dVertex
 10
2.557906825024605
 20
4.681430452145669
 30
0.0
  0
SEQEND
  5
2BA8
330
29E6
100
AcDbEntity
  8
0
  0
POLYLINE
  5
29EB
330
1E
100
AcDbEntity
  8
0
100
AcDb2dPolyline
 66
     1
 10
0.0
 20
0.0
 30
0.0
  0
VERTEX
  5
2BA9
330
29EB
100
AcDbEntity
  8
0
100
AcDbVertex
100
AcDb2dVertex
 10
1.384678481500984
 20
4.681430452145669
 30
0.0
  0
VERTEX
  5
2BAA
330
29EB
100
AcDbEntity
  8
0
100
AcDbVertex
100
AcDb2dVertex
 10
1.383366145546259
 20
4.68799213191929
 30
0.0
  0
VERTEX
  5
2BAB
330
29EB
100
AcDbEntity
  8
0
100
AcDbVertex
100
AcDb2dVertex
 10
1.385990817455708
 20
4.693241475738188
 30
0.0
  0
SEQEND
  5
2BAC
330
29EB
100
AcDbEntity
  8
0
  0
LINE
  5
29F0
330
1E
100
AcDbEntity
  8
0
100
AcDbLine
 10
1.414862208459645
 20
4.741797906062991
 30
0.0
 11
1.385990817455708
 21
4.693241475738188
 31
0.0
  0
POLYLINE
  5
29F1
330
1E
100
AcDbEntity
  8
0
100
AcDb2dPolyline
 66
     1
 10
0.0
 20
0.0
 30
0.0
  0
VERTEX
  5
2BAD
330
29F1
100
AcDbEntity
  8
0
100
AcDbVertex
100
AcDb2dVertex
 10
1.414862208459645
 20
4.741797906062991
 30
0.0
  0
VERTEX
  5
2BAE
330
29F1
100
AcDbEntity
  8
0
100
AcDbVertex
100
AcDb2dVertex
 10
1.416174544414369
 20
4.745734913927164
 30
0.0
  0
VERTEX
  5
2BAF
330
29F1
100
AcDbEntity
  8
0
100
AcDbVertex
100
AcDb2dVertex
 10
1.416174544414369
 20
4.749671921791338
 30
0.0
  0
SEQEND
  5
2BB0
330
29F1
100
AcDbEntity
  8
0
  0
LINE
  5
29F6
330
1E
100
AcDbEntity
  8
0
100
AcDbLine
 10
1.416174544414369
 20
4.749671921791338
 30
0.0
 11
1.416174544414369
 21
4.875656173444881
 31
0.0
  0
POLYLINE
  5
29F7
330
1E
100
AcDbEntity
  8
0
100
AcDb2dPolyline
 66
     1
 10
0.0
 20
0.0
 30
0.0
  0
VERTEX
  5
2BB1
330
29F7
100
AcDbEntity
  8
0
100
AcDbVertex
100
AcDb2dVertex
 10
1.416174544414369
 20
4.875656173444881
 30
0.0
  0
VERTEX
  5
2BB2
330
29F7
100
AcDbEntity
  8
0
100
AcDbVertex
100
AcDb2dVertex
 10
1.416174544414369
 20
4.879593181309054
 30
0.0
  0
VERTEX
  5
2BB3
330
29F7
100
AcDbEntity
  8
0
100
AcDbVertex
100
AcDb2dVertex
 10
1.414862208459645
 20
4.883530189173228
 30
0.0
  0
SEQEND
  5
2BB4
330
29F7
100
AcDbEntity
  8
0
  0
LINE
  5
29FC
330
1E
100
AcDbEntity
  8
0
100
AcDbLine
 10
1.414862208459645
 20
4.883530189173228
 30
0.0
 11
1.385990817455708
 21
4.932086619498031
 31
0.0
  0
POLYLINE
  5
29FD
330
1E
100
AcDbEntity
  8
0
100
AcDb2dPolyline
 66
     1
 10
0.0
 20
0.0
 30
0.0
  0
VERTEX
  5
2BB5
330
29FD
100
AcDbEntity
  8
0
100
AcDbVertex
100
AcDb2dVertex
 10
1.385990817455708
 20
4.932086619498031
 30
0.0
  0
VERTEX
  5
2BB6
330
29FD
100
AcDbEntity
  8
0
100
AcDbVertex
100
AcDb2dVertex
 10
1.383366145546259
 20
4.937335963316929
 30
0.0
  0
VERTEX
  5
2BB7
330
29FD
100
AcDbEntity
  8
0
100
AcDbVertex
100
AcDb2dVertex
 10
1.384678481500984
 20
4.942585307135826
 30
0.0
  0
SEQEND
  5
2BB8
330
29FD
100
AcDbEntity
  8
0
  0
POLYLINE
  5
2A02
330
1E
100
AcDbEntity
  8
0
100
AcDb2dPolyline
 66
     1
 10
0.0
 20
0.0
 30
0.0
  0
VERTEX
  5
2BB9
330
2A02
100
AcDbEntity
  8
0
100
AcDbVertex
100
AcDb2dVertex
 10
1.384678481500984
 20
4.942585307135826
 30
0.0
  0
VERTEX
  5
2BBA
330
2A02
100
AcDbEntity
  8
0
100
AcDbVertex
100
AcDb2dVertex
 10
1.406988192731299
 20
5.021325464419291
 30
0.0
  0
VERTEX
  5
2BBB
330
2A02
100
AcDbEntity
  8
0
100
AcDbVertex
100
AcDb2dVertex
 10
1.439796591599409
 20
5.094816277883857
 30
0.0
  0
VERTEX
  5
2BBC
330
2A02
100
AcDbEntity
  8
0
100
AcDbVertex
100
AcDb2dVertex
 10
1.483103678105314
 20
5.164370083484251
 30
0.0
  0
VERTEX
  5
2BBD
330
2A02
100
AcDbEntity
  8
0
100
AcDbVertex
100
AcDb2dVertex
 10
1.535597116294291
 20
5.226049873356299
 30
0.0
  0
VERTEX
  5
2BBE
330
2A02
100
AcDbEntity
  8
0
100
AcDbVertex
100
AcDb2dVertex
 10
1.594652234256889
 20
5.281167983454724
 30
0.0
  0
VERTEX
  5
2BBF
330
2A02
100
AcDbEntity
  8
0
100
AcDbVertex
100
AcDb2dVertex
 10
1.661581367947834
 20
5.328412077824802
 30
0.0
  0
VERTEX
  5
2BC0
330
2A02
100
AcDbEntity
  8
0
100
AcDbVertex
100
AcDb2dVertex
 10
1.733759845457676
 20
5.365157484557086
 30
0.0
  0
VERTEX
  5
2BC1
330
2A02
100
AcDbEntity
  8
0
100
AcDbVertex
100
AcDb2dVertex
 10
1.811187666786417
 20
5.392716539606298
 30
0.0
  0
VERTEX
  5
2BC2
330
2A02
100
AcDbEntity
  8
0
100
AcDbVertex
100
AcDb2dVertex
 10
1.889927824069881
 20
5.408464571062991
 30
0.0
  0
VERTEX
  5
2BC3
330
2A02
100
AcDbEntity
  8
0
100
AcDbVertex
100
AcDb2dVertex
 10
1.971292653262795
 20
5.413713914881888
 30
0.0
  0
VERTEX
  5
2BC4
330
2A02
100
AcDbEntity
  8
0
100
AcDbVertex
100
AcDb2dVertex
 10
2.052657482455708
 20
5.408464571062991
 30
0.0
  0
VERTEX
  5
2BC5
330
2A02
100
AcDbEntity
  8
0
100
AcDbVertex
100
AcDb2dVertex
 10
2.131397639739173
 20
5.392716539606298
 30
0.0
  0
VERTEX
  5
2BC6
330
2A02
100
AcDbEntity
  8
0
100
AcDbVertex
100
AcDb2dVertex
 10
2.208825461067912
 20
5.365157484557086
 30
0.0
  0
VERTEX
  5
2BC7
330
2A02
100
AcDbEntity
  8
0
100
AcDbVertex
100
AcDb2dVertex
 10
2.281003938577755
 20
5.328412077824802
 30
0.0
  0
VERTEX
  5
2BC8
330
2A02
100
AcDbEntity
  8
0
100
AcDbVertex
100
AcDb2dVertex
 10
2.3479330722687
 20
5.281167983454724
 30
0.0
  0
VERTEX
  5
2BC9
330
2A02
100
AcDbEntity
  8
0
100
AcDbVertex
100
AcDb2dVertex
 10
2.406988190231299
 20
5.226049873356299
 30
0.0
  0
VERTEX
  5
2BCA
330
2A02
100
AcDbEntity
  8
0
100
AcDbVertex
100
AcDb2dVertex
 10
2.459481628420275
 20
5.164370083484251
 30
0.0
  0
VERTEX
  5
2BCB
330
2A02
100
AcDbEntity
  8
0
100
AcDbVertex
100
AcDb2dVertex
 10
2.50278871492618
 20
5.094816277883857
 30
0.0
  0
VERTEX
  5
2BCC
330
2A02
100
AcDbEntity
  8
0
100
AcDbVertex
100
AcDb2dVertex
 10
2.535597113794291
 20
5.021325464419291
 30
0.0
  0
VERTEX
  5
2BCD
330
2A02
100
AcDbEntity
  8
0
100
AcDbVertex
100
AcDb2dVertex
 10
2.557906825024605
 20
4.942585307135826
 30
0.0
  0
SEQEND
  5
2BCE
330
2A02
100
AcDbEntity
  8
0
  0
POLYLINE
  5
2A19
330
1E
100
AcDbEntity
  8
0
100
AcDb2dPolyline
 66
     1
 10
0.0
 20
0.0
 30
0.0
  0
VERTEX
  5
2BCF
330
2A19
100
AcDbEntity
  8
0
100
AcDbVertex
100
AcDb2dVertex
 10
2.557906825024605
 20
4.942585307135826
 30
0.0
  0
VERTEX
  5
2BD0
330
2A19
100
AcDbEntity
  8
0
100
AcDbVertex
100
AcDb2dVertex
 10
2.55921916097933
 20
4.937335963316929
 30
0.0
  0
VERTEX
  5
2BD1
330
2A19
100
AcDbEntity
  8
0
100
AcDbVertex
100
AcDb2dVertex
 10
2.556594489069881
 20
4.932086619498031
 30
0.0
  0
SEQEND
  5
2BD2
330
2A19
100
AcDbEntity
  8
0
  0
LINE
  5
2A1E
330
1E
100
AcDbEntity
  8
0
100
AcDbLine
 10
2.527723098065944
 20
4.883530189173228
 30
0.0
 11
2.556594489069881
 21
4.932086619498031
 31
0.0
  0
POLYLINE
  5
2A1F
330
1E
100
AcDbEntity
  8
0
100
AcDb2dPolyline
 66
     1
 10
0.0
 20
0.0
 30
0.0
  0
VERTEX
  5
2BD3
330
2A1F
100
AcDbEntity
  8
0
100
AcDbVertex
100
AcDb2dVertex
 10
2.527723098065944
 20
4.883530189173228
 30
0.0
  0
VERTEX
  5
2BD4
330
2A1F
100
AcDbEntity
  8
0
100
AcDbVertex
100
AcDb2dVertex
 10
2.52641076211122
 20
4.879593181309054
 30
0.0
  0
VERTEX
  5
2BD5
330
2A1F
100
AcDbEntity
  8
0
100
AcDbVertex
100
AcDb2dVertex
 10
2.52641076211122
 20
4.875656173444881
 30
0.0
  0
SEQEND
  5
2BD6
330
2A1F
100
AcDbEntity
  8
0
  0
LINE
  5
2A24
330
1E
100
AcDbEntity
  8
0
100
AcDbLine
 10
0.7941273018749997
 20
2.748359590836614
 30
0.0
 11
0.7941273018749997
 21
6.876968504399606
 31
0.0
  0
CIRCLE
  5
2A25
330
1E
100
AcDbEntity
  8
0
100
AcDbCircle
 10
3.81512466965059
 20
6.453083991023621
 30
0.0
 40
0.1653543302952756
  0
CIRCLE
  5
2A26
330
1E
100
AcDbEntity
  8
0
100
AcDbCircle
 10
3.81512466965059
 20
3.171587936235236
 30
0.0
 40
0.1653556322107403
  0
CIRCLE
  5
2A27
330
1E
100
AcDbEntity
  8
0
100
AcDbCircle
 10
2.002132548198818
 20
6.453083991023621
 30
0.0
 40
0.1646981623179134
  0
CIRCLE
  5
2A28
330
1E
100
AcDbEntity
  8
0
100
AcDbCircle
 10
2.002132548198818
 20
3.171587936235236
 30
0.0
 40
0.1646994694202512
  0
POLYLINE
  5
2A29
330
1E
100
AcDbEntity
  8
0
100
AcDb2dPolyline
 66
     1
 10
0.0
 20
0.0
 30
0.0
  0
VERTEX
  5
2BD7
330
2A29
100
AcDbEntity
  8
0
100
AcDbVertex
100
AcDb2dVertex
 10
0.609087932258858
 20
2.562007885265748
 30
0.0
  0
VERTEX
  5
2BD8
330
2A29
100
AcDbEntity
  8
0
100
AcDbVertex
100
AcDb2dVertex
 10
0.6418963311269682
 20
2.562007885265748
 30
0.0
  0
VERTEX
  5
2BD9
330
2A29
100
AcDbEntity
  8
0
100
AcDbVertex
100
AcDb2dVertex
 10
0.673392394040354
 20
2.562007885265748
 30
0.0
  0
SEQEND
  5
2BDA
330
2A29
100
AcDbEntity
  8
0
  0
POLYLINE
  5
2A2E
330
1E
100
AcDbEntity
  8
0
100
AcDb2dPolyline
 66
     1
 10
0.0
 20
0.0
 30
0.0
  0
VERTEX
  5
2BDB
330
2A2E
100
AcDbEntity
  8
0
100
AcDbVertex
100
AcDb2dVertex
 10
0.609087932258858
 20
7.062007874015748
 30
0.0
  0
VERTEX
  5
2BDC
330
2A2E
100
AcDbEntity
  8
0
100
AcDbVertex
100
AcDb2dVertex
 10
0.6418963311269682
 20
7.062007874015748
 30
0.0
  0
VERTEX
  5
2BDD
330
2A2E
100
AcDbEntity
  8
0
100
AcDbVertex
100
AcDb2dVertex
 10
0.673392394040354
 20
7.062007874015748
 30
0.0
  0
SEQEND
  5
2BDE
330
2A2E
100
AcDbEntity
  8
0
  0
POLYLINE
  5
2A33
330
1E
100
AcDbEntity
  8
0
100
AcDb2dPolyline
 66
     1
 10
0.0
 20
0.0
 30
0.0
  0
VERTEX
  5
2BDF
330
2A33
100
AcDbEntity
  8
0
100
AcDbVertex
100
AcDb2dVertex
 10
3.906988186481299
 20
6.453083991023621
 30
0.0
  0
VERTEX
  5
2BE0
330
2A33
100
AcDbEntity
  8
0
100
AcDbVertex
100
AcDb2dVertex
 10
3.901738842662401
 20
6.484580053937007
 30
0.0
  0
VERTEX
  5
2BE1
330
2A33
100
AcDbEntity
  8
0
100
AcDbVertex
100
AcDb2dVertex
 10
3.885990811205708
 20
6.51213910898622
 30
0.0
  0
VERTEX
  5
2BE2
330
2A33
100
AcDbEntity
  8
0
100
AcDbVertex
100
AcDb2dVertex
 10
3.861056428065944
 20
6.53313648426181
 30
0.0
  0
VERTEX
  5
2BE3
330
2A33
100
AcDbEntity
  8
0
100
AcDbVertex
100
AcDb2dVertex
 10
3.830872701107283
 20
6.543635171899605
 30
0.0
  0
VERTEX
  5
2BE4
330
2A33
100
AcDbEntity
  8
0
100
AcDbVertex
100
AcDb2dVertex
 10
3.799376638193897
 20
6.543635171899605
 30
0.0
  0
VERTEX
  5
2BE5
330
2A33
100
AcDbEntity
  8
0
100
AcDbVertex
100
AcDb2dVertex
 10
3.769192911235236
 20
6.53313648426181
 30
0.0
  0
VERTEX
  5
2BE6
330
2A33
100
AcDbEntity
  8
0
100
AcDbVertex
100
AcDb2dVertex
 10
3.744258528095472
 20
6.51213910898622
 30
0.0
  0
VERTEX
  5
2BE7
330
2A33
100
AcDbEntity
  8
0
100
AcDbVertex
100
AcDb2dVertex
 10
3.728510496638779
 20
6.484580053937007
 30
0.0
  0
VERTEX
  5
2BE8
330
2A33
100
AcDbEntity
  8
0
100
AcDbVertex
100
AcDb2dVertex
 10
3.721948816865157
 20
6.453083991023621
 30
0.0
  0
VERTEX
  5
2BE9
330
2A33
100
AcDbEntity
  8
0
100
AcDbVertex
100
AcDb2dVertex
 10
3.728510496638779
 20
6.421587928110236
 30
0.0
  0
VERTEX
  5
2BEA
330
2A33
100
AcDbEntity
  8
0
100
AcDbVertex
100
AcDb2dVertex
 10
3.744258528095472
 20
6.394028873061024
 30
0.0
  0
VERTEX
  5
2BEB
330
2A33
100
AcDbEntity
  8
0
100
AcDbVertex
100
AcDb2dVertex
 10
3.769192911235236
 20
6.373031497785431
 30
0.0
  0
VERTEX
  5
2BEC
330
2A33
100
AcDbEntity
  8
0
100
AcDbVertex
100
AcDb2dVertex
 10
3.799376638193897
 20
6.361220474192913
 30
0.0
  0
VERTEX
  5
2BED
330
2A33
100
AcDbEntity
  8
0
100
AcDbVertex
100
AcDb2dVertex
 10
3.830872701107283
 20
6.361220474192913
 30
0.0
  0
VERTEX
  5
2BEE
330
2A33
100
AcDbEntity
  8
0
100
AcDbVertex
100
AcDb2dVertex
 10
3.861056428065944
 20
6.373031497785431
 30
0.0
  0
VERTEX
  5
2BEF
330
2A33
100
AcDbEntity
  8
0
100
AcDbVertex
100
AcDb2dVertex
 10
3.885990811205708
 20
6.394028873061024
 30
0.0
  0
VERTEX
  5
2BF0
330
2A33
100
AcDbEntity
  8
0
100
AcDbVertex
100
AcDb2dVertex
 10
3.901738842662401
 20
6.421587928110236
 30
0.0
  0
VERTEX
  5
2BF1
330
2A33
100
AcDbEntity
  8
0
100
AcDbVertex
100
AcDb2dVertex
 10
3.906988186481299
 20
6.453083991023621
 30
0.0
  0
SEQEND
  5
2BF2
330
2A33
100
AcDbEntity
  8
0
  0
CIRCLE
  5
2A48
330
1E
100
AcDbEntity
  8
0
100
AcDbCircle
 10
3.81512466965059
 20
6.453083991023621
 30
0.0
 40
0.1430446190649606
  0
POLYLINE
  5
2A49
330
1E
100
AcDbEntity
  8
0
100
AcDb2dPolyline
 66
     1
 10
0.0
 20
0.0
 30
0.0
  0
VERTEX
  5
2BF3
330
2A49
100
AcDbEntity
  8
0
100
AcDbVertex
100
AcDb2dVertex
 10
3.906988186481299
 20
3.172244104212597
 30
0.0
  0
VERTEX
  5
2BF4
330
2A49
100
AcDbEntity
  8
0
100
AcDbVertex
100
AcDb2dVertex
 10
3.901738842662401
 20
3.203740167125983
 30
0.0
  0
VERTEX
  5
2BF5
330
2A49
100
AcDbEntity
  8
0
100
AcDbVertex
100
AcDb2dVertex
 10
3.885990811205708
 20
3.231299222175196
 30
0.0
  0
VERTEX
  5
2BF6
330
2A49
100
AcDbEntity
  8
0
100
AcDbVertex
100
AcDb2dVertex
 10
3.861056428065944
 20
3.252296597450786
 30
0.0
  0
VERTEX
  5
2BF7
330
2A49
100
AcDbEntity
  8
0
100
AcDbVertex
100
AcDb2dVertex
 10
3.830872701107283
 20
3.262795285088581
 30
0.0
  0
VERTEX
  5
2BF8
330
2A49
100
AcDbEntity
  8
0
100
AcDbVertex
100
AcDb2dVertex
 10
3.799376638193897
 20
3.262795285088581
 30
0.0
  0
VERTEX
  5
2BF9
330
2A49
100
AcDbEntity
  8
0
100
AcDbVertex
100
AcDb2dVertex
 10
3.769192911235236
 20
3.252296597450786
 30
0.0
  0
VERTEX
  5
2BFA
330
2A49
100
AcDbEntity
  8
0
100
AcDbVertex
100
AcDb2dVertex
 10
3.744258528095472
 20
3.231299222175196
 30
0.0
  0
VERTEX
  5
2BFB
330
2A49
100
AcDbEntity
  8
0
100
AcDbVertex
100
AcDb2dVertex
 10
3.728510496638779
 20
3.203740167125983
 30
0.0
  0
VERTEX
  5
2BFC
330
2A49
100
AcDbEntity
  8
0
100
AcDbVertex
100
AcDb2dVertex
 10
3.721948816865157
 20
3.172244104212597
 30
0.0
  0
VERTEX
  5
2BFD
330
2A49
100
AcDbEntity
  8
0
100
AcDbVertex
100
AcDb2dVertex
 10
3.728510496638779
 20
3.140748041299212
 30
0.0
  0
VERTEX
  5
2BFE
330
2A49
100
AcDbEntity
  8
0
100
AcDbVertex
100
AcDb2dVertex
 10
3.744258528095472
 20
3.111876650295275
 30
0.0
  0
VERTEX
  5
2BFF
330
2A49
100
AcDbEntity
  8
0
100
AcDbVertex
100
AcDb2dVertex
 10
3.769192911235236
 20
3.092191610974409
 30
0.0
  0
VERTEX
  5
2C00
330
2A49
100
AcDbEntity
  8
0
100
AcDbVertex
100
AcDb2dVertex
 10
3.799376638193897
 20
3.080380587381888
 30
0.0
  0
VERTEX
  5
2C01
330
2A49
100
AcDbEntity
  8
0
100
AcDbVertex
100
AcDb2dVertex
 10
3.830872701107283
 20
3.080380587381888
 30
0.0
  0
VERTEX
  5
2C02
330
2A49
100
AcDbEntity
  8
0
100
AcDbVertex
100
AcDb2dVertex
 10
3.861056428065944
 20
3.092191610974409
 30
0.0
  0
VERTEX
  5
2C03
330
2A49
100
AcDbEntity
  8
0
100
AcDbVertex
100
AcDb2dVertex
 10
3.885990811205708
 20
3.111876650295275
 30
0.0
  0
VERTEX
  5
2C04
330
2A49
100
AcDbEntity
  8
0
100
AcDbVertex
100
AcDb2dVertex
 10
3.901738842662401
 20
3.140748041299212
 30
0.0
  0
VERTEX
  5
2C05
330
2A49
100
AcDbEntity
  8
0
100
AcDbVertex
100
AcDb2dVertex
 10
3.906988186481299
 20
3.172244104212597
 30
0.0
  0
SEQEND
  5
2C06
330
2A49
100
AcDbEntity
  8
0
  0
CIRCLE
  5
2A5E
330
1E
100
AcDbEntity
  8
0
100
AcDbCircle
 10
3.81512466965059
 20
3.172244104212598
 30
0.0
 40
0.1430446190649606
  0
POLYLINE
  5
2A5F
330
1E
100
AcDbEntity
  8
0
100
AcDb2dPolyline
 66
     1
 10
0.0
 20
0.0
 30
0.0
  0
VERTEX
  5
2C07
330
2A5F
100
AcDbEntity
  8
0
100
AcDbVertex
100
AcDb2dVertex
 10
2.094652233006889
 20
6.453083991023621
 30
0.0
  0
VERTEX
  5
2C08
330
2A5F
100
AcDbEntity
  8
0
100
AcDbVertex
100
AcDb2dVertex
 10
2.089402889187992
 20
6.484580053937007
 30
0.0
  0
VERTEX
  5
2C09
330
2A5F
100
AcDbEntity
  8
0
100
AcDbVertex
100
AcDb2dVertex
 10
2.073654857731299
 20
6.51213910898622
 30
0.0
  0
VERTEX
  5
2C0A
330
2A5F
100
AcDbEntity
  8
0
100
AcDbVertex
100
AcDb2dVertex
 10
2.048720474591535
 20
6.53313648426181
 30
0.0
  0
VERTEX
  5
2C0B
330
2A5F
100
AcDbEntity
  8
0
100
AcDbVertex
100
AcDb2dVertex
 10
2.018536747632873
 20
6.543635171899605
 30
0.0
  0
VERTEX
  5
2C0C
330
2A5F
100
AcDbEntity
  8
0
100
AcDbVertex
100
AcDb2dVertex
 10
1.987040684719487
 20
6.543635171899605
 30
0.0
  0
VERTEX
  5
2C0D
330
2A5F
100
AcDbEntity
  8
0
100
AcDbVertex
100
AcDb2dVertex
 10
1.956856957760826
 20
6.53313648426181
 30
0.0
  0
VERTEX
  5
2C0E
330
2A5F
100
AcDbEntity
  8
0
100
AcDbVertex
100
AcDb2dVertex
 10
1.931922574621062
 20
6.51213910898622
 30
0.0
  0
VERTEX
  5
2C0F
330
2A5F
100
AcDbEntity
  8
0
100
AcDbVertex
100
AcDb2dVertex
 10
1.916174543164369
 20
6.484580053937007
 30
0.0
  0
VERTEX
  5
2C10
330
2A5F
100
AcDbEntity
  8
0
100
AcDbVertex
100
AcDb2dVertex
 10
1.909612863390748
 20
6.453083991023621
 30
0.0
  0
VERTEX
  5
2C11
330
2A5F
100
AcDbEntity
  8
0
100
AcDbVertex
100
AcDb2dVertex
 10
1.916174543164369
 20
6.421587928110236
 30
0.0
  0
VERTEX
  5
2C12
330
2A5F
100
AcDbEntity
  8
0
100
AcDbVertex
100
AcDb2dVertex
 10
1.931922574621062
 20
6.394028873061024
 30
0.0
  0
VERTEX
  5
2C13
330
2A5F
100
AcDbEntity
  8
0
100
AcDbVertex
100
AcDb2dVertex
 10
1.956856957760826
 20
6.373031497785431
 30
0.0
  0
VERTEX
  5
2C14
330
2A5F
100
AcDbEntity
  8
0
100
AcDbVertex
100
AcDb2dVertex
 10
1.987040684719487
 20
6.361220474192913
 30
0.0
  0
VERTEX
  5
2C15
330
2A5F
100
AcDbEntity
  8
0
100
AcDbVertex
100
AcDb2dVertex
 10
2.018536747632873
 20
6.361220474192913
 30
0.0
  0
VERTEX
  5
2C16
330
2A5F
100
AcDbEntity
  8
0
100
AcDbVertex
100
AcDb2dVertex
 10
2.048720474591535
 20
6.373031497785431
 30
0.0
  0
VERTEX
  5
2C17
330
2A5F
100
AcDbEntity
  8
0
100
AcDbVertex
100
AcDb2dVertex
 10
2.073654857731299
 20
6.394028873061024
 30
0.0
  0
VERTEX
  5
2C18
330
2A5F
100
AcDbEntity
  8
0
100
AcDbVertex
100
AcDb2dVertex
 10
2.089402889187992
 20
6.421587928110236
 30
0.0
  0
VERTEX
  5
2C19
330
2A5F
100
AcDbEntity
  8
0
100
AcDbVertex
100
AcDb2dVertex
 10
2.094652233006889
 20
6.453083991023621
 30
0.0
  0
SEQEND
  5
2C1A
330
2A5F
100
AcDbEntity
  8
0
  0
CIRCLE
  5
2A74
330
1E
100
AcDbEntity
  8
0
100
AcDbCircle
 10
2.00278871617618
 20
6.453083991023621
 30
0.0
 40
0.1430446190649606
  0
POLYLINE
  5
2A75
330
1E
100
AcDbEntity
  8
0
100
AcDb2dPolyline
 66
     1
 10
0.0
 20
0.0
 30
0.0
  0
VERTEX
  5
2C1B
330
2A75
100
AcDbEntity
  8
0
100
AcDbVertex
100
AcDb2dVertex
 10
2.094652233006889
 20
3.172244104212597
 30
0.0
  0
VERTEX
  5
2C1C
330
2A75
100
AcDbEntity
  8
0
100
AcDbVertex
100
AcDb2dVertex
 10
2.089402889187992
 20
3.203740167125983
 30
0.0
  0
VERTEX
  5
2C1D
330
2A75
100
AcDbEntity
  8
0
100
AcDbVertex
100
AcDb2dVertex
 10
2.073654857731299
 20
3.231299222175196
 30
0.0
  0
VERTEX
  5
2C1E
330
2A75
100
AcDbEntity
  8
0
100
AcDbVertex
100
AcDb2dVertex
 10
2.048720474591535
 20
3.252296597450786
 30
0.0
  0
VERTEX
  5
2C1F
330
2A75
100
AcDbEntity
  8
0
100
AcDbVertex
100
AcDb2dVertex
 10
2.018536747632873
 20
3.262795285088581
 30
0.0
  0
VERTEX
  5
2C20
330
2A75
100
AcDbEntity
  8
0
100
AcDbVertex
100
AcDb2dVertex
 10
1.987040684719487
 20
3.262795285088581
 30
0.0
  0
VERTEX
  5
2C21
330
2A75
100
AcDbEntity
  8
0
100
AcDbVertex
100
AcDb2dVertex
 10
1.956856957760826
 20
3.252296597450786
 30
0.0
  0
VERTEX
  5
2C22
330
2A75
100
AcDbEntity
  8
0
100
AcDbVertex
100
AcDb2dVertex
 10
1.931922574621062
 20
3.231299222175196
 30
0.0
  0
VERTEX
  5
2C23
330
2A75
100
AcDbEntity
  8
0
100
AcDbVertex
100
AcDb2dVertex
 10
1.916174543164369
 20
3.203740167125983
 30
0.0
  0
VERTEX
  5
2C24
330
2A75
100
AcDbEntity
  8
0
100
AcDbVertex
100
AcDb2dVertex
 10
1.909612863390748
 20
3.172244104212597
 30
0.0
  0
VERTEX
  5
2C25
330
2A75
100
AcDbEntity
  8
0
100
AcDbVertex
100
AcDb2dVertex
 10
1.916174543164369
 20
3.140748041299212
 30
0.0
  0
VERTEX
  5
2C26
330
2A75
100
AcDbEntity
  8
0
100
AcDbVertex
100
AcDb2dVertex
 10
1.931922574621062
 20
3.111876650295275
 30
0.0
  0
VERTEX
  5
2C27
330
2A75
100
AcDbEntity
  8
0
100
AcDbVertex
100
AcDb2dVertex
 10
1.956856957760826
 20
3.092191610974409
 30
0.0
  0
VERTEX
  5
2C28
330
2A75
100
AcDbEntity
  8
0
100
AcDbVertex
100
AcDb2dVertex
 10
1.987040684719487
 20
3.080380587381888
 30
0.0
  0
VERTEX
  5
2C29
330
2A75
100
AcDbEntity
  8
0
100
AcDbVertex
100
AcDb2dVertex
 10
2.018536747632873
 20
3.080380587381888
 30
0.0
  0
VERTEX
  5
2C2A
330
2A75
100
AcDbEntity
  8
0
100
AcDbVertex
100
AcDb2dVertex
 10
2.048720474591535
 20
3.092191610974409
 30
0.0
  0
VERTEX
  5
2C2B
330
2A75
100
AcDbEntity
  8
0
100
AcDbVertex
100
AcDb2dVertex
 10
2.073654857731299
 20
3.111876650295275
 30
0.0
  0
VERTEX
  5
2C2C
330
2A75
100
AcDbEntity
  8
0
100
AcDbVertex
100
AcDb2dVertex
 10
2.089402889187992
 20
3.140748041299212
 30
0.0
  0
VERTEX
  5
2C2D
330
2A75
100
AcDbEntity
  8
0
100
AcDbVertex
100
AcDb2dVertex
 10
2.094652233006889
 20
3.172244104212597
 30
0.0
  0
SEQEND
  5
2C2E
330
2A75
100
AcDbEntity
  8
0
  0
CIRCLE
  5
2A8A
330
1E
100
AcDbEntity
  8
0
100
AcDbCircle
 10
2.00278871617618
 20
3.172244104212598
 30
0.0
 40
0.1430446190649606
  0
LINE
  5
2A8B
330
1E
100
AcDbEntity
  8
0
100
AcDbLine
 10
0.7298228400935037
 20
2.748359590836614
 30
0.0
 11
0.6090879322588579
 21
2.626312347047243
 31
0.0
  0
LINE
  5
2A8C
330
1E
100
AcDbEntity
  8
0
100
AcDbLine
 10
0.7298228400935037
 20
6.876968504399606
 30
0.0
 11
0.7298228400935037
 21
2.748359590836614
 31
0.0
  0
LINE
  5
2A8D
330
1E
100
AcDbEntity
  8
0
100
AcDbLine
 10
0.7298228400935037
 20
6.876968504399606
 30
0.0
 11
0.6090879322588579
 21
6.997703412234251
 31
0.0
  0
LINE
  5
2A8E
330
1E
100
AcDbEntity
  8
0
100
AcDbLine
 10
0.6090879322588579
 20
6.997703412234251
 30
0.0
 11
0.6090879322588579
 21
2.626312347047243
 31
0.0
  0
POLYLINE
  5
2A8F
330
1E
100
AcDbEntity
  8
0
100
AcDb2dPolyline
 66
     1
 10
0.0
 20
0.0
 30
0.0
  0
VERTEX
  5
2C2F
330
2A8F
100
AcDbEntity
  8
0
100
AcDbVertex
100
AcDb2dVertex
 10
0.7298228400935036
 20
6.876968504399606
 30
0.0
  0
VERTEX
  5
2C30
330
2A8F
100
AcDbEntity
  8
0
100
AcDbVertex
100
AcDb2dVertex
 10
0.7600065670521649
 20
6.876968504399606
 30
0.0
  0
VERTEX
  5
2C31
330
2A8F
100
AcDbEntity
  8
0
100
AcDbVertex
100
AcDb2dVertex
 10
0.7941273018749996
 20
6.876968504399606
 30
0.0
  0
SEQEND
  5
2C32
330
2A8F
100
AcDbEntity
  8
0
  0
POLYLINE
  5
2A94
330
1E
100
AcDbEntity
  8
0
100
AcDb2dPolyline
 66
     1
 10
0.0
 20
0.0
 30
0.0
  0
VERTEX
  5
2C33
330
2A94
100
AcDbEntity
  8
0
100
AcDbVertex
100
AcDb2dVertex
 10
0.7298228400935036
 20
2.748359590836614
 30
0.0
  0
VERTEX
  5
2C34
330
2A94
100
AcDbEntity
  8
0
100
AcDbVertex
100
AcDb2dVertex
 10
0.7600065670521649
 20
2.748359590836614
 30
0.0
  0
VERTEX
  5
2C35
330
2A94
100
AcDbEntity
  8
0
100
AcDbVertex
100
AcDb2dVertex
 10
0.7941273018749996
 20
2.748359590836614
 30
0.0
  0
SEQEND
  5
2C36
330
2A94
100
AcDbEntity
  8
0
  0
POLYLINE
  5
2A99
330
1E
100
AcDbEntity
  8
0
100
AcDb2dPolyline
 66
     1
 10
0.0
 20
0.0
 30
0.0
  0
VERTEX
  5
2C37
330
2A99
100
AcDbEntity
  8
0
100
AcDbVertex
100
AcDb2dVertex
 10
0.7298228400935036
 20
6.876968504399606
 30
0.0
  0
VERTEX
  5
2C38
330
2A99
100
AcDbEntity
  8
0
100
AcDbVertex
100
AcDb2dVertex
 10
0.7573818951427162
 20
6.913713911131889
 30
0.0
  0
VERTEX
  5
2C39
330
2A99
100
AcDbEntity
  8
0
100
AcDbVertex
100
AcDb2dVertex
 10
0.7941273018749996
 20
6.941272966181102
 30
0.0
  0
SEQEND
  5
2C3A
330
2A99
100
AcDbEntity
  8
0
  0
POLYLINE
  5
2A9E
330
1E
100
AcDbEntity
  8
0
100
AcDb2dPolyline
 66
     1
 10
0.0
 20
0.0
 30
0.0
  0
VERTEX
  5
2C3B
330
2A9E
100
AcDbEntity
  8
0
100
AcDbVertex
100
AcDb2dVertex
 10
0.7298228400935036
 20
2.748359590836614
 30
0.0
  0
VERTEX
  5
2C3C
330
2A9E
100
AcDbEntity
  8
0
100
AcDbVertex
100
AcDb2dVertex
 10
0.7573818951427162
 20
2.711614184104329
 30
0.0
  0
VERTEX
  5
2C3D
330
2A9E
100
AcDbEntity
  8
0
100
AcDbVertex
100
AcDb2dVertex
 10
0.7941273018749996
 20
2.684055129055117
 30
0.0
  0
SEQEND
  5
2C3E
330
2A9E
100
AcDbEntity
  8
0
  0
POLYLINE
  5
2AA3
330
1E
100
AcDbEntity
  8
0
100
AcDb2dPolyline
 66
     1
 10
0.0
 20
0.0
 30
0.0
  0
VERTEX
  5
2C3F
330
2AA3
100
AcDbEntity
  8
0
100
AcDbVertex
100
AcDb2dVertex
 10
0.609087932258858
 20
2.626312347047243
 30
0.0
  0
VERTEX
  5
2C40
330
2AA3
100
AcDbEntity
  8
0
100
AcDbVertex
100
AcDb2dVertex
 10
0.609087932258858
 20
2.596128620088582
 30
0.0
  0
VERTEX
  5
2C41
330
2AA3
100
AcDbEntity
  8
0
100
AcDbVertex
100
AcDb2dVertex
 10
0.609087932258858
 20
2.562007885265748
 30
0.0
  0
SEQEND
  5
2C42
330
2AA3
100
AcDbEntity
  8
0
  0
POLYLINE
  5
2AA8
330
1E
100
AcDbEntity
  8
0
100
AcDb2dPolyline
 66
     1
 10
0.0
 20
0.0
 30
0.0
  0
VERTEX
  5
2C43
330
2AA8
100
AcDbEntity
  8
0
100
AcDbVertex
100
AcDb2dVertex
 10
0.609087932258858
 20
6.997703412234251
 30
0.0
  0
VERTEX
  5
2C44
330
2AA8
100
AcDbEntity
  8
0
100
AcDbVertex
100
AcDb2dVertex
 10
0.609087932258858
 20
7.029199475147636
 30
0.0
  0
VERTEX
  5
2C45
330
2AA8
100
AcDbEntity
  8
0
100
AcDbVertex
100
AcDb2dVertex
 10
0.609087932258858
 20
7.062007874015748
 30
0.0
  0
SEQEND
  5
2C46
330
2AA8
100
AcDbEntity
  8
0
  0
LINE
  5
2AAD
330
1E
100
AcDbEntity
  8
0
100
AcDbLine
 10
6.816436998105315
 20
6.876968504399606
 30
0.0
 11
6.816436998105315
 21
2.748359590836614
 31
0.0
  0
LINE
  5
2AAE
330
1E
100
AcDbEntity
  8
0
100
AcDbLine
 10
6.918799202573818
 20
2.626312347047243
 30
0.0
 11
6.816436998105315
 21
2.748359590836614
 31
0.0
  0
LINE
  5
2AAF
330
1E
100
AcDbEntity
  8
0
100
AcDbLine
 10
6.918799202573818
 20
6.997703412234251
 30
0.0
 11
6.918799202573818
 21
2.626312347047243
 31
0.0
  0
LINE
  5
2AB0
330
1E
100
AcDbEntity
  8
0
100
AcDbLine
 10
6.918799202573818
 20
6.997703412234251
 30
0.0
 11
6.816436998105315
 21
6.876968504399606
 31
0.0
  0
POLYLINE
  5
2AB1
330
1E
100
AcDbEntity
  8
0
100
AcDb2dPolyline
 66
     1
 10
0.0
 20
0.0
 30
0.0
  0
VERTEX
  5
2C47
330
2AB1
100
AcDbEntity
  8
0
100
AcDbVertex
100
AcDb2dVertex
 10
6.792814950920275
 20
6.876968504399606
 30
0.0
  0
VERTEX
  5
2C48
330
2AB1
100
AcDbEntity
  8
0
100
AcDbVertex
100
AcDb2dVertex
 10
6.799376630693898
 20
6.876968504399606
 30
0.0
  0
VERTEX
  5
2C49
330
2AB1
100
AcDbEntity
  8
0
100
AcDbVertex
100
AcDb2dVertex
 10
6.816436998105315
 20
6.876968504399606
 30
0.0
  0
SEQEND
  5
2C4A
330
2AB1
100
AcDbEntity
  8
0
  0
LINE
  5
2AB6
330
1E
100
AcDbEntity
  8
0
100
AcDbLine
 10
6.792814950920275
 20
2.748359590836614
 30
0.0
 11
6.792814950920275
 21
6.876968504399606
 31
0.0
  0
POLYLINE
  5
2AB7
330
1E
100
AcDbEntity
  8
0
100
AcDb2dPolyline
 66
     1
 10
0.0
 20
0.0
 30
0.0
  0
VERTEX
  5
2C4B
330
2AB7
100
AcDbEntity
  8
0
100
AcDbVertex
100
AcDb2dVertex
 10
6.792814950920275
 20
2.748359590836614
 30
0.0
  0
VERTEX
  5
2C4C
330
2AB7
100
AcDbEntity
  8
0
100
AcDbVertex
100
AcDb2dVertex
 10
6.799376630693898
 20
2.748359590836614
 30
0.0
  0
VERTEX
  5
2C4D
330
2AB7
100
AcDbEntity
  8
0
100
AcDbVertex
100
AcDb2dVertex
 10
6.816436998105315
 20
2.748359590836614
 30
0.0
  0
SEQEND
  5
2C4E
330
2AB7
100
AcDbEntity
  8
0
  0
POLYLINE
  5
2ABC
330
1E
100
AcDbEntity
  8
0
100
AcDb2dPolyline
 66
     1
 10
0.0
 20
0.0
 30
0.0
  0
VERTEX
  5
2C4F
330
2ABC
100
AcDbEntity
  8
0
100
AcDbVertex
100
AcDb2dVertex
 10
6.816436998105315
 20
6.876968504399606
 30
0.0
  0
VERTEX
  5
2C50
330
2ABC
100
AcDbEntity
  8
0
100
AcDbVertex
100
AcDb2dVertex
 10
6.807250646422244
 20
6.913713911131889
 30
0.0
  0
VERTEX
  5
2C51
330
2ABC
100
AcDbEntity
  8
0
100
AcDbVertex
100
AcDb2dVertex
 10
6.816436998105315
 20
6.941272966181102
 30
0.0
  0
SEQEND
  5
2C52
330
2ABC
100
AcDbEntity
  8
0
  0
POLYLINE
  5
2AC1
330
1E
100
AcDbEntity
  8
0
100
AcDb2dPolyline
 66
     1
 10
0.0
 20
0.0
 30
0.0
  0
VERTEX
  5
2C53
330
2AC1
100
AcDbEntity
  8
0
100
AcDbVertex
100
AcDb2dVertex
 10
6.792814950920275
 20
6.876968504399606
 30
0.0
  0
VERTEX
  5
2C54
330
2AC1
100
AcDbEntity
  8
0
100
AcDbVertex
100
AcDb2dVertex
 10
6.799376630693898
 20
6.911089239222441
 30
0.0
  0
VERTEX
  5
2C55
330
2AC1
100
AcDbEntity
  8
0
100
AcDbVertex
100
AcDb2dVertex
 10
6.816436998105315
 20
6.941272966181102
 30
0.0
  0
SEQEND
  5
2C56
330
2AC1
100
AcDbEntity
  8
0
  0
POLYLINE
  5
2AC6
330
1E
100
AcDbEntity
  8
0
100
AcDb2dPolyline
 66
     1
 10
0.0
 20
0.0
 30
0.0
  0
VERTEX
  5
2C57
330
2AC6
100
AcDbEntity
  8
0
100
AcDbVertex
100
AcDb2dVertex
 10
6.792814950920275
 20
2.748359590836614
 30
0.0
  0
VERTEX
  5
2C58
330
2AC6
100
AcDbEntity
  8
0
100
AcDbVertex
100
AcDb2dVertex
 10
6.799376630693898
 20
2.714238856013778
 30
0.0
  0
VERTEX
  5
2C59
330
2AC6
100
AcDbEntity
  8
0
100
AcDbVertex
100
AcDb2dVertex
 10
6.816436998105315
 20
2.684055129055117
 30
0.0
  0
SEQEND
  5
2C5A
330
2AC6
100
AcDbEntity
  8
0
  0
POLYLINE
  5
2ACB
330
1E
100
AcDbEntity
  8
0
100
AcDb2dPolyline
 66
     1
 10
0.0
 20
0.0
 30
0.0
  0
VERTEX
  5
2C5B
330
2ACB
100
AcDbEntity
  8
0
100
AcDbVertex
100
AcDb2dVertex
 10
6.816436998105315
 20
2.748359590836614
 30
0.0
  0
VERTEX
  5
2C5C
330
2ACB
100
AcDbEntity
  8
0
100
AcDbVertex
100
AcDb2dVertex
 10
6.807250646422244
 20
2.711614184104329
 30
0.0
  0
VERTEX
  5
2C5D
330
2ACB
100
AcDbEntity
  8
0
100
AcDbVertex
100
AcDb2dVertex
 10
6.816436998105315
 20
2.684055129055117
 30
0.0
  0
SEQEND
  5
2C5E
330
2ACB
100
AcDbEntity
  8
0
  0
LINE
  5
2AD0
330
1E
100
AcDbEntity
  8
0
100
AcDbLine
 10
6.816436998105315
 20
2.684055129055117
 30
0.0
 11
6.918799202573818
 21
2.562007885265748
 31
0.0
  0
POLYLINE
  5
2AD1
330
1E
100
AcDbEntity
  8
0
100
AcDb2dPolyline
 66
     1
 10
0.0
 20
0.0
 30
0.0
  0
VERTEX
  5
2C5F
330
2AD1
100
AcDbEntity
  8
0
100
AcDbVertex
100
AcDb2dVertex
 10
6.918799202573818
 20
2.562007885265748
 30
0.0
  0
VERTEX
  5
2C60
330
2AD1
100
AcDbEntity
  8
0
100
AcDbVertex
100
AcDb2dVertex
 10
6.921423874483267
 20
2.562007885265748
 30
0.0
  0
VERTEX
  5
2C61
330
2AD1
100
AcDbEntity
  8
0
100
AcDbVertex
100
AcDb2dVertex
 10
6.933234898075787
 20
2.562007885265748
 30
0.0
  0
SEQEND
  5
2C62
330
2AD1
100
AcDbEntity
  8
0
  0
POLYLINE
  5
2AD6
330
1E
100
AcDbEntity
  8
0
100
AcDb2dPolyline
 66
     1
 10
0.0
 20
0.0
 30
0.0
  0
VERTEX
  5
2C63
330
2AD6
100
AcDbEntity
  8
0
100
AcDbVertex
100
AcDb2dVertex
 10
6.933234898075787
 20
2.562007885265748
 30
0.0
  0
VERTEX
  5
2C64
330
2AD6
100
AcDbEntity
  8
0
100
AcDbVertex
100
AcDb2dVertex
 10
6.921423874483267
 20
2.596128620088582
 30
0.0
  0
VERTEX
  5
2C65
330
2AD6
100
AcDbEntity
  8
0
100
AcDbVertex
100
AcDb2dVertex
 10
6.918799202573818
 20
2.626312347047243
 30
0.0
  0
SEQEND
  5
2C66
330
2AD6
100
AcDbEntity
  8
0
  0
LINE
  5
2ADB
330
1E
100
AcDbEntity
  8
0
100
AcDbLine
 10
6.952919937396653
 20
2.562007885265748
 30
0.0
 11
6.933234898075786
 21
2.562007885265748
 31
0.0
  0
LINE
  5
2ADC
330
1E
100
AcDbEntity
  8
0
100
AcDbLine
 10
6.952919937396653
 20
2.562007885265748
 30
0.0
 11
6.952919937396653
 21
7.062007874015748
 31
0.0
  0
LINE
  5
2ADD
330
1E
100
AcDbEntity
  8
0
100
AcDbLine
 10
6.952919937396653
 20
7.062007874015748
 30
0.0
 11
6.933234898075786
 21
7.062007874015748
 31
0.0
  0
POLYLINE
  5
2ADE
330
1E
100
AcDbEntity
  8
0
100
AcDb2dPolyline
 66
     1
 10
0.0
 20
0.0
 30
0.0
  0
VERTEX
  5
2C67
330
2ADE
100
AcDbEntity
  8
0
100
AcDbVertex
100
AcDb2dVertex
 10
6.933234898075787
 20
7.062007874015748
 30
0.0
  0
VERTEX
  5
2C68
330
2ADE
100
AcDbEntity
  8
0
100
AcDbVertex
100
AcDb2dVertex
 10
6.921423874483267
 20
7.029199475147636
 30
0.0
  0
VERTEX
  5
2C69
330
2ADE
100
AcDbEntity
  8
0
100
AcDbVertex
100
AcDb2dVertex
 10
6.918799202573818
 20
6.997703412234251
 30
0.0
  0
SEQEND
  5
2C6A
330
2ADE
100
AcDbEntity
  8
0
  0
POLYLINE
  5
2AE3
330
1E
100
AcDbEntity
  8
0
100
AcDb2dPolyline
 66
     1
 10
0.0
 20
0.0
 30
0.0
  0
VERTEX
  5
2C6B
330
2AE3
100
AcDbEntity
  8
0
100
AcDbVertex
100
AcDb2dVertex
 10
6.918799202573818
 20
7.062007874015748
 30
0.0
  0
VERTEX
  5
2C6C
330
2AE3
100
AcDbEntity
  8
0
100
AcDbVertex
100
AcDb2dVertex
 10
6.921423874483267
 20
7.062007874015748
 30
0.0
  0
VERTEX
  5
2C6D
330
2AE3
100
AcDbEntity
  8
0
100
AcDbVertex
100
AcDb2dVertex
 10
6.933234898075787
 20
7.062007874015748
 30
0.0
  0
SEQEND
  5
2C6E
330
2AE3
100
AcDbEntity
  8
0
  0
LINE
  5
2AE8
330
1E
100
AcDbEntity
  8
0
100
AcDbLine
 10
6.816436998105315
 20
6.941272966181102
 30
0.0
 11
6.918799202573818
 21
7.062007874015748
 31
0.0
  0
ENDSEC
  0
SECTION
  2
OBJECTS
  0
DICTIONARY
  5
C
330
0
100
AcDbDictionary
  3
ACAD_GROUP
350
D
  3
ACAD_MLINESTYLE
350
16
  3
ACAD_PLOTSETTINGS
350
18
  3
ACAD_LAYOUT
350
19
1001
ACAD
1000
TREAT_AS_HARD
1070
     0
  0
DICTIONARY
  5
2B0D
330
1E
100
AcDbDictionary
  3
ACAD_LAYOUTSELFREF
350
2B0E
  0
DICTIONARY
  5
2B0B
330
1A
100
AcDbDictionary
  3
ACAD_LAYOUTSELFREF
350
2B0C
  0
DICTIONARY
  5
D
102
{ACAD_REACTORS
330
C
102
}
330
C
100
AcDbDictionary
1001
ACAD
1000
TREAT_AS_HARD
1070
     0
  0
DICTIONARY
  5
16
102
{ACAD_REACTORS
330
C
102
}
330
C
100
AcDbDictionary
  3
STANDARD
350
17
1001
ACAD
1000
TREAT_AS_HARD
1070
     0
  0
DICTIONARY
  5
18
102
{ACAD_REACTORS
330
C
102
}
330
C
100
AcDbDictionary
1001
ACAD
1000
TREAT_AS_HARD
1070
     0
  0
DICTIONARY
  5
19
102
{ACAD_REACTORS
330
C
102
}
330
C
100
AcDbDictionary
1001
ACAD
1000
TREAT_AS_HARD
1070
     0
  0
XRECORD
  5
2B0E
102
{ACAD_REACTORS
330
2B0D
102
}
330
2B0D
100
AcDbXrecord
340
1E
  0
XRECORD
  5
2B0C
102
{ACAD_REACTORS
330
2B0B
102
}
330
2B0B
100
AcDbXrecord
340
1A
  0
MLINESTYLE
  5
17
102
{ACAD_REACTORS
330
16
102
}
330
16
100
AcDbMlineStyle
  2
STANDARD
 70
     0
  3

 62
   256
 51
90.0
 52
90.0
 71
     2
 49
0.5
 62
   256
  6
BYLAYER
 49
-0.5
 62
   256
  6
BYLAYER
  0
ENDSEC
  0
EOF
