  0
SECTION
  2
HEADER
  9
$ACADVER
  1
AC1015
  9
$ACADMAINTVER
 70
    20
  9
$DWGCODEPAGE
  3
ANSI_1252
  9
$INSBASE
 10
0.0
 20
0.0
 30
0.0
  9
$EXTMIN
 10
-0.5
 20
-0.5
 30
-0.5
  9
$EXTMAX
 10
5.0
 20
5.0
 30
5.0
  9
$LIMMIN
 10
-0.5
 20
-0.5
  9
$LIMMAX
 10
5.0
 20
5.0
  9
$ORTHOMODE
 70
     0
  9
$REGENMODE
 70
     1
  9
$FILLMODE
 70
     1
  9
$QTEXTMODE
 70
     0
  9
$MIRRTEXT
 70
     1
  9
$LTSCALE
 40
1.0
  9
$ATTMODE
 70
     1
  9
$TEXTSIZE
 40
0.0
  9
$TRACEWID
 40
0.05
  9
$TEXTSTYLE
  7
Standard
  9
$CLAYER
  8
0
  9
$CELTYPE
  6
Continuous
  9
$CECOLOR
 62
    18
  9
$CELTSCALE
 40
1.0
  9
$DISPSILH
 70
     0
  9
$DIMSCALE
 40
1.0
  9
$DIMASZ
 40
0.18
  9
$DIMEXO
 40
0.0625
  9
$DIMDLI
 40
0.38
  9
$DIMRND
 40
0.0
  9
$DIMDLE
 40
0.0
  9
$DIMEXE
 40
0.18
  9
$DIMTP
 40
0.0
  9
$DIMTM
 40
0.0
  9
$DIMTXT
 40
0.18
  9
$DIMCEN
 40
0.09
  9
$DIMTSZ
 40
0.0
  9
$DIMTOL
 70
     0
  9
$DIMLIM
 70
     0
  9
$DIMTIH
 70
     1
  9
$DIMTOH
 70
     1
  9
$DIMSE1
 70
     0
  9
$DIMSE2
 70
     0
  9
$DIMTAD
 70
     0
  9
$DIMZIN
 70
     0
  9
$DIMBLK
  1

  9
$DIMASO
 70
     1
  9
$DIMSHO
 70
     1
  9
$DIMPOST
  1

  9
$DIMAPOST
  1

  9
$DIMALT
 70
     0
  9
$DIMALTD
 70
     2
  9
$DIMALTF
 40
25.4
  9
$DIMLFAC
 40
1.0
  9
$DIMTOFL
 70
     0
  9
$DIMTVP
 40
0.0
  9
$DIMTIX
 70
     0
  9
$DIMSOXD
 70
     0
  9
$DIMSAH
 70
     0
  9
$DIMBLK1
  1

  9
$DIMBLK2
  1

  9
$DIMSTYLE
  2
Standard
  9
$DIMCLRD
 70
     0
  9
$DIMCLRE
 70
     0
  9
$DIMCLRT
 70
     0
  9
$DIMTFAC
 40
1.0
  9
$DIMGAP
 40
0.09
  9
$DIMJUST
 70
     0
  9
$DIMSD1
 70
     0
  9
$DIMSD2
 70
     0
  9
$DIMTOLJ
 70
     1
  9
$DIMTZIN
 70
     0
  9
$DIMALTZ
 70
     0
  9
$DIMALTTZ
 70
     0
  9
$DIMUPT
 70
     0
  9
$DIMDEC
 70
     4
  9
$DIMTDEC
 70
     4
  9
$DIMALTU
 70
     2
  9
$DIMALTTD
 70
     2
  9
$DIMTXSTY
  7
Standard
  9
$DIMAUNIT
 70
     0
  9
$DIMADEC
 70
     0
  9
$DIMALTRND
 40
0.0
  9
$DIMAZIN
 70
     0
  9
$DIMDSEP
 70
     0
  9
$DIMATFIT
 70
     3
  9
$DIMFRAC
 70
     0
  9
$DIMLDRBLK
  1

  9
$DIMLUNIT
 70
     2
  9
$DIMLWD
 70
     0
  9
$DIMLWE
 70
     0
  9
$DIMTMOVE
 70
     0
  9
$LUNITS
 70
     2
  9
$LUPREC
 70
     4
  9
$SKETCHINC
 40
0.1
  9
$FILLETRAD
 40
0.0
  9
$AUNITS
 70
     0
  9
$AUPREC
 70
     0
  9
$MENU
  1
acad
  9
$ELEVATION
 40
0.0
  9
$PELEVATION
 40
0.0
  9
$THICKNESS
 40
0.0
  9
$LIMCHECK
 70
     0
  9
$CHAMFERA
 40
0.0
  9
$CHAMFERB
 40
0.0
  9
$CHAMFERC
 40
0.0
  9
$CHAMFERD
 40
0.0
  9
$SKPOLY
 70
     0
  9
$TDCREATE
 40
2455856.428713403
  9
$TDUCREATE
 40
2455856.637046736
  9
$TDUPDATE
 40
2455856.429579202
  9
$TDUUPDATE
 40
2455856.637912535
  9
$TDINDWG
 40
0.0008898495
  9
$TDUSRTIMER
 40
0.0008887616
  9
$USRTIMER
 70
     1
  9
$ANGBASE
 50
0.0
  9
$ANGDIR
 70
     0
  9
$PDMODE
 70
     0
  9
$PDSIZE
 40
0.0
  9
$PLINEWID
 40
0.0
  9
$SPLFRAME
 70
     0
  9
$SPLINETYPE
 70
     6
  9
$SPLINESEGS
 70
     8
  9
$HANDSEED
  5
51F
  9
$SURFTAB1
 70
     6
  9
$SURFTAB2
 70
     6
  9
$SURFTYPE
 70
     6
  9
$SURFU
 70
     6
  9
$SURFV
 70
     6
  9
$UCSBASE
  2

  9
$UCSNAME
  2

  9
$UCSORG
 10
0.0
 20
0.0
 30
0.0
  9
$UCSXDIR
 10
1.0
 20
0.0
 30
0.0
  9
$UCSYDIR
 10
0.0
 20
1.0
 30
0.0
  9
$UCSORTHOREF
  2

  9
$UCSORTHOVIEW
 70
     0
  9
$UCSORGTOP
 10
0.0
 20
0.0
 30
0.0
  9
$UCSORGBOTTOM
 10
0.0
 20
0.0
 30
0.0
  9
$UCSORGLEFT
 10
0.0
 20
0.0
 30
0.0
  9
$UCSORGRIGHT
 10
0.0
 20
0.0
 30
0.0
  9
$UCSORGFRONT
 10
0.0
 20
0.0
 30
0.0
  9
$UCSORGBACK
 10
0.0
 20
0.0
 30
0.0
  9
$PUCSBASE
  2

  9
$PUCSNAME
  2

  9
$PUCSORG
 10
0.0
 20
0.0
 30
0.0
  9
$PUCSXDIR
 10
1.0
 20
0.0
 30
0.0
  9
$PUCSYDIR
 10
0.0
 20
1.0
 30
0.0
  9
$PUCSORTHOREF
  2

  9
$PUCSORTHOVIEW
 70
     0
  9
$PUCSORGTOP
 10
0.0
 20
0.0
 30
0.0
  9
$PUCSORGBOTTOM
 10
0.0
 20
0.0
 30
0.0
  9
$PUCSORGLEFT
 10
0.0
 20
0.0
 30
0.0
  9
$PUCSORGRIGHT
 10
0.0
 20
0.0
 30
0.0
  9
$PUCSORGFRONT
 10
0.0
 20
0.0
 30
0.0
  9
$PUCSORGBACK
 10
0.0
 20
0.0
 30
0.0
  9
$USERI1
 70
     0
  9
$USERI2
 70
     0
  9
$USERI3
 70
     0
  9
$USERI4
 70
     0
  9
$USERI5
 70
     0
  9
$USERR1
 40
0.0
  9
$USERR2
 40
0.0
  9
$USERR3
 40
0.0
  9
$USERR4
 40
0.0
  9
$USERR5
 40
0.0
  9
$WORLDVIEW
 70
     1
  9
$SHADEDGE
 70
     3
  9
$SHADEDIF
 70
    70
  9
$TILEMODE
 70
     0
  9
$MAXACTVP
 70
    64
  9
$PINSBASE
 10
0.0
 20
0.0
 30
0.0
  9
$PLIMCHECK
 70
     0
  9
$PEXTMIN
 10
1.651863127425151
 20
3.539260889914888
 30
-0.0004043445228632
  9
$PEXTMAX
 10
5.536903401763296
 20
7.486099262938484
 30
0.0000152657740013
  9
$PLIMMIN
 10
1.528524302365467
 20
3.415922185258703
  9
$PLIMMAX
 10
6.955427270190403
 20
7.609438087998169
  9
$UNITMODE
 70
     0
  9
$VISRETAIN
 70
     0
  9
$PLINEGEN
 70
     1
  9
$PSLTSCALE
 70
     0
  9
$TREEDEPTH
 70
  3020
  9
$CMLSTYLE
  2
Standard
  9
$CMLJUST
 70
     0
  9
$CMLSCALE
 40
1.0
  9
$PROXYGRAPHICS
 70
     0
  9
$MEASUREMENT
 70
     0
  9
$CELWEIGHT
370
     0
  9
$ENDCAPS
280
     0
  9
$JOINSTYLE
280
     0
  9
$LWDISPLAY
290
     0
  9
$INSUNITS
 70
     0
  9
$HYPERLINKBASE
  1

  9
$STYLESHEET
  1

  9
$XEDIT
290
     1
  9
$CEPSNTYPE
380
     0
  9
$PSTYLEMODE
290
     1
  9
$FINGERPRINTGUID
  2

  9
$VERSIONGUID
  2
{7EFDCCFD-E159-4FDC-9746-F5F452B6FEA9}
  9
$EXTNAMES
290
     1
  9
$PSVPSCALE
 40
0.0
  9
$OLESTARTUP
290
     0
  0
ENDSEC
  0
SECTION
  2
CLASSES
  0
CLASS
  1
IMAGE
  2
AcDbRasterImage
  3
ISM
 90
    34943
280
     0
281
     1
  0
CLASS
  1
DICTIONARYVAR
  2
AcDbDictionaryVar
  3
ObjectDBX Classes
 90
        0
280
     0
281
     0
  0
CLASS
  1
RASTERVARIABLES
  2
AcDbRasterVariables
  3
ISM
 90
    32768
280
     0
281
     0
  0
CLASS
  1
IMAGEDEF
  2
AcDbRasterImageDef
  3
ISM
 90
    32768
280
     0
281
     0
  0
CLASS
  1
IMAGEDEF_REACTOR
  2
AcDbRasterImageDefReactor
  3
ISM
 90
    32769
280
     0
281
     0
  0
CLASS
  1
IDBUFFER
  2
AcDbIdBuffer
  3
ObjectDBX Classes
 90
    32768
280
     0
281
     0
  0
CLASS
  1
SPATIAL_FILTER
  2
AcDbSpatialFilter
  3
ObjectDBX Classes
 90
    32768
280
     0
281
     0
  0
CLASS
  1
SORTENTSTABLE
  2
AcDbSortentsTable
  3
ObjectDBX Classes
 90
    32768
280
     0
281
     0
  0
CLASS
  1
LAYER_INDEX
  2
AcDbLayerIndex
  3
ObjectDBX Classes
 90
    32768
280
     0
281
     0
  0
CLASS
  1
SPATIAL_INDEX
  2
AcDbSpatialIndex
  3
ObjectDBX Classes
 90
    32768
280
     0
281
     0
  0
CLASS
  1
OBJECT_PTR
  2
CAseDLPNTableRecord
  3
ASE-LPNTableRecord
 90
    32769
280
     0
281
     0
  0
CLASS
  1
LAYOUT
  2
AcDbLayout
  3
ObjectDBX Classes
 90
        0
280
     0
281
     0
  0
CLASS
  1
PLOTSETTINGS
  2
AcDbPlotSettings
  3
ObjectDBX Classes
 90
    32768
280
     0
281
     0
  0
CLASS
  1
ACDBDICTIONARYWDFLT
  2
AcDbDictionaryWithDefault
  3
ObjectDBX Classes
 90
        0
280
     0
281
     0
  0
CLASS
  1
ACDBPLACEHOLDER
  2
AcDbPlaceHolder
  3
ObjectDBX Classes
 90
        0
280
     0
281
     0
  0
CLASS
  1
VBA_PROJECT
  2
AcDbVbaProject
  3
acad
 90
    32768
280
     0
281
     0
  0
CLASS
  1
WIPEOUT
  2
AcDbWipeout
  3
"WipeOut|Product Desc: Object Enabler for WipeOut entity                        |Company: Autodesk, Inc.                        |WEB Address: www.autodesk.com"
 90
    34943
280
     0
281
     1
  0
CLASS
  1
WIPEOUTVARIABLES
  2
AcDbWipeoutVariables
  3
"WipeOut|Product Desc:     WipeOut Dbx Application|Company:          Autodesk, Inc.|WEB Address:      www.autodesk.com"
 90
        0
280
     0
281
     0
  0
CLASS
  1
RTEXT
  2
RText
  3
RText|AutoCAD Express Tool|expresstools@autodesk.com
 90
    35839
280
     0
281
     1
  0
CLASS
  1
ARCALIGNEDTEXT
  2
AcDbArcAlignedText
  3
ATEXT|AutoCAD Express Tool|expresstools@autodesk.com
 90
    32768
280
     0
281
     1
  0
CLASS
  1
MATERIAL
  2
AcDbMaterial
  3
ObjectDBX Classes
 90
     1024
280
     0
281
     0
  0
CLASS
  1
VISUALSTYLE
  2
AcDbVisualStyle
  3
ObjectDBX Classes
 90
     4095
280
     0
281
     0
  0
CLASS
  1
TABLESTYLE
  2
AcDbTableStyle
  3
ObjectDBX Classes
 90
     4095
280
     0
281
     0
  0
ENDSEC
  0
SECTION
  2
TABLES
  0
TABLE
  2
VPORT
  5
7
330
0
100
AcDbSymbolTable
 70
    16
  0
VPORT
  5
4D6
330
7
100
AcDbSymbolTableRecord
100
AcDbViewportTableRecord
  2
*ACTIVE
 70
     0
 10
0.0
 20
0.0
 11
1.0
 21
1.0
 12
0.0
 22
0.0
 13
0.0
 23
0.0
 14
1.0
 24
1.0
 15
0.0
 25
0.0
 16
0.718873
 26
-0.5850489999999999
 36
0.375419
 17
0.0
 27
0.0
 37
0.0
 40
45.50180499999999
 41
0.6885640000000001
 42
50.0
 43
22.470919
 44
-22.470919
 50
0.0
 51
0.0
 71
    16
 72
   100
 73
     1
 74
     1
 75
     0
 76
     0
 77
     0
 78
     0
281
     0
 65
     0
110
0.0
120
0.0
130
0.0
111
1.0
121
0.0
131
0.0
112
0.0
122
1.0
132
0.0
 79
     0
146
0.0
  0
VPORT
  5
4D7
330
7
100
AcDbSymbolTableRecord
100
AcDbViewportTableRecord
  2
L1
 70
     0
 10
0.0
 20
0.0
 11
1.0
 21
1.0
 12
0.0
 22
0.0
 13
0.0
 23
0.0
 14
1.0
 24
1.0
 15
0.0
 25
0.0
 16
0.718873
 26
-0.5850489999999999
 36
0.375419
 17
0.0
 27
0.0
 37
0.0
 40
45.50180499999999
 41
0.6885640000000001
 42
50.0
 43
22.470919
 44
-22.470919
 50
0.0
 51
0.0
 71
    16
 72
   100
 73
     1
 74
     1
 75
     0
 76
     0
 77
     0
 78
     0
281
     0
 65
     0
110
0.0
120
0.0
130
0.0
111
1.0
121
0.0
131
0.0
112
0.0
122
1.0
132
0.0
 79
     0
146
0.0
  0
VPORT
  5
4D8
330
7
100
AcDbSymbolTableRecord
100
AcDbViewportTableRecord
  2
L2
 70
     0
 10
0.0
 20
0.0
 11
0.5
 21
1.0
 12
0.0
 22
0.0
 13
0.0
 23
0.0
 14
1.0
 24
1.0
 15
0.0
 25
0.0
 16
0.0
 26
-1.0
 36
0.0
 17
0.0
 27
0.0
 37
0.0
 40
43.845695
 41
0.6885640000000001
 42
50.0
 43
22.669827
 44
-22.669827
 50
0.0
 51
0.0
 71
    16
 72
   100
 73
     1
 74
     1
 75
     0
 76
     0
 77
     0
 78
     0
281
     0
 65
     0
110
0.0
120
0.0
130
0.0
111
1.0
121
0.0
131
0.0
112
0.0
122
1.0
132
0.0
 79
     0
146
0.0
  0
VPORT
  5
4D9
330
7
100
AcDbSymbolTableRecord
100
AcDbViewportTableRecord
  2
L2
 70
     0
 10
0.5
 20
0.0
 11
1.0
 21
1.0
 12
0.0
 22
0.0
 13
0.0
 23
0.0
 14
1.0
 24
1.0
 15
0.0
 25
0.0
 16
1.0
 26
0.0
 36
0.0
 17
0.0
 27
0.0
 37
0.0
 40
43.845695
 41
0.6885640000000001
 42
50.0
 43
22.150778
 44
-22.150778
 50
0.0
 51
0.0
 71
    16
 72
   100
 73
     1
 74
     1
 75
     0
 76
     0
 77
     0
 78
     0
281
     0
 65
     0
110
0.0
120
0.0
130
0.0
111
1.0
121
0.0
131
0.0
112
0.0
122
1.0
132
0.0
 79
     0
146
0.0
  0
VPORT
  5
4DA
330
7
100
AcDbSymbolTableRecord
100
AcDbViewportTableRecord
  2
L3
 70
     0
 10
0.0
 20
0.5
 11
1.0
 21
1.0
 12
0.0
 22
0.0
 13
0.0
 23
0.0
 14
1.0
 24
1.0
 15
0.0
 25
0.0
 16
0.0
 26
0.0
 36
1.0
 17
0.0
 27
0.0
 37
0.0
 40
6.338994999999999
 41
0.6885640000000001
 42
50.0
 43
21.922848
 44
-21.922848
 50
0.0
 51
0.0
 71
    16
 72
   100
 73
     1
 74
     1
 75
     0
 76
     0
 77
     0
 78
     0
281
     0
 65
     0
110
0.0
120
0.0
130
0.0
111
1.0
121
0.0
131
0.0
112
0.0
122
1.0
132
0.0
 79
     0
146
0.0
  0
VPORT
  5
4DB
330
7
100
AcDbSymbolTableRecord
100
AcDbViewportTableRecord
  2
L3
 70
     0
 10
0.0
 20
0.0
 11
1.0
 21
0.5
 12
0.0
 22
0.0
 13
0.0
 23
0.0
 14
1.0
 24
1.0
 15
0.0
 25
0.0
 16
0.0
 26
-1.0
 36
0.0
 17
0.0
 27
0.0
 37
0.0
 40
43.845695
 41
0.6885640000000001
 42
50.0
 43
22.669827
 44
-22.669827
 50
0.0
 51
0.0
 71
    16
 72
   100
 73
     1
 74
     1
 75
     0
 76
     0
 77
     0
 78
     0
281
     0
 65
     0
110
0.0
120
0.0
130
0.0
111
1.0
121
0.0
131
0.0
112
0.0
122
1.0
132
0.0
 79
     0
146
0.0
  0
VPORT
  5
4DC
330
7
100
AcDbSymbolTableRecord
100
AcDbViewportTableRecord
  2
L4
 70
     0
 10
0.0
 20
0.5
 11
0.5
 21
1.0
 12
0.0
 22
0.0
 13
0.0
 23
0.0
 14
1.0
 24
1.0
 15
0.0
 25
0.0
 16
0.0
 26
0.0
 36
1.0
 17
0.0
 27
0.0
 37
0.0
 40
6.338994999999999
 41
0.6885640000000001
 42
50.0
 43
21.922848
 44
-21.922848
 50
0.0
 51
0.0
 71
    16
 72
   100
 73
     1
 74
     1
 75
     0
 76
     0
 77
     0
 78
     0
281
     0
 65
     0
110
0.0
120
0.0
130
0.0
111
1.0
121
0.0
131
0.0
112
0.0
122
1.0
132
0.0
 79
     0
146
0.0
  0
VPORT
  5
4DD
330
7
100
AcDbSymbolTableRecord
100
AcDbViewportTableRecord
  2
L4
 70
     0
 10
0.0
 20
0.0
 11
0.5
 21
0.5
 12
0.0
 22
0.0
 13
0.0
 23
0.0
 14
1.0
 24
1.0
 15
0.0
 25
0.0
 16
0.0
 26
-1.0
 36
0.0
 17
0.0
 27
0.0
 37
0.0
 40
43.845695
 41
0.6885640000000001
 42
50.0
 43
22.669827
 44
-22.669827
 50
0.0
 51
0.0
 71
    16
 72
   100
 73
     1
 74
     1
 75
     0
 76
     0
 77
     0
 78
     0
281
     0
 65
     0
110
0.0
120
0.0
130
0.0
111
1.0
121
0.0
131
0.0
112
0.0
122
1.0
132
0.0
 79
     0
146
0.0
  0
VPORT
  5
4DE
330
7
100
AcDbSymbolTableRecord
100
AcDbViewportTableRecord
  2
L4
 70
     0
 10
0.5
 20
0.0
 11
1.0
 21
0.5
 12
0.0
 22
0.0
 13
0.0
 23
0.0
 14
1.0
 24
1.0
 15
0.0
 25
0.0
 16
1.0
 26
0.0
 36
0.0
 17
0.0
 27
0.0
 37
0.0
 40
43.845695
 41
0.6885640000000001
 42
50.0
 43
22.150778
 44
-22.150778
 50
0.0
 51
0.0
 71
    16
 72
   100
 73
     1
 74
     1
 75
     0
 76
     0
 77
     0
 78
     0
281
     0
 65
     0
110
0.0
120
0.0
130
0.0
111
1.0
121
0.0
131
0.0
112
0.0
122
1.0
132
0.0
 79
     0
146
0.0
  0
VPORT
  5
4DF
330
7
100
AcDbSymbolTableRecord
100
AcDbViewportTableRecord
  2
L4
 70
     0
 10
0.5
 20
0.5
 11
1.0
 21
1.0
 12
0.0
 22
0.0
 13
0.0
 23
0.0
 14
1.0
 24
1.0
 15
0.0
 25
0.0
 16
0.5773500000000001
 26
-0.5773500000000001
 36
0.5773500000000001
 17
0.0
 27
0.0
 37
0.0
 40
43.100127
 41
0.6885640000000001
 42
50.0
 43
22.458309
 44
-22.458309
 50
0.0
 51
0.0
 71
    16
 72
   100
 73
     1
 74
     1
 75
     0
 76
     0
 77
     0
 78
     0
281
     0
 65
     0
110
0.0
120
0.0
130
0.0
111
1.0
121
0.0
131
0.0
112
0.0
122
1.0
132
0.0
 79
     0
146
0.0
  0
VPORT
  5
4E0
330
7
100
AcDbSymbolTableRecord
100
AcDbViewportTableRecord
  2
L6
 70
     0
 10
0.0
 20
0.5
 11
0.333333
 21
1.0
 12
0.0
 22
0.0
 13
0.0
 23
0.0
 14
1.0
 24
1.0
 15
0.0
 25
0.0
 16
0.718873
 26
-0.5850489999999999
 36
0.375419
 17
0.0
 27
0.0
 37
0.0
 40
45.50180499999999
 41
0.6885640000000001
 42
50.0
 43
22.470919
 44
-22.470919
 50
0.0
 51
0.0
 71
    16
 72
   100
 73
     1
 74
     1
 75
     0
 76
     0
 77
     0
 78
     0
281
     0
 65
     0
110
0.0
120
0.0
130
0.0
111
1.0
121
0.0
131
0.0
112
0.0
122
1.0
132
0.0
 79
     0
146
0.0
  0
VPORT
  5
4E1
330
7
100
AcDbSymbolTableRecord
100
AcDbViewportTableRecord
  2
L6
 70
     0
 10
0.0
 20
0.0
 11
0.333333
 21
0.5
 12
0.0
 22
0.0
 13
0.0
 23
0.0
 14
1.0
 24
1.0
 15
0.0
 25
0.0
 16
-1.0
 26
0.0
 36
0.0
 17
0.0
 27
0.0
 37
0.0
 40
43.845695
 41
0.6885640000000001
 42
50.0
 43
22.150778
 44
-22.150778
 50
0.0
 51
0.0
 71
    16
 72
   100
 73
     1
 74
     1
 75
     0
 76
     0
 77
     0
 78
     0
281
     0
 65
     0
110
0.0
120
0.0
130
0.0
111
1.0
121
0.0
131
0.0
112
0.0
122
1.0
132
0.0
 79
     0
146
0.0
  0
VPORT
  5
4E2
330
7
100
AcDbSymbolTableRecord
100
AcDbViewportTableRecord
  2
L6
 70
     0
 10
0.333333
 20
0.5
 11
0.666667
 21
1.0
 12
0.0
 22
0.0
 13
0.0
 23
0.0
 14
1.0
 24
1.0
 15
0.0
 25
0.0
 16
0.0
 26
0.0
 36
1.0
 17
0.0
 27
0.0
 37
0.0
 40
6.338994999999999
 41
0.6885640000000001
 42
50.0
 43
21.922848
 44
-21.922848
 50
0.0
 51
0.0
 71
    16
 72
   100
 73
     1
 74
     1
 75
     0
 76
     0
 77
     0
 78
     0
281
     0
 65
     0
110
0.0
120
0.0
130
0.0
111
1.0
121
0.0
131
0.0
112
0.0
122
1.0
132
0.0
 79
     0
146
0.0
  0
VPORT
  5
4E3
330
7
100
AcDbSymbolTableRecord
100
AcDbViewportTableRecord
  2
L6
 70
     0
 10
0.333333
 20
0.0
 11
0.666667
 21
0.5
 12
0.0
 22
0.0
 13
0.0
 23
0.0
 14
1.0
 24
1.0
 15
0.0
 25
0.0
 16
0.0
 26
-1.0
 36
0.0
 17
0.0
 27
0.0
 37
0.0
 40
43.845695
 41
0.6885640000000001
 42
50.0
 43
22.669827
 44
-22.669827
 50
0.0
 51
0.0
 71
    16
 72
   100
 73
     1
 74
     1
 75
     0
 76
     0
 77
     0
 78
     0
281
     0
 65
     0
110
0.0
120
0.0
130
0.0
111
1.0
121
0.0
131
0.0
112
0.0
122
1.0
132
0.0
 79
     0
146
0.0
  0
VPORT
  5
4E4
330
7
100
AcDbSymbolTableRecord
100
AcDbViewportTableRecord
  2
L6
 70
     0
 10
0.666667
 20
0.5
 11
1.0
 21
1.0
 12
0.0
 22
0.0
 13
0.0
 23
0.0
 14
1.0
 24
1.0
 15
0.0
 25
0.0
 16
0.5773500000000001
 26
-0.5773500000000001
 36
0.5773500000000001
 17
0.0
 27
0.0
 37
0.0
 40
43.100127
 41
0.6885640000000001
 42
50.0
 43
22.458309
 44
-22.458309
 50
0.0
 51
0.0
 71
    16
 72
   100
 73
     1
 74
     1
 75
     0
 76
     0
 77
     0
 78
     0
281
     0
 65
     0
110
0.0
120
0.0
130
0.0
111
1.0
121
0.0
131
0.0
112
0.0
122
1.0
132
0.0
 79
     0
146
0.0
  0
VPORT
  5
4E5
330
7
100
AcDbSymbolTableRecord
100
AcDbViewportTableRecord
  2
L6
 70
     0
 10
0.666667
 20
0.0
 11
1.0
 21
0.5
 12
0.0
 22
0.0
 13
0.0
 23
0.0
 14
1.0
 24
1.0
 15
0.0
 25
0.0
 16
1.0
 26
0.0
 36
0.0
 17
0.0
 27
0.0
 37
0.0
 40
43.845695
 41
0.6885640000000001
 42
50.0
 43
22.150778
 44
-22.150778
 50
0.0
 51
0.0
 71
    16
 72
   100
 73
     1
 74
     1
 75
     0
 76
     0
 77
     0
 78
     0
281
     0
 65
     0
110
0.0
120
0.0
130
0.0
111
1.0
121
0.0
131
0.0
112
0.0
122
1.0
132
0.0
 79
     0
146
0.0
  0
ENDTAB
  0
TABLE
  2
LTYPE
  5
4
330
0
100
AcDbSymbolTable
 70
     7
  0
LTYPE
  5
11
330
4
100
AcDbSymbolTableRecord
100
AcDbLinetypeTableRecord
  2
ByBlock
 70
     0
  3

 72
    65
 73
     0
 40
0.0
  0
LTYPE
  5
12
330
4
100
AcDbSymbolTableRecord
100
AcDbLinetypeTableRecord
  2
ByLayer
 70
     0
  3

 72
    65
 73
     0
 40
0.0
  0
LTYPE
  5
13
330
4
100
AcDbSymbolTableRecord
100
AcDbLinetypeTableRecord
  2
Continuous
 70
     0
  3
Solid line
 72
    65
 73
     0
 40
0.0
  0
LTYPE
  5
24
330
4
100
AcDbSymbolTableRecord
100
AcDbLinetypeTableRecord
  2
DASHED
 70
     0
  3
__ __ __ __ __ __ __ __ __
 72
    65
 73
     2
 40
25.72
 49
12.86
 74
     0
 49
-12.86
 74
     0
  0
LTYPE
  5
25
330
4
100
AcDbSymbolTableRecord
100
AcDbLinetypeTableRecord
  2
HIDDEN
 70
     0
  3
_ _ _ _ _ _ _ _ _ _ _ _ _ _ _
 72
    65
 73
     2
 40
0.5
 49
0.25
 74
     0
 49
-0.25
 74
     0
  0
LTYPE
  5
26
330
4
100
AcDbSymbolTableRecord
100
AcDbLinetypeTableRecord
  2
PHANTOM
 70
     0
  3
____ _ _ ____ _ _ _____ _ _ ____
 72
    65
 73
     6
 40
50.5
 49
18.0
 74
     0
 49
-6.5
 74
     0
 49
6.5
 74
     0
 49
-6.5
 74
     0
 49
6.5
 74
     0
 49
-6.5
 74
     0
  0
LTYPE
  5
27
330
4
100
AcDbSymbolTableRecord
100
AcDbLinetypeTableRecord
  2
CENTER
 70
     0
  3
____ _ ____ _ ____ _ ____
 72
    65
 73
     4
 40
47.5
 49
22.0
 74
     0
 49
-8.5
 74
     0
 49
8.5
 74
     0
 49
-8.5
 74
     0
  0
LTYPE
  5
28
330
4
100
AcDbSymbolTableRecord
100
AcDbLinetypeTableRecord
  2
DOT
 70
     0
  3
.........................
 72
    65
 73
     2
 40
10.0
 49
0.0
 74
     0
 49
-10.0
 74
     0
  0
LTYPE
  5
29
330
4
100
AcDbSymbolTableRecord
100
AcDbLinetypeTableRecord
  2
DASHDOT
 70
     0
  3
_._._._._._._._._._._._._._._._.
 72
    65
 73
     4
 40
70.0
 49
31.0
 74
     0
 49
-13.0
 74
     0
 49
13.0
 74
     0
 49
-13.0
 74
     0
  0
ENDTAB
  0
TABLE
  2
LAYER
  5
2
330
0
100
AcDbSymbolTable
 70
     2
  0
LAYER
  5
14
330
2
100
AcDbSymbolTableRecord
100
AcDbLayerTableRecord
  2
0
 70
     0
 62
     7
  6
Continuous
370
    -3
390
1D
  0
LAYER
  5
34
330
2
100
AcDbSymbolTableRecord
100
AcDbLayerTableRecord
  2
1
 70
     0
 62
     7
  6
Continuous
370
    -3
390
1D
  0
ENDTAB
  0
TABLE
  2
STYLE
  5
3
330
0
100
AcDbSymbolTable
 70
     1
  0
STYLE
  5
17
330
3
100
AcDbSymbolTableRecord
100
AcDbTextStyleTableRecord
  2
Standard
 70
     0
 40
0.0
 41
1.0
 50
0.0
 71
     0
 42
0.0
  3
txt
  4

  0
ENDTAB
  0
TABLE
  2
VIEW
  5
5
330
0
100
AcDbSymbolTable
 70
     8
  0
VIEW
  5
2A
330
5
100
AcDbSymbolTableRecord
100
AcDbViewTableRecord
  2
TOP
 70
     0
 40
6.338994999999999
 10
0.0
 20
0.0
 41
11.542932
 11
0.0
 21
0.0
 31
1.0
 12
0.0
 22
0.0
 32
0.0
 42
50.0
 43
21.922848
 44
-21.922848
 50
0.0
 71
    16
281
     0
 72
     0
  0
VIEW
  5
2B
330
5
100
AcDbSymbolTableRecord
100
AcDbViewTableRecord
  2
FRONT
 70
     0
 40
43.845695
 10
0.0
 20
0.0
 41
11.542932
 11
0.0
 21
-1.0
 31
0.0
 12
0.0
 22
0.0
 32
0.0
 42
50.0
 43
22.669827
 44
-22.669827
 50
0.0
 71
    16
281
     0
 72
     0
  0
VIEW
  5
2C
330
5
100
AcDbSymbolTableRecord
100
AcDbViewTableRecord
  2
RIGHT
 70
     0
 40
43.845695
 10
0.0
 20
0.0
 41
6.338994999999999
 11
1.0
 21
0.0
 31
0.0
 12
0.0
 22
0.0
 32
0.0
 42
50.0
 43
22.150778
 44
-22.150778
 50
0.0
 71
    16
281
     0
 72
     0
  0
VIEW
  5
2D
330
5
100
AcDbSymbolTableRecord
100
AcDbViewTableRecord
  2
BACK
 70
     0
 40
43.845695
 10
0.0
 20
0.0
 41
11.542932
 11
0.0
 21
1.0
 31
0.0
 12
0.0
 22
0.0
 32
0.0
 42
50.0
 43
22.669827
 44
-22.669827
 50
0.0
 71
    16
281
     0
 72
     0
  0
VIEW
  5
2E
330
5
100
AcDbSymbolTableRecord
100
AcDbViewTableRecord
  2
BOTTOM
 70
     0
 40
6.338994999999999
 10
0.0
 20
0.0
 41
11.542932
 11
0.0
 21
0.0
 31
-1.0
 12
0.0
 22
0.0
 32
0.0
 42
50.0
 43
21.922848
 44
-21.922848
 50
180.0
 71
    16
281
     0
 72
     0
  0
VIEW
  5
2F
330
5
100
AcDbSymbolTableRecord
100
AcDbViewTableRecord
  2
LEFT
 70
     0
 40
43.845695
 10
0.0
 20
0.0
 41
6.338994999999999
 11
-1.0
 21
0.0
 31
0.0
 12
0.0
 22
0.0
 32
0.0
 42
50.0
 43
22.150778
 44
-22.150778
 50
0.0
 71
    16
281
     0
 72
     0
  0
VIEW
  5
30
330
5
100
AcDbSymbolTableRecord
100
AcDbViewTableRecord
  2
TFR-ISO
 70
     0
 40
43.100127
 10
0.0
 20
0.0
 41
12.644432
 11
0.5773500000000001
 21
-0.5773500000000001
 31
0.5773500000000001
 12
0.0
 22
0.0
 32
0.0
 42
50.0
 43
22.458309
 44
-22.458309
 50
0.0
 71
    16
281
     0
 72
     0
  0
VIEW
  5
31
330
5
100
AcDbSymbolTableRecord
100
AcDbViewTableRecord
  2
TFR-TRI
 70
     0
 40
45.50180499999999
 10
0.0
 20
0.0
 41
12.202673
 11
0.718873
 21
-0.5850489999999999
 31
0.375419
 12
0.0
 22
0.0
 32
0.0
 42
50.0
 43
22.470919
 44
-22.470919
 50
0.0
 71
    16
281
     0
 72
     0
  0
ENDTAB
  0
TABLE
  2
UCS
  5
6
330
0
100
AcDbSymbolTable
 70
     0
  0
ENDTAB
  0
TABLE
  2
APPID
  5
8
330
0
100
AcDbSymbolTable
 70
     3
  0
APPID
  5
16
330
8
100
AcDbSymbolTableRecord
100
AcDbRegAppTableRecord
  2
ACAD
 70
     0
  0
APPID
  5
504
330
8
100
AcDbSymbolTableRecord
100
AcDbRegAppTableRecord
  2
ACAD_PSEXT
 70
     0
  0
APPID
  5
507
330
8
100
AcDbSymbolTableRecord
100
AcDbRegAppTableRecord
  2
DCO15
 70
     0
  0
ENDTAB
  0
TABLE
  2
DIMSTYLE
  5
9
330
0
100
AcDbSymbolTable
 70
     1
100
AcDbDimStyleTable
 71
     0
  0
DIMSTYLE
105
18
330
9
100
AcDbSymbolTableRecord
100
AcDbDimStyleTableRecord
  2
Standard
 70
     0
340
17
  0
ENDTAB
  0
TABLE
  2
BLOCK_RECORD
  5
1
330
0
100
AcDbSymbolTable
 70
     0
  0
BLOCK_RECORD
  5
A
330
1
100
AcDbSymbolTableRecord
100
AcDbBlockTableRecord
  2
*MODEL_SPACE
340
20
  0
BLOCK_RECORD
  5
B
330
1
100
AcDbSymbolTableRecord
100
AcDbBlockTableRecord
  2
*PAPER_SPACE
340
21
  0
ENDTAB
  0
ENDSEC
  0
SECTION
  2
BLOCKS
  0
BLOCK
  5
D
330
A
100
AcDbEntity
  8
0
100
AcDbBlockBegin
  2
*MODEL_SPACE
 70
     0
 10
0.0
 20
0.0
 30
0.0
  3
*MODEL_SPACE
  1

  0
ENDBLK
  5
E
330
A
100
AcDbEntity
  8
0
100
AcDbBlockEnd
  0
BLOCK
  5
F
330
B
100
AcDbEntity
 67
     1
  8
0
100
AcDbBlockBegin
  2
*PAPER_SPACE
 70
     0
 10
0.0
 20
0.0
 30
0.0
  3
*PAPER_SPACE
  1

  0
ENDBLK
  5
10
330
B
100
AcDbEntity
 67
     1
  8
0
100
AcDbBlockEnd
  0
ENDSEC
  0
SECTION
  2
ENTITIES
  0
VIEWPORT
  5
32
102
{ACAD_XDICTIONARY
360
513
102
}
330
B
100
AcDbEntity
 67
     1
  8
0
100
AcDbViewport
 10
7.594715447154472
 20
4.25
 30
0.0
 40
15.19384035476718
 41
8.502467532467532
 68
     1
 69
     1
 12
7.594715447154472
 22
4.25
 13
0.0
 23
0.0
 14
0.0
 24
0.0
 15
0.0
 25
0.0
 16
0.0
 26
0.0
 36
1.0
 17
0.0
 27
0.0
 37
0.0
 42
26.277896
 43
0.0
 44
0.0
 45
8.502467532467532
 50
0.0
 51
0.0
 72
   100
 90
    32800
  1

281
     0
 71
     0
 74
     1
110
0.0
120
0.0
130
0.0
111
1.0
121
0.0
131
0.0
112
0.0
122
1.0
132
0.0
 79
     0
146
0.0
  0
LINE
  5
33
330
B
100
AcDbEntity
 67
     1
  8
1
  6
Continuous
 62
    18
100
AcDbLine
 10
1.658324
 20
5.975254
 30
0.0
 11
1.668838
 21
5.975254
 31
0.0
  0
LINE
  5
35
330
B
100
AcDbEntity
 67
     1
  8
1
  6
Continuous
 62
    18
100
AcDbLine
 10
1.815563
 20
6.21753
 30
0.0
 11
1.815324999999999
 21
6.220305
 31
0.0
  0
LINE
  5
36
330
B
100
AcDbEntity
 67
     1
  8
1
  6
Continuous
 62
    18
100
AcDbLine
 10
2.500818
 20
4.122669999999999
 30
0.0
 11
2.500296
 21
4.126163
 31
0.0
  0
LINE
  5
37
330
B
100
AcDbEntity
 67
     1
  8
1
  6
Continuous
 62
    18
100
AcDbLine
 10
4.024512999999999
 20
3.905901
 30
0.0
 11
4.013906999999999
 21
3.905901
 31
0.0
  0
LINE
  5
38
330
B
100
AcDbEntity
 67
     1
  8
1
  6
Continuous
 62
    18
100
AcDbLine
 10
2.594440999999999
 20
6.142294
 30
0.0
 11
2.594647
 21
6.112637
 31
0.0
  0
LINE
  5
39
330
B
100
AcDbEntity
 67
     1
  8
1
  6
Continuous
 62
    18
100
AcDbLine
 10
2.410261999999999
 20
3.816732
 30
0.0
 11
2.421103
 21
3.832944999999999
 31
0.0
  0
LINE
  5
3A
330
B
100
AcDbEntity
 67
     1
  8
1
  6
Continuous
 62
    18
100
AcDbLine
 10
1.668838
 20
7.451786
 30
0.0
 11
1.658324
 21
7.451786
 31
0.0
  0
LINE
  5
3B
330
B
100
AcDbEntity
 67
     1
  8
1
  6
Continuous
 62
    18
100
AcDbLine
 10
2.340802
 20
6.193336
 30
0.0
 11
2.340802
 21
6.170444999999999
 31
0.0
  0
LINE
  5
3C
330
B
100
AcDbEntity
 67
     1
  8
1
  6
Continuous
 62
    18
100
AcDbLine
 10
1.806452999999999
 20
4.337488999999999
 30
0.0
 11
1.805996
 21
4.12093
 31
0.0
  0
LINE
  5
3D
330
B
100
AcDbEntity
 67
     1
  8
1
  6
Continuous
 62
    18
100
AcDbLine
 10
5.468676999999999
 20
3.698158999999999
 30
0.0
 11
5.468488999999999
 21
3.687392
 31
0.0
  0
LINE
  5
3E
330
B
100
AcDbEntity
 67
     1
  8
1
  6
Continuous
 62
    18
100
AcDbLine
 10
2.499951999999999
 20
6.251083
 30
0.0
 11
2.499209999999999
 21
6.602069
 31
0.0
  0
LINE
  5
3F
330
B
100
AcDbEntity
 67
     1
  8
1
  6
Continuous
 62
    18
100
AcDbLine
 10
1.993645999999999
 20
3.683459999999999
 30
0.0
 11
1.993672
 21
3.766252999999999
 31
0.0
  0
LINE
  5
40
330
B
100
AcDbEntity
 67
     1
  8
1
  6
Continuous
 62
    18
100
AcDbLine
 10
1.656631999999999
 20
5.963048
 30
0.0
 11
1.652238999999999
 21
5.973652999999999
 31
0.0
  0
LINE
  5
41
330
B
100
AcDbEntity
 67
     1
  8
1
  6
Continuous
 62
    18
100
AcDbLine
 10
1.694911
 20
6.541637999999999
 30
0.0
 11
1.682988999999999
 21
6.529021
 31
0.0
  0
LINE
  5
42
330
B
100
AcDbEntity
 67
     1
  8
1
  6
Continuous
 62
    18
100
AcDbLine
 10
2.390801999999999
 20
4.051895
 30
0.0
 11
2.390801999999999
 21
4.046988999999999
 31
0.0
  0
LINE
  5
43
330
B
100
AcDbEntity
 67
     1
  8
1
  6
Continuous
 62
    18
100
AcDbLine
 10
5.502644999999999
 20
4.008021
 30
0.0
 11
5.502644999999999
 21
3.997583999999999
 31
0.0
  0
LINE
  5
44
330
B
100
AcDbEntity
 67
     1
  8
1
  6
Continuous
 62
    18
100
AcDbLine
 10
2.499862999999999
 20
6.145303
 30
0.0
 11
2.499754999999999
 21
6.142096999999999
 31
0.0
  0
LINE
  5
45
330
B
100
AcDbEntity
 67
     1
  8
1
  6
Continuous
 62
    18
100
AcDbLine
 10
2.425745
 20
3.85124
 30
0.0
 11
2.425756
 21
3.885169999999999
 31
0.0
  0
LINE
  5
46
330
B
100
AcDbEntity
 67
     1
  8
1
  6
Continuous
 62
    18
100
AcDbLine
 10
2.602376
 20
6.151032999999999
 30
0.0
 11
2.602376
 21
5.975254
 31
0.0
  0
LINE
  5
47
330
B
100
AcDbEntity
 67
     1
  8
1
  6
Continuous
 62
    18
100
AcDbLine
 10
1.785325
 20
6.469388999999999
 30
0.0
 11
1.785325
 21
6.470912
 31
0.0
  0
LINE
  5
48
330
B
100
AcDbEntity
 67
     1
  8
1
  6
Continuous
 62
    18
100
AcDbLine
 10
1.707099
 20
4.037577999999999
 30
0.0
 11
1.703997999999999
 21
4.023232
 31
0.0
  0
LINE
  5
49
330
B
100
AcDbEntity
 67
     1
  8
1
  6
Continuous
 62
    18
100
AcDbLine
 10
1.803424
 20
4.142036
 30
0.0
 11
1.804552999999999
 21
4.12914
 31
0.0
  0
LINE
  5
4A
330
B
100
AcDbEntity
 67
     1
  8
1
  6
Continuous
 62
    18
100
AcDbLine
 10
4.043565
 20
3.683459999999999
 30
0.0
 11
4.059066999999999
 21
3.683459999999999
 31
0.0
  0
LINE
  5
4B
330
B
100
AcDbEntity
 67
     1
  8
1
  6
Continuous
 62
    18
100
AcDbLine
 10
1.805975
 20
6.261191999999999
 30
0.0
 11
1.805961999999999
 21
6.255034999999999
 31
0.0
  0
LINE
  5
4C
330
B
100
AcDbEntity
 67
     1
  8
1
  6
Continuous
 62
    18
100
AcDbLine
 10
2.45338
 20
3.683423999999999
 30
0.0
 11
2.564383
 21
3.683423999999999
 31
0.0
  0
LINE
  5
4D
330
B
100
AcDbEntity
 67
     1
  8
1
  6
Continuous
 62
    18
100
AcDbLine
 10
2.634786999999999
 20
5.975254
 30
0.0
 11
2.630393
 21
5.964649999999999
 31
0.0
  0
LINE
  5
4E
330
B
100
AcDbEntity
 67
     1
  8
1
  6
Continuous
 62
    18
100
AcDbLine
 10
2.467443999999999
 20
6.577171
 30
0.0
 11
2.473301999999999
 21
6.567171
 31
0.0
  0
LINE
  5
4F
330
B
100
AcDbEntity
 67
     1
  8
1
  6
Continuous
 62
    18
100
AcDbLine
 10
2.578679
 20
4.051816
 30
0.0
 11
2.575245999999999
 21
4.150106
 31
0.0
  0
LINE
  5
50
330
B
100
AcDbEntity
 67
     1
  8
1
  6
Continuous
 62
    18
100
AcDbLine
 10
5.468519999999999
 20
4.062466
 30
0.0
 11
5.452062
 21
4.062466
 31
0.0
  0
LINE
  5
51
330
B
100
AcDbEntity
 67
     1
  8
1
  6
Continuous
 62
    18
100
AcDbLine
 10
1.803465
 20
6.141725
 30
0.0
 11
1.804291
 21
6.152530999999999
 31
0.0
  0
LINE
  5
52
330
B
100
AcDbEntity
 67
     1
  8
1
  6
Continuous
 62
    18
100
AcDbLine
 10
2.564383
 20
3.683423999999999
 30
0.0
 11
2.562959999999999
 21
3.601905
 31
0.0
  0
LINE
  5
53
330
B
100
AcDbEntity
 67
     1
  8
1
  6
Continuous
 62
    18
100
AcDbLine
 10
1.705100999999999
 20
6.584347
 30
0.0
 11
1.680768999999999
 21
6.572850999999999
 31
0.0
  0
LINE
  5
54
330
B
100
AcDbEntity
 67
     1
  8
1
  6
Continuous
 62
    18
100
AcDbLine
 10
1.830245999999999
 20
3.977322
 30
0.0
 11
1.832075999999999
 21
3.972322
 31
0.0
  0
LINE
  5
55
330
B
100
AcDbEntity
 67
     1
  8
1
  6
Continuous
 62
    18
100
AcDbLine
 10
1.751241
 20
7.151622999999999
 30
0.0
 11
1.751241
 21
7.166222999999999
 31
0.0
  0
LINE
  5
56
330
B
100
AcDbEntity
 67
     1
  8
1
  6
Continuous
 62
    18
100
AcDbLine
 10
5.474563999999999
 20
4.061893
 30
0.0
 11
5.476294999999999
 21
4.012322
 31
0.0
  0
LINE
  5
57
330
B
100
AcDbEntity
 67
     1
  8
1
  6
Continuous
 62
    18
100
AcDbLine
 10
2.390801999999999
 20
6.160226999999999
 30
0.0
 11
2.390801999999999
 21
6.150365999999999
 31
0.0
  0
LINE
  5
58
330
B
100
AcDbEntity
 67
     1
  8
1
  6
Continuous
 62
    18
100
AcDbLine
 10
1.994831999999999
 20
3.801569999999999
 30
0.0
 11
2.293795
 21
3.801569999999999
 31
0.0
  0
LINE
  5
59
330
B
100
AcDbEntity
 67
     1
  8
1
  6
Continuous
 62
    18
100
AcDbLine
 10
1.884343999999999
 20
3.866605999999999
 30
0.0
 11
1.978213999999999
 21
3.866605999999999
 31
0.0
  0
LINE
  5
5A
330
B
100
AcDbEntity
 67
     1
  8
1
  6
Continuous
 62
    18
100
AcDbLine
 10
2.597844999999999
 20
7.146163999999999
 30
0.0
 11
2.593809999999999
 21
7.148210999999999
 31
0.0
  0
LINE
  5
5B
330
B
100
AcDbEntity
 67
     1
  8
1
  6
Continuous
 62
    18
100
AcDbLine
 10
2.390801999999999
 20
4.126052999999999
 30
0.0
 11
2.340802
 21
4.126052999999999
 31
0.0
  0
LINE
  5
5C
330
B
100
AcDbEntity
 67
     1
  8
1
  6
Continuous
 62
    18
100
AcDbLine
 10
4.783374
 20
4.529346
 30
0.0
 11
4.771760999999999
 21
4.518307
 31
0.0
  0
LINE
  5
5D
330
B
100
AcDbEntity
 67
     1
  8
1
  6
Continuous
 62
    18
100
AcDbLine
 10
2.599194999999999
 20
5.974063
 30
0.0
 11
2.596095
 21
5.974565
 31
0.0
  0
LINE
  5
5E
330
B
100
AcDbEntity
 67
     1
  8
1
  6
Continuous
 62
    18
100
AcDbLine
 10
2.375738
 20
3.801262999999999
 30
0.0
 11
2.374906
 21
3.802094999999999
 31
0.0
  0
LINE
  5
5F
330
B
100
AcDbEntity
 67
     1
  8
1
  6
Continuous
 62
    18
100
AcDbLine
 10
1.815324999999999
 20
4.342811
 30
0.0
 11
1.81799
 21
4.34798
 31
0.0
  0
LINE
  5
60
330
B
100
AcDbEntity
 67
     1
  8
1
  6
Continuous
 62
    18
100
AcDbLine
 10
1.705347999999999
 20
7.378731
 30
0.0
 11
1.711391999999999
 21
7.401202
 31
0.0
  0
LINE
  5
61
330
B
100
AcDbEntity
 67
     1
  8
1
  6
Continuous
 62
    18
100
AcDbLine
 10
1.733802
 20
4.482891
 30
0.0
 11
1.730668999999999
 21
4.482841
 31
0.0
  0
LINE
  5
62
330
B
100
AcDbEntity
 67
     1
  8
1
  6
Continuous
 62
    18
100
AcDbLine
 10
4.321596999999999
 20
4.176518999999999
 30
0.0
 11
4.331107
 21
4.170757
 31
0.0
  0
LINE
  5
63
330
B
100
AcDbEntity
 67
     1
  8
1
  6
Continuous
 62
    18
100
AcDbLine
 10
1.859906
 20
6.122174
 30
0.0
 11
1.802688999999999
 21
6.122174
 31
0.0
  0
LINE
  5
64
330
B
100
AcDbEntity
 67
     1
  8
1
  6
Continuous
 62
    18
100
AcDbLine
 10
1.815482
 20
4.100499
 30
0.0
 11
1.816534999999999
 21
4.111862
 31
0.0
  0
LINE
  5
65
330
B
100
AcDbEntity
 67
     1
  8
1
  6
Continuous
 62
    18
100
AcDbLine
 10
1.735545
 20
6.809828999999999
 30
0.0
 11
1.748682
 21
6.808892
 31
0.0
  0
LINE
  5
66
330
B
100
AcDbEntity
 67
     1
  8
1
  6
Continuous
 62
    18
100
AcDbLine
 10
1.670616999999999
 20
4.456018
 30
0.0
 11
1.667663
 21
4.452053
 31
0.0
  0
LINE
  5
67
330
B
100
AcDbEntity
 67
     1
  8
1
  6
Continuous
 62
    18
100
AcDbLine
 10
4.128473999999999
 20
4.146329999999999
 30
0.0
 11
4.124210999999999
 21
4.150106
 31
0.0
  0
LINE
  5
68
330
B
100
AcDbEntity
 67
     1
  8
1
  6
Continuous
 62
    18
100
AcDbLine
 10
2.499913
 20
6.135341999999999
 30
0.0
 11
2.390801999999999
 21
6.135341999999999
 31
0.0
  0
LINE
  5
69
330
B
100
AcDbEntity
 67
     1
  8
1
  6
Continuous
 62
    18
100
AcDbLine
 10
1.835325
 20
4.127641999999999
 30
0.0
 11
1.835325
 21
4.126043
 31
0.0
  0
LINE
  5
6A
330
B
100
AcDbEntity
 67
     1
  8
1
  6
Continuous
 62
    18
100
AcDbLine
 10
1.719381
 20
7.149961
 30
0.0
 11
1.709384
 21
7.148210999999999
 31
0.0
  0
LINE
  5
6B
330
B
100
AcDbEntity
 67
     1
  8
1
  6
Continuous
 62
    18
100
AcDbLine
 10
1.814175
 20
4.346248999999999
 30
0.0
 11
1.814740999999999
 21
4.345176999999999
 31
0.0
  0
LINE
  5
6C
330
B
100
AcDbEntity
 67
     1
  8
1
  6
Continuous
 62
    18
100
AcDbLine
 10
1.862881999999999
 20
3.85124
 30
0.0
 11
1.863713
 21
3.852072
 31
0.0
  0
LINE
  5
6D
330
B
100
AcDbEntity
 67
     1
  8
1
  6
Continuous
 62
    18
100
AcDbLine
 10
1.799209999999999
 20
6.142294
 30
0.0
 11
1.803234999999999
 21
6.250904
 31
0.0
  0
LINE
  5
6E
330
B
100
AcDbEntity
 67
     1
  8
1
  6
Continuous
 62
    18
100
AcDbLine
 10
1.74859
 20
7.425435
 30
0.0
 11
2.554603999999999
 21
7.425435
 31
0.0
  0
LINE
  5
6F
330
B
100
AcDbEntity
 67
     1
  8
1
  6
Continuous
 62
    18
100
AcDbLine
 10
1.670054
 20
4.385614
 30
0.0
 11
1.673063999999999
 21
4.382089999999999
 31
0.0
  0
LINE
  5
70
330
B
100
AcDbEntity
 67
     1
  8
1
  6
Continuous
 62
    18
100
AcDbLine
 10
1.680100999999999
 20
6.486905
 30
0.0
 11
1.684106
 21
6.483933
 31
0.0
  0
LINE
  5
71
330
B
100
AcDbEntity
 67
     1
  8
1
  6
Continuous
 62
    18
100
AcDbLine
 10
2.576058
 20
4.518307
 30
0.0
 11
2.582447
 21
4.502842
 31
0.0
  0
LINE
  5
72
330
B
100
AcDbEntity
 67
     1
  8
1
  6
Continuous
 62
    18
100
AcDbLine
 10
1.712811
 20
6.280066999999999
 30
0.0
 11
1.719732
 21
6.270557
 31
0.0
  0
LINE
  5
73
330
B
100
AcDbEntity
 67
     1
  8
1
  6
Continuous
 62
    18
100
AcDbLine
 10
1.682988999999999
 20
4.453025
 30
0.0
 11
1.678802
 21
4.438142
 31
0.0
  0
LINE
  5
74
330
B
100
AcDbEntity
 67
     1
  8
1
  6
Continuous
 62
    18
100
AcDbLine
 10
2.559645999999999
 20
6.610033
 30
0.0
 11
2.576058
 21
6.621643999999999
 31
0.0
  0
LINE
  5
75
330
B
100
AcDbEntity
 67
     1
  8
1
  6
Continuous
 62
    18
100
AcDbLine
 10
2.452125999999999
 20
3.539718
 30
0.0
 11
1.851067999999999
 21
3.539718
 31
0.0
  0
LINE
  5
76
330
B
100
AcDbEntity
 67
     1
  8
1
  6
Continuous
 62
    18
100
AcDbLine
 10
1.727547
 20
6.594041
 30
0.0
 11
1.721975
 21
6.593522
 31
0.0
  0
LINE
  5
77
330
B
100
AcDbEntity
 67
     1
  8
1
  6
Continuous
 62
    18
100
AcDbLine
 10
2.499209999999999
 20
4.529649
 30
0.0
 11
1.765599
 21
4.529649
 31
0.0
  0
LINE
  5
78
330
B
100
AcDbEntity
 67
     1
  8
1
  6
Continuous
 62
    18
100
AcDbLine
 10
1.727947
 20
6.073351
 30
0.0
 11
1.724515
 21
5.975062
 31
0.0
  0
LINE
  5
79
330
B
100
AcDbEntity
 67
     1
  8
1
  6
Continuous
 62
    18
100
AcDbLine
 10
1.785325
 20
4.388055
 30
0.0
 11
1.785325
 21
4.399251
 31
0.0
  0
LINE
  5
7A
330
B
100
AcDbEntity
 67
     1
  8
1
  6
Continuous
 62
    18
100
AcDbLine
 10
2.586406999999999
 20
7.412266
 30
0.0
 11
2.596154
 21
7.397677
 31
0.0
  0
LINE
  5
7B
330
B
100
AcDbEntity
 67
     1
  8
1
  6
Continuous
 62
    18
100
AcDbLine
 10
1.703618
 20
4.012322
 30
0.0
 11
1.702075999999999
 21
4.012322
 31
0.0
  0
LINE
  5
7C
330
B
100
AcDbEntity
 67
     1
  8
1
  6
Continuous
 62
    18
100
AcDbLine
 10
1.665093999999999
 20
6.559224
 30
0.0
 11
1.662984999999999
 21
6.554961
 31
0.0
  0
LINE
  5
7D
330
B
100
AcDbEntity
 67
     1
  8
1
  6
Continuous
 62
    18
100
AcDbLine
 10
1.825274999999999
 20
6.367582999999999
 30
0.0
 11
1.825274999999999
 21
6.427827999999999
 31
0.0
  0
LINE
  5
7E
330
B
100
AcDbEntity
 67
     1
  8
1
  6
Continuous
 62
    18
100
AcDbLine
 10
2.473301999999999
 20
4.462890999999999
 30
0.0
 11
2.467443999999999
 21
4.472891
 31
0.0
  0
LINE
  5
7F
330
B
100
AcDbEntity
 67
     1
  8
1
  6
Continuous
 62
    18
100
AcDbLine
 10
1.721238
 20
6.671272999999999
 30
0.0
 11
1.721109999999999
 21
6.689642
 31
0.0
  0
LINE
  5
80
330
B
100
AcDbEntity
 67
     1
  8
1
  6
Continuous
 62
    18
100
AcDbLine
 10
1.863702999999999
 20
3.884337
 30
0.0
 11
1.884038999999999
 21
3.884337
 31
0.0
  0
LINE
  5
81
330
B
100
AcDbEntity
 67
     1
  8
1
  6
Continuous
 62
    18
100
AcDbLine
 10
1.806772999999999
 20
6.464199999999999
 30
0.0
 11
1.808901999999999
 21
6.462864999999999
 31
0.0
  0
LINE
  5
82
330
B
100
AcDbEntity
 67
     1
  8
1
  6
Continuous
 62
    18
100
AcDbLine
 10
1.816534999999999
 20
6.184321999999999
 30
0.0
 11
1.816824
 21
6.185332999999999
 31
0.0
  0
LINE
  5
83
330
B
100
AcDbEntity
 67
     1
  8
1
  6
Continuous
 62
    18
100
AcDbLine
 10
4.174535999999999
 20
3.539718
 30
0.0
 11
4.397942999999999
 21
3.539718
 31
0.0
  0
LINE
  5
84
330
B
100
AcDbEntity
 67
     1
  8
1
  6
Continuous
 62
    18
100
AcDbLine
 10
2.499209999999999
 20
6.602069
 30
0.0
 11
2.496506999999999
 21
6.597777
 31
0.0
  0
LINE
  5
85
330
B
100
AcDbEntity
 67
     1
  8
1
  6
Continuous
 62
    18
100
AcDbLine
 10
1.988443999999999
 20
3.756483
 30
0.0
 11
1.99284
 21
3.767084999999999
 31
0.0
  0
LINE
  5
86
330
B
100
AcDbEntity
 67
     1
  8
1
  6
Continuous
 62
    18
100
AcDbLine
 10
1.668838
 20
5.960255999999999
 30
0.0
 11
1.658234
 21
5.964649999999999
 31
0.0
  0
LINE
  5
87
330
B
100
AcDbEntity
 67
     1
  8
1
  6
Continuous
 62
    18
100
AcDbLine
 10
1.835325
 20
6.207893
 30
0.0
 11
1.835325
 21
6.201211999999999
 31
0.0
  0
LINE
  5
88
330
B
100
AcDbEntity
 67
     1
  8
1
  6
Continuous
 62
    18
100
AcDbLine
 10
2.500404999999999
 20
4.081052999999999
 30
0.0
 11
2.500872999999999
 21
4.098227999999999
 31
0.0
  0
LINE
  5
89
330
B
100
AcDbEntity
 67
     1
  8
1
  6
Continuous
 62
    18
100
AcDbLine
 10
4.013906999999999
 20
3.905901
 30
0.0
 11
4.009515
 21
3.905901
 31
0.0
  0
LINE
  5
8A
330
B
100
AcDbEntity
 67
     1
  8
1
  6
Continuous
 62
    18
100
AcDbLine
 10
2.594647
 20
6.112637
 30
0.0
 11
2.595234
 21
6.087493
 31
0.0
  0
LINE
  5
8B
330
B
100
AcDbEntity
 67
     1
  8
1
  6
Continuous
 62
    18
100
AcDbLine
 10
2.421103
 20
3.832944999999999
 30
0.0
 11
2.424913999999999
 21
3.852072
 31
0.0
  0
LINE
  5
8C
330
B
100
AcDbEntity
 67
     1
  8
1
  6
Continuous
 62
    18
100
AcDbLine
 10
1.658324
 20
7.451786
 30
0.0
 11
1.65384
 21
7.451786
 31
0.0
  0
LINE
  5
8D
330
B
100
AcDbEntity
 67
     1
  8
1
  6
Continuous
 62
    18
100
AcDbLine
 10
2.340802
 20
6.170444999999999
 30
0.0
 11
2.340802
 21
6.15359
 31
0.0
  0
LINE
  5
8E
330
B
100
AcDbEntity
 67
     1
  8
1
  6
Continuous
 62
    18
100
AcDbLine
 10
1.85988
 20
4.060705
 30
0.0
 11
1.859906
 21
4.057776
 31
0.0
  0
LINE
  5
8F
330
B
100
AcDbEntity
 67
     1
  8
1
  6
Continuous
 62
    18
100
AcDbLine
 10
5.468488999999999
 20
3.687392
 30
0.0
 11
5.468421
 21
3.683459999999999
 31
0.0
  0
LINE
  5
90
330
B
100
AcDbEntity
 67
     1
  8
1
  6
Continuous
 62
    18
100
AcDbLine
 10
2.499951999999999
 20
6.251083
 30
0.0
 11
2.549850999999999
 21
6.251083
 31
0.0
  0
LINE
  5
91
330
B
100
AcDbEntity
 67
     1
  8
1
  6
Continuous
 62
    18
100
AcDbLine
 10
1.993672
 20
3.766252999999999
 30
0.0
 11
1.989275999999999
 21
3.755651
 31
0.0
  0
LINE
  5
92
330
B
100
AcDbEntity
 67
     1
  8
1
  6
Continuous
 62
    18
100
AcDbLine
 10
1.668838
 20
5.960255999999999
 30
0.0
 11
1.667236999999999
 21
5.958655
 31
0.0
  0
LINE
  5
93
330
B
100
AcDbEntity
 67
     1
  8
1
  6
Continuous
 62
    18
100
AcDbLine
 10
1.682988999999999
 20
6.529021
 30
0.0
 11
1.678802
 21
6.514137999999999
 31
0.0
  0
LINE
  5
94
330
B
100
AcDbEntity
 67
     1
  8
1
  6
Continuous
 62
    18
100
AcDbLine
 10
2.390801999999999
 20
4.051895
 30
0.0
 11
2.390801999999999
 21
4.054062
 31
0.0
  0
LINE
  5
95
330
B
100
AcDbEntity
 67
     1
  8
1
  6
Continuous
 62
    18
100
AcDbLine
 10
5.410042999999999
 20
3.712936
 30
0.0
 11
5.425553999999999
 21
3.697694
 31
0.0
  0
LINE
  5
96
330
B
100
AcDbEntity
 67
     1
  8
1
  6
Continuous
 62
    18
100
AcDbLine
 10
2.499754999999999
 20
6.142096999999999
 30
0.0
 11
2.499913
 21
6.135341999999999
 31
0.0
  0
LINE
  5
97
330
B
100
AcDbEntity
 67
     1
  8
1
  6
Continuous
 62
    18
100
AcDbLine
 10
2.425745
 20
3.85124
 30
0.0
 11
2.421934999999999
 21
3.832113999999999
 31
0.0
  0
LINE
  5
98
330
B
100
AcDbEntity
 67
     1
  8
1
  6
Continuous
 62
    18
100
AcDbLine
 10
2.602376
 20
5.975254
 30
0.0
 11
2.61979
 21
5.975254
 31
0.0
  0
LINE
  5
99
330
B
100
AcDbEntity
 67
     1
  8
1
  6
Continuous
 62
    18
100
AcDbLine
 10
1.785325
 20
6.470912
 30
0.0
 11
1.785325
 21
6.475247
 31
0.0
  0
LINE
  5
9A
330
B
100
AcDbEntity
 67
     1
  8
1
  6
Continuous
 62
    18
100
AcDbLine
 10
1.859949
 20
4.052846999999999
 30
0.0
 11
2.390801999999999
 21
4.052846999999999
 31
0.0
  0
LINE
  5
9B
330
B
100
AcDbEntity
 67
     1
  8
1
  6
Continuous
 62
    18
100
AcDbLine
 10
1.805202999999999
 20
4.120927
 30
0.0
 11
1.804552999999999
 21
4.12914
 31
0.0
  0
LINE
  5
9C
330
B
100
AcDbEntity
 67
     1
  8
1
  6
Continuous
 62
    18
100
AcDbLine
 10
1.805961999999999
 20
6.255034999999999
 30
0.0
 11
1.815324999999999
 21
6.255034999999999
 31
0.0
  0
LINE
  5
9D
330
B
100
AcDbEntity
 67
     1
  8
1
  6
Continuous
 62
    18
100
AcDbLine
 10
2.568265999999999
 20
3.905901
 30
0.0
 11
2.564383
 21
3.683423999999999
 31
0.0
  0
LINE
  5
9E
330
B
100
AcDbEntity
 67
     1
  8
1
  6
Continuous
 62
    18
100
AcDbLine
 10
2.630393
 20
5.964649999999999
 30
0.0
 11
2.61979
 21
5.960255999999999
 31
0.0
  0
LINE
  5
9F
330
B
100
AcDbEntity
 67
     1
  8
1
  6
Continuous
 62
    18
100
AcDbLine
 10
2.473301999999999
 20
6.567171
 30
0.0
 11
2.467443999999999
 21
6.557171
 31
0.0
  0
LINE
  5
A0
330
B
100
AcDbEntity
 67
     1
  8
1
  6
Continuous
 62
    18
100
AcDbLine
 10
2.390801999999999
 20
4.054823999999999
 30
0.0
 11
2.500357
 21
4.054823999999999
 31
0.0
  0
LINE
  5
A1
330
B
100
AcDbEntity
 67
     1
  8
1
  6
Continuous
 62
    18
100
AcDbLine
 10
1.727947
 20
4.150106
 30
0.0
 11
1.713984999999999
 21
4.146329999999999
 31
0.0
  0
LINE
  5
A2
330
B
100
AcDbEntity
 67
     1
  8
1
  6
Continuous
 62
    18
100
AcDbLine
 10
2.602376
 20
5.960255999999999
 30
0.0
 11
2.602376
 21
5.964739999999999
 31
0.0
  0
LINE
  5
A3
330
B
100
AcDbEntity
 67
     1
  8
1
  6
Continuous
 62
    18
100
AcDbLine
 10
5.452062
 20
4.062466
 30
0.0
 11
5.429591
 21
4.061893
 31
0.0
  0
LINE
  5
A4
330
B
100
AcDbEntity
 67
     1
  8
1
  6
Continuous
 62
    18
100
AcDbLine
 10
1.807239
 20
6.232277999999999
 30
0.0
 11
1.807150999999999
 21
6.245891
 31
0.0
  0
LINE
  5
A5
330
B
100
AcDbEntity
 67
     1
  8
1
  6
Continuous
 62
    18
100
AcDbLine
 10
2.528265999999999
 20
3.539718
 30
0.0
 11
2.528265999999999
 21
3.601905
 31
0.0
  0
LINE
  5
A6
330
B
100
AcDbEntity
 67
     1
  8
1
  6
Continuous
 62
    18
100
AcDbLine
 10
1.680768999999999
 20
6.572850999999999
 30
0.0
 11
1.664511
 21
6.555646
 31
0.0
  0
LINE
  5
A7
330
B
100
AcDbEntity
 67
     1
  8
1
  6
Continuous
 62
    18
100
AcDbLine
 10
1.885081999999999
 20
3.824322
 30
0.0
 11
1.872134999999999
 21
3.824322
 31
0.0
  0
LINE
  5
A8
330
B
100
AcDbEntity
 67
     1
  8
1
  6
Continuous
 62
    18
100
AcDbLine
 10
1.751241
 20
7.166222999999999
 30
0.0
 11
1.751241
 21
7.183442999999999
 31
0.0
  0
LINE
  5
A9
330
B
100
AcDbEntity
 67
     1
  8
1
  6
Continuous
 62
    18
100
AcDbLine
 10
4.656372
 20
4.533091999999999
 30
0.0
 11
4.679911999999999
 21
4.550194
 31
0.0
  0
LINE
  5
AA
330
B
100
AcDbEntity
 67
     1
  8
1
  6
Continuous
 62
    18
100
AcDbLine
 10
2.390801999999999
 20
6.150365999999999
 30
0.0
 11
2.390801999999999
 21
6.146799999999999
 31
0.0
  0
LINE
  5
AB
330
B
100
AcDbEntity
 67
     1
  8
1
  6
Continuous
 62
    18
100
AcDbLine
 10
2.293795
 20
3.801569999999999
 30
0.0
 11
2.293795
 21
3.821255
 31
0.0
  0
LINE
  5
AC
330
B
100
AcDbEntity
 67
     1
  8
1
  6
Continuous
 62
    18
100
AcDbLine
 10
1.885081999999999
 20
3.824322
 30
0.0
 11
1.884343999999999
 21
3.866605999999999
 31
0.0
  0
LINE
  5
AD
330
B
100
AcDbEntity
 67
     1
  8
1
  6
Continuous
 62
    18
100
AcDbLine
 10
2.593809999999999
 20
7.148210999999999
 30
0.0
 11
2.583811999999999
 21
7.149961
 31
0.0
  0
LINE
  5
AE
330
B
100
AcDbEntity
 67
     1
  8
1
  6
Continuous
 62
    18
100
AcDbLine
 10
1.865324999999999
 20
4.126052999999999
 30
0.0
 11
1.835325
 21
4.126052999999999
 31
0.0
  0
LINE
  5
AF
330
B
100
AcDbEntity
 67
     1
  8
1
  6
Continuous
 62
    18
100
AcDbLine
 10
4.771760999999999
 20
4.518307
 30
0.0
 11
4.756073999999999
 21
4.502842
 31
0.0
  0
LINE
  5
B0
330
B
100
AcDbEntity
 67
     1
  8
1
  6
Continuous
 62
    18
100
AcDbLine
 10
2.596095
 20
5.974565
 30
0.0
 11
2.588608
 21
5.974929
 31
0.0
  0
LINE
  5
B1
330
B
100
AcDbEntity
 67
     1
  8
1
  6
Continuous
 62
    18
100
AcDbLine
 10
2.334127999999999
 20
3.802094999999999
 30
0.0
 11
2.334959999999999
 21
3.801262999999999
 31
0.0
  0
LINE
  5
B2
330
B
100
AcDbEntity
 67
     1
  8
1
  6
Continuous
 62
    18
100
AcDbLine
 10
1.711391999999999
 20
7.401202
 30
0.0
 11
1.72785
 21
7.417660999999999
 31
0.0
  0
LINE
  5
B3
330
B
100
AcDbEntity
 67
     1
  8
1
  6
Continuous
 62
    18
100
AcDbLine
 10
1.730668999999999
 20
4.482841
 30
0.0
 11
1.727547
 21
4.482689999999999
 31
0.0
  0
LINE
  5
B4
330
B
100
AcDbEntity
 67
     1
  8
1
  6
Continuous
 62
    18
100
AcDbLine
 10
4.331107
 20
4.170757
 30
0.0
 11
4.341530999999999
 21
4.16218
 31
0.0
  0
LINE
  5
B5
330
B
100
AcDbEntity
 67
     1
  8
1
  6
Continuous
 62
    18
100
AcDbLine
 10
1.802638999999999
 20
6.098682
 30
0.0
 11
1.802688999999999
 21
6.122174
 31
0.0
  0
LINE
  5
B6
330
B
100
AcDbEntity
 67
     1
  8
1
  6
Continuous
 62
    18
100
AcDbLine
 10
1.748682
 20
6.808892
 30
0.0
 11
1.763220999999999
 21
6.808567999999999
 31
0.0
  0
LINE
  5
B7
330
B
100
AcDbEntity
 67
     1
  8
1
  6
Continuous
 62
    18
100
AcDbLine
 10
1.667663
 20
4.452053
 30
0.0
 11
1.665093999999999
 21
4.447873
 31
0.0
  0
LINE
  5
B8
330
B
100
AcDbEntity
 67
     1
  8
1
  6
Continuous
 62
    18
100
AcDbLine
 10
4.025921
 20
4.051816
 30
0.0
 11
4.124210999999999
 21
4.150106
 31
0.0
  0
LINE
  5
B9
330
B
100
AcDbEntity
 67
     1
  8
1
  6
Continuous
 62
    18
100
AcDbLine
 10
2.319958
 20
3.751259999999999
 30
0.0
 11
2.319125999999999
 21
3.752091999999999
 31
0.0
  0
LINE
  5
BA
330
B
100
AcDbEntity
 67
     1
  8
1
  6
Continuous
 62
    18
100
AcDbLine
 10
1.803465
 20
6.141725
 30
0.0
 11
1.859918
 21
6.141725
 31
0.0
  0
LINE
  5
BB
330
B
100
AcDbEntity
 67
     1
  8
1
  6
Continuous
 62
    18
100
AcDbLine
 10
1.835325
 20
4.131897
 30
0.0
 11
1.822869999999999
 21
4.128819999999999
 31
0.0
  0
LINE
  5
BC
330
B
100
AcDbEntity
 67
     1
  8
1
  6
Continuous
 62
    18
100
AcDbLine
 10
1.709384
 20
7.148210999999999
 30
0.0
 11
1.705347999999999
 21
7.146163999999999
 31
0.0
  0
LINE
  5
BD
330
B
100
AcDbEntity
 67
     1
  8
1
  6
Continuous
 62
    18
100
AcDbLine
 10
1.814740999999999
 20
4.345176999999999
 30
0.0
 11
1.815104999999999
 21
4.344192999999999
 31
0.0
  0
LINE
  5
BE
330
B
100
AcDbEntity
 67
     1
  8
1
  6
Continuous
 62
    18
100
AcDbLine
 10
1.862870999999999
 20
3.885169999999999
 30
0.0
 11
1.863702999999999
 21
3.884337
 31
0.0
  0
LINE
  5
BF
330
B
100
AcDbEntity
 67
     1
  8
1
  6
Continuous
 62
    18
100
AcDbLine
 10
1.799209999999999
 20
6.142294
 30
0.0
 11
1.798391
 21
6.117058999999999
 31
0.0
  0
LINE
  5
C0
330
B
100
AcDbEntity
 67
     1
  8
1
  6
Continuous
 62
    18
100
AcDbLine
 10
2.340802
 20
4.090955
 30
0.0
 11
2.340802
 21
4.070891
 31
0.0
  0
LINE
  5
C1
330
B
100
AcDbEntity
 67
     1
  8
1
  6
Continuous
 62
    18
100
AcDbLine
 10
1.74859
 20
7.425435
 30
0.0
 11
1.750321
 21
7.423703999999998
 31
0.0
  0
LINE
  5
C2
330
B
100
AcDbEntity
 67
     1
  8
1
  6
Continuous
 62
    18
100
AcDbLine
 10
1.673063999999999
 20
4.382089999999999
 30
0.0
 11
1.676441
 21
4.378706
 31
0.0
  0
LINE
  5
C3
330
B
100
AcDbEntity
 67
     1
  8
1
  6
Continuous
 62
    18
100
AcDbLine
 10
1.684106
 20
6.483933
 30
0.0
 11
1.688358999999999
 21
6.481219
 31
0.0
  0
LINE
  5
C4
330
B
100
AcDbEntity
 67
     1
  8
1
  6
Continuous
 62
    18
100
AcDbLine
 10
2.581955999999999
 20
4.516900999999999
 30
0.0
 11
2.582083
 21
4.513247999999999
 31
0.0
  0
LINE
  5
C5
330
B
100
AcDbEntity
 67
     1
  8
1
  6
Continuous
 62
    18
100
AcDbLine
 10
1.719732
 20
6.270557
 30
0.0
 11
1.72874
 21
6.261419999999999
 31
0.0
  0
LINE
  5
C6
330
B
100
AcDbEntity
 67
     1
  8
1
  6
Continuous
 62
    18
100
AcDbLine
 10
2.576058
 20
6.621643999999999
 30
0.0
 11
2.582447
 21
6.637332
 31
0.0
  0
LINE
  5
C7
330
B
100
AcDbEntity
 67
     1
  8
1
  6
Continuous
 62
    18
100
AcDbLine
 10
1.726752999999999
 20
3.539718
 30
0.0
 11
1.851067999999999
 21
3.539718
 31
0.0
  0
LINE
  5
C8
330
B
100
AcDbEntity
 67
     1
  8
1
  6
Continuous
 62
    18
100
AcDbLine
 10
1.721975
 20
6.593522
 30
0.0
 11
1.716459999999999
 21
6.592682
 31
0.0
  0
LINE
  5
C9
330
B
100
AcDbEntity
 67
     1
  8
1
  6
Continuous
 62
    18
100
AcDbLine
 10
2.473297999999999
 20
4.447754999999999
 30
0.0
 11
2.496506999999999
 21
4.447754999999999
 31
0.0
  0
LINE
  5
CA
330
B
100
AcDbEntity
 67
     1
  8
1
  6
Continuous
 62
    18
100
AcDbLine
 10
2.311640999999999
 20
6.137087999999999
 30
0.0
 11
2.305118999999999
 21
6.138173
 31
0.0
  0
LINE
  5
CB
330
B
100
AcDbEntity
 67
     1
  8
1
  6
Continuous
 62
    18
100
AcDbLine
 10
1.815324999999999
 20
4.349752999999999
 30
0.0
 11
1.812443
 21
4.358826
 31
0.0
  0
LINE
  5
CC
330
B
100
AcDbEntity
 67
     1
  8
1
  6
Continuous
 62
    18
100
AcDbLine
 10
2.596154
 20
7.397677
 30
0.0
 11
2.599575999999999
 21
7.380461999999999
 31
0.0
  0
LINE
  5
CD
330
B
100
AcDbEntity
 67
     1
  8
1
  6
Continuous
 62
    18
100
AcDbLine
 10
1.702075999999999
 20
4.012322
 30
0.0
 11
1.702075999999999
 21
4.008021
 31
0.0
  0
LINE
  5
CE
330
B
100
AcDbEntity
 67
     1
  8
1
  6
Continuous
 62
    18
100
AcDbLine
 10
1.662984999999999
 20
6.554961
 30
0.0
 11
1.661275999999999
 21
6.550538999999999
 31
0.0
  0
LINE
  5
CF
330
B
100
AcDbEntity
 67
     1
  8
1
  6
Continuous
 62
    18
100
AcDbLine
 10
1.815324999999999
 20
6.447091
 30
0.0
 11
1.81799
 21
6.438152999999999
 31
0.0
  0
LINE
  5
D0
330
B
100
AcDbEntity
 67
     1
  8
1
  6
Continuous
 62
    18
100
AcDbLine
 10
2.467443999999999
 20
4.472891
 30
0.0
 11
2.453301999999999
 21
4.477033
 31
0.0
  0
LINE
  5
D1
330
B
100
AcDbEntity
 67
     1
  8
1
  6
Continuous
 62
    18
100
AcDbLine
 10
1.721109999999999
 20
6.689642
 30
0.0
 11
1.720747
 21
6.705214999999999
 31
0.0
  0
LINE
  5
D2
330
B
100
AcDbEntity
 67
     1
  8
1
  6
Continuous
 62
    18
100
AcDbLine
 10
1.978525999999999
 20
3.884337
 30
0.0
 11
2.307733999999999
 21
3.884337
 31
0.0
  0
LINE
  5
D3
330
B
100
AcDbEntity
 67
     1
  8
1
  6
Continuous
 62
    18
100
AcDbLine
 10
1.808901999999999
 20
6.462864999999999
 30
0.0
 11
1.810709
 21
6.461491999999999
 31
0.0
  0
LINE
  5
D4
330
B
100
AcDbEntity
 67
     1
  8
1
  6
Continuous
 62
    18
100
AcDbLine
 10
1.819341999999999
 20
6.155987999999999
 30
0.0
 11
1.817415
 21
6.158909999999999
 31
0.0
  0
LINE
  5
D5
330
B
100
AcDbEntity
 67
     1
  8
1
  6
Continuous
 62
    18
100
AcDbLine
 10
4.397942999999999
 20
3.539718
 30
0.0
 11
4.385155999999999
 21
3.905901
 31
0.0
  0
LINE
  5
D6
330
B
100
AcDbEntity
 67
     1
  8
1
  6
Continuous
 62
    18
100
AcDbLine
 10
1.835325
 20
4.120326999999999
 30
0.0
 11
1.835325
 21
4.104605
 31
0.0
  0
LINE
  5
D7
330
B
100
AcDbEntity
 67
     1
  8
1
  6
Continuous
 62
    18
100
AcDbLine
 10
1.703616999999999
 20
7.380461999999999
 30
0.0
 11
1.703616999999999
 21
6.589246000000001
 31
0.0
  0
LINE
  5
D8
330
B
100
AcDbEntity
 67
     1
  8
1
  6
Continuous
 62
    18
100
AcDbLine
 10
1.99284
 20
3.767084999999999
 30
0.0
 11
1.99287
 21
3.866445999999999
 31
0.0
  0
LINE
  5
D9
330
B
100
AcDbEntity
 67
     1
  8
1
  6
Continuous
 62
    18
100
AcDbLine
 10
1.658234
 20
5.964649999999999
 30
0.0
 11
1.65384
 21
5.975254
 31
0.0
  0
LINE
  5
DA
330
B
100
AcDbEntity
 67
     1
  8
1
  6
Continuous
 62
    18
100
AcDbLine
 10
1.835325
 20
6.201211999999999
 30
0.0
 11
1.835325
 21
6.193336
 31
0.0
  0
LINE
  5
DB
330
B
100
AcDbEntity
 67
     1
  8
1
  6
Continuous
 62
    18
100
AcDbLine
 10
2.500872999999999
 20
4.098227999999999
 30
0.0
 11
2.501015
 21
4.112733
 31
0.0
  0
LINE
  5
DC
330
B
100
AcDbEntity
 67
     1
  8
1
  6
Continuous
 62
    18
100
AcDbLine
 10
2.574917999999999
 20
7.378731
 30
0.0
 11
2.552872
 21
7.378731
 31
0.0
  0
LINE
  5
DD
330
B
100
AcDbEntity
 67
     1
  8
1
  6
Continuous
 62
    18
100
AcDbLine
 10
5.519244
 20
3.905901
 30
0.0
 11
5.514851
 21
3.905901
 31
0.0
  0
LINE
  5
DE
330
B
100
AcDbEntity
 67
     1
  8
1
  6
Continuous
 62
    18
100
AcDbLine
 10
2.595234
 20
6.087493
 30
0.0
 11
2.599194999999999
 21
5.974063
 31
0.0
  0
LINE
  5
DF
330
B
100
AcDbEntity
 67
     1
  8
1
  6
Continuous
 62
    18
100
AcDbLine
 10
2.636388
 20
3.905901
 30
0.0
 11
2.631994999999999
 21
3.905901
 31
0.0
  0
LINE
  5
E0
330
B
100
AcDbEntity
 67
     1
  8
1
  6
Continuous
 62
    18
100
AcDbLine
 10
1.65384
 20
5.975254
 30
0.0
 11
1.65384
 21
7.451786
 31
0.0
  0
LINE
  5
E1
330
B
100
AcDbEntity
 67
     1
  8
1
  6
Continuous
 62
    18
100
AcDbLine
 10
2.340802
 20
6.15359
 30
0.0
 11
2.340802
 21
6.147403999999999
 31
0.0
  0
LINE
  5
E2
330
B
100
AcDbEntity
 67
     1
  8
1
  6
Continuous
 62
    18
100
AcDbLine
 10
1.86
 20
4.046988999999999
 30
0.0
 11
1.859906
 21
4.057776
 31
0.0
  0
LINE
  5
E3
330
B
100
AcDbEntity
 67
     1
  8
1
  6
Continuous
 62
    18
100
AcDbLine
 10
5.506642
 20
3.821255
 30
0.0
 11
5.506642
 21
3.865002999999999
 31
0.0
  0
LINE
  5
E4
330
B
100
AcDbEntity
 67
     1
  8
1
  6
Continuous
 62
    18
100
AcDbLine
 10
2.496506999999999
 20
6.597777
 30
0.0
 11
2.497240999999999
 21
6.250614999999999
 31
0.0
  0
LINE
  5
E5
330
B
100
AcDbEntity
 67
     1
  8
1
  6
Continuous
 62
    18
100
AcDbLine
 10
1.989275999999999
 20
3.755651
 30
0.0
 11
1.978668999999999
 21
3.751259999999999
 31
0.0
  0
LINE
  5
E6
330
B
100
AcDbEntity
 67
     1
  8
1
  6
Continuous
 62
    18
100
AcDbLine
 10
2.61979
 20
7.451786
 30
0.0
 11
1.668838
 21
7.451786
 31
0.0
  0
LINE
  5
E7
330
B
100
AcDbEntity
 67
     1
  8
1
  6
Continuous
 62
    18
100
AcDbLine
 10
1.678802
 20
6.514137999999999
 30
0.0
 11
1.682988999999999
 21
6.499255
 31
0.0
  0
LINE
  5
E8
330
B
100
AcDbEntity
 67
     1
  8
1
  6
Continuous
 62
    18
100
AcDbLine
 10
2.390801999999999
 20
4.054062
 30
0.0
 11
2.390801999999999
 21
4.054823999999999
 31
0.0
  0
LINE
  5
E9
330
B
100
AcDbEntity
 67
     1
  8
1
  6
Continuous
 62
    18
100
AcDbLine
 10
5.517642999999999
 20
3.997583999999999
 30
0.0
 11
5.513249
 21
3.997691999999999
 31
0.0
  0
LINE
  5
EA
330
B
100
AcDbEntity
 67
     1
  8
1
  6
Continuous
 62
    18
100
AcDbLine
 10
2.500357
 20
6.123362999999999
 30
0.0
 11
2.499913
 21
6.135341999999999
 31
0.0
  0
LINE
  5
EB
330
B
100
AcDbEntity
 67
     1
  8
1
  6
Continuous
 62
    18
100
AcDbLine
 10
2.421934999999999
 20
3.832113999999999
 30
0.0
 11
2.411093
 21
3.8159
 31
0.0
  0
LINE
  5
EC
330
B
100
AcDbEntity
 67
     1
  8
1
  6
Continuous
 62
    18
100
AcDbLine
 10
2.61979
 20
5.975254
 30
0.0
 11
2.61979
 21
7.451786
 31
0.0
  0
LINE
  5
ED
330
B
100
AcDbEntity
 67
     1
  8
1
  6
Continuous
 62
    18
100
AcDbLine
 10
1.733802
 20
6.469388999999999
 30
0.0
 11
1.733802
 21
6.470912
 31
0.0
  0
LINE
  5
EE
330
B
100
AcDbEntity
 67
     1
  8
1
  6
Continuous
 62
    18
100
AcDbLine
 10
2.500516999999999
 20
4.051895
 30
0.0
 11
2.390801999999999
 21
4.051895
 31
0.0
  0
LINE
  5
EF
330
B
100
AcDbEntity
 67
     1
  8
1
  6
Continuous
 62
    18
100
AcDbLine
 10
1.806452999999999
 20
4.337488999999999
 30
0.0
 11
1.803651999999999
 21
4.375701
 31
0.0
  0
LINE
  5
F0
330
B
100
AcDbEntity
 67
     1
  8
1
  6
Continuous
 62
    18
100
AcDbLine
 10
1.801738
 20
4.088123999999999
 30
0.0
 11
1.816824
 21
4.088123999999999
 31
0.0
  0
LINE
  5
F1
330
B
100
AcDbEntity
 67
     1
  8
1
  6
Continuous
 62
    18
100
AcDbLine
 10
2.291631999999999
 20
6.137087999999999
 30
0.0
 11
2.291640999999999
 21
6.134447999999999
 31
0.0
  0
LINE
  5
F2
330
B
100
AcDbEntity
 67
     1
  8
1
  6
Continuous
 62
    18
100
AcDbLine
 10
2.62139
 20
3.905901
 30
0.0
 11
2.61979
 21
3.997583999999999
 31
0.0
  0
LINE
  5
F3
330
B
100
AcDbEntity
 67
     1
  8
1
  6
Continuous
 62
    18
100
AcDbLine
 10
2.61979
 20
5.975254
 30
0.0
 11
2.630303
 21
5.975254
 31
0.0
  0
LINE
  5
F4
330
B
100
AcDbEntity
 67
     1
  8
1
  6
Continuous
 62
    18
100
AcDbLine
 10
2.467443999999999
 20
6.557171
 30
0.0
 11
2.453301999999999
 21
6.553029
 31
0.0
  0
LINE
  5
F5
330
B
100
AcDbEntity
 67
     1
  8
1
  6
Continuous
 62
    18
100
AcDbLine
 10
1.802688999999999
 20
4.057776
 30
0.0
 11
1.802712999999999
 21
4.059455999999999
 31
0.0
  0
LINE
  5
F6
330
B
100
AcDbEntity
 67
     1
  8
1
  6
Continuous
 62
    18
100
AcDbLine
 10
1.713984999999999
 20
4.146329999999999
 30
0.0
 11
1.707958999999999
 21
4.136662
 31
0.0
  0
LINE
  5
F7
330
B
100
AcDbEntity
 67
     1
  8
1
  6
Continuous
 62
    18
100
AcDbLine
 10
2.602376
 20
5.964739999999999
 30
0.0
 11
2.602376
 21
5.975254
 31
0.0
  0
LINE
  5
F8
330
B
100
AcDbEntity
 67
     1
  8
1
  6
Continuous
 62
    18
100
AcDbLine
 10
5.429591
 20
4.061893
 30
0.0
 11
5.429591
 21
4.083722999999999
 31
0.0
  0
LINE
  5
F9
330
B
100
AcDbEntity
 67
     1
  8
1
  6
Continuous
 62
    18
100
AcDbLine
 10
1.807150999999999
 20
6.245891
 30
0.0
 11
1.806681999999999
 21
6.252691
 31
0.0
  0
LINE
  5
FA
330
B
100
AcDbEntity
 67
     1
  8
1
  6
Continuous
 62
    18
100
AcDbLine
 10
2.528265999999999
 20
3.601905
 30
0.0
 11
2.562959999999999
 21
3.601905
 31
0.0
  0
LINE
  5
FB
330
B
100
AcDbEntity
 67
     1
  8
1
  6
Continuous
 62
    18
100
AcDbLine
 10
1.664511
 20
6.555646
 30
0.0
 11
1.658802
 21
6.535351
 31
0.0
  0
LINE
  5
FC
330
B
100
AcDbEntity
 67
     1
  8
1
  6
Continuous
 62
    18
100
AcDbLine
 10
1.978523
 20
3.884322
 30
0.0
 11
2.307736
 21
3.884322
 31
0.0
  0
LINE
  5
FD
330
B
100
AcDbEntity
 67
     1
  8
1
  6
Continuous
 62
    18
100
AcDbLine
 10
2.552872
 20
7.378731
 30
0.0
 11
1.750321
 21
7.378731
 31
0.0
  0
LINE
  5
FE
330
B
100
AcDbEntity
 67
     1
  8
1
  6
Continuous
 62
    18
100
AcDbLine
 10
4.679911999999999
 20
4.550194
 30
0.0
 11
4.707583999999999
 21
4.559186
 31
0.0
  0
LINE
  5
FF
330
B
100
AcDbEntity
 67
     1
  8
1
  6
Continuous
 62
    18
100
AcDbLine
 10
2.498588
 20
6.225038999999999
 30
0.0
 11
2.473085999999999
 21
6.225683999999999
 31
0.0
  0
LINE
  5
100
330
B
100
AcDbEntity
 67
     1
  8
1
  6
Continuous
 62
    18
100
AcDbLine
 10
2.051874
 20
3.683459999999999
 30
0.0
 11
2.051604
 21
3.683459999999999
 31
0.0
  0
LINE
  5
101
330
B
100
AcDbEntity
 67
     1
  8
1
  6
Continuous
 62
    18
100
AcDbLine
 10
1.977475999999999
 20
3.824322
 30
0.0
 11
1.978213999999999
 21
3.866605999999999
 31
0.0
  0
LINE
  5
102
330
B
100
AcDbEntity
 67
     1
  8
1
  6
Continuous
 62
    18
100
AcDbLine
 10
2.583811999999999
 20
7.149961
 30
0.0
 11
2.569309
 21
7.151157
 31
0.0
  0
LINE
  5
103
330
B
100
AcDbEntity
 67
     1
  8
1
  6
Continuous
 62
    18
100
AcDbLine
 10
1.819686
 20
4.120927
 30
0.0
 11
1.801059
 21
4.120927
 31
0.0
  0
LINE
  5
104
330
B
100
AcDbEntity
 67
     1
  8
1
  6
Continuous
 62
    18
100
AcDbLine
 10
5.197023999999999
 20
4.061893
 30
0.0
 11
4.756073999999999
 21
4.502842
 31
0.0
  0
LINE
  5
105
330
B
100
AcDbEntity
 67
     1
  8
1
  6
Continuous
 62
    18
100
AcDbLine
 10
2.588608
 20
5.974929
 30
0.0
 11
2.578679
 21
5.975062
 31
0.0
  0
LINE
  5
106
330
B
100
AcDbEntity
 67
     1
  8
1
  6
Continuous
 62
    18
100
AcDbLine
 10
2.334127999999999
 20
3.76709
 30
0.0
 11
2.334959999999999
 21
3.766258
 31
0.0
  0
LINE
  5
107
330
B
100
AcDbEntity
 67
     1
  8
1
  6
Continuous
 62
    18
100
AcDbLine
 10
2.340802
 20
4.131897
 30
0.0
 11
2.390801999999999
 21
4.131897
 31
0.0
  0
LINE
  5
108
330
B
100
AcDbEntity
 67
     1
  8
1
  6
Continuous
 62
    18
100
AcDbLine
 10
1.72785
 20
7.417660999999999
 30
0.0
 11
1.750321
 21
7.423703999999998
 31
0.0
  0
LINE
  5
109
330
B
100
AcDbEntity
 67
     1
  8
1
  6
Continuous
 62
    18
100
AcDbLine
 10
1.727547
 20
4.482689999999999
 30
0.0
 11
1.721975
 21
4.482169999999999
 31
0.0
  0
LINE
  5
10A
330
B
100
AcDbEntity
 67
     1
  8
1
  6
Continuous
 62
    18
100
AcDbLine
 10
4.341530999999999
 20
4.16218
 30
0.0
 11
4.344454999999999
 21
4.159587999999999
 31
0.0
  0
LINE
  5
10B
330
B
100
AcDbEntity
 67
     1
  8
1
  6
Continuous
 62
    18
100
AcDbLine
 10
2.574454
 20
6.142294
 30
0.0
 11
2.574454
 21
6.261599999999999
 31
0.0
  0
LINE
  5
10C
330
B
100
AcDbEntity
 67
     1
  8
1
  6
Continuous
 62
    18
100
AcDbLine
 10
1.828408
 20
4.060705
 30
0.0
 11
1.825181999999999
 21
4.066972999999999
 31
0.0
  0
LINE
  5
10D
330
B
100
AcDbEntity
 67
     1
  8
1
  6
Continuous
 62
    18
100
AcDbLine
 10
1.763220999999999
 20
6.808567999999999
 30
0.0
 11
2.539972
 21
6.808567999999999
 31
0.0
  0
LINE
  5
10E
330
B
100
AcDbEntity
 67
     1
  8
1
  6
Continuous
 62
    18
100
AcDbLine
 10
1.665093999999999
 20
4.447873
 30
0.0
 11
1.662984999999999
 21
4.443608999999999
 31
0.0
  0
LINE
  5
10F
330
B
100
AcDbEntity
 67
     1
  8
1
  6
Continuous
 62
    18
100
AcDbLine
 10
4.498893999999999
 20
4.375612
 30
0.0
 11
4.498801
 21
4.375701
 31
0.0
  0
LINE
  5
110
330
B
100
AcDbEntity
 67
     1
  8
1
  6
Continuous
 62
    18
100
AcDbLine
 10
2.31079
 20
3.752091999999999
 30
0.0
 11
2.309957999999999
 21
3.751259999999999
 31
0.0
  0
LINE
  5
111
330
B
100
AcDbEntity
 67
     1
  8
1
  6
Continuous
 62
    18
100
AcDbLine
 10
1.802688999999999
 20
6.122174
 30
0.0
 11
1.802712999999999
 21
6.124405
 31
0.0
  0
LINE
  5
112
330
B
100
AcDbEntity
 67
     1
  8
1
  6
Continuous
 62
    18
100
AcDbLine
 10
1.751241
 20
7.151622999999999
 30
0.0
 11
1.750781
 21
7.151627
 31
0.0
  0
LINE
  5
113
330
B
100
AcDbEntity
 67
     1
  8
1
  6
Continuous
 62
    18
100
AcDbLine
 10
1.815104999999999
 20
4.344192999999999
 30
0.0
 11
1.815281
 21
4.343348999999999
 31
0.0
  0
LINE
  5
114
330
B
100
AcDbEntity
 67
     1
  8
1
  6
Continuous
 62
    18
100
AcDbLine
 10
1.658980999999999
 20
6.528331999999999
 30
0.0
 11
1.658897999999999
 21
6.526968
 31
0.0
  0
LINE
  5
115
330
B
100
AcDbEntity
 67
     1
  8
1
  6
Continuous
 62
    18
100
AcDbLine
 10
2.425756
 20
3.885169999999999
 30
0.0
 11
2.424924
 21
3.884337
 31
0.0
  0
LINE
  5
116
330
B
100
AcDbEntity
 67
     1
  8
1
  6
Continuous
 62
    18
100
AcDbLine
 10
1.798391
 20
6.117058999999999
 30
0.0
 11
1.797859999999999
 21
6.093544
 31
0.0
  0
LINE
  5
117
330
B
100
AcDbEntity
 67
     1
  8
1
  6
Continuous
 62
    18
100
AcDbLine
 10
2.537474
 20
6.605511999999999
 30
0.0
 11
1.765718999999999
 21
6.605511999999999
 31
0.0
  0
LINE
  5
118
330
B
100
AcDbEntity
 67
     1
  8
1
  6
Continuous
 62
    18
100
AcDbLine
 10
1.676441
 20
4.378706
 30
0.0
 11
1.680100999999999
 21
4.375554
 31
0.0
  0
LINE
  5
119
330
B
100
AcDbEntity
 67
     1
  8
1
  6
Continuous
 62
    18
100
AcDbLine
 10
1.688358999999999
 20
6.481219
 30
0.0
 11
1.692913
 21
6.478733
 31
0.0
  0
LINE
  5
11A
330
B
100
AcDbEntity
 67
     1
  8
1
  6
Continuous
 62
    18
100
AcDbLine
 10
2.582083
 20
4.513247999999999
 30
0.0
 11
2.582447
 21
4.502842
 31
0.0
  0
LINE
  5
11B
330
B
100
AcDbEntity
 67
     1
  8
1
  6
Continuous
 62
    18
100
AcDbLine
 10
1.72874
 20
6.142294
 30
0.0
 11
1.714846999999999
 21
6.142294
 31
0.0
  0
LINE
  5
11C
330
B
100
AcDbEntity
 67
     1
  8
1
  6
Continuous
 62
    18
100
AcDbLine
 10
1.712755
 20
4.402212
 30
0.0
 11
1.733802
 21
4.399251
 31
0.0
  0
LINE
  5
11D
330
B
100
AcDbEntity
 67
     1
  8
1
  6
Continuous
 62
    18
100
AcDbLine
 10
1.682988999999999
 20
4.423258999999999
 30
0.0
 11
1.694911
 21
4.410642
 31
0.0
  0
LINE
  5
11E
330
B
100
AcDbEntity
 67
     1
  8
1
  6
Continuous
 62
    18
100
AcDbLine
 10
2.582447
 20
6.705214999999999
 30
0.0
 11
2.582083
 21
6.689642
 31
0.0
  0
LINE
  5
11F
330
B
100
AcDbEntity
 67
     1
  8
1
  6
Continuous
 62
    18
100
AcDbLine
 10
2.561875
 20
3.539718
 30
0.0
 11
2.562959999999999
 21
3.601907
 31
0.0
  0
LINE
  5
120
330
B
100
AcDbEntity
 67
     1
  8
1
  6
Continuous
 62
    18
100
AcDbLine
 10
1.716459999999999
 20
6.592682
 30
0.0
 11
1.711016999999999
 21
6.591518999999999
 31
0.0
  0
LINE
  5
121
330
B
100
AcDbEntity
 67
     1
  8
1
  6
Continuous
 62
    18
100
AcDbLine
 10
2.499209999999999
 20
4.529649
 30
0.0
 11
2.496506999999999
 21
4.447754999999999
 31
0.0
  0
LINE
  5
122
330
B
100
AcDbEntity
 67
     1
  8
1
  6
Continuous
 62
    18
100
AcDbLine
 10
2.305118999999999
 20
6.138173
 30
0.0
 11
2.299322999999999
 21
6.141262
 31
0.0
  0
LINE
  5
123
330
B
100
AcDbEntity
 67
     1
  8
1
  6
Continuous
 62
    18
100
AcDbLine
 10
1.815324999999999
 20
4.342811
 30
0.0
 11
1.815324999999999
 21
4.349752999999999
 31
0.0
  0
LINE
  5
124
330
B
100
AcDbEntity
 67
     1
  8
1
  6
Continuous
 62
    18
100
AcDbLine
 10
1.812443
 20
4.358826
 30
0.0
 11
1.804351999999999
 21
4.366155
 31
0.0
  0
LINE
  5
125
330
B
100
AcDbEntity
 67
     1
  8
1
  6
Continuous
 62
    18
100
AcDbLine
 10
1.705347999999999
 20
7.378731
 30
0.0
 11
1.703616999999999
 21
7.380461999999999
 31
0.0
  0
LINE
  5
126
330
B
100
AcDbEntity
 67
     1
  8
1
  6
Continuous
 62
    18
100
AcDbLine
 10
1.702075999999999
 20
4.008021
 30
0.0
 11
1.702075999999999
 21
3.997583999999999
 31
0.0
  0
LINE
  5
127
330
B
100
AcDbEntity
 67
     1
  8
1
  6
Continuous
 62
    18
100
AcDbLine
 10
1.661275999999999
 20
6.550538999999999
 30
0.0
 11
1.660013
 21
6.546114
 31
0.0
  0
LINE
  5
128
330
B
100
AcDbEntity
 67
     1
  8
1
  6
Continuous
 62
    18
100
AcDbLine
 10
1.81799
 20
6.438152999999999
 30
0.0
 11
1.825274999999999
 21
6.427827999999999
 31
0.0
  0
LINE
  5
129
330
B
100
AcDbEntity
 67
     1
  8
1
  6
Continuous
 62
    18
100
AcDbLine
 10
2.472938999999999
 20
4.126163
 30
0.0
 11
2.466031999999999
 21
4.134387
 31
0.0
  0
LINE
  5
12A
330
B
100
AcDbEntity
 67
     1
  8
1
  6
Continuous
 62
    18
100
AcDbLine
 10
1.765718999999999
 20
6.605511999999999
 30
0.0
 11
1.743547
 21
6.610033
 31
0.0
  0
LINE
  5
12B
330
B
100
AcDbEntity
 67
     1
  8
1
  6
Continuous
 62
    18
100
AcDbLine
 10
2.402220999999999
 20
3.884337
 30
0.0
 11
2.424924
 21
3.884337
 31
0.0
  0
LINE
  5
12C
330
B
100
AcDbEntity
 67
     1
  8
1
  6
Continuous
 62
    18
100
AcDbLine
 10
1.810709
 20
6.461491999999999
 30
0.0
 11
1.812184
 21
6.460123999999999
 31
0.0
  0
LINE
  5
12D
330
B
100
AcDbEntity
 67
     1
  8
1
  6
Continuous
 62
    18
100
AcDbLine
 10
1.816534999999999
 20
4.111862
 30
0.0
 11
1.816824
 21
4.112873
 31
0.0
  0
LINE
  5
12E
330
B
100
AcDbEntity
 67
     1
  8
1
  6
Continuous
 62
    18
100
AcDbLine
 10
1.817415
 20
6.158909999999999
 30
0.0
 11
1.816824
 21
6.160584
 31
0.0
  0
LINE
  5
12F
330
B
100
AcDbEntity
 67
     1
  8
1
  6
Continuous
 62
    18
100
AcDbLine
 10
4.460563999999999
 20
3.774419999999999
 30
0.0
 11
4.452367999999999
 21
3.539718
 31
0.0
  0
LINE
  5
130
330
B
100
AcDbEntity
 67
     1
  8
1
  6
Continuous
 62
    18
100
AcDbLine
 10
1.99287
 20
3.866445999999999
 30
0.0
 11
2.295757
 21
3.866445999999999
 31
0.0
  0
LINE
  5
131
330
B
100
AcDbEntity
 67
     1
  8
1
  6
Continuous
 62
    18
100
AcDbLine
 10
1.802722
 20
6.124937999999999
 30
0.0
 11
1.80182
 21
6.124937999999999
 31
0.0
  0
LINE
  5
132
330
B
100
AcDbEntity
 67
     1
  8
1
  6
Continuous
 62
    18
100
AcDbLine
 10
1.835325
 20
6.207893
 30
0.0
 11
1.821183
 21
6.212035
 31
0.0
  0
LINE
  5
133
330
B
100
AcDbEntity
 67
     1
  8
1
  6
Continuous
 62
    18
100
AcDbLine
 10
2.499862999999999
 20
4.063951999999999
 30
0.0
 11
2.500404999999999
 21
4.081052999999999
 31
0.0
  0
LINE
  5
134
330
B
100
AcDbEntity
 67
     1
  8
1
  6
Continuous
 62
    18
100
AcDbLine
 10
5.514851
 20
3.905901
 30
0.0
 11
5.504246
 21
3.905901
 31
0.0
  0
LINE
  5
135
330
B
100
AcDbEntity
 67
     1
  8
1
  6
Continuous
 62
    18
100
AcDbLine
 10
2.599575999999999
 20
5.973682
 30
0.0
 11
2.599194999999999
 21
5.974063
 31
0.0
  0
LINE
  5
136
330
B
100
AcDbEntity
 67
     1
  8
1
  6
Continuous
 62
    18
100
AcDbLine
 10
2.631994999999999
 20
3.905901
 30
0.0
 11
2.62139
 21
3.905901
 31
0.0
  0
LINE
  5
137
330
B
100
AcDbEntity
 67
     1
  8
1
  6
Continuous
 62
    18
100
AcDbLine
 10
1.668838
 20
7.451786
 30
0.0
 11
1.668838
 21
7.462299
 31
0.0
  0
LINE
  5
138
330
B
100
AcDbEntity
 67
     1
  8
1
  6
Continuous
 62
    18
100
AcDbLine
 10
2.340802
 20
6.193336
 30
0.0
 11
2.390801999999999
 21
6.193336
 31
0.0
  0
LINE
  5
139
330
B
100
AcDbEntity
 67
     1
  8
1
  6
Continuous
 62
    18
100
AcDbLine
 10
1.802712999999999
 20
4.059455999999999
 30
0.0
 11
1.802849
 21
4.060705
 31
0.0
  0
LINE
  5
13A
330
B
100
AcDbEntity
 67
     1
  8
1
  6
Continuous
 62
    18
100
AcDbLine
 10
5.506642
 20
3.821255
 30
0.0
 11
5.536326999999999
 21
3.821255
 31
0.0
  0
LINE
  5
13B
330
B
100
AcDbEntity
 67
     1
  8
1
  6
Continuous
 62
    18
100
AcDbLine
 10
2.497240999999999
 20
6.250614999999999
 30
0.0
 11
2.497400999999999
 21
6.243545
 31
0.0
  0
LINE
  5
13C
330
B
100
AcDbEntity
 67
     1
  8
1
  6
Continuous
 62
    18
100
AcDbLine
 10
1.978668999999999
 20
3.751259999999999
 30
0.0
 11
1.968668999999999
 21
3.751259999999999
 31
0.0
  0
LINE
  5
13D
330
B
100
AcDbEntity
 67
     1
  8
1
  6
Continuous
 62
    18
100
AcDbLine
 10
2.61979
 20
7.451786
 30
0.0
 11
2.61979
 21
7.462299
 31
0.0
  0
LINE
  5
13E
330
B
100
AcDbEntity
 67
     1
  8
1
  6
Continuous
 62
    18
100
AcDbLine
 10
1.682988999999999
 20
6.499255
 30
0.0
 11
1.694911
 21
6.486638
 31
0.0
  0
LINE
  5
13F
330
B
100
AcDbEntity
 67
     1
  8
1
  6
Continuous
 62
    18
100
AcDbLine
 10
2.390801999999999
 20
4.054823999999999
 30
0.0
 11
2.390801999999999
 21
4.057451
 31
0.0
  0
LINE
  5
140
330
B
100
AcDbEntity
 67
     1
  8
1
  6
Continuous
 62
    18
100
AcDbLine
 10
5.513249
 20
3.997691999999999
 30
0.0
 11
5.502644999999999
 21
3.997583999999999
 31
0.0
  0
LINE
  5
141
330
B
100
AcDbEntity
 67
     1
  8
1
  6
Continuous
 62
    18
100
AcDbLine
 10
2.500357
 20
6.123362999999999
 30
0.0
 11
2.500516999999999
 21
6.116291999999999
 31
0.0
  0
LINE
  5
142
330
B
100
AcDbEntity
 67
     1
  8
1
  6
Continuous
 62
    18
100
AcDbLine
 10
2.411093
 20
3.8159
 30
0.0
 11
2.394870999999999
 21
3.805066999999999
 31
0.0
  0
LINE
  5
143
330
B
100
AcDbEntity
 67
     1
  8
1
  6
Continuous
 62
    18
100
AcDbLine
 10
2.61979
 20
7.466783999999999
 30
0.0
 11
2.62139
 21
7.468383999999999
 31
0.0
  0
LINE
  5
144
330
B
100
AcDbEntity
 67
     1
  8
1
  6
Continuous
 62
    18
100
AcDbLine
 10
1.733802
 20
6.470912
 30
0.0
 11
1.733802
 21
6.475247
 31
0.0
  0
LINE
  5
145
330
B
100
AcDbEntity
 67
     1
  8
1
  6
Continuous
 62
    18
100
AcDbLine
 10
1.733802
 20
4.399251
 30
0.0
 11
1.785325
 21
4.399251
 31
0.0
  0
LINE
  5
146
330
B
100
AcDbEntity
 67
     1
  8
1
  6
Continuous
 62
    18
100
AcDbLine
 10
2.390801999999999
 20
4.046988999999999
 30
0.0
 11
1.86
 21
4.046988999999999
 31
0.0
  0
LINE
  5
147
330
B
100
AcDbEntity
 67
     1
  8
1
  6
Continuous
 62
    18
100
AcDbLine
 10
1.803651999999999
 20
4.375701
 30
0.0
 11
1.803234999999999
 21
4.178662999999999
 31
0.0
  0
LINE
  5
148
330
B
100
AcDbEntity
 67
     1
  8
1
  6
Continuous
 62
    18
100
AcDbLine
 10
5.202486
 20
4.118495999999999
 30
0.0
 11
5.217081999999999
 21
4.108746
 31
0.0
  0
LINE
  5
149
330
B
100
AcDbEntity
 67
     1
  8
1
  6
Continuous
 62
    18
100
AcDbLine
 10
2.291640999999999
 20
6.134447999999999
 30
0.0
 11
2.291640999999999
 21
6.137091
 31
0.0
  0
LINE
  5
14A
330
B
100
AcDbEntity
 67
     1
  8
1
  6
Continuous
 62
    18
100
AcDbLine
 10
2.61979
 20
3.997583999999999
 30
0.0
 11
2.602376
 21
3.997583999999999
 31
0.0
  0
LINE
  5
14B
330
B
100
AcDbEntity
 67
     1
  8
1
  6
Continuous
 62
    18
100
AcDbLine
 10
2.630303
 20
5.975254
 30
0.0
 11
2.634786999999999
 21
5.975254
 31
0.0
  0
LINE
  5
14C
330
B
100
AcDbEntity
 67
     1
  8
1
  6
Continuous
 62
    18
100
AcDbLine
 10
2.473301999999999
 20
6.227758999999999
 30
0.0
 11
2.467443999999999
 21
6.21776
 31
0.0
  0
LINE
  5
14D
330
B
100
AcDbEntity
 67
     1
  8
1
  6
Continuous
 62
    18
100
AcDbLine
 10
1.801928
 20
4.082341
 30
0.0
 11
1.802712999999999
 21
4.059455999999999
 31
0.0
  0
LINE
  5
14E
330
B
100
AcDbEntity
 67
     1
  8
1
  6
Continuous
 62
    18
100
AcDbLine
 10
1.72874
 20
4.178662999999999
 30
0.0
 11
1.728647999999999
 21
4.175341
 31
0.0
  0
LINE
  5
14F
330
B
100
AcDbEntity
 67
     1
  8
1
  6
Continuous
 62
    18
100
AcDbLine
 10
2.61979
 20
7.466783999999999
 30
0.0
 11
2.630393
 21
7.462388999999999
 31
0.0
  0
LINE
  5
150
330
B
100
AcDbEntity
 67
     1
  8
1
  6
Continuous
 62
    18
100
AcDbLine
 10
5.429591
 20
4.083722999999999
 30
0.0
 11
5.429591
 21
4.099553
 31
0.0
  0
LINE
  5
151
330
B
100
AcDbEntity
 67
     1
  8
1
  6
Continuous
 62
    18
100
AcDbLine
 10
1.806072999999999
 20
6.252691999999999
 30
0.0
 11
1.805961999999999
 21
6.255034999999999
 31
0.0
  0
LINE
  5
152
330
B
100
AcDbEntity
 67
     1
  8
1
  6
Continuous
 62
    18
100
AcDbLine
 10
2.050741999999999
 20
3.794795999999999
 30
0.0
 11
2.237886
 21
3.794795999999999
 31
0.0
  0
LINE
  5
153
330
B
100
AcDbEntity
 67
     1
  8
1
  6
Continuous
 62
    18
100
AcDbLine
 10
2.473301999999999
 20
6.574241999999999
 30
0.0
 11
2.473301999999999
 21
6.567171
 31
0.0
  0
LINE
  5
154
330
B
100
AcDbEntity
 67
     1
  8
1
  6
Continuous
 62
    18
100
AcDbLine
 10
2.416493
 20
3.824322
 30
0.0
 11
2.401177
 21
3.824322
 31
0.0
  0
LINE
  5
155
330
B
100
AcDbEntity
 67
     1
  8
1
  6
Continuous
 62
    18
100
AcDbLine
 10
2.552872
 20
7.423703999999998
 30
0.0
 11
2.552872
 21
7.417169
 31
0.0
  0
LINE
  5
156
330
B
100
AcDbEntity
 67
     1
  8
1
  6
Continuous
 62
    18
100
AcDbLine
 10
4.707583999999999
 20
4.559186
 30
0.0
 11
4.736680999999999
 21
4.559186
 31
0.0
  0
LINE
  5
157
330
B
100
AcDbEntity
 67
     1
  8
1
  6
Continuous
 62
    18
100
AcDbLine
 10
2.390801999999999
 20
6.207962
 30
0.0
 11
2.390801999999999
 21
6.182526999999999
 31
0.0
  0
LINE
  5
158
330
B
100
AcDbEntity
 67
     1
  8
1
  6
Continuous
 62
    18
100
AcDbLine
 10
2.051841
 20
3.793695999999999
 30
0.0
 11
2.051874
 21
3.683459999999999
 31
0.0
  0
LINE
  5
159
330
B
100
AcDbEntity
 67
     1
  8
1
  6
Continuous
 62
    18
100
AcDbLine
 10
2.401177
 20
3.824322
 30
0.0
 11
2.401915
 21
3.866605999999999
 31
0.0
  0
LINE
  5
15A
330
B
100
AcDbEntity
 67
     1
  8
1
  6
Continuous
 62
    18
100
AcDbLine
 10
2.569309
 20
7.151157
 30
0.0
 11
2.552413
 21
7.151627
 31
0.0
  0
LINE
  5
15B
330
B
100
AcDbEntity
 67
     1
  8
1
  6
Continuous
 62
    18
100
AcDbLine
 10
1.658802
 20
4.423999999999999
 30
0.0
 11
1.658802
 21
4.416928999999999
 31
0.0
  0
LINE
  5
15C
330
B
100
AcDbEntity
 67
     1
  8
1
  6
Continuous
 62
    18
100
AcDbLine
 10
1.835325
 20
4.363895999999999
 30
0.0
 11
1.835325
 21
4.131897
 31
0.0
  0
LINE
  5
15D
330
B
100
AcDbEntity
 67
     1
  8
1
  6
Continuous
 62
    18
100
AcDbLine
 10
5.429591
 20
4.061893
 30
0.0
 11
5.197023999999999
 21
4.061893
 31
0.0
  0
LINE
  5
15E
330
B
100
AcDbEntity
 67
     1
  8
1
  6
Continuous
 62
    18
100
AcDbLine
 10
2.505748
 20
5.975062
 30
0.0
 11
2.578679
 21
5.975062
 31
0.0
  0
LINE
  5
15F
330
B
100
AcDbEntity
 67
     1
  8
1
  6
Continuous
 62
    18
100
AcDbLine
 10
1.705347999999999
 20
7.378731
 30
0.0
 11
1.711883999999999
 21
7.378731
 31
0.0
  0
LINE
  5
160
330
B
100
AcDbEntity
 67
     1
  8
1
  6
Continuous
 62
    18
100
AcDbLine
 10
1.721975
 20
4.482169999999999
 30
0.0
 11
1.716459999999999
 21
4.48133
 31
0.0
  0
LINE
  5
161
330
B
100
AcDbEntity
 67
     1
  8
1
  6
Continuous
 62
    18
100
AcDbLine
 10
4.344454999999999
 20
4.159587999999999
 30
0.0
 11
4.34471
 21
4.159360999999999
 31
0.0
  0
LINE
  5
162
330
B
100
AcDbEntity
 67
     1
  8
1
  6
Continuous
 62
    18
100
AcDbLine
 10
2.594440999999999
 20
6.142294
 30
0.0
 11
2.588347
 21
6.142294
 31
0.0
  0
LINE
  5
163
330
B
100
AcDbEntity
 67
     1
  8
1
  6
Continuous
 62
    18
100
AcDbLine
 10
1.763220999999999
 20
6.808567999999999
 30
0.0
 11
1.765718999999999
 21
6.737033999999999
 31
0.0
  0
LINE
  5
164
330
B
100
AcDbEntity
 67
     1
  8
1
  6
Continuous
 62
    18
100
AcDbLine
 10
1.662984999999999
 20
4.443608999999999
 30
0.0
 11
1.661275999999999
 21
4.439187999999999
 31
0.0
  0
LINE
  5
165
330
B
100
AcDbEntity
 67
     1
  8
1
  6
Continuous
 62
    18
100
AcDbLine
 10
4.498801
 20
4.375701
 30
0.0
 11
4.301762999999999
 21
4.178662999999999
 31
0.0
  0
LINE
  5
166
330
B
100
AcDbEntity
 67
     1
  8
1
  6
Continuous
 62
    18
100
AcDbLine
 10
2.294954999999999
 20
3.766252999999999
 30
0.0
 11
2.295786999999999
 21
3.767084999999999
 31
0.0
  0
LINE
  5
167
330
B
100
AcDbEntity
 67
     1
  8
1
  6
Continuous
 62
    18
100
AcDbLine
 10
1.801928
 20
6.124804
 30
0.0
 11
1.802712999999999
 21
6.124405
 31
0.0
  0
LINE
  5
168
330
B
100
AcDbEntity
 67
     1
  8
1
  6
Continuous
 62
    18
100
AcDbLine
 10
1.865324999999999
 20
4.131897
 30
0.0
 11
1.835325
 21
4.131897
 31
0.0
  0
LINE
  5
169
330
B
100
AcDbEntity
 67
     1
  8
1
  6
Continuous
 62
    18
100
AcDbLine
 10
1.751241
 20
7.151622999999999
 30
0.0
 11
1.753100999999999
 21
7.098366
 31
0.0
  0
LINE
  5
16A
330
B
100
AcDbEntity
 67
     1
  8
1
  6
Continuous
 62
    18
100
AcDbLine
 10
1.815281
 20
4.343348999999999
 30
0.0
 11
1.815316999999999
 21
4.343005999999999
 31
0.0
  0
LINE
  5
16B
330
B
100
AcDbEntity
 67
     1
  8
1
  6
Continuous
 62
    18
100
AcDbLine
 10
1.658897999999999
 20
6.526968
 30
0.0
 11
1.658876999999999
 21
6.525606999999999
 31
0.0
  0
LINE
  5
16C
330
B
100
AcDbEntity
 67
     1
  8
1
  6
Continuous
 62
    18
100
AcDbLine
 10
2.452773
 20
3.613848999999999
 30
0.0
 11
1.850420999999999
 21
3.613848999999999
 31
0.0
  0
LINE
  5
16D
330
B
100
AcDbEntity
 67
     1
  8
1
  6
Continuous
 62
    18
100
AcDbLine
 10
1.797859999999999
 20
6.093544
 30
0.0
 11
1.797652999999999
 21
6.073351
 31
0.0
  0
LINE
  5
16E
330
B
100
AcDbEntity
 67
     1
  8
1
  6
Continuous
 62
    18
100
AcDbLine
 10
2.537474
 20
6.605511999999999
 30
0.0
 11
2.537166
 21
6.629052
 31
0.0
  0
LINE
  5
16F
330
B
100
AcDbEntity
 67
     1
  8
1
  6
Continuous
 62
    18
100
AcDbLine
 10
1.680100999999999
 20
4.375554
 30
0.0
 11
1.684106
 21
4.372582
 31
0.0
  0
LINE
  5
170
330
B
100
AcDbEntity
 67
     1
  8
1
  6
Continuous
 62
    18
100
AcDbLine
 10
1.692913
 20
6.478733
 30
0.0
 11
1.697675999999999
 21
6.476526999999999
 31
0.0
  0
LINE
  5
171
330
B
100
AcDbEntity
 67
     1
  8
1
  6
Continuous
 62
    18
100
AcDbLine
 10
1.720747
 20
4.502842
 30
0.0
 11
1.721109999999999
 21
4.513246999999999
 31
0.0
  0
LINE
  5
172
330
B
100
AcDbEntity
 67
     1
  8
1
  6
Continuous
 62
    18
100
AcDbLine
 10
1.714846999999999
 20
6.142294
 30
0.0
 11
1.708752
 21
6.142294
 31
0.0
  0
LINE
  5
173
330
B
100
AcDbEntity
 67
     1
  8
1
  6
Continuous
 62
    18
100
AcDbLine
 10
2.582083
 20
6.689642
 30
0.0
 11
2.581955999999999
 21
6.671272999999999
 31
0.0
  0
LINE
  5
174
330
B
100
AcDbEntity
 67
     1
  8
1
  6
Continuous
 62
    18
100
AcDbLine
 10
1.849813999999999
 20
3.683423999999999
 30
0.0
 11
1.849813
 21
3.683459999999999
 31
0.0
  0
LINE
  5
175
330
B
100
AcDbEntity
 67
     1
  8
1
  6
Continuous
 62
    18
100
AcDbLine
 10
1.711016999999999
 20
6.591518999999999
 30
0.0
 11
1.705696999999999
 21
6.590041999999999
 31
0.0
  0
LINE
  5
176
330
B
100
AcDbEntity
 67
     1
  8
1
  6
Continuous
 62
    18
100
AcDbLine
 10
1.703616999999999
 20
4.012322
 30
0.0
 11
1.703997999999999
 21
4.023232
 31
0.0
  0
LINE
  5
177
330
B
100
AcDbEntity
 67
     1
  8
1
  6
Continuous
 62
    18
100
AcDbLine
 10
2.299322999999999
 20
6.141262
 30
0.0
 11
2.295113
 21
6.145512
 31
0.0
  0
LINE
  5
178
330
B
100
AcDbEntity
 67
     1
  8
1
  6
Continuous
 62
    18
100
AcDbLine
 10
1.733802
 20
4.370967
 30
0.0
 11
1.733802
 21
4.385108999999999
 31
0.0
  0
LINE
  5
179
330
B
100
AcDbEntity
 67
     1
  8
1
  6
Continuous
 62
    18
100
AcDbLine
 10
1.703616999999999
 20
7.380461999999999
 30
0.0
 11
1.70704
 21
7.397677
 31
0.0
  0
LINE
  5
17A
330
B
100
AcDbEntity
 67
     1
  8
1
  6
Continuous
 62
    18
100
AcDbLine
 10
1.702075999999999
 20
3.972322
 30
0.0
 11
1.702075999999999
 21
3.997583999999999
 31
0.0
  0
LINE
  5
17B
330
B
100
AcDbEntity
 67
     1
  8
1
  6
Continuous
 62
    18
100
AcDbLine
 10
1.660013
 20
6.546114
 30
0.0
 11
1.659215
 21
6.541605999999999
 31
0.0
  0
LINE
  5
17C
330
B
100
AcDbEntity
 67
     1
  8
1
  6
Continuous
 62
    18
100
AcDbLine
 10
1.815324999999999
 20
6.447091
 30
0.0
 11
1.815324999999999
 21
6.454034
 31
0.0
  0
LINE
  5
17D
330
B
100
AcDbEntity
 67
     1
  8
1
  6
Continuous
 62
    18
100
AcDbLine
 10
2.466031999999999
 20
4.134387
 30
0.0
 11
2.453301999999999
 21
4.137621
 31
0.0
  0
LINE
  5
17E
330
B
100
AcDbEntity
 67
     1
  8
1
  6
Continuous
 62
    18
100
AcDbLine
 10
1.743547
 20
6.610033
 30
0.0
 11
1.727134999999999
 21
6.621643999999999
 31
0.0
  0
LINE
  5
17F
330
B
100
AcDbEntity
 67
     1
  8
1
  6
Continuous
 62
    18
100
AcDbLine
 10
1.863702999999999
 20
3.884337
 30
0.0
 11
1.863713
 21
3.852072
 31
0.0
  0
LINE
  5
180
330
B
100
AcDbEntity
 67
     1
  8
1
  6
Continuous
 62
    18
100
AcDbLine
 10
1.812184
 20
6.460123999999999
 30
0.0
 11
1.813325999999999
 21
6.458823
 31
0.0
  0
LINE
  5
181
330
B
100
AcDbEntity
 67
     1
  8
1
  6
Continuous
 62
    18
100
AcDbLine
 10
1.835325
 20
6.193336
 30
0.0
 11
1.835325
 21
6.170444999999999
 31
0.0
  0
LINE
  5
182
330
B
100
AcDbEntity
 67
     1
  8
1
  6
Continuous
 62
    18
100
AcDbLine
 10
4.460563999999999
 20
3.774419999999999
 30
0.0
 11
4.464856
 21
3.793012
 31
0.0
  0
LINE
  5
183
330
B
100
AcDbEntity
 67
     1
  8
1
  6
Continuous
 62
    18
100
AcDbLine
 10
1.703616999999999
 20
5.973682
 30
0.0
 11
1.703616999999999
 21
6.133102
 31
0.0
  0
LINE
  5
184
330
B
100
AcDbEntity
 67
     1
  8
1
  6
Continuous
 62
    18
100
AcDbLine
 10
2.295757
 20
3.866445999999999
 30
0.0
 11
2.295786999999999
 21
3.767084999999999
 31
0.0
  0
LINE
  5
185
330
B
100
AcDbEntity
 67
     1
  8
1
  6
Continuous
 62
    18
100
AcDbLine
 10
1.703618
 20
6.143979999999999
 30
0.0
 11
1.702075999999999
 21
6.143979999999999
 31
0.0
  0
LINE
  5
186
330
B
100
AcDbEntity
 67
     1
  8
1
  6
Continuous
 62
    18
100
AcDbLine
 10
1.821183
 20
6.212035
 30
0.0
 11
1.815324999999999
 21
6.222034999999999
 31
0.0
  0
LINE
  5
187
330
B
100
AcDbEntity
 67
     1
  8
1
  6
Continuous
 62
    18
100
AcDbLine
 10
2.499862999999999
 20
4.063951999999999
 30
0.0
 11
2.499754999999999
 21
4.057451
 31
0.0
  0
LINE
  5
188
330
B
100
AcDbEntity
 67
     1
  8
1
  6
Continuous
 62
    18
100
AcDbLine
 10
5.504246
 20
3.905901
 30
0.0
 11
4.024512999999999
 21
3.905901
 31
0.0
  0
LINE
  5
189
330
B
100
AcDbEntity
 67
     1
  8
1
  6
Continuous
 62
    18
100
AcDbLine
 10
2.599575999999999
 20
5.973682
 30
0.0
 11
2.599575999999999
 21
6.136383999999999
 31
0.0
  0
LINE
  5
18A
330
B
100
AcDbEntity
 67
     1
  8
1
  6
Continuous
 62
    18
100
AcDbLine
 10
1.667236999999999
 20
3.905901
 30
0.0
 11
2.62139
 21
3.905901
 31
0.0
  0
LINE
  5
18B
330
B
100
AcDbEntity
 67
     1
  8
1
  6
Continuous
 62
    18
100
AcDbLine
 10
1.668838
 20
7.462299
 30
0.0
 11
1.668838
 21
7.466783999999999
 31
0.0
  0
LINE
  5
18C
330
B
100
AcDbEntity
 67
     1
  8
1
  6
Continuous
 62
    18
100
AcDbLine
 10
2.340802
 20
6.193336
 30
0.0
 11
2.340802
 21
6.201211999999999
 31
0.0
  0
LINE
  5
18D
330
B
100
AcDbEntity
 67
     1
  8
1
  6
Continuous
 62
    18
100
AcDbLine
 10
1.802849
 20
4.060705
 30
0.0
 11
1.85988
 21
4.060705
 31
0.0
  0
LINE
  5
18E
330
B
100
AcDbEntity
 67
     1
  8
1
  6
Continuous
 62
    18
100
AcDbLine
 10
5.536326999999999
 20
3.821255
 30
0.0
 11
5.536326999999999
 21
3.801569999999999
 31
0.0
  0
LINE
  5
18F
330
B
100
AcDbEntity
 67
     1
  8
1
  6
Continuous
 62
    18
100
AcDbLine
 10
2.497400999999999
 20
6.243545
 30
0.0
 11
2.497765
 21
6.236473999999999
 31
0.0
  0
LINE
  5
190
330
B
100
AcDbEntity
 67
     1
  8
1
  6
Continuous
 62
    18
100
AcDbLine
 10
1.968668999999999
 20
3.751259999999999
 30
0.0
 11
1.958061
 21
3.755652999999999
 31
0.0
  0
LINE
  5
191
330
B
100
AcDbEntity
 67
     1
  8
1
  6
Continuous
 62
    18
100
AcDbLine
 10
2.61979
 20
7.462299
 30
0.0
 11
2.61979
 21
7.466783999999999
 31
0.0
  0
LINE
  5
192
330
B
100
AcDbEntity
 67
     1
  8
1
  6
Continuous
 62
    18
100
AcDbLine
 10
1.694911
 20
6.486638
 30
0.0
 11
1.712755
 21
6.478207
 31
0.0
  0
LINE
  5
193
330
B
100
AcDbEntity
 67
     1
  8
1
  6
Continuous
 62
    18
100
AcDbLine
 10
2.390801999999999
 20
4.057451
 30
0.0
 11
2.390801999999999
 21
4.063951999999999
 31
0.0
  0
LINE
  5
194
330
B
100
AcDbEntity
 67
     1
  8
1
  6
Continuous
 62
    18
100
AcDbLine
 10
4.026112999999999
 20
3.997583999999999
 30
0.0
 11
4.024512999999999
 21
3.905901
 31
0.0
  0
LINE
  5
195
330
B
100
AcDbEntity
 67
     1
  8
1
  6
Continuous
 62
    18
100
AcDbLine
 10
2.500516999999999
 20
6.116291999999999
 30
0.0
 11
2.500554
 21
6.098682
 31
0.0
  0
LINE
  5
196
330
B
100
AcDbEntity
 67
     1
  8
1
  6
Continuous
 62
    18
100
AcDbLine
 10
2.394870999999999
 20
3.805066999999999
 30
0.0
 11
2.375738
 21
3.801262999999999
 31
0.0
  0
LINE
  5
197
330
B
100
AcDbEntity
 67
     1
  8
1
  6
Continuous
 62
    18
100
AcDbLine
 10
2.62139
 20
5.958655
 30
0.0
 11
2.61979
 21
5.960255999999999
 31
0.0
  0
LINE
  5
198
330
B
100
AcDbEntity
 67
     1
  8
1
  6
Continuous
 62
    18
100
AcDbLine
 10
1.733802
 20
6.581313
 30
0.0
 11
1.733802
 21
6.567171
 31
0.0
  0
LINE
  5
199
330
B
100
AcDbEntity
 67
     1
  8
1
  6
Continuous
 62
    18
100
AcDbLine
 10
1.859906
 20
4.057776
 30
0.0
 11
1.802688999999999
 21
4.057776
 31
0.0
  0
LINE
  5
19A
330
B
100
AcDbEntity
 67
     1
  8
1
  6
Continuous
 62
    18
100
AcDbLine
 10
1.799209999999999
 20
4.178662999999999
 30
0.0
 11
1.803234999999999
 21
4.178662999999999
 31
0.0
  0
LINE
  5
19B
330
B
100
AcDbEntity
 67
     1
  8
1
  6
Continuous
 62
    18
100
AcDbLine
 10
5.217081999999999
 20
4.108746
 30
0.0
 11
5.234295999999999
 21
4.105322
 31
0.0
  0
LINE
  5
19C
330
B
100
AcDbEntity
 67
     1
  8
1
  6
Continuous
 62
    18
100
AcDbLine
 10
1.859918
 20
6.141725
 30
0.0
 11
1.859981
 21
6.147406
 31
0.0
  0
LINE
  5
19D
330
B
100
AcDbEntity
 67
     1
  8
1
  6
Continuous
 62
    18
100
AcDbLine
 10
2.602376
 20
3.997583999999999
 30
0.0
 11
2.602376
 21
3.972322
 31
0.0
  0
LINE
  5
19E
330
B
100
AcDbEntity
 67
     1
  8
1
  6
Continuous
 62
    18
100
AcDbLine
 10
2.467443999999999
 20
6.21776
 30
0.0
 11
2.453301999999999
 21
6.213617
 31
0.0
  0
LINE
  5
19F
330
B
100
AcDbEntity
 67
     1
  8
1
  6
Continuous
 62
    18
100
AcDbLine
 10
1.801928
 20
4.082341
 30
0.0
 11
1.801311
 21
4.104359999999999
 31
0.0
  0
LINE
  5
1A0
330
B
100
AcDbEntity
 67
     1
  8
1
  6
Continuous
 62
    18
100
AcDbLine
 10
1.728647999999999
 20
4.175341
 30
0.0
 11
1.728377
 21
4.1656
 31
0.0
  0
LINE
  5
1A1
330
B
100
AcDbEntity
 67
     1
  8
1
  6
Continuous
 62
    18
100
AcDbLine
 10
2.630393
 20
7.462388999999999
 30
0.0
 11
2.634786999999999
 21
7.451786
 31
0.0
  0
LINE
  5
1A2
330
B
100
AcDbEntity
 67
     1
  8
1
  6
Continuous
 62
    18
100
AcDbLine
 10
5.429591
 20
4.099553
 30
0.0
 11
5.429591
 21
4.105322
 31
0.0
  0
LINE
  5
1A3
330
B
100
AcDbEntity
 67
     1
  8
1
  6
Continuous
 62
    18
100
AcDbLine
 10
1.802712999999999
 20
6.124405
 30
0.0
 11
1.802849
 21
6.129245
 31
0.0
  0
LINE
  5
1A4
330
B
100
AcDbEntity
 67
     1
  8
1
  6
Continuous
 62
    18
100
AcDbLine
 10
2.050741999999999
 20
3.794795999999999
 30
0.0
 11
2.051841
 21
3.793695999999999
 31
0.0
  0
LINE
  5
1A5
330
B
100
AcDbEntity
 67
     1
  8
1
  6
Continuous
 62
    18
100
AcDbLine
 10
2.453301999999999
 20
6.581313
 30
0.0
 11
2.453301999999999
 21
6.588383999999999
 31
0.0
  0
LINE
  5
1A6
330
B
100
AcDbEntity
 67
     1
  8
1
  6
Continuous
 62
    18
100
AcDbLine
 10
2.477075999999999
 20
3.972320999999999
 30
0.0
 11
2.478416
 21
3.977322
 31
0.0
  0
LINE
  5
1A7
330
B
100
AcDbEntity
 67
     1
  8
1
  6
Continuous
 62
    18
100
AcDbLine
 10
2.552872
 20
7.417169
 30
0.0
 11
2.552872
 21
7.400775999999999
 31
0.0
  0
LINE
  5
1A8
330
B
100
AcDbEntity
 67
     1
  8
1
  6
Continuous
 62
    18
100
AcDbLine
 10
4.736680999999999
 20
4.559186
 30
0.0
 11
4.764353999999999
 21
4.550194
 31
0.0
  0
LINE
  5
1A9
330
B
100
AcDbEntity
 67
     1
  8
1
  6
Continuous
 62
    18
100
AcDbLine
 10
2.390801999999999
 20
6.182526999999999
 30
0.0
 11
2.390801999999999
 21
6.160226999999999
 31
0.0
  0
LINE
  5
1AA
330
B
100
AcDbEntity
 67
     1
  8
1
  6
Continuous
 62
    18
100
AcDbLine
 10
2.050741999999999
 20
3.794795999999999
 30
0.0
 11
2.051604
 21
3.683459999999999
 31
0.0
  0
LINE
  5
1AB
330
B
100
AcDbEntity
 67
     1
  8
1
  6
Continuous
 62
    18
100
AcDbLine
 10
2.308783
 20
3.824322
 30
0.0
 11
2.308044999999999
 21
3.866605999999999
 31
0.0
  0
LINE
  5
1AC
330
B
100
AcDbEntity
 67
     1
  8
1
  6
Continuous
 62
    18
100
AcDbLine
 10
2.552872
 20
7.183436
 30
0.0
 11
2.569729999999999
 21
7.180235
 31
0.0
  0
LINE
  5
1AD
330
B
100
AcDbEntity
 67
     1
  8
1
  6
Continuous
 62
    18
100
AcDbLine
 10
2.453301999999999
 20
4.482891
 30
0.0
 11
1.733802
 21
4.482891
 31
0.0
  0
LINE
  5
1AE
330
B
100
AcDbEntity
 67
     1
  8
1
  6
Continuous
 62
    18
100
AcDbLine
 10
5.431321999999999
 20
4.012322
 30
0.0
 11
5.429591
 21
4.061893
 31
0.0
  0
LINE
  5
1AF
330
B
100
AcDbEntity
 67
     1
  8
1
  6
Continuous
 62
    18
100
AcDbLine
 10
1.798035999999999
 20
5.97445
 30
0.0
 11
1.797445999999999
 21
5.975062
 31
0.0
  0
LINE
  5
1B0
330
B
100
AcDbEntity
 67
     1
  8
1
  6
Continuous
 62
    18
100
AcDbLine
 10
2.537166
 20
6.629052
 30
0.0
 11
2.537004
 21
6.656724999999999
 31
0.0
  0
LINE
  5
1B1
330
B
100
AcDbEntity
 67
     1
  8
1
  6
Continuous
 62
    18
100
AcDbLine
 10
1.865324999999999
 20
4.127707
 30
0.0
 11
1.865324999999999
 21
4.131897
 31
0.0
  0
LINE
  5
1B2
330
B
100
AcDbEntity
 67
     1
  8
1
  6
Continuous
 62
    18
100
AcDbLine
 10
1.711883999999999
 20
7.378731
 30
0.0
 11
1.728275999999999
 21
7.378731
 31
0.0
  0
LINE
  5
1B3
330
B
100
AcDbEntity
 67
     1
  8
1
  6
Continuous
 62
    18
100
AcDbLine
 10
1.716459999999999
 20
4.48133
 30
0.0
 11
1.711016999999999
 21
4.480167999999999
 31
0.0
  0
LINE
  5
1B4
330
B
100
AcDbEntity
 67
     1
  8
1
  6
Continuous
 62
    18
100
AcDbLine
 10
4.024923
 20
4.023232
 30
0.0
 11
4.025424
 21
4.037577999999999
 31
0.0
  0
LINE
  5
1B5
330
B
100
AcDbEntity
 67
     1
  8
1
  6
Continuous
 62
    18
100
AcDbLine
 10
2.588347
 20
6.142294
 30
0.0
 11
2.574454
 21
6.142294
 31
0.0
  0
LINE
  5
1B6
330
B
100
AcDbEntity
 67
     1
  8
1
  6
Continuous
 62
    18
100
AcDbLine
 10
1.765718999999999
 20
6.737033999999999
 30
0.0
 11
2.537474
 21
6.737033999999999
 31
0.0
  0
LINE
  5
1B7
330
B
100
AcDbEntity
 67
     1
  8
1
  6
Continuous
 62
    18
100
AcDbLine
 10
1.661275999999999
 20
4.439187999999999
 30
0.0
 11
1.660011999999999
 21
4.434762999999999
 31
0.0
  0
LINE
  5
1B8
330
B
100
AcDbEntity
 67
     1
  8
1
  6
Continuous
 62
    18
100
AcDbLine
 10
4.024541999999999
 20
4.012322
 30
0.0
 11
4.024541999999999
 21
4.012239
 31
0.0
  0
LINE
  5
1B9
330
B
100
AcDbEntity
 67
     1
  8
1
  6
Continuous
 62
    18
100
AcDbLine
 10
2.295757
 20
3.866445999999999
 30
0.0
 11
2.294313999999999
 21
3.865002999999999
 31
0.0
  0
LINE
  5
1BA
330
B
100
AcDbEntity
 67
     1
  8
1
  6
Continuous
 62
    18
100
AcDbLine
 10
1.801928
 20
6.124804
 30
0.0
 11
1.801311
 21
6.128905
 31
0.0
  0
LINE
  5
1BB
330
B
100
AcDbEntity
 67
     1
  8
1
  6
Continuous
 62
    18
100
AcDbLine
 10
1.753100999999999
 20
7.098366
 30
0.0
 11
2.550091999999999
 21
7.098366
 31
0.0
  0
LINE
  5
1BC
330
B
100
AcDbEntity
 67
     1
  8
1
  6
Continuous
 62
    18
100
AcDbLine
 10
1.815316999999999
 20
4.343005999999999
 30
0.0
 11
1.815324999999999
 21
4.342681999999999
 31
0.0
  0
LINE
  5
1BD
330
B
100
AcDbEntity
 67
     1
  8
1
  6
Continuous
 62
    18
100
AcDbLine
 10
1.658876999999999
 20
6.525606999999999
 30
0.0
 11
1.659265999999999
 21
6.521219999999999
 31
0.0
  0
LINE
  5
1BE
330
B
100
AcDbEntity
 67
     1
  8
1
  6
Continuous
 62
    18
100
AcDbLine
 10
2.453078
 20
3.648851
 30
0.0
 11
1.850115
 21
3.648851
 31
0.0
  0
LINE
  5
1BF
330
B
100
AcDbEntity
 67
     1
  8
1
  6
Continuous
 62
    18
100
AcDbLine
 10
1.797445999999999
 20
5.975062
 30
0.0
 11
1.797652999999999
 21
6.073351
 31
0.0
  0
LINE
  5
1C0
330
B
100
AcDbEntity
 67
     1
  8
1
  6
Continuous
 62
    18
100
AcDbLine
 10
2.340802
 20
4.127707
 30
0.0
 11
2.340802
 21
4.131897
 31
0.0
  0
LINE
  5
1C1
330
B
100
AcDbEntity
 67
     1
  8
1
  6
Continuous
 62
    18
100
AcDbLine
 10
1.684106
 20
4.372582
 30
0.0
 11
1.688358999999999
 21
4.369868
 31
0.0
  0
LINE
  5
1C2
330
B
100
AcDbEntity
 67
     1
  8
1
  6
Continuous
 62
    18
100
AcDbLine
 10
1.697675999999999
 20
6.476526999999999
 30
0.0
 11
1.702672999999999
 21
6.474591
 31
0.0
  0
LINE
  5
1C3
330
B
100
AcDbEntity
 67
     1
  8
1
  6
Continuous
 62
    18
100
AcDbLine
 10
1.721109999999999
 20
4.513246999999999
 30
0.0
 11
1.721238
 21
4.516900999999999
 31
0.0
  0
LINE
  5
1C4
330
B
100
AcDbEntity
 67
     1
  8
1
  6
Continuous
 62
    18
100
AcDbLine
 10
1.72874
 20
6.261419999999999
 30
0.0
 11
1.72874
 21
6.142294
 31
0.0
  0
LINE
  5
1C5
330
B
100
AcDbEntity
 67
     1
  8
1
  6
Continuous
 62
    18
100
AcDbLine
 10
2.581955999999999
 20
6.671272999999999
 30
0.0
 11
2.582083
 21
6.652905
 31
0.0
  0
LINE
  5
1C6
330
B
100
AcDbEntity
 67
     1
  8
1
  6
Continuous
 62
    18
100
AcDbLine
 10
1.851067999999999
 20
3.539718
 30
0.0
 11
1.849813999999999
 21
3.683423999999999
 31
0.0
  0
LINE
  5
1C7
330
B
100
AcDbEntity
 67
     1
  8
1
  6
Continuous
 62
    18
100
AcDbLine
 10
1.705696999999999
 20
6.590041999999999
 30
0.0
 11
1.700502999999999
 21
6.588242999999999
 31
0.0
  0
LINE
  5
1C8
330
B
100
AcDbEntity
 67
     1
  8
1
  6
Continuous
 62
    18
100
AcDbLine
 10
1.703997999999999
 20
4.023232
 30
0.0
 11
1.707958999999999
 21
4.136662
 31
0.0
  0
LINE
  5
1C9
330
B
100
AcDbEntity
 67
     1
  8
1
  6
Continuous
 62
    18
100
AcDbLine
 10
2.295113
 20
6.145512
 30
0.0
 11
2.293311
 21
6.148341
 31
0.0
  0
LINE
  5
1CA
330
B
100
AcDbEntity
 67
     1
  8
1
  6
Continuous
 62
    18
100
AcDbLine
 10
1.865324999999999
 20
4.126052999999999
 30
0.0
 11
1.865324999999999
 21
4.127707
 31
0.0
  0
LINE
  5
1CB
330
B
100
AcDbEntity
 67
     1
  8
1
  6
Continuous
 62
    18
100
AcDbLine
 10
1.733802
 20
4.385108999999999
 30
0.0
 11
1.733802
 21
4.399251
 31
0.0
  0
LINE
  5
1CC
330
B
100
AcDbEntity
 67
     1
  8
1
  6
Continuous
 62
    18
100
AcDbLine
 10
1.70704
 20
7.397677
 30
0.0
 11
1.716786
 21
7.412266
 31
0.0
  0
LINE
  5
1CD
330
B
100
AcDbEntity
 67
     1
  8
1
  6
Continuous
 62
    18
100
AcDbLine
 10
1.668838
 20
4.012322
 30
0.0
 11
1.702075999999999
 21
4.012322
 31
0.0
  0
LINE
  5
1CE
330
B
100
AcDbEntity
 67
     1
  8
1
  6
Continuous
 62
    18
100
AcDbLine
 10
1.659215
 20
6.541605999999999
 30
0.0
 11
1.658972
 21
6.538460999999999
 31
0.0
  0
LINE
  5
1CF
330
B
100
AcDbEntity
 67
     1
  8
1
  6
Continuous
 62
    18
100
AcDbLine
 10
1.865324999999999
 20
6.193336
 30
0.0
 11
1.865324999999999
 21
6.201211999999999
 31
0.0
  0
LINE
  5
1D0
330
B
100
AcDbEntity
 67
     1
  8
1
  6
Continuous
 62
    18
100
AcDbLine
 10
2.473301999999999
 20
4.462890999999999
 30
0.0
 11
2.473301999999999
 21
4.126167999999999
 31
0.0
  0
LINE
  5
1D1
330
B
100
AcDbEntity
 67
     1
  8
1
  6
Continuous
 62
    18
100
AcDbLine
 10
1.819113999999999
 20
4.117764
 30
0.0
 11
1.819566
 21
4.118361
 31
0.0
  0
LINE
  5
1D2
330
B
100
AcDbEntity
 67
     1
  8
1
  6
Continuous
 62
    18
100
AcDbLine
 10
1.863713
 20
3.852072
 30
0.0
 11
1.867524
 21
3.832944999999999
 31
0.0
  0
LINE
  5
1D3
330
B
100
AcDbEntity
 67
     1
  8
1
  6
Continuous
 62
    18
100
AcDbLine
 10
1.813325999999999
 20
6.458823
 30
0.0
 11
1.814175
 21
6.4576
 31
0.0
  0
LINE
  5
1D4
330
B
100
AcDbEntity
 67
     1
  8
1
  6
Continuous
 62
    18
100
AcDbLine
 10
1.835325
 20
6.170444999999999
 30
0.0
 11
1.835325
 21
6.15359
 31
0.0
  0
LINE
  5
1D5
330
B
100
AcDbEntity
 67
     1
  8
1
  6
Continuous
 62
    18
100
AcDbLine
 10
4.464856
 20
3.793012
 30
0.0
 11
4.475801
 21
3.808641999999999
 31
0.0
  0
LINE
  5
1D6
330
B
100
AcDbEntity
 67
     1
  8
1
  6
Continuous
 62
    18
100
AcDbLine
 10
1.703616999999999
 20
5.973682
 30
0.0
 11
1.703997999999999
 21
5.974063
 31
0.0
  0
LINE
  5
1D7
330
B
100
AcDbEntity
 67
     1
  8
1
  6
Continuous
 62
    18
100
AcDbLine
 10
2.295786999999999
 20
3.767084999999999
 30
0.0
 11
2.300183
 21
3.756483
 31
0.0
  0
LINE
  5
1D8
330
B
100
AcDbEntity
 67
     1
  8
1
  6
Continuous
 62
    18
100
AcDbLine
 10
1.703618
 20
6.151032999999999
 30
0.0
 11
1.702075999999999
 21
6.151032999999999
 31
0.0
  0
LINE
  5
1D9
330
B
100
AcDbEntity
 67
     1
  8
1
  6
Continuous
 62
    18
100
AcDbLine
 10
1.815324999999999
 20
6.220305
 30
0.0
 11
1.815324999999999
 21
6.221181999999999
 31
0.0
  0
LINE
  5
1DA
330
B
100
AcDbEntity
 67
     1
  8
1
  6
Continuous
 62
    18
100
AcDbLine
 10
2.499754999999999
 20
4.057451
 30
0.0
 11
2.499913
 21
4.054823999999999
 31
0.0
  0
LINE
  5
1DB
330
B
100
AcDbEntity
 67
     1
  8
1
  6
Continuous
 62
    18
100
AcDbLine
 10
5.468421
 20
3.683459999999999
 30
0.0
 11
5.483922999999999
 21
3.683459999999999
 31
0.0
  0
LINE
  5
1DC
330
B
100
AcDbEntity
 67
     1
  8
1
  6
Continuous
 62
    18
100
AcDbLine
 10
2.599575999999999
 20
6.136383999999999
 30
0.0
 11
2.599575999999999
 21
7.380461999999999
 31
0.0
  0
LINE
  5
1DD
330
B
100
AcDbEntity
 67
     1
  8
1
  6
Continuous
 62
    18
100
AcDbLine
 10
2.316149
 20
3.752091999999999
 30
0.0
 11
2.306313999999999
 21
3.756863999999999
 31
0.0
  0
LINE
  5
1DE
330
B
100
AcDbEntity
 67
     1
  8
1
  6
Continuous
 62
    18
100
AcDbLine
 10
1.65384
 20
7.451786
 30
0.0
 11
1.658234
 21
7.462388999999999
 31
0.0
  0
LINE
  5
1DF
330
B
100
AcDbEntity
 67
     1
  8
1
  6
Continuous
 62
    18
100
AcDbLine
 10
2.340802
 20
6.201211999999999
 30
0.0
 11
2.340802
 21
6.207893
 31
0.0
  0
LINE
  5
1E0
330
B
100
AcDbEntity
 67
     1
  8
1
  6
Continuous
 62
    18
100
AcDbLine
 10
1.798035999999999
 20
4.034284999999999
 30
0.0
 11
2.505158
 21
4.034284999999999
 31
0.0
  0
LINE
  5
1E1
330
B
100
AcDbEntity
 67
     1
  8
1
  6
Continuous
 62
    18
100
AcDbLine
 10
5.483922999999999
 20
3.683459999999999
 30
0.0
 11
5.536326999999999
 21
3.801569999999999
 31
0.0
  0
LINE
  5
1E2
330
B
100
AcDbEntity
 67
     1
  8
1
  6
Continuous
 62
    18
100
AcDbLine
 10
2.498588
 20
6.225038999999999
 30
0.0
 11
2.497765
 21
6.236473999999999
 31
0.0
  0
LINE
  5
1E3
330
B
100
AcDbEntity
 67
     1
  8
1
  6
Continuous
 62
    18
100
AcDbLine
 10
1.958061
 20
3.755652999999999
 30
0.0
 11
1.953666999999999
 21
3.766258
 31
0.0
  0
LINE
  5
1E4
330
B
100
AcDbEntity
 67
     1
  8
1
  6
Continuous
 62
    18
100
AcDbLine
 10
1.668838
 20
7.466783999999999
 30
0.0
 11
2.61979
 21
7.466783999999999
 31
0.0
  0
LINE
  5
1E5
330
B
100
AcDbEntity
 67
     1
  8
1
  6
Continuous
 62
    18
100
AcDbLine
 10
1.712755
 20
6.478207
 30
0.0
 11
1.733802
 21
6.475247
 31
0.0
  0
LINE
  5
1E6
330
B
100
AcDbEntity
 67
     1
  8
1
  6
Continuous
 62
    18
100
AcDbLine
 10
2.599575999999999
 20
4.012322
 30
0.0
 11
1.703616999999999
 21
4.012322
 31
0.0
  0
LINE
  5
1E7
330
B
100
AcDbEntity
 67
     1
  8
1
  6
Continuous
 62
    18
100
AcDbLine
 10
5.504246
 20
3.905901
 30
0.0
 11
5.502644999999999
 21
3.997583999999999
 31
0.0
  0
LINE
  5
1E8
330
B
100
AcDbEntity
 67
     1
  8
1
  6
Continuous
 62
    18
100
AcDbLine
 10
2.505158
 20
5.97445
 30
0.0
 11
2.500554
 21
6.098682
 31
0.0
  0
LINE
  5
1E9
330
B
100
AcDbEntity
 67
     1
  8
1
  6
Continuous
 62
    18
100
AcDbLine
 10
2.334959999999999
 20
3.801262999999999
 30
0.0
 11
2.375738
 21
3.801262999999999
 31
0.0
  0
LINE
  5
1EA
330
B
100
AcDbEntity
 67
     1
  8
1
  6
Continuous
 62
    18
100
AcDbLine
 10
2.61979
 20
5.960255999999999
 30
0.0
 11
2.602376
 21
5.960255999999999
 31
0.0
  0
LINE
  5
1EB
330
B
100
AcDbEntity
 67
     1
  8
1
  6
Continuous
 62
    18
100
AcDbLine
 10
1.733802
 20
6.567171
 30
0.0
 11
1.733802
 21
6.553029
 31
0.0
  0
LINE
  5
1EC
330
B
100
AcDbEntity
 67
     1
  8
1
  6
Continuous
 62
    18
100
AcDbLine
 10
1.802638999999999
 20
4.034284999999999
 30
0.0
 11
1.802688999999999
 21
4.057776
 31
0.0
  0
LINE
  5
1ED
330
B
100
AcDbEntity
 67
     1
  8
1
  6
Continuous
 62
    18
100
AcDbLine
 10
1.799209999999999
 20
4.178662999999999
 30
0.0
 11
1.798391
 21
4.175341
 31
0.0
  0
LINE
  5
1EE
330
B
100
AcDbEntity
 67
     1
  8
1
  6
Continuous
 62
    18
100
AcDbLine
 10
5.197023999999999
 20
4.061893
 30
0.0
 11
5.199070999999999
 21
4.083562999999999
 31
0.0
  0
LINE
  5
1EF
330
B
100
AcDbEntity
 67
     1
  8
1
  6
Continuous
 62
    18
100
AcDbLine
 10
1.859918
 20
6.141725
 30
0.0
 11
1.85988
 21
6.133431999999999
 31
0.0
  0
LINE
  5
1F0
330
B
100
AcDbEntity
 67
     1
  8
1
  6
Continuous
 62
    18
100
AcDbLine
 10
2.602376
 20
3.972322
 30
0.0
 11
1.702075999999999
 21
3.972322
 31
0.0
  0
LINE
  5
1F1
330
B
100
AcDbEntity
 67
     1
  8
1
  6
Continuous
 62
    18
100
AcDbLine
 10
2.61979
 20
7.451786
 30
0.0
 11
2.630303
 21
7.451786
 31
0.0
  0
LINE
  5
1F2
330
B
100
AcDbEntity
 67
     1
  8
1
  6
Continuous
 62
    18
100
AcDbLine
 10
2.473301999999999
 20
6.567171
 30
0.0
 11
2.473301999999999
 21
6.227758999999999
 31
0.0
  0
LINE
  5
1F3
330
B
100
AcDbEntity
 67
     1
  8
1
  6
Continuous
 62
    18
100
AcDbLine
 10
1.801311
 20
4.104359999999999
 30
0.0
 11
1.801040999999999
 21
4.123825
 31
0.0
  0
LINE
  5
1F4
330
B
100
AcDbEntity
 67
     1
  8
1
  6
Continuous
 62
    18
100
AcDbLine
 10
1.728377
 20
4.1656
 30
0.0
 11
1.727947
 21
4.150106
 31
0.0
  0
LINE
  5
1F5
330
B
100
AcDbEntity
 67
     1
  8
1
  6
Continuous
 62
    18
100
AcDbLine
 10
2.634786999999999
 20
5.975254
 30
0.0
 11
2.636388
 21
5.973652999999999
 31
0.0
  0
LINE
  5
1F6
330
B
100
AcDbEntity
 67
     1
  8
1
  6
Continuous
 62
    18
100
AcDbLine
 10
5.234295999999999
 20
4.105322
 30
0.0
 11
5.429591
 21
4.105322
 31
0.0
  0
LINE
  5
1F7
330
B
100
AcDbEntity
 67
     1
  8
1
  6
Continuous
 62
    18
100
AcDbLine
 10
1.85988
 20
6.133431999999999
 30
0.0
 11
1.803003999999999
 21
6.133431999999999
 31
0.0
  0
LINE
  5
1F8
330
B
100
AcDbEntity
 67
     1
  8
1
  6
Continuous
 62
    18
100
AcDbLine
 10
2.236785999999999
 20
3.793695999999999
 30
0.0
 11
2.051841
 21
3.793695999999999
 31
0.0
  0
LINE
  5
1F9
330
B
100
AcDbEntity
 67
     1
  8
1
  6
Continuous
 62
    18
100
AcDbLine
 10
1.733802
 20
6.588383999999999
 30
0.0
 11
1.733802
 21
6.581313
 31
0.0
  0
LINE
  5
1FA
330
B
100
AcDbEntity
 67
     1
  8
1
  6
Continuous
 62
    18
100
AcDbLine
 10
2.401177
 20
3.824322
 30
0.0
 11
2.308783
 21
3.824322
 31
0.0
  0
LINE
  5
1FB
330
B
100
AcDbEntity
 67
     1
  8
1
  6
Continuous
 62
    18
100
AcDbLine
 10
2.552872
 20
7.400775999999999
 30
0.0
 11
2.552872
 21
7.378731
 31
0.0
  0
LINE
  5
1FC
330
B
100
AcDbEntity
 67
     1
  8
1
  6
Continuous
 62
    18
100
AcDbLine
 10
4.764353999999999
 20
4.550194
 30
0.0
 11
4.787894
 21
4.533091999999999
 31
0.0
  0
LINE
  5
1FD
330
B
100
AcDbEntity
 67
     1
  8
1
  6
Continuous
 62
    18
100
AcDbLine
 10
2.390801999999999
 20
6.116291999999999
 30
0.0
 11
2.390801999999999
 21
6.111387
 31
0.0
  0
LINE
  5
1FE
330
B
100
AcDbEntity
 67
     1
  8
1
  6
Continuous
 62
    18
100
AcDbLine
 10
2.236752999999999
 20
3.683459999999999
 30
0.0
 11
2.051874
 21
3.683459999999999
 31
0.0
  0
LINE
  5
1FF
330
B
100
AcDbEntity
 67
     1
  8
1
  6
Continuous
 62
    18
100
AcDbLine
 10
2.390801999999999
 20
4.131897
 30
0.0
 11
2.390801999999999
 21
4.131965
 31
0.0
  0
LINE
  5
200
330
B
100
AcDbEntity
 67
     1
  8
1
  6
Continuous
 62
    18
100
AcDbLine
 10
2.569729999999999
 20
7.180235
 30
0.0
 11
2.584131999999999
 21
7.172071
 31
0.0
  0
LINE
  5
201
330
B
100
AcDbEntity
 67
     1
  8
1
  6
Continuous
 62
    18
100
AcDbLine
 10
2.453099
 20
3.651194
 30
0.0
 11
1.850094999999999
 21
3.651194
 31
0.0
  0
LINE
  5
202
330
B
100
AcDbEntity
 67
     1
  8
1
  6
Continuous
 62
    18
100
AcDbLine
 10
4.688191999999999
 20
4.502842
 30
0.0
 11
4.34471
 21
4.159360999999999
 31
0.0
  0
LINE
  5
203
330
B
100
AcDbEntity
 67
     1
  8
1
  6
Continuous
 62
    18
100
AcDbLine
 10
1.797445999999999
 20
5.975062
 30
0.0
 11
1.724515
 21
5.975062
 31
0.0
  0
LINE
  5
204
330
B
100
AcDbEntity
 67
     1
  8
1
  6
Continuous
 62
    18
100
AcDbLine
 10
1.865324999999999
 20
4.126052999999999
 30
0.0
 11
1.865324999999999
 21
4.12158
 31
0.0
  0
LINE
  5
205
330
B
100
AcDbEntity
 67
     1
  8
1
  6
Continuous
 62
    18
100
AcDbLine
 10
1.728275999999999
 20
7.378731
 30
0.0
 11
1.750321
 21
7.378731
 31
0.0
  0
LINE
  5
206
330
B
100
AcDbEntity
 67
     1
  8
1
  6
Continuous
 62
    18
100
AcDbLine
 10
1.711016999999999
 20
4.480167999999999
 30
0.0
 11
1.705696999999999
 21
4.47869
 31
0.0
  0
LINE
  5
207
330
B
100
AcDbEntity
 67
     1
  8
1
  6
Continuous
 62
    18
100
AcDbLine
 10
1.673983
 20
4.459811
 30
0.0
 11
1.670616999999999
 21
4.456018
 31
0.0
  0
LINE
  5
208
330
B
100
AcDbEntity
 67
     1
  8
1
  6
Continuous
 62
    18
100
AcDbLine
 10
4.025424
 20
4.037577999999999
 30
0.0
 11
4.025788999999999
 21
4.048008999999999
 31
0.0
  0
LINE
  5
209
330
B
100
AcDbEntity
 67
     1
  8
1
  6
Continuous
 62
    18
100
AcDbLine
 10
2.575245999999999
 20
6.073351
 30
0.0
 11
2.574815999999999
 21
6.093544
 31
0.0
  0
LINE
  5
20A
330
B
100
AcDbEntity
 67
     1
  8
1
  6
Continuous
 62
    18
100
AcDbLine
 10
1.817415
 20
4.086292
 30
0.0
 11
1.816824
 21
4.088123999999999
 31
0.0
  0
LINE
  5
20B
330
B
100
AcDbEntity
 67
     1
  8
1
  6
Continuous
 62
    18
100
AcDbLine
 10
2.537474
 20
6.737033999999999
 30
0.0
 11
2.539972
 21
6.808567999999999
 31
0.0
  0
LINE
  5
20C
330
B
100
AcDbEntity
 67
     1
  8
1
  6
Continuous
 62
    18
100
AcDbLine
 10
1.660011999999999
 20
4.434762999999999
 30
0.0
 11
1.659215
 21
4.430255
 31
0.0
  0
LINE
  5
20D
330
B
100
AcDbEntity
 67
     1
  8
1
  6
Continuous
 62
    18
100
AcDbLine
 10
1.658802
 20
6.535351
 30
0.0
 11
1.658802
 21
6.52828
 31
0.0
  0
LINE
  5
20E
330
B
100
AcDbEntity
 67
     1
  8
1
  6
Continuous
 62
    18
100
AcDbLine
 10
2.294709999999999
 20
3.683459999999999
 30
0.0
 11
2.294980999999999
 21
3.683459999999999
 31
0.0
  0
LINE
  5
20F
330
B
100
AcDbEntity
 67
     1
  8
1
  6
Continuous
 62
    18
100
AcDbLine
 10
1.801311
 20
6.128905
 30
0.0
 11
1.801040999999999
 21
6.139986
 31
0.0
  0
LINE
  5
210
330
B
100
AcDbEntity
 67
     1
  8
1
  6
Continuous
 62
    18
100
AcDbLine
 10
2.340802
 20
4.109049999999999
 30
0.0
 11
2.340802
 21
4.090955
 31
0.0
  0
LINE
  5
211
330
B
100
AcDbEntity
 67
     1
  8
1
  6
Continuous
 62
    18
100
AcDbLine
 10
2.550091999999999
 20
7.098366
 30
0.0
 11
2.551951999999999
 21
7.151622999999999
 31
0.0
  0
LINE
  5
212
330
B
100
AcDbEntity
 67
     1
  8
1
  6
Continuous
 62
    18
100
AcDbLine
 10
1.658975999999999
 20
4.416866999999999
 30
0.0
 11
1.658897999999999
 21
4.41556
 31
0.0
  0
LINE
  5
213
330
B
100
AcDbEntity
 67
     1
  8
1
  6
Continuous
 62
    18
100
AcDbLine
 10
1.659265999999999
 20
6.521219999999999
 30
0.0
 11
1.660184
 21
6.516881999999999
 31
0.0
  0
LINE
  5
214
330
B
100
AcDbEntity
 67
     1
  8
1
  6
Continuous
 62
    18
100
AcDbLine
 10
2.537474
 20
4.533091999999999
 30
0.0
 11
1.765718999999999
 21
4.533091999999999
 31
0.0
  0
LINE
  5
215
330
B
100
AcDbEntity
 67
     1
  8
1
  6
Continuous
 62
    18
100
AcDbLine
 10
1.753341999999999
 20
6.250904
 30
0.0
 11
1.74045
 21
6.253588999999999
 31
0.0
  0
LINE
  5
216
330
B
100
AcDbEntity
 67
     1
  8
1
  6
Continuous
 62
    18
100
AcDbLine
 10
2.537004
 20
6.656724999999999
 30
0.0
 11
2.537004
 21
6.685821999999999
 31
0.0
  0
LINE
  5
217
330
B
100
AcDbEntity
 67
     1
  8
1
  6
Continuous
 62
    18
100
AcDbLine
 10
1.688358999999999
 20
4.369868
 30
0.0
 11
1.692913
 21
4.367382
 31
0.0
  0
LINE
  5
218
330
B
100
AcDbEntity
 67
     1
  8
1
  6
Continuous
 62
    18
100
AcDbLine
 10
1.702672999999999
 20
6.474591
 30
0.0
 11
1.707833
 21
6.472953999999999
 31
0.0
  0
LINE
  5
219
330
B
100
AcDbEntity
 67
     1
  8
1
  6
Continuous
 62
    18
100
AcDbLine
 10
1.765718999999999
 20
4.533091999999999
 30
0.0
 11
1.743547
 21
4.529346
 31
0.0
  0
LINE
  5
21A
330
B
100
AcDbEntity
 67
     1
  8
1
  6
Continuous
 62
    18
100
AcDbLine
 10
1.727947
 20
6.073351
 30
0.0
 11
1.713984999999999
 21
6.077614999999999
 31
0.0
  0
LINE
  5
21B
330
B
100
AcDbEntity
 67
     1
  8
1
  6
Continuous
 62
    18
100
AcDbLine
 10
2.582083
 20
6.652905
 30
0.0
 11
2.582447
 21
6.637332
 31
0.0
  0
LINE
  5
21C
330
B
100
AcDbEntity
 67
     1
  8
1
  6
Continuous
 62
    18
100
AcDbLine
 10
2.452125999999999
 20
3.539718
 30
0.0
 11
2.45338
 21
3.683423999999999
 31
0.0
  0
LINE
  5
21D
330
B
100
AcDbEntity
 67
     1
  8
1
  6
Continuous
 62
    18
100
AcDbLine
 10
1.700502999999999
 20
6.588242999999999
 30
0.0
 11
1.695489
 21
6.586136999999999
 31
0.0
  0
LINE
  5
21E
330
B
100
AcDbEntity
 67
     1
  8
1
  6
Continuous
 62
    18
100
AcDbLine
 10
1.707958999999999
 20
4.136662
 30
0.0
 11
1.708545999999999
 21
4.153461
 31
0.0
  0
LINE
  5
21F
330
B
100
AcDbEntity
 67
     1
  8
1
  6
Continuous
 62
    18
100
AcDbLine
 10
2.497765
 20
6.236473999999999
 30
0.0
 11
2.473301999999999
 21
6.236448
 31
0.0
  0
LINE
  5
220
330
B
100
AcDbEntity
 67
     1
  8
1
  6
Continuous
 62
    18
100
AcDbLine
 10
1.736411
 20
4.370967
 30
0.0
 11
1.733802
 21
4.370967
 31
0.0
  0
LINE
  5
221
330
B
100
AcDbEntity
 67
     1
  8
1
  6
Continuous
 62
    18
100
AcDbLine
 10
1.716786
 20
7.412266
 30
0.0
 11
1.731375999999999
 21
7.422013
 31
0.0
  0
LINE
  5
222
330
B
100
AcDbEntity
 67
     1
  8
1
  6
Continuous
 62
    18
100
AcDbLine
 10
1.702075999999999
 20
3.997583999999999
 30
0.0
 11
1.668838
 21
3.997583999999999
 31
0.0
  0
LINE
  5
223
330
B
100
AcDbEntity
 67
     1
  8
1
  6
Continuous
 62
    18
100
AcDbLine
 10
1.658972
 20
6.538460999999999
 30
0.0
 11
1.658975999999999
 21
6.535288999999999
 31
0.0
  0
LINE
  5
224
330
B
100
AcDbEntity
 67
     1
  8
1
  6
Continuous
 62
    18
100
AcDbLine
 10
1.865324999999999
 20
6.201211999999999
 30
0.0
 11
1.865324999999999
 21
6.207893
 31
0.0
  0
LINE
  5
225
330
B
100
AcDbEntity
 67
     1
  8
1
  6
Continuous
 62
    18
100
AcDbLine
 10
1.658802
 20
4.416928999999999
 30
0.0
 11
1.663731999999999
 21
4.398019
 31
0.0
  0
LINE
  5
226
330
B
100
AcDbEntity
 67
     1
  8
1
  6
Continuous
 62
    18
100
AcDbLine
 10
1.765599
 20
6.602069
 30
0.0
 11
1.748538999999999
 21
6.60181
 31
0.0
  0
LINE
  5
227
330
B
100
AcDbEntity
 67
     1
  8
1
  6
Continuous
 62
    18
100
AcDbLine
 10
1.867524
 20
3.832944999999999
 30
0.0
 11
1.878365999999999
 21
3.816732
 31
0.0
  0
LINE
  5
228
330
B
100
AcDbEntity
 67
     1
  8
1
  6
Continuous
 62
    18
100
AcDbLine
 10
1.814175
 20
6.4576
 30
0.0
 11
1.814740999999999
 21
6.456527999999999
 31
0.0
  0
LINE
  5
229
330
B
100
AcDbEntity
 67
     1
  8
1
  6
Continuous
 62
    18
100
AcDbLine
 10
1.835325
 20
6.15359
 30
0.0
 11
1.835325
 21
6.147403999999999
 31
0.0
  0
LINE
  5
22A
330
B
100
AcDbEntity
 67
     1
  8
1
  6
Continuous
 62
    18
100
AcDbLine
 10
4.475801
 20
3.808641999999999
 30
0.0
 11
4.491802999999999
 21
3.819033999999999
 31
0.0
  0
LINE
  5
22B
330
B
100
AcDbEntity
 67
     1
  8
1
  6
Continuous
 62
    18
100
AcDbLine
 10
1.703997999999999
 20
5.974063
 30
0.0
 11
1.707958999999999
 21
6.087493
 31
0.0
  0
LINE
  5
22C
330
B
100
AcDbEntity
 67
     1
  8
1
  6
Continuous
 62
    18
100
AcDbLine
 10
2.300183
 20
3.756483
 30
0.0
 11
2.31079
 21
3.752091999999999
 31
0.0
  0
LINE
  5
22D
330
B
100
AcDbEntity
 67
     1
  8
1
  6
Continuous
 62
    18
100
AcDbLine
 10
1.702075999999999
 20
6.151032999999999
 30
0.0
 11
1.702075999999999
 21
5.975254
 31
0.0
  0
LINE
  5
22E
330
B
100
AcDbEntity
 67
     1
  8
1
  6
Continuous
 62
    18
100
AcDbLine
 10
1.815324999999999
 20
6.221181999999999
 30
0.0
 11
1.815324999999999
 21
6.222034999999999
 31
0.0
  0
LINE
  5
22F
330
B
100
AcDbEntity
 67
     1
  8
1
  6
Continuous
 62
    18
100
AcDbLine
 10
2.500357
 20
4.054823999999999
 30
0.0
 11
2.500516999999999
 21
4.051895
 31
0.0
  0
LINE
  5
230
330
B
100
AcDbEntity
 67
     1
  8
1
  6
Continuous
 62
    18
100
AcDbLine
 10
5.468421
 20
3.683459999999999
 30
0.0
 11
5.425802
 21
3.683459999999999
 31
0.0
  0
LINE
  5
231
330
B
100
AcDbEntity
 67
     1
  8
1
  6
Continuous
 62
    18
100
AcDbLine
 10
2.549850999999999
 20
6.251083
 30
0.0
 11
2.537474
 21
6.605511999999999
 31
0.0
  0
LINE
  5
232
330
B
100
AcDbEntity
 67
     1
  8
1
  6
Continuous
 62
    18
100
AcDbLine
 10
2.306313999999999
 20
3.756863999999999
 30
0.0
 11
2.302331999999999
 21
3.767048
 31
0.0
  0
LINE
  5
233
330
B
100
AcDbEntity
 67
     1
  8
1
  6
Continuous
 62
    18
100
AcDbLine
 10
1.658234
 20
7.462388999999999
 30
0.0
 11
1.668838
 21
7.466783999999999
 31
0.0
  0
LINE
  5
234
330
B
100
AcDbEntity
 67
     1
  8
1
  6
Continuous
 62
    18
100
AcDbLine
 10
2.340802
 20
6.207893
 30
0.0
 11
2.390801999999999
 21
6.207893
 31
0.0
  0
LINE
  5
235
330
B
100
AcDbEntity
 67
     1
  8
1
  6
Continuous
 62
    18
100
AcDbLine
 10
2.390801999999999
 20
4.063951999999999
 30
0.0
 11
2.390801999999999
 21
4.081052999999999
 31
0.0
  0
LINE
  5
236
330
B
100
AcDbEntity
 67
     1
  8
1
  6
Continuous
 62
    18
100
AcDbLine
 10
5.506642
 20
3.865002999999999
 30
0.0
 11
5.471599999999999
 21
3.865615
 31
0.0
  0
LINE
  5
237
330
B
100
AcDbEntity
 67
     1
  8
1
  6
Continuous
 62
    18
100
AcDbLine
 10
2.498723
 20
6.223167
 30
0.0
 11
2.498588
 21
6.225038999999999
 31
0.0
  0
LINE
  5
238
330
B
100
AcDbEntity
 67
     1
  8
1
  6
Continuous
 62
    18
100
AcDbLine
 10
1.953666999999999
 20
3.801262999999999
 30
0.0
 11
1.953666999999999
 21
3.766258
 31
0.0
  0
LINE
  5
239
330
B
100
AcDbEntity
 67
     1
  8
1
  6
Continuous
 62
    18
100
AcDbLine
 10
2.636388
 20
5.973652999999999
 30
0.0
 11
2.631994999999999
 21
5.963048
 31
0.0
  0
LINE
  5
23A
330
B
100
AcDbEntity
 67
     1
  8
1
  6
Continuous
 62
    18
100
AcDbLine
 10
1.733802
 20
6.475247
 30
0.0
 11
1.785325
 21
6.475247
 31
0.0
  0
LINE
  5
23B
330
B
100
AcDbEntity
 67
     1
  8
1
  6
Continuous
 62
    18
100
AcDbLine
 10
2.599194999999999
 20
4.023232
 30
0.0
 11
2.596095
 21
4.037577999999999
 31
0.0
  0
LINE
  5
23C
330
B
100
AcDbEntity
 67
     1
  8
1
  6
Continuous
 62
    18
100
AcDbLine
 10
4.059067999999999
 20
3.683423999999999
 30
0.0
 11
4.124568
 21
3.601905
 31
0.0
  0
LINE
  5
23D
330
B
100
AcDbEntity
 67
     1
  8
1
  6
Continuous
 62
    18
100
AcDbLine
 10
2.505748
 20
5.975062
 30
0.0
 11
2.505158
 21
5.97445
 31
0.0
  0
LINE
  5
23E
330
B
100
AcDbEntity
 67
     1
  8
1
  6
Continuous
 62
    18
100
AcDbLine
 10
2.334959999999999
 20
3.766258
 30
0.0
 11
2.334959999999999
 21
3.801262999999999
 31
0.0
  0
LINE
  5
23F
330
B
100
AcDbEntity
 67
     1
  8
1
  6
Continuous
 62
    18
100
AcDbLine
 10
2.602376
 20
5.960255999999999
 30
0.0
 11
2.602376
 21
5.959814999999999
 31
0.0
  0
LINE
  5
240
330
B
100
AcDbEntity
 67
     1
  8
1
  6
Continuous
 62
    18
100
AcDbLine
 10
1.658802
 20
6.528335
 30
0.0
 11
1.664533
 21
6.548612999999999
 31
0.0
  0
LINE
  5
241
330
B
100
AcDbEntity
 67
     1
  8
1
  6
Continuous
 62
    18
100
AcDbLine
 10
1.798391
 20
4.175341
 30
0.0
 11
1.797859999999999
 21
4.1656
 31
0.0
  0
LINE
  5
242
330
B
100
AcDbEntity
 67
     1
  8
1
  6
Continuous
 62
    18
100
AcDbLine
 10
5.199070999999999
 20
4.083562999999999
 30
0.0
 11
5.200819999999999
 21
4.101849999999999
 31
0.0
  0
LINE
  5
243
330
B
100
AcDbEntity
 67
     1
  8
1
  6
Continuous
 62
    18
100
AcDbLine
 10
1.85988
 20
6.133431999999999
 30
0.0
 11
1.85988
 21
6.129245
 31
0.0
  0
LINE
  5
244
330
B
100
AcDbEntity
 67
     1
  8
1
  6
Continuous
 62
    18
100
AcDbLine
 10
2.61979
 20
4.012322
 30
0.0
 11
2.61979
 21
4.008021
 31
0.0
  0
LINE
  5
245
330
B
100
AcDbEntity
 67
     1
  8
1
  6
Continuous
 62
    18
100
AcDbLine
 10
2.630303
 20
7.451786
 30
0.0
 11
2.634786999999999
 21
7.451786
 31
0.0
  0
LINE
  5
246
330
B
100
AcDbEntity
 67
     1
  8
1
  6
Continuous
 62
    18
100
AcDbLine
 10
2.473301999999999
 20
6.574241999999999
 30
0.0
 11
2.467443999999999
 21
6.584241999999999
 31
0.0
  0
LINE
  5
247
330
B
100
AcDbEntity
 67
     1
  8
1
  6
Continuous
 62
    18
100
AcDbLine
 10
1.801040999999999
 20
4.123825
 30
0.0
 11
1.801149
 21
4.138593
 31
0.0
  0
LINE
  5
248
330
B
100
AcDbEntity
 67
     1
  8
1
  6
Continuous
 62
    18
100
AcDbLine
 10
1.760222999999999
 20
4.375701
 30
0.0
 11
1.803651999999999
 21
4.375701
 31
0.0
  0
LINE
  5
249
330
B
100
AcDbEntity
 67
     1
  8
1
  6
Continuous
 62
    18
100
AcDbLine
 10
2.636388
 20
7.453386
 30
0.0
 11
2.634786999999999
 21
7.451786
 31
0.0
  0
LINE
  5
24A
330
B
100
AcDbEntity
 67
     1
  8
1
  6
Continuous
 62
    18
100
AcDbLine
 10
1.835325
 20
4.082888999999999
 30
0.0
 11
1.835325
 21
4.060705999999999
 31
0.0
  0
LINE
  5
24B
330
B
100
AcDbEntity
 67
     1
  8
1
  6
Continuous
 62
    18
100
AcDbLine
 10
4.859428
 20
4.461556999999999
 30
0.0
 11
4.859751999999999
 21
4.457855999999999
 31
0.0
  0
LINE
  5
24C
330
B
100
AcDbEntity
 67
     1
  8
1
  6
Continuous
 62
    18
100
AcDbLine
 10
1.802849
 20
6.129245
 30
0.0
 11
1.85988
 21
6.129245
 31
0.0
  0
LINE
  5
24D
330
B
100
AcDbEntity
 67
     1
  8
1
  6
Continuous
 62
    18
100
AcDbLine
 10
2.237886
 20
3.794795999999999
 30
0.0
 11
2.236785999999999
 21
3.793695999999999
 31
0.0
  0
LINE
  5
24E
330
B
100
AcDbEntity
 67
     1
  8
1
  6
Continuous
 62
    18
100
AcDbLine
 10
2.308783
 20
3.824322
 30
0.0
 11
2.295768999999999
 21
3.824322
 31
0.0
  0
LINE
  5
24F
330
B
100
AcDbEntity
 67
     1
  8
1
  6
Continuous
 62
    18
100
AcDbLine
 10
1.750321
 20
7.423703999999998
 30
0.0
 11
2.552872
 21
7.423703999999998
 31
0.0
  0
LINE
  5
250
330
B
100
AcDbEntity
 67
     1
  8
1
  6
Continuous
 62
    18
100
AcDbLine
 10
4.656372
 20
4.533091999999999
 30
0.0
 11
4.660891999999999
 21
4.529346
 31
0.0
  0
LINE
  5
251
330
B
100
AcDbEntity
 67
     1
  8
1
  6
Continuous
 62
    18
100
AcDbLine
 10
2.390801999999999
 20
6.116291999999999
 30
0.0
 11
2.390801999999999
 21
6.119537
 31
0.0
  0
LINE
  5
252
330
B
100
AcDbEntity
 67
     1
  8
1
  6
Continuous
 62
    18
100
AcDbLine
 10
2.236785999999999
 20
3.793695999999999
 30
0.0
 11
2.236752999999999
 21
3.683459999999999
 31
0.0
  0
LINE
  5
253
330
B
100
AcDbEntity
 67
     1
  8
1
  6
Continuous
 62
    18
100
AcDbLine
 10
2.390801999999999
 20
4.126163
 30
0.0
 11
2.390801999999999
 21
4.128016
 31
0.0
  0
LINE
  5
254
330
B
100
AcDbEntity
 67
     1
  8
1
  6
Continuous
 62
    18
100
AcDbLine
 10
2.584131999999999
 20
7.172071
 30
0.0
 11
2.593982
 21
7.160135
 31
0.0
  0
LINE
  5
255
330
B
100
AcDbEntity
 67
     1
  8
1
  6
Continuous
 62
    18
100
AcDbLine
 10
2.500296
 20
4.126163
 30
0.0
 11
2.390801999999999
 21
4.126163
 31
0.0
  0
LINE
  5
256
330
B
100
AcDbEntity
 67
     1
  8
1
  6
Continuous
 62
    18
100
AcDbLine
 10
4.34471
 20
4.159360999999999
 30
0.0
 11
4.193153999999999
 21
4.159360999999999
 31
0.0
  0
LINE
  5
257
330
B
100
AcDbEntity
 67
     1
  8
1
  6
Continuous
 62
    18
100
AcDbLine
 10
1.724515
 20
5.975062
 30
0.0
 11
1.714586
 21
5.974929
 31
0.0
  0
LINE
  5
258
330
B
100
AcDbEntity
 67
     1
  8
1
  6
Continuous
 62
    18
100
AcDbLine
 10
1.865324999999999
 20
4.12158
 30
0.0
 11
1.865324999999999
 21
4.109049999999999
 31
0.0
  0
LINE
  5
259
330
B
100
AcDbEntity
 67
     1
  8
1
  6
Continuous
 62
    18
100
AcDbLine
 10
2.552872
 20
7.183436
 30
0.0
 11
2.552872
 21
7.378731
 31
0.0
  0
LINE
  5
25A
330
B
100
AcDbEntity
 67
     1
  8
1
  6
Continuous
 62
    18
100
AcDbLine
 10
1.705696999999999
 20
4.47869
 30
0.0
 11
1.700502999999999
 21
4.476891999999999
 31
0.0
  0
LINE
  5
25B
330
B
100
AcDbEntity
 67
     1
  8
1
  6
Continuous
 62
    18
100
AcDbLine
 10
4.025788999999999
 20
4.048008999999999
 30
0.0
 11
4.025921
 21
4.051816
 31
0.0
  0
LINE
  5
25C
330
B
100
AcDbEntity
 67
     1
  8
1
  6
Continuous
 62
    18
100
AcDbLine
 10
2.574815999999999
 20
6.093544
 30
0.0
 11
2.574545999999999
 21
6.117058999999999
 31
0.0
  0
LINE
  5
25D
330
B
100
AcDbEntity
 67
     1
  8
1
  6
Continuous
 62
    18
100
AcDbLine
 10
1.801533
 20
4.095197999999999
 30
0.0
 11
1.807873
 21
4.097941999999999
 31
0.0
  0
LINE
  5
25E
330
B
100
AcDbEntity
 67
     1
  8
1
  6
Continuous
 62
    18
100
AcDbLine
 10
1.750781
 20
7.151627
 30
0.0
 11
1.75057
 21
7.166222
 31
0.0
  0
LINE
  5
25F
330
B
100
AcDbEntity
 67
     1
  8
1
  6
Continuous
 62
    18
100
AcDbLine
 10
1.659215
 20
4.430255
 30
0.0
 11
1.658977999999999
 21
4.427166
 31
0.0
  0
LINE
  5
260
330
B
100
AcDbEntity
 67
     1
  8
1
  6
Continuous
 62
    18
100
AcDbLine
 10
2.453301999999999
 20
6.594241999999999
 30
0.0
 11
1.733802
 21
6.594241999999999
 31
0.0
  0
LINE
  5
261
330
B
100
AcDbEntity
 67
     1
  8
1
  6
Continuous
 62
    18
100
AcDbLine
 10
1.994313999999999
 20
3.865002999999999
 30
0.0
 11
1.99287
 21
3.866445999999999
 31
0.0
  0
LINE
  5
262
330
B
100
AcDbEntity
 67
     1
  8
1
  6
Continuous
 62
    18
100
AcDbLine
 10
1.801040999999999
 20
6.139986
 30
0.0
 11
1.801149
 21
6.156826
 31
0.0
  0
LINE
  5
263
330
B
100
AcDbEntity
 67
     1
  8
1
  6
Continuous
 62
    18
100
AcDbLine
 10
1.715672999999999
 20
7.084224
 30
0.0
 11
1.731881999999999
 21
7.094608
 31
0.0
  0
LINE
  5
264
330
B
100
AcDbEntity
 67
     1
  8
1
  6
Continuous
 62
    18
100
AcDbLine
 10
1.658897999999999
 20
4.41556
 30
0.0
 11
1.658876999999999
 21
4.414255999999999
 31
0.0
  0
LINE
  5
265
330
B
100
AcDbEntity
 67
     1
  8
1
  6
Continuous
 62
    18
100
AcDbLine
 10
1.660184
 20
6.516881999999999
 30
0.0
 11
1.661440999999999
 21
6.512653
 31
0.0
  0
LINE
  5
266
330
B
100
AcDbEntity
 67
     1
  8
1
  6
Continuous
 62
    18
100
AcDbLine
 10
2.537474
 20
4.533091999999999
 30
0.0
 11
2.537208
 21
4.547873
 31
0.0
  0
LINE
  5
267
330
B
100
AcDbEntity
 67
     1
  8
1
  6
Continuous
 62
    18
100
AcDbLine
 10
1.74045
 20
6.253588999999999
 30
0.0
 11
1.72874
 21
6.261419999999999
 31
0.0
  0
LINE
  5
268
330
B
100
AcDbEntity
 67
     1
  8
1
  6
Continuous
 62
    18
100
AcDbLine
 10
2.398801999999999
 20
4.137621
 30
0.0
 11
2.393145
 21
4.135965
 31
0.0
  0
LINE
  5
269
330
B
100
AcDbEntity
 67
     1
  8
1
  6
Continuous
 62
    18
100
AcDbLine
 10
2.537004
 20
6.685821999999999
 30
0.0
 11
2.537166
 21
6.713493999999999
 31
0.0
  0
LINE
  5
26A
330
B
100
AcDbEntity
 67
     1
  8
1
  6
Continuous
 62
    18
100
AcDbLine
 10
1.692913
 20
4.367382
 30
0.0
 11
1.697675999999999
 21
4.365175999999999
 31
0.0
  0
LINE
  5
26B
330
B
100
AcDbEntity
 67
     1
  8
1
  6
Continuous
 62
    18
100
AcDbLine
 10
1.707833
 20
6.472953999999999
 30
0.0
 11
1.713150999999999
 21
6.471614999999999
 31
0.0
  0
LINE
  5
26C
330
B
100
AcDbEntity
 67
     1
  8
1
  6
Continuous
 62
    18
100
AcDbLine
 10
1.743547
 20
4.529346
 30
0.0
 11
1.727134999999999
 21
4.518307
 31
0.0
  0
LINE
  5
26D
330
B
100
AcDbEntity
 67
     1
  8
1
  6
Continuous
 62
    18
100
AcDbLine
 10
1.713984999999999
 20
6.077614999999999
 30
0.0
 11
1.707958999999999
 21
6.087493
 31
0.0
  0
LINE
  5
26E
330
B
100
AcDbEntity
 67
     1
  8
1
  6
Continuous
 62
    18
100
AcDbLine
 10
4.055888999999999
 20
3.865615
 30
0.0
 11
4.020845999999999
 21
3.865002999999999
 31
0.0
  0
LINE
  5
26F
330
B
100
AcDbEntity
 67
     1
  8
1
  6
Continuous
 62
    18
100
AcDbLine
 10
1.785325
 20
4.399251
 30
0.0
 11
1.810324999999999
 21
4.394515
 31
0.0
  0
LINE
  5
270
330
B
100
AcDbEntity
 67
     1
  8
1
  6
Continuous
 62
    18
100
AcDbLine
 10
2.537474
 20
6.737033999999999
 30
0.0
 11
2.559645999999999
 21
6.732514
 31
0.0
  0
LINE
  5
271
330
B
100
AcDbEntity
 67
     1
  8
1
  6
Continuous
 62
    18
100
AcDbLine
 10
2.45338
 20
3.683423999999999
 30
0.0
 11
2.45338
 21
3.683459999999999
 31
0.0
  0
LINE
  5
272
330
B
100
AcDbEntity
 67
     1
  8
1
  6
Continuous
 62
    18
100
AcDbLine
 10
1.695489
 20
6.586136999999999
 30
0.0
 11
1.690658999999999
 21
6.583717
 31
0.0
  0
LINE
  5
273
330
B
100
AcDbEntity
 67
     1
  8
1
  6
Continuous
 62
    18
100
AcDbLine
 10
1.708545999999999
 20
4.153461
 30
0.0
 11
1.708752
 21
4.159360999999999
 31
0.0
  0
LINE
  5
274
330
B
100
AcDbEntity
 67
     1
  8
1
  6
Continuous
 62
    18
100
AcDbLine
 10
2.390801999999999
 20
6.207893
 30
0.0
 11
2.390801999999999
 21
6.207961
 31
0.0
  0
LINE
  5
275
330
B
100
AcDbEntity
 67
     1
  8
1
  6
Continuous
 62
    18
100
AcDbLine
 10
1.733802
 20
4.482891
 30
0.0
 11
1.733802
 21
4.481367999999999
 31
0.0
  0
LINE
  5
276
330
B
100
AcDbEntity
 67
     1
  8
1
  6
Continuous
 62
    18
100
AcDbLine
 10
1.731375999999999
 20
7.422013
 30
0.0
 11
1.74859
 21
7.425435
 31
0.0
  0
LINE
  5
277
330
B
100
AcDbEntity
 67
     1
  8
1
  6
Continuous
 62
    18
100
AcDbLine
 10
1.652238999999999
 20
3.905901
 30
0.0
 11
1.65384
 21
3.997583999999999
 31
0.0
  0
LINE
  5
278
330
B
100
AcDbEntity
 67
     1
  8
1
  6
Continuous
 62
    18
100
AcDbLine
 10
1.785325
 20
6.469388999999999
 30
0.0
 11
1.787028999999999
 21
6.469359999999999
 31
0.0
  0
LINE
  5
279
330
B
100
AcDbEntity
 67
     1
  8
1
  6
Continuous
 62
    18
100
AcDbLine
 10
1.865324999999999
 20
6.193336
 30
0.0
 11
1.865324999999999
 21
6.170444999999999
 31
0.0
  0
LINE
  5
27A
330
B
100
AcDbEntity
 67
     1
  8
1
  6
Continuous
 62
    18
100
AcDbLine
 10
1.663731999999999
 20
4.398019
 30
0.0
 11
1.677872999999999
 21
4.381596
 31
0.0
  0
LINE
  5
27B
330
B
100
AcDbEntity
 67
     1
  8
1
  6
Continuous
 62
    18
100
AcDbLine
 10
1.748538999999999
 20
6.60181
 30
0.0
 11
1.733813999999999
 21
6.601068999999999
 31
0.0
  0
LINE
  5
27C
330
B
100
AcDbEntity
 67
     1
  8
1
  6
Continuous
 62
    18
100
AcDbLine
 10
1.878365999999999
 20
3.816732
 30
0.0
 11
1.894586999999999
 21
3.805898999999999
 31
0.0
  0
LINE
  5
27D
330
B
100
AcDbEntity
 67
     1
  8
1
  6
Continuous
 62
    18
100
AcDbLine
 10
1.814740999999999
 20
6.456527999999999
 30
0.0
 11
1.815104999999999
 21
6.455544
 31
0.0
  0
LINE
  5
27E
330
B
100
AcDbEntity
 67
     1
  8
1
  6
Continuous
 62
    18
100
AcDbLine
 10
1.819566
 20
6.193176999999999
 30
0.0
 11
1.826558999999999
 21
6.193294999999999
 31
0.0
  0
LINE
  5
27F
330
B
100
AcDbEntity
 67
     1
  8
1
  6
Continuous
 62
    18
100
AcDbLine
 10
2.594647
 20
4.153461
 30
0.0
 11
2.595234
 21
4.136662
 31
0.0
  0
LINE
  5
280
330
B
100
AcDbEntity
 67
     1
  8
1
  6
Continuous
 62
    18
100
AcDbLine
 10
4.491802999999999
 20
3.819033999999999
 30
0.0
 11
4.510533
 21
3.822674999999999
 31
0.0
  0
LINE
  5
281
330
B
100
AcDbEntity
 67
     1
  8
1
  6
Continuous
 62
    18
100
AcDbLine
 10
1.707958999999999
 20
6.087493
 30
0.0
 11
1.708545999999999
 21
6.112637
 31
0.0
  0
LINE
  5
282
330
B
100
AcDbEntity
 67
     1
  8
1
  6
Continuous
 62
    18
100
AcDbLine
 10
2.31079
 20
3.752091999999999
 30
0.0
 11
2.319125999999999
 21
3.752091999999999
 31
0.0
  0
LINE
  5
283
330
B
100
AcDbEntity
 67
     1
  8
1
  6
Continuous
 62
    18
100
AcDbLine
 10
1.702075999999999
 20
5.975254
 30
0.0
 11
1.702075999999999
 21
5.964739999999999
 31
0.0
  0
LINE
  5
284
330
B
100
AcDbEntity
 67
     1
  8
1
  6
Continuous
 62
    18
100
AcDbLine
 10
1.865324999999999
 20
6.207893
 30
0.0
 11
1.835325
 21
6.207893
 31
0.0
  0
LINE
  5
285
330
B
100
AcDbEntity
 67
     1
  8
1
  6
Continuous
 62
    18
100
AcDbLine
 10
2.500516999999999
 20
4.051895
 30
0.0
 11
2.500554
 21
4.034284999999999
 31
0.0
  0
LINE
  5
286
330
B
100
AcDbEntity
 67
     1
  8
1
  6
Continuous
 62
    18
100
AcDbLine
 10
5.425802
 20
3.683459999999999
 30
0.0
 11
5.425735999999999
 21
3.687258999999999
 31
0.0
  0
LINE
  5
287
330
B
100
AcDbEntity
 67
     1
  8
1
  6
Continuous
 62
    18
100
AcDbLine
 10
2.574454
 20
6.261599999999999
 30
0.0
 11
2.562743
 21
6.253769
 31
0.0
  0
LINE
  5
288
330
B
100
AcDbEntity
 67
     1
  8
1
  6
Continuous
 62
    18
100
AcDbLine
 10
2.302331999999999
 20
3.767048
 30
0.0
 11
2.30235
 21
3.824320999999999
 31
0.0
  0
LINE
  5
289
330
B
100
AcDbEntity
 67
     1
  8
1
  6
Continuous
 62
    18
100
AcDbLine
 10
1.65384
 20
7.451786
 30
0.0
 11
1.652238999999999
 21
7.453386
 31
0.0
  0
LINE
  5
28A
330
B
100
AcDbEntity
 67
     1
  8
1
  6
Continuous
 62
    18
100
AcDbLine
 10
2.398801999999999
 20
6.213617
 30
0.0
 11
2.393145
 21
6.211959999999999
 31
0.0
  0
LINE
  5
28B
330
B
100
AcDbEntity
 67
     1
  8
1
  6
Continuous
 62
    18
100
AcDbLine
 10
2.390801999999999
 20
4.063951999999999
 30
0.0
 11
2.499862999999999
 21
4.063951999999999
 31
0.0
  0
LINE
  5
28C
330
B
100
AcDbEntity
 67
     1
  8
1
  6
Continuous
 62
    18
100
AcDbLine
 10
2.501015
 20
6.160226999999999
 30
0.0
 11
2.500825999999999
 21
6.174526999999999
 31
0.0
  0
LINE
  5
28D
330
B
100
AcDbEntity
 67
     1
  8
1
  6
Continuous
 62
    18
100
AcDbLine
 10
1.912888999999999
 20
3.801262999999999
 30
0.0
 11
1.953666999999999
 21
3.801262999999999
 31
0.0
  0
LINE
  5
28E
330
B
100
AcDbEntity
 67
     1
  8
1
  6
Continuous
 62
    18
100
AcDbLine
 10
2.631994999999999
 20
5.963048
 30
0.0
 11
2.62139
 21
5.958655
 31
0.0
  0
LINE
  5
28F
330
B
100
AcDbEntity
 67
     1
  8
1
  6
Continuous
 62
    18
100
AcDbLine
 10
1.785325
 20
6.475247
 30
0.0
 11
1.810324999999999
 21
6.470509999999999
 31
0.0
  0
LINE
  5
290
330
B
100
AcDbEntity
 67
     1
  8
1
  6
Continuous
 62
    18
100
AcDbLine
 10
2.596095
 20
4.037577999999999
 30
0.0
 11
2.588608
 21
4.048008999999999
 31
0.0
  0
LINE
  5
291
330
B
100
AcDbEntity
 67
     1
  8
1
  6
Continuous
 62
    18
100
AcDbLine
 10
4.124568
 20
3.601905
 30
0.0
 11
4.135183999999999
 21
3.905901
 31
0.0
  0
LINE
  5
292
330
B
100
AcDbEntity
 67
     1
  8
1
  6
Continuous
 62
    18
100
AcDbLine
 10
2.505748
 20
5.975062
 30
0.0
 11
2.50554
 21
6.073351
 31
0.0
  0
LINE
  5
293
330
B
100
AcDbEntity
 67
     1
  8
1
  6
Continuous
 62
    18
100
AcDbLine
 10
2.334959999999999
 20
3.766258
 30
0.0
 11
2.330566
 21
3.755652999999999
 31
0.0
  0
LINE
  5
294
330
B
100
AcDbEntity
 67
     1
  8
1
  6
Continuous
 62
    18
100
AcDbLine
 10
2.602376
 20
5.959814999999999
 30
0.0
 11
1.702075999999999
 21
5.959814999999999
 31
0.0
  0
LINE
  5
295
330
B
100
AcDbEntity
 67
     1
  8
1
  6
Continuous
 62
    18
100
AcDbLine
 10
1.664533
 20
6.548612999999999
 30
0.0
 11
1.680797
 21
6.565799
 31
0.0
  0
LINE
  5
296
330
B
100
AcDbEntity
 67
     1
  8
1
  6
Continuous
 62
    18
100
AcDbLine
 10
2.575245999999999
 20
4.150106
 30
0.0
 11
2.574815999999999
 21
4.1656
 31
0.0
  0
LINE
  5
297
330
B
100
AcDbEntity
 67
     1
  8
1
  6
Continuous
 62
    18
100
AcDbLine
 10
1.797859999999999
 20
4.1656
 30
0.0
 11
1.797652999999999
 21
4.150106
 31
0.0
  0
LINE
  5
298
330
B
100
AcDbEntity
 67
     1
  8
1
  6
Continuous
 62
    18
100
AcDbLine
 10
5.200819999999999
 20
4.101849999999999
 30
0.0
 11
5.202016999999999
 21
4.114087999999999
 31
0.0
  0
LINE
  5
299
330
B
100
AcDbEntity
 67
     1
  8
1
  6
Continuous
 62
    18
100
AcDbLine
 10
1.85988
 20
6.129245
 30
0.0
 11
1.859906
 21
6.122174
 31
0.0
  0
LINE
  5
29A
330
B
100
AcDbEntity
 67
     1
  8
1
  6
Continuous
 62
    18
100
AcDbLine
 10
2.61979
 20
4.008021
 30
0.0
 11
2.61979
 21
3.997583999999999
 31
0.0
  0
LINE
  5
29B
330
B
100
AcDbEntity
 67
     1
  8
1
  6
Continuous
 62
    18
100
AcDbLine
 10
2.467443999999999
 20
6.584241999999999
 30
0.0
 11
2.453301999999999
 21
6.588383999999999
 31
0.0
  0
LINE
  5
29C
330
B
100
AcDbEntity
 67
     1
  8
1
  6
Continuous
 62
    18
100
AcDbLine
 10
1.72874
 20
4.178662999999999
 30
0.0
 11
1.799209999999999
 21
4.178662999999999
 31
0.0
  0
LINE
  5
29D
330
B
100
AcDbEntity
 67
     1
  8
1
  6
Continuous
 62
    18
100
AcDbLine
 10
1.994511
 20
5.958655
 30
0.0
 11
1.994831999999999
 21
5.940300999999999
 31
0.0
  0
LINE
  5
29E
330
B
100
AcDbEntity
 67
     1
  8
1
  6
Continuous
 62
    18
100
AcDbLine
 10
4.859751999999999
 20
4.457855999999999
 30
0.0
 11
4.860688999999999
 21
4.447144999999999
 31
0.0
  0
LINE
  5
29F
330
B
100
AcDbEntity
 67
     1
  8
1
  6
Continuous
 62
    18
100
AcDbLine
 10
1.802638999999999
 20
6.098682
 30
0.0
 11
2.500554
 21
6.098682
 31
0.0
  0
LINE
  5
2A0
330
B
100
AcDbEntity
 67
     1
  8
1
  6
Continuous
 62
    18
100
AcDbLine
 10
2.294313999999999
 20
3.865002999999999
 30
0.0
 11
1.994313999999999
 21
3.865002999999999
 31
0.0
  0
LINE
  5
2A1
330
B
100
AcDbEntity
 67
     1
  8
1
  6
Continuous
 62
    18
100
AcDbLine
 10
1.992860999999999
 20
3.824322
 30
0.0
 11
1.977475999999999
 21
3.824322
 31
0.0
  0
LINE
  5
2A2
330
B
100
AcDbEntity
 67
     1
  8
1
  6
Continuous
 62
    18
100
AcDbLine
 10
1.750321
 20
7.423703999999998
 30
0.0
 11
1.750321
 21
7.417169
 31
0.0
  0
LINE
  5
2A3
330
B
100
AcDbEntity
 67
     1
  8
1
  6
Continuous
 62
    18
100
AcDbLine
 10
4.660891999999999
 20
4.529346
 30
0.0
 11
4.672503999999999
 21
4.518307
 31
0.0
  0
LINE
  5
2A4
330
B
100
AcDbEntity
 67
     1
  8
1
  6
Continuous
 62
    18
100
AcDbLine
 10
2.390801999999999
 20
6.119537
 30
0.0
 11
2.390801999999999
 21
6.123362999999999
 31
0.0
  0
LINE
  5
2A5
330
B
100
AcDbEntity
 67
     1
  8
1
  6
Continuous
 62
    18
100
AcDbLine
 10
2.236752999999999
 20
3.683459999999999
 30
0.0
 11
2.237022999999999
 21
3.683459999999999
 31
0.0
  0
LINE
  5
2A6
330
B
100
AcDbEntity
 67
     1
  8
1
  6
Continuous
 62
    18
100
AcDbLine
 10
2.390801999999999
 20
4.128016
 30
0.0
 11
2.390801999999999
 21
4.131897
 31
0.0
  0
LINE
  5
2A7
330
B
100
AcDbEntity
 67
     1
  8
1
  6
Continuous
 62
    18
100
AcDbLine
 10
2.593982
 20
7.160135
 30
0.0
 11
2.597844999999999
 21
7.146163999999999
 31
0.0
  0
LINE
  5
2A8
330
B
100
AcDbEntity
 67
     1
  8
1
  6
Continuous
 62
    18
100
AcDbLine
 10
2.536983
 20
4.560330999999999
 30
0.0
 11
1.766209999999999
 21
4.560330999999999
 31
0.0
  0
LINE
  5
2A9
330
B
100
AcDbEntity
 67
     1
  8
1
  6
Continuous
 62
    18
100
AcDbLine
 10
4.193153999999999
 20
4.159360999999999
 30
0.0
 11
4.163496
 21
4.153461
 31
0.0
  0
LINE
  5
2AA
330
B
100
AcDbEntity
 67
     1
  8
1
  6
Continuous
 62
    18
100
AcDbLine
 10
1.714586
 20
5.974929
 30
0.0
 11
1.707099
 21
5.974565
 31
0.0
  0
LINE
  5
2AB
330
B
100
AcDbEntity
 67
     1
  8
1
  6
Continuous
 62
    18
100
AcDbLine
 10
1.750321
 20
7.378731
 30
0.0
 11
1.750321
 21
7.183436
 31
0.0
  0
LINE
  5
2AC
330
B
100
AcDbEntity
 67
     1
  8
1
  6
Continuous
 62
    18
100
AcDbLine
 10
1.700502999999999
 20
4.476891999999999
 30
0.0
 11
1.695489
 21
4.474785999999999
 31
0.0
  0
LINE
  5
2AD
330
B
100
AcDbEntity
 67
     1
  8
1
  6
Continuous
 62
    18
100
AcDbLine
 10
1.822869999999999
 20
4.128819999999999
 30
0.0
 11
1.815834999999999
 21
4.120927
 31
0.0
  0
LINE
  5
2AE
330
B
100
AcDbEntity
 67
     1
  8
1
  6
Continuous
 62
    18
100
AcDbLine
 10
4.193153999999999
 20
4.178662999999999
 30
0.0
 11
4.312459999999999
 21
4.178662999999999
 31
0.0
  0
LINE
  5
2AF
330
B
100
AcDbEntity
 67
     1
  8
1
  6
Continuous
 62
    18
100
AcDbLine
 10
2.574545999999999
 20
6.117058999999999
 30
0.0
 11
2.574454
 21
6.142294
 31
0.0
  0
LINE
  5
2B0
330
B
100
AcDbEntity
 67
     1
  8
1
  6
Continuous
 62
    18
100
AcDbLine
 10
1.75057
 20
7.166222
 30
0.0
 11
1.750321
 21
7.183436
 31
0.0
  0
LINE
  5
2B1
330
B
100
AcDbEntity
 67
     1
  8
1
  6
Continuous
 62
    18
100
AcDbLine
 10
1.658977999999999
 20
4.427166
 30
0.0
 11
1.658980999999999
 21
4.424051999999999
 31
0.0
  0
LINE
  5
2B2
330
B
100
AcDbEntity
 67
     1
  8
1
  6
Continuous
 62
    18
100
AcDbLine
 10
1.733802
 20
6.469388999999999
 30
0.0
 11
1.785325
 21
6.469388999999999
 31
0.0
  0
LINE
  5
2B3
330
B
100
AcDbEntity
 67
     1
  8
1
  6
Continuous
 62
    18
100
AcDbLine
 10
1.99284
 20
3.767084999999999
 30
0.0
 11
1.993672
 21
3.766252999999999
 31
0.0
  0
LINE
  5
2B4
330
B
100
AcDbEntity
 67
     1
  8
1
  6
Continuous
 62
    18
100
AcDbLine
 10
1.801149
 20
6.156826
 30
0.0
 11
1.801623
 21
6.177570999999999
 31
0.0
  0
LINE
  5
2B5
330
B
100
AcDbEntity
 67
     1
  8
1
  6
Continuous
 62
    18
100
AcDbLine
 10
1.801281
 20
4.105801999999999
 30
0.0
 11
1.801301999999999
 21
4.105801999999999
 31
0.0
  0
LINE
  5
2B6
330
B
100
AcDbEntity
 67
     1
  8
1
  6
Continuous
 62
    18
100
AcDbLine
 10
1.731881999999999
 20
7.094608
 30
0.0
 11
1.753100999999999
 21
7.098366
 31
0.0
  0
LINE
  5
2B7
330
B
100
AcDbEntity
 67
     1
  8
1
  6
Continuous
 62
    18
100
AcDbLine
 10
1.658876999999999
 20
4.414255999999999
 30
0.0
 11
1.659263999999999
 21
4.409869
 31
0.0
  0
LINE
  5
2B8
330
B
100
AcDbEntity
 67
     1
  8
1
  6
Continuous
 62
    18
100
AcDbLine
 10
1.661440999999999
 20
6.512653
 30
0.0
 11
1.663038
 21
6.508537999999999
 31
0.0
  0
LINE
  5
2B9
330
B
100
AcDbEntity
 67
     1
  8
1
  6
Continuous
 62
    18
100
AcDbLine
 10
2.537208
 20
4.547873
 30
0.0
 11
2.53704
 21
4.557164
 31
0.0
  0
LINE
  5
2BA
330
B
100
AcDbEntity
 67
     1
  8
1
  6
Continuous
 62
    18
100
AcDbLine
 10
1.760222999999999
 20
6.447941999999999
 30
0.0
 11
1.753341999999999
 21
6.250904
 31
0.0
  0
LINE
  5
2BB
330
B
100
AcDbEntity
 67
     1
  8
1
  6
Continuous
 62
    18
100
AcDbLine
 10
2.393145
 20
4.135965
 30
0.0
 11
2.390801999999999
 21
4.131965
 31
0.0
  0
LINE
  5
2BC
330
B
100
AcDbEntity
 67
     1
  8
1
  6
Continuous
 62
    18
100
AcDbLine
 10
2.537166
 20
6.713493999999999
 30
0.0
 11
2.537474
 21
6.737033999999999
 31
0.0
  0
LINE
  5
2BD
330
B
100
AcDbEntity
 67
     1
  8
1
  6
Continuous
 62
    18
100
AcDbLine
 10
1.697675999999999
 20
4.365175999999999
 30
0.0
 11
1.702672999999999
 21
4.36324
 31
0.0
  0
LINE
  5
2BE
330
B
100
AcDbEntity
 67
     1
  8
1
  6
Continuous
 62
    18
100
AcDbLine
 10
1.713150999999999
 20
6.471614999999999
 30
0.0
 11
1.71858
 21
6.470587
 31
0.0
  0
LINE
  5
2BF
330
B
100
AcDbEntity
 67
     1
  8
1
  6
Continuous
 62
    18
100
AcDbLine
 10
1.727134999999999
 20
4.518307
 30
0.0
 11
1.720747
 21
4.502842
 31
0.0
  0
LINE
  5
2C0
330
B
100
AcDbEntity
 67
     1
  8
1
  6
Continuous
 62
    18
100
AcDbLine
 10
1.72874
 20
6.142294
 30
0.0
 11
1.728647999999999
 21
6.117058999999999
 31
0.0
  0
LINE
  5
2C1
330
B
100
AcDbEntity
 67
     1
  8
1
  6
Continuous
 62
    18
100
AcDbLine
 10
1.810324999999999
 20
4.394515
 30
0.0
 11
1.828625999999999
 21
4.381573
 31
0.0
  0
LINE
  5
2C2
330
B
100
AcDbEntity
 67
     1
  8
1
  6
Continuous
 62
    18
100
AcDbLine
 10
2.559645999999999
 20
6.732514
 30
0.0
 11
2.576058
 21
6.720902
 31
0.0
  0
LINE
  5
2C3
330
B
100
AcDbEntity
 67
     1
  8
1
  6
Continuous
 62
    18
100
AcDbLine
 10
1.668838
 20
3.997583999999999
 30
0.0
 11
1.668838
 21
4.008021
 31
0.0
  0
LINE
  5
2C4
330
B
100
AcDbEntity
 67
     1
  8
1
  6
Continuous
 62
    18
100
AcDbLine
 10
1.690658999999999
 20
6.583717
 30
0.0
 11
1.686065
 21
6.581
 31
0.0
  0
LINE
  5
2C5
330
B
100
AcDbEntity
 67
     1
  8
1
  6
Continuous
 62
    18
100
AcDbLine
 10
1.708752
 20
4.159360999999999
 30
0.0
 11
1.715241999999999
 21
4.345208
 31
0.0
  0
LINE
  5
2C6
330
B
100
AcDbEntity
 67
     1
  8
1
  6
Continuous
 62
    18
100
AcDbLine
 10
2.390801999999999
 20
6.193336
 30
0.0
 11
2.390801999999999
 21
6.201211999999999
 31
0.0
  0
LINE
  5
2C7
330
B
100
AcDbEntity
 67
     1
  8
1
  6
Continuous
 62
    18
100
AcDbLine
 10
1.733802
 20
4.481367999999999
 30
0.0
 11
1.733802
 21
4.477033
 31
0.0
  0
LINE
  5
2C8
330
B
100
AcDbEntity
 67
     1
  8
1
  6
Continuous
 62
    18
100
AcDbLine
 10
1.705347999999999
 20
7.146163999999999
 30
0.0
 11
1.705347999999999
 21
7.378731
 31
0.0
  0
LINE
  5
2C9
330
B
100
AcDbEntity
 67
     1
  8
1
  6
Continuous
 62
    18
100
AcDbLine
 10
1.667236999999999
 20
3.905901
 30
0.0
 11
1.656631999999999
 21
3.905901
 31
0.0
  0
LINE
  5
2CA
330
B
100
AcDbEntity
 67
     1
  8
1
  6
Continuous
 62
    18
100
AcDbLine
 10
1.787028999999999
 20
6.469359999999999
 30
0.0
 11
1.788720999999999
 21
6.469274999999999
 31
0.0
  0
LINE
  5
2CB
330
B
100
AcDbEntity
 67
     1
  8
1
  6
Continuous
 62
    18
100
AcDbLine
 10
1.865324999999999
 20
6.170444999999999
 30
0.0
 11
1.865324999999999
 21
6.15359
 31
0.0
  0
LINE
  5
2CC
330
B
100
AcDbEntity
 67
     1
  8
1
  6
Continuous
 62
    18
100
AcDbLine
 10
1.677872999999999
 20
4.381596
 30
0.0
 11
1.699365999999999
 21
4.369816
 31
0.0
  0
LINE
  5
2CD
330
B
100
AcDbEntity
 67
     1
  8
1
  6
Continuous
 62
    18
100
AcDbLine
 10
1.733813999999999
 20
6.601068999999999
 30
0.0
 11
1.723597
 21
6.599957
 31
0.0
  0
LINE
  5
2CE
330
B
100
AcDbEntity
 67
     1
  8
1
  6
Continuous
 62
    18
100
AcDbLine
 10
1.894586999999999
 20
3.805898999999999
 30
0.0
 11
1.913720999999999
 21
3.802094999999999
 31
0.0
  0
LINE
  5
2CF
330
B
100
AcDbEntity
 67
     1
  8
1
  6
Continuous
 62
    18
100
AcDbLine
 10
1.815104999999999
 20
6.455544
 30
0.0
 11
1.815281
 21
6.454699999999999
 31
0.0
  0
LINE
  5
2D0
330
B
100
AcDbEntity
 67
     1
  8
1
  6
Continuous
 62
    18
100
AcDbLine
 10
1.826558999999999
 20
6.193294999999999
 30
0.0
 11
1.835325
 21
6.193336
 31
0.0
  0
LINE
  5
2D1
330
B
100
AcDbEntity
 67
     1
  8
1
  6
Continuous
 62
    18
100
AcDbLine
 10
2.595234
 20
4.136662
 30
0.0
 11
2.599194999999999
 21
4.023232
 31
0.0
  0
LINE
  5
2D2
330
B
100
AcDbEntity
 67
     1
  8
1
  6
Continuous
 62
    18
100
AcDbLine
 10
1.825274999999999
 20
4.316476999999999
 30
0.0
 11
1.81799
 21
4.326801999999999
 31
0.0
  0
LINE
  5
2D3
330
B
100
AcDbEntity
 67
     1
  8
1
  6
Continuous
 62
    18
100
AcDbLine
 10
4.510533
 20
3.822674999999999
 30
0.0
 11
5.288145
 21
3.822674999999999
 31
0.0
  0
LINE
  5
2D4
330
B
100
AcDbEntity
 67
     1
  8
1
  6
Continuous
 62
    18
100
AcDbLine
 10
1.708545999999999
 20
6.112637
 30
0.0
 11
1.708752
 21
6.142294
 31
0.0
  0
LINE
  5
2D5
330
B
100
AcDbEntity
 67
     1
  8
1
  6
Continuous
 62
    18
100
AcDbLine
 10
2.319125999999999
 20
3.752091999999999
 30
0.0
 11
2.329734
 21
3.756485
 31
0.0
  0
LINE
  5
2D6
330
B
100
AcDbEntity
 67
     1
  8
1
  6
Continuous
 62
    18
100
AcDbLine
 10
1.702075999999999
 20
5.964739999999999
 30
0.0
 11
1.702075999999999
 21
5.960255999999999
 31
0.0
  0
LINE
  5
2D7
330
B
100
AcDbEntity
 67
     1
  8
1
  6
Continuous
 62
    18
100
AcDbLine
 10
1.865324999999999
 20
6.193336
 30
0.0
 11
1.835325
 21
6.193336
 31
0.0
  0
LINE
  5
2D8
330
B
100
AcDbEntity
 67
     1
  8
1
  6
Continuous
 62
    18
100
AcDbLine
 10
2.505748
 20
4.051816
 30
0.0
 11
2.505158
 21
4.034284999999999
 31
0.0
  0
LINE
  5
2D9
330
B
100
AcDbEntity
 67
     1
  8
1
  6
Continuous
 62
    18
100
AcDbLine
 10
5.425735999999999
 20
3.687258999999999
 30
0.0
 11
5.425553999999999
 21
3.697694
 31
0.0
  0
LINE
  5
2DA
330
B
100
AcDbEntity
 67
     1
  8
1
  6
Continuous
 62
    18
100
AcDbLine
 10
2.562743
 20
6.253769
 30
0.0
 11
2.549850999999999
 21
6.251083
 31
0.0
  0
LINE
  5
2DB
330
B
100
AcDbEntity
 67
     1
  8
1
  6
Continuous
 62
    18
100
AcDbLine
 10
1.986277
 20
3.824320999999999
 30
0.0
 11
1.986295
 21
3.767048
 31
0.0
  0
LINE
  5
2DC
330
B
100
AcDbEntity
 67
     1
  8
1
  6
Continuous
 62
    18
100
AcDbLine
 10
1.667236999999999
 20
7.468383999999999
 30
0.0
 11
1.668838
 21
7.466783999999999
 31
0.0
  0
LINE
  5
2DD
330
B
100
AcDbEntity
 67
     1
  8
1
  6
Continuous
 62
    18
100
AcDbLine
 10
2.393145
 20
6.211959999999999
 30
0.0
 11
2.390801999999999
 21
6.207961
 31
0.0
  0
LINE
  5
2DE
330
B
100
AcDbEntity
 67
     1
  8
1
  6
Continuous
 62
    18
100
AcDbLine
 10
2.390801999999999
 20
4.081052999999999
 30
0.0
 11
2.500404999999999
 21
4.081052999999999
 31
0.0
  0
LINE
  5
2DF
330
B
100
AcDbEntity
 67
     1
  8
1
  6
Continuous
 62
    18
100
AcDbLine
 10
4.026112999999999
 20
3.997583999999999
 30
0.0
 11
4.015509999999999
 21
3.997691999999999
 31
0.0
  0
LINE
  5
2E0
330
B
100
AcDbEntity
 67
     1
  8
1
  6
Continuous
 62
    18
100
AcDbLine
 10
2.500825999999999
 20
6.174526999999999
 30
0.0
 11
2.500325999999999
 21
6.191459
 31
0.0
  0
LINE
  5
2E1
330
B
100
AcDbEntity
 67
     1
  8
1
  6
Continuous
 62
    18
100
AcDbLine
 10
1.912888999999999
 20
3.801262999999999
 30
0.0
 11
1.893756
 21
3.805066999999999
 31
0.0
  0
LINE
  5
2E2
330
B
100
AcDbEntity
 67
     1
  8
1
  6
Continuous
 62
    18
100
AcDbLine
 10
1.667236999999999
 20
5.958655
 30
0.0
 11
2.62139
 21
5.958655
 31
0.0
  0
LINE
  5
2E3
330
B
100
AcDbEntity
 67
     1
  8
1
  6
Continuous
 62
    18
100
AcDbLine
 10
1.810324999999999
 20
6.470509999999999
 30
0.0
 11
1.828625999999999
 21
6.457569
 31
0.0
  0
LINE
  5
2E4
330
B
100
AcDbEntity
 67
     1
  8
1
  6
Continuous
 62
    18
100
AcDbLine
 10
2.588608
 20
4.048008999999999
 30
0.0
 11
2.578679
 21
4.051816
 31
0.0
  0
LINE
  5
2E5
330
B
100
AcDbEntity
 67
     1
  8
1
  6
Continuous
 62
    18
100
AcDbLine
 10
1.694911
 20
4.410642
 30
0.0
 11
1.712755
 21
4.402212
 31
0.0
  0
LINE
  5
2E6
330
B
100
AcDbEntity
 67
     1
  8
1
  6
Continuous
 62
    18
100
AcDbLine
 10
4.174535999999999
 20
3.539718
 30
0.0
 11
4.124568
 21
3.601905
 31
0.0
  0
LINE
  5
2E7
330
B
100
AcDbEntity
 67
     1
  8
1
  6
Continuous
 62
    18
100
AcDbLine
 10
2.50554
 20
6.073351
 30
0.0
 11
2.505333
 21
6.093544
 31
0.0
  0
LINE
  5
2E8
330
B
100
AcDbEntity
 67
     1
  8
1
  6
Continuous
 62
    18
100
AcDbLine
 10
2.330566
 20
3.755652999999999
 30
0.0
 11
2.319958
 21
3.751259999999999
 31
0.0
  0
LINE
  5
2E9
330
B
100
AcDbEntity
 67
     1
  8
1
  6
Continuous
 62
    18
100
AcDbLine
 10
2.599575999999999
 20
6.143979999999999
 30
0.0
 11
2.602376
 21
6.143979999999999
 31
0.0
  0
LINE
  5
2EA
330
B
100
AcDbEntity
 67
     1
  8
1
  6
Continuous
 62
    18
100
AcDbLine
 10
1.680797
 20
6.565799
 30
0.0
 11
1.705118999999999
 21
6.577281
 31
0.0
  0
LINE
  5
2EB
330
B
100
AcDbEntity
 67
     1
  8
1
  6
Continuous
 62
    18
100
AcDbLine
 10
2.574815999999999
 20
4.1656
 30
0.0
 11
2.574545999999999
 21
4.175341
 31
0.0
  0
LINE
  5
2EC
330
B
100
AcDbEntity
 67
     1
  8
1
  6
Continuous
 62
    18
100
AcDbLine
 10
1.797445999999999
 20
4.051816
 30
0.0
 11
1.797652999999999
 21
4.150106
 31
0.0
  0
LINE
  5
2ED
330
B
100
AcDbEntity
 67
     1
  8
1
  6
Continuous
 62
    18
100
AcDbLine
 10
5.202016999999999
 20
4.114087999999999
 30
0.0
 11
5.202486
 21
4.118495999999999
 31
0.0
  0
LINE
  5
2EE
330
B
100
AcDbEntity
 67
     1
  8
1
  6
Continuous
 62
    18
100
AcDbLine
 10
1.86
 20
6.111387
 30
0.0
 11
1.859906
 21
6.122174
 31
0.0
  0
LINE
  5
2EF
330
B
100
AcDbEntity
 67
     1
  8
1
  6
Continuous
 62
    18
100
AcDbLine
 10
2.634786999999999
 20
3.997583999999999
 30
0.0
 11
2.630393
 21
3.997691999999999
 31
0.0
  0
LINE
  5
2F0
330
B
100
AcDbEntity
 67
     1
  8
1
  6
Continuous
 62
    18
100
AcDbLine
 10
2.453301999999999
 20
6.588383999999999
 30
0.0
 11
2.453301999999999
 21
6.592719999999999
 31
0.0
  0
LINE
  5
2F1
330
B
100
AcDbEntity
 67
     1
  8
1
  6
Continuous
 62
    18
100
AcDbLine
 10
1.797652999999999
 20
4.150106
 30
0.0
 11
1.727947
 21
4.150106
 31
0.0
  0
LINE
  5
2F2
330
B
100
AcDbEntity
 67
     1
  8
1
  6
Continuous
 62
    18
100
AcDbLine
 10
2.293795
 20
5.940300999999999
 30
0.0
 11
1.994831999999999
 21
5.940300999999999
 31
0.0
  0
LINE
  5
2F3
330
B
100
AcDbEntity
 67
     1
  8
1
  6
Continuous
 62
    18
100
AcDbLine
 10
4.860688999999999
 20
4.447144999999999
 30
0.0
 11
4.86214
 21
4.430560999999999
 31
0.0
  0
LINE
  5
2F4
330
B
100
AcDbEntity
 67
     1
  8
1
  6
Continuous
 62
    18
100
AcDbLine
 10
1.802638999999999
 20
6.098682
 30
0.0
 11
1.798035999999999
 21
5.97445
 31
0.0
  0
LINE
  5
2F5
330
B
100
AcDbEntity
 67
     1
  8
1
  6
Continuous
 62
    18
100
AcDbLine
 10
1.994313999999999
 20
3.821255
 30
0.0
 11
1.994313999999999
 21
3.865002999999999
 31
0.0
  0
LINE
  5
2F6
330
B
100
AcDbEntity
 67
     1
  8
1
  6
Continuous
 62
    18
100
AcDbLine
 10
1.885081999999999
 20
3.824322
 30
0.0
 11
1.977475999999999
 21
3.824322
 31
0.0
  0
LINE
  5
2F7
330
B
100
AcDbEntity
 67
     1
  8
1
  6
Continuous
 62
    18
100
AcDbLine
 10
1.750321
 20
7.417169
 30
0.0
 11
1.750321
 21
7.400775999999999
 31
0.0
  0
LINE
  5
2F8
330
B
100
AcDbEntity
 67
     1
  8
1
  6
Continuous
 62
    18
100
AcDbLine
 10
4.672503999999999
 20
4.518307
 30
0.0
 11
4.688191999999999
 21
4.502842
 31
0.0
  0
LINE
  5
2F9
330
B
100
AcDbEntity
 67
     1
  8
1
  6
Continuous
 62
    18
100
AcDbLine
 10
2.390801999999999
 20
6.135341999999999
 30
0.0
 11
2.390801999999999
 21
6.123362999999999
 31
0.0
  0
LINE
  5
2FA
330
B
100
AcDbEntity
 67
     1
  8
1
  6
Continuous
 62
    18
100
AcDbLine
 10
2.237886
 20
3.794795999999999
 30
0.0
 11
2.237022999999999
 21
3.683459999999999
 31
0.0
  0
LINE
  5
2FB
330
B
100
AcDbEntity
 67
     1
  8
1
  6
Continuous
 62
    18
100
AcDbLine
 10
1.815324999999999
 20
4.268494
 30
0.0
 11
1.81799
 21
4.277432
 31
0.0
  0
LINE
  5
2FC
330
B
100
AcDbEntity
 67
     1
  8
1
  6
Continuous
 62
    18
100
AcDbLine
 10
2.552872
 20
7.423703999999998
 30
0.0
 11
2.575343
 21
7.417660999999999
 31
0.0
  0
LINE
  5
2FD
330
B
100
AcDbEntity
 67
     1
  8
1
  6
Continuous
 62
    18
100
AcDbLine
 10
1.749155
 20
3.972324
 30
0.0
 11
1.749155
 21
3.977323999999999
 31
0.0
  0
LINE
  5
2FE
330
B
100
AcDbEntity
 67
     1
  8
1
  6
Continuous
 62
    18
100
AcDbLine
 10
1.801154
 20
4.112873
 30
0.0
 11
1.816824
 21
4.112873
 31
0.0
  0
LINE
  5
2FF
330
B
100
AcDbEntity
 67
     1
  8
1
  6
Continuous
 62
    18
100
AcDbLine
 10
4.163496
 20
4.153461
 30
0.0
 11
4.138352999999999
 21
4.136662
 31
0.0
  0
LINE
  5
300
330
B
100
AcDbEntity
 67
     1
  8
1
  6
Continuous
 62
    18
100
AcDbLine
 10
1.707099
 20
5.974565
 30
0.0
 11
1.703997999999999
 21
5.974063
 31
0.0
  0
LINE
  5
301
330
B
100
AcDbEntity
 67
     1
  8
1
  6
Continuous
 62
    18
100
AcDbLine
 10
1.819566
 20
4.118361
 30
0.0
 11
1.819745999999999
 21
4.118580999999999
 31
0.0
  0
LINE
  5
302
330
B
100
AcDbEntity
 67
     1
  8
1
  6
Continuous
 62
    18
100
AcDbLine
 10
1.865324999999999
 20
4.090955
 30
0.0
 11
1.865324999999999
 21
4.070891
 31
0.0
  0
LINE
  5
303
330
B
100
AcDbEntity
 67
     1
  8
1
  6
Continuous
 62
    18
100
AcDbLine
 10
1.750321
 20
7.183436
 30
0.0
 11
1.751241
 21
7.183442999999999
 31
0.0
  0
LINE
  5
304
330
B
100
AcDbEntity
 67
     1
  8
1
  6
Continuous
 62
    18
100
AcDbLine
 10
1.695489
 20
4.474785999999999
 30
0.0
 11
1.690658999999999
 21
4.472366
 31
0.0
  0
LINE
  5
305
330
B
100
AcDbEntity
 67
     1
  8
1
  6
Continuous
 62
    18
100
AcDbLine
 10
4.193153999999999
 20
4.159360999999999
 30
0.0
 11
4.193153999999999
 21
4.173049999999999
 31
0.0
  0
LINE
  5
306
330
B
100
AcDbEntity
 67
     1
  8
1
  6
Continuous
 62
    18
100
AcDbLine
 10
2.595234
 20
6.087493
 30
0.0
 11
2.589208999999999
 21
6.077614999999999
 31
0.0
  0
LINE
  5
307
330
B
100
AcDbEntity
 67
     1
  8
1
  6
Continuous
 62
    18
100
AcDbLine
 10
1.705347999999999
 20
7.146163999999999
 30
0.0
 11
1.709210999999999
 21
7.160135
 31
0.0
  0
LINE
  5
308
330
B
100
AcDbEntity
 67
     1
  8
1
  6
Continuous
 62
    18
100
AcDbLine
 10
1.805388999999999
 20
4.35359
 30
0.0
 11
1.806772999999999
 21
4.352848999999999
 31
0.0
  0
LINE
  5
309
330
B
100
AcDbEntity
 67
     1
  8
1
  6
Continuous
 62
    18
100
AcDbLine
 10
2.340802
 20
6.147403999999999
 30
0.0
 11
2.390801999999999
 21
6.147403999999999
 31
0.0
  0
LINE
  5
30A
330
B
100
AcDbEntity
 67
     1
  8
1
  6
Continuous
 62
    18
100
AcDbLine
 10
1.993916999999999
 20
3.683459999999999
 30
0.0
 11
1.993645999999999
 21
3.683459999999999
 31
0.0
  0
LINE
  5
30B
330
B
100
AcDbEntity
 67
     1
  8
1
  6
Continuous
 62
    18
100
AcDbLine
 10
1.801623
 20
6.177570999999999
 30
0.0
 11
1.802409999999999
 21
6.199937
 31
0.0
  0
LINE
  5
30C
330
B
100
AcDbEntity
 67
     1
  8
1
  6
Continuous
 62
    18
100
AcDbLine
 10
1.715672999999999
 20
7.084224
 30
0.0
 11
2.58752
 21
7.084224
 31
0.0
  0
LINE
  5
30D
330
B
100
AcDbEntity
 67
     1
  8
1
  6
Continuous
 62
    18
100
AcDbLine
 10
1.659263999999999
 20
4.409869
 30
0.0
 11
1.660184
 21
4.405530999999999
 31
0.0
  0
LINE
  5
30E
330
B
100
AcDbEntity
 67
     1
  8
1
  6
Continuous
 62
    18
100
AcDbLine
 10
1.663038
 20
6.508537999999999
 30
0.0
 11
1.66502
 21
6.504533999999999
 31
0.0
  0
LINE
  5
30F
330
B
100
AcDbEntity
 67
     1
  8
1
  6
Continuous
 62
    18
100
AcDbLine
 10
2.53704
 20
4.557164
 30
0.0
 11
2.536983
 21
4.560330999999999
 31
0.0
  0
LINE
  5
310
330
B
100
AcDbEntity
 67
     1
  8
1
  6
Continuous
 62
    18
100
AcDbLine
 10
1.717314
 20
6.470565
 30
0.0
 11
1.726613999999999
 21
6.458784999999999
 31
0.0
  0
LINE
  5
311
330
B
100
AcDbEntity
 67
     1
  8
1
  6
Continuous
 62
    18
100
AcDbLine
 10
2.453301999999999
 20
4.137621
 30
0.0
 11
2.398801999999999
 21
4.137621
 31
0.0
  0
LINE
  5
312
330
B
100
AcDbEntity
 67
     1
  8
1
  6
Continuous
 62
    18
100
AcDbLine
 10
1.765718999999999
 20
6.737033999999999
 30
0.0
 11
1.766027999999999
 21
6.713493999999999
 31
0.0
  0
LINE
  5
313
330
B
100
AcDbEntity
 67
     1
  8
1
  6
Continuous
 62
    18
100
AcDbLine
 10
1.702672999999999
 20
4.36324
 30
0.0
 11
1.707833
 21
4.361602999999999
 31
0.0
  0
LINE
  5
314
330
B
100
AcDbEntity
 67
     1
  8
1
  6
Continuous
 62
    18
100
AcDbLine
 10
1.71858
 20
6.470587
 30
0.0
 11
1.724100999999999
 21
6.469872
 31
0.0
  0
LINE
  5
315
330
B
100
AcDbEntity
 67
     1
  8
1
  6
Continuous
 62
    18
100
AcDbLine
 10
1.765599
 20
4.529649
 30
0.0
 11
1.751445999999999
 21
4.526273
 31
0.0
  0
LINE
  5
316
330
B
100
AcDbEntity
 67
     1
  8
1
  6
Continuous
 62
    18
100
AcDbLine
 10
1.728647999999999
 20
6.117058999999999
 30
0.0
 11
1.728377
 21
6.093544
 31
0.0
  0
LINE
  5
317
330
B
100
AcDbEntity
 67
     1
  8
1
  6
Continuous
 62
    18
100
AcDbLine
 10
1.828625999999999
 20
4.381573
 30
0.0
 11
1.835325
 21
4.363895999999999
 31
0.0
  0
LINE
  5
318
330
B
100
AcDbEntity
 67
     1
  8
1
  6
Continuous
 62
    18
100
AcDbLine
 10
2.576058
 20
6.720902
 30
0.0
 11
2.582447
 21
6.705214999999999
 31
0.0
  0
LINE
  5
319
330
B
100
AcDbEntity
 67
     1
  8
1
  6
Continuous
 62
    18
100
AcDbLine
 10
1.668838
 20
4.008021
 30
0.0
 11
1.668838
 21
4.012322
 31
0.0
  0
LINE
  5
31A
330
B
100
AcDbEntity
 67
     1
  8
1
  6
Continuous
 62
    18
100
AcDbLine
 10
1.686065
 20
6.581
 30
0.0
 11
1.681731
 21
6.577989999999999
 31
0.0
  0
LINE
  5
31B
330
B
100
AcDbEntity
 67
     1
  8
1
  6
Continuous
 62
    18
100
AcDbLine
 10
1.715754
 20
4.359858999999999
 30
0.0
 11
1.715241999999999
 21
4.345209999999999
 31
0.0
  0
LINE
  5
31C
330
B
100
AcDbEntity
 67
     1
  8
1
  6
Continuous
 62
    18
100
AcDbLine
 10
2.390801999999999
 20
6.201211999999999
 30
0.0
 11
2.390801999999999
 21
6.207893
 31
0.0
  0
LINE
  5
31D
330
B
100
AcDbEntity
 67
     1
  8
1
  6
Continuous
 62
    18
100
AcDbLine
 10
1.733802
 20
4.370967
 30
0.0
 11
1.705083
 21
4.375008999999999
 31
0.0
  0
LINE
  5
31E
330
B
100
AcDbEntity
 67
     1
  8
1
  6
Continuous
 62
    18
100
AcDbLine
 10
1.720747
 20
6.705214999999999
 30
0.0
 11
1.705347999999999
 21
7.146163999999999
 31
0.0
  0
LINE
  5
31F
330
B
100
AcDbEntity
 67
     1
  8
1
  6
Continuous
 62
    18
100
AcDbLine
 10
1.656631999999999
 20
3.905901
 30
0.0
 11
1.652238999999999
 21
3.905901
 31
0.0
  0
LINE
  5
320
330
B
100
AcDbEntity
 67
     1
  8
1
  6
Continuous
 62
    18
100
AcDbLine
 10
1.788720999999999
 20
6.469274999999999
 30
0.0
 11
1.792138
 21
6.468926
 31
0.0
  0
LINE
  5
321
330
B
100
AcDbEntity
 67
     1
  8
1
  6
Continuous
 62
    18
100
AcDbLine
 10
1.865324999999999
 20
6.15359
 30
0.0
 11
1.865324999999999
 21
6.147403999999999
 31
0.0
  0
LINE
  5
322
330
B
100
AcDbEntity
 67
     1
  8
1
  6
Continuous
 62
    18
100
AcDbLine
 10
1.699365999999999
 20
4.369816
 30
0.0
 11
1.725386
 21
4.364231
 31
0.0
  0
LINE
  5
323
330
B
100
AcDbEntity
 67
     1
  8
1
  6
Continuous
 62
    18
100
AcDbLine
 10
1.723597
 20
6.599957
 30
0.0
 11
1.719395
 21
6.598636999999999
 31
0.0
  0
LINE
  5
324
330
B
100
AcDbEntity
 67
     1
  8
1
  6
Continuous
 62
    18
100
AcDbLine
 10
1.913720999999999
 20
3.802094999999999
 30
0.0
 11
1.954499
 21
3.802094999999999
 31
0.0
  0
LINE
  5
325
330
B
100
AcDbEntity
 67
     1
  8
1
  6
Continuous
 62
    18
100
AcDbLine
 10
1.815281
 20
6.454699999999999
 30
0.0
 11
1.815316999999999
 21
6.454358
 31
0.0
  0
LINE
  5
326
330
B
100
AcDbEntity
 67
     1
  8
1
  6
Continuous
 62
    18
100
AcDbLine
 10
1.819566
 20
6.193176999999999
 30
0.0
 11
1.819745999999999
 21
6.193662999999999
 31
0.0
  0
LINE
  5
327
330
B
100
AcDbEntity
 67
     1
  8
1
  6
Continuous
 62
    18
100
AcDbLine
 10
2.599575999999999
 20
4.012322
 30
0.0
 11
2.599194999999999
 21
4.023232
 31
0.0
  0
LINE
  5
328
330
B
100
AcDbEntity
 67
     1
  8
1
  6
Continuous
 62
    18
100
AcDbLine
 10
5.288145
 20
3.822674999999999
 30
0.0
 11
5.305666999999999
 21
3.815505999999999
 31
0.0
  0
LINE
  5
329
330
B
100
AcDbEntity
 67
     1
  8
1
  6
Continuous
 62
    18
100
AcDbLine
 10
1.708752
 20
6.142294
 30
0.0
 11
1.708752
 21
6.293670999999999
 31
0.0
  0
LINE
  5
32A
330
B
100
AcDbEntity
 67
     1
  8
1
  6
Continuous
 62
    18
100
AcDbLine
 10
2.329734
 20
3.756485
 30
0.0
 11
2.334127999999999
 21
3.76709
 31
0.0
  0
LINE
  5
32B
330
B
100
AcDbEntity
 67
     1
  8
1
  6
Continuous
 62
    18
100
AcDbLine
 10
1.702075999999999
 20
5.959814999999999
 30
0.0
 11
1.702075999999999
 21
5.960255999999999
 31
0.0
  0
LINE
  5
32C
330
B
100
AcDbEntity
 67
     1
  8
1
  6
Continuous
 62
    18
100
AcDbLine
 10
1.815324999999999
 20
6.222034999999999
 30
0.0
 11
1.815324999999999
 21
6.372773999999999
 31
0.0
  0
LINE
  5
32D
330
B
100
AcDbEntity
 67
     1
  8
1
  6
Continuous
 62
    18
100
AcDbLine
 10
2.505748
 20
4.051816
 30
0.0
 11
2.50554
 21
4.150106
 31
0.0
  0
LINE
  5
32E
330
B
100
AcDbEntity
 67
     1
  8
1
  6
Continuous
 62
    18
100
AcDbLine
 10
4.026112999999999
 20
4.012322
 30
0.0
 11
5.502644999999999
 21
4.012322
 31
0.0
  0
LINE
  5
32F
330
B
100
AcDbEntity
 67
     1
  8
1
  6
Continuous
 62
    18
100
AcDbLine
 10
2.574454
 20
6.261599999999999
 30
0.0
 11
2.583461999999999
 21
6.270737999999999
 31
0.0
  0
LINE
  5
330
330
B
100
AcDbEntity
 67
     1
  8
1
  6
Continuous
 62
    18
100
AcDbLine
 10
1.986295
 20
3.767048
 30
0.0
 11
1.982312999999999
 21
3.756863999999999
 31
0.0
  0
LINE
  5
331
330
B
100
AcDbEntity
 67
     1
  8
1
  6
Continuous
 62
    18
100
AcDbLine
 10
1.652238999999999
 20
7.453386
 30
0.0
 11
1.656631999999999
 21
7.463992
 31
0.0
  0
LINE
  5
332
330
B
100
AcDbEntity
 67
     1
  8
1
  6
Continuous
 62
    18
100
AcDbLine
 10
2.453301999999999
 20
6.213617
 30
0.0
 11
2.398801999999999
 21
6.213617
 31
0.0
  0
LINE
  5
333
330
B
100
AcDbEntity
 67
     1
  8
1
  6
Continuous
 62
    18
100
AcDbLine
 10
2.501014
 20
4.112733
 30
0.0
 11
2.390801999999999
 21
4.112733
 31
0.0
  0
LINE
  5
334
330
B
100
AcDbEntity
 67
     1
  8
1
  6
Continuous
 62
    18
100
AcDbLine
 10
4.015509999999999
 20
3.997691999999999
 30
0.0
 11
4.011116
 21
3.997583999999999
 31
0.0
  0
LINE
  5
335
330
B
100
AcDbEntity
 67
     1
  8
1
  6
Continuous
 62
    18
100
AcDbLine
 10
2.500325999999999
 20
6.191459
 30
0.0
 11
2.499588999999999
 21
6.208514
 31
0.0
  0
LINE
  5
336
330
B
100
AcDbEntity
 67
     1
  8
1
  6
Continuous
 62
    18
100
AcDbLine
 10
1.893756
 20
3.805066999999999
 30
0.0
 11
1.877533999999999
 21
3.8159
 31
0.0
  0
LINE
  5
337
330
B
100
AcDbEntity
 67
     1
  8
1
  6
Continuous
 62
    18
100
AcDbLine
 10
1.667236999999999
 20
7.468383999999999
 30
0.0
 11
2.62139
 21
7.468383999999999
 31
0.0
  0
LINE
  5
338
330
B
100
AcDbEntity
 67
     1
  8
1
  6
Continuous
 62
    18
100
AcDbLine
 10
1.828625999999999
 20
6.457569
 30
0.0
 11
1.835325
 21
6.439891
 31
0.0
  0
LINE
  5
339
330
B
100
AcDbEntity
 67
     1
  8
1
  6
Continuous
 62
    18
100
AcDbLine
 10
2.505748
 20
4.051816
 30
0.0
 11
2.578679
 21
4.051816
 31
0.0
  0
LINE
  5
33A
330
B
100
AcDbEntity
 67
     1
  8
1
  6
Continuous
 62
    18
100
AcDbLine
 10
4.020845999999999
 20
3.821255
 30
0.0
 11
4.020845999999999
 21
3.865002999999999
 31
0.0
  0
LINE
  5
33B
330
B
100
AcDbEntity
 67
     1
  8
1
  6
Continuous
 62
    18
100
AcDbLine
 10
2.505333
 20
6.093544
 30
0.0
 11
2.504802
 21
6.117058999999999
 31
0.0
  0
LINE
  5
33C
330
B
100
AcDbEntity
 67
     1
  8
1
  6
Continuous
 62
    18
100
AcDbLine
 10
2.319958
 20
3.751259999999999
 30
0.0
 11
2.309957999999999
 21
3.751259999999999
 31
0.0
  0
LINE
  5
33D
330
B
100
AcDbEntity
 67
     1
  8
1
  6
Continuous
 62
    18
100
AcDbLine
 10
2.300675999999999
 20
7.468383999999999
 30
0.0
 11
2.300377999999999
 21
7.485466999999999
 31
0.0
  0
LINE
  5
33E
330
B
100
AcDbEntity
 67
     1
  8
1
  6
Continuous
 62
    18
100
AcDbLine
 10
1.705118999999999
 20
6.577281
 30
0.0
 11
1.733802
 21
6.581313
 31
0.0
  0
LINE
  5
33F
330
B
100
AcDbEntity
 67
     1
  8
1
  6
Continuous
 62
    18
100
AcDbLine
 10
2.574545999999999
 20
4.175341
 30
0.0
 11
2.574454
 21
4.178662999999999
 31
0.0
  0
LINE
  5
340
330
B
100
AcDbEntity
 67
     1
  8
1
  6
Continuous
 62
    18
100
AcDbLine
 10
1.760222999999999
 20
4.375701
 30
0.0
 11
1.753341999999999
 21
4.178662999999999
 31
0.0
  0
LINE
  5
341
330
B
100
AcDbEntity
 67
     1
  8
1
  6
Continuous
 62
    18
100
AcDbLine
 10
5.234295999999999
 20
4.105322
 30
0.0
 11
5.231094999999999
 21
4.102045999999999
 31
0.0
  0
LINE
  5
342
330
B
100
AcDbEntity
 67
     1
  8
1
  6
Continuous
 62
    18
100
AcDbLine
 10
1.86
 20
6.111387
 30
0.0
 11
1.859949
 21
6.125529
 31
0.0
  0
LINE
  5
343
330
B
100
AcDbEntity
 67
     1
  8
1
  6
Continuous
 62
    18
100
AcDbLine
 10
2.630393
 20
3.997691999999999
 30
0.0
 11
2.61979
 21
3.997583999999999
 31
0.0
  0
LINE
  5
344
330
B
100
AcDbEntity
 67
     1
  8
1
  6
Continuous
 62
    18
100
AcDbLine
 10
2.453301999999999
 20
6.592719999999999
 30
0.0
 11
2.453301999999999
 21
6.594241999999999
 31
0.0
  0
LINE
  5
345
330
B
100
AcDbEntity
 67
     1
  8
1
  6
Continuous
 62
    18
100
AcDbLine
 10
1.727947
 20
4.150106
 30
0.0
 11
1.724515
 21
4.051816
 31
0.0
  0
LINE
  5
346
330
B
100
AcDbEntity
 67
     1
  8
1
  6
Continuous
 62
    18
100
AcDbLine
 10
2.294115999999999
 20
5.958655
 30
0.0
 11
2.293795
 21
5.940300999999999
 31
0.0
  0
LINE
  5
347
330
B
100
AcDbEntity
 67
     1
  8
1
  6
Continuous
 62
    18
100
AcDbLine
 10
4.787894
 20
4.533091999999999
 30
0.0
 11
4.859428
 21
4.461556999999999
 31
0.0
  0
LINE
  5
348
330
B
100
AcDbEntity
 67
     1
  8
1
  6
Continuous
 62
    18
100
AcDbLine
 10
1.798035999999999
 20
5.97445
 30
0.0
 11
2.505158
 21
5.97445
 31
0.0
  0
LINE
  5
349
330
B
100
AcDbEntity
 67
     1
  8
1
  6
Continuous
 62
    18
100
AcDbLine
 10
2.294313999999999
 20
3.821255
 30
0.0
 11
2.294313999999999
 21
3.865002999999999
 31
0.0
  0
LINE
  5
34A
330
B
100
AcDbEntity
 67
     1
  8
1
  6
Continuous
 62
    18
100
AcDbLine
 10
2.308044999999999
 20
3.866605999999999
 30
0.0
 11
2.307683
 21
3.887322
 31
0.0
  0
LINE
  5
34B
330
B
100
AcDbEntity
 67
     1
  8
1
  6
Continuous
 62
    18
100
AcDbLine
 10
1.750321
 20
7.400775999999999
 30
0.0
 11
1.750321
 21
7.378731
 31
0.0
  0
LINE
  5
34C
330
B
100
AcDbEntity
 67
     1
  8
1
  6
Continuous
 62
    18
100
AcDbLine
 10
4.756073999999999
 20
4.502842
 30
0.0
 11
4.740501999999999
 21
4.513246999999999
 31
0.0
  0
LINE
  5
34D
330
B
100
AcDbEntity
 67
     1
  8
1
  6
Continuous
 62
    18
100
AcDbLine
 10
2.390801999999999
 20
6.135341999999999
 30
0.0
 11
2.390801999999999
 21
6.142096999999999
 31
0.0
  0
LINE
  5
34E
330
B
100
AcDbEntity
 67
     1
  8
1
  6
Continuous
 62
    18
100
AcDbLine
 10
1.993916999999999
 20
3.683459999999999
 30
0.0
 11
1.994831999999999
 21
3.801569999999999
 31
0.0
  0
LINE
  5
34F
330
B
100
AcDbEntity
 67
     1
  8
1
  6
Continuous
 62
    18
100
AcDbLine
 10
1.820686999999999
 20
4.077399999999999
 30
0.0
 11
1.817415
 21
4.086292
 31
0.0
  0
LINE
  5
350
330
B
100
AcDbEntity
 67
     1
  8
1
  6
Continuous
 62
    18
100
AcDbLine
 10
1.81799
 20
4.277432
 30
0.0
 11
1.825274999999999
 21
4.287757
 31
0.0
  0
LINE
  5
351
330
B
100
AcDbEntity
 67
     1
  8
1
  6
Continuous
 62
    18
100
AcDbLine
 10
2.575343
 20
7.417660999999999
 30
0.0
 11
2.591801999999999
 21
7.401202
 31
0.0
  0
LINE
  5
352
330
B
100
AcDbEntity
 67
     1
  8
1
  6
Continuous
 62
    18
100
AcDbLine
 10
1.737155
 20
3.977323999999999
 30
0.0
 11
1.737155
 21
3.972324
 31
0.0
  0
LINE
  5
353
330
B
100
AcDbEntity
 67
     1
  8
1
  6
Continuous
 62
    18
100
AcDbLine
 10
4.138352999999999
 20
4.136662
 30
0.0
 11
4.024923
 21
4.023232
 31
0.0
  0
LINE
  5
354
330
B
100
AcDbEntity
 67
     1
  8
1
  6
Continuous
 62
    18
100
AcDbLine
 10
2.291640999999999
 20
6.137091
 30
0.0
 11
2.390801999999999
 21
6.137091
 31
0.0
  0
LINE
  5
355
330
B
100
AcDbEntity
 67
     1
  8
1
  6
Continuous
 62
    18
100
AcDbLine
 10
1.865324999999999
 20
4.070891
 30
0.0
 11
1.865324999999999
 21
4.052846999999999
 31
0.0
  0
LINE
  5
356
330
B
100
AcDbEntity
 67
     1
  8
1
  6
Continuous
 62
    18
100
AcDbLine
 10
2.539972
 20
6.808567999999999
 30
0.0
 11
2.554511999999999
 21
6.808892
 31
0.0
  0
LINE
  5
357
330
B
100
AcDbEntity
 67
     1
  8
1
  6
Continuous
 62
    18
100
AcDbLine
 10
1.690658999999999
 20
4.472366
 30
0.0
 11
1.686065
 21
4.469648999999999
 31
0.0
  0
LINE
  5
358
330
B
100
AcDbEntity
 67
     1
  8
1
  6
Continuous
 62
    18
100
AcDbLine
 10
4.193153999999999
 20
4.173049999999999
 30
0.0
 11
4.193153999999999
 21
4.178662999999999
 31
0.0
  0
LINE
  5
359
330
B
100
AcDbEntity
 67
     1
  8
1
  6
Continuous
 62
    18
100
AcDbLine
 10
2.589208999999999
 20
6.077614999999999
 30
0.0
 11
2.575245999999999
 21
6.073351
 31
0.0
  0
LINE
  5
35A
330
B
100
AcDbEntity
 67
     1
  8
1
  6
Continuous
 62
    18
100
AcDbLine
 10
1.709210999999999
 20
7.160135
 30
0.0
 11
1.719060999999999
 21
7.172071
 31
0.0
  0
LINE
  5
35B
330
B
100
AcDbEntity
 67
     1
  8
1
  6
Continuous
 62
    18
100
AcDbLine
 10
1.806772999999999
 20
4.352848999999999
 30
0.0
 11
1.808901999999999
 21
4.351513999999999
 31
0.0
  0
LINE
  5
35C
330
B
100
AcDbEntity
 67
     1
  8
1
  6
Continuous
 62
    18
100
AcDbLine
 10
1.835325
 20
6.147403999999999
 30
0.0
 11
1.865324999999999
 21
6.147403999999999
 31
0.0
  0
LINE
  5
35D
330
B
100
AcDbEntity
 67
     1
  8
1
  6
Continuous
 62
    18
100
AcDbLine
 10
1.978668999999999
 20
3.751259999999999
 30
0.0
 11
1.977838
 21
3.752091999999999
 31
0.0
  0
LINE
  5
35E
330
B
100
AcDbEntity
 67
     1
  8
1
  6
Continuous
 62
    18
100
AcDbLine
 10
1.802409999999999
 20
6.199937
 30
0.0
 11
1.803424
 21
6.221461999999999
 31
0.0
  0
LINE
  5
35F
330
B
100
AcDbEntity
 67
     1
  8
1
  6
Continuous
 62
    18
100
AcDbLine
 10
1.807873
 20
4.097941999999999
 30
0.0
 11
1.807759
 21
4.103196999999999
 31
0.0
  0
LINE
  5
360
330
B
100
AcDbEntity
 67
     1
  8
1
  6
Continuous
 62
    18
100
AcDbLine
 10
2.550091999999999
 20
7.098366
 30
0.0
 11
2.571311999999999
 21
7.094608
 31
0.0
  0
LINE
  5
361
330
B
100
AcDbEntity
 67
     1
  8
1
  6
Continuous
 62
    18
100
AcDbLine
 10
1.660184
 20
4.405530999999999
 30
0.0
 11
1.661440999999999
 21
4.401301999999999
 31
0.0
  0
LINE
  5
362
330
B
100
AcDbEntity
 67
     1
  8
1
  6
Continuous
 62
    18
100
AcDbLine
 10
1.66502
 20
6.504533999999999
 30
0.0
 11
1.667354
 21
6.50069
 31
0.0
  0
LINE
  5
363
330
B
100
AcDbEntity
 67
     1
  8
1
  6
Continuous
 62
    18
100
AcDbLine
 10
1.766209999999999
 20
4.560330999999999
 30
0.0
 11
1.766152999999999
 21
4.557161999999999
 31
0.0
  0
LINE
  5
364
330
B
100
AcDbEntity
 67
     1
  8
1
  6
Continuous
 62
    18
100
AcDbLine
 10
1.726613999999999
 20
6.458784999999999
 30
0.0
 11
1.741804
 21
6.450776999999999
 31
0.0
  0
LINE
  5
365
330
B
100
AcDbEntity
 67
     1
  8
1
  6
Continuous
 62
    18
100
AcDbLine
 10
1.766027999999999
 20
6.713493999999999
 30
0.0
 11
1.76619
 21
6.685821999999999
 31
0.0
  0
LINE
  5
366
330
B
100
AcDbEntity
 67
     1
  8
1
  6
Continuous
 62
    18
100
AcDbLine
 10
1.707833
 20
4.361602999999999
 30
0.0
 11
1.713150999999999
 21
4.360263999999999
 31
0.0
  0
LINE
  5
367
330
B
100
AcDbEntity
 67
     1
  8
1
  6
Continuous
 62
    18
100
AcDbLine
 10
1.724100999999999
 20
6.469872
 30
0.0
 11
1.729668999999999
 21
6.469476
 31
0.0
  0
LINE
  5
368
330
B
100
AcDbEntity
 67
     1
  8
1
  6
Continuous
 62
    18
100
AcDbLine
 10
1.751445999999999
 20
4.526273
 30
0.0
 11
1.738590999999999
 21
4.516486
 31
0.0
  0
LINE
  5
369
330
B
100
AcDbEntity
 67
     1
  8
1
  6
Continuous
 62
    18
100
AcDbLine
 10
1.728377
 20
6.093544
 30
0.0
 11
1.727947
 21
6.073351
 31
0.0
  0
LINE
  5
36A
330
B
100
AcDbEntity
 67
     1
  8
1
  6
Continuous
 62
    18
100
AcDbLine
 10
2.597844999999999
 20
7.146163999999999
 30
0.0
 11
2.582447
 21
6.705214999999999
 31
0.0
  0
LINE
  5
36B
330
B
100
AcDbEntity
 67
     1
  8
1
  6
Continuous
 62
    18
100
AcDbLine
 10
1.681731
 20
6.577989999999999
 30
0.0
 11
1.677686999999999
 21
6.574699999999999
 31
0.0
  0
LINE
  5
36C
330
B
100
AcDbEntity
 67
     1
  8
1
  6
Continuous
 62
    18
100
AcDbLine
 10
2.582447
 20
4.502842
 30
0.0
 11
2.594440999999999
 21
4.159360999999999
 31
0.0
  0
LINE
  5
36D
330
B
100
AcDbEntity
 67
     1
  8
1
  6
Continuous
 62
    18
100
AcDbLine
 10
1.815324999999999
 20
6.372773999999999
 30
0.0
 11
1.81799
 21
6.367605
 31
0.0
  0
LINE
  5
36E
330
B
100
AcDbEntity
 67
     1
  8
1
  6
Continuous
 62
    18
100
AcDbLine
 10
1.705083
 20
4.375008999999999
 30
0.0
 11
1.680741999999999
 21
4.386518999999999
 31
0.0
  0
LINE
  5
36F
330
B
100
AcDbEntity
 67
     1
  8
1
  6
Continuous
 62
    18
100
AcDbLine
 10
1.765718999999999
 20
6.737033999999999
 30
0.0
 11
1.743547
 21
6.732514
 31
0.0
  0
LINE
  5
370
330
B
100
AcDbEntity
 67
     1
  8
1
  6
Continuous
 62
    18
100
AcDbLine
 10
1.668838
 20
3.997583999999999
 30
0.0
 11
1.667236999999999
 21
3.905901
 31
0.0
  0
LINE
  5
371
330
B
100
AcDbEntity
 67
     1
  8
1
  6
Continuous
 62
    18
100
AcDbLine
 10
1.792138
 20
6.468926
 30
0.0
 11
1.795468
 21
6.468348999999999
 31
0.0
  0
LINE
  5
372
330
B
100
AcDbEntity
 67
     1
  8
1
  6
Continuous
 62
    18
100
AcDbLine
 10
1.816824
 20
6.185332999999999
 30
0.0
 11
1.819113999999999
 21
6.191974
 31
0.0
  0
LINE
  5
373
330
B
100
AcDbEntity
 67
     1
  8
1
  6
Continuous
 62
    18
100
AcDbLine
 10
1.703616999999999
 20
6.47445
 30
0.0
 11
1.703616999999999
 21
6.133102
 31
0.0
  0
LINE
  5
374
330
B
100
AcDbEntity
 67
     1
  8
1
  6
Continuous
 62
    18
100
AcDbLine
 10
1.804893999999999
 20
4.358761
 30
0.0
 11
1.812593
 21
4.351526999999999
 31
0.0
  0
LINE
  5
375
330
B
100
AcDbEntity
 67
     1
  8
1
  6
Continuous
 62
    18
100
AcDbLine
 10
1.765718999999999
 20
6.605511999999999
 30
0.0
 11
1.765599
 21
6.602069
 31
0.0
  0
LINE
  5
376
330
B
100
AcDbEntity
 67
     1
  8
1
  6
Continuous
 62
    18
100
AcDbLine
 10
1.954499
 20
3.76709
 30
0.0
 11
1.954499
 21
3.802094999999999
 31
0.0
  0
LINE
  5
377
330
B
100
AcDbEntity
 67
     1
  8
1
  6
Continuous
 62
    18
100
AcDbLine
 10
1.815316999999999
 20
6.454358
 30
0.0
 11
1.815324999999999
 21
6.454034
 31
0.0
  0
LINE
  5
378
330
B
100
AcDbEntity
 67
     1
  8
1
  6
Continuous
 62
    18
100
AcDbLine
 10
1.819745999999999
 20
6.193662999999999
 30
0.0
 11
1.820772999999999
 21
6.198345999999999
 31
0.0
  0
LINE
  5
379
330
B
100
AcDbEntity
 67
     1
  8
1
  6
Continuous
 62
    18
100
AcDbLine
 10
2.340802
 20
4.070891
 30
0.0
 11
2.340802
 21
4.052846999999999
 31
0.0
  0
LINE
  5
37A
330
B
100
AcDbEntity
 67
     1
  8
1
  6
Continuous
 62
    18
100
AcDbLine
 10
2.549850999999999
 20
4.178662999999999
 30
0.0
 11
2.537474
 21
4.533091999999999
 31
0.0
  0
LINE
  5
37B
330
B
100
AcDbEntity
 67
     1
  8
1
  6
Continuous
 62
    18
100
AcDbLine
 10
2.634786999999999
 20
7.451786
 30
0.0
 11
2.634786999999999
 21
5.975254
 31
0.0
  0
LINE
  5
37C
330
B
100
AcDbEntity
 67
     1
  8
1
  6
Continuous
 62
    18
100
AcDbLine
 10
5.305666999999999
 20
3.815505999999999
 30
0.0
 11
5.410042999999999
 21
3.712936
 31
0.0
  0
LINE
  5
37D
330
B
100
AcDbEntity
 67
     1
  8
1
  6
Continuous
 62
    18
100
AcDbLine
 10
1.708752
 20
6.293670999999999
 30
0.0
 11
1.714958
 21
6.471383999999999
 31
0.0
  0
LINE
  5
37E
330
B
100
AcDbEntity
 67
     1
  8
1
  6
Continuous
 62
    18
100
AcDbLine
 10
2.334127999999999
 20
3.802094999999999
 30
0.0
 11
2.334127999999999
 21
3.76709
 31
0.0
  0
LINE
  5
37F
330
B
100
AcDbEntity
 67
     1
  8
1
  6
Continuous
 62
    18
100
AcDbLine
 10
1.668838
 20
5.975254
 30
0.0
 11
1.702075999999999
 21
5.975254
 31
0.0
  0
LINE
  5
380
330
B
100
AcDbEntity
 67
     1
  8
1
  6
Continuous
 62
    18
100
AcDbLine
 10
1.801866
 20
6.185332999999999
 30
0.0
 11
1.816824
 21
6.185332999999999
 31
0.0
  0
LINE
  5
381
330
B
100
AcDbEntity
 67
     1
  8
1
  6
Continuous
 62
    18
100
AcDbLine
 10
2.50554
 20
4.150106
 30
0.0
 11
2.505333
 21
4.1656
 31
0.0
  0
LINE
  5
382
330
B
100
AcDbEntity
 67
     1
  8
1
  6
Continuous
 62
    18
100
AcDbLine
 10
4.055183999999999
 20
3.905901
 30
0.0
 11
4.059067999999999
 21
3.683423999999999
 31
0.0
  0
LINE
  5
383
330
B
100
AcDbEntity
 67
     1
  8
1
  6
Continuous
 62
    18
100
AcDbLine
 10
2.583461999999999
 20
6.270737999999999
 30
0.0
 11
2.590383
 21
6.280247
 31
0.0
  0
LINE
  5
384
330
B
100
AcDbEntity
 67
     1
  8
1
  6
Continuous
 62
    18
100
AcDbLine
 10
1.982312999999999
 20
3.756863999999999
 30
0.0
 11
1.972477999999999
 21
3.752091999999999
 31
0.0
  0
LINE
  5
385
330
B
100
AcDbEntity
 67
     1
  8
1
  6
Continuous
 62
    18
100
AcDbLine
 10
1.656631999999999
 20
7.463992
 30
0.0
 11
1.667236999999999
 21
7.468383999999999
 31
0.0
  0
LINE
  5
386
330
B
100
AcDbEntity
 67
     1
  8
1
  6
Continuous
 62
    18
100
AcDbLine
 10
2.453301999999999
 20
6.213617
 30
0.0
 11
2.453301999999999
 21
6.553029
 31
0.0
  0
LINE
  5
387
330
B
100
AcDbEntity
 67
     1
  8
1
  6
Continuous
 62
    18
100
AcDbLine
 10
2.390801999999999
 20
4.112733
 30
0.0
 11
2.390801999999999
 21
4.098227999999999
 31
0.0
  0
LINE
  5
388
330
B
100
AcDbEntity
 67
     1
  8
1
  6
Continuous
 62
    18
100
AcDbLine
 10
1.81799
 20
4.326801999999999
 30
0.0
 11
1.815324999999999
 21
4.33574
 31
0.0
  0
LINE
  5
389
330
B
100
AcDbEntity
 67
     1
  8
1
  6
Continuous
 62
    18
100
AcDbLine
 10
4.026112999999999
 20
4.012322
 30
0.0
 11
4.026112999999999
 21
4.008021
 31
0.0
  0
LINE
  5
38A
330
B
100
AcDbEntity
 67
     1
  8
1
  6
Continuous
 62
    18
100
AcDbLine
 10
2.499588999999999
 20
6.208514
 30
0.0
 11
2.498723
 21
6.223167
 31
0.0
  0
LINE
  5
38B
330
B
100
AcDbEntity
 67
     1
  8
1
  6
Continuous
 62
    18
100
AcDbLine
 10
1.877533999999999
 20
3.8159
 30
0.0
 11
1.866692999999999
 21
3.832113999999999
 31
0.0
  0
LINE
  5
38C
330
B
100
AcDbEntity
 67
     1
  8
1
  6
Continuous
 62
    18
100
AcDbLine
 10
2.62139
 20
7.468383999999999
 30
0.0
 11
2.631994999999999
 21
7.463992
 31
0.0
  0
LINE
  5
38D
330
B
100
AcDbEntity
 67
     1
  8
1
  6
Continuous
 62
    18
100
AcDbLine
 10
1.835325
 20
6.439891
 30
0.0
 11
1.835325
 21
6.207893
 31
0.0
  0
LINE
  5
38E
330
B
100
AcDbEntity
 67
     1
  8
1
  6
Continuous
 62
    18
100
AcDbLine
 10
1.798035999999999
 20
4.034284999999999
 30
0.0
 11
1.797445999999999
 21
4.051816
 31
0.0
  0
LINE
  5
38F
330
B
100
AcDbEntity
 67
     1
  8
1
  6
Continuous
 62
    18
100
AcDbLine
 10
4.020845999999999
 20
3.821255
 30
0.0
 11
3.991160999999999
 21
3.821255
 31
0.0
  0
LINE
  5
390
330
B
100
AcDbEntity
 67
     1
  8
1
  6
Continuous
 62
    18
100
AcDbLine
 10
2.504802
 20
6.117058999999999
 30
0.0
 11
2.503983
 21
6.142294
 31
0.0
  0
LINE
  5
391
330
B
100
AcDbEntity
 67
     1
  8
1
  6
Continuous
 62
    18
100
AcDbLine
 10
2.309957999999999
 20
3.751259999999999
 30
0.0
 11
2.299350999999999
 21
3.755651
 31
0.0
  0
LINE
  5
392
330
B
100
AcDbEntity
 67
     1
  8
1
  6
Continuous
 62
    18
100
AcDbLine
 10
1.678802
 20
4.438142
 30
0.0
 11
1.682988999999999
 21
4.423258999999999
 31
0.0
  0
LINE
  5
393
330
B
100
AcDbEntity
 67
     1
  8
1
  6
Continuous
 62
    18
100
AcDbLine
 10
1.988249
 20
7.485466999999999
 30
0.0
 11
2.300377999999999
 21
7.485466999999999
 31
0.0
  0
LINE
  5
394
330
B
100
AcDbEntity
 67
     1
  8
1
  6
Continuous
 62
    18
100
AcDbLine
 10
2.453301999999999
 20
6.581313
 30
0.0
 11
2.453301999999999
 21
6.567171
 31
0.0
  0
LINE
  5
395
330
B
100
AcDbEntity
 67
     1
  8
1
  6
Continuous
 62
    18
100
AcDbLine
 10
2.595234
 20
4.136662
 30
0.0
 11
2.589208999999999
 21
4.146329999999999
 31
0.0
  0
LINE
  5
396
330
B
100
AcDbEntity
 67
     1
  8
1
  6
Continuous
 62
    18
100
AcDbLine
 10
1.715241999999999
 20
4.345208
 30
0.0
 11
1.718972999999999
 21
4.356933999999999
 31
0.0
  0
LINE
  5
397
330
B
100
AcDbEntity
 67
     1
  8
1
  6
Continuous
 62
    18
100
AcDbLine
 10
5.231094999999999
 20
4.102045999999999
 30
0.0
 11
5.222930999999999
 21
4.092691999999999
 31
0.0
  0
LINE
  5
398
330
B
100
AcDbEntity
 67
     1
  8
1
  6
Continuous
 62
    18
100
AcDbLine
 10
1.859949
 20
6.134447999999999
 30
0.0
 11
1.859949
 21
6.125529
 31
0.0
  0
LINE
  5
399
330
B
100
AcDbEntity
 67
     1
  8
1
  6
Continuous
 62
    18
100
AcDbLine
 10
1.733802
 20
6.588383999999999
 30
0.0
 11
1.733802
 21
6.592719999999999
 31
0.0
  0
LINE
  5
39A
330
B
100
AcDbEntity
 67
     1
  8
1
  6
Continuous
 62
    18
100
AcDbLine
 10
1.804552999999999
 20
4.12914
 30
0.0
 11
1.801033999999999
 21
4.12914
 31
0.0
  0
LINE
  5
39B
330
B
100
AcDbEntity
 67
     1
  8
1
  6
Continuous
 62
    18
100
AcDbLine
 10
2.551951999999999
 20
7.151622999999999
 30
0.0
 11
1.751241
 21
7.151622999999999
 31
0.0
  0
LINE
  5
39C
330
B
100
AcDbEntity
 67
     1
  8
1
  6
Continuous
 62
    18
100
AcDbLine
 10
5.149225
 20
4.171759999999999
 30
0.0
 11
5.202482999999999
 21
4.118502999999999
 31
0.0
  0
LINE
  5
39D
330
B
100
AcDbEntity
 67
     1
  8
1
  6
Continuous
 62
    18
100
AcDbLine
 10
2.390801999999999
 20
6.145303
 30
0.0
 11
2.390801999999999
 21
6.146799999999999
 31
0.0
  0
LINE
  5
39E
330
B
100
AcDbEntity
 67
     1
  8
1
  6
Continuous
 62
    18
100
AcDbLine
 10
1.994313999999999
 20
3.821255
 30
0.0
 11
1.994831999999999
 21
3.821255
 31
0.0
  0
LINE
  5
39F
330
B
100
AcDbEntity
 67
     1
  8
1
  6
Continuous
 62
    18
100
AcDbLine
 10
2.401915
 20
3.866605999999999
 30
0.0
 11
2.308044999999999
 21
3.866605999999999
 31
0.0
  0
LINE
  5
3A0
330
B
100
AcDbEntity
 67
     1
  8
1
  6
Continuous
 62
    18
100
AcDbLine
 10
2.552413
 20
7.151627
 30
0.0
 11
2.552624
 21
7.166222
 31
0.0
  0
LINE
  5
3A1
330
B
100
AcDbEntity
 67
     1
  8
1
  6
Continuous
 62
    18
100
AcDbLine
 10
1.816824
 20
4.088123999999999
 30
0.0
 11
1.815527
 21
4.097459999999999
 31
0.0
  0
LINE
  5
3A2
330
B
100
AcDbEntity
 67
     1
  8
1
  6
Continuous
 62
    18
100
AcDbLine
 10
4.740501999999999
 20
4.513246999999999
 30
0.0
 11
4.722133
 21
4.516900999999999
 31
0.0
  0
LINE
  5
3A3
330
B
100
AcDbEntity
 67
     1
  8
1
  6
Continuous
 62
    18
100
AcDbLine
 10
2.390801999999999
 20
6.142096999999999
 30
0.0
 11
2.390801999999999
 21
6.145303
 31
0.0
  0
LINE
  5
3A4
330
B
100
AcDbEntity
 67
     1
  8
1
  6
Continuous
 62
    18
100
AcDbLine
 10
1.993916999999999
 20
3.683459999999999
 30
0.0
 11
2.051604
 21
3.683459999999999
 31
0.0
  0
LINE
  5
3A5
330
B
100
AcDbEntity
 67
     1
  8
1
  6
Continuous
 62
    18
100
AcDbLine
 10
1.825274999999999
 20
4.287757
 30
0.0
 11
1.825274999999999
 21
4.348001999999999
 31
0.0
  0
LINE
  5
3A6
330
B
100
AcDbEntity
 67
     1
  8
1
  6
Continuous
 62
    18
100
AcDbLine
 10
2.591801999999999
 20
7.401202
 30
0.0
 11
2.597844999999999
 21
7.378731
 31
0.0
  0
LINE
  5
3A7
330
B
100
AcDbEntity
 67
     1
  8
1
  6
Continuous
 62
    18
100
AcDbLine
 10
4.024541999999999
 20
4.012322
 30
0.0
 11
4.024923
 21
4.023232
 31
0.0
  0
LINE
  5
3A8
330
B
100
AcDbEntity
 67
     1
  8
1
  6
Continuous
 62
    18
100
AcDbLine
 10
2.291640999999999
 20
6.134447999999999
 30
0.0
 11
1.859949
 21
6.134447999999999
 31
0.0
  0
LINE
  5
3A9
330
B
100
AcDbEntity
 67
     1
  8
1
  6
Continuous
 62
    18
100
AcDbLine
 10
2.499951999999999
 20
4.178662999999999
 30
0.0
 11
2.499209999999999
 21
4.529649
 31
0.0
  0
LINE
  5
3AA
330
B
100
AcDbEntity
 67
     1
  8
1
  6
Continuous
 62
    18
100
AcDbLine
 10
1.816824
 20
4.112873
 30
0.0
 11
1.819113999999999
 21
4.117764
 31
0.0
  0
LINE
  5
3AB
330
B
100
AcDbEntity
 67
     1
  8
1
  6
Continuous
 62
    18
100
AcDbLine
 10
2.554511999999999
 20
6.808892
 30
0.0
 11
2.567649
 21
6.809828999999999
 31
0.0
  0
LINE
  5
3AC
330
B
100
AcDbEntity
 67
     1
  8
1
  6
Continuous
 62
    18
100
AcDbLine
 10
1.686065
 20
4.469648999999999
 30
0.0
 11
1.681731
 21
4.466638999999999
 31
0.0
  0
LINE
  5
3AD
330
B
100
AcDbEntity
 67
     1
  8
1
  6
Continuous
 62
    18
100
AcDbLine
 10
4.124210999999999
 20
4.150106
 30
0.0
 11
4.144403999999999
 21
4.1656
 31
0.0
  0
LINE
  5
3AE
330
B
100
AcDbEntity
 67
     1
  8
1
  6
Continuous
 62
    18
100
AcDbLine
 10
2.503983
 20
6.142294
 30
0.0
 11
2.574454
 21
6.142294
 31
0.0
  0
LINE
  5
3AF
330
B
100
AcDbEntity
 67
     1
  8
1
  6
Continuous
 62
    18
100
AcDbLine
 10
1.719060999999999
 20
7.172071
 30
0.0
 11
1.733463999999999
 21
7.180235
 31
0.0
  0
LINE
  5
3B0
330
B
100
AcDbEntity
 67
     1
  8
1
  6
Continuous
 62
    18
100
AcDbLine
 10
1.808901999999999
 20
4.351513999999999
 30
0.0
 11
1.810709
 21
4.35014
 31
0.0
  0
LINE
  5
3B1
330
B
100
AcDbEntity
 67
     1
  8
1
  6
Continuous
 62
    18
100
AcDbLine
 10
1.815324999999999
 20
6.232277999999999
 30
0.0
 11
1.804050999999999
 21
6.232277999999999
 31
0.0
  0
LINE
  5
3B2
330
B
100
AcDbEntity
 67
     1
  8
1
  6
Continuous
 62
    18
100
AcDbLine
 10
1.969500999999999
 20
3.752091999999999
 30
0.0
 11
1.968668999999999
 21
3.751259999999999
 31
0.0
  0
LINE
  5
3B3
330
B
100
AcDbEntity
 67
     1
  8
1
  6
Continuous
 62
    18
100
AcDbLine
 10
1.803424
 20
6.221461999999999
 30
0.0
 11
1.804552999999999
 21
6.239774999999999
 31
0.0
  0
LINE
  5
3B4
330
B
100
AcDbEntity
 67
     1
  8
1
  6
Continuous
 62
    18
100
AcDbLine
 10
1.819745999999999
 20
4.118580999999999
 30
0.0
 11
1.820772999999999
 21
4.120163999999999
 31
0.0
  0
LINE
  5
3B5
330
B
100
AcDbEntity
 67
     1
  8
1
  6
Continuous
 62
    18
100
AcDbLine
 10
2.571311999999999
 20
7.094608
 30
0.0
 11
2.58752
 21
7.084224
 31
0.0
  0
LINE
  5
3B6
330
B
100
AcDbEntity
 67
     1
  8
1
  6
Continuous
 62
    18
100
AcDbLine
 10
1.661440999999999
 20
4.401301999999999
 30
0.0
 11
1.663038
 21
4.397187
 31
0.0
  0
LINE
  5
3B7
330
B
100
AcDbEntity
 67
     1
  8
1
  6
Continuous
 62
    18
100
AcDbLine
 10
1.667354
 20
6.50069
 30
0.0
 11
1.670054
 21
6.496966
 31
0.0
  0
LINE
  5
3B8
330
B
100
AcDbEntity
 67
     1
  8
1
  6
Continuous
 62
    18
100
AcDbLine
 10
1.766152999999999
 20
4.557161999999999
 30
0.0
 11
1.765986
 21
4.547870999999999
 31
0.0
  0
LINE
  5
3B9
330
B
100
AcDbEntity
 67
     1
  8
1
  6
Continuous
 62
    18
100
AcDbLine
 10
1.741804
 20
6.450776999999999
 30
0.0
 11
1.760222999999999
 21
6.447941999999999
 31
0.0
  0
LINE
  5
3BA
330
B
100
AcDbEntity
 67
     1
  8
1
  6
Continuous
 62
    18
100
AcDbLine
 10
2.453301999999999
 20
4.477033
 30
0.0
 11
1.733802
 21
4.477033
 31
0.0
  0
LINE
  5
3BB
330
B
100
AcDbEntity
 67
     1
  8
1
  6
Continuous
 62
    18
100
AcDbLine
 10
1.76619
 20
6.685821999999999
 30
0.0
 11
1.76619
 21
6.656724999999999
 31
0.0
  0
LINE
  5
3BC
330
B
100
AcDbEntity
 67
     1
  8
1
  6
Continuous
 62
    18
100
AcDbLine
 10
1.713150999999999
 20
4.360263999999999
 30
0.0
 11
1.71858
 21
4.359236
 31
0.0
  0
LINE
  5
3BD
330
B
100
AcDbEntity
 67
     1
  8
1
  6
Continuous
 62
    18
100
AcDbLine
 10
1.729668999999999
 20
6.469476
 30
0.0
 11
1.731734
 21
6.469411
 31
0.0
  0
LINE
  5
3BE
330
B
100
AcDbEntity
 67
     1
  8
1
  6
Continuous
 62
    18
100
AcDbLine
 10
1.738590999999999
 20
4.516486
 30
0.0
 11
1.728326999999999
 21
4.501271
 31
0.0
  0
LINE
  5
3BF
330
B
100
AcDbEntity
 67
     1
  8
1
  6
Continuous
 62
    18
100
AcDbLine
 10
1.760222999999999
 20
6.447941999999999
 30
0.0
 11
1.803651999999999
 21
6.447941999999999
 31
0.0
  0
LINE
  5
3C0
330
B
100
AcDbEntity
 67
     1
  8
1
  6
Continuous
 62
    18
100
AcDbLine
 10
1.865324999999999
 20
4.084589
 30
0.0
 11
2.340802
 21
4.084589
 31
0.0
  0
LINE
  5
3C1
330
B
100
AcDbEntity
 67
     1
  8
1
  6
Continuous
 62
    18
100
AcDbLine
 10
2.597844999999999
 20
7.378731
 30
0.0
 11
2.597844999999999
 21
7.146163999999999
 31
0.0
  0
LINE
  5
3C2
330
B
100
AcDbEntity
 67
     1
  8
1
  6
Continuous
 62
    18
100
AcDbLine
 10
1.668838
 20
3.997583999999999
 30
0.0
 11
1.658234
 21
3.997691999999999
 31
0.0
  0
LINE
  5
3C3
330
B
100
AcDbEntity
 67
     1
  8
1
  6
Continuous
 62
    18
100
AcDbLine
 10
1.677686999999999
 20
6.574699999999999
 30
0.0
 11
1.673983
 21
6.571161999999999
 31
0.0
  0
LINE
  5
3C4
330
B
100
AcDbEntity
 67
     1
  8
1
  6
Continuous
 62
    18
100
AcDbLine
 10
1.81799
 20
6.367605
 30
0.0
 11
1.825274999999999
 21
6.367582999999999
 31
0.0
  0
LINE
  5
3C5
330
B
100
AcDbEntity
 67
     1
  8
1
  6
Continuous
 62
    18
100
AcDbLine
 10
1.680741999999999
 20
4.386518999999999
 30
0.0
 11
1.664488999999999
 21
4.403743
 31
0.0
  0
LINE
  5
3C6
330
B
100
AcDbEntity
 67
     1
  8
1
  6
Continuous
 62
    18
100
AcDbLine
 10
1.743547
 20
6.732514
 30
0.0
 11
1.727134999999999
 21
6.720902
 31
0.0
  0
LINE
  5
3C7
330
B
100
AcDbEntity
 67
     1
  8
1
  6
Continuous
 62
    18
100
AcDbLine
 10
1.726752999999999
 20
3.539718
 30
0.0
 11
1.724243999999999
 21
3.683423999999999
 31
0.0
  0
LINE
  5
3C8
330
B
100
AcDbEntity
 67
     1
  8
1
  6
Continuous
 62
    18
100
AcDbLine
 10
1.795468
 20
6.468348999999999
 30
0.0
 11
1.798633
 21
6.467563
 31
0.0
  0
LINE
  5
3C9
330
B
100
AcDbEntity
 67
     1
  8
1
  6
Continuous
 62
    18
100
AcDbLine
 10
1.819113999999999
 20
6.191974
 30
0.0
 11
1.819566
 21
6.193176999999999
 31
0.0
  0
LINE
  5
3CA
330
B
100
AcDbEntity
 67
     1
  8
1
  6
Continuous
 62
    18
100
AcDbLine
 10
1.807759
 20
4.103196999999999
 30
0.0
 11
1.801301999999999
 21
4.105801999999999
 31
0.0
  0
LINE
  5
3CB
330
B
100
AcDbEntity
 67
     1
  8
1
  6
Continuous
 62
    18
100
AcDbLine
 10
1.812593
 20
4.351526999999999
 30
0.0
 11
1.815324999999999
 21
4.342681999999999
 31
0.0
  0
LINE
  5
3CC
330
B
100
AcDbEntity
 67
     1
  8
1
  6
Continuous
 62
    18
100
AcDbLine
 10
1.719395
 20
6.598636999999999
 30
0.0
 11
1.720747
 21
6.637332
 31
0.0
  0
LINE
  5
3CD
330
B
100
AcDbEntity
 67
     1
  8
1
  6
Continuous
 62
    18
100
AcDbLine
 10
1.954499
 20
3.76709
 30
0.0
 11
1.958892999999999
 21
3.756485
 31
0.0
  0
LINE
  5
3CE
330
B
100
AcDbEntity
 67
     1
  8
1
  6
Continuous
 62
    18
100
AcDbLine
 10
1.668838
 20
5.960255999999999
 30
0.0
 11
1.668838
 21
5.964739999999999
 31
0.0
  0
LINE
  5
3CF
330
B
100
AcDbEntity
 67
     1
  8
1
  6
Continuous
 62
    18
100
AcDbLine
 10
1.820772999999999
 20
6.198345999999999
 30
0.0
 11
1.820195
 21
6.203355
 31
0.0
  0
LINE
  5
3D0
330
B
100
AcDbEntity
 67
     1
  8
1
  6
Continuous
 62
    18
100
AcDbLine
 10
1.825181999999999
 20
4.066972999999999
 30
0.0
 11
1.820686999999999
 21
4.077399999999999
 31
0.0
  0
LINE
  5
3D1
330
B
100
AcDbEntity
 67
     1
  8
1
  6
Continuous
 62
    18
100
AcDbLine
 10
5.410042999999999
 20
3.712936
 30
0.0
 11
5.468935
 21
3.712936
 31
0.0
  0
LINE
  5
3D2
330
B
100
AcDbEntity
 67
     1
  8
1
  6
Continuous
 62
    18
100
AcDbLine
 10
1.718822999999999
 20
6.597777
 30
0.0
 11
1.718654
 21
6.59295
 31
0.0
  0
LINE
  5
3D3
330
B
100
AcDbEntity
 67
     1
  8
1
  6
Continuous
 62
    18
100
AcDbLine
 10
2.334127999999999
 20
3.802094999999999
 30
0.0
 11
2.374906
 21
3.802094999999999
 31
0.0
  0
LINE
  5
3D4
330
B
100
AcDbEntity
 67
     1
  8
1
  6
Continuous
 62
    18
100
AcDbLine
 10
1.702075999999999
 20
5.960255999999999
 30
0.0
 11
1.668838
 21
5.960255999999999
 31
0.0
  0
LINE
  5
3D5
330
B
100
AcDbEntity
 67
     1
  8
1
  6
Continuous
 62
    18
100
AcDbLine
 10
1.801213
 20
6.160584
 30
0.0
 11
1.816824
 21
6.160584
 31
0.0
  0
LINE
  5
3D6
330
B
100
AcDbEntity
 67
     1
  8
1
  6
Continuous
 62
    18
100
AcDbLine
 10
2.505333
 20
4.1656
 30
0.0
 11
2.504802
 21
4.175341
 31
0.0
  0
LINE
  5
3D7
330
B
100
AcDbEntity
 67
     1
  8
1
  6
Continuous
 62
    18
100
AcDbLine
 10
5.517642999999999
 20
3.997583999999999
 30
0.0
 11
5.519244
 21
3.905901
 31
0.0
  0
LINE
  5
3D8
330
B
100
AcDbEntity
 67
     1
  8
1
  6
Continuous
 62
    18
100
AcDbLine
 10
2.590383
 20
6.280247
 30
0.0
 11
2.594141999999999
 21
6.290670999999999
 31
0.0
  0
LINE
  5
3D9
330
B
100
AcDbEntity
 67
     1
  8
1
  6
Continuous
 62
    18
100
AcDbLine
 10
2.602376
 20
4.012322
 30
0.0
 11
2.599574
 21
4.012322
 31
0.0
  0
LINE
  5
3DA
330
B
100
AcDbEntity
 67
     1
  8
1
  6
Continuous
 62
    18
100
AcDbLine
 10
1.652238999999999
 20
5.973652999999999
 30
0.0
 11
1.652238999999999
 21
7.453386
 31
0.0
  0
LINE
  5
3DB
330
B
100
AcDbEntity
 67
     1
  8
1
  6
Continuous
 62
    18
100
AcDbLine
 10
2.453301999999999
 20
6.553029
 30
0.0
 11
1.733802
 21
6.553029
 31
0.0
  0
LINE
  5
3DC
330
B
100
AcDbEntity
 67
     1
  8
1
  6
Continuous
 62
    18
100
AcDbLine
 10
2.390801999999999
 20
4.098227999999999
 30
0.0
 11
2.390801999999999
 21
4.081052999999999
 31
0.0
  0
LINE
  5
3DD
330
B
100
AcDbEntity
 67
     1
  8
1
  6
Continuous
 62
    18
100
AcDbLine
 10
4.026112999999999
 20
4.008021
 30
0.0
 11
4.026112999999999
 21
3.997583999999999
 31
0.0
  0
LINE
  5
3DE
330
B
100
AcDbEntity
 67
     1
  8
1
  6
Continuous
 62
    18
100
AcDbLine
 10
2.500404999999999
 20
6.146799999999999
 30
0.0
 11
2.500872999999999
 21
6.150365999999999
 31
0.0
  0
LINE
  5
3DF
330
B
100
AcDbEntity
 67
     1
  8
1
  6
Continuous
 62
    18
100
AcDbLine
 10
1.866692999999999
 20
3.832113999999999
 30
0.0
 11
1.862881999999999
 21
3.85124
 31
0.0
  0
LINE
  5
3E0
330
B
100
AcDbEntity
 67
     1
  8
1
  6
Continuous
 62
    18
100
AcDbLine
 10
2.631994999999999
 20
7.463992
 30
0.0
 11
2.636388
 21
7.453386
 31
0.0
  0
LINE
  5
3E1
330
B
100
AcDbEntity
 67
     1
  8
1
  6
Continuous
 62
    18
100
AcDbLine
 10
1.865324999999999
 20
6.160584
 30
0.0
 11
2.340802
 21
6.160584
 31
0.0
  0
LINE
  5
3E2
330
B
100
AcDbEntity
 67
     1
  8
1
  6
Continuous
 62
    18
100
AcDbLine
 10
1.797445999999999
 20
4.051816
 30
0.0
 11
1.724515
 21
4.051816
 31
0.0
  0
LINE
  5
3E3
330
B
100
AcDbEntity
 67
     1
  8
1
  6
Continuous
 62
    18
100
AcDbLine
 10
2.453301999999999
 20
4.137621
 30
0.0
 11
2.453301999999999
 21
4.477033
 31
0.0
  0
LINE
  5
3E4
330
B
100
AcDbEntity
 67
     1
  8
1
  6
Continuous
 62
    18
100
AcDbLine
 10
1.801149
 20
4.138593
 30
0.0
 11
1.801623
 21
4.147037999999999
 31
0.0
  0
LINE
  5
3E5
330
B
100
AcDbEntity
 67
     1
  8
1
  6
Continuous
 62
    18
100
AcDbLine
 10
3.991160999999999
 20
3.801569999999999
 30
0.0
 11
3.991160999999999
 21
3.821255
 31
0.0
  0
LINE
  5
3E6
330
B
100
AcDbEntity
 67
     1
  8
1
  6
Continuous
 62
    18
100
AcDbLine
 10
2.503983
 20
6.142294
 30
0.0
 11
2.499951999999999
 21
6.251083
 31
0.0
  0
LINE
  5
3E7
330
B
100
AcDbEntity
 67
     1
  8
1
  6
Continuous
 62
    18
100
AcDbLine
 10
2.299350999999999
 20
3.755651
 30
0.0
 11
2.294954999999999
 21
3.766252999999999
 31
0.0
  0
LINE
  5
3E8
330
B
100
AcDbEntity
 67
     1
  8
1
  6
Continuous
 62
    18
100
AcDbLine
 10
1.987950999999999
 20
7.468383999999999
 30
0.0
 11
1.988249
 21
7.485466999999999
 31
0.0
  0
LINE
  5
3E9
330
B
100
AcDbEntity
 67
     1
  8
1
  6
Continuous
 62
    18
100
AcDbLine
 10
2.453301999999999
 20
6.567171
 30
0.0
 11
2.453301999999999
 21
6.553029
 31
0.0
  0
LINE
  5
3EA
330
B
100
AcDbEntity
 67
     1
  8
1
  6
Continuous
 62
    18
100
AcDbLine
 10
2.589208999999999
 20
4.146329999999999
 30
0.0
 11
2.575245999999999
 21
4.150106
 31
0.0
  0
LINE
  5
3EB
330
B
100
AcDbEntity
 67
     1
  8
1
  6
Continuous
 62
    18
100
AcDbLine
 10
1.718972999999999
 20
4.356933999999999
 30
0.0
 11
1.728793999999999
 21
4.366814999999999
 31
0.0
  0
LINE
  5
3EC
330
B
100
AcDbEntity
 67
     1
  8
1
  6
Continuous
 62
    18
100
AcDbLine
 10
5.222930999999999
 20
4.092691999999999
 30
0.0
 11
5.210994999999999
 21
4.078624999999999
 31
0.0
  0
LINE
  5
3ED
330
B
100
AcDbEntity
 67
     1
  8
1
  6
Continuous
 62
    18
100
AcDbLine
 10
1.859949
 20
6.134447999999999
 30
0.0
 11
1.85999
 21
6.147403999999999
 31
0.0
  0
LINE
  5
3EE
330
B
100
AcDbEntity
 67
     1
  8
1
  6
Continuous
 62
    18
100
AcDbLine
 10
2.602376
 20
3.997583999999999
 30
0.0
 11
2.602376
 21
4.008021
 31
0.0
  0
LINE
  5
3EF
330
B
100
AcDbEntity
 67
     1
  8
1
  6
Continuous
 62
    18
100
AcDbLine
 10
1.733802
 20
6.592719999999999
 30
0.0
 11
1.733802
 21
6.594241999999999
 31
0.0
  0
LINE
  5
3F0
330
B
100
AcDbEntity
 67
     1
  8
1
  6
Continuous
 62
    18
100
AcDbLine
 10
1.703616999999999
 20
3.977322
 30
0.0
 11
2.599575999999999
 21
3.977322
 31
0.0
  0
LINE
  5
3F1
330
B
100
AcDbEntity
 67
     1
  8
1
  6
Continuous
 62
    18
100
AcDbLine
 10
2.551951999999999
 20
7.151622999999999
 30
0.0
 11
2.551951999999999
 21
7.166222999999999
 31
0.0
  0
LINE
  5
3F2
330
B
100
AcDbEntity
 67
     1
  8
1
  6
Continuous
 62
    18
100
AcDbLine
 10
5.149225
 20
4.171759999999999
 30
0.0
 11
5.145468
 21
4.168002999999999
 31
0.0
  0
LINE
  5
3F3
330
B
100
AcDbEntity
 67
     1
  8
1
  6
Continuous
 62
    18
100
AcDbLine
 10
2.390801999999999
 20
6.145303
 30
0.0
 11
2.499862999999999
 21
6.145303
 31
0.0
  0
LINE
  5
3F4
330
B
100
AcDbEntity
 67
     1
  8
1
  6
Continuous
 62
    18
100
AcDbLine
 10
2.293795
 20
3.821255
 30
0.0
 11
1.994831999999999
 21
3.821255
 31
0.0
  0
LINE
  5
3F5
330
B
100
AcDbEntity
 67
     1
  8
1
  6
Continuous
 62
    18
100
AcDbLine
 10
2.401915
 20
3.866605999999999
 30
0.0
 11
2.402277
 21
3.887322
 31
0.0
  0
LINE
  5
3F6
330
B
100
AcDbEntity
 67
     1
  8
1
  6
Continuous
 62
    18
100
AcDbLine
 10
2.552624
 20
7.166222
 30
0.0
 11
2.552872
 21
7.183436
 31
0.0
  0
LINE
  5
3F7
330
B
100
AcDbEntity
 67
     1
  8
1
  6
Continuous
 62
    18
100
AcDbLine
 10
4.722133
 20
4.516900999999999
 30
0.0
 11
4.703763999999999
 21
4.513246999999999
 31
0.0
  0
LINE
  5
3F8
330
B
100
AcDbEntity
 67
     1
  8
1
  6
Continuous
 62
    18
100
AcDbLine
 10
1.865325999999999
 20
6.148341
 30
0.0
 11
2.293311
 21
6.148341
 31
0.0
  0
LINE
  5
3F9
330
B
100
AcDbEntity
 67
     1
  8
1
  6
Continuous
 62
    18
100
AcDbLine
 10
2.237022999999999
 20
3.683459999999999
 30
0.0
 11
2.294709999999999
 21
3.683459999999999
 31
0.0
  0
LINE
  5
3FA
330
B
100
AcDbEntity
 67
     1
  8
1
  6
Continuous
 62
    18
100
AcDbLine
 10
1.815324999999999
 20
4.342811
 30
0.0
 11
1.815324999999999
 21
4.33574
 31
0.0
  0
LINE
  5
3FB
330
B
100
AcDbEntity
 67
     1
  8
1
  6
Continuous
 62
    18
100
AcDbLine
 10
2.597844999999999
 20
7.378731
 30
0.0
 11
2.59131
 21
7.378731
 31
0.0
  0
LINE
  5
3FC
330
B
100
AcDbEntity
 67
     1
  8
1
  6
Continuous
 62
    18
100
AcDbLine
 10
4.024541999999999
 20
4.012322
 30
0.0
 11
4.026113999999999
 21
4.012322
 31
0.0
  0
LINE
  5
3FD
330
B
100
AcDbEntity
 67
     1
  8
1
  6
Continuous
 62
    18
100
AcDbLine
 10
1.859949
 20
6.125529
 30
0.0
 11
2.390801999999999
 21
6.125529
 31
0.0
  0
LINE
  5
3FE
330
B
100
AcDbEntity
 67
     1
  8
1
  6
Continuous
 62
    18
100
AcDbLine
 10
2.567649
 20
6.809828999999999
 30
0.0
 11
2.577989
 21
6.81128
 31
0.0
  0
LINE
  5
3FF
330
B
100
AcDbEntity
 67
     1
  8
1
  6
Continuous
 62
    18
100
AcDbLine
 10
1.681731
 20
4.466638999999999
 30
0.0
 11
1.677686999999999
 21
4.463348
 31
0.0
  0
LINE
  5
400
330
B
100
AcDbEntity
 67
     1
  8
1
  6
Continuous
 62
    18
100
AcDbLine
 10
4.144403999999999
 20
4.1656
 30
0.0
 11
4.167919
 21
4.175341
 31
0.0
  0
LINE
  5
401
330
B
100
AcDbEntity
 67
     1
  8
1
  6
Continuous
 62
    18
100
AcDbLine
 10
2.575245999999999
 20
6.073351
 30
0.0
 11
2.50554
 21
6.073351
 31
0.0
  0
LINE
  5
402
330
B
100
AcDbEntity
 67
     1
  8
1
  6
Continuous
 62
    18
100
AcDbLine
 10
1.815527
 20
4.097459999999999
 30
0.0
 11
1.815482
 21
4.100499
 31
0.0
  0
LINE
  5
403
330
B
100
AcDbEntity
 67
     1
  8
1
  6
Continuous
 62
    18
100
AcDbLine
 10
1.733463999999999
 20
7.180235
 30
0.0
 11
1.750321
 21
7.183436
 31
0.0
  0
LINE
  5
404
330
B
100
AcDbEntity
 67
     1
  8
1
  6
Continuous
 62
    18
100
AcDbLine
 10
1.810709
 20
4.35014
 30
0.0
 11
1.812184
 21
4.348773
 31
0.0
  0
LINE
  5
405
330
B
100
AcDbEntity
 67
     1
  8
1
  6
Continuous
 62
    18
100
AcDbLine
 10
1.80109
 20
6.15253
 30
0.0
 11
1.821954
 21
6.15253
 31
0.0
  0
LINE
  5
406
330
B
100
AcDbEntity
 67
     1
  8
1
  6
Continuous
 62
    18
100
AcDbLine
 10
1.953666999999999
 20
3.766258
 30
0.0
 11
1.954499
 21
3.76709
 31
0.0
  0
LINE
  5
407
330
B
100
AcDbEntity
 67
     1
  8
1
  6
Continuous
 62
    18
100
AcDbLine
 10
1.805975
 20
6.261191999999999
 30
0.0
 11
1.804552999999999
 21
6.239774999999999
 31
0.0
  0
LINE
  5
408
330
B
100
AcDbEntity
 67
     1
  8
1
  6
Continuous
 62
    18
100
AcDbLine
 10
1.725204999999999
 20
6.81128
 30
0.0
 11
1.715672999999999
 21
7.084224
 31
0.0
  0
LINE
  5
409
330
B
100
AcDbEntity
 67
     1
  8
1
  6
Continuous
 62
    18
100
AcDbLine
 10
1.663038
 20
4.397187
 30
0.0
 11
1.66502
 21
4.393183
 31
0.0
  0
LINE
  5
40A
330
B
100
AcDbEntity
 67
     1
  8
1
  6
Continuous
 62
    18
100
AcDbLine
 10
1.670054
 20
6.496966
 30
0.0
 11
1.673063999999999
 21
6.493441
 31
0.0
  0
LINE
  5
40B
330
B
100
AcDbEntity
 67
     1
  8
1
  6
Continuous
 62
    18
100
AcDbLine
 10
1.765986
 20
4.547870999999999
 30
0.0
 11
1.765718999999999
 21
4.533091999999999
 31
0.0
  0
LINE
  5
40C
330
B
100
AcDbEntity
 67
     1
  8
1
  6
Continuous
 62
    18
100
AcDbLine
 10
1.708752
 20
6.293670999999999
 30
0.0
 11
1.708760999999999
 21
6.293416
 31
0.0
  0
LINE
  5
40D
330
B
100
AcDbEntity
 67
     1
  8
1
  6
Continuous
 62
    18
100
AcDbLine
 10
1.733802
 20
4.477033
 30
0.0
 11
1.712755
 21
4.474072
 31
0.0
  0
LINE
  5
40E
330
B
100
AcDbEntity
 67
     1
  8
1
  6
Continuous
 62
    18
100
AcDbLine
 10
1.76619
 20
6.656724999999999
 30
0.0
 11
1.766027999999999
 21
6.629052
 31
0.0
  0
LINE
  5
40F
330
B
100
AcDbEntity
 67
     1
  8
1
  6
Continuous
 62
    18
100
AcDbLine
 10
1.71858
 20
4.359236
 30
0.0
 11
1.720927999999999
 21
4.358891999999999
 31
0.0
  0
LINE
  5
410
330
B
100
AcDbEntity
 67
     1
  8
1
  6
Continuous
 62
    18
100
AcDbLine
 10
1.731734
 20
6.469411
 30
0.0
 11
1.733802
 21
6.469388999999999
 31
0.0
  0
LINE
  5
411
330
B
100
AcDbEntity
 67
     1
  8
1
  6
Continuous
 62
    18
100
AcDbLine
 10
1.728326999999999
 20
4.501271
 30
0.0
 11
1.721686
 21
4.482156999999999
 31
0.0
  0
LINE
  5
412
330
B
100
AcDbEntity
 67
     1
  8
1
  6
Continuous
 62
    18
100
AcDbLine
 10
1.803234999999999
 20
6.250904
 30
0.0
 11
1.753341999999999
 21
6.250904
 31
0.0
  0
LINE
  5
413
330
B
100
AcDbEntity
 67
     1
  8
1
  6
Continuous
 62
    18
100
AcDbLine
 10
1.727134999999999
 20
6.621643999999999
 30
0.0
 11
1.720747
 21
6.637332
 31
0.0
  0
LINE
  5
414
330
B
100
AcDbEntity
 67
     1
  8
1
  6
Continuous
 62
    18
100
AcDbLine
 10
1.815324999999999
 20
4.349752999999999
 30
0.0
 11
1.821183
 21
4.359753999999999
 31
0.0
  0
LINE
  5
415
330
B
100
AcDbEntity
 67
     1
  8
1
  6
Continuous
 62
    18
100
AcDbLine
 10
2.599575999999999
 20
7.380461999999999
 30
0.0
 11
2.597844999999999
 21
7.378731
 31
0.0
  0
LINE
  5
416
330
B
100
AcDbEntity
 67
     1
  8
1
  6
Continuous
 62
    18
100
AcDbLine
 10
1.658234
 20
3.997691999999999
 30
0.0
 11
1.65384
 21
3.997583999999999
 31
0.0
  0
LINE
  5
417
330
B
100
AcDbEntity
 67
     1
  8
1
  6
Continuous
 62
    18
100
AcDbLine
 10
1.673983
 20
6.571161999999999
 30
0.0
 11
1.670616999999999
 21
6.567369999999999
 31
0.0
  0
LINE
  5
418
330
B
100
AcDbEntity
 67
     1
  8
1
  6
Continuous
 62
    18
100
AcDbLine
 10
1.825274999999999
 20
6.399108
 30
0.0
 11
1.81799
 21
6.388783
 31
0.0
  0
LINE
  5
419
330
B
100
AcDbEntity
 67
     1
  8
1
  6
Continuous
 62
    18
100
AcDbLine
 10
1.664488999999999
 20
4.403743
 30
0.0
 11
1.658802
 21
4.424055
 31
0.0
  0
LINE
  5
41A
330
B
100
AcDbEntity
 67
     1
  8
1
  6
Continuous
 62
    18
100
AcDbLine
 10
1.815324999999999
 20
4.120927
 30
0.0
 11
1.815324999999999
 21
4.268494
 31
0.0
  0
LINE
  5
41B
330
B
100
AcDbEntity
 67
     1
  8
1
  6
Continuous
 62
    18
100
AcDbLine
 10
1.727134999999999
 20
6.720902
 30
0.0
 11
1.720747
 21
6.705214999999999
 31
0.0
  0
LINE
  5
41C
330
B
100
AcDbEntity
 67
     1
  8
1
  6
Continuous
 62
    18
100
AcDbLine
 10
1.720361
 20
3.905901
 30
0.0
 11
1.724243999999999
 21
3.683423999999999
 31
0.0
  0
LINE
  5
41D
330
B
100
AcDbEntity
 67
     1
  8
1
  6
Continuous
 62
    18
100
AcDbLine
 10
1.798633
 20
6.467563
 30
0.0
 11
1.801609
 21
6.466587
 31
0.0
  0
LINE
  5
41E
330
B
100
AcDbEntity
 67
     1
  8
1
  6
Continuous
 62
    18
100
AcDbLine
 10
1.816824
 20
6.160584
 30
0.0
 11
1.815527
 21
6.169919999999999
 31
0.0
  0
LINE
  5
41F
330
B
100
AcDbEntity
 67
     1
  8
1
  6
Continuous
 62
    18
100
AcDbLine
 10
2.398801999999999
 20
4.126163
 30
0.0
 11
2.398801999999999
 21
4.137621
 31
0.0
  0
LINE
  5
420
330
B
100
AcDbEntity
 67
     1
  8
1
  6
Continuous
 62
    18
100
AcDbLine
 10
2.499209999999999
 20
6.602069
 30
0.0
 11
1.765599
 21
6.602069
 31
0.0
  0
LINE
  5
421
330
B
100
AcDbEntity
 67
     1
  8
1
  6
Continuous
 62
    18
100
AcDbLine
 10
1.958892999999999
 20
3.756485
 30
0.0
 11
1.969500999999999
 21
3.752091999999999
 31
0.0
  0
LINE
  5
422
330
B
100
AcDbEntity
 67
     1
  8
1
  6
Continuous
 62
    18
100
AcDbLine
 10
1.668838
 20
5.964739999999999
 30
0.0
 11
1.668838
 21
5.975254
 31
0.0
  0
LINE
  5
423
330
B
100
AcDbEntity
 67
     1
  8
1
  6
Continuous
 62
    18
100
AcDbLine
 10
1.820195
 20
6.203355
 30
0.0
 11
1.817379999999999
 21
6.211151
 31
0.0
  0
LINE
  5
424
330
B
100
AcDbEntity
 67
     1
  8
1
  6
Continuous
 62
    18
100
AcDbLine
 10
2.496506999999999
 20
4.447754999999999
 30
0.0
 11
2.497186999999999
 21
4.126164
 31
0.0
  0
LINE
  5
425
330
B
100
AcDbEntity
 67
     1
  8
1
  6
Continuous
 62
    18
100
AcDbLine
 10
5.472303
 20
3.905901
 30
0.0
 11
5.468935
 21
3.712936
 31
0.0
  0
LINE
  5
426
330
B
100
AcDbEntity
 67
     1
  8
1
  6
Continuous
 62
    18
100
AcDbLine
 10
2.582447
 20
6.637332
 30
0.0
 11
2.594440999999999
 21
6.293849999999999
 31
0.0
  0
LINE
  5
427
330
B
100
AcDbEntity
 67
     1
  8
1
  6
Continuous
 62
    18
100
AcDbLine
 10
2.374906
 20
3.802094999999999
 30
0.0
 11
2.394039999999999
 21
3.805898999999999
 31
0.0
  0
LINE
  5
428
330
B
100
AcDbEntity
 67
     1
  8
1
  6
Continuous
 62
    18
100
AcDbLine
 10
1.668838
 20
7.451786
 30
0.0
 11
1.668838
 21
6.564758999999999
 31
0.0
  0
LINE
  5
429
330
B
100
AcDbEntity
 67
     1
  8
1
  6
Continuous
 62
    18
100
AcDbLine
 10
1.801301999999999
 20
6.167654999999999
 30
0.0
 11
1.808799999999999
 21
6.172837999999999
 31
0.0
  0
LINE
  5
42A
330
B
100
AcDbEntity
 67
     1
  8
1
  6
Continuous
 62
    18
100
AcDbLine
 10
2.504802
 20
4.175341
 30
0.0
 11
2.503983
 21
4.178662999999999
 31
0.0
  0
LINE
  5
42B
330
B
100
AcDbEntity
 67
     1
  8
1
  6
Continuous
 62
    18
100
AcDbLine
 10
4.009515
 20
3.905901
 30
0.0
 11
4.011116
 21
3.997583999999999
 31
0.0
  0
LINE
  5
42C
330
B
100
AcDbEntity
 67
     1
  8
1
  6
Continuous
 62
    18
100
AcDbLine
 10
2.594141999999999
 20
6.290670999999999
 30
0.0
 11
2.594431999999999
 21
6.293594999999999
 31
0.0
  0
LINE
  5
42D
330
B
100
AcDbEntity
 67
     1
  8
1
  6
Continuous
 62
    18
100
AcDbLine
 10
2.602376
 20
4.012322
 30
0.0
 11
2.61979
 21
4.012322
 31
0.0
  0
LINE
  5
42E
330
B
100
AcDbEntity
 67
     1
  8
1
  6
Continuous
 62
    18
100
AcDbLine
 10
1.652238999999999
 20
5.973652999999999
 30
0.0
 11
1.65384
 21
5.975254
 31
0.0
  0
LINE
  5
42F
330
B
100
AcDbEntity
 67
     1
  8
1
  6
Continuous
 62
    18
100
AcDbLine
 10
1.733802
 20
6.553029
 30
0.0
 11
1.712755
 21
6.550068
 31
0.0
  0
LINE
  5
430
330
B
100
AcDbEntity
 67
     1
  8
1
  6
Continuous
 62
    18
100
AcDbLine
 10
2.390801999999999
 20
4.126163
 30
0.0
 11
2.390801999999999
 21
4.122669999999999
 31
0.0
  0
LINE
  5
431
330
B
100
AcDbEntity
 67
     1
  8
1
  6
Continuous
 62
    18
100
AcDbLine
 10
2.340802
 20
4.126052999999999
 30
0.0
 11
2.340802
 21
4.127707
 31
0.0
  0
LINE
  5
432
330
B
100
AcDbEntity
 67
     1
  8
1
  6
Continuous
 62
    18
100
AcDbLine
 10
5.502644999999999
 20
3.997583999999999
 30
0.0
 11
4.026112999999999
 21
3.997583999999999
 31
0.0
  0
LINE
  5
433
330
B
100
AcDbEntity
 67
     1
  8
1
  6
Continuous
 62
    18
100
AcDbLine
 10
2.500872999999999
 20
6.150365999999999
 30
0.0
 11
2.501015
 21
6.160226999999999
 31
0.0
  0
LINE
  5
434
330
B
100
AcDbEntity
 67
     1
  8
1
  6
Continuous
 62
    18
100
AcDbLine
 10
1.862881999999999
 20
3.85124
 30
0.0
 11
1.862870999999999
 21
3.885169999999999
 31
0.0
  0
LINE
  5
435
330
B
100
AcDbEntity
 67
     1
  8
1
  6
Continuous
 62
    18
100
AcDbLine
 10
2.636388
 20
7.453386
 30
0.0
 11
2.636388
 21
5.973652999999999
 31
0.0
  0
LINE
  5
436
330
B
100
AcDbEntity
 67
     1
  8
1
  6
Continuous
 62
    18
100
AcDbLine
 10
1.815324999999999
 20
6.454034
 30
0.0
 11
1.821183
 21
6.444033999999999
 31
0.0
  0
LINE
  5
437
330
B
100
AcDbEntity
 67
     1
  8
1
  6
Continuous
 62
    18
100
AcDbLine
 10
1.724515
 20
4.051816
 30
0.0
 11
1.714586
 21
4.048008999999999
 31
0.0
  0
LINE
  5
438
330
B
100
AcDbEntity
 67
     1
  8
1
  6
Continuous
 62
    18
100
AcDbLine
 10
1.801623
 20
4.147037999999999
 30
0.0
 11
1.802409999999999
 21
4.148228999999999
 31
0.0
  0
LINE
  5
439
330
B
100
AcDbEntity
 67
     1
  8
1
  6
Continuous
 62
    18
100
AcDbLine
 10
4.043565
 20
3.683459999999999
 30
0.0
 11
3.991160999999999
 21
3.801569999999999
 31
0.0
  0
LINE
  5
43A
330
B
100
AcDbEntity
 67
     1
  8
1
  6
Continuous
 62
    18
100
AcDbLine
 10
2.473301999999999
 20
6.250589999999999
 30
0.0
 11
2.497240999999999
 21
6.250614999999999
 31
0.0
  0
LINE
  5
43B
330
B
100
AcDbEntity
 67
     1
  8
1
  6
Continuous
 62
    18
100
AcDbLine
 10
2.294980999999999
 20
3.683459999999999
 30
0.0
 11
2.294954999999999
 21
3.766252999999999
 31
0.0
  0
LINE
  5
43C
330
B
100
AcDbEntity
 67
     1
  8
1
  6
Continuous
 62
    18
100
AcDbLine
 10
2.61979
 20
5.975254
 30
0.0
 11
2.61979
 21
5.964739999999999
 31
0.0
  0
LINE
  5
43D
330
B
100
AcDbEntity
 67
     1
  8
1
  6
Continuous
 62
    18
100
AcDbLine
 10
1.733802
 20
6.581313
 30
0.0
 11
2.453301999999999
 21
6.581313
 31
0.0
  0
LINE
  5
43E
330
B
100
AcDbEntity
 67
     1
  8
1
  6
Continuous
 62
    18
100
AcDbLine
 10
2.503983
 20
4.178662999999999
 30
0.0
 11
2.574454
 21
4.178662999999999
 31
0.0
  0
LINE
  5
43F
330
B
100
AcDbEntity
 67
     1
  8
1
  6
Continuous
 62
    18
100
AcDbLine
 10
1.728793999999999
 20
4.366814999999999
 30
0.0
 11
1.743254999999999
 21
4.373394
 31
0.0
  0
LINE
  5
440
330
B
100
AcDbEntity
 67
     1
  8
1
  6
Continuous
 62
    18
100
AcDbLine
 10
5.210994999999999
 20
4.078624999999999
 30
0.0
 11
5.197023999999999
 21
4.061893
 31
0.0
  0
LINE
  5
441
330
B
100
AcDbEntity
 67
     1
  8
1
  6
Continuous
 62
    18
100
AcDbLine
 10
1.802849
 20
6.129245
 30
0.0
 11
1.803003999999999
 21
6.133431999999999
 31
0.0
  0
LINE
  5
442
330
B
100
AcDbEntity
 67
     1
  8
1
  6
Continuous
 62
    18
100
AcDbLine
 10
2.602376
 20
4.008021
 30
0.0
 11
2.602376
 21
4.012322
 31
0.0
  0
LINE
  5
443
330
B
100
AcDbEntity
 67
     1
  8
1
  6
Continuous
 62
    18
100
AcDbLine
 10
2.453301999999999
 20
6.588383999999999
 30
0.0
 11
1.733802
 21
6.588383999999999
 31
0.0
  0
LINE
  5
444
330
B
100
AcDbEntity
 67
     1
  8
1
  6
Continuous
 62
    18
100
AcDbLine
 10
2.599575999999999
 20
4.012322
 30
0.0
 11
2.599575999999999
 21
3.977322
 31
0.0
  0
LINE
  5
445
330
B
100
AcDbEntity
 67
     1
  8
1
  6
Continuous
 62
    18
100
AcDbLine
 10
2.551951999999999
 20
7.166222999999999
 30
0.0
 11
2.551951999999999
 21
7.183442999999999
 31
0.0
  0
LINE
  5
446
330
B
100
AcDbEntity
 67
     1
  8
1
  6
Continuous
 62
    18
100
AcDbLine
 10
5.145468
 20
4.168002999999999
 30
0.0
 11
5.135082999999999
 21
4.157618
 31
0.0
  0
LINE
  5
447
330
B
100
AcDbEntity
 67
     1
  8
1
  6
Continuous
 62
    18
100
AcDbLine
 10
2.390801999999999
 20
6.146799999999999
 30
0.0
 11
2.500404999999999
 21
6.146799999999999
 31
0.0
  0
LINE
  5
448
330
B
100
AcDbEntity
 67
     1
  8
1
  6
Continuous
 62
    18
100
AcDbLine
 10
2.294313999999999
 20
3.821255
 30
0.0
 11
2.293795
 21
3.821255
 31
0.0
  0
LINE
  5
449
330
B
100
AcDbEntity
 67
     1
  8
1
  6
Continuous
 62
    18
100
AcDbLine
 10
1.978213999999999
 20
3.866605999999999
 30
0.0
 11
1.978575999999999
 21
3.887322
 31
0.0
  0
LINE
  5
44A
330
B
100
AcDbEntity
 67
     1
  8
1
  6
Continuous
 62
    18
100
AcDbLine
 10
2.551951999999999
 20
7.183442999999999
 30
0.0
 11
2.552872
 21
7.183436
 31
0.0
  0
LINE
  5
44B
330
B
100
AcDbEntity
 67
     1
  8
1
  6
Continuous
 62
    18
100
AcDbLine
 10
4.703763999999999
 20
4.513246999999999
 30
0.0
 11
4.688191999999999
 21
4.502842
 31
0.0
  0
LINE
  5
44C
330
B
100
AcDbEntity
 67
     1
  8
1
  6
Continuous
 62
    18
100
AcDbLine
 10
2.293311
 20
6.148341
 30
0.0
 11
2.291431
 21
6.153262
 31
0.0
  0
LINE
  5
44D
330
B
100
AcDbEntity
 67
     1
  8
1
  6
Continuous
 62
    18
100
AcDbLine
 10
2.294709999999999
 20
3.683459999999999
 30
0.0
 11
2.293795
 21
3.801569999999999
 31
0.0
  0
LINE
  5
44E
330
B
100
AcDbEntity
 67
     1
  8
1
  6
Continuous
 62
    18
100
AcDbLine
 10
2.59131
 20
7.378731
 30
0.0
 11
2.574917999999999
 21
7.378731
 31
0.0
  0
LINE
  5
44F
330
B
100
AcDbEntity
 67
     1
  8
1
  6
Continuous
 62
    18
100
AcDbLine
 10
4.301942999999999
 20
4.178662999999999
 30
0.0
 11
4.656372
 21
4.533091999999999
 31
0.0
  0
LINE
  5
450
330
B
100
AcDbEntity
 67
     1
  8
1
  6
Continuous
 62
    18
100
AcDbLine
 10
2.500516999999999
 20
6.116291999999999
 30
0.0
 11
2.390801999999999
 21
6.116291999999999
 31
0.0
  0
LINE
  5
451
330
B
100
AcDbEntity
 67
     1
  8
1
  6
Continuous
 62
    18
100
AcDbLine
 10
1.725204999999999
 20
6.81128
 30
0.0
 11
2.577989
 21
6.81128
 31
0.0
  0
LINE
  5
452
330
B
100
AcDbEntity
 67
     1
  8
1
  6
Continuous
 62
    18
100
AcDbLine
 10
1.677686999999999
 20
4.463348
 30
0.0
 11
1.673983
 21
4.459811
 31
0.0
  0
LINE
  5
453
330
B
100
AcDbEntity
 67
     1
  8
1
  6
Continuous
 62
    18
100
AcDbLine
 10
4.167919
 20
4.175341
 30
0.0
 11
4.193153999999999
 21
4.178662999999999
 31
0.0
  0
LINE
  5
454
330
B
100
AcDbEntity
 67
     1
  8
1
  6
Continuous
 62
    18
100
AcDbLine
 10
2.578679
 20
5.975062
 30
0.0
 11
2.575245999999999
 21
6.073351
 31
0.0
  0
LINE
  5
455
330
B
100
AcDbEntity
 67
     1
  8
1
  6
Continuous
 62
    18
100
AcDbLine
 10
1.820772999999999
 20
4.120163999999999
 30
0.0
 11
1.819686
 21
4.120762
 31
0.0
  0
LINE
  5
456
330
B
100
AcDbEntity
 67
     1
  8
1
  6
Continuous
 62
    18
100
AcDbLine
 10
1.750781
 20
7.151627
 30
0.0
 11
1.733883999999999
 21
7.151157
 31
0.0
  0
LINE
  5
457
330
B
100
AcDbEntity
 67
     1
  8
1
  6
Continuous
 62
    18
100
AcDbLine
 10
1.812184
 20
4.348773
 30
0.0
 11
1.813325999999999
 21
4.347470999999999
 31
0.0
  0
LINE
  5
458
330
B
100
AcDbEntity
 67
     1
  8
1
  6
Continuous
 62
    18
100
AcDbLine
 10
1.865324999999999
 20
6.153262
 30
0.0
 11
2.340802
 21
6.153262
 31
0.0
  0
LINE
  5
459
330
B
100
AcDbEntity
 67
     1
  8
1
  6
Continuous
 62
    18
100
AcDbLine
 10
1.953666999999999
 20
3.801262999999999
 30
0.0
 11
1.954499
 21
3.802094999999999
 31
0.0
  0
LINE
  5
45A
330
B
100
AcDbEntity
 67
     1
  8
1
  6
Continuous
 62
    18
100
AcDbLine
 10
1.804865
 20
6.465081999999999
 30
0.0
 11
1.803651999999999
 21
6.447941999999999
 31
0.0
  0
LINE
  5
45B
330
B
100
AcDbEntity
 67
     1
  8
1
  6
Continuous
 62
    18
100
AcDbLine
 10
2.340802
 20
4.126052999999999
 30
0.0
 11
2.340802
 21
4.12158
 31
0.0
  0
LINE
  5
45C
330
B
100
AcDbEntity
 67
     1
  8
1
  6
Continuous
 62
    18
100
AcDbLine
 10
2.58752
 20
7.084224
 30
0.0
 11
2.577989
 21
6.81128
 31
0.0
  0
LINE
  5
45D
330
B
100
AcDbEntity
 67
     1
  8
1
  6
Continuous
 62
    18
100
AcDbLine
 10
1.66502
 20
4.393183
 30
0.0
 11
1.667354
 21
4.389338999999999
 31
0.0
  0
LINE
  5
45E
330
B
100
AcDbEntity
 67
     1
  8
1
  6
Continuous
 62
    18
100
AcDbLine
 10
1.673063999999999
 20
6.493441
 30
0.0
 11
1.676441
 21
6.490057
 31
0.0
  0
LINE
  5
45F
330
B
100
AcDbEntity
 67
     1
  8
1
  6
Continuous
 62
    18
100
AcDbLine
 10
2.537474
 20
4.533091999999999
 30
0.0
 11
2.559645999999999
 21
4.529346
 31
0.0
  0
LINE
  5
460
330
B
100
AcDbEntity
 67
     1
  8
1
  6
Continuous
 62
    18
100
AcDbLine
 10
1.708760999999999
 20
6.293416
 30
0.0
 11
1.709051999999999
 21
6.290491
 31
0.0
  0
LINE
  5
461
330
B
100
AcDbEntity
 67
     1
  8
1
  6
Continuous
 62
    18
100
AcDbLine
 10
1.712755
 20
4.474072
 30
0.0
 11
1.694911
 21
4.465641999999999
 31
0.0
  0
LINE
  5
462
330
B
100
AcDbEntity
 67
     1
  8
1
  6
Continuous
 62
    18
100
AcDbLine
 10
1.766027999999999
 20
6.629052
 30
0.0
 11
1.765718999999999
 21
6.605511999999999
 31
0.0
  0
LINE
  5
463
330
B
100
AcDbEntity
 67
     1
  8
1
  6
Continuous
 62
    18
100
AcDbLine
 10
2.561875
 20
3.539718
 30
0.0
 11
2.528265999999999
 21
3.539718
 31
0.0
  0
LINE
  5
464
330
B
100
AcDbEntity
 67
     1
  8
1
  6
Continuous
 62
    18
100
AcDbLine
 10
1.733802
 20
6.594241999999999
 30
0.0
 11
1.730668999999999
 21
6.594191999999999
 31
0.0
  0
LINE
  5
465
330
B
100
AcDbEntity
 67
     1
  8
1
  6
Continuous
 62
    18
100
AcDbLine
 10
1.765718999999999
 20
4.533091999999999
 30
0.0
 11
1.765599
 21
4.529649
 31
0.0
  0
LINE
  5
466
330
B
100
AcDbEntity
 67
     1
  8
1
  6
Continuous
 62
    18
100
AcDbLine
 10
1.72874
 20
6.142294
 30
0.0
 11
1.799209999999999
 21
6.142294
 31
0.0
  0
LINE
  5
467
330
B
100
AcDbEntity
 67
     1
  8
1
  6
Continuous
 62
    18
100
AcDbLine
 10
1.821183
 20
4.359753999999999
 30
0.0
 11
1.835325
 21
4.363895999999999
 31
0.0
  0
LINE
  5
468
330
B
100
AcDbEntity
 67
     1
  8
1
  6
Continuous
 62
    18
100
AcDbLine
 10
2.554603999999999
 20
7.425435
 30
0.0
 11
2.571817999999999
 21
7.422013
 31
0.0
  0
LINE
  5
469
330
B
100
AcDbEntity
 67
     1
  8
1
  6
Continuous
 62
    18
100
AcDbLine
 10
1.805101999999999
 20
3.972322
 30
0.0
 11
1.805134999999999
 21
3.977322
 31
0.0
  0
LINE
  5
46A
330
B
100
AcDbEntity
 67
     1
  8
1
  6
Continuous
 62
    18
100
AcDbLine
 10
1.670616999999999
 20
6.567369999999999
 30
0.0
 11
1.667663
 21
6.563403999999999
 31
0.0
  0
LINE
  5
46B
330
B
100
AcDbEntity
 67
     1
  8
1
  6
Continuous
 62
    18
100
AcDbLine
 10
1.81799
 20
6.388783
 30
0.0
 11
1.815324999999999
 21
6.379844999999999
 31
0.0
  0
LINE
  5
46C
330
B
100
AcDbEntity
 67
     1
  8
1
  6
Continuous
 62
    18
100
AcDbLine
 10
2.453301999999999
 20
4.482891
 30
0.0
 11
2.453301999999999
 21
4.481367999999999
 31
0.0
  0
LINE
  5
46D
330
B
100
AcDbEntity
 67
     1
  8
1
  6
Continuous
 62
    18
100
AcDbLine
 10
1.720747
 20
6.637332
 30
0.0
 11
1.721109999999999
 21
6.652905
 31
0.0
  0
LINE
  5
46E
330
B
100
AcDbEntity
 67
     1
  8
1
  6
Continuous
 62
    18
100
AcDbLine
 10
1.724243999999999
 20
3.683423999999999
 30
0.0
 11
1.849813999999999
 21
3.683423999999999
 31
0.0
  0
LINE
  5
46F
330
B
100
AcDbEntity
 67
     1
  8
1
  6
Continuous
 62
    18
100
AcDbLine
 10
1.801609
 20
6.466587
 30
0.0
 11
1.804324
 21
6.465456999999999
 31
0.0
  0
LINE
  5
470
330
B
100
AcDbEntity
 67
     1
  8
1
  6
Continuous
 62
    18
100
AcDbLine
 10
1.815527
 20
6.169919999999999
 30
0.0
 11
1.815482
 21
6.172958999999999
 31
0.0
  0
LINE
  5
471
330
B
100
AcDbEntity
 67
     1
  8
1
  6
Continuous
 62
    18
100
AcDbLine
 10
1.733802
 20
4.369747
 30
0.0
 11
1.733802
 21
4.370967
 31
0.0
  0
LINE
  5
472
330
B
100
AcDbEntity
 67
     1
  8
1
  6
Continuous
 62
    18
100
AcDbLine
 10
1.718822999999999
 20
6.597777
 30
0.0
 11
1.719395
 21
6.598636999999999
 31
0.0
  0
LINE
  5
473
330
B
100
AcDbEntity
 67
     1
  8
1
  6
Continuous
 62
    18
100
AcDbLine
 10
1.969500999999999
 20
3.752091999999999
 30
0.0
 11
1.977838
 21
3.752091999999999
 31
0.0
  0
LINE
  5
474
330
B
100
AcDbEntity
 67
     1
  8
1
  6
Continuous
 62
    18
100
AcDbLine
 10
1.65384
 20
5.975254
 30
0.0
 11
1.658324
 21
5.975254
 31
0.0
  0
LINE
  5
475
330
B
100
AcDbEntity
 67
     1
  8
1
  6
Continuous
 62
    18
100
AcDbLine
 10
1.817379999999999
 20
6.211151
 30
0.0
 11
1.815563
 21
6.21753
 31
0.0
  0
LINE
  5
476
330
B
100
AcDbEntity
 67
     1
  8
1
  6
Continuous
 62
    18
100
AcDbLine
 10
2.501015
 20
4.112733
 30
0.0
 11
2.500818
 21
4.122669999999999
 31
0.0
  0
LINE
  5
477
330
B
100
AcDbEntity
 67
     1
  8
1
  6
Continuous
 62
    18
100
AcDbLine
 10
2.594440999999999
 20
6.293849999999999
 30
0.0
 11
2.594440999999999
 21
6.142294
 31
0.0
  0
LINE
  5
478
330
B
100
AcDbEntity
 67
     1
  8
1
  6
Continuous
 62
    18
100
AcDbLine
 10
2.394039999999999
 20
3.805898999999999
 30
0.0
 11
2.410261999999999
 21
3.816732
 31
0.0
  0
LINE
  5
479
330
B
100
AcDbEntity
 67
     1
  8
1
  6
Continuous
 62
    18
100
AcDbLine
 10
1.668838
 20
6.498823
 30
0.0
 11
1.668838
 21
5.975254
 31
0.0
  0
LINE
  5
47A
330
B
100
AcDbEntity
 67
     1
  8
1
  6
Continuous
 62
    18
100
AcDbLine
 10
1.808799999999999
 20
6.172837999999999
 30
0.0
 11
1.801643
 21
6.178257
 31
0.0
  0
LINE
  5
47B
330
B
100
AcDbEntity
 67
     1
  8
1
  6
Continuous
 62
    18
100
AcDbLine
 10
2.503983
 20
4.178662999999999
 30
0.0
 11
2.499951999999999
 21
4.178662999999999
 31
0.0
  0
LINE
  5
47C
330
B
100
AcDbEntity
 67
     1
  8
1
  6
Continuous
 62
    18
100
AcDbLine
 10
5.468935
 20
3.712936
 30
0.0
 11
5.468676999999999
 21
3.698158999999999
 31
0.0
  0
LINE
  5
47D
330
B
100
AcDbEntity
 67
     1
  8
1
  6
Continuous
 62
    18
100
AcDbLine
 10
2.594431999999999
 20
6.293594999999999
 30
0.0
 11
2.594440999999999
 21
6.293849999999999
 31
0.0
  0
LINE
  5
47E
330
B
100
AcDbEntity
 67
     1
  8
1
  6
Continuous
 62
    18
100
AcDbLine
 10
1.993645999999999
 20
3.683459999999999
 30
0.0
 11
1.849813
 21
3.683459999999999
 31
0.0
  0
LINE
  5
47F
330
B
100
AcDbEntity
 67
     1
  8
1
  6
Continuous
 62
    18
100
AcDbLine
 10
1.801301999999999
 20
4.104759999999999
 30
0.0
 11
1.801301999999999
 21
4.105801999999999
 31
0.0
  0
LINE
  5
480
330
B
100
AcDbEntity
 67
     1
  8
1
  6
Continuous
 62
    18
100
AcDbLine
 10
1.667236999999999
 20
5.958655
 30
0.0
 11
1.656631999999999
 21
5.963048
 31
0.0
  0
LINE
  5
481
330
B
100
AcDbEntity
 67
     1
  8
1
  6
Continuous
 62
    18
100
AcDbLine
 10
1.712755
 20
6.550068
 30
0.0
 11
1.694911
 21
6.541637999999999
 31
0.0
  0
LINE
  5
482
330
B
100
AcDbEntity
 67
     1
  8
1
  6
Continuous
 62
    18
100
AcDbLine
 10
2.390801999999999
 20
4.122669999999999
 30
0.0
 11
2.390801999999999
 21
4.112733
 31
0.0
  0
LINE
  5
483
330
B
100
AcDbEntity
 67
     1
  8
1
  6
Continuous
 62
    18
100
AcDbLine
 10
5.502644999999999
 20
4.012322
 30
0.0
 11
5.502644999999999
 21
4.008021
 31
0.0
  0
LINE
  5
484
330
B
100
AcDbEntity
 67
     1
  8
1
  6
Continuous
 62
    18
100
AcDbLine
 10
2.499862999999999
 20
6.145303
 30
0.0
 11
2.500404999999999
 21
6.146799999999999
 31
0.0
  0
LINE
  5
485
330
B
100
AcDbEntity
 67
     1
  8
1
  6
Continuous
 62
    18
100
AcDbLine
 10
2.425756
 20
3.885169999999999
 30
0.0
 11
1.862870999999999
 21
3.885169999999999
 31
0.0
  0
LINE
  5
486
330
B
100
AcDbEntity
 67
     1
  8
1
  6
Continuous
 62
    18
100
AcDbLine
 10
2.602376
 20
6.151032999999999
 30
0.0
 11
2.599574
 21
6.151032999999999
 31
0.0
  0
LINE
  5
487
330
B
100
AcDbEntity
 67
     1
  8
1
  6
Continuous
 62
    18
100
AcDbLine
 10
1.821183
 20
6.444033999999999
 30
0.0
 11
1.835325
 21
6.439891
 31
0.0
  0
LINE
  5
488
330
B
100
AcDbEntity
 67
     1
  8
1
  6
Continuous
 62
    18
100
AcDbLine
 10
1.714586
 20
4.048008999999999
 30
0.0
 11
1.707099
 21
4.037577999999999
 31
0.0
  0
LINE
  5
489
330
B
100
AcDbEntity
 67
     1
  8
1
  6
Continuous
 62
    18
100
AcDbLine
 10
1.802409999999999
 20
4.148228999999999
 30
0.0
 11
1.803424
 21
4.142036
 31
0.0
  0
LINE
  5
48A
330
B
100
AcDbEntity
 67
     1
  8
1
  6
Continuous
 62
    18
100
AcDbLine
 10
1.806404
 20
6.464366
 30
0.0
 11
1.805975
 21
6.261191999999999
 31
0.0
  0
LINE
  5
48B
330
B
100
AcDbEntity
 67
     1
  8
1
  6
Continuous
 62
    18
100
AcDbLine
 10
2.45338
 20
3.683459999999999
 30
0.0
 11
2.294980999999999
 21
3.683459999999999
 31
0.0
  0
LINE
  5
48C
330
B
100
AcDbEntity
 67
     1
  8
1
  6
Continuous
 62
    18
100
AcDbLine
 10
2.61979
 20
5.964739999999999
 30
0.0
 11
2.61979
 21
5.960255999999999
 31
0.0
  0
LINE
  5
48D
330
B
100
AcDbEntity
 67
     1
  8
1
  6
Continuous
 62
    18
100
AcDbLine
 10
2.453301999999999
 20
6.581313
 30
0.0
 11
2.467443999999999
 21
6.577171
 31
0.0
  0
LINE
  5
48E
330
B
100
AcDbEntity
 67
     1
  8
1
  6
Continuous
 62
    18
100
AcDbLine
 10
2.575245999999999
 20
4.150106
 30
0.0
 11
2.50554
 21
4.150106
 31
0.0
  0
LINE
  5
48F
330
B
100
AcDbEntity
 67
     1
  8
1
  6
Continuous
 62
    18
100
AcDbLine
 10
1.743254999999999
 20
4.373394
 30
0.0
 11
1.760222999999999
 21
4.375701
 31
0.0
  0
LINE
  5
490
330
B
100
AcDbEntity
 67
     1
  8
1
  6
Continuous
 62
    18
100
AcDbLine
 10
5.474563999999999
 20
4.061893
 30
0.0
 11
5.468519999999999
 21
4.062466
 31
0.0
  0
LINE
  5
491
330
B
100
AcDbEntity
 67
     1
  8
1
  6
Continuous
 62
    18
100
AcDbLine
 10
1.803003999999999
 20
6.133431999999999
 30
0.0
 11
1.803465
 21
6.141725
 31
0.0
  0
LINE
  5
492
330
B
100
AcDbEntity
 67
     1
  8
1
  6
Continuous
 62
    18
100
AcDbLine
 10
2.634786999999999
 20
3.997583999999999
 30
0.0
 11
2.636388
 21
3.905901
 31
0.0
  0
LINE
  5
493
330
B
100
AcDbEntity
 67
     1
  8
1
  6
Continuous
 62
    18
100
AcDbLine
 10
1.733802
 20
6.588383999999999
 30
0.0
 11
1.705100999999999
 21
6.584347
 31
0.0
  0
LINE
  5
494
330
B
100
AcDbEntity
 67
     1
  8
1
  6
Continuous
 62
    18
100
AcDbLine
 10
1.703616999999999
 20
4.012322
 30
0.0
 11
1.703616999999999
 21
3.977322
 31
0.0
  0
LINE
  5
495
330
B
100
AcDbEntity
 67
     1
  8
1
  6
Continuous
 62
    18
100
AcDbLine
 10
1.751241
 20
7.183442999999999
 30
0.0
 11
2.551951999999999
 21
7.183442999999999
 31
0.0
  0
LINE
  5
496
330
B
100
AcDbEntity
 67
     1
  8
1
  6
Continuous
 62
    18
100
AcDbLine
 10
5.135082999999999
 20
4.157618
 30
0.0
 11
4.86214
 21
4.430560999999999
 31
0.0
  0
LINE
  5
497
330
B
100
AcDbEntity
 67
     1
  8
1
  6
Continuous
 62
    18
100
AcDbLine
 10
2.501014
 20
6.160226999999999
 30
0.0
 11
2.390801999999999
 21
6.160226999999999
 31
0.0
  0
LINE
  5
498
330
B
100
AcDbEntity
 67
     1
  8
1
  6
Continuous
 62
    18
100
AcDbLine
 10
1.994831999999999
 20
3.821255
 30
0.0
 11
1.994831999999999
 21
3.801569999999999
 31
0.0
  0
LINE
  5
499
330
B
100
AcDbEntity
 67
     1
  8
1
  6
Continuous
 62
    18
100
AcDbLine
 10
1.884343999999999
 20
3.866605999999999
 30
0.0
 11
1.883983
 21
3.887322
 31
0.0
  0
LINE
  5
49A
330
B
100
AcDbEntity
 67
     1
  8
1
  6
Continuous
 62
    18
100
AcDbLine
 10
2.552413
 20
7.151627
 30
0.0
 11
2.551951999999999
 21
7.151622999999999
 31
0.0
  0
LINE
  5
49B
330
B
100
AcDbEntity
 67
     1
  8
1
  6
Continuous
 62
    18
100
AcDbLine
 10
4.787894
 20
4.533091999999999
 30
0.0
 11
4.783374
 21
4.529346
 31
0.0
  0
LINE
  5
49C
330
B
100
AcDbEntity
 67
     1
  8
1
  6
Continuous
 62
    18
100
AcDbLine
 10
2.599575999999999
 20
5.973682
 30
0.0
 11
1.703616999999999
 21
5.973682
 31
0.0
  0
LINE
  5
49D
330
B
100
AcDbEntity
 67
     1
  8
1
  6
Continuous
 62
    18
100
AcDbLine
 10
2.424913999999999
 20
3.852072
 30
0.0
 11
2.425745
 21
3.85124
 31
0.0
  0
LINE
  5
49E
330
B
100
AcDbEntity
 67
     1
  8
1
  6
Continuous
 62
    18
100
AcDbLine
 10
1.81799
 20
4.34798
 30
0.0
 11
1.825274999999999
 21
4.348001999999999
 31
0.0
  0
LINE
  5
49F
330
B
100
AcDbEntity
 67
     1
  8
1
  6
Continuous
 62
    18
100
AcDbLine
 10
4.312459999999999
 20
4.178662999999999
 30
0.0
 11
4.321596999999999
 21
4.176518999999999
 31
0.0
  0
LINE
  5
4A0
330
B
100
AcDbEntity
 67
     1
  8
1
  6
Continuous
 62
    18
100
AcDbLine
 10
2.390801999999999
 20
6.111387
 30
0.0
 11
1.86
 21
6.111387
 31
0.0
  0
LINE
  5
4A1
330
B
100
AcDbEntity
 67
     1
  8
1
  6
Continuous
 62
    18
100
AcDbLine
 10
1.865324999999999
 20
4.109049999999999
 30
0.0
 11
1.865324999999999
 21
4.090955
 31
0.0
  0
LINE
  5
4A2
330
B
100
AcDbEntity
 67
     1
  8
1
  6
Continuous
 62
    18
100
AcDbLine
 10
1.725204999999999
 20
6.81128
 30
0.0
 11
1.735545
 21
6.809828999999999
 31
0.0
  0
LINE
  5
4A3
330
B
100
AcDbEntity
 67
     1
  8
1
  6
Continuous
 62
    18
100
AcDbLine
 10
4.138352999999999
 20
4.136662
 30
0.0
 11
4.128473999999999
 21
4.146329999999999
 31
0.0
  0
LINE
  5
4A4
330
B
100
AcDbEntity
 67
     1
  8
1
  6
Continuous
 62
    18
100
AcDbLine
 10
2.390801999999999
 20
6.123362999999999
 30
0.0
 11
2.500357
 21
6.123362999999999
 31
0.0
  0
LINE
  5
4A5
330
B
100
AcDbEntity
 67
     1
  8
1
  6
Continuous
 62
    18
100
AcDbLine
 10
1.835325
 20
4.131897
 30
0.0
 11
1.835325
 21
4.127641999999999
 31
0.0
  0
LINE
  5
4A6
330
B
100
AcDbEntity
 67
     1
  8
1
  6
Continuous
 62
    18
100
AcDbLine
 10
1.733883999999999
 20
7.151157
 30
0.0
 11
1.719381
 21
7.149961
 31
0.0
  0
LINE
  5
4A7
330
B
100
AcDbEntity
 67
     1
  8
1
  6
Continuous
 62
    18
100
AcDbLine
 10
1.813325999999999
 20
4.347470999999999
 30
0.0
 11
1.814175
 21
4.346248999999999
 31
0.0
  0
LINE
  5
4A8
330
B
100
AcDbEntity
 67
     1
  8
1
  6
Continuous
 62
    18
100
AcDbLine
 10
1.806072999999999
 20
6.252691999999999
 30
0.0
 11
1.815325999999999
 21
6.252691999999999
 31
0.0
  0
LINE
  5
4A9
330
B
100
AcDbEntity
 67
     1
  8
1
  6
Continuous
 62
    18
100
AcDbLine
 10
1.913720999999999
 20
3.802094999999999
 30
0.0
 11
1.912888999999999
 21
3.801262999999999
 31
0.0
  0
LINE
  5
4AA
330
B
100
AcDbEntity
 67
     1
  8
1
  6
Continuous
 62
    18
100
AcDbLine
 10
1.803651999999999
 20
6.447941999999999
 30
0.0
 11
1.803234999999999
 21
6.250904
 31
0.0
  0
LINE
  5
4AB
330
B
100
AcDbEntity
 67
     1
  8
1
  6
Continuous
 62
    18
100
AcDbLine
 10
2.594440999999999
 20
4.159360999999999
 30
0.0
 11
2.594647
 21
4.153461
 31
0.0
  0
LINE
  5
4AC
330
B
100
AcDbEntity
 67
     1
  8
1
  6
Continuous
 62
    18
100
AcDbLine
 10
2.340802
 20
4.12158
 30
0.0
 11
2.340802
 21
4.109049999999999
 31
0.0
  0
LINE
  5
4AD
330
B
100
AcDbEntity
 67
     1
  8
1
  6
Continuous
 62
    18
100
AcDbLine
 10
2.552872
 20
7.423703999999998
 30
0.0
 11
2.554603999999999
 21
7.425435
 31
0.0
  0
LINE
  5
4AE
330
B
100
AcDbEntity
 67
     1
  8
1
  6
Continuous
 62
    18
100
AcDbLine
 10
1.667354
 20
4.389338999999999
 30
0.0
 11
1.670054
 21
4.385614
 31
0.0
  0
LINE
  5
4AF
330
B
100
AcDbEntity
 67
     1
  8
1
  6
Continuous
 62
    18
100
AcDbLine
 10
1.835325
 20
4.104605
 30
0.0
 11
1.835325
 21
4.082888999999999
 31
0.0
  0
LINE
  5
4B0
330
B
100
AcDbEntity
 67
     1
  8
1
  6
Continuous
 62
    18
100
AcDbLine
 10
1.676441
 20
6.490057
 30
0.0
 11
1.680100999999999
 21
6.486905
 31
0.0
  0
LINE
  5
4B1
330
B
100
AcDbEntity
 67
     1
  8
1
  6
Continuous
 62
    18
100
AcDbLine
 10
2.559645999999999
 20
4.529346
 30
0.0
 11
2.576058
 21
4.518307
 31
0.0
  0
LINE
  5
4B2
330
B
100
AcDbEntity
 67
     1
  8
1
  6
Continuous
 62
    18
100
AcDbLine
 10
1.709051999999999
 20
6.290491
 30
0.0
 11
1.712811
 21
6.280066999999999
 31
0.0
  0
LINE
  5
4B3
330
B
100
AcDbEntity
 67
     1
  8
1
  6
Continuous
 62
    18
100
AcDbLine
 10
1.694911
 20
4.465641999999999
 30
0.0
 11
1.682988999999999
 21
4.453025
 31
0.0
  0
LINE
  5
4B4
330
B
100
AcDbEntity
 67
     1
  8
1
  6
Continuous
 62
    18
100
AcDbLine
 10
2.537474
 20
6.605511999999999
 30
0.0
 11
2.559645999999999
 21
6.610033
 31
0.0
  0
LINE
  5
4B5
330
B
100
AcDbEntity
 67
     1
  8
1
  6
Continuous
 62
    18
100
AcDbLine
 10
2.452125999999999
 20
3.539718
 30
0.0
 11
2.528265999999999
 21
3.539718
 31
0.0
  0
LINE
  5
4B6
330
B
100
AcDbEntity
 67
     1
  8
1
  6
Continuous
 62
    18
100
AcDbLine
 10
1.730668999999999
 20
6.594191999999999
 30
0.0
 11
1.727547
 21
6.594041
 31
0.0
  0
LINE
  5
4B7
330
B
100
AcDbEntity
 67
     1
  8
1
  6
Continuous
 62
    18
100
AcDbLine
 10
1.720010999999999
 20
4.481766
 30
0.0
 11
1.720747
 21
4.502842
 31
0.0
  0
LINE
  5
4B8
330
B
100
AcDbEntity
 67
     1
  8
1
  6
Continuous
 62
    18
100
AcDbLine
 10
1.797652999999999
 20
6.073351
 30
0.0
 11
1.727947
 21
6.073351
 31
0.0
  0
LINE
  5
4B9
330
B
100
AcDbEntity
 67
     1
  8
1
  6
Continuous
 62
    18
100
AcDbLine
 10
1.835325
 20
4.126052999999999
 30
0.0
 11
1.835325
 21
4.120326999999999
 31
0.0
  0
LINE
  5
4BA
330
B
100
AcDbEntity
 67
     1
  8
1
  6
Continuous
 62
    18
100
AcDbLine
 10
1.785325
 20
4.375701
 30
0.0
 11
1.785325
 21
4.388055
 31
0.0
  0
LINE
  5
4BB
330
B
100
AcDbEntity
 67
     1
  8
1
  6
Continuous
 62
    18
100
AcDbLine
 10
2.571817999999999
 20
7.422013
 30
0.0
 11
2.586406999999999
 21
7.412266
 31
0.0
  0
LINE
  5
4BC
330
B
100
AcDbEntity
 67
     1
  8
1
  6
Continuous
 62
    18
100
AcDbLine
 10
1.736154999999999
 20
3.972322
 30
0.0
 11
1.736154999999999
 21
3.977322
 31
0.0
  0
LINE
  5
4BD
330
B
100
AcDbEntity
 67
     1
  8
1
  6
Continuous
 62
    18
100
AcDbLine
 10
1.667663
 20
6.563403999999999
 30
0.0
 11
1.665093999999999
 21
6.559224
 31
0.0
  0
LINE
  5
4BE
330
B
100
AcDbEntity
 67
     1
  8
1
  6
Continuous
 62
    18
100
AcDbLine
 10
1.815324999999999
 20
6.372773999999999
 30
0.0
 11
1.815324999999999
 21
6.379844999999999
 31
0.0
  0
LINE
  5
4BF
330
B
100
AcDbEntity
 67
     1
  8
1
  6
Continuous
 62
    18
100
AcDbLine
 10
2.453301999999999
 20
4.481367999999999
 30
0.0
 11
2.453301999999999
 21
4.477033
 31
0.0
  0
LINE
  5
4C0
330
B
100
AcDbEntity
 67
     1
  8
1
  6
Continuous
 62
    18
100
AcDbLine
 10
1.721109999999999
 20
6.652905
 30
0.0
 11
1.721238
 21
6.671272999999999
 31
0.0
  0
LINE
  5
4C1
330
B
100
AcDbEntity
 67
     1
  8
1
  6
Continuous
 62
    18
100
AcDbLine
 10
2.424913999999999
 20
3.852072
 30
0.0
 11
2.424924
 21
3.884337
 31
0.0
  0
LINE
  5
4C2
330
B
100
AcDbEntity
 67
     1
  8
1
  6
Continuous
 62
    18
100
AcDbLine
 10
1.804324
 20
6.465456999999999
 30
0.0
 11
1.806772999999999
 21
6.464199999999999
 31
0.0
  0
LINE
  5
4C3
330
B
100
AcDbEntity
 67
     1
  8
1
  6
Continuous
 62
    18
100
AcDbLine
 10
1.815482
 20
6.172958999999999
 30
0.0
 11
1.816534999999999
 21
6.184321999999999
 31
0.0
  0
LINE
  5
4C4
330
B
100
AcDbEntity
 67
     1
  8
1
  6
Continuous
 62
    18
100
AcDbLine
 10
4.452367999999999
 20
3.539718
 30
0.0
 11
4.397942999999999
 21
3.539718
 31
0.0
  0
LINE
  5
4C5
330
B
100
AcDbEntity
 67
     1
  8
1
  6
Continuous
 62
    18
100
AcDbLine
 10
1.718822999999999
 20
6.597777
 30
0.0
 11
2.496506999999999
 21
6.597777
 31
0.0
  0
LINE
  5
4C6
330
B
100
AcDbEntity
 67
     1
  8
1
  6
Continuous
 62
    18
100
AcDbLine
 10
1.977838
 20
3.752091999999999
 30
0.0
 11
1.988443999999999
 21
3.756483
 31
0.0
  0
ARC
  5
4C7
330
B
100
AcDbEntity
 67
     1
  8
1
  6
Continuous
 62
    18
100
AcDbCircle
 10
1.72874
 20
4.158662999999999
 30
0.0
 40
0.02
100
AcDbArc
 50
90.0
 51
178.0
  0
ARC
  5
4C8
330
B
100
AcDbEntity
 67
     1
  8
1
  6
Continuous
 62
    18
100
AcDbCircle
 10
2.453301999999999
 20
6.574241999999999
 30
0.0
 40
0.02
100
AcDbArc
 50
0.0
 51
90.0
  0
ARC
  5
4C9
330
B
100
AcDbEntity
 67
     1
  8
1
  6
Continuous
 62
    18
100
AcDbCircle
 10
5.234302999999999
 20
4.150322
 30
0.0
 40
0.045
100
AcDbArc
 50
225.0
 51
270.0
  0
ARC
  5
4CA
330
B
100
AcDbEntity
 67
     1
  8
1
  6
Continuous
 62
    18
100
AcDbCircle
 10
1.835325
 20
6.167404
 30
0.0
 40
0.02
100
AcDbArc
 50
215.525454
 51
270.0
  0
ARC
  5
4CB
330
B
100
AcDbEntity
 67
     1
  8
1
  6
Continuous
 62
    18
100
AcDbCircle
 10
5.429591
 20
4.060322
 30
0.0
 40
0.045
100
AcDbArc
 50
2.0
 51
90.0
  0
ARC
  5
4CC
330
B
100
AcDbEntity
 67
     1
  8
1
  6
Continuous
 62
    18
100
AcDbCircle
 10
2.574454
 20
4.158662999999999
 30
0.0
 40
0.02
100
AcDbArc
 50
2.0
 51
90.0
  0
ARC
  5
4CD
330
B
100
AcDbEntity
 67
     1
  8
1
  6
Continuous
 62
    18
100
AcDbCircle
 10
4.026112999999999
 20
3.997322
 30
0.0
 40
0.015
100
AcDbArc
 50
90.0
 51
179.0
  0
ARC
  5
4CE
330
B
100
AcDbEntity
 67
     1
  8
1
  6
Continuous
 62
    18
100
AcDbCircle
 10
1.668838
 20
3.997322
 30
0.0
 40
0.015
100
AcDbArc
 50
90.0
 51
179.0
  0
ARC
  5
4CF
330
B
100
AcDbEntity
 67
     1
  8
1
  6
Continuous
 62
    18
100
AcDbCircle
 10
2.61979
 20
3.997322
 30
0.0
 40
0.015
100
AcDbArc
 50
1.0
 51
90.0
  0
ARC
  5
4D0
330
B
100
AcDbEntity
 67
     1
  8
1
  6
Continuous
 62
    18
100
AcDbCircle
 10
1.835325
 20
4.106053
 30
0.0
 40
0.02
100
AcDbArc
 50
90.0
 51
143.324173
  0
ARC
  5
4D1
330
B
100
AcDbEntity
 67
     1
  8
1
  6
Continuous
 62
    18
100
AcDbCircle
 10
2.453301999999999
 20
4.462890999999999
 30
0.0
 40
0.02
100
AcDbArc
 50
0.0
 51
90.0
  0
ARC
  5
4D2
330
B
100
AcDbEntity
 67
     1
  8
1
  6
Continuous
 62
    18
100
AcDbCircle
 10
2.536983
 20
4.515330999999999
 30
0.0
 40
0.045
100
AcDbArc
 50
2.0
 51
89.846997
  0
ARC
  5
4D3
330
B
100
AcDbEntity
 67
     1
  8
1
  6
Continuous
 62
    18
100
AcDbCircle
 10
5.502644999999999
 20
3.997322
 30
0.0
 40
0.015
100
AcDbArc
 50
1.0
 51
90.0
  0
ARC
  5
4D4
330
B
100
AcDbEntity
 67
     1
  8
1
  6
Continuous
 62
    18
100
AcDbCircle
 10
1.766209999999999
 20
4.515330999999999
 30
0.0
 40
0.045
100
AcDbArc
 50
90.08181999999999
 51
178.0
  0
ENDSEC
  0
SECTION
  2
OBJECTS
  0
DICTIONARY
  5
19
330
0
100
AcDbDictionary
281
     1
  3
ACAD_COLOR
350
4FF
  3
ACAD_GROUP
350
1A
  3
ACAD_LAYOUT
350
1E
  3
ACAD_MATERIAL
350
4EA
  3
ACAD_MLINESTYLE
350
1B
  3
ACAD_PLOTSETTINGS
350
22
  3
ACAD_PLOTSTYLENAME
350
1F
  3
ACAD_TABLESTYLE
350
500
  3
ACAD_VISUALSTYLE
350
4EE
  3
ACAD_WIPEOUT_VARS
350
23
  3
AcDbVariableDictionary
350
509
  3
ASE_INDEX_DICTIONARY
350
506
  3
DWGPROPS
350
50E
  0
DICTIONARY
  5
513
330
32
100
AcDbDictionary
280
     1
281
     1
  3
ACAD_XREC_ROUNDTRIP
360
514
  0
DICTIONARY
  5
4FF
102
{ACAD_REACTORS
330
19
102
}
330
19
100
AcDbDictionary
281
     1
  0
DICTIONARY
  5
1A
102
{ACAD_REACTORS
330
19
102
}
330
19
100
AcDbDictionary
281
     1
  0
DICTIONARY
  5
1E
102
{ACAD_REACTORS
330
19
102
}
330
19
100
AcDbDictionary
281
     1
  3
DRAWING1
350
4D5
  3
Layout1
350
21
  3
Model
350
20
  0
DICTIONARY
  5
4EA
102
{ACAD_REACTORS
330
19
102
}
330
19
100
AcDbDictionary
281
     1
  3
ByBlock
350
4EC
  3
ByLayer
350
4EB
  3
Global
350
4ED
  0
DICTIONARY
  5
1B
102
{ACAD_REACTORS
330
19
102
}
330
19
100
AcDbDictionary
281
     1
  3
Standard
350
1C
  0
DICTIONARY
  5
22
102
{ACAD_REACTORS
330
19
102
}
330
19
100
AcDbDictionary
281
     1
  0
ACDBDICTIONARYWDFLT
  5
1F
102
{ACAD_REACTORS
330
19
102
}
330
19
100
AcDbDictionary
281
     1
  3
Normal
350
1D
100
AcDbDictionaryWithDefault
340
1D
  0
DICTIONARY
  5
500
102
{ACAD_REACTORS
330
19
102
}
330
19
100
AcDbDictionary
281
     1
  3
Standard
350
501
  0
DICTIONARY
  5
4EE
102
{ACAD_REACTORS
330
19
102
}
330
19
100
AcDbDictionary
281
     1
  3
2dWireframe
350
4F4
  3
3D Hidden
350
4F6
  3
3dWireframe
350
4F5
  3
Basic
350
4F3
  3
Brighten
350
4FA
  3
ColorChange
350
4FE
  3
Conceptual
350
4F7
  3
Dim
350
4F9
  3
Facepattern
350
4FD
  3
Flat
350
4EF
  3
FlatWithEdges
350
4F0
  3
Gouraud
350
4F1
  3
GouraudWithEdges
350
4F2
  3
Linepattern
350
4FC
  3
Realistic
350
4F8
  3
Thicken
350
4FB
  0
WIPEOUTVARIABLES
  5
23
330
19
100
AcDbWipeoutVariables
 70
     1
  0
DICTIONARY
  5
509
102
{ACAD_REACTORS
330
19
102
}
330
19
100
AcDbDictionary
281
     1
  3
CTABLESTYLE
350
50A
  3
DIMASSOC
350
50D
  3
INDEXCTL
350
50C
  3
SORTENTS
350
50B
  0
DICTIONARY
  5
506
102
{ACAD_REACTORS
330
19
102
}
330
19
100
AcDbDictionary
281
     1
  3
ASEBlockHierarchyIndexRecord
350
508
1001
DCO15
1040
1732598011.643
  0
XRECORD
  5
50E
102
{ACAD_REACTORS
330
19
102
}
330
19
100
AcDbXrecord
280
     1
  1
DWGPROPS COOKIE
  2

  3

  4

  6

  7

  8
bjn
  9

300
=
301
=
302
=
303
=
304
=
305
=
306
=
307
=
308
=
309
=
 40
0.0008896643518519
 41
2455856.428713403
 42
2455856.429579202
  1

 90
        0
  0
XRECORD
  5
514
102
{ACAD_REACTORS
330
513
102
}
330
513
100
AcDbXrecord
280
     1
102
SHADEPLOT
 70
     0
  0
LAYOUT
  5
4D5
102
{ACAD_XDICTIONARY
360
515
102
}
102
{ACAD_REACTORS
330
1E
102
}
330
1E
100
AcDbPlotSettings
  1

  2

  4

  6

 40
20.0
 41
20.0
 42
20.0
 43
20.0
 44
319.4
 45
255.9
 46
0.0
 47
0.0
 48
0.0
 49
0.0
140
319.4
141
255.9
142
1.0
143
1.0
 70
     0
 72
     0
 73
     0
 74
     1
  7

 75
     0
147
1.0
148
0.0
149
0.0
100
AcDbLayout
  1
DRAWING1
 70
     0
 71
     2
 10
0.0
 20
0.0
 11
11.0
 21
8.5
 12
0.0
 22
0.0
 32
0.0
 14
0.0
 24
0.0
 34
0.0
 15
11.0
 25
8.5
 35
0.0
146
0.0
 13
0.0
 23
0.0
 33
0.0
 16
0.0
 26
0.0
 36
0.0
 17
0.0
 27
0.0
 37
0.0
 76
     0
330
B
331
32
  0
LAYOUT
  5
21
102
{ACAD_XDICTIONARY
360
511
102
}
102
{ACAD_REACTORS
330
1E
102
}
330
1E
100
AcDbPlotSettings
  1

  2
none_device
  4
Letter_(8.50_x_11.00_Inches)
  6

 40
6.349999904632568
 41
6.349999904632568
 42
6.350006103515625
 43
6.350006103515625
 44
215.8999938964844
 45
279.3999938964844
 46
0.0
 47
0.0
 48
0.0
 49
0.0
140
0.0
141
0.0
142
1.0
143
0.4933548260341885
 70
    16
 72
     0
 73
     1
 74
     1
  7

 75
     0
147
2.026938720835989
148
-41.95732343659885
149
-89.89722660383817
100
AcDbLayout
  1
Layout1
 70
     0
 71
     1
 10
1.528524302365467
 20
3.415922185258703
 11
6.955427270190403
 21
7.609438087998169
 12
0.0
 22
0.0
 32
0.0
 14
1.651863127425151
 24
3.539260889914888
 34
-0.0004043445228632
 15
5.536903401763296
 25
7.486099262938484
 35
0.0000152657740013
146
0.0
 13
0.0
 23
0.0
 33
0.0
 16
1.0
 26
0.0
 36
0.0
 17
0.0
 27
1.0
 37
0.0
 76
     0
330
B
331
32
1001
ACAD_PSEXT
1000
None
1000
None
1000
Not applicable
1000
The layout will not be plotted unless a new plotter configuration name is selected.
1070
     0
  0
LAYOUT
  5
20
102
{ACAD_XDICTIONARY
360
50F
102
}
102
{ACAD_REACTORS
330
1E
102
}
330
1E
100
AcDbPlotSettings
  1

  2

  4

  6

 40
0.0
 41
0.0
 42
0.0
 43
0.0
 44
0.0
 45
0.0
 46
0.0
 47
0.0
 48
0.0
 49
0.0
140
0.0
141
0.0
142
1.0
143
1.0
 70
  1024
 72
     0
 73
     0
 74
     0
  7

 75
     0
147
1.0
148
0.0
149
0.0
100
AcDbLayout
  1
Model
 70
     0
 71
     0
 10
0.0
 20
0.0
 11
0.0
 21
0.0
 12
0.0
 22
0.0
 32
0.0
 14
0.0
 24
0.0
 34
0.0
 15
0.0
 25
0.0
 35
0.0
146
0.0
 13
0.0
 23
0.0
 33
0.0
 16
0.0
 26
0.0
 36
0.0
 17
0.0
 27
0.0
 37
0.0
 76
     0
330
A
  0
MATERIAL
  5
4EC
102
{ACAD_XDICTIONARY
360
519
102
}
102
{ACAD_REACTORS
330
4EA
102
}
330
4EA
100
AcDbMaterial
  1
ByBlock
  0
MATERIAL
  5
4EB
102
{ACAD_XDICTIONARY
360
517
102
}
102
{ACAD_REACTORS
330
4EA
102
}
330
4EA
100
AcDbMaterial
  1
ByLayer
  0
MATERIAL
  5
4ED
102
{ACAD_XDICTIONARY
360
51B
102
}
102
{ACAD_REACTORS
330
4EA
102
}
330
4EA
100
AcDbMaterial
  1
Global
  0
MLINESTYLE
  5
1C
102
{ACAD_REACTORS
330
1B
102
}
330
1B
100
AcDbMlineStyle
  2
STANDARD
 70
     0
  3

 62
     0
 51
90.0
 52
90.0
 71
     2
 49
0.5
 62
   256
  6
BYLAYER
 49
-0.5
 62
   256
  6
BYLAYER
  0
ACDBPLACEHOLDER
  5
1D
102
{ACAD_REACTORS
330
1F
102
}
330
1F
  0
TABLESTYLE
  5
501
102
{ACAD_XDICTIONARY
360
51D
102
}
102
{ACAD_REACTORS
330
500
102
}
330
500
100
AcDbTableStyle
  3
Standard
 70
     0
 71
     0
 40
0.06
 41
0.06
280
     0
281
     0
  7
Standard
140
0.18
170
     2
 62
     0
 63
     7
283
     0
274
    -2
284
     1
 64
     0
275
    -2
285
     1
 65
     0
276
    -2
286
     1
 66
     0
277
    -2
287
     1
 67
     0
278
    -2
288
     1
 68
     0
279
    -2
289
     1
 69
     0
  7
Standard
140
0.25
170
     5
 62
     0
 63
     7
283
     0
274
    -2
284
     1
 64
     0
275
    -2
285
     1
 65
     0
276
    -2
286
     1
 66
     0
277
    -2
287
     1
 67
     0
278
    -2
288
     1
 68
     0
279
    -2
289
     1
 69
     0
  7
Standard
140
0.18
170
     5
 62
     0
 63
     7
283
     0
274
    -2
284
     1
 64
     0
275
    -2
285
     1
 65
     0
276
    -2
286
     1
 66
     0
277
    -2
287
     1
 67
     0
278
    -2
288
     1
 68
     0
279
    -2
289
     1
 69
     0
  0
VISUALSTYLE
  5
4F4
102
{ACAD_REACTORS
330
4EE
102
}
330
4EE
100
AcDbVisualStyle
  2
2dWireframe
 70
     4
 71
     0
 72
     2
 73
     0
 90
        0
 40
-0.6
 41
-30.0
 62
     5
 63
     7
 74
     1
 91
        4
 64
     7
 65
   257
 75
     1
175
     1
 42
1.0
 92
        0
 66
   257
 43
1.0
 76
     1
 77
     6
 78
     2
 67
     7
 79
     5
170
     0
171
     0
290
     0
174
     0
 93
        1
 44
0.0
173
     0
291
     0
 45
0.0
1001
ACAD
1000
AcDbSavedByObjectVersion
1070
     0
  0
VISUALSTYLE
  5
4F6
102
{ACAD_REACTORS
330
4EE
102
}
330
4EE
100
AcDbVisualStyle
  2
3D Hidden
 70
     6
 71
     1
 72
     2
 73
     2
 90
        0
 40
-0.6
 41
-30.0
 62
     5
 63
     7
 74
     2
 91
        2
 64
     7
 65
   257
 75
     2
175
     1
 42
40.0
 92
        0
 66
   257
 43
1.0
 76
     1
 77
     6
 78
     2
 67
     7
 79
     3
170
     0
171
     0
290
     0
174
     0
 93
        1
 44
0.0
173
     0
291
     0
 45
0.0
1001
ACAD
1000
AcDbSavedByObjectVersion
1070
     0
  0
VISUALSTYLE
  5
4F5
102
{ACAD_REACTORS
330
4EE
102
}
330
4EE
100
AcDbVisualStyle
  2
3dWireframe
 70
     5
 71
     0
 72
     2
 73
     0
 90
        0
 40
-0.6
 41
-30.0
 62
     5
 63
     7
 74
     1
 91
        4
 64
     7
 65
   257
 75
     1
175
     1
 42
1.0
 92
        0
 66
   257
 43
1.0
 76
     1
 77
     6
 78
     2
 67
     7
 79
     5
170
     0
171
     0
290
     0
174
     0
 93
        1
 44
0.0
173
     0
291
     0
 45
0.0
1001
ACAD
1000
AcDbSavedByObjectVersion
1070
     0
  0
VISUALSTYLE
  5
4F3
102
{ACAD_REACTORS
330
4EE
102
}
330
4EE
100
AcDbVisualStyle
  2
Basic
 70
     7
 71
     1
 72
     0
 73
     1
 90
        0
 40
-0.6
 41
-30.0
 62
     5
 63
     7
 74
     0
 91
        4
 64
     7
 65
   257
 75
     1
175
     1
 42
1.0
 92
        8
 66
     7
 43
1.0
 76
     1
 77
     6
 78
     2
 67
     7
 79
     5
170
     0
171
     0
290
     0
174
     0
 93
        1
 44
0.0
173
     0
291
     1
 45
0.0
1001
ACAD
1000
AcDbSavedByObjectVersion
1070
     0
  0
VISUALSTYLE
  5
4FA
102
{ACAD_REACTORS
330
4EE
102
}
330
4EE
100
AcDbVisualStyle
  2
Brighten
 70
    12
 71
     2
 72
     2
 73
     0
 90
        0
 40
-0.6
 41
-30.0
 62
     5
 63
     7
 74
     1
 91
        4
 64
     7
 65
   257
 75
     1
175
     1
 42
1.0
 92
        8
 66
     7
 43
1.0
 76
     1
 77
     6
 78
     2
 67
     7
 79
     5
170
     0
171
     0
290
     0
174
     0
 93
        1
 44
50.0
173
     0
291
     1
 45
0.0
1001
ACAD
1000
AcDbSavedByObjectVersion
1070
     0
  0
VISUALSTYLE
  5
4FE
102
{ACAD_REACTORS
330
4EE
102
}
330
4EE
100
AcDbVisualStyle
  2
ColorChange
 70
    16
 71
     2
 72
     2
 73
     3
 90
        0
 40
-0.6
 41
-30.0
 62
     5
 63
     8
 74
     1
 91
        4
 64
     7
 65
   257
 75
     1
175
     1
 42
1.0
 92
        8
 66
     8
 43
1.0
 76
     1
 77
     6
 78
     2
 67
     7
 79
     5
170
     0
171
     0
290
     0
174
     0
 93
        1
 44
0.0
173
     0
291
     1
 45
0.0
1001
ACAD
1000
AcDbSavedByObjectVersion
1070
     0
  0
VISUALSTYLE
  5
4F7
102
{ACAD_REACTORS
330
4EE
102
}
330
4EE
100
AcDbVisualStyle
  2
Conceptual
 70
     9
 71
     3
 72
     2
 73
     0
 90
        0
 40
-0.6
 41
-30.0
 62
     5
 63
     7
 74
     2
 91
        2
 64
     7
 65
   257
 75
     1
175
     1
 42
40.0
 92
        8
 66
     7
 43
1.0
 76
     1
 77
     6
 78
     2
 67
     7
 79
     3
170
     0
171
     0
290
     0
174
     0
 93
        1
 44
0.0
173
     0
291
     0
 45
0.0
1001
ACAD
1000
AcDbSavedByObjectVersion
1070
     0
  0
VISUALSTYLE
  5
4F9
102
{ACAD_REACTORS
330
4EE
102
}
330
4EE
100
AcDbVisualStyle
  2
Dim
 70
    11
 71
     2
 72
     2
 73
     0
 90
        0
 40
-0.6
 41
-30.0
 62
     5
 63
     7
 74
     1
 91
        4
 64
     7
 65
   257
 75
     1
175
     1
 42
1.0
 92
        8
 66
     7
 43
1.0
 76
     1
 77
     6
 78
     2
 67
     7
 79
     5
170
     0
171
     0
290
     0
174
     0
 93
        1
 44
-50.0
173
     0
291
     1
 45
0.0
1001
ACAD
1000
AcDbSavedByObjectVersion
1070
     0
  0
VISUALSTYLE
  5
4FD
102
{ACAD_REACTORS
330
4EE
102
}
330
4EE
100
AcDbVisualStyle
  2
Facepattern
 70
    15
 71
     2
 72
     2
 73
     0
 90
        0
 40
-0.6
 41
-30.0
 62
     5
 63
     7
 74
     1
 91
        4
 64
     7
 65
   257
 75
     1
175
     1
 42
1.0
 92
        8
 66
     7
 43
1.0
 76
     1
 77
     6
 78
     2
 67
     7
 79
     5
170
     0
171
     0
290
     0
174
     0
 93
        1
 44
0.0
173
     0
291
     1
 45
0.0
1001
ACAD
1000
AcDbSavedByObjectVersion
1070
     0
  0
VISUALSTYLE
  5
4EF
102
{ACAD_REACTORS
330
4EE
102
}
330
4EE
100
AcDbVisualStyle
  2
Flat
 70
     0
 71
     2
 72
     1
 73
     1
 90
        2
 40
-0.6
 41
30.0
 62
     5
 63
     7
 74
     0
 91
        4
 64
     7
 65
   257
 75
     1
175
     1
 42
1.0
 92
        8
 66
     7
 43
1.0
 76
     1
 77
     6
 78
     2
 67
     7
 79
     5
170
     0
171
     0
290
     0
174
     0
 93
       13
 44
0.0
173
     0
291
     1
 45
0.0
1001
ACAD
1000
AcDbSavedByObjectVersion
1070
     0
  0
VISUALSTYLE
  5
4F0
102
{ACAD_REACTORS
330
4EE
102
}
330
4EE
100
AcDbVisualStyle
  2
FlatWithEdges
 70
     1
 71
     2
 72
     1
 73
     1
 90
        2
 40
-0.6
 41
30.0
 62
     5
 63
     7
 74
     1
 91
        4
 64
     7
 65
   257
 75
     1
175
     1
 42
1.0
 92
        0
 66
   257
 43
1.0
 76
     1
 77
     6
 78
     2
 67
     7
 79
     5
170
     0
171
     0
290
     0
174
     0
 93
       13
 44
0.0
173
     0
291
     1
 45
0.0
1001
ACAD
1000
AcDbSavedByObjectVersion
1070
     0
  0
VISUALSTYLE
  5
4F1
102
{ACAD_REACTORS
330
4EE
102
}
330
4EE
100
AcDbVisualStyle
  2
Gouraud
 70
     2
 71
     2
 72
     2
 73
     1
 90
        2
 40
-0.6
 41
30.0
 62
     5
 63
     7
 74
     0
 91
        4
 64
     7
 65
   257
 75
     1
175
     1
 42
1.0
 92
        0
 66
     7
 43
1.0
 76
     1
 77
     6
 78
     2
 67
     7
 79
     5
170
     0
171
     0
290
     0
174
     0
 93
       13
 44
0.0
173
     0
291
     1
 45
0.0
1001
ACAD
1000
AcDbSavedByObjectVersion
1070
     0
  0
VISUALSTYLE
  5
4F2
102
{ACAD_REACTORS
330
4EE
102
}
330
4EE
100
AcDbVisualStyle
  2
GouraudWithEdges
 70
     3
 71
     2
 72
     2
 73
     1
 90
        2
 40
-0.6
 41
30.0
 62
     5
 63
     7
 74
     1
 91
        4
 64
     7
 65
   257
 75
     1
175
     1
 42
1.0
 92
        0
 66
   257
 43
1.0
 76
     1
 77
     6
 78
     2
 67
     7
 79
     5
170
     0
171
     0
290
     0
174
     0
 93
       13
 44
0.0
173
     0
291
     1
 45
0.0
1001
ACAD
1000
AcDbSavedByObjectVersion
1070
     0
  0
VISUALSTYLE
  5
4FC
102
{ACAD_REACTORS
330
4EE
102
}
330
4EE
100
AcDbVisualStyle
  2
Linepattern
 70
    14
 71
     2
 72
     2
 73
     0
 90
        0
 40
-0.6
 41
-30.0
 62
     5
 63
     7
 74
     1
 91
        4
 64
     7
 65
   257
 75
     7
175
     7
 42
1.0
 92
        8
 66
     7
 43
1.0
 76
     1
 77
     6
 78
     2
 67
     7
 79
     5
170
     0
171
     0
290
     0
174
     0
 93
        1
 44
0.0
173
     0
291
     1
 45
0.0
1001
ACAD
1000
AcDbSavedByObjectVersion
1070
     0
  0
VISUALSTYLE
  5
4F8
102
{ACAD_REACTORS
330
4EE
102
}
330
4EE
100
AcDbVisualStyle
  2
Realistic
 70
     8
 71
     2
 72
     2
 73
     0
 90
        0
 40
-0.6
 41
-30.0
 62
     5
 63
     7
 74
     1
 91
        0
 64
     7
 65
   257
 75
     1
175
     1
 42
1.0
 92
        8
 66
     8
 43
1.0
 76
     1
 77
     6
 78
     2
 67
     7
 79
     5
170
     0
171
     0
290
     0
174
     0
 93
       13
 44
0.0
173
     0
291
     0
 45
0.0
1001
ACAD
1000
AcDbSavedByObjectVersion
1070
     0
  0
VISUALSTYLE
  5
4FB
102
{ACAD_REACTORS
330
4EE
102
}
330
4EE
100
AcDbVisualStyle
  2
Thicken
 70
    13
 71
     2
 72
     2
 73
     0
 90
        0
 40
-0.6
 41
-30.0
 62
     5
 63
     7
 74
     1
 91
        4
 64
     7
 65
   257
 75
     1
175
     1
 42
1.0
 92
       12
 66
     7
 43
1.0
 76
     1
 77
     6
 78
     2
 67
     7
 79
     5
170
     0
171
     0
290
     0
174
     0
 93
        1
 44
0.0
173
     0
291
     1
 45
0.0
1001
ACAD
1000
AcDbSavedByObjectVersion
1070
     0
  0
DICTIONARYVAR
  5
50A
102
{ACAD_REACTORS
330
509
102
}
330
509
100
DictionaryVariables
280
     0
  1
STANDARD
  0
DICTIONARYVAR
  5
50D
102
{ACAD_REACTORS
330
509
102
}
330
509
100
DictionaryVariables
280
     0
  1
1
  0
DICTIONARYVAR
  5
50C
102
{ACAD_REACTORS
330
509
102
}
330
509
100
DictionaryVariables
280
     0
  1
0
  0
DICTIONARYVAR
  5
50B
102
{ACAD_REACTORS
330
509
102
}
330
509
100
DictionaryVariables
280
     0
  1
127
  0
XRECORD
  5
508
102
{ACAD_REACTORS
330
506
102
}
330
506
100
AcDbXrecord
280
     1
  0
DICTIONARY
  5
515
330
4D5
100
AcDbDictionary
280
     1
281
     1
  3
ACAD_XREC_ROUNDTRIP
360
516
  0
DICTIONARY
  5
511
330
21
100
AcDbDictionary
280
     1
281
     1
  3
ACAD_XREC_ROUNDTRIP
360
512
  0
DICTIONARY
  5
50F
330
20
100
AcDbDictionary
280
     1
281
     1
  3
ACAD_XREC_ROUNDTRIP
360
510
  0
DICTIONARY
  5
519
330
4EC
100
AcDbDictionary
280
     1
281
     1
  3
ACAD_XREC_ROUNDTRIP
360
51A
  0
DICTIONARY
  5
517
330
4EB
100
AcDbDictionary
280
     1
281
     1
  3
ACAD_XREC_ROUNDTRIP
360
518
  0
DICTIONARY
  5
51B
330
4ED
100
AcDbDictionary
280
     1
281
     1
  3
ACAD_XREC_ROUNDTRIP
360
51C
  0
DICTIONARY
  5
51D
330
501
100
AcDbDictionary
280
     1
281
     1
  3
ACAD_XREC_ROUNDTRIP
360
51E
  0
XRECORD
  5
516
102
{ACAD_REACTORS
330
515
102
}
330
515
100
AcDbXrecord
280
     1
102
SHADEPLOT
 70
     0
102
SHADEPLOTRESLEVEL
 70
     2
102
SHADEPLOTCUSTOMDPI
 70
   300
  0
XRECORD
  5
512
102
{ACAD_REACTORS
330
511
102
}
330
511
100
AcDbXrecord
280
     1
102
SHADEPLOT
 70
     0
102
SHADEPLOTRESLEVEL
 70
     2
102
SHADEPLOTCUSTOMDPI
 70
   300
  0
XRECORD
  5
510
102
{ACAD_REACTORS
330
50F
102
}
330
50F
100
AcDbXrecord
280
     1
102
SHADEPLOT
 70
     0
102
SHADEPLOTRESLEVEL
 70
     2
102
SHADEPLOTCUSTOMDPI
 70
   300
  0
XRECORD
  5
51A
102
{ACAD_REACTORS
330
519
102
}
330
519
100
AcDbXrecord
280
     1
102
MATERIAL
148
0.0
149
0.0
149
0.0
 93
        0
 94
       63
282
     0
 72
     1
 77
     1
171
     1
175
     1
179
     1
273
     0
  0
XRECORD
  5
518
102
{ACAD_REACTORS
330
517
102
}
330
517
100
AcDbXrecord
280
     1
102
MATERIAL
148
0.0
149
0.0
149
0.0
 93
        0
 94
       63
282
     0
 72
     1
 77
     1
171
     1
175
     1
179
     1
273
     0
  0
XRECORD
  5
51C
102
{ACAD_REACTORS
330
51B
102
}
330
51B
100
AcDbXrecord
280
     1
102
MATERIAL
148
0.0
149
0.0
149
0.0
 93
        0
 94
       63
282
     0
 72
     1
 77
     1
171
     1
175
     1
179
     1
273
     0
  0
XRECORD
  5
51E
102
{ACAD_REACTORS
330
51D
102
}
330
51D
100
AcDbXrecord
280
     1
102
ACAD_ROUNDTRIP_PRE2007_TABLESTYLE
 90
      512
 91
        0
  1

 92
      512
 93
        0
  2

 94
      512
 95
        0
  3

  0
ENDSEC
  0
EOF
