  0
SECTION
  2
HEADER
  9
$ACADVER
  1
AC1021
  9
$ACADMAINTVER
 70
     1
  9
$DWGCODEPAGE
  3
ANSI_1252
  9
$LASTSAVEDBY
  1
JSP
  9
$INSBASE
 10
0.0
 20
0.0
 30
0.0
  9
$EXTMIN
 10
1.78674319408222
 20
4.766418483534849
 30
-0.0015258207003583
  9
$EXTMAX
 10
4.756713886694882
 20
6.538650530784682
 30
0.0000000349246037
  9
$LIMMIN
 10
0.0
 20
0.0
  9
$LIMMAX
 10
12.0
 20
9.0
  9
$ORTHOMODE
 70
     0
  9
$REGENMODE
 70
     1
  9
$FILLMODE
 70
     1
  9
$QTEXTMODE
 70
     0
  9
$MIRRTEXT
 70
     1
  9
$LTSCALE
 40
1.0
  9
$ATTMODE
 70
     1
  9
$TEXTSIZE
 40
0.2
  9
$TRACEWID
 40
0.05
  9
$TEXTSTYLE
  7
Standard
  9
$CLAYER
  8
0
  9
$CELTYPE
  6
ByLayer
  9
$CECOLOR
 62
   256
  9
$CELTSCALE
 40
1.0
  9
$DISPSILH
 70
     0
  9
$DIMSCALE
 40
1.0
  9
$DIMASZ
 40
0.18
  9
$DIMEXO
 40
0.0625
  9
$DIMDLI
 40
0.38
  9
$DIMRND
 40
0.0
  9
$DIMDLE
 40
0.0
  9
$DIMEXE
 40
0.18
  9
$DIMTP
 40
0.0
  9
$DIMTM
 40
0.0
  9
$DIMTXT
 40
0.18
  9
$DIMCEN
 40
0.09
  9
$DIMTSZ
 40
0.0
  9
$DIMTOL
 70
     0
  9
$DIMLIM
 70
     0
  9
$DIMTIH
 70
     1
  9
$DIMTOH
 70
     1
  9
$DIMSE1
 70
     0
  9
$DIMSE2
 70
     0
  9
$DIMTAD
 70
     0
  9
$DIMZIN
 70
     0
  9
$DIMBLK
  1

  9
$DIMASO
 70
     1
  9
$DIMSHO
 70
     1
  9
$DIMPOST
  1

  9
$DIMAPOST
  1

  9
$DIMALT
 70
     0
  9
$DIMALTD
 70
     2
  9
$DIMALTF
 40
25.4
  9
$DIMLFAC
 40
1.0
  9
$DIMTOFL
 70
     0
  9
$DIMTVP
 40
0.0
  9
$DIMTIX
 70
     0
  9
$DIMSOXD
 70
     0
  9
$DIMSAH
 70
     0
  9
$DIMBLK1
  1

  9
$DIMBLK2
  1

  9
$DIMSTYLE
  2
Standard
  9
$DIMCLRD
 70
     0
  9
$DIMCLRE
 70
     0
  9
$DIMCLRT
 70
     0
  9
$DIMTFAC
 40
1.0
  9
$DIMGAP
 40
0.09
  9
$DIMJUST
 70
     0
  9
$DIMSD1
 70
     0
  9
$DIMSD2
 70
     0
  9
$DIMTOLJ
 70
     1
  9
$DIMTZIN
 70
     0
  9
$DIMALTZ
 70
     0
  9
$DIMALTTZ
 70
     0
  9
$DIMUPT
 70
     0
  9
$DIMDEC
 70
     4
  9
$DIMTDEC
 70
     4
  9
$DIMALTU
 70
     2
  9
$DIMALTTD
 70
     2
  9
$DIMTXSTY
  7
Standard
  9
$DIMAUNIT
 70
     0
  9
$DIMADEC
 70
     0
  9
$DIMALTRND
 40
0.0
  9
$DIMAZIN
 70
     0
  9
$DIMDSEP
 70
    46
  9
$DIMATFIT
 70
     3
  9
$DIMFRAC
 70
     0
  9
$DIMLDRBLK
  1

  9
$DIMLUNIT
 70
     2
  9
$DIMLWD
 70
    -2
  9
$DIMLWE
 70
    -2
  9
$DIMTMOVE
 70
     0
  9
$DIMFXL
 40
1.0
  9
$DIMFXLON
 70
     0
  9
$DIMJOGANG
 40
0.7853981633974483
  9
$DIMTFILL
 70
     0
  9
$DIMTFILLCLR
 70
     0
  9
$DIMARCSYM
 70
     0
  9
$DIMLTYPE
  6

  9
$DIMLTEX1
  6

  9
$DIMLTEX2
  6

  9
$LUNITS
 70
     2
  9
$LUPREC
 70
     4
  9
$SKETCHINC
 40
0.1
  9
$FILLETRAD
 40
0.5
  9
$AUNITS
 70
     0
  9
$AUPREC
 70
     0
  9
$MENU
  1
.
  9
$ELEVATION
 40
0.0
  9
$PELEVATION
 40
0.0
  9
$THICKNESS
 40
0.0
  9
$LIMCHECK
 70
     0
  9
$CHAMFERA
 40
0.5
  9
$CHAMFERB
 40
0.5
  9
$CHAMFERC
 40
1.0
  9
$CHAMFERD
 40
0.0
  9
$SKPOLY
 70
     0
  9
$TDCREATE
 40
2455679.434151331
  9
$TDUCREATE
 40
2455679.642484664
  9
$TDUPDATE
 40
2455679.437410394
  9
$TDUUPDATE
 40
2455679.645743727
  9
$TDINDWG
 40
0.0023885764
  9
$TDUSRTIMER
 40
0.0023885764
  9
$USRTIMER
 70
     1
  9
$ANGBASE
 50
0.0
  9
$ANGDIR
 70
     0
  9
$PDMODE
 70
     0
  9
$PDSIZE
 40
0.0
  9
$PLINEWID
 40
0.0
  9
$SPLFRAME
 70
     0
  9
$SPLINETYPE
 70
     6
  9
$SPLINESEGS
 70
     8
  9
$HANDSEED
  5
34AF
  9
$SURFTAB1
 70
     6
  9
$SURFTAB2
 70
     6
  9
$SURFTYPE
 70
     6
  9
$SURFU
 70
     6
  9
$SURFV
 70
     6
  9
$UCSBASE
  2

  9
$UCSNAME
  2

  9
$UCSORG
 10
0.0
 20
0.0
 30
0.0
  9
$UCSXDIR
 10
1.0
 20
0.0
 30
0.0
  9
$UCSYDIR
 10
0.0
 20
1.0
 30
0.0
  9
$UCSORTHOREF
  2

  9
$UCSORTHOVIEW
 70
     0
  9
$UCSORGTOP
 10
0.0
 20
0.0
 30
0.0
  9
$UCSORGBOTTOM
 10
0.0
 20
0.0
 30
0.0
  9
$UCSORGLEFT
 10
0.0
 20
0.0
 30
0.0
  9
$UCSORGRIGHT
 10
0.0
 20
0.0
 30
0.0
  9
$UCSORGFRONT
 10
0.0
 20
0.0
 30
0.0
  9
$UCSORGBACK
 10
0.0
 20
0.0
 30
0.0
  9
$PUCSBASE
  2

  9
$PUCSNAME
  2

  9
$PUCSORG
 10
0.0
 20
0.0
 30
0.0
  9
$PUCSXDIR
 10
1.0
 20
0.0
 30
0.0
  9
$PUCSYDIR
 10
0.0
 20
1.0
 30
0.0
  9
$PUCSORTHOREF
  2

  9
$PUCSORTHOVIEW
 70
     0
  9
$PUCSORGTOP
 10
0.0
 20
0.0
 30
0.0
  9
$PUCSORGBOTTOM
 10
0.0
 20
0.0
 30
0.0
  9
$PUCSORGLEFT
 10
0.0
 20
0.0
 30
0.0
  9
$PUCSORGRIGHT
 10
0.0
 20
0.0
 30
0.0
  9
$PUCSORGFRONT
 10
0.0
 20
0.0
 30
0.0
  9
$PUCSORGBACK
 10
0.0
 20
0.0
 30
0.0
  9
$USERI1
 70
     0
  9
$USERI2
 70
     0
  9
$USERI3
 70
     0
  9
$USERI4
 70
     0
  9
$USERI5
 70
     0
  9
$USERR1
 40
0.0
  9
$USERR2
 40
0.0
  9
$USERR3
 40
0.0
  9
$USERR4
 40
0.0
  9
$USERR5
 40
0.0
  9
$WORLDVIEW
 70
     1
  9
$SHADEDGE
 70
     3
  9
$SHADEDIF
 70
    70
  9
$TILEMODE
 70
     1
  9
$MAXACTVP
 70
    64
  9
$PINSBASE
 10
0.0
 20
0.0
 30
0.0
  9
$PLIMCHECK
 70
     0
  9
$PEXTMIN
 10
1.000000000000000E+20
 20
1.000000000000000E+20
 30
1.000000000000000E+20
  9
$PEXTMAX
 10
-1.000000000000000E+20
 20
-1.000000000000000E+20
 30
-1.000000000000000E+20
  9
$PLIMMIN
 10
0.0
 20
0.0
  9
$PLIMMAX
 10
12.0
 20
9.0
  9
$UNITMODE
 70
     0
  9
$VISRETAIN
 70
     1
  9
$PLINEGEN
 70
     0
  9
$PSLTSCALE
 70
     1
  9
$TREEDEPTH
 70
  3020
  9
$CMLSTYLE
  2
Standard
  9
$CMLJUST
 70
     0
  9
$CMLSCALE
 40
1.0
  9
$PROXYGRAPHICS
 70
     1
  9
$MEASUREMENT
 70
     0
  9
$CELWEIGHT
370
    -1
  9
$ENDCAPS
280
     0
  9
$JOINSTYLE
280
     0
  9
$LWDISPLAY
290
     0
  9
$INSUNITS
 70
     1
  9
$HYPERLINKBASE
  1

  9
$STYLESHEET
  1

  9
$XEDIT
290
     1
  9
$CEPSNTYPE
380
     0
  9
$PSTYLEMODE
290
     1
  9
$FINGERPRINTGUID
  2
{3A2C6846-8DFB-4009-8ED4-0CAB2B84AC4D}
  9
$VERSIONGUID
  2
{2D350FA9-584C-4F39-91C1-780424CB247D}
  9
$EXTNAMES
290
     1
  9
$PSVPSCALE
 40
0.0
  9
$OLESTARTUP
290
     0
  9
$SORTENTS
280
   127
  9
$INDEXCTL
280
     0
  9
$HIDETEXT
280
     0
  9
$XCLIPFRAME
290
     0
  9
$HALOGAP
280
     0
  9
$OBSCOLOR
 70
   257
  9
$OBSLTYPE
280
     0
  9
$INTERSECTIONDISPLAY
280
     0
  9
$INTERSECTIONCOLOR
 70
   257
  9
$DIMASSOC
280
     1
  9
$PROJECTNAME
  1

  9
$CAMERADISPLAY
290
     0
  9
$LENSLENGTH
 40
50.0
  9
$CAMERAHEIGHT
 40
0.0
  9
$STEPSPERSEC
 40
2.0
  9
$STEPSIZE
 40
6.0
  9
$3DDWFPREC
 40
2.0
  9
$PSOLWIDTH
 40
0.25
  9
$PSOLHEIGHT
 40
4.0
  9
$LOFTANG1
 40
1.570796326794896
  9
$LOFTANG2
 40
1.570796326794896
  9
$LOFTMAG1
 40
0.0
  9
$LOFTMAG2
 40
0.0
  9
$LOFTPARAM
 70
     7
  9
$LOFTNORMALS
280
     1
  9
$LATITUDE
 40
37.795
  9
$LONGITUDE
 40
-122.394
  9
$NORTHDIRECTION
 40
0.0
  9
$TIMEZONE
 70
 -8000
  9
$LIGHTGLYPHDISPLAY
280
     1
  9
$TILEMODELIGHTSYNCH
280
     1
  9
$CMATERIAL
347
34A6
  9
$SOLIDHIST
280
     1
  9
$SHOWHIST
280
     1
  9
$DWFFRAME
280
     2
  9
$DGNFRAME
280
     0
  9
$REALWORLDSCALE
290
     1
  9
$INTERFERECOLOR
 62
     1
  9
$INTERFEREOBJVS
345
33
  9
$INTERFEREVPVS
346
30
  9
$CSHADOW
280
     0
  9
$SHADOWPLANELOCATION
 40
0.0
  0
ENDSEC
  0
SECTION
  2
CLASSES
  0
CLASS
  1
ACDBDICTIONARYWDFLT
  2
AcDbDictionaryWithDefault
  3
ObjectDBX Classes
 90
        0
 91
        1
280
     0
281
     0
  0
CLASS
  1
VISUALSTYLE
  2
AcDbVisualStyle
  3
ObjectDBX Classes
 90
     4095
 91
       16
280
     0
281
     0
  0
CLASS
  1
MATERIAL
  2
AcDbMaterial
  3
ObjectDBX Classes
 90
     1024
 91
        3
280
     0
281
     0
  0
CLASS
  1
TABLESTYLE
  2
AcDbTableStyle
  3
ObjectDBX Classes
 90
     4095
 91
        1
280
     0
281
     0
  0
CLASS
  1
DICTIONARYVAR
  2
AcDbDictionaryVar
  3
ObjectDBX Classes
 90
        0
 91
        1
280
     0
281
     0
  0
ENDSEC
  0
SECTION
  2
TABLES
  0
TABLE
  2
VPORT
  5
8
330
0
100
AcDbSymbolTable
 70
     1
  0
VPORT
  5
29
330
8
100
AcDbSymbolTableRecord
100
AcDbViewportTableRecord
  2
*Active
 70
     0
 10
0.0
 20
0.0
 11
1.0
 21
1.0
 12
-2.228271459611448
 22
1.402534507159765
 13
0.0
 23
0.0
 14
0.5
 24
0.5
 15
0.5
 25
0.5
 16
0.0
 26
0.0
 36
1.0
 17
5.5
 27
4.25
 37
0.0
 40
1.784905935549593
 41
1.984486873508353
 42
50.0
 43
0.0
 44
0.0
 50
0.0
 51
0.0
 71
     0
 72
   100
 73
     1
 74
     3
 75
     0
 76
     0
 77
     0
 78
     0
281
     0
 65
     1
110
0.0
120
0.0
130
0.0
111
1.0
121
0.0
131
0.0
112
0.0
122
1.0
132
0.0
 79
     0
146
0.0
348
2F
 60
     3
 61
     5
292
     1
282
     1
141
0.0
142
0.0
 63
   250
421
  3355443
  0
ENDTAB
  0
TABLE
  2
LTYPE
  5
5
330
0
100
AcDbSymbolTable
 70
    25
  0
LTYPE
  5
14
330
5
100
AcDbSymbolTableRecord
100
AcDbLinetypeTableRecord
  2
ByBlock
 70
     0
  3

 72
    65
 73
     0
 40
0.0
  0
LTYPE
  5
15
330
5
100
AcDbSymbolTableRecord
100
AcDbLinetypeTableRecord
  2
ByLayer
 70
     0
  3

 72
    65
 73
     0
 40
0.0
  0
LTYPE
  5
16
330
5
100
AcDbSymbolTableRecord
100
AcDbLinetypeTableRecord
  2
Continuous
 70
     0
  3
Solid line
 72
    65
 73
     0
 40
0.0
  0
LTYPE
  5
42
330
5
100
AcDbSymbolTableRecord
100
AcDbLinetypeTableRecord
  2
Dashed
 70
     0
  3
__ __ __ __ __ __ __ 
 72
    65
 73
     2
 40
0.75
 49
0.5
 74
     0
 49
-0.25
 74
     0
  0
LTYPE
  5
43
330
5
100
AcDbSymbolTableRecord
100
AcDbLinetypeTableRecord
  2
Dashed2
 70
     0
  3
_ _ _ _ _ _ _ _ _ _ 
 72
    65
 73
     2
 40
0.375
 49
0.25
 74
     0
 49
-0.125
 74
     0
  0
LTYPE
  5
44
330
5
100
AcDbSymbolTableRecord
100
AcDbLinetypeTableRecord
  2
DashedX2
 70
     0
  3
____  ____  ____  
 72
    65
 73
     2
 40
1.5
 49
1.0
 74
     0
 49
-0.5
 74
     0
  0
LTYPE
  5
45
330
5
100
AcDbSymbolTableRecord
100
AcDbLinetypeTableRecord
  2
Border
 70
     0
  3
__ __ . __ __ . __ __ . __ __ . __ __ . __ __ .
 72
    65
 73
     6
 40
1.75
 49
0.5
 74
     0
 49
-0.25
 74
     0
 49
0.5
 74
     0
 49
-0.25
 74
     0
 49
0.5
 74
     0
 49
-0.25
 74
     0
  0
LTYPE
  5
46
330
5
100
AcDbSymbolTableRecord
100
AcDbLinetypeTableRecord
  2
Border2
 70
     0
  3
__.__.__.__.__.__.__.__.
 72
    65
 73
     6
 40
0.875
 49
0.25
 74
     0
 49
-0.125
 74
     0
 49
0.25
 74
     0
 49
-0.125
 74
     0
 49
0.25
 74
     0
 49
-0.125
 74
     0
  0
LTYPE
  5
47
330
5
100
AcDbSymbolTableRecord
100
AcDbLinetypeTableRecord
  2
BORDERX2
 70
     0
  3
____  ____  .  
 72
    65
 73
     6
 40
3.5
 49
1.0
 74
     0
 49
-0.5
 74
     0
 49
1.0
 74
     0
 49
-0.5
 74
     0
 49
1.0
 74
     0
 49
-0.5
 74
     0
  0
LTYPE
  5
48
330
5
100
AcDbSymbolTableRecord
100
AcDbLinetypeTableRecord
  2
Center
 70
     0
  3
____ _ ____ _ ____ _ 
 72
    65
 73
     4
 40
2.0
 49
1.25
 74
     0
 49
-0.25
 74
     0
 49
0.25
 74
     0
 49
-0.25
 74
     0
  0
LTYPE
  5
49
330
5
100
AcDbSymbolTableRecord
100
AcDbLinetypeTableRecord
  2
Center2
 70
     0
  3
____ _ ____ _ ____ _ 
 72
    65
 73
     4
 40
1.125
 49
0.75
 74
     0
 49
-0.125
 74
     0
 49
0.125
 74
     0
 49
-0.125
 74
     0
  0
LTYPE
  5
4A
330
5
100
AcDbSymbolTableRecord
100
AcDbLinetypeTableRecord
  2
CenterX2
 70
     0
  3
________  __  
 72
    65
 73
     4
 40
4.0
 49
2.5
 74
     0
 49
-0.5
 74
     0
 49
0.5
 74
     0
 49
-0.5
 74
     0
  0
LTYPE
  5
4B
330
5
100
AcDbSymbolTableRecord
100
AcDbLinetypeTableRecord
  2
DashDot
 70
     0
  3
__ . __ . __ . __ . 
 72
    65
 73
     4
 40
1.0
 49
0.5
 74
     0
 49
-0.25
 74
     0
 49
0.0
 74
     0
 49
-0.25
 74
     0
  0
LTYPE
  5
4C
330
5
100
AcDbSymbolTableRecord
100
AcDbLinetypeTableRecord
  2
DashDot2
 70
     0
  3
_._._._._._._._._.
 72
    65
 73
     4
 40
0.5
 49
0.25
 74
     0
 49
-0.125
 74
     0
 49
0.0
 74
     0
 49
-0.125
 74
     0
  0
LTYPE
  5
4D
330
5
100
AcDbSymbolTableRecord
100
AcDbLinetypeTableRecord
  2
DashDotX2
 70
     0
  3
____  .  ____  .  
 72
    65
 73
     4
 40
2.0
 49
1.0
 74
     0
 49
-0.5
 74
     0
 49
0.0
 74
     0
 49
-0.5
 74
     0
  0
LTYPE
  5
4E
330
5
100
AcDbSymbolTableRecord
100
AcDbLinetypeTableRecord
  2
Divide
 70
     0
  3
____ . . ____ . . 
 72
    65
 73
     6
 40
1.25
 49
0.5
 74
     0
 49
-0.25
 74
     0
 49
0.0
 74
     0
 49
-0.25
 74
     0
 49
0.0
 74
     0
 49
-0.25
 74
     0
  0
LTYPE
  5
4F
330
5
100
AcDbSymbolTableRecord
100
AcDbLinetypeTableRecord
  2
Divide2
 70
     0
  3
__..__..__..__..__..
 72
    65
 73
     6
 40
0.625
 49
0.25
 74
     0
 49
-0.125
 74
     0
 49
0.0
 74
     0
 49
-0.125
 74
     0
 49
0.0
 74
     0
 49
-0.125
 74
     0
  0
LTYPE
  5
50
330
5
100
AcDbSymbolTableRecord
100
AcDbLinetypeTableRecord
  2
DivideX2
 70
     0
  3
________  .  .  
 72
    65
 73
     6
 40
2.5
 49
1.0
 74
     0
 49
-0.5
 74
     0
 49
0.0
 74
     0
 49
-0.5
 74
     0
 49
0.0
 74
     0
 49
-0.5
 74
     0
  0
LTYPE
  5
51
330
5
100
AcDbSymbolTableRecord
100
AcDbLinetypeTableRecord
  2
Dot
 70
     0
  3
. . . . . . . . . 
 72
    65
 73
     2
 40
0.25
 49
0.0
 74
     0
 49
-0.25
 74
     0
  0
LTYPE
  5
52
330
5
100
AcDbSymbolTableRecord
100
AcDbLinetypeTableRecord
  2
Dot2
 70
     0
  3
..................
 72
    65
 73
     2
 40
0.125
 49
0.0
 74
     0
 49
-0.125
 74
     0
  0
LTYPE
  5
53
330
5
100
AcDbSymbolTableRecord
100
AcDbLinetypeTableRecord
  2
DotX2
 70
     0
  3
.  .  .  .  .  .  
 72
    65
 73
     2
 40
0.5
 49
0.0
 74
     0
 49
-0.5
 74
     0
  0
LTYPE
  5
54
330
5
100
AcDbSymbolTableRecord
100
AcDbLinetypeTableRecord
  2
Hidden
 70
     0
  3
__ __ __ __ __ __ 
 72
    65
 73
     2
 40
0.375
 49
0.25
 74
     0
 49
-0.125
 74
     0
  0
LTYPE
  5
55
330
5
100
AcDbSymbolTableRecord
100
AcDbLinetypeTableRecord
  2
Hidden2
 70
     0
  3
_ _ _ _ _ _ _ _ _ 
 72
    65
 73
     2
 40
0.1875
 49
0.125
 74
     0
 49
-0.0625
 74
     0
  0
LTYPE
  5
56
330
5
100
AcDbSymbolTableRecord
100
AcDbLinetypeTableRecord
  2
HiddenX2
 70
     0
  3
____ ____ ____ ____ 
 72
    65
 73
     2
 40
0.75
 49
0.5
 74
     0
 49
-0.25
 74
     0
  0
LTYPE
  5
57
330
5
100
AcDbSymbolTableRecord
100
AcDbLinetypeTableRecord
  2
Phantom
 70
     0
  3
______  __  __  
 72
    65
 73
     6
 40
2.5
 49
1.25
 74
     0
 49
-0.25
 74
     0
 49
0.25
 74
     0
 49
-0.25
 74
     0
 49
0.25
 74
     0
 49
-0.25
 74
     0
  0
LTYPE
  5
58
330
5
100
AcDbSymbolTableRecord
100
AcDbLinetypeTableRecord
  2
Phantom2
 70
     0
  3
___ _ _ ___ _ _ 
 72
    65
 73
     6
 40
1.25
 49
0.625
 74
     0
 49
-0.125
 74
     0
 49
0.125
 74
     0
 49
-0.125
 74
     0
 49
0.125
 74
     0
 49
-0.125
 74
     0
  0
LTYPE
  5
59
330
5
100
AcDbSymbolTableRecord
100
AcDbLinetypeTableRecord
  2
PhantomX2
 70
     0
  3
___ _ _ ___ _ _ 
 72
    65
 73
     6
 40
5.0
 49
2.5
 74
     0
 49
-0.5
 74
     0
 49
0.5
 74
     0
 49
-0.5
 74
     0
 49
0.5
 74
     0
 49
-0.5
 74
     0
  0
ENDTAB
  0
TABLE
  2
LAYER
  5
2
330
0
100
AcDbSymbolTable
 70
     8
  0
LAYER
  5
10
330
2
100
AcDbSymbolTableRecord
100
AcDbLayerTableRecord
  2
0
 70
     0
 62
     7
  6
Continuous
370
    -3
390
F
347
34A8
  0
LAYER
  5
3B
330
2
100
AcDbSymbolTableRecord
100
AcDbLayerTableRecord
  2
1
 70
     0
 62
     7
  6
Continuous
370
    -3
390
F
347
34A8
  0
LAYER
  5
3C
330
2
100
AcDbSymbolTableRecord
100
AcDbLayerTableRecord
  2
2
 70
     0
 62
     7
  6
Continuous
370
    -3
390
F
347
34A8
  0
LAYER
  5
3D
330
2
100
AcDbSymbolTableRecord
100
AcDbLayerTableRecord
  2
3
 70
     0
 62
     7
  6
Continuous
370
    -3
390
F
347
34A8
  0
LAYER
  5
3E
330
2
100
AcDbSymbolTableRecord
100
AcDbLayerTableRecord
  2
4
 70
     0
 62
     7
  6
Continuous
370
    -3
390
F
347
34A8
  0
LAYER
  5
3F
330
2
100
AcDbSymbolTableRecord
100
AcDbLayerTableRecord
  2
5
 70
     0
 62
     7
  6
Continuous
370
    -3
390
F
347
34A8
  0
LAYER
  5
40
330
2
100
AcDbSymbolTableRecord
100
AcDbLayerTableRecord
  2
6
 70
     0
 62
     7
  6
Continuous
370
    -3
390
F
347
34A8
  0
LAYER
  5
41
330
2
100
AcDbSymbolTableRecord
100
AcDbLayerTableRecord
  2
7
 70
     0
 62
     7
  6
Continuous
370
    -3
390
F
347
34A8
  0
ENDTAB
  0
TABLE
  2
STYLE
  5
3
330
0
100
AcDbSymbolTable
 70
     1
  0
STYLE
  5
11
330
3
100
AcDbSymbolTableRecord
100
AcDbTextStyleTableRecord
  2
Standard
 70
     0
 40
0.0
 41
1.0
 50
0.0
 71
     0
 42
0.2
  3
txt
  4

  0
ENDTAB
  0
TABLE
  2
VIEW
  5
6
330
0
100
AcDbSymbolTable
 70
     0
  0
ENDTAB
  0
TABLE
  2
UCS
  5
7
330
0
100
AcDbSymbolTable
 70
     0
  0
ENDTAB
  0
TABLE
  2
APPID
  5
9
330
0
100
AcDbSymbolTable
 70
     1
  0
APPID
  5
12
330
9
100
AcDbSymbolTableRecord
100
AcDbRegAppTableRecord
  2
ACAD
 70
     0
  0
ENDTAB
  0
TABLE
  2
DIMSTYLE
  5
A
330
0
100
AcDbSymbolTable
 70
     1
100
AcDbDimStyleTable
 71
     0
  0
DIMSTYLE
105
27
330
A
100
AcDbSymbolTableRecord
100
AcDbDimStyleTableRecord
  2
Standard
 70
     0
340
11
  0
ENDTAB
  0
TABLE
  2
BLOCK_RECORD
  5
1
330
0
100
AcDbSymbolTable
 70
     1
  0
BLOCK_RECORD
  5
1F
330
1
100
AcDbSymbolTableRecord
100
AcDbBlockTableRecord
  2
*Model_Space
340
22
 70
     0
280
     1
281
     0
  0
BLOCK_RECORD
  5
1B
330
1
100
AcDbSymbolTableRecord
100
AcDbBlockTableRecord
  2
*Paper_Space
340
1E
 70
     0
280
     1
281
     0
  0
BLOCK_RECORD
  5
23
330
1
100
AcDbSymbolTableRecord
100
AcDbBlockTableRecord
  2
*Paper_Space0
340
26
 70
     0
280
     1
281
     0
  0
ENDTAB
  0
ENDSEC
  0
SECTION
  2
BLOCKS
  0
BLOCK
  5
20
330
1F
100
AcDbEntity
  8
0
100
AcDbBlockBegin
  2
*Model_Space
 70
     0
 10
0.0
 20
0.0
 30
0.0
  3
*Model_Space
  1

  0
ENDBLK
  5
21
330
1F
100
AcDbEntity
  8
0
100
AcDbBlockEnd
  0
BLOCK
  5
1C
330
1B
100
AcDbEntity
 67
     1
  8
0
100
AcDbBlockBegin
  2
*Paper_Space
 70
     0
 10
0.0
 20
0.0
 30
0.0
  3
*Paper_Space
  1

  0
ENDBLK
  5
1D
330
1B
100
AcDbEntity
 67
     1
  8
0
100
AcDbBlockEnd
  0
BLOCK
  5
24
330
23
100
AcDbEntity
 67
     1
  8
0
100
AcDbBlockBegin
  2
*Paper_Space0
 70
     0
 10
0.0
 20
0.0
 30
0.0
  3
*Paper_Space0
  1

  0
ENDBLK
  5
25
330
23
100
AcDbEntity
 67
     1
  8
0
100
AcDbBlockEnd
  0
ENDSEC
  0
SECTION
  2
ENTITIES
  0
LINE
  5
2D78
330
1F
100
AcDbEntity
  8
1
100
AcDbLine
 10
1.787401574803149
 20
6.319881889763779
 30
0.0
 11
1.787401574803149
 21
4.984251968503937
 31
0.0
  0
LINE
  5
2D79
330
1F
100
AcDbEntity
  8
1
100
AcDbLine
 10
2.672244094488188
 20
4.984251968503937
 30
0.0
 11
2.672244094488188
 21
6.319881889763779
 31
0.0
  0
LINE
  5
2D7A
330
1F
100
AcDbEntity
  8
1
100
AcDbLine
 10
1.938976377952755
 20
5.708661417322834
 30
0.0
 11
1.938976377952755
 21
5.706692913385826
 31
0.0
  0
LINE
  5
2D7B
330
1F
100
AcDbEntity
  8
1
100
AcDbLine
 10
1.938976377952755
 20
6.100393700787401
 30
0.0
 11
1.938976377952755
 21
6.097440944881889
 31
0.0
  0
LINE
  5
2D7C
330
1F
100
AcDbEntity
  8
1
100
AcDbLine
 10
2.520669291338582
 20
6.100393700787401
 30
0.0
 11
2.519685039370078
 21
6.100393700787401
 31
0.0
  0
LINE
  5
2D7D
330
1F
100
AcDbEntity
  8
1
100
AcDbLine
 10
2.520669291338582
 20
6.100393700787401
 30
0.0
 11
2.520669291338582
 21
6.101377952755905
 31
0.0
  0
LINE
  5
2D7E
330
1F
100
AcDbEntity
  8
1
100
AcDbLine
 10
2.520669291338582
 20
6.101377952755905
 30
0.0
 11
1.938976377952755
 21
6.101377952755905
 31
0.0
  0
LINE
  5
2D7F
330
1F
100
AcDbEntity
  8
1
100
AcDbLine
 10
1.938976377952755
 20
6.100393700787401
 30
0.0
 11
1.938976377952755
 21
6.101377952755905
 31
0.0
  0
LINE
  5
2D80
330
1F
100
AcDbEntity
  8
1
100
AcDbLine
 10
1.938976377952755
 20
6.100393700787401
 30
0.0
 11
1.939960629921259
 21
6.100393700787401
 31
0.0
  0
LINE
  5
2D81
330
1F
100
AcDbEntity
  8
1
100
AcDbLine
 10
1.939960629921259
 20
6.100393700787401
 30
0.0
 11
2.519685039370078
 21
6.100393700787401
 31
0.0
  0
LINE
  5
2D82
330
1F
100
AcDbEntity
  8
1
100
AcDbLine
 10
1.938976377952755
 20
5.706692913385826
 30
0.0
 11
1.939960629921259
 21
5.706692913385826
 31
0.0
  0
LINE
  5
2D83
330
1F
100
AcDbEntity
  8
1
100
AcDbLine
 10
1.938976377952755
 20
5.706692913385826
 30
0.0
 11
1.938976377952755
 21
5.705708661417323
 31
0.0
  0
LINE
  5
2D84
330
1F
100
AcDbEntity
  8
1
100
AcDbLine
 10
1.938976377952755
 20
5.705708661417323
 30
0.0
 11
2.520669291338582
 21
5.705708661417323
 31
0.0
  0
LINE
  5
2D85
330
1F
100
AcDbEntity
  8
1
100
AcDbLine
 10
2.520669291338582
 20
5.706692913385826
 30
0.0
 11
2.520669291338582
 21
5.705708661417323
 31
0.0
  0
LINE
  5
2D86
330
1F
100
AcDbEntity
  8
1
100
AcDbLine
 10
2.520669291338582
 20
5.706692913385826
 30
0.0
 11
2.519685039370078
 21
5.706692913385826
 31
0.0
  0
LINE
  5
2D87
330
1F
100
AcDbEntity
  8
1
100
AcDbLine
 10
2.519685039370078
 20
5.706692913385826
 30
0.0
 11
1.939960629921259
 21
5.706692913385826
 31
0.0
  0
LINE
  5
2D88
330
1F
100
AcDbEntity
  8
1
100
AcDbLine
 10
1.915354330708661
 20
5.62007874015748
 30
0.0
 11
1.915354330708661
 21
5.124015748031496
 31
0.0
  0
POLYLINE
  5
2D89
330
1F
100
AcDbEntity
  8
1
100
AcDb2dPolyline
 66
     1
 10
0.0
 20
0.0
 30
0.0
  0
VERTEX
  5
2D8A
330
2D89
100
AcDbEntity
  8
1
100
AcDbVertex
100
AcDb2dVertex
 10
1.915354330708661
 20
5.124015748031496
 30
0.0
  0
VERTEX
  5
2D8B
330
2D89
100
AcDbEntity
  8
1
100
AcDbVertex
100
AcDb2dVertex
 10
1.917322834645669
 20
5.118110236220472
 30
0.0
  0
VERTEX
  5
2D8C
330
2D89
100
AcDbEntity
  8
1
100
AcDbVertex
100
AcDb2dVertex
 10
1.923228346456692
 20
5.116141732283464
 30
0.0
  0
SEQEND
  5
2D8D
330
2D89
100
AcDbEntity
  8
1
  0
LINE
  5
2D8E
330
1F
100
AcDbEntity
  8
1
100
AcDbLine
 10
1.923228346456692
 20
5.116141732283464
 30
0.0
 11
2.124015748031495
 21
5.116141732283464
 31
0.0
  0
LINE
  5
2D8F
330
1F
100
AcDbEntity
  8
1
100
AcDbLine
 10
2.335629921259842
 20
5.116141732283464
 30
0.0
 11
2.537401574803149
 21
5.116141732283464
 31
0.0
  0
POLYLINE
  5
2D90
330
1F
100
AcDbEntity
  8
1
100
AcDb2dPolyline
 66
     1
 10
0.0
 20
0.0
 30
0.0
  0
VERTEX
  5
2D91
330
2D90
100
AcDbEntity
  8
1
100
AcDbVertex
100
AcDb2dVertex
 10
2.537401574803149
 20
5.116141732283464
 30
0.0
  0
VERTEX
  5
2D92
330
2D90
100
AcDbEntity
  8
1
100
AcDbVertex
100
AcDb2dVertex
 10
2.542322834645669
 20
5.118110236220472
 30
0.0
  0
VERTEX
  5
2D93
330
2D90
100
AcDbEntity
  8
1
100
AcDbVertex
100
AcDb2dVertex
 10
2.545275590551181
 20
5.124015748031496
 30
0.0
  0
SEQEND
  5
2D94
330
2D90
100
AcDbEntity
  8
1
  0
LINE
  5
2D95
330
1F
100
AcDbEntity
  8
1
100
AcDbLine
 10
2.545275590551181
 20
5.124015748031496
 30
0.0
 11
2.545275590551181
 21
5.62007874015748
 31
0.0
  0
POLYLINE
  5
2D96
330
1F
100
AcDbEntity
  8
1
100
AcDb2dPolyline
 66
     1
 10
0.0
 20
0.0
 30
0.0
  0
VERTEX
  5
2D97
330
2D96
100
AcDbEntity
  8
1
100
AcDbVertex
100
AcDb2dVertex
 10
2.545275590551181
 20
5.62007874015748
 30
0.0
  0
VERTEX
  5
2D98
330
2D96
100
AcDbEntity
  8
1
100
AcDbVertex
100
AcDb2dVertex
 10
2.542322834645669
 20
5.625984251968503
 30
0.0
  0
VERTEX
  5
2D99
330
2D96
100
AcDbEntity
  8
1
100
AcDbVertex
100
AcDb2dVertex
 10
2.537401574803149
 20
5.627952755905512
 30
0.0
  0
SEQEND
  5
2D9A
330
2D96
100
AcDbEntity
  8
1
  0
LINE
  5
2D9B
330
1F
100
AcDbEntity
  8
1
100
AcDbLine
 10
2.537401574803149
 20
5.627952755905512
 30
0.0
 11
1.923228346456692
 21
5.627952755905512
 31
0.0
  0
POLYLINE
  5
2D9C
330
1F
100
AcDbEntity
  8
1
100
AcDb2dPolyline
 66
     1
 10
0.0
 20
0.0
 30
0.0
  0
VERTEX
  5
2D9D
330
2D9C
100
AcDbEntity
  8
1
100
AcDbVertex
100
AcDb2dVertex
 10
1.923228346456692
 20
5.627952755905512
 30
0.0
  0
VERTEX
  5
2D9E
330
2D9C
100
AcDbEntity
  8
1
100
AcDbVertex
100
AcDb2dVertex
 10
1.917322834645669
 20
5.625984251968503
 30
0.0
  0
VERTEX
  5
2D9F
330
2D9C
100
AcDbEntity
  8
1
100
AcDbVertex
100
AcDb2dVertex
 10
1.915354330708661
 20
5.62007874015748
 30
0.0
  0
SEQEND
  5
2DA0
330
2D9C
100
AcDbEntity
  8
1
  0
LINE
  5
2DA1
330
1F
100
AcDbEntity
  8
1
100
AcDbLine
 10
1.787401574803149
 20
4.774606299212598
 30
0.0
 11
1.787401574803149
 21
4.970472440944881
 31
0.0
  0
LINE
  5
2DA2
330
1F
100
AcDbEntity
  8
1
100
AcDbLine
 10
1.787401574803149
 20
4.970472440944881
 30
0.0
 11
1.787401574803149
 21
4.984251968503937
 31
0.0
  0
LINE
  5
2DA3
330
1F
100
AcDbEntity
  8
1
100
AcDbLine
 10
1.787401574803149
 20
6.319881889763779
 30
0.0
 11
1.787401574803149
 21
6.334645669291338
 31
0.0
  0
LINE
  5
2DA4
330
1F
100
AcDbEntity
  8
1
100
AcDbLine
 10
1.787401574803149
 20
6.334645669291338
 30
0.0
 11
1.787401574803149
 21
6.530511811023622
 31
0.0
  0
LINE
  5
2DA5
330
1F
100
AcDbEntity
  8
1
100
AcDbLine
 10
2.672244094488188
 20
4.970472440944881
 30
0.0
 11
2.672244094488188
 21
4.774606299212598
 31
0.0
  0
LINE
  5
2DA6
330
1F
100
AcDbEntity
  8
1
100
AcDbLine
 10
2.672244094488188
 20
6.530511811023622
 30
0.0
 11
2.672244094488188
 21
6.334645669291338
 31
0.0
  0
LINE
  5
2DA7
330
1F
100
AcDbEntity
  8
1
100
AcDbLine
 10
2.672244094488188
 20
6.334645669291338
 30
0.0
 11
2.672244094488188
 21
6.319881889763779
 31
0.0
  0
LINE
  5
2DA8
330
1F
100
AcDbEntity
  8
1
100
AcDbLine
 10
2.672244094488188
 20
4.984251968503937
 30
0.0
 11
2.672244094488188
 21
4.970472440944881
 31
0.0
  0
LINE
  5
2DA9
330
1F
100
AcDbEntity
  8
1
100
AcDbLine
 10
1.931102362204724
 20
6.109251968503937
 30
0.0
 11
2.528543307086614
 21
6.109251968503937
 31
0.0
  0
LINE
  5
2DAA
330
1F
100
AcDbEntity
  8
1
100
AcDbLine
 10
2.528543307086614
 20
6.109251968503937
 30
0.0
 11
2.528543307086614
 21
5.697834645669291
 31
0.0
  0
LINE
  5
2DAB
330
1F
100
AcDbEntity
  8
1
100
AcDbLine
 10
2.528543307086614
 20
5.697834645669291
 30
0.0
 11
1.931102362204724
 21
5.697834645669291
 31
0.0
  0
LINE
  5
2DAC
330
1F
100
AcDbEntity
  8
1
100
AcDbLine
 10
1.931102362204724
 20
5.697834645669291
 30
0.0
 11
1.931102362204724
 21
6.109251968503937
 31
0.0
  0
POLYLINE
  5
2DAD
330
1F
100
AcDbEntity
  8
1
100
AcDb2dPolyline
 66
     1
 10
0.0
 20
0.0
 30
0.0
  0
VERTEX
  5
2DAE
330
2DAD
100
AcDbEntity
  8
1
100
AcDbVertex
100
AcDb2dVertex
 10
2.539370078740157
 20
5.63779527559055
 30
0.0
  0
VERTEX
  5
2DAF
330
2DAD
100
AcDbEntity
  8
1
100
AcDbVertex
100
AcDb2dVertex
 10
2.5501968503937
 20
5.632874015748031
 30
0.0
  0
VERTEX
  5
2DB0
330
2DAD
100
AcDbEntity
  8
1
100
AcDbVertex
100
AcDb2dVertex
 10
2.55511811023622
 20
5.622047244094487
 30
0.0
  0
SEQEND
  5
2DB1
330
2DAD
100
AcDbEntity
  8
1
  0
LINE
  5
2DB2
330
1F
100
AcDbEntity
  8
1
100
AcDbLine
 10
2.55511811023622
 20
5.622047244094487
 30
0.0
 11
2.55511811023622
 21
4.984251968503937
 31
0.0
  0
LINE
  5
2DB3
330
1F
100
AcDbEntity
  8
1
100
AcDbLine
 10
2.55511811023622
 20
4.984251968503937
 30
0.0
 11
2.664370078740157
 21
4.984251968503937
 31
0.0
  0
LINE
  5
2DB4
330
1F
100
AcDbEntity
  8
1
100
AcDbLine
 10
2.664370078740157
 20
4.984251968503937
 30
0.0
 11
2.664370078740157
 21
6.319881889763779
 31
0.0
  0
LINE
  5
2DB5
330
1F
100
AcDbEntity
  8
1
100
AcDbLine
 10
2.664370078740157
 20
6.319881889763779
 30
0.0
 11
1.795275590551181
 21
6.319881889763779
 31
0.0
  0
LINE
  5
2DB6
330
1F
100
AcDbEntity
  8
1
100
AcDbLine
 10
1.795275590551181
 20
6.319881889763779
 30
0.0
 11
1.795275590551181
 21
4.984251968503937
 31
0.0
  0
LINE
  5
2DB7
330
1F
100
AcDbEntity
  8
1
100
AcDbLine
 10
1.795275590551181
 20
4.984251968503937
 30
0.0
 11
1.905511811023622
 21
4.984251968503937
 31
0.0
  0
LINE
  5
2DB8
330
1F
100
AcDbEntity
  8
1
100
AcDbLine
 10
1.905511811023622
 20
4.984251968503937
 30
0.0
 11
1.905511811023622
 21
5.622047244094487
 31
0.0
  0
POLYLINE
  5
2DB9
330
1F
100
AcDbEntity
  8
1
100
AcDb2dPolyline
 66
     1
 10
0.0
 20
0.0
 30
0.0
  0
VERTEX
  5
2DBA
330
2DB9
100
AcDbEntity
  8
1
100
AcDbVertex
100
AcDb2dVertex
 10
1.905511811023622
 20
5.622047244094487
 30
0.0
  0
VERTEX
  5
2DBB
330
2DB9
100
AcDbEntity
  8
1
100
AcDbVertex
100
AcDb2dVertex
 10
1.909448818897637
 20
5.632874015748031
 30
0.0
  0
VERTEX
  5
2DBC
330
2DB9
100
AcDbEntity
  8
1
100
AcDbVertex
100
AcDb2dVertex
 10
1.921259842519685
 20
5.63779527559055
 30
0.0
  0
SEQEND
  5
2DBD
330
2DB9
100
AcDbEntity
  8
1
  0
LINE
  5
2DBE
330
1F
100
AcDbEntity
  8
1
100
AcDbLine
 10
1.921259842519685
 20
5.63779527559055
 30
0.0
 11
2.539370078740157
 21
5.63779527559055
 31
0.0
  0
LINE
  5
2DBF
330
1F
100
AcDbEntity
  8
1
100
AcDbLine
 10
1.795275590551181
 20
6.538385826771653
 30
0.0
 11
2.664370078740157
 21
6.538385826771653
 31
0.0
  0
LINE
  5
2DC0
330
1F
100
AcDbEntity
  8
1
100
AcDbLine
 10
2.664370078740157
 20
4.766732283464566
 30
0.0
 11
1.795275590551181
 21
4.766732283464566
 31
0.0
  0
LINE
  5
2DC1
330
1F
100
AcDbEntity
  8
1
100
AcDbLine
 10
1.913385826771653
 20
4.904527559055117
 30
0.0
 11
1.914370078740157
 21
5.11023622047244
 31
0.0
  0
POLYLINE
  5
2DC2
330
1F
100
AcDbEntity
  8
1
100
AcDb2dPolyline
 66
     1
 10
0.0
 20
0.0
 30
0.0
  0
VERTEX
  5
2DC3
330
2DC2
100
AcDbEntity
  8
1
100
AcDbVertex
100
AcDb2dVertex
 10
1.914370078740157
 20
5.11023622047244
 30
0.0
  0
VERTEX
  5
2DC4
330
2DC2
100
AcDbEntity
  8
1
100
AcDbVertex
100
AcDb2dVertex
 10
1.914370078740157
 20
5.119094488188975
 30
0.0
  0
VERTEX
  5
2DC5
330
2DC2
100
AcDbEntity
  8
1
100
AcDbVertex
100
AcDb2dVertex
 10
1.914370078740157
 20
5.123031496062991
 30
0.0
  0
SEQEND
  5
2DC6
330
2DC2
100
AcDbEntity
  8
1
  0
LINE
  5
2DC7
330
1F
100
AcDbEntity
  8
1
100
AcDbLine
 10
1.914370078740157
 20
5.123031496062991
 30
0.0
 11
1.915354330708661
 21
5.124015748031496
 31
0.0
  0
LINE
  5
2DC8
330
1F
100
AcDbEntity
  8
1
100
AcDbLine
 10
1.915354330708661
 20
5.62007874015748
 30
0.0
 11
1.913385826771653
 21
5.622047244094487
 31
0.0
  0
LINE
  5
2DC9
330
1F
100
AcDbEntity
  8
1
100
AcDbLine
 10
1.913385826771653
 20
5.622047244094487
 30
0.0
 11
1.913385826771653
 21
4.984251968503937
 31
0.0
  0
LINE
  5
2DCA
330
1F
100
AcDbEntity
  8
1
100
AcDbLine
 10
1.913385826771653
 20
4.984251968503937
 30
0.0
 11
1.913385826771653
 21
4.970472440944881
 31
0.0
  0
LINE
  5
2DCB
330
1F
100
AcDbEntity
  8
1
100
AcDbLine
 10
1.913385826771653
 20
4.970472440944881
 30
0.0
 11
1.913385826771653
 21
4.904527559055117
 31
0.0
  0
LINE
  5
2DCC
330
1F
100
AcDbEntity
  8
1
100
AcDbLine
 10
2.545275590551181
 20
5.124015748031496
 30
0.0
 11
2.545275590551181
 21
5.123031496062991
 31
0.0
  0
POLYLINE
  5
2DCD
330
1F
100
AcDbEntity
  8
1
100
AcDb2dPolyline
 66
     1
 10
0.0
 20
0.0
 30
0.0
  0
VERTEX
  5
2DCE
330
2DCD
100
AcDbEntity
  8
1
100
AcDbVertex
100
AcDb2dVertex
 10
2.545275590551181
 20
5.123031496062991
 30
0.0
  0
VERTEX
  5
2DCF
330
2DCD
100
AcDbEntity
  8
1
100
AcDbVertex
100
AcDb2dVertex
 10
2.546259842519685
 20
5.119094488188975
 30
0.0
  0
VERTEX
  5
2DD0
330
2DCD
100
AcDbEntity
  8
1
100
AcDbVertex
100
AcDb2dVertex
 10
2.546259842519685
 20
5.11023622047244
 30
0.0
  0
SEQEND
  5
2DD1
330
2DCD
100
AcDbEntity
  8
1
  0
LINE
  5
2DD2
330
1F
100
AcDbEntity
  8
1
100
AcDbLine
 10
2.546259842519685
 20
5.11023622047244
 30
0.0
 11
2.546259842519685
 21
4.904527559055117
 31
0.0
  0
LINE
  5
2DD3
330
1F
100
AcDbEntity
  8
1
100
AcDbLine
 10
2.546259842519685
 20
4.904527559055117
 30
0.0
 11
2.547244094488188
 21
4.970472440944881
 31
0.0
  0
LINE
  5
2DD4
330
1F
100
AcDbEntity
  8
1
100
AcDbLine
 10
2.547244094488188
 20
4.970472440944881
 30
0.0
 11
2.547244094488188
 21
4.984251968503937
 31
0.0
  0
LINE
  5
2DD5
330
1F
100
AcDbEntity
  8
1
100
AcDbLine
 10
2.547244094488188
 20
4.984251968503937
 30
0.0
 11
2.547244094488188
 21
5.622047244094487
 31
0.0
  0
LINE
  5
2DD6
330
1F
100
AcDbEntity
  8
1
100
AcDbLine
 10
2.547244094488188
 20
5.622047244094487
 30
0.0
 11
2.545275590551181
 21
5.62007874015748
 31
0.0
  0
LINE
  5
2DD7
330
1F
100
AcDbEntity
  8
1
100
AcDbLine
 10
1.919291338582677
 20
4.87007874015748
 30
0.0
 11
2.540354330708661
 21
4.87007874015748
 31
0.0
  0
POLYLINE
  5
2DD8
330
1F
100
AcDbEntity
  8
1
100
AcDb2dPolyline
 66
     1
 10
0.0
 20
0.0
 30
0.0
  0
VERTEX
  5
2DD9
330
2DD8
100
AcDbEntity
  8
1
100
AcDbVertex
100
AcDb2dVertex
 10
2.540354330708661
 20
4.87007874015748
 30
0.0
  0
VERTEX
  5
2DDA
330
2DD8
100
AcDbEntity
  8
1
100
AcDbVertex
100
AcDb2dVertex
 10
2.539370078740157
 20
4.886811023622047
 30
0.0
  0
VERTEX
  5
2DDB
330
2DD8
100
AcDbEntity
  8
1
100
AcDbVertex
100
AcDb2dVertex
 10
2.538385826771653
 20
4.903543307086613
 30
0.0
  0
SEQEND
  5
2DDC
330
2DD8
100
AcDbEntity
  8
1
  0
LINE
  5
2DDD
330
1F
100
AcDbEntity
  8
1
100
AcDbLine
 10
2.538385826771653
 20
4.903543307086613
 30
0.0
 11
2.538385826771653
 21
5.108267716535433
 31
0.0
  0
LINE
  5
2DDE
330
1F
100
AcDbEntity
  8
1
100
AcDbLine
 10
2.538385826771653
 20
5.108267716535433
 30
0.0
 11
1.922244094488188
 21
5.108267716535433
 31
0.0
  0
LINE
  5
2DDF
330
1F
100
AcDbEntity
  8
1
100
AcDbLine
 10
1.922244094488188
 20
5.108267716535433
 30
0.0
 11
1.921259842519685
 21
4.903543307086613
 31
0.0
  0
POLYLINE
  5
2DE0
330
1F
100
AcDbEntity
  8
1
100
AcDb2dPolyline
 66
     1
 10
0.0
 20
0.0
 30
0.0
  0
VERTEX
  5
2DE1
330
2DE0
100
AcDbEntity
  8
1
100
AcDbVertex
100
AcDb2dVertex
 10
1.921259842519685
 20
4.903543307086613
 30
0.0
  0
VERTEX
  5
2DE2
330
2DE0
100
AcDbEntity
  8
1
100
AcDbVertex
100
AcDb2dVertex
 10
1.920275590551181
 20
4.886811023622047
 30
0.0
  0
VERTEX
  5
2DE3
330
2DE0
100
AcDbEntity
  8
1
100
AcDbVertex
100
AcDb2dVertex
 10
1.919291338582677
 20
4.87007874015748
 30
0.0
  0
SEQEND
  5
2DE4
330
2DE0
100
AcDbEntity
  8
1
  0
LINE
  5
2DE5
330
1F
100
AcDbEntity
  8
1
100
AcDbLine
 10
2.520669291338582
 20
5.705708661417323
 30
0.0
 11
2.520669291338582
 21
6.101377952755905
 31
0.0
  0
POLYLINE
  5
2DE6
330
1F
100
AcDbEntity
  8
1
100
AcDb2dPolyline
 66
     1
 10
0.0
 20
0.0
 30
0.0
  0
VERTEX
  5
2DE7
330
2DE6
100
AcDbEntity
  8
1
100
AcDbVertex
100
AcDb2dVertex
 10
2.520669291338582
 20
6.100393700787401
 30
0.0
  0
VERTEX
  5
2DE8
330
2DE6
100
AcDbEntity
  8
1
100
AcDbVertex
100
AcDb2dVertex
 10
2.520669291338582
 20
6.098425196850393
 30
0.0
  0
VERTEX
  5
2DE9
330
2DE6
100
AcDbEntity
  8
1
100
AcDbVertex
100
AcDb2dVertex
 10
2.520669291338582
 20
6.09251968503937
 30
0.0
  0
SEQEND
  5
2DEA
330
2DE6
100
AcDbEntity
  8
1
  0
LINE
  5
2DEB
330
1F
100
AcDbEntity
  8
1
100
AcDbLine
 10
2.520669291338582
 20
5.714566929133858
 30
0.0
 11
2.520669291338582
 21
6.09251968503937
 31
0.0
  0
POLYLINE
  5
2DEC
330
1F
100
AcDbEntity
  8
1
100
AcDb2dPolyline
 66
     1
 10
0.0
 20
0.0
 30
0.0
  0
VERTEX
  5
2DED
330
2DEC
100
AcDbEntity
  8
1
100
AcDbVertex
100
AcDb2dVertex
 10
2.520669291338582
 20
5.714566929133858
 30
0.0
  0
VERTEX
  5
2DEE
330
2DEC
100
AcDbEntity
  8
1
100
AcDbVertex
100
AcDb2dVertex
 10
2.520669291338582
 20
5.708661417322834
 30
0.0
  0
VERTEX
  5
2DEF
330
2DEC
100
AcDbEntity
  8
1
100
AcDbVertex
100
AcDb2dVertex
 10
2.520669291338582
 20
5.706692913385826
 30
0.0
  0
SEQEND
  5
2DF0
330
2DEC
100
AcDbEntity
  8
1
  0
LINE
  5
2DF1
330
1F
100
AcDbEntity
  8
1
100
AcDbLine
 10
1.938976377952755
 20
6.101377952755905
 30
0.0
 11
1.938976377952755
 21
5.705708661417323
 31
0.0
  0
POLYLINE
  5
2DF2
330
1F
100
AcDbEntity
  8
1
100
AcDb2dPolyline
 66
     1
 10
0.0
 20
0.0
 30
0.0
  0
VERTEX
  5
2DF3
330
2DF2
100
AcDbEntity
  8
1
100
AcDbVertex
100
AcDb2dVertex
 10
1.938976377952755
 20
5.706692913385826
 30
0.0
  0
VERTEX
  5
2DF4
330
2DF2
100
AcDbEntity
  8
1
100
AcDbVertex
100
AcDb2dVertex
 10
1.938976377952755
 20
5.708661417322834
 30
0.0
  0
VERTEX
  5
2DF5
330
2DF2
100
AcDbEntity
  8
1
100
AcDbVertex
100
AcDb2dVertex
 10
1.938976377952755
 20
5.714566929133858
 30
0.0
  0
SEQEND
  5
2DF6
330
2DF2
100
AcDbEntity
  8
1
  0
LINE
  5
2DF7
330
1F
100
AcDbEntity
  8
1
100
AcDbLine
 10
1.938976377952755
 20
6.09251968503937
 30
0.0
 11
1.938976377952755
 21
5.714566929133858
 31
0.0
  0
POLYLINE
  5
2DF8
330
1F
100
AcDbEntity
  8
1
100
AcDb2dPolyline
 66
     1
 10
0.0
 20
0.0
 30
0.0
  0
VERTEX
  5
2DF9
330
2DF8
100
AcDbEntity
  8
1
100
AcDbVertex
100
AcDb2dVertex
 10
1.938976377952755
 20
6.09251968503937
 30
0.0
  0
VERTEX
  5
2DFA
330
2DF8
100
AcDbEntity
  8
1
100
AcDbVertex
100
AcDb2dVertex
 10
1.938976377952755
 20
6.098425196850393
 30
0.0
  0
VERTEX
  5
2DFB
330
2DF8
100
AcDbEntity
  8
1
100
AcDbVertex
100
AcDb2dVertex
 10
1.938976377952755
 20
6.100393700787401
 30
0.0
  0
SEQEND
  5
2DFC
330
2DF8
100
AcDbEntity
  8
1
  0
LINE
  5
2DFD
330
1F
100
AcDbEntity
  8
1
100
AcDbLine
 10
2.124015748031495
 20
5.116141732283464
 30
0.0
 11
2.335629921259842
 21
5.116141732283464
 31
0.0
  0
LINE
  5
2DFE
330
1F
100
AcDbEntity
  8
1
100
AcDbLine
 10
2.537401574803149
 20
5.627952755905512
 30
0.0
 11
2.539370078740157
 21
5.629921259842519
 31
0.0
  0
LINE
  5
2DFF
330
1F
100
AcDbEntity
  8
1
100
AcDbLine
 10
2.539370078740157
 20
5.629921259842519
 30
0.0
 11
1.921259842519685
 21
5.629921259842519
 31
0.0
  0
LINE
  5
2E00
330
1F
100
AcDbEntity
  8
1
100
AcDbLine
 10
1.921259842519685
 20
5.629921259842519
 30
0.0
 11
1.923228346456692
 21
5.627952755905512
 31
0.0
  0
LINE
  5
2E01
330
1F
100
AcDbEntity
  8
1
100
AcDbLine
 10
1.923228346456692
 20
5.116141732283464
 30
0.0
 11
1.922244094488188
 21
5.11515748031496
 31
0.0
  0
LINE
  5
2E02
330
1F
100
AcDbEntity
  8
1
100
AcDbLine
 10
1.922244094488188
 20
5.11515748031496
 30
0.0
 11
2.537401574803149
 21
5.11515748031496
 31
0.0
  0
LINE
  5
2E03
330
1F
100
AcDbEntity
  8
1
100
AcDbLine
 10
2.537401574803149
 20
5.11515748031496
 30
0.0
 11
2.537401574803149
 21
5.116141732283464
 31
0.0
  0
LINE
  5
2E04
330
1F
100
AcDbEntity
  8
1
100
AcDbLine
 10
1.939960629921259
 20
6.098425196850393
 30
0.0
 11
1.939960629921259
 21
6.097440944881889
 31
0.0
  0
LINE
  5
2E05
330
1F
100
AcDbEntity
  8
1
100
AcDbLine
 10
2.519685039370078
 20
6.097440944881889
 30
0.0
 11
2.519685039370078
 21
6.098425196850393
 31
0.0
  0
LINE
  5
2E06
330
1F
100
AcDbEntity
  8
1
100
AcDbLine
 10
2.519685039370078
 20
6.098425196850393
 30
0.0
 11
1.939960629921259
 21
6.098425196850393
 31
0.0
  0
LINE
  5
2E07
330
1F
100
AcDbEntity
  8
1
100
AcDbLine
 10
1.939960629921259
 20
6.098425196850393
 30
0.0
 11
1.939960629921259
 21
6.100393700787401
 31
0.0
  0
LINE
  5
2E08
330
1F
100
AcDbEntity
  8
1
100
AcDbLine
 10
1.939960629921259
 20
5.706692913385826
 30
0.0
 11
1.939960629921259
 21
5.708661417322834
 31
0.0
  0
LINE
  5
2E09
330
1F
100
AcDbEntity
  8
1
100
AcDbLine
 10
2.519685039370078
 20
5.708661417322834
 30
0.0
 11
2.519685039370078
 21
5.706692913385826
 31
0.0
  0
LINE
  5
2E0A
330
1F
100
AcDbEntity
  8
1
100
AcDbLine
 10
2.519685039370078
 20
6.100393700787401
 30
0.0
 11
2.519685039370078
 21
6.098425196850393
 31
0.0
  0
LINE
  5
2E0B
330
1F
100
AcDbEntity
  8
1
100
AcDbLine
 10
2.664370078740157
 20
4.969488188976377
 30
0.0
 11
2.55511811023622
 21
4.969488188976377
 31
0.0
  0
LINE
  5
2E0C
330
1F
100
AcDbEntity
  8
1
100
AcDbLine
 10
2.55511811023622
 20
4.969488188976377
 30
0.0
 11
2.554133858267716
 21
4.792322834645669
 31
0.0
  0
LINE
  5
2E0D
330
1F
100
AcDbEntity
  8
1
100
AcDbLine
 10
2.554133858267716
 20
4.792322834645669
 30
0.0
 11
1.905511811023622
 21
4.792322834645669
 31
0.0
  0
LINE
  5
2E0E
330
1F
100
AcDbEntity
  8
1
100
AcDbLine
 10
1.905511811023622
 20
4.792322834645669
 30
0.0
 11
1.905511811023622
 21
4.969488188976377
 31
0.0
  0
LINE
  5
2E0F
330
1F
100
AcDbEntity
  8
1
100
AcDbLine
 10
1.905511811023622
 20
4.969488188976377
 30
0.0
 11
1.795275590551181
 21
4.969488188976377
 31
0.0
  0
LINE
  5
2E10
330
1F
100
AcDbEntity
  8
1
100
AcDbLine
 10
1.795275590551181
 20
4.969488188976377
 30
0.0
 11
1.795275590551181
 21
4.773622047244094
 31
0.0
  0
LINE
  5
2E11
330
1F
100
AcDbEntity
  8
1
100
AcDbLine
 10
1.795275590551181
 20
4.773622047244094
 30
0.0
 11
2.664370078740157
 21
4.773622047244094
 31
0.0
  0
LINE
  5
2E12
330
1F
100
AcDbEntity
  8
1
100
AcDbLine
 10
2.664370078740157
 20
4.773622047244094
 30
0.0
 11
2.664370078740157
 21
4.969488188976377
 31
0.0
  0
POLYLINE
  5
2E13
330
1F
100
AcDbEntity
  8
1
100
AcDb2dPolyline
 66
     1
 10
0.0
 20
0.0
 30
0.0
  0
VERTEX
  5
2E14
330
2E13
100
AcDbEntity
  8
1
100
AcDbVertex
100
AcDb2dVertex
 10
2.554133858267716
 20
4.792322834645669
 30
0.0
  0
VERTEX
  5
2E15
330
2E13
100
AcDbEntity
  8
1
100
AcDbVertex
100
AcDb2dVertex
 10
2.554133858267716
 20
4.793307086614173
 30
0.0
  0
VERTEX
  5
2E16
330
2E13
100
AcDbEntity
  8
1
100
AcDbVertex
100
AcDb2dVertex
 10
2.547244094488188
 20
4.829724409448818
 30
0.0
  0
VERTEX
  5
2E17
330
2E13
100
AcDbEntity
  8
1
100
AcDbVertex
100
AcDb2dVertex
 10
2.541338582677165
 20
4.867125984251968
 30
0.0
  0
VERTEX
  5
2E18
330
2E13
100
AcDbEntity
  8
1
100
AcDbVertex
100
AcDb2dVertex
 10
2.540354330708661
 20
4.87007874015748
 30
0.0
  0
SEQEND
  5
2E19
330
2E13
100
AcDbEntity
  8
1
  0
POLYLINE
  5
2E1A
330
1F
100
AcDbEntity
  8
1
100
AcDb2dPolyline
 66
     1
 10
0.0
 20
0.0
 30
0.0
  0
VERTEX
  5
2E1B
330
2E1A
100
AcDbEntity
  8
1
100
AcDbVertex
100
AcDb2dVertex
 10
1.919291338582677
 20
4.87007874015748
 30
0.0
  0
VERTEX
  5
2E1C
330
2E1A
100
AcDbEntity
  8
1
100
AcDbVertex
100
AcDb2dVertex
 10
1.917322834645669
 20
4.855314960629921
 30
0.0
  0
VERTEX
  5
2E1D
330
2E1A
100
AcDbEntity
  8
1
100
AcDbVertex
100
AcDb2dVertex
 10
1.915354330708661
 20
4.839566929133858
 30
0.0
  0
VERTEX
  5
2E1E
330
2E1A
100
AcDbEntity
  8
1
100
AcDbVertex
100
AcDb2dVertex
 10
1.910433070866141
 20
4.816929133858267
 30
0.0
  0
VERTEX
  5
2E1F
330
2E1A
100
AcDbEntity
  8
1
100
AcDbVertex
100
AcDb2dVertex
 10
1.905511811023622
 20
4.793307086614173
 30
0.0
  0
VERTEX
  5
2E20
330
2E1A
100
AcDbEntity
  8
1
100
AcDbVertex
100
AcDb2dVertex
 10
1.905511811023622
 20
4.792322834645669
 30
0.0
  0
SEQEND
  5
2E21
330
2E1A
100
AcDbEntity
  8
1
  0
LINE
  5
2E22
330
1F
100
AcDbEntity
  8
1
100
AcDbLine
 10
1.795275590551181
 20
6.334645669291338
 30
0.0
 11
2.664370078740157
 21
6.334645669291338
 31
0.0
  0
LINE
  5
2E23
330
1F
100
AcDbEntity
  8
1
100
AcDbLine
 10
2.664370078740157
 20
6.334645669291338
 30
0.0
 11
2.664370078740157
 21
6.531496062992125
 31
0.0
  0
LINE
  5
2E24
330
1F
100
AcDbEntity
  8
1
100
AcDbLine
 10
2.664370078740157
 20
6.531496062992125
 30
0.0
 11
1.795275590551181
 21
6.531496062992125
 31
0.0
  0
LINE
  5
2E25
330
1F
100
AcDbEntity
  8
1
100
AcDbLine
 10
1.795275590551181
 20
6.531496062992125
 30
0.0
 11
1.795275590551181
 21
6.334645669291338
 31
0.0
  0
LINE
  5
2E26
330
1F
100
AcDbEntity
  8
1
100
AcDbLine
 10
1.905511811023622
 20
4.969488188976377
 30
0.0
 11
1.905511811023622
 21
4.984251968503937
 31
0.0
  0
LINE
  5
2E27
330
1F
100
AcDbEntity
  8
1
100
AcDbLine
 10
1.795275590551181
 20
4.984251968503937
 30
0.0
 11
1.795275590551181
 21
4.969488188976377
 31
0.0
  0
LINE
  5
2E28
330
1F
100
AcDbEntity
  8
1
100
AcDbLine
 10
2.55511811023622
 20
4.984251968503937
 30
0.0
 11
2.55511811023622
 21
4.969488188976377
 31
0.0
  0
LINE
  5
2E29
330
1F
100
AcDbEntity
  8
1
100
AcDbLine
 10
2.664370078740157
 20
4.969488188976377
 30
0.0
 11
2.664370078740157
 21
4.984251968503937
 31
0.0
  0
LINE
  5
2E2A
330
1F
100
AcDbEntity
  8
1
100
AcDbLine
 10
2.664370078740157
 20
6.319881889763779
 30
0.0
 11
2.664370078740157
 21
6.334645669291338
 31
0.0
  0
LINE
  5
2E2B
330
1F
100
AcDbEntity
  8
1
100
AcDbLine
 10
1.795275590551181
 20
6.334645669291338
 30
0.0
 11
1.795275590551181
 21
6.319881889763779
 31
0.0
  0
POLYLINE
  5
2E2C
330
1F
100
AcDbEntity
  8
1
100
AcDb2dPolyline
 66
     1
 10
0.0
 20
0.0
 30
0.0
  0
VERTEX
  5
2E2D
330
2E2C
100
AcDbEntity
  8
1
100
AcDbVertex
100
AcDb2dVertex
 10
2.672244094488188
 20
6.530511811023622
 30
0.0
  0
VERTEX
  5
2E2E
330
2E2C
100
AcDbEntity
  8
1
100
AcDbVertex
100
AcDb2dVertex
 10
2.670275590551181
 20
6.536417322834645
 30
0.0
  0
VERTEX
  5
2E2F
330
2E2C
100
AcDbEntity
  8
1
100
AcDbVertex
100
AcDb2dVertex
 10
2.664370078740157
 20
6.538385826771653
 30
0.0
  0
SEQEND
  5
2E30
330
2E2C
100
AcDbEntity
  8
1
  0
POLYLINE
  5
2E31
330
1F
100
AcDbEntity
  8
1
100
AcDb2dPolyline
 66
     1
 10
0.0
 20
0.0
 30
0.0
  0
VERTEX
  5
2E32
330
2E31
100
AcDbEntity
  8
1
100
AcDbVertex
100
AcDb2dVertex
 10
2.672244094488188
 20
6.530511811023622
 30
0.0
  0
VERTEX
  5
2E33
330
2E31
100
AcDbEntity
  8
1
100
AcDbVertex
100
AcDb2dVertex
 10
2.670275590551181
 20
6.531496062992125
 30
0.0
  0
VERTEX
  5
2E34
330
2E31
100
AcDbEntity
  8
1
100
AcDbVertex
100
AcDb2dVertex
 10
2.664370078740157
 20
6.531496062992125
 30
0.0
  0
SEQEND
  5
2E35
330
2E31
100
AcDbEntity
  8
1
  0
POLYLINE
  5
2E36
330
1F
100
AcDbEntity
  8
1
100
AcDb2dPolyline
 66
     1
 10
0.0
 20
0.0
 30
0.0
  0
VERTEX
  5
2E37
330
2E36
100
AcDbEntity
  8
1
100
AcDbVertex
100
AcDb2dVertex
 10
2.664370078740157
 20
6.531496062992125
 30
0.0
  0
VERTEX
  5
2E38
330
2E36
100
AcDbEntity
  8
1
100
AcDbVertex
100
AcDb2dVertex
 10
2.664370078740157
 20
6.536417322834645
 30
0.0
  0
VERTEX
  5
2E39
330
2E36
100
AcDbEntity
  8
1
100
AcDbVertex
100
AcDb2dVertex
 10
2.664370078740157
 20
6.538385826771653
 30
0.0
  0
SEQEND
  5
2E3A
330
2E36
100
AcDbEntity
  8
1
  0
POLYLINE
  5
2E3B
330
1F
100
AcDbEntity
  8
1
100
AcDb2dPolyline
 66
     1
 10
0.0
 20
0.0
 30
0.0
  0
VERTEX
  5
2E3C
330
2E3B
100
AcDbEntity
  8
1
100
AcDbVertex
100
AcDb2dVertex
 10
1.795275590551181
 20
6.538385826771653
 30
0.0
  0
VERTEX
  5
2E3D
330
2E3B
100
AcDbEntity
  8
1
100
AcDbVertex
100
AcDb2dVertex
 10
1.790354330708661
 20
6.536417322834645
 30
0.0
  0
VERTEX
  5
2E3E
330
2E3B
100
AcDbEntity
  8
1
100
AcDbVertex
100
AcDb2dVertex
 10
1.787401574803149
 20
6.530511811023622
 30
0.0
  0
SEQEND
  5
2E3F
330
2E3B
100
AcDbEntity
  8
1
  0
POLYLINE
  5
2E40
330
1F
100
AcDbEntity
  8
1
100
AcDb2dPolyline
 66
     1
 10
0.0
 20
0.0
 30
0.0
  0
VERTEX
  5
2E41
330
2E40
100
AcDbEntity
  8
1
100
AcDbVertex
100
AcDb2dVertex
 10
1.795275590551181
 20
6.531496062992125
 30
0.0
  0
VERTEX
  5
2E42
330
2E40
100
AcDbEntity
  8
1
100
AcDbVertex
100
AcDb2dVertex
 10
1.795275590551181
 20
6.536417322834645
 30
0.0
  0
VERTEX
  5
2E43
330
2E40
100
AcDbEntity
  8
1
100
AcDbVertex
100
AcDb2dVertex
 10
1.795275590551181
 20
6.538385826771653
 30
0.0
  0
SEQEND
  5
2E44
330
2E40
100
AcDbEntity
  8
1
  0
POLYLINE
  5
2E45
330
1F
100
AcDbEntity
  8
1
100
AcDb2dPolyline
 66
     1
 10
0.0
 20
0.0
 30
0.0
  0
VERTEX
  5
2E46
330
2E45
100
AcDbEntity
  8
1
100
AcDbVertex
100
AcDb2dVertex
 10
2.672244094488188
 20
6.334645669291338
 30
0.0
  0
VERTEX
  5
2E47
330
2E45
100
AcDbEntity
  8
1
100
AcDbVertex
100
AcDb2dVertex
 10
2.670275590551181
 20
6.334645669291338
 30
0.0
  0
VERTEX
  5
2E48
330
2E45
100
AcDbEntity
  8
1
100
AcDbVertex
100
AcDb2dVertex
 10
2.664370078740157
 20
6.334645669291338
 30
0.0
  0
SEQEND
  5
2E49
330
2E45
100
AcDbEntity
  8
1
  0
POLYLINE
  5
2E4A
330
1F
100
AcDbEntity
  8
1
100
AcDb2dPolyline
 66
     1
 10
0.0
 20
0.0
 30
0.0
  0
VERTEX
  5
2E4B
330
2E4A
100
AcDbEntity
  8
1
100
AcDbVertex
100
AcDb2dVertex
 10
1.795275590551181
 20
6.531496062992125
 30
0.0
  0
VERTEX
  5
2E4C
330
2E4A
100
AcDbEntity
  8
1
100
AcDbVertex
100
AcDb2dVertex
 10
1.790354330708661
 20
6.531496062992125
 30
0.0
  0
VERTEX
  5
2E4D
330
2E4A
100
AcDbEntity
  8
1
100
AcDbVertex
100
AcDb2dVertex
 10
1.787401574803149
 20
6.530511811023622
 30
0.0
  0
SEQEND
  5
2E4E
330
2E4A
100
AcDbEntity
  8
1
  0
POLYLINE
  5
2E4F
330
1F
100
AcDbEntity
  8
1
100
AcDb2dPolyline
 66
     1
 10
0.0
 20
0.0
 30
0.0
  0
VERTEX
  5
2E50
330
2E4F
100
AcDbEntity
  8
1
100
AcDbVertex
100
AcDb2dVertex
 10
2.672244094488188
 20
6.319881889763779
 30
0.0
  0
VERTEX
  5
2E51
330
2E4F
100
AcDbEntity
  8
1
100
AcDbVertex
100
AcDb2dVertex
 10
2.670275590551181
 20
6.319881889763779
 30
0.0
  0
VERTEX
  5
2E52
330
2E4F
100
AcDbEntity
  8
1
100
AcDbVertex
100
AcDb2dVertex
 10
2.664370078740157
 20
6.319881889763779
 30
0.0
  0
SEQEND
  5
2E53
330
2E4F
100
AcDbEntity
  8
1
  0
POLYLINE
  5
2E54
330
1F
100
AcDbEntity
  8
1
100
AcDb2dPolyline
 66
     1
 10
0.0
 20
0.0
 30
0.0
  0
VERTEX
  5
2E55
330
2E54
100
AcDbEntity
  8
1
100
AcDbVertex
100
AcDb2dVertex
 10
1.795275590551181
 20
6.334645669291338
 30
0.0
  0
VERTEX
  5
2E56
330
2E54
100
AcDbEntity
  8
1
100
AcDbVertex
100
AcDb2dVertex
 10
1.789370078740157
 20
6.334645669291338
 30
0.0
  0
VERTEX
  5
2E57
330
2E54
100
AcDbEntity
  8
1
100
AcDbVertex
100
AcDb2dVertex
 10
1.787401574803149
 20
6.334645669291338
 30
0.0
  0
SEQEND
  5
2E58
330
2E54
100
AcDbEntity
  8
1
  0
POLYLINE
  5
2E59
330
1F
100
AcDbEntity
  8
1
100
AcDb2dPolyline
 66
     1
 10
0.0
 20
0.0
 30
0.0
  0
VERTEX
  5
2E5A
330
2E59
100
AcDbEntity
  8
1
100
AcDbVertex
100
AcDb2dVertex
 10
2.672244094488188
 20
4.984251968503937
 30
0.0
  0
VERTEX
  5
2E5B
330
2E59
100
AcDbEntity
  8
1
100
AcDbVertex
100
AcDb2dVertex
 10
2.670275590551181
 20
4.984251968503937
 30
0.0
  0
VERTEX
  5
2E5C
330
2E59
100
AcDbEntity
  8
1
100
AcDbVertex
100
AcDb2dVertex
 10
2.664370078740157
 20
4.984251968503937
 30
0.0
  0
SEQEND
  5
2E5D
330
2E59
100
AcDbEntity
  8
1
  0
POLYLINE
  5
2E5E
330
1F
100
AcDbEntity
  8
1
100
AcDb2dPolyline
 66
     1
 10
0.0
 20
0.0
 30
0.0
  0
VERTEX
  5
2E5F
330
2E5E
100
AcDbEntity
  8
1
100
AcDbVertex
100
AcDb2dVertex
 10
1.795275590551181
 20
6.319881889763779
 30
0.0
  0
VERTEX
  5
2E60
330
2E5E
100
AcDbEntity
  8
1
100
AcDbVertex
100
AcDb2dVertex
 10
1.789370078740157
 20
6.319881889763779
 30
0.0
  0
VERTEX
  5
2E61
330
2E5E
100
AcDbEntity
  8
1
100
AcDbVertex
100
AcDb2dVertex
 10
1.787401574803149
 20
6.319881889763779
 30
0.0
  0
SEQEND
  5
2E62
330
2E5E
100
AcDbEntity
  8
1
  0
POLYLINE
  5
2E63
330
1F
100
AcDbEntity
  8
1
100
AcDb2dPolyline
 66
     1
 10
0.0
 20
0.0
 30
0.0
  0
VERTEX
  5
2E64
330
2E63
100
AcDbEntity
  8
1
100
AcDbVertex
100
AcDb2dVertex
 10
2.672244094488188
 20
4.970472440944881
 30
0.0
  0
VERTEX
  5
2E65
330
2E63
100
AcDbEntity
  8
1
100
AcDbVertex
100
AcDb2dVertex
 10
2.670275590551181
 20
4.969488188976377
 30
0.0
  0
VERTEX
  5
2E66
330
2E63
100
AcDbEntity
  8
1
100
AcDbVertex
100
AcDb2dVertex
 10
2.664370078740157
 20
4.969488188976377
 30
0.0
  0
SEQEND
  5
2E67
330
2E63
100
AcDbEntity
  8
1
  0
POLYLINE
  5
2E68
330
1F
100
AcDbEntity
  8
1
100
AcDb2dPolyline
 66
     1
 10
0.0
 20
0.0
 30
0.0
  0
VERTEX
  5
2E69
330
2E68
100
AcDbEntity
  8
1
100
AcDbVertex
100
AcDb2dVertex
 10
1.795275590551181
 20
4.984251968503937
 30
0.0
  0
VERTEX
  5
2E6A
330
2E68
100
AcDbEntity
  8
1
100
AcDbVertex
100
AcDb2dVertex
 10
1.789370078740157
 20
4.984251968503937
 30
0.0
  0
VERTEX
  5
2E6B
330
2E68
100
AcDbEntity
  8
1
100
AcDbVertex
100
AcDb2dVertex
 10
1.787401574803149
 20
4.984251968503937
 30
0.0
  0
SEQEND
  5
2E6C
330
2E68
100
AcDbEntity
  8
1
  0
POLYLINE
  5
2E6D
330
1F
100
AcDbEntity
  8
1
100
AcDb2dPolyline
 66
     1
 10
0.0
 20
0.0
 30
0.0
  0
VERTEX
  5
2E6E
330
2E6D
100
AcDbEntity
  8
1
100
AcDbVertex
100
AcDb2dVertex
 10
2.672244094488188
 20
4.774606299212598
 30
0.0
  0
VERTEX
  5
2E6F
330
2E6D
100
AcDbEntity
  8
1
100
AcDbVertex
100
AcDb2dVertex
 10
2.670275590551181
 20
4.773622047244094
 30
0.0
  0
VERTEX
  5
2E70
330
2E6D
100
AcDbEntity
  8
1
100
AcDbVertex
100
AcDb2dVertex
 10
2.664370078740157
 20
4.773622047244094
 30
0.0
  0
SEQEND
  5
2E71
330
2E6D
100
AcDbEntity
  8
1
  0
POLYLINE
  5
2E72
330
1F
100
AcDbEntity
  8
1
100
AcDb2dPolyline
 66
     1
 10
0.0
 20
0.0
 30
0.0
  0
VERTEX
  5
2E73
330
2E72
100
AcDbEntity
  8
1
100
AcDbVertex
100
AcDb2dVertex
 10
2.664370078740157
 20
4.766732283464566
 30
0.0
  0
VERTEX
  5
2E74
330
2E72
100
AcDbEntity
  8
1
100
AcDbVertex
100
AcDb2dVertex
 10
2.670275590551181
 20
4.768700787401574
 30
0.0
  0
VERTEX
  5
2E75
330
2E72
100
AcDbEntity
  8
1
100
AcDbVertex
100
AcDb2dVertex
 10
2.672244094488188
 20
4.774606299212598
 30
0.0
  0
SEQEND
  5
2E76
330
2E72
100
AcDbEntity
  8
1
  0
POLYLINE
  5
2E77
330
1F
100
AcDbEntity
  8
1
100
AcDb2dPolyline
 66
     1
 10
0.0
 20
0.0
 30
0.0
  0
VERTEX
  5
2E78
330
2E77
100
AcDbEntity
  8
1
100
AcDbVertex
100
AcDb2dVertex
 10
1.795275590551181
 20
4.969488188976377
 30
0.0
  0
VERTEX
  5
2E79
330
2E77
100
AcDbEntity
  8
1
100
AcDbVertex
100
AcDb2dVertex
 10
1.789370078740157
 20
4.969488188976377
 30
0.0
  0
VERTEX
  5
2E7A
330
2E77
100
AcDbEntity
  8
1
100
AcDbVertex
100
AcDb2dVertex
 10
1.787401574803149
 20
4.970472440944881
 30
0.0
  0
SEQEND
  5
2E7B
330
2E77
100
AcDbEntity
  8
1
  0
POLYLINE
  5
2E7C
330
1F
100
AcDbEntity
  8
1
100
AcDb2dPolyline
 66
     1
 10
0.0
 20
0.0
 30
0.0
  0
VERTEX
  5
2E7D
330
2E7C
100
AcDbEntity
  8
1
100
AcDbVertex
100
AcDb2dVertex
 10
2.664370078740157
 20
4.766732283464566
 30
0.0
  0
VERTEX
  5
2E7E
330
2E7C
100
AcDbEntity
  8
1
100
AcDbVertex
100
AcDb2dVertex
 10
2.664370078740157
 20
4.768700787401574
 30
0.0
  0
VERTEX
  5
2E7F
330
2E7C
100
AcDbEntity
  8
1
100
AcDbVertex
100
AcDb2dVertex
 10
2.664370078740157
 20
4.773622047244094
 30
0.0
  0
SEQEND
  5
2E80
330
2E7C
100
AcDbEntity
  8
1
  0
POLYLINE
  5
2E81
330
1F
100
AcDbEntity
  8
1
100
AcDb2dPolyline
 66
     1
 10
0.0
 20
0.0
 30
0.0
  0
VERTEX
  5
2E82
330
2E81
100
AcDbEntity
  8
1
100
AcDbVertex
100
AcDb2dVertex
 10
1.795275590551181
 20
4.773622047244094
 30
0.0
  0
VERTEX
  5
2E83
330
2E81
100
AcDbEntity
  8
1
100
AcDbVertex
100
AcDb2dVertex
 10
1.790354330708661
 20
4.773622047244094
 30
0.0
  0
VERTEX
  5
2E84
330
2E81
100
AcDbEntity
  8
1
100
AcDbVertex
100
AcDb2dVertex
 10
1.787401574803149
 20
4.774606299212598
 30
0.0
  0
SEQEND
  5
2E85
330
2E81
100
AcDbEntity
  8
1
  0
POLYLINE
  5
2E86
330
1F
100
AcDbEntity
  8
1
100
AcDb2dPolyline
 66
     1
 10
0.0
 20
0.0
 30
0.0
  0
VERTEX
  5
2E87
330
2E86
100
AcDbEntity
  8
1
100
AcDbVertex
100
AcDb2dVertex
 10
1.795275590551181
 20
4.766732283464566
 30
0.0
  0
VERTEX
  5
2E88
330
2E86
100
AcDbEntity
  8
1
100
AcDbVertex
100
AcDb2dVertex
 10
1.795275590551181
 20
4.768700787401574
 30
0.0
  0
VERTEX
  5
2E89
330
2E86
100
AcDbEntity
  8
1
100
AcDbVertex
100
AcDb2dVertex
 10
1.795275590551181
 20
4.773622047244094
 30
0.0
  0
SEQEND
  5
2E8A
330
2E86
100
AcDbEntity
  8
1
  0
POLYLINE
  5
2E8B
330
1F
100
AcDbEntity
  8
1
100
AcDb2dPolyline
 66
     1
 10
0.0
 20
0.0
 30
0.0
  0
VERTEX
  5
2E8C
330
2E8B
100
AcDbEntity
  8
1
100
AcDbVertex
100
AcDb2dVertex
 10
1.795275590551181
 20
4.766732283464566
 30
0.0
  0
VERTEX
  5
2E8D
330
2E8B
100
AcDbEntity
  8
1
100
AcDbVertex
100
AcDb2dVertex
 10
1.790354330708661
 20
4.768700787401574
 30
0.0
  0
VERTEX
  5
2E8E
330
2E8B
100
AcDbEntity
  8
1
100
AcDbVertex
100
AcDb2dVertex
 10
1.787401574803149
 20
4.774606299212598
 30
0.0
  0
SEQEND
  5
2E8F
330
2E8B
100
AcDbEntity
  8
1
  0
POLYLINE
  5
2E90
330
1F
100
AcDbEntity
  8
1
100
AcDb2dPolyline
 66
     1
 10
0.0
 20
0.0
 30
0.0
  0
VERTEX
  5
2E91
330
2E90
100
AcDbEntity
  8
1
100
AcDbVertex
100
AcDb2dVertex
 10
1.914370078740157
 20
5.123031496062991
 30
0.0
  0
VERTEX
  5
2E92
330
2E90
100
AcDbEntity
  8
1
100
AcDbVertex
100
AcDb2dVertex
 10
1.916338582677165
 20
5.118110236220472
 30
0.0
  0
VERTEX
  5
2E93
330
2E90
100
AcDbEntity
  8
1
100
AcDbVertex
100
AcDb2dVertex
 10
1.922244094488188
 20
5.11515748031496
 30
0.0
  0
SEQEND
  5
2E94
330
2E90
100
AcDbEntity
  8
1
  0
POLYLINE
  5
2E95
330
1F
100
AcDbEntity
  8
1
100
AcDb2dPolyline
 66
     1
 10
0.0
 20
0.0
 30
0.0
  0
VERTEX
  5
2E96
330
2E95
100
AcDbEntity
  8
1
100
AcDbVertex
100
AcDb2dVertex
 10
2.537401574803149
 20
5.11515748031496
 30
0.0
  0
VERTEX
  5
2E97
330
2E95
100
AcDbEntity
  8
1
100
AcDbVertex
100
AcDb2dVertex
 10
2.543307086614173
 20
5.118110236220472
 30
0.0
  0
VERTEX
  5
2E98
330
2E95
100
AcDbEntity
  8
1
100
AcDbVertex
100
AcDb2dVertex
 10
2.545275590551181
 20
5.123031496062991
 30
0.0
  0
SEQEND
  5
2E99
330
2E95
100
AcDbEntity
  8
1
  0
POLYLINE
  5
2E9A
330
1F
100
AcDbEntity
  8
1
100
AcDb2dPolyline
 66
     1
 10
0.0
 20
0.0
 30
0.0
  0
VERTEX
  5
2E9B
330
2E9A
100
AcDbEntity
  8
1
100
AcDbVertex
100
AcDb2dVertex
 10
2.547244094488188
 20
5.622047244094487
 30
0.0
  0
VERTEX
  5
2E9C
330
2E9A
100
AcDbEntity
  8
1
100
AcDbVertex
100
AcDb2dVertex
 10
2.544291338582677
 20
5.627952755905512
 30
0.0
  0
VERTEX
  5
2E9D
330
2E9A
100
AcDbEntity
  8
1
100
AcDbVertex
100
AcDb2dVertex
 10
2.539370078740157
 20
5.629921259842519
 30
0.0
  0
SEQEND
  5
2E9E
330
2E9A
100
AcDbEntity
  8
1
  0
POLYLINE
  5
2E9F
330
1F
100
AcDbEntity
  8
1
100
AcDb2dPolyline
 66
     1
 10
0.0
 20
0.0
 30
0.0
  0
VERTEX
  5
2EA0
330
2E9F
100
AcDbEntity
  8
1
100
AcDbVertex
100
AcDb2dVertex
 10
1.921259842519685
 20
5.629921259842519
 30
0.0
  0
VERTEX
  5
2EA1
330
2E9F
100
AcDbEntity
  8
1
100
AcDbVertex
100
AcDb2dVertex
 10
1.915354330708661
 20
5.627952755905512
 30
0.0
  0
VERTEX
  5
2EA2
330
2E9F
100
AcDbEntity
  8
1
100
AcDbVertex
100
AcDb2dVertex
 10
1.913385826771653
 20
5.622047244094487
 30
0.0
  0
SEQEND
  5
2EA3
330
2E9F
100
AcDbEntity
  8
1
  0
POLYLINE
  5
2EA4
330
1F
100
AcDbEntity
  8
1
100
AcDb2dPolyline
 66
     1
 10
0.0
 20
0.0
 30
0.0
  0
VERTEX
  5
2EA5
330
2EA4
100
AcDbEntity
  8
1
100
AcDbVertex
100
AcDb2dVertex
 10
1.905511811023622
 20
4.792322834645669
 30
0.0
  0
VERTEX
  5
2EA6
330
2EA4
100
AcDbEntity
  8
1
100
AcDbVertex
100
AcDb2dVertex
 10
1.905511811023622
 20
4.793307086614173
 30
0.0
  0
VERTEX
  5
2EA7
330
2EA4
100
AcDbEntity
  8
1
100
AcDbVertex
100
AcDb2dVertex
 10
1.908464566929133
 20
4.816929133858267
 30
0.0
  0
VERTEX
  5
2EA8
330
2EA4
100
AcDbEntity
  8
1
100
AcDbVertex
100
AcDb2dVertex
 10
1.910433070866141
 20
4.840551181102362
 30
0.0
  0
VERTEX
  5
2EA9
330
2EA4
100
AcDbEntity
  8
1
100
AcDbVertex
100
AcDb2dVertex
 10
1.911417322834645
 20
4.856299212598425
 30
0.0
  0
VERTEX
  5
2EAA
330
2EA4
100
AcDbEntity
  8
1
100
AcDbVertex
100
AcDb2dVertex
 10
1.912401574803149
 20
4.871062992125984
 30
0.0
  0
SEQEND
  5
2EAB
330
2EA4
100
AcDbEntity
  8
1
  0
POLYLINE
  5
2EAC
330
1F
100
AcDbEntity
  8
1
100
AcDb2dPolyline
 66
     1
 10
0.0
 20
0.0
 30
0.0
  0
VERTEX
  5
2EAD
330
2EAC
100
AcDbEntity
  8
1
100
AcDbVertex
100
AcDb2dVertex
 10
1.912401574803149
 20
4.871062992125984
 30
0.0
  0
VERTEX
  5
2EAE
330
2EAC
100
AcDbEntity
  8
1
100
AcDbVertex
100
AcDb2dVertex
 10
1.913385826771653
 20
4.886811023622047
 30
0.0
  0
VERTEX
  5
2EAF
330
2EAC
100
AcDbEntity
  8
1
100
AcDbVertex
100
AcDb2dVertex
 10
1.913385826771653
 20
4.904527559055117
 30
0.0
  0
SEQEND
  5
2EB0
330
2EAC
100
AcDbEntity
  8
1
  0
POLYLINE
  5
2EB1
330
1F
100
AcDbEntity
  8
1
100
AcDb2dPolyline
 66
     1
 10
0.0
 20
0.0
 30
0.0
  0
VERTEX
  5
2EB2
330
2EB1
100
AcDbEntity
  8
1
100
AcDbVertex
100
AcDb2dVertex
 10
1.905511811023622
 20
4.969488188976377
 30
0.0
  0
VERTEX
  5
2EB3
330
2EB1
100
AcDbEntity
  8
1
100
AcDbVertex
100
AcDb2dVertex
 10
1.910433070866141
 20
4.969488188976377
 30
0.0
  0
VERTEX
  5
2EB4
330
2EB1
100
AcDbEntity
  8
1
100
AcDbVertex
100
AcDb2dVertex
 10
1.913385826771653
 20
4.970472440944881
 30
0.0
  0
SEQEND
  5
2EB5
330
2EB1
100
AcDbEntity
  8
1
  0
POLYLINE
  5
2EB6
330
1F
100
AcDbEntity
  8
1
100
AcDb2dPolyline
 66
     1
 10
0.0
 20
0.0
 30
0.0
  0
VERTEX
  5
2EB7
330
2EB6
100
AcDbEntity
  8
1
100
AcDbVertex
100
AcDb2dVertex
 10
1.905511811023622
 20
4.984251968503937
 30
0.0
  0
VERTEX
  5
2EB8
330
2EB6
100
AcDbEntity
  8
1
100
AcDbVertex
100
AcDb2dVertex
 10
1.910433070866141
 20
4.984251968503937
 30
0.0
  0
VERTEX
  5
2EB9
330
2EB6
100
AcDbEntity
  8
1
100
AcDbVertex
100
AcDb2dVertex
 10
1.913385826771653
 20
4.984251968503937
 30
0.0
  0
SEQEND
  5
2EBA
330
2EB6
100
AcDbEntity
  8
1
  0
POLYLINE
  5
2EBB
330
1F
100
AcDbEntity
  8
1
100
AcDb2dPolyline
 66
     1
 10
0.0
 20
0.0
 30
0.0
  0
VERTEX
  5
2EBC
330
2EBB
100
AcDbEntity
  8
1
100
AcDbVertex
100
AcDb2dVertex
 10
1.905511811023622
 20
5.622047244094487
 30
0.0
  0
VERTEX
  5
2EBD
330
2EBB
100
AcDbEntity
  8
1
100
AcDbVertex
100
AcDb2dVertex
 10
1.910433070866141
 20
5.622047244094487
 30
0.0
  0
VERTEX
  5
2EBE
330
2EBB
100
AcDbEntity
  8
1
100
AcDbVertex
100
AcDb2dVertex
 10
1.913385826771653
 20
5.622047244094487
 30
0.0
  0
SEQEND
  5
2EBF
330
2EBB
100
AcDbEntity
  8
1
  0
POLYLINE
  5
2EC0
330
1F
100
AcDbEntity
  8
1
100
AcDb2dPolyline
 66
     1
 10
0.0
 20
0.0
 30
0.0
  0
VERTEX
  5
2EC1
330
2EC0
100
AcDbEntity
  8
1
100
AcDbVertex
100
AcDb2dVertex
 10
1.921259842519685
 20
5.63779527559055
 30
0.0
  0
VERTEX
  5
2EC2
330
2EC0
100
AcDbEntity
  8
1
100
AcDbVertex
100
AcDb2dVertex
 10
1.921259842519685
 20
5.631889763779527
 30
0.0
  0
VERTEX
  5
2EC3
330
2EC0
100
AcDbEntity
  8
1
100
AcDbVertex
100
AcDb2dVertex
 10
1.921259842519685
 20
5.629921259842519
 30
0.0
  0
SEQEND
  5
2EC4
330
2EC0
100
AcDbEntity
  8
1
  0
POLYLINE
  5
2EC5
330
1F
100
AcDbEntity
  8
1
100
AcDb2dPolyline
 66
     1
 10
0.0
 20
0.0
 30
0.0
  0
VERTEX
  5
2EC6
330
2EC5
100
AcDbEntity
  8
1
100
AcDbVertex
100
AcDb2dVertex
 10
2.539370078740157
 20
5.63779527559055
 30
0.0
  0
VERTEX
  5
2EC7
330
2EC5
100
AcDbEntity
  8
1
100
AcDbVertex
100
AcDb2dVertex
 10
2.539370078740157
 20
5.631889763779527
 30
0.0
  0
VERTEX
  5
2EC8
330
2EC5
100
AcDbEntity
  8
1
100
AcDbVertex
100
AcDb2dVertex
 10
2.539370078740157
 20
5.629921259842519
 30
0.0
  0
SEQEND
  5
2EC9
330
2EC5
100
AcDbEntity
  8
1
  0
POLYLINE
  5
2ECA
330
1F
100
AcDbEntity
  8
1
100
AcDb2dPolyline
 66
     1
 10
0.0
 20
0.0
 30
0.0
  0
VERTEX
  5
2ECB
330
2ECA
100
AcDbEntity
  8
1
100
AcDbVertex
100
AcDb2dVertex
 10
2.55511811023622
 20
5.622047244094487
 30
0.0
  0
VERTEX
  5
2ECC
330
2ECA
100
AcDbEntity
  8
1
100
AcDbVertex
100
AcDb2dVertex
 10
2.549212598425196
 20
5.622047244094487
 30
0.0
  0
VERTEX
  5
2ECD
330
2ECA
100
AcDbEntity
  8
1
100
AcDbVertex
100
AcDb2dVertex
 10
2.547244094488188
 20
5.622047244094487
 30
0.0
  0
SEQEND
  5
2ECE
330
2ECA
100
AcDbEntity
  8
1
  0
POLYLINE
  5
2ECF
330
1F
100
AcDbEntity
  8
1
100
AcDb2dPolyline
 66
     1
 10
0.0
 20
0.0
 30
0.0
  0
VERTEX
  5
2ED0
330
2ECF
100
AcDbEntity
  8
1
100
AcDbVertex
100
AcDb2dVertex
 10
2.55511811023622
 20
4.984251968503937
 30
0.0
  0
VERTEX
  5
2ED1
330
2ECF
100
AcDbEntity
  8
1
100
AcDbVertex
100
AcDb2dVertex
 10
2.549212598425196
 20
4.984251968503937
 30
0.0
  0
VERTEX
  5
2ED2
330
2ECF
100
AcDbEntity
  8
1
100
AcDbVertex
100
AcDb2dVertex
 10
2.547244094488188
 20
4.984251968503937
 30
0.0
  0
SEQEND
  5
2ED3
330
2ECF
100
AcDbEntity
  8
1
  0
POLYLINE
  5
2ED4
330
1F
100
AcDbEntity
  8
1
100
AcDb2dPolyline
 66
     1
 10
0.0
 20
0.0
 30
0.0
  0
VERTEX
  5
2ED5
330
2ED4
100
AcDbEntity
  8
1
100
AcDbVertex
100
AcDb2dVertex
 10
2.55511811023622
 20
4.969488188976377
 30
0.0
  0
VERTEX
  5
2ED6
330
2ED4
100
AcDbEntity
  8
1
100
AcDbVertex
100
AcDb2dVertex
 10
2.549212598425196
 20
4.969488188976377
 30
0.0
  0
VERTEX
  5
2ED7
330
2ED4
100
AcDbEntity
  8
1
100
AcDbVertex
100
AcDb2dVertex
 10
2.547244094488188
 20
4.970472440944881
 30
0.0
  0
SEQEND
  5
2ED8
330
2ED4
100
AcDbEntity
  8
1
  0
POLYLINE
  5
2ED9
330
1F
100
AcDbEntity
  8
1
100
AcDb2dPolyline
 66
     1
 10
0.0
 20
0.0
 30
0.0
  0
VERTEX
  5
2EDA
330
2ED9
100
AcDbEntity
  8
1
100
AcDbVertex
100
AcDb2dVertex
 10
2.546259842519685
 20
4.904527559055117
 30
0.0
  0
VERTEX
  5
2EDB
330
2ED9
100
AcDbEntity
  8
1
100
AcDbVertex
100
AcDb2dVertex
 10
2.547244094488188
 20
4.888779527559054
 30
0.0
  0
VERTEX
  5
2EDC
330
2ED9
100
AcDbEntity
  8
1
100
AcDbVertex
100
AcDb2dVertex
 10
2.547244094488188
 20
4.871062992125984
 30
0.0
  0
SEQEND
  5
2EDD
330
2ED9
100
AcDbEntity
  8
1
  0
POLYLINE
  5
2EDE
330
1F
100
AcDbEntity
  8
1
100
AcDb2dPolyline
 66
     1
 10
0.0
 20
0.0
 30
0.0
  0
VERTEX
  5
2EDF
330
2EDE
100
AcDbEntity
  8
1
100
AcDbVertex
100
AcDb2dVertex
 10
2.547244094488188
 20
4.871062992125984
 30
0.0
  0
VERTEX
  5
2EE0
330
2EDE
100
AcDbEntity
  8
1
100
AcDbVertex
100
AcDb2dVertex
 10
2.547244094488188
 20
4.868110236220472
 30
0.0
  0
VERTEX
  5
2EE1
330
2EDE
100
AcDbEntity
  8
1
100
AcDbVertex
100
AcDb2dVertex
 10
2.5501968503937
 20
4.830708661417323
 30
0.0
  0
VERTEX
  5
2EE2
330
2EDE
100
AcDbEntity
  8
1
100
AcDbVertex
100
AcDb2dVertex
 10
2.554133858267716
 20
4.793307086614173
 30
0.0
  0
VERTEX
  5
2EE3
330
2EDE
100
AcDbEntity
  8
1
100
AcDbVertex
100
AcDb2dVertex
 10
2.554133858267716
 20
4.792322834645669
 30
0.0
  0
SEQEND
  5
2EE4
330
2EDE
100
AcDbEntity
  8
1
  0
POLYLINE
  5
2EE5
330
1F
100
AcDbEntity
  8
1
100
AcDb2dPolyline
 66
     1
 10
0.0
 20
0.0
 30
0.0
  0
VERTEX
  5
2EE6
330
2EE5
100
AcDbEntity
  8
1
100
AcDbVertex
100
AcDb2dVertex
 10
1.912401574803149
 20
4.871062992125984
 30
0.0
  0
VERTEX
  5
2EE7
330
2EE5
100
AcDbEntity
  8
1
100
AcDbVertex
100
AcDb2dVertex
 10
1.915354330708661
 20
4.871062992125984
 30
0.0
  0
VERTEX
  5
2EE8
330
2EE5
100
AcDbEntity
  8
1
100
AcDbVertex
100
AcDb2dVertex
 10
1.919291338582677
 20
4.87007874015748
 30
0.0
  0
SEQEND
  5
2EE9
330
2EE5
100
AcDbEntity
  8
1
  0
POLYLINE
  5
2EEA
330
1F
100
AcDbEntity
  8
1
100
AcDb2dPolyline
 66
     1
 10
0.0
 20
0.0
 30
0.0
  0
VERTEX
  5
2EEB
330
2EEA
100
AcDbEntity
  8
1
100
AcDbVertex
100
AcDb2dVertex
 10
1.913385826771653
 20
4.904527559055117
 30
0.0
  0
VERTEX
  5
2EEC
330
2EEA
100
AcDbEntity
  8
1
100
AcDbVertex
100
AcDb2dVertex
 10
1.915354330708661
 20
4.904527559055117
 30
0.0
  0
VERTEX
  5
2EED
330
2EEA
100
AcDbEntity
  8
1
100
AcDbVertex
100
AcDb2dVertex
 10
1.921259842519685
 20
4.903543307086613
 30
0.0
  0
SEQEND
  5
2EEE
330
2EEA
100
AcDbEntity
  8
1
  0
POLYLINE
  5
2EEF
330
1F
100
AcDbEntity
  8
1
100
AcDb2dPolyline
 66
     1
 10
0.0
 20
0.0
 30
0.0
  0
VERTEX
  5
2EF0
330
2EEF
100
AcDbEntity
  8
1
100
AcDbVertex
100
AcDb2dVertex
 10
1.914370078740157
 20
5.11023622047244
 30
0.0
  0
VERTEX
  5
2EF1
330
2EEF
100
AcDbEntity
  8
1
100
AcDbVertex
100
AcDb2dVertex
 10
1.916338582677165
 20
5.109251968503937
 30
0.0
  0
VERTEX
  5
2EF2
330
2EEF
100
AcDbEntity
  8
1
100
AcDbVertex
100
AcDb2dVertex
 10
1.922244094488188
 20
5.108267716535433
 30
0.0
  0
SEQEND
  5
2EF3
330
2EEF
100
AcDbEntity
  8
1
  0
LINE
  5
2EF4
330
1F
100
AcDbEntity
  8
1
100
AcDbLine
 10
1.922244094488188
 20
5.11515748031496
 30
0.0
 11
1.922244094488188
 21
5.108267716535433
 31
0.0
  0
LINE
  5
2EF5
330
1F
100
AcDbEntity
  8
1
100
AcDbLine
 10
2.537401574803149
 20
5.11515748031496
 30
0.0
 11
2.538385826771653
 21
5.108267716535433
 31
0.0
  0
POLYLINE
  5
2EF6
330
1F
100
AcDbEntity
  8
1
100
AcDb2dPolyline
 66
     1
 10
0.0
 20
0.0
 30
0.0
  0
VERTEX
  5
2EF7
330
2EF6
100
AcDbEntity
  8
1
100
AcDbVertex
100
AcDb2dVertex
 10
2.546259842519685
 20
5.11023622047244
 30
0.0
  0
VERTEX
  5
2EF8
330
2EF6
100
AcDbEntity
  8
1
100
AcDbVertex
100
AcDb2dVertex
 10
2.543307086614173
 20
5.109251968503937
 30
0.0
  0
VERTEX
  5
2EF9
330
2EF6
100
AcDbEntity
  8
1
100
AcDbVertex
100
AcDb2dVertex
 10
2.538385826771653
 20
5.108267716535433
 30
0.0
  0
SEQEND
  5
2EFA
330
2EF6
100
AcDbEntity
  8
1
  0
POLYLINE
  5
2EFB
330
1F
100
AcDbEntity
  8
1
100
AcDb2dPolyline
 66
     1
 10
0.0
 20
0.0
 30
0.0
  0
VERTEX
  5
2EFC
330
2EFB
100
AcDbEntity
  8
1
100
AcDbVertex
100
AcDb2dVertex
 10
2.546259842519685
 20
4.904527559055117
 30
0.0
  0
VERTEX
  5
2EFD
330
2EFB
100
AcDbEntity
  8
1
100
AcDbVertex
100
AcDb2dVertex
 10
2.544291338582677
 20
4.904527559055117
 30
0.0
  0
VERTEX
  5
2EFE
330
2EFB
100
AcDbEntity
  8
1
100
AcDbVertex
100
AcDb2dVertex
 10
2.538385826771653
 20
4.903543307086613
 30
0.0
  0
SEQEND
  5
2EFF
330
2EFB
100
AcDbEntity
  8
1
  0
POLYLINE
  5
2F00
330
1F
100
AcDbEntity
  8
1
100
AcDb2dPolyline
 66
     1
 10
0.0
 20
0.0
 30
0.0
  0
VERTEX
  5
2F01
330
2F00
100
AcDbEntity
  8
1
100
AcDbVertex
100
AcDb2dVertex
 10
2.547244094488188
 20
4.871062992125984
 30
0.0
  0
VERTEX
  5
2F02
330
2F00
100
AcDbEntity
  8
1
100
AcDbVertex
100
AcDb2dVertex
 10
2.544291338582677
 20
4.871062992125984
 30
0.0
  0
VERTEX
  5
2F03
330
2F00
100
AcDbEntity
  8
1
100
AcDbVertex
100
AcDb2dVertex
 10
2.540354330708661
 20
4.87007874015748
 30
0.0
  0
SEQEND
  5
2F04
330
2F00
100
AcDbEntity
  8
1
  0
POLYLINE
  5
2F05
330
1F
100
AcDbEntity
  8
1
100
AcDb2dPolyline
 66
     1
 10
0.0
 20
0.0
 30
0.0
  0
VERTEX
  5
2F06
330
2F05
100
AcDbEntity
  8
1
100
AcDbVertex
100
AcDb2dVertex
 10
1.931102362204724
 20
6.109251968503937
 30
0.0
  0
VERTEX
  5
2F07
330
2F05
100
AcDbEntity
  8
1
100
AcDbVertex
100
AcDb2dVertex
 10
1.936023622047244
 20
6.103346456692912
 30
0.0
  0
VERTEX
  5
2F08
330
2F05
100
AcDbEntity
  8
1
100
AcDbVertex
100
AcDb2dVertex
 10
1.938976377952755
 20
6.101377952755905
 30
0.0
  0
SEQEND
  5
2F09
330
2F05
100
AcDbEntity
  8
1
  0
POLYLINE
  5
2F0A
330
1F
100
AcDbEntity
  8
1
100
AcDb2dPolyline
 66
     1
 10
0.0
 20
0.0
 30
0.0
  0
VERTEX
  5
2F0B
330
2F0A
100
AcDbEntity
  8
1
100
AcDbVertex
100
AcDb2dVertex
 10
1.938976377952755
 20
5.705708661417323
 30
0.0
  0
VERTEX
  5
2F0C
330
2F0A
100
AcDbEntity
  8
1
100
AcDbVertex
100
AcDb2dVertex
 10
1.936023622047244
 20
5.703740157480314
 30
0.0
  0
VERTEX
  5
2F0D
330
2F0A
100
AcDbEntity
  8
1
100
AcDbVertex
100
AcDb2dVertex
 10
1.931102362204724
 20
5.697834645669291
 30
0.0
  0
SEQEND
  5
2F0E
330
2F0A
100
AcDbEntity
  8
1
  0
POLYLINE
  5
2F0F
330
1F
100
AcDbEntity
  8
1
100
AcDb2dPolyline
 66
     1
 10
0.0
 20
0.0
 30
0.0
  0
VERTEX
  5
2F10
330
2F0F
100
AcDbEntity
  8
1
100
AcDbVertex
100
AcDb2dVertex
 10
2.520669291338582
 20
5.705708661417323
 30
0.0
  0
VERTEX
  5
2F11
330
2F0F
100
AcDbEntity
  8
1
100
AcDbVertex
100
AcDb2dVertex
 10
2.523622047244094
 20
5.703740157480314
 30
0.0
  0
VERTEX
  5
2F12
330
2F0F
100
AcDbEntity
  8
1
100
AcDbVertex
100
AcDb2dVertex
 10
2.528543307086614
 20
5.697834645669291
 30
0.0
  0
SEQEND
  5
2F13
330
2F0F
100
AcDbEntity
  8
1
  0
POLYLINE
  5
2F14
330
1F
100
AcDbEntity
  8
1
100
AcDb2dPolyline
 66
     1
 10
0.0
 20
0.0
 30
0.0
  0
VERTEX
  5
2F15
330
2F14
100
AcDbEntity
  8
1
100
AcDbVertex
100
AcDb2dVertex
 10
2.528543307086614
 20
6.109251968503937
 30
0.0
  0
VERTEX
  5
2F16
330
2F14
100
AcDbEntity
  8
1
100
AcDbVertex
100
AcDb2dVertex
 10
2.523622047244094
 20
6.103346456692912
 30
0.0
  0
VERTEX
  5
2F17
330
2F14
100
AcDbEntity
  8
1
100
AcDbVertex
100
AcDb2dVertex
 10
2.520669291338582
 20
6.101377952755905
 30
0.0
  0
SEQEND
  5
2F18
330
2F14
100
AcDbEntity
  8
1
  0
LINE
  5
2F19
330
1F
100
AcDbEntity
  8
1
100
AcDbLine
 10
1.93503937007874
 20
5.124015748031496
 30
0.0
 11
1.93503937007874
 21
5.14763779527559
 31
0.0
  0
LINE
  5
2F1A
330
1F
100
AcDbEntity
  8
1
100
AcDbLine
 10
1.93503937007874
 20
5.124015748031496
 30
0.0
 11
1.937007874015747
 21
5.124015748031496
 31
0.0
  0
LINE
  5
2F1B
330
1F
100
AcDbEntity
  8
1
100
AcDbLine
 10
1.937007874015747
 20
5.124015748031496
 30
0.0
 11
1.937007874015747
 21
5.14763779527559
 31
0.0
  0
LINE
  5
2F1C
330
1F
100
AcDbEntity
  8
1
100
AcDbLine
 10
1.93503937007874
 20
5.14763779527559
 30
0.0
 11
1.937007874015747
 21
5.14763779527559
 31
0.0
  0
LINE
  5
2F1D
330
1F
100
AcDbEntity
  8
1
100
AcDbLine
 10
1.942913385826771
 20
5.155511811023622
 30
0.0
 11
2.51771653543307
 21
5.155511811023622
 31
0.0
  0
LINE
  5
2F1E
330
1F
100
AcDbEntity
  8
1
100
AcDbLine
 10
1.942913385826771
 20
5.155511811023622
 30
0.0
 11
1.942913385826771
 21
5.153543307086613
 31
0.0
  0
LINE
  5
2F1F
330
1F
100
AcDbEntity
  8
1
100
AcDbLine
 10
1.942913385826771
 20
5.153543307086613
 30
0.0
 11
2.51771653543307
 21
5.153543307086613
 31
0.0
  0
LINE
  5
2F20
330
1F
100
AcDbEntity
  8
1
100
AcDbLine
 10
2.51771653543307
 20
5.155511811023622
 30
0.0
 11
2.51771653543307
 21
5.153543307086613
 31
0.0
  0
LINE
  5
2F21
330
1F
100
AcDbEntity
  8
1
100
AcDbLine
 10
2.525590551181102
 20
5.124015748031496
 30
0.0
 11
2.525590551181102
 21
5.14763779527559
 31
0.0
  0
LINE
  5
2F22
330
1F
100
AcDbEntity
  8
1
100
AcDbLine
 10
2.525590551181102
 20
5.14763779527559
 30
0.0
 11
2.523622047244094
 21
5.14763779527559
 31
0.0
  0
LINE
  5
2F23
330
1F
100
AcDbEntity
  8
1
100
AcDbLine
 10
2.523622047244094
 20
5.124015748031496
 30
0.0
 11
2.523622047244094
 21
5.14763779527559
 31
0.0
  0
LINE
  5
2F24
330
1F
100
AcDbEntity
  8
1
100
AcDbLine
 10
2.525590551181102
 20
5.124015748031496
 30
0.0
 11
2.523622047244094
 21
5.124015748031496
 31
0.0
  0
LINE
  5
2F25
330
1F
100
AcDbEntity
  8
1
100
AcDbLine
 10
1.942913385826771
 20
5.116141732283464
 30
0.0
 11
2.51771653543307
 21
5.116141732283464
 31
0.0
  0
LINE
  5
2F26
330
1F
100
AcDbEntity
  8
1
100
AcDbLine
 10
2.51771653543307
 20
5.116141732283464
 30
0.0
 11
2.51771653543307
 21
5.118110236220472
 31
0.0
  0
LINE
  5
2F27
330
1F
100
AcDbEntity
  8
1
100
AcDbLine
 10
1.942913385826771
 20
5.118110236220472
 30
0.0
 11
2.51771653543307
 21
5.118110236220472
 31
0.0
  0
LINE
  5
2F28
330
1F
100
AcDbEntity
  8
1
100
AcDbLine
 10
1.942913385826771
 20
5.116141732283464
 30
0.0
 11
1.942913385826771
 21
5.118110236220472
 31
0.0
  0
POLYLINE
  5
2F29
330
1F
100
AcDbEntity
  8
1
100
AcDb2dPolyline
 66
     1
 10
0.0
 20
0.0
 30
0.0
  0
VERTEX
  5
2F2A
330
2F29
100
AcDbEntity
  8
1
100
AcDbVertex
100
AcDb2dVertex
 10
1.937007874015747
 20
5.124015748031496
 30
0.0
  0
VERTEX
  5
2F2B
330
2F29
100
AcDbEntity
  8
1
100
AcDbVertex
100
AcDb2dVertex
 10
1.937992125984251
 20
5.12007874015748
 30
0.0
  0
VERTEX
  5
2F2C
330
2F29
100
AcDbEntity
  8
1
100
AcDbVertex
100
AcDb2dVertex
 10
1.942913385826771
 20
5.118110236220472
 30
0.0
  0
SEQEND
  5
2F2D
330
2F29
100
AcDbEntity
  8
1
  0
POLYLINE
  5
2F2E
330
1F
100
AcDbEntity
  8
1
100
AcDb2dPolyline
 66
     1
 10
0.0
 20
0.0
 30
0.0
  0
VERTEX
  5
2F2F
330
2F2E
100
AcDbEntity
  8
1
100
AcDbVertex
100
AcDb2dVertex
 10
2.51771653543307
 20
5.118110236220472
 30
0.0
  0
VERTEX
  5
2F30
330
2F2E
100
AcDbEntity
  8
1
100
AcDbVertex
100
AcDb2dVertex
 10
2.521653543307086
 20
5.12007874015748
 30
0.0
  0
VERTEX
  5
2F31
330
2F2E
100
AcDbEntity
  8
1
100
AcDbVertex
100
AcDb2dVertex
 10
2.523622047244094
 20
5.124015748031496
 30
0.0
  0
SEQEND
  5
2F32
330
2F2E
100
AcDbEntity
  8
1
  0
POLYLINE
  5
2F33
330
1F
100
AcDbEntity
  8
1
100
AcDb2dPolyline
 66
     1
 10
0.0
 20
0.0
 30
0.0
  0
VERTEX
  5
2F34
330
2F33
100
AcDbEntity
  8
1
100
AcDbVertex
100
AcDb2dVertex
 10
2.523622047244094
 20
5.14763779527559
 30
0.0
  0
VERTEX
  5
2F35
330
2F33
100
AcDbEntity
  8
1
100
AcDbVertex
100
AcDb2dVertex
 10
2.521653543307086
 20
5.151574803149606
 30
0.0
  0
VERTEX
  5
2F36
330
2F33
100
AcDbEntity
  8
1
100
AcDbVertex
100
AcDb2dVertex
 10
2.51771653543307
 20
5.153543307086613
 30
0.0
  0
SEQEND
  5
2F37
330
2F33
100
AcDbEntity
  8
1
  0
POLYLINE
  5
2F38
330
1F
100
AcDbEntity
  8
1
100
AcDb2dPolyline
 66
     1
 10
0.0
 20
0.0
 30
0.0
  0
VERTEX
  5
2F39
330
2F38
100
AcDbEntity
  8
1
100
AcDbVertex
100
AcDb2dVertex
 10
1.942913385826771
 20
5.153543307086613
 30
0.0
  0
VERTEX
  5
2F3A
330
2F38
100
AcDbEntity
  8
1
100
AcDbVertex
100
AcDb2dVertex
 10
1.937992125984251
 20
5.151574803149606
 30
0.0
  0
VERTEX
  5
2F3B
330
2F38
100
AcDbEntity
  8
1
100
AcDbVertex
100
AcDb2dVertex
 10
1.937007874015747
 20
5.14763779527559
 30
0.0
  0
SEQEND
  5
2F3C
330
2F38
100
AcDbEntity
  8
1
  0
POLYLINE
  5
2F3D
330
1F
100
AcDbEntity
  8
1
100
AcDb2dPolyline
 66
     1
 10
0.0
 20
0.0
 30
0.0
  0
VERTEX
  5
2F3E
330
2F3D
100
AcDbEntity
  8
1
100
AcDbVertex
100
AcDb2dVertex
 10
1.93503937007874
 20
5.124015748031496
 30
0.0
  0
VERTEX
  5
2F3F
330
2F3D
100
AcDbEntity
  8
1
100
AcDbVertex
100
AcDb2dVertex
 10
1.937007874015747
 20
5.118110236220472
 30
0.0
  0
VERTEX
  5
2F40
330
2F3D
100
AcDbEntity
  8
1
100
AcDbVertex
100
AcDb2dVertex
 10
1.942913385826771
 20
5.116141732283464
 30
0.0
  0
SEQEND
  5
2F41
330
2F3D
100
AcDbEntity
  8
1
  0
POLYLINE
  5
2F42
330
1F
100
AcDbEntity
  8
1
100
AcDb2dPolyline
 66
     1
 10
0.0
 20
0.0
 30
0.0
  0
VERTEX
  5
2F43
330
2F42
100
AcDbEntity
  8
1
100
AcDbVertex
100
AcDb2dVertex
 10
2.51771653543307
 20
5.116141732283464
 30
0.0
  0
VERTEX
  5
2F44
330
2F42
100
AcDbEntity
  8
1
100
AcDbVertex
100
AcDb2dVertex
 10
2.52263779527559
 20
5.118110236220472
 30
0.0
  0
VERTEX
  5
2F45
330
2F42
100
AcDbEntity
  8
1
100
AcDbVertex
100
AcDb2dVertex
 10
2.525590551181102
 20
5.124015748031496
 30
0.0
  0
SEQEND
  5
2F46
330
2F42
100
AcDbEntity
  8
1
  0
POLYLINE
  5
2F47
330
1F
100
AcDbEntity
  8
1
100
AcDb2dPolyline
 66
     1
 10
0.0
 20
0.0
 30
0.0
  0
VERTEX
  5
2F48
330
2F47
100
AcDbEntity
  8
1
100
AcDbVertex
100
AcDb2dVertex
 10
2.525590551181102
 20
5.14763779527559
 30
0.0
  0
VERTEX
  5
2F49
330
2F47
100
AcDbEntity
  8
1
100
AcDbVertex
100
AcDb2dVertex
 10
2.52263779527559
 20
5.153543307086613
 30
0.0
  0
VERTEX
  5
2F4A
330
2F47
100
AcDbEntity
  8
1
100
AcDbVertex
100
AcDb2dVertex
 10
2.51771653543307
 20
5.155511811023622
 30
0.0
  0
SEQEND
  5
2F4B
330
2F47
100
AcDbEntity
  8
1
  0
POLYLINE
  5
2F4C
330
1F
100
AcDbEntity
  8
1
100
AcDb2dPolyline
 66
     1
 10
0.0
 20
0.0
 30
0.0
  0
VERTEX
  5
2F4D
330
2F4C
100
AcDbEntity
  8
1
100
AcDbVertex
100
AcDb2dVertex
 10
1.942913385826771
 20
5.155511811023622
 30
0.0
  0
VERTEX
  5
2F4E
330
2F4C
100
AcDbEntity
  8
1
100
AcDbVertex
100
AcDb2dVertex
 10
1.937007874015747
 20
5.153543307086613
 30
0.0
  0
VERTEX
  5
2F4F
330
2F4C
100
AcDbEntity
  8
1
100
AcDbVertex
100
AcDb2dVertex
 10
1.93503937007874
 20
5.14763779527559
 30
0.0
  0
SEQEND
  5
2F50
330
2F4C
100
AcDbEntity
  8
1
  0
LINE
  5
2F51
330
1F
100
AcDbEntity
  8
1
100
AcDbLine
 10
2.537401574803149
 20
5.116141732283464
 30
0.0
 11
2.51771653543307
 21
5.116141732283464
 31
0.0
  0
LINE
  5
2F52
330
1F
100
AcDbEntity
  8
1
100
AcDbLine
 10
1.942913385826771
 20
5.116141732283464
 30
0.0
 11
1.923228346456692
 21
5.116141732283464
 31
0.0
  0
LINE
  5
2F53
330
1F
100
AcDbEntity
  8
1
100
AcDbLine
 10
2.520669291338582
 20
6.097440944881889
 30
0.0
 11
1.938976377952755
 21
6.097440944881889
 31
0.0
  0
LINE
  5
2F54
330
1F
100
AcDbEntity
  8
1
100
AcDbLine
 10
2.475393700787401
 20
5.863188976377952
 30
0.0
 11
2.520669291338582
 21
5.863188976377952
 31
0.0
  0
POLYLINE
  5
2F55
330
1F
100
AcDbEntity
  8
1
100
AcDb2dPolyline
 66
     1
 10
0.0
 20
0.0
 30
0.0
  0
VERTEX
  5
2F56
330
2F55
100
AcDbEntity
  8
1
100
AcDbVertex
100
AcDb2dVertex
 10
2.475393700787401
 20
5.942913385826771
 30
0.0
  0
VERTEX
  5
2F57
330
2F55
100
AcDbEntity
  8
1
100
AcDbVertex
100
AcDb2dVertex
 10
2.45767716535433
 20
5.938976377952755
 30
0.0
  0
VERTEX
  5
2F58
330
2F55
100
AcDbEntity
  8
1
100
AcDbVertex
100
AcDb2dVertex
 10
2.443897637795275
 20
5.928149606299212
 30
0.0
  0
VERTEX
  5
2F59
330
2F55
100
AcDbEntity
  8
1
100
AcDbVertex
100
AcDb2dVertex
 10
2.436023622047243
 20
5.912401574803149
 30
0.0
  0
VERTEX
  5
2F5A
330
2F55
100
AcDbEntity
  8
1
100
AcDbVertex
100
AcDb2dVertex
 10
2.436023622047243
 20
5.894685039370078
 30
0.0
  0
VERTEX
  5
2F5B
330
2F55
100
AcDbEntity
  8
1
100
AcDbVertex
100
AcDb2dVertex
 10
2.443897637795275
 20
5.877952755905512
 30
0.0
  0
VERTEX
  5
2F5C
330
2F55
100
AcDbEntity
  8
1
100
AcDbVertex
100
AcDb2dVertex
 10
2.45767716535433
 20
5.867125984251968
 30
0.0
  0
VERTEX
  5
2F5D
330
2F55
100
AcDbEntity
  8
1
100
AcDbVertex
100
AcDb2dVertex
 10
2.475393700787401
 20
5.863188976377952
 30
0.0
  0
SEQEND
  5
2F5E
330
2F55
100
AcDbEntity
  8
1
  0
LINE
  5
2F5F
330
1F
100
AcDbEntity
  8
1
100
AcDbLine
 10
2.520669291338582
 20
5.942913385826771
 30
0.0
 11
2.475393700787401
 21
5.942913385826771
 31
0.0
  0
LINE
  5
2F60
330
1F
100
AcDbEntity
  8
1
100
AcDbLine
 10
1.938976377952755
 20
5.708661417322834
 30
0.0
 11
2.520669291338582
 21
5.708661417322834
 31
0.0
  0
LINE
  5
2F61
330
1F
100
AcDbEntity
  8
1
100
AcDbLine
 10
4.51771653543307
 20
6.308070866141732
 30
0.0
 11
4.604330708661417
 21
6.311023622047244
 31
0.0
  0
LINE
  5
2F62
330
1F
100
AcDbEntity
  8
1
100
AcDbLine
 10
4.604330708661417
 20
4.994094488188975
 30
0.0
 11
4.51771653543307
 21
4.996062992125984
 31
0.0
  0
LINE
  5
2F63
330
1F
100
AcDbEntity
  8
1
100
AcDbLine
 10
4.681102362204724
 20
6.303149606299212
 30
0.0
 11
4.681102362204724
 21
5.000984251968503
 31
0.0
  0
POLYLINE
  5
2F64
330
1F
100
AcDbEntity
  8
1
100
AcDb2dPolyline
 66
     1
 10
0.0
 20
0.0
 30
0.0
  0
VERTEX
  5
2F65
330
2F64
100
AcDbEntity
  8
1
100
AcDbVertex
100
AcDb2dVertex
 10
4.681102362204724
 20
5.000984251968503
 30
0.0
  0
VERTEX
  5
2F66
330
2F64
100
AcDbEntity
  8
1
100
AcDbVertex
100
AcDb2dVertex
 10
4.681102362204724
 20
4.996062992125984
 30
0.0
  0
VERTEX
  5
2F67
330
2F64
100
AcDbEntity
  8
1
100
AcDbVertex
100
AcDb2dVertex
 10
4.681102362204724
 20
4.993110236220472
 30
0.0
  0
SEQEND
  5
2F68
330
2F64
100
AcDbEntity
  8
1
  0
POLYLINE
  5
2F69
330
1F
100
AcDbEntity
  8
1
100
AcDb2dPolyline
 66
     1
 10
0.0
 20
0.0
 30
0.0
  0
VERTEX
  5
2F6A
330
2F69
100
AcDbEntity
  8
1
100
AcDbVertex
100
AcDb2dVertex
 10
4.681102362204724
 20
6.311023622047244
 30
0.0
  0
VERTEX
  5
2F6B
330
2F69
100
AcDbEntity
  8
1
100
AcDbVertex
100
AcDb2dVertex
 10
4.681102362204724
 20
6.309055118110236
 30
0.0
  0
VERTEX
  5
2F6C
330
2F69
100
AcDbEntity
  8
1
100
AcDbVertex
100
AcDb2dVertex
 10
4.681102362204724
 20
6.303149606299212
 30
0.0
  0
SEQEND
  5
2F6D
330
2F69
100
AcDbEntity
  8
1
  0
POLYLINE
  5
2F6E
330
1F
100
AcDbEntity
  8
1
100
AcDb2dPolyline
 66
     1
 10
0.0
 20
0.0
 30
0.0
  0
VERTEX
  5
2F6F
330
2F6E
100
AcDbEntity
  8
1
100
AcDbVertex
100
AcDb2dVertex
 10
4.403543307086613
 20
6.306102362204724
 30
0.0
  0
VERTEX
  5
2F70
330
2F6E
100
AcDbEntity
  8
1
100
AcDbVertex
100
AcDb2dVertex
 10
4.406496062992125
 20
6.306102362204724
 30
0.0
  0
VERTEX
  5
2F71
330
2F6E
100
AcDbEntity
  8
1
100
AcDbVertex
100
AcDb2dVertex
 10
4.413385826771653
 20
6.307086614173228
 30
0.0
  0
SEQEND
  5
2F72
330
2F6E
100
AcDbEntity
  8
1
  0
LINE
  5
2F73
330
1F
100
AcDbEntity
  8
1
100
AcDbLine
 10
4.413385826771653
 20
6.307086614173228
 30
0.0
 11
4.681102362204724
 21
6.311023622047244
 31
0.0
  0
LINE
  5
2F74
330
1F
100
AcDbEntity
  8
1
100
AcDbLine
 10
4.681102362204724
 20
4.993110236220472
 30
0.0
 11
4.413385826771653
 21
4.998031496062991
 31
0.0
  0
POLYLINE
  5
2F75
330
1F
100
AcDbEntity
  8
1
100
AcDb2dPolyline
 66
     1
 10
0.0
 20
0.0
 30
0.0
  0
VERTEX
  5
2F76
330
2F75
100
AcDbEntity
  8
1
100
AcDbVertex
100
AcDb2dVertex
 10
4.413385826771653
 20
4.998031496062991
 30
0.0
  0
VERTEX
  5
2F77
330
2F75
100
AcDbEntity
  8
1
100
AcDbVertex
100
AcDb2dVertex
 10
4.406496062992125
 20
4.998031496062991
 30
0.0
  0
VERTEX
  5
2F78
330
2F75
100
AcDbEntity
  8
1
100
AcDbVertex
100
AcDb2dVertex
 10
4.403543307086613
 20
4.998031496062991
 30
0.0
  0
SEQEND
  5
2F79
330
2F75
100
AcDbEntity
  8
1
  0
LINE
  5
2F7A
330
1F
100
AcDbEntity
  8
1
100
AcDbLine
 10
4.411417322834645
 20
5.113188976377952
 30
0.0
 11
4.411417322834645
 21
5.005905511811023
 31
0.0
  0
LINE
  5
2F7B
330
1F
100
AcDbEntity
  8
1
100
AcDbLine
 10
4.411417322834645
 20
6.298228346456692
 30
0.0
 11
4.411417322834645
 21
6.191929133858267
 31
0.0
  0
POLYLINE
  5
2F7C
330
1F
100
AcDbEntity
  8
1
100
AcDb2dPolyline
 66
     1
 10
0.0
 20
0.0
 30
0.0
  0
VERTEX
  5
2F7D
330
2F7C
100
AcDbEntity
  8
1
100
AcDbVertex
100
AcDb2dVertex
 10
4.411417322834645
 20
6.176181102362204
 30
0.0
  0
VERTEX
  5
2F7E
330
2F7C
100
AcDbEntity
  8
1
100
AcDbVertex
100
AcDb2dVertex
 10
4.411417322834645
 20
6.18011811023622
 30
0.0
  0
VERTEX
  5
2F7F
330
2F7C
100
AcDbEntity
  8
1
100
AcDbVertex
100
AcDb2dVertex
 10
4.411417322834645
 20
6.191929133858267
 30
0.0
  0
SEQEND
  5
2F80
330
2F7C
100
AcDbEntity
  8
1
  0
LINE
  5
2F81
330
1F
100
AcDbEntity
  8
1
100
AcDbLine
 10
4.411417322834645
 20
6.176181102362204
 30
0.0
 11
4.411417322834645
 21
5.955708661417323
 31
0.0
  0
POLYLINE
  5
2F82
330
1F
100
AcDbEntity
  8
1
100
AcDb2dPolyline
 66
     1
 10
0.0
 20
0.0
 30
0.0
  0
VERTEX
  5
2F83
330
2F82
100
AcDbEntity
  8
1
100
AcDbVertex
100
AcDb2dVertex
 10
4.411417322834645
 20
5.93996062992126
 30
0.0
  0
VERTEX
  5
2F84
330
2F82
100
AcDbEntity
  8
1
100
AcDbVertex
100
AcDb2dVertex
 10
4.411417322834645
 20
5.950787401574802
 30
0.0
  0
VERTEX
  5
2F85
330
2F82
100
AcDbEntity
  8
1
100
AcDbVertex
100
AcDb2dVertex
 10
4.411417322834645
 20
5.955708661417323
 30
0.0
  0
SEQEND
  5
2F86
330
2F82
100
AcDbEntity
  8
1
  0
LINE
  5
2F87
330
1F
100
AcDbEntity
  8
1
100
AcDbLine
 10
4.411417322834645
 20
5.93996062992126
 30
0.0
 11
4.411417322834645
 21
5.36515748031496
 31
0.0
  0
POLYLINE
  5
2F88
330
1F
100
AcDbEntity
  8
1
100
AcDb2dPolyline
 66
     1
 10
0.0
 20
0.0
 30
0.0
  0
VERTEX
  5
2F89
330
2F88
100
AcDbEntity
  8
1
100
AcDbVertex
100
AcDb2dVertex
 10
4.411417322834645
 20
5.349409448818897
 30
0.0
  0
VERTEX
  5
2F8A
330
2F88
100
AcDbEntity
  8
1
100
AcDbVertex
100
AcDb2dVertex
 10
4.411417322834645
 20
5.353346456692912
 30
0.0
  0
VERTEX
  5
2F8B
330
2F88
100
AcDbEntity
  8
1
100
AcDbVertex
100
AcDb2dVertex
 10
4.411417322834645
 20
5.36515748031496
 30
0.0
  0
SEQEND
  5
2F8C
330
2F88
100
AcDbEntity
  8
1
  0
LINE
  5
2F8D
330
1F
100
AcDbEntity
  8
1
100
AcDbLine
 10
4.411417322834645
 20
5.349409448818897
 30
0.0
 11
4.411417322834645
 21
5.128937007874015
 31
0.0
  0
POLYLINE
  5
2F8E
330
1F
100
AcDbEntity
  8
1
100
AcDb2dPolyline
 66
     1
 10
0.0
 20
0.0
 30
0.0
  0
VERTEX
  5
2F8F
330
2F8E
100
AcDbEntity
  8
1
100
AcDbVertex
100
AcDb2dVertex
 10
4.411417322834645
 20
5.113188976377952
 30
0.0
  0
VERTEX
  5
2F90
330
2F8E
100
AcDbEntity
  8
1
100
AcDbVertex
100
AcDb2dVertex
 10
4.411417322834645
 20
5.124015748031496
 30
0.0
  0
VERTEX
  5
2F91
330
2F8E
100
AcDbEntity
  8
1
100
AcDbVertex
100
AcDb2dVertex
 10
4.411417322834645
 20
5.128937007874015
 30
0.0
  0
SEQEND
  5
2F92
330
2F8E
100
AcDbEntity
  8
1
  0
LINE
  5
2F93
330
1F
100
AcDbEntity
  8
1
100
AcDbLine
 10
4.413385826771653
 20
6.299212598425196
 30
0.0
 11
4.413385826771653
 21
5.005905511811023
 31
0.0
  0
LINE
  5
2F94
330
1F
100
AcDbEntity
  8
1
100
AcDbLine
 10
4.413385826771653
 20
5.005905511811023
 30
0.0
 11
4.681102362204724
 21
5.000984251968503
 31
0.0
  0
LINE
  5
2F95
330
1F
100
AcDbEntity
  8
1
100
AcDbLine
 10
4.681102362204724
 20
6.303149606299212
 30
0.0
 11
4.413385826771653
 21
6.299212598425196
 31
0.0
  0
LINE
  5
2F96
330
1F
100
AcDbEntity
  8
1
100
AcDbLine
 10
4.411417322834645
 20
5.005905511811023
 30
0.0
 11
4.413385826771653
 21
5.005905511811023
 31
0.0
  0
LINE
  5
2F97
330
1F
100
AcDbEntity
  8
1
100
AcDbLine
 10
4.413385826771653
 20
6.299212598425196
 30
0.0
 11
4.411417322834645
 21
6.298228346456692
 31
0.0
  0
POLYLINE
  5
2F98
330
1F
100
AcDbEntity
  8
1
100
AcDb2dPolyline
 66
     1
 10
0.0
 20
0.0
 30
0.0
  0
VERTEX
  5
2F99
330
2F98
100
AcDbEntity
  8
1
100
AcDbVertex
100
AcDb2dVertex
 10
4.413385826771653
 20
6.299212598425196
 30
0.0
  0
VERTEX
  5
2F9A
330
2F98
100
AcDbEntity
  8
1
100
AcDbVertex
100
AcDb2dVertex
 10
4.413385826771653
 20
6.304133858267716
 30
0.0
  0
VERTEX
  5
2F9B
330
2F98
100
AcDbEntity
  8
1
100
AcDbVertex
100
AcDb2dVertex
 10
4.413385826771653
 20
6.307086614173228
 30
0.0
  0
SEQEND
  5
2F9C
330
2F98
100
AcDbEntity
  8
1
  0
POLYLINE
  5
2F9D
330
1F
100
AcDbEntity
  8
1
100
AcDb2dPolyline
 66
     1
 10
0.0
 20
0.0
 30
0.0
  0
VERTEX
  5
2F9E
330
2F9D
100
AcDbEntity
  8
1
100
AcDbVertex
100
AcDb2dVertex
 10
4.411417322834645
 20
6.298228346456692
 30
0.0
  0
VERTEX
  5
2F9F
330
2F9D
100
AcDbEntity
  8
1
100
AcDbVertex
100
AcDb2dVertex
 10
4.409448818897637
 20
6.304133858267716
 30
0.0
  0
VERTEX
  5
2FA0
330
2F9D
100
AcDbEntity
  8
1
100
AcDbVertex
100
AcDb2dVertex
 10
4.403543307086613
 20
6.306102362204724
 30
0.0
  0
SEQEND
  5
2FA1
330
2F9D
100
AcDbEntity
  8
1
  0
POLYLINE
  5
2FA2
330
1F
100
AcDbEntity
  8
1
100
AcDb2dPolyline
 66
     1
 10
0.0
 20
0.0
 30
0.0
  0
VERTEX
  5
2FA3
330
2FA2
100
AcDbEntity
  8
1
100
AcDbVertex
100
AcDb2dVertex
 10
4.411417322834645
 20
6.298228346456692
 30
0.0
  0
VERTEX
  5
2FA4
330
2FA2
100
AcDbEntity
  8
1
100
AcDbVertex
100
AcDb2dVertex
 10
4.409448818897637
 20
6.298228346456692
 30
0.0
  0
VERTEX
  5
2FA5
330
2FA2
100
AcDbEntity
  8
1
100
AcDbVertex
100
AcDb2dVertex
 10
4.403543307086613
 20
6.298228346456692
 30
0.0
  0
SEQEND
  5
2FA6
330
2FA2
100
AcDbEntity
  8
1
  0
POLYLINE
  5
2FA7
330
1F
100
AcDbEntity
  8
1
100
AcDb2dPolyline
 66
     1
 10
0.0
 20
0.0
 30
0.0
  0
VERTEX
  5
2FA8
330
2FA7
100
AcDbEntity
  8
1
100
AcDbVertex
100
AcDb2dVertex
 10
4.411417322834645
 20
6.191929133858267
 30
0.0
  0
VERTEX
  5
2FA9
330
2FA7
100
AcDbEntity
  8
1
100
AcDbVertex
100
AcDb2dVertex
 10
4.409448818897637
 20
6.191929133858267
 30
0.0
  0
VERTEX
  5
2FAA
330
2FA7
100
AcDbEntity
  8
1
100
AcDbVertex
100
AcDb2dVertex
 10
4.403543307086613
 20
6.191929133858267
 30
0.0
  0
SEQEND
  5
2FAB
330
2FA7
100
AcDbEntity
  8
1
  0
POLYLINE
  5
2FAC
330
1F
100
AcDbEntity
  8
1
100
AcDb2dPolyline
 66
     1
 10
0.0
 20
0.0
 30
0.0
  0
VERTEX
  5
2FAD
330
2FAC
100
AcDbEntity
  8
1
100
AcDbVertex
100
AcDb2dVertex
 10
4.411417322834645
 20
6.176181102362204
 30
0.0
  0
VERTEX
  5
2FAE
330
2FAC
100
AcDbEntity
  8
1
100
AcDbVertex
100
AcDb2dVertex
 10
4.409448818897637
 20
6.181102362204724
 30
0.0
  0
VERTEX
  5
2FAF
330
2FAC
100
AcDbEntity
  8
1
100
AcDbVertex
100
AcDb2dVertex
 10
4.403543307086613
 20
6.184055118110236
 30
0.0
  0
SEQEND
  5
2FB0
330
2FAC
100
AcDbEntity
  8
1
  0
POLYLINE
  5
2FB1
330
1F
100
AcDbEntity
  8
1
100
AcDb2dPolyline
 66
     1
 10
0.0
 20
0.0
 30
0.0
  0
VERTEX
  5
2FB2
330
2FB1
100
AcDbEntity
  8
1
100
AcDbVertex
100
AcDb2dVertex
 10
4.411417322834645
 20
6.176181102362204
 30
0.0
  0
VERTEX
  5
2FB3
330
2FB1
100
AcDbEntity
  8
1
100
AcDbVertex
100
AcDb2dVertex
 10
4.409448818897637
 20
6.176181102362204
 30
0.0
  0
VERTEX
  5
2FB4
330
2FB1
100
AcDbEntity
  8
1
100
AcDbVertex
100
AcDb2dVertex
 10
4.403543307086613
 20
6.176181102362204
 30
0.0
  0
SEQEND
  5
2FB5
330
2FB1
100
AcDbEntity
  8
1
  0
POLYLINE
  5
2FB6
330
1F
100
AcDbEntity
  8
1
100
AcDb2dPolyline
 66
     1
 10
0.0
 20
0.0
 30
0.0
  0
VERTEX
  5
2FB7
330
2FB6
100
AcDbEntity
  8
1
100
AcDbVertex
100
AcDb2dVertex
 10
4.411417322834645
 20
5.955708661417323
 30
0.0
  0
VERTEX
  5
2FB8
330
2FB6
100
AcDbEntity
  8
1
100
AcDbVertex
100
AcDb2dVertex
 10
4.409448818897637
 20
5.955708661417323
 30
0.0
  0
VERTEX
  5
2FB9
330
2FB6
100
AcDbEntity
  8
1
100
AcDbVertex
100
AcDb2dVertex
 10
4.403543307086613
 20
5.955708661417323
 30
0.0
  0
SEQEND
  5
2FBA
330
2FB6
100
AcDbEntity
  8
1
  0
POLYLINE
  5
2FBB
330
1F
100
AcDbEntity
  8
1
100
AcDb2dPolyline
 66
     1
 10
0.0
 20
0.0
 30
0.0
  0
VERTEX
  5
2FBC
330
2FBB
100
AcDbEntity
  8
1
100
AcDbVertex
100
AcDb2dVertex
 10
4.411417322834645
 20
5.955708661417323
 30
0.0
  0
VERTEX
  5
2FBD
330
2FBB
100
AcDbEntity
  8
1
100
AcDbVertex
100
AcDb2dVertex
 10
4.409448818897637
 20
5.949803149606299
 30
0.0
  0
VERTEX
  5
2FBE
330
2FBB
100
AcDbEntity
  8
1
100
AcDbVertex
100
AcDb2dVertex
 10
4.403543307086613
 20
5.947834645669291
 30
0.0
  0
SEQEND
  5
2FBF
330
2FBB
100
AcDbEntity
  8
1
  0
POLYLINE
  5
2FC0
330
1F
100
AcDbEntity
  8
1
100
AcDb2dPolyline
 66
     1
 10
0.0
 20
0.0
 30
0.0
  0
VERTEX
  5
2FC1
330
2FC0
100
AcDbEntity
  8
1
100
AcDbVertex
100
AcDb2dVertex
 10
4.411417322834645
 20
5.93996062992126
 30
0.0
  0
VERTEX
  5
2FC2
330
2FC0
100
AcDbEntity
  8
1
100
AcDbVertex
100
AcDb2dVertex
 10
4.409448818897637
 20
5.93996062992126
 30
0.0
  0
VERTEX
  5
2FC3
330
2FC0
100
AcDbEntity
  8
1
100
AcDbVertex
100
AcDb2dVertex
 10
4.403543307086613
 20
5.93996062992126
 30
0.0
  0
SEQEND
  5
2FC4
330
2FC0
100
AcDbEntity
  8
1
  0
POLYLINE
  5
2FC5
330
1F
100
AcDbEntity
  8
1
100
AcDb2dPolyline
 66
     1
 10
0.0
 20
0.0
 30
0.0
  0
VERTEX
  5
2FC6
330
2FC5
100
AcDbEntity
  8
1
100
AcDbVertex
100
AcDb2dVertex
 10
4.411417322834645
 20
5.36515748031496
 30
0.0
  0
VERTEX
  5
2FC7
330
2FC5
100
AcDbEntity
  8
1
100
AcDbVertex
100
AcDb2dVertex
 10
4.409448818897637
 20
5.36515748031496
 30
0.0
  0
VERTEX
  5
2FC8
330
2FC5
100
AcDbEntity
  8
1
100
AcDbVertex
100
AcDb2dVertex
 10
4.403543307086613
 20
5.36515748031496
 30
0.0
  0
SEQEND
  5
2FC9
330
2FC5
100
AcDbEntity
  8
1
  0
POLYLINE
  5
2FCA
330
1F
100
AcDbEntity
  8
1
100
AcDb2dPolyline
 66
     1
 10
0.0
 20
0.0
 30
0.0
  0
VERTEX
  5
2FCB
330
2FCA
100
AcDbEntity
  8
1
100
AcDbVertex
100
AcDb2dVertex
 10
4.411417322834645
 20
5.349409448818897
 30
0.0
  0
VERTEX
  5
2FCC
330
2FCA
100
AcDbEntity
  8
1
100
AcDbVertex
100
AcDb2dVertex
 10
4.409448818897637
 20
5.354330708661417
 30
0.0
  0
VERTEX
  5
2FCD
330
2FCA
100
AcDbEntity
  8
1
100
AcDbVertex
100
AcDb2dVertex
 10
4.403543307086613
 20
5.357283464566928
 30
0.0
  0
SEQEND
  5
2FCE
330
2FCA
100
AcDbEntity
  8
1
  0
POLYLINE
  5
2FCF
330
1F
100
AcDbEntity
  8
1
100
AcDb2dPolyline
 66
     1
 10
0.0
 20
0.0
 30
0.0
  0
VERTEX
  5
2FD0
330
2FCF
100
AcDbEntity
  8
1
100
AcDbVertex
100
AcDb2dVertex
 10
4.411417322834645
 20
5.349409448818897
 30
0.0
  0
VERTEX
  5
2FD1
330
2FCF
100
AcDbEntity
  8
1
100
AcDbVertex
100
AcDb2dVertex
 10
4.409448818897637
 20
5.349409448818897
 30
0.0
  0
VERTEX
  5
2FD2
330
2FCF
100
AcDbEntity
  8
1
100
AcDbVertex
100
AcDb2dVertex
 10
4.403543307086613
 20
5.349409448818897
 30
0.0
  0
SEQEND
  5
2FD3
330
2FCF
100
AcDbEntity
  8
1
  0
POLYLINE
  5
2FD4
330
1F
100
AcDbEntity
  8
1
100
AcDb2dPolyline
 66
     1
 10
0.0
 20
0.0
 30
0.0
  0
VERTEX
  5
2FD5
330
2FD4
100
AcDbEntity
  8
1
100
AcDbVertex
100
AcDb2dVertex
 10
4.411417322834645
 20
5.128937007874015
 30
0.0
  0
VERTEX
  5
2FD6
330
2FD4
100
AcDbEntity
  8
1
100
AcDbVertex
100
AcDb2dVertex
 10
4.409448818897637
 20
5.128937007874015
 30
0.0
  0
VERTEX
  5
2FD7
330
2FD4
100
AcDbEntity
  8
1
100
AcDbVertex
100
AcDb2dVertex
 10
4.403543307086613
 20
5.128937007874015
 30
0.0
  0
SEQEND
  5
2FD8
330
2FD4
100
AcDbEntity
  8
1
  0
POLYLINE
  5
2FD9
330
1F
100
AcDbEntity
  8
1
100
AcDb2dPolyline
 66
     1
 10
0.0
 20
0.0
 30
0.0
  0
VERTEX
  5
2FDA
330
2FD9
100
AcDbEntity
  8
1
100
AcDbVertex
100
AcDb2dVertex
 10
4.411417322834645
 20
5.128937007874015
 30
0.0
  0
VERTEX
  5
2FDB
330
2FD9
100
AcDbEntity
  8
1
100
AcDbVertex
100
AcDb2dVertex
 10
4.409448818897637
 20
5.123031496062991
 30
0.0
  0
VERTEX
  5
2FDC
330
2FD9
100
AcDbEntity
  8
1
100
AcDbVertex
100
AcDb2dVertex
 10
4.403543307086613
 20
5.121062992125984
 30
0.0
  0
SEQEND
  5
2FDD
330
2FD9
100
AcDbEntity
  8
1
  0
POLYLINE
  5
2FDE
330
1F
100
AcDbEntity
  8
1
100
AcDb2dPolyline
 66
     1
 10
0.0
 20
0.0
 30
0.0
  0
VERTEX
  5
2FDF
330
2FDE
100
AcDbEntity
  8
1
100
AcDbVertex
100
AcDb2dVertex
 10
4.411417322834645
 20
5.113188976377952
 30
0.0
  0
VERTEX
  5
2FE0
330
2FDE
100
AcDbEntity
  8
1
100
AcDbVertex
100
AcDb2dVertex
 10
4.409448818897637
 20
5.113188976377952
 30
0.0
  0
VERTEX
  5
2FE1
330
2FDE
100
AcDbEntity
  8
1
100
AcDbVertex
100
AcDb2dVertex
 10
4.403543307086613
 20
5.113188976377952
 30
0.0
  0
SEQEND
  5
2FE2
330
2FDE
100
AcDbEntity
  8
1
  0
POLYLINE
  5
2FE3
330
1F
100
AcDbEntity
  8
1
100
AcDb2dPolyline
 66
     1
 10
0.0
 20
0.0
 30
0.0
  0
VERTEX
  5
2FE4
330
2FE3
100
AcDbEntity
  8
1
100
AcDbVertex
100
AcDb2dVertex
 10
4.411417322834645
 20
5.005905511811023
 30
0.0
  0
VERTEX
  5
2FE5
330
2FE3
100
AcDbEntity
  8
1
100
AcDbVertex
100
AcDb2dVertex
 10
4.409448818897637
 20
5.005905511811023
 30
0.0
  0
VERTEX
  5
2FE6
330
2FE3
100
AcDbEntity
  8
1
100
AcDbVertex
100
AcDb2dVertex
 10
4.403543307086613
 20
5.005905511811023
 30
0.0
  0
SEQEND
  5
2FE7
330
2FE3
100
AcDbEntity
  8
1
  0
POLYLINE
  5
2FE8
330
1F
100
AcDbEntity
  8
1
100
AcDb2dPolyline
 66
     1
 10
0.0
 20
0.0
 30
0.0
  0
VERTEX
  5
2FE9
330
2FE8
100
AcDbEntity
  8
1
100
AcDbVertex
100
AcDb2dVertex
 10
4.413385826771653
 20
4.998031496062991
 30
0.0
  0
VERTEX
  5
2FEA
330
2FE8
100
AcDbEntity
  8
1
100
AcDbVertex
100
AcDb2dVertex
 10
4.413385826771653
 20
5.000984251968503
 30
0.0
  0
VERTEX
  5
2FEB
330
2FE8
100
AcDbEntity
  8
1
100
AcDbVertex
100
AcDb2dVertex
 10
4.413385826771653
 20
5.005905511811023
 30
0.0
  0
SEQEND
  5
2FEC
330
2FE8
100
AcDbEntity
  8
1
  0
POLYLINE
  5
2FED
330
1F
100
AcDbEntity
  8
1
100
AcDb2dPolyline
 66
     1
 10
0.0
 20
0.0
 30
0.0
  0
VERTEX
  5
2FEE
330
2FED
100
AcDbEntity
  8
1
100
AcDbVertex
100
AcDb2dVertex
 10
4.411417322834645
 20
5.005905511811023
 30
0.0
  0
VERTEX
  5
2FEF
330
2FED
100
AcDbEntity
  8
1
100
AcDbVertex
100
AcDb2dVertex
 10
4.409448818897637
 20
5.000984251968503
 30
0.0
  0
VERTEX
  5
2FF0
330
2FED
100
AcDbEntity
  8
1
100
AcDbVertex
100
AcDb2dVertex
 10
4.403543307086613
 20
4.998031496062991
 30
0.0
  0
SEQEND
  5
2FF1
330
2FED
100
AcDbEntity
  8
1
  0
LINE
  5
2FF2
330
1F
100
AcDbEntity
  8
1
100
AcDbLine
 10
4.128937007874015
 20
4.970472440944881
 30
0.0
 11
4.143700787401574
 21
4.774606299212598
 31
0.0
  0
LINE
  5
2FF3
330
1F
100
AcDbEntity
  8
1
100
AcDbLine
 10
4.143700787401574
 20
4.774606299212598
 30
0.0
 11
4.403543307086613
 21
4.774606299212598
 31
0.0
  0
LINE
  5
2FF4
330
1F
100
AcDbEntity
  8
1
100
AcDbLine
 10
4.403543307086613
 20
6.530511811023622
 30
0.0
 11
4.403543307086613
 21
4.774606299212598
 31
0.0
  0
LINE
  5
2FF5
330
1F
100
AcDbEntity
  8
1
100
AcDbLine
 10
4.403543307086613
 20
6.530511811023622
 30
0.0
 11
4.143700787401574
 21
6.530511811023622
 31
0.0
  0
LINE
  5
2FF6
330
1F
100
AcDbEntity
  8
1
100
AcDbLine
 10
4.143700787401574
 20
6.530511811023622
 30
0.0
 11
4.128937007874015
 21
6.334645669291338
 31
0.0
  0
LINE
  5
2FF7
330
1F
100
AcDbEntity
  8
1
100
AcDbLine
 10
4.128937007874015
 20
6.334645669291338
 30
0.0
 11
4.127952755905512
 21
6.319881889763779
 31
0.0
  0
LINE
  5
2FF8
330
1F
100
AcDbEntity
  8
1
100
AcDbLine
 10
4.127952755905512
 20
6.319881889763779
 30
0.0
 11
4.127952755905512
 21
4.984251968503937
 31
0.0
  0
LINE
  5
2FF9
330
1F
100
AcDbEntity
  8
1
100
AcDbLine
 10
4.127952755905512
 20
4.984251968503937
 30
0.0
 11
4.128937007874015
 21
4.970472440944881
 31
0.0
  0
LINE
  5
2FFA
330
1F
100
AcDbEntity
  8
1
100
AcDbLine
 10
4.12007874015748
 20
4.984251968503937
 30
0.0
 11
4.12007874015748
 21
6.319881889763779
 31
0.0
  0
LINE
  5
2FFB
330
1F
100
AcDbEntity
  8
1
100
AcDbLine
 10
4.143700787401574
 20
6.538385826771653
 30
0.0
 11
4.403543307086613
 21
6.538385826771653
 31
0.0
  0
LINE
  5
2FFC
330
1F
100
AcDbEntity
  8
1
100
AcDbLine
 10
4.403543307086613
 20
4.766732283464566
 30
0.0
 11
4.143700787401574
 21
4.766732283464566
 31
0.0
  0
POLYLINE
  5
2FFD
330
1F
100
AcDbEntity
  8
1
100
AcDb2dPolyline
 66
     1
 10
0.0
 20
0.0
 30
0.0
  0
VERTEX
  5
2FFE
330
2FFD
100
AcDbEntity
  8
1
100
AcDbVertex
100
AcDb2dVertex
 10
4.403543307086613
 20
6.374015748031496
 30
0.0
  0
VERTEX
  5
2FFF
330
2FFD
100
AcDbEntity
  8
1
100
AcDbVertex
100
AcDb2dVertex
 10
4.405511811023622
 20
6.374015748031496
 30
0.0
  0
VERTEX
  5
3000
330
2FFD
100
AcDbEntity
  8
1
100
AcDbVertex
100
AcDb2dVertex
 10
4.411417322834645
 20
6.374015748031496
 30
0.0
  0
SEQEND
  5
3001
330
2FFD
100
AcDbEntity
  8
1
  0
LINE
  5
3002
330
1F
100
AcDbEntity
  8
1
100
AcDbLine
 10
4.411417322834645
 20
6.374015748031496
 30
0.0
 11
4.632874015748031
 21
6.368110236220472
 31
0.0
  0
POLYLINE
  5
3003
330
1F
100
AcDbEntity
  8
1
100
AcDb2dPolyline
 66
     1
 10
0.0
 20
0.0
 30
0.0
  0
VERTEX
  5
3004
330
3003
100
AcDbEntity
  8
1
100
AcDbVertex
100
AcDb2dVertex
 10
4.632874015748031
 20
6.368110236220472
 30
0.0
  0
VERTEX
  5
3005
330
3003
100
AcDbEntity
  8
1
100
AcDbVertex
100
AcDb2dVertex
 10
4.65255905511811
 20
6.367125984251968
 30
0.0
  0
VERTEX
  5
3006
330
3003
100
AcDbEntity
  8
1
100
AcDbVertex
100
AcDb2dVertex
 10
4.666338582677165
 20
6.367125984251968
 30
0.0
  0
VERTEX
  5
3007
330
3003
100
AcDbEntity
  8
1
100
AcDbVertex
100
AcDb2dVertex
 10
4.671259842519685
 20
6.367125984251968
 30
0.0
  0
SEQEND
  5
3008
330
3003
100
AcDbEntity
  8
1
  0
LINE
  5
3009
330
1F
100
AcDbEntity
  8
1
100
AcDbLine
 10
4.671259842519685
 20
6.367125984251968
 30
0.0
 11
4.671259842519685
 21
6.323818897637795
 31
0.0
  0
LINE
  5
300A
330
1F
100
AcDbEntity
  8
1
100
AcDbLine
 10
4.411417322834645
 20
6.310039370078739
 30
0.0
 11
4.403543307086613
 21
6.309055118110236
 31
0.0
  0
POLYLINE
  5
300B
330
1F
100
AcDbEntity
  8
1
100
AcDb2dPolyline
 66
     1
 10
0.0
 20
0.0
 30
0.0
  0
VERTEX
  5
300C
330
300B
100
AcDbEntity
  8
1
100
AcDbVertex
100
AcDb2dVertex
 10
4.663385826771653
 20
6.315944881889763
 30
0.0
  0
VERTEX
  5
300D
330
300B
100
AcDbEntity
  8
1
100
AcDbVertex
100
AcDb2dVertex
 10
4.659448818897637
 20
6.315944881889763
 30
0.0
  0
VERTEX
  5
300E
330
300B
100
AcDbEntity
  8
1
100
AcDbVertex
100
AcDb2dVertex
 10
4.648622047244094
 20
6.315944881889763
 30
0.0
  0
VERTEX
  5
300F
330
300B
100
AcDbEntity
  8
1
100
AcDbVertex
100
AcDb2dVertex
 10
4.632874015748031
 20
6.31496062992126
 30
0.0
  0
SEQEND
  5
3010
330
300B
100
AcDbEntity
  8
1
  0
LINE
  5
3011
330
1F
100
AcDbEntity
  8
1
100
AcDbLine
 10
4.632874015748031
 20
6.31496062992126
 30
0.0
 11
4.411417322834645
 21
6.310039370078739
 31
0.0
  0
LINE
  5
3012
330
1F
100
AcDbEntity
  8
1
100
AcDbLine
 10
4.403543307086613
 20
4.99507874015748
 30
0.0
 11
4.411417322834645
 21
4.99507874015748
 31
0.0
  0
LINE
  5
3013
330
1F
100
AcDbEntity
  8
1
100
AcDbLine
 10
4.411417322834645
 20
4.99507874015748
 30
0.0
 11
4.632874015748031
 21
4.989173228346456
 31
0.0
  0
POLYLINE
  5
3014
330
1F
100
AcDbEntity
  8
1
100
AcDb2dPolyline
 66
     1
 10
0.0
 20
0.0
 30
0.0
  0
VERTEX
  5
3015
330
3014
100
AcDbEntity
  8
1
100
AcDbVertex
100
AcDb2dVertex
 10
4.632874015748031
 20
4.989173228346456
 30
0.0
  0
VERTEX
  5
3016
330
3014
100
AcDbEntity
  8
1
100
AcDbVertex
100
AcDb2dVertex
 10
4.648622047244094
 20
4.989173228346456
 30
0.0
  0
VERTEX
  5
3017
330
3014
100
AcDbEntity
  8
1
100
AcDbVertex
100
AcDb2dVertex
 10
4.659448818897637
 20
4.989173228346456
 30
0.0
  0
VERTEX
  5
3018
330
3014
100
AcDbEntity
  8
1
100
AcDbVertex
100
AcDb2dVertex
 10
4.663385826771653
 20
4.989173228346456
 30
0.0
  0
SEQEND
  5
3019
330
3014
100
AcDbEntity
  8
1
  0
LINE
  5
301A
330
1F
100
AcDbEntity
  8
1
100
AcDbLine
 10
4.435039370078739
 20
4.932086614173228
 30
0.0
 11
4.435039370078739
 21
4.931102362204724
 31
0.0
  0
POLYLINE
  5
301B
330
1F
100
AcDbEntity
  8
1
100
AcDb2dPolyline
 66
     1
 10
0.0
 20
0.0
 30
0.0
  0
VERTEX
  5
301C
330
301B
100
AcDbEntity
  8
1
100
AcDbVertex
100
AcDb2dVertex
 10
4.671259842519685
 20
4.937992125984251
 30
0.0
  0
VERTEX
  5
301D
330
301B
100
AcDbEntity
  8
1
100
AcDbVertex
100
AcDb2dVertex
 10
4.666338582677165
 20
4.937992125984251
 30
0.0
  0
VERTEX
  5
301E
330
301B
100
AcDbEntity
  8
1
100
AcDbVertex
100
AcDb2dVertex
 10
4.65255905511811
 20
4.937007874015748
 30
0.0
  0
VERTEX
  5
301F
330
301B
100
AcDbEntity
  8
1
100
AcDbVertex
100
AcDb2dVertex
 10
4.632874015748031
 20
4.937007874015748
 30
0.0
  0
SEQEND
  5
3020
330
301B
100
AcDbEntity
  8
1
  0
LINE
  5
3021
330
1F
100
AcDbEntity
  8
1
100
AcDbLine
 10
4.411417322834645
 20
4.931102362204724
 30
0.0
 11
4.632874015748031
 21
4.937007874015748
 31
0.0
  0
POLYLINE
  5
3022
330
1F
100
AcDbEntity
  8
1
100
AcDb2dPolyline
 66
     1
 10
0.0
 20
0.0
 30
0.0
  0
VERTEX
  5
3023
330
3022
100
AcDbEntity
  8
1
100
AcDbVertex
100
AcDb2dVertex
 10
4.411417322834645
 20
4.931102362204724
 30
0.0
  0
VERTEX
  5
3024
330
3022
100
AcDbEntity
  8
1
100
AcDbVertex
100
AcDb2dVertex
 10
4.405511811023622
 20
4.931102362204724
 30
0.0
  0
VERTEX
  5
3025
330
3022
100
AcDbEntity
  8
1
100
AcDbVertex
100
AcDb2dVertex
 10
4.403543307086613
 20
4.931102362204724
 30
0.0
  0
SEQEND
  5
3026
330
3022
100
AcDbEntity
  8
1
  0
LINE
  5
3027
330
1F
100
AcDbEntity
  8
1
100
AcDbLine
 10
4.671259842519685
 20
4.981299212598425
 30
0.0
 11
4.671259842519685
 21
4.937992125984251
 31
0.0
  0
LINE
  5
3028
330
1F
100
AcDbEntity
  8
1
100
AcDbLine
 10
4.432086614173228
 20
6.307086614173228
 30
0.0
 11
4.604330708661417
 21
6.311023622047244
 31
0.0
  0
LINE
  5
3029
330
1F
100
AcDbEntity
  8
1
100
AcDbLine
 10
4.604330708661417
 20
6.31496062992126
 30
0.0
 11
4.604330708661417
 21
6.311023622047244
 31
0.0
  0
LINE
  5
302A
330
1F
100
AcDbEntity
  8
1
100
AcDbLine
 10
4.604330708661417
 20
4.99015748031496
 30
0.0
 11
4.604330708661417
 21
4.993110236220472
 31
0.0
  0
LINE
  5
302B
330
1F
100
AcDbEntity
  8
1
100
AcDbLine
 10
4.604330708661417
 20
4.993110236220472
 30
0.0
 11
4.432086614173228
 21
4.998031496062991
 31
0.0
  0
LINE
  5
302C
330
1F
100
AcDbEntity
  8
1
100
AcDbLine
 10
4.604330708661417
 20
4.994094488188975
 30
0.0
 11
4.604330708661417
 21
4.993110236220472
 31
0.0
  0
POLYLINE
  5
302D
330
1F
100
AcDbEntity
  8
1
100
AcDb2dPolyline
 66
     1
 10
0.0
 20
0.0
 30
0.0
  0
VERTEX
  5
302E
330
302D
100
AcDbEntity
  8
1
100
AcDbVertex
100
AcDb2dVertex
 10
4.403543307086613
 20
6.538385826771653
 30
0.0
  0
VERTEX
  5
302F
330
302D
100
AcDbEntity
  8
1
100
AcDbVertex
100
AcDb2dVertex
 10
4.403543307086613
 20
6.536417322834645
 30
0.0
  0
VERTEX
  5
3030
330
302D
100
AcDbEntity
  8
1
100
AcDbVertex
100
AcDb2dVertex
 10
4.403543307086613
 20
6.530511811023622
 30
0.0
  0
SEQEND
  5
3031
330
302D
100
AcDbEntity
  8
1
  0
POLYLINE
  5
3032
330
1F
100
AcDbEntity
  8
1
100
AcDb2dPolyline
 66
     1
 10
0.0
 20
0.0
 30
0.0
  0
VERTEX
  5
3033
330
3032
100
AcDbEntity
  8
1
100
AcDbVertex
100
AcDb2dVertex
 10
4.403543307086613
 20
4.774606299212598
 30
0.0
  0
VERTEX
  5
3034
330
3032
100
AcDbEntity
  8
1
100
AcDbVertex
100
AcDb2dVertex
 10
4.403543307086613
 20
4.768700787401574
 30
0.0
  0
VERTEX
  5
3035
330
3032
100
AcDbEntity
  8
1
100
AcDbVertex
100
AcDb2dVertex
 10
4.403543307086613
 20
4.766732283464566
 30
0.0
  0
SEQEND
  5
3036
330
3032
100
AcDbEntity
  8
1
  0
LINE
  5
3037
330
1F
100
AcDbEntity
  8
1
100
AcDbLine
 10
4.73523622047244
 20
4.859251968503937
 30
0.0
 11
4.68011811023622
 21
4.859251968503937
 31
0.0
  0
LINE
  5
3038
330
1F
100
AcDbEntity
  8
1
100
AcDbLine
 10
4.6751968503937
 20
4.857283464566928
 30
0.0
 11
4.623031496062991
 21
4.811023622047244
 31
0.0
  0
LINE
  5
3039
330
1F
100
AcDbEntity
  8
1
100
AcDbLine
 10
4.619094488188975
 20
4.809055118110236
 30
0.0
 11
4.607283464566928
 21
4.807086614173228
 31
0.0
  0
LINE
  5
303A
330
1F
100
AcDbEntity
  8
1
100
AcDbLine
 10
4.598425196850393
 20
4.81496062992126
 30
0.0
 11
4.598425196850393
 21
4.851377952755905
 31
0.0
  0
LINE
  5
303B
330
1F
100
AcDbEntity
  8
1
100
AcDbLine
 10
4.590551181102362
 20
4.859251968503937
 30
0.0
 11
4.403543307086613
 21
4.859251968503937
 31
0.0
  0
LINE
  5
303C
330
1F
100
AcDbEntity
  8
1
100
AcDbLine
 10
4.442913385826771
 20
4.923228346456692
 30
0.0
 11
4.748031496062991
 21
4.915354330708661
 31
0.0
  0
POLYLINE
  5
303D
330
1F
100
AcDbEntity
  8
1
100
AcDb2dPolyline
 66
     1
 10
0.0
 20
0.0
 30
0.0
  0
VERTEX
  5
303E
330
303D
100
AcDbEntity
  8
1
100
AcDbVertex
100
AcDb2dVertex
 10
4.748031496062991
 20
4.915354330708661
 30
0.0
  0
VERTEX
  5
303F
330
303D
100
AcDbEntity
  8
1
100
AcDbVertex
100
AcDb2dVertex
 10
4.753937007874015
 20
4.915354330708661
 30
0.0
  0
VERTEX
  5
3040
330
303D
100
AcDbEntity
  8
1
100
AcDbVertex
100
AcDb2dVertex
 10
4.755905511811023
 20
4.915354330708661
 30
0.0
  0
SEQEND
  5
3041
330
303D
100
AcDbEntity
  8
1
  0
LINE
  5
3042
330
1F
100
AcDbEntity
  8
1
100
AcDbLine
 10
4.755905511811023
 20
4.915354330708661
 30
0.0
 11
4.754921259842519
 21
4.878937007874015
 31
0.0
  0
POLYLINE
  5
3043
330
1F
100
AcDbEntity
  8
1
100
AcDb2dPolyline
 66
     1
 10
0.0
 20
0.0
 30
0.0
  0
VERTEX
  5
3044
330
3043
100
AcDbEntity
  8
1
100
AcDbVertex
100
AcDb2dVertex
 10
4.73523622047244
 20
4.867125984251968
 30
0.0
  0
VERTEX
  5
3045
330
3043
100
AcDbEntity
  8
1
100
AcDbVertex
100
AcDb2dVertex
 10
4.744094488188975
 20
4.87007874015748
 30
0.0
  0
VERTEX
  5
3046
330
3043
100
AcDbEntity
  8
1
100
AcDbVertex
100
AcDb2dVertex
 10
4.747047244094487
 20
4.878937007874015
 30
0.0
  0
SEQEND
  5
3047
330
3043
100
AcDbEntity
  8
1
  0
LINE
  5
3048
330
1F
100
AcDbEntity
  8
1
100
AcDbLine
 10
4.747047244094487
 20
4.878937007874015
 30
0.0
 11
4.748031496062991
 21
4.915354330708661
 31
0.0
  0
LINE
  5
3049
330
1F
100
AcDbEntity
  8
1
100
AcDbLine
 10
4.442913385826771
 20
4.923228346456692
 30
0.0
 11
4.43996062992126
 21
4.924212598425197
 31
0.0
  0
LINE
  5
304A
330
1F
100
AcDbEntity
  8
1
100
AcDbLine
 10
4.43996062992126
 20
4.924212598425197
 30
0.0
 11
4.403543307086613
 21
4.923228346456692
 31
0.0
  0
LINE
  5
304B
330
1F
100
AcDbEntity
  8
1
100
AcDbLine
 10
4.403543307086613
 20
4.867125984251968
 30
0.0
 11
4.590551181102362
 21
4.867125984251968
 31
0.0
  0
POLYLINE
  5
304C
330
1F
100
AcDbEntity
  8
1
100
AcDb2dPolyline
 66
     1
 10
0.0
 20
0.0
 30
0.0
  0
VERTEX
  5
304D
330
304C
100
AcDbEntity
  8
1
100
AcDbVertex
100
AcDb2dVertex
 10
4.590551181102362
 20
4.867125984251968
 30
0.0
  0
VERTEX
  5
304E
330
304C
100
AcDbEntity
  8
1
100
AcDbVertex
100
AcDb2dVertex
 10
4.601377952755905
 20
4.862204724409449
 30
0.0
  0
VERTEX
  5
304F
330
304C
100
AcDbEntity
  8
1
100
AcDbVertex
100
AcDb2dVertex
 10
4.606299212598425
 20
4.851377952755905
 30
0.0
  0
SEQEND
  5
3050
330
304C
100
AcDbEntity
  8
1
  0
LINE
  5
3051
330
1F
100
AcDbEntity
  8
1
100
AcDbLine
 10
4.606299212598425
 20
4.851377952755905
 30
0.0
 11
4.606299212598425
 21
4.81496062992126
 31
0.0
  0
LINE
  5
3052
330
1F
100
AcDbEntity
  8
1
100
AcDbLine
 10
4.606299212598425
 20
4.81496062992126
 30
0.0
 11
4.618110236220472
 21
4.815944881889763
 31
0.0
  0
LINE
  5
3053
330
1F
100
AcDbEntity
  8
1
100
AcDbLine
 10
4.618110236220472
 20
4.815944881889763
 30
0.0
 11
4.669291338582676
 21
4.863188976377952
 31
0.0
  0
LINE
  5
3054
330
1F
100
AcDbEntity
  8
1
100
AcDbLine
 10
4.669291338582676
 20
4.863188976377952
 30
0.0
 11
4.68011811023622
 21
4.867125984251968
 31
0.0
  0
LINE
  5
3055
330
1F
100
AcDbEntity
  8
1
100
AcDbLine
 10
4.68011811023622
 20
4.867125984251968
 30
0.0
 11
4.73523622047244
 21
4.867125984251968
 31
0.0
  0
LINE
  5
3056
330
1F
100
AcDbEntity
  8
1
100
AcDbLine
 10
4.403543307086613
 20
6.381889763779527
 30
0.0
 11
4.43996062992126
 21
6.380905511811023
 31
0.0
  0
LINE
  5
3057
330
1F
100
AcDbEntity
  8
1
100
AcDbLine
 10
4.43996062992126
 20
6.380905511811023
 30
0.0
 11
4.442913385826771
 21
6.380905511811023
 31
0.0
  0
LINE
  5
3058
330
1F
100
AcDbEntity
  8
1
100
AcDbLine
 10
4.442913385826771
 20
6.380905511811023
 30
0.0
 11
4.748031496062991
 21
6.388779527559054
 31
0.0
  0
LINE
  5
3059
330
1F
100
AcDbEntity
  8
1
100
AcDbLine
 10
4.748031496062991
 20
6.388779527559054
 30
0.0
 11
4.747047244094487
 21
6.426181102362204
 31
0.0
  0
POLYLINE
  5
305A
330
1F
100
AcDbEntity
  8
1
100
AcDb2dPolyline
 66
     1
 10
0.0
 20
0.0
 30
0.0
  0
VERTEX
  5
305B
330
305A
100
AcDbEntity
  8
1
100
AcDbVertex
100
AcDb2dVertex
 10
4.747047244094487
 20
6.426181102362204
 30
0.0
  0
VERTEX
  5
305C
330
305A
100
AcDbEntity
  8
1
100
AcDbVertex
100
AcDb2dVertex
 10
4.744094488188975
 20
6.435039370078739
 30
0.0
  0
VERTEX
  5
305D
330
305A
100
AcDbEntity
  8
1
100
AcDbVertex
100
AcDb2dVertex
 10
4.73523622047244
 20
6.437992125984251
 30
0.0
  0
SEQEND
  5
305E
330
305A
100
AcDbEntity
  8
1
  0
LINE
  5
305F
330
1F
100
AcDbEntity
  8
1
100
AcDbLine
 10
4.73523622047244
 20
6.437992125984251
 30
0.0
 11
4.68011811023622
 21
6.437992125984251
 31
0.0
  0
LINE
  5
3060
330
1F
100
AcDbEntity
  8
1
100
AcDbLine
 10
4.68011811023622
 20
6.437992125984251
 30
0.0
 11
4.669291338582676
 21
6.441929133858267
 31
0.0
  0
LINE
  5
3061
330
1F
100
AcDbEntity
  8
1
100
AcDbLine
 10
4.669291338582676
 20
6.441929133858267
 30
0.0
 11
4.618110236220472
 21
6.488188976377952
 31
0.0
  0
LINE
  5
3062
330
1F
100
AcDbEntity
  8
1
100
AcDbLine
 10
4.618110236220472
 20
6.488188976377952
 30
0.0
 11
4.606299212598425
 21
6.49015748031496
 31
0.0
  0
LINE
  5
3063
330
1F
100
AcDbEntity
  8
1
100
AcDbLine
 10
4.606299212598425
 20
6.49015748031496
 30
0.0
 11
4.606299212598425
 21
6.453740157480314
 31
0.0
  0
POLYLINE
  5
3064
330
1F
100
AcDbEntity
  8
1
100
AcDb2dPolyline
 66
     1
 10
0.0
 20
0.0
 30
0.0
  0
VERTEX
  5
3065
330
3064
100
AcDbEntity
  8
1
100
AcDbVertex
100
AcDb2dVertex
 10
4.606299212598425
 20
6.453740157480314
 30
0.0
  0
VERTEX
  5
3066
330
3064
100
AcDbEntity
  8
1
100
AcDbVertex
100
AcDb2dVertex
 10
4.601377952755905
 20
6.442913385826771
 30
0.0
  0
VERTEX
  5
3067
330
3064
100
AcDbEntity
  8
1
100
AcDbVertex
100
AcDb2dVertex
 10
4.590551181102362
 20
6.437992125984251
 30
0.0
  0
SEQEND
  5
3068
330
3064
100
AcDbEntity
  8
1
  0
LINE
  5
3069
330
1F
100
AcDbEntity
  8
1
100
AcDbLine
 10
4.590551181102362
 20
6.437992125984251
 30
0.0
 11
4.403543307086613
 21
6.437992125984251
 31
0.0
  0
POLYLINE
  5
306A
330
1F
100
AcDbEntity
  8
1
100
AcDb2dPolyline
 66
     1
 10
0.0
 20
0.0
 30
0.0
  0
VERTEX
  5
306B
330
306A
100
AcDbEntity
  8
1
100
AcDbVertex
100
AcDb2dVertex
 10
4.755905511811023
 20
6.389763779527559
 30
0.0
  0
VERTEX
  5
306C
330
306A
100
AcDbEntity
  8
1
100
AcDbVertex
100
AcDb2dVertex
 10
4.753937007874015
 20
6.389763779527559
 30
0.0
  0
VERTEX
  5
306D
330
306A
100
AcDbEntity
  8
1
100
AcDbVertex
100
AcDb2dVertex
 10
4.748031496062991
 20
6.388779527559054
 30
0.0
  0
SEQEND
  5
306E
330
306A
100
AcDbEntity
  8
1
  0
LINE
  5
306F
330
1F
100
AcDbEntity
  8
1
100
AcDbLine
 10
4.68011811023622
 20
6.445866141732283
 30
0.0
 11
4.73523622047244
 21
6.445866141732283
 31
0.0
  0
LINE
  5
3070
330
1F
100
AcDbEntity
  8
1
100
AcDbLine
 10
4.623031496062991
 20
6.494094488188975
 30
0.0
 11
4.6751968503937
 21
6.447834645669291
 31
0.0
  0
LINE
  5
3071
330
1F
100
AcDbEntity
  8
1
100
AcDbLine
 10
4.607283464566928
 20
6.498031496062991
 30
0.0
 11
4.619094488188975
 21
6.496062992125984
 31
0.0
  0
LINE
  5
3072
330
1F
100
AcDbEntity
  8
1
100
AcDbLine
 10
4.598425196850393
 20
6.453740157480314
 30
0.0
 11
4.598425196850393
 21
6.49015748031496
 31
0.0
  0
LINE
  5
3073
330
1F
100
AcDbEntity
  8
1
100
AcDbLine
 10
4.403543307086613
 20
6.445866141732283
 30
0.0
 11
4.590551181102362
 21
6.445866141732283
 31
0.0
  0
LINE
  5
3074
330
1F
100
AcDbEntity
  8
1
100
AcDbLine
 10
4.754921259842519
 20
6.426181102362204
 30
0.0
 11
4.755905511811023
 21
6.389763779527559
 31
0.0
  0
POLYLINE
  5
3075
330
1F
100
AcDbEntity
  8
1
100
AcDb2dPolyline
 66
     1
 10
0.0
 20
0.0
 30
0.0
  0
VERTEX
  5
3076
330
3075
100
AcDbEntity
  8
1
100
AcDbVertex
100
AcDb2dVertex
 10
4.590551181102362
 20
6.445866141732283
 30
0.0
  0
VERTEX
  5
3077
330
3075
100
AcDbEntity
  8
1
100
AcDbVertex
100
AcDb2dVertex
 10
4.596456692913386
 20
6.447834645669291
 30
0.0
  0
VERTEX
  5
3078
330
3075
100
AcDbEntity
  8
1
100
AcDbVertex
100
AcDb2dVertex
 10
4.598425196850393
 20
6.453740157480314
 30
0.0
  0
SEQEND
  5
3079
330
3075
100
AcDbEntity
  8
1
  0
POLYLINE
  5
307A
330
1F
100
AcDbEntity
  8
1
100
AcDb2dPolyline
 66
     1
 10
0.0
 20
0.0
 30
0.0
  0
VERTEX
  5
307B
330
307A
100
AcDbEntity
  8
1
100
AcDbVertex
100
AcDb2dVertex
 10
4.598425196850393
 20
4.851377952755905
 30
0.0
  0
VERTEX
  5
307C
330
307A
100
AcDbEntity
  8
1
100
AcDbVertex
100
AcDb2dVertex
 10
4.596456692913386
 20
4.857283464566928
 30
0.0
  0
VERTEX
  5
307D
330
307A
100
AcDbEntity
  8
1
100
AcDbVertex
100
AcDb2dVertex
 10
4.590551181102362
 20
4.859251968503937
 30
0.0
  0
SEQEND
  5
307E
330
307A
100
AcDbEntity
  8
1
  0
POLYLINE
  5
307F
330
1F
100
AcDbEntity
  8
1
100
AcDb2dPolyline
 66
     1
 10
0.0
 20
0.0
 30
0.0
  0
VERTEX
  5
3080
330
307F
100
AcDbEntity
  8
1
100
AcDbVertex
100
AcDb2dVertex
 10
4.598425196850393
 20
6.49015748031496
 30
0.0
  0
VERTEX
  5
3081
330
307F
100
AcDbEntity
  8
1
100
AcDbVertex
100
AcDb2dVertex
 10
4.601377952755905
 20
6.496062992125984
 30
0.0
  0
VERTEX
  5
3082
330
307F
100
AcDbEntity
  8
1
100
AcDbVertex
100
AcDb2dVertex
 10
4.607283464566928
 20
6.498031496062991
 30
0.0
  0
SEQEND
  5
3083
330
307F
100
AcDbEntity
  8
1
  0
POLYLINE
  5
3084
330
1F
100
AcDbEntity
  8
1
100
AcDb2dPolyline
 66
     1
 10
0.0
 20
0.0
 30
0.0
  0
VERTEX
  5
3085
330
3084
100
AcDbEntity
  8
1
100
AcDbVertex
100
AcDb2dVertex
 10
4.619094488188975
 20
6.496062992125984
 30
0.0
  0
VERTEX
  5
3086
330
3084
100
AcDbEntity
  8
1
100
AcDbVertex
100
AcDb2dVertex
 10
4.621062992125984
 20
6.496062992125984
 30
0.0
  0
VERTEX
  5
3087
330
3084
100
AcDbEntity
  8
1
100
AcDbVertex
100
AcDb2dVertex
 10
4.623031496062991
 20
6.494094488188975
 30
0.0
  0
SEQEND
  5
3088
330
3084
100
AcDbEntity
  8
1
  0
LINE
  5
3089
330
1F
100
AcDbEntity
  8
1
100
AcDbLine
 10
4.6751968503937
 20
6.447834645669291
 30
0.0
 11
4.68011811023622
 21
6.445866141732283
 31
0.0
  0
POLYLINE
  5
308A
330
1F
100
AcDbEntity
  8
1
100
AcDb2dPolyline
 66
     1
 10
0.0
 20
0.0
 30
0.0
  0
VERTEX
  5
308B
330
308A
100
AcDbEntity
  8
1
100
AcDbVertex
100
AcDb2dVertex
 10
4.623031496062991
 20
4.811023622047244
 30
0.0
  0
VERTEX
  5
308C
330
308A
100
AcDbEntity
  8
1
100
AcDbVertex
100
AcDb2dVertex
 10
4.621062992125984
 20
4.809055118110236
 30
0.0
  0
VERTEX
  5
308D
330
308A
100
AcDbEntity
  8
1
100
AcDbVertex
100
AcDb2dVertex
 10
4.619094488188975
 20
4.809055118110236
 30
0.0
  0
SEQEND
  5
308E
330
308A
100
AcDbEntity
  8
1
  0
POLYLINE
  5
308F
330
1F
100
AcDbEntity
  8
1
100
AcDb2dPolyline
 66
     1
 10
0.0
 20
0.0
 30
0.0
  0
VERTEX
  5
3090
330
308F
100
AcDbEntity
  8
1
100
AcDbVertex
100
AcDb2dVertex
 10
4.607283464566928
 20
4.807086614173228
 30
0.0
  0
VERTEX
  5
3091
330
308F
100
AcDbEntity
  8
1
100
AcDbVertex
100
AcDb2dVertex
 10
4.601377952755905
 20
4.809055118110236
 30
0.0
  0
VERTEX
  5
3092
330
308F
100
AcDbEntity
  8
1
100
AcDbVertex
100
AcDb2dVertex
 10
4.598425196850393
 20
4.81496062992126
 30
0.0
  0
SEQEND
  5
3093
330
308F
100
AcDbEntity
  8
1
  0
LINE
  5
3094
330
1F
100
AcDbEntity
  8
1
100
AcDbLine
 10
4.68011811023622
 20
4.859251968503937
 30
0.0
 11
4.6751968503937
 21
4.857283464566928
 31
0.0
  0
LINE
  5
3095
330
1F
100
AcDbEntity
  8
1
100
AcDbLine
 10
4.632874015748031
 20
4.937007874015748
 30
0.0
 11
4.632874015748031
 21
4.981299212598425
 31
0.0
  0
LINE
  5
3096
330
1F
100
AcDbEntity
  8
1
100
AcDbLine
 10
4.632874015748031
 20
4.981299212598425
 30
0.0
 11
4.411417322834645
 21
4.987204724409449
 31
0.0
  0
LINE
  5
3097
330
1F
100
AcDbEntity
  8
1
100
AcDbLine
 10
4.411417322834645
 20
4.987204724409449
 30
0.0
 11
4.411417322834645
 21
4.931102362204724
 31
0.0
  0
LINE
  5
3098
330
1F
100
AcDbEntity
  8
1
100
AcDbLine
 10
4.411417322834645
 20
6.374015748031496
 30
0.0
 11
4.411417322834645
 21
6.317913385826771
 31
0.0
  0
LINE
  5
3099
330
1F
100
AcDbEntity
  8
1
100
AcDbLine
 10
4.411417322834645
 20
6.317913385826771
 30
0.0
 11
4.632874015748031
 21
6.322834645669291
 31
0.0
  0
LINE
  5
309A
330
1F
100
AcDbEntity
  8
1
100
AcDbLine
 10
4.632874015748031
 20
6.322834645669291
 30
0.0
 11
4.632874015748031
 21
6.368110236220472
 31
0.0
  0
LINE
  5
309B
330
1F
100
AcDbEntity
  8
1
100
AcDbLine
 10
4.135826771653543
 20
4.773622047244094
 30
0.0
 11
4.12007874015748
 21
4.969488188976377
 31
0.0
  0
LINE
  5
309C
330
1F
100
AcDbEntity
  8
1
100
AcDbLine
 10
4.12007874015748
 20
6.334645669291338
 30
0.0
 11
4.135826771653543
 21
6.531496062992125
 31
0.0
  0
LINE
  5
309D
330
1F
100
AcDbEntity
  8
1
100
AcDbLine
 10
4.12007874015748
 20
4.969488188976377
 30
0.0
 11
4.12007874015748
 21
4.984251968503937
 31
0.0
  0
LINE
  5
309E
330
1F
100
AcDbEntity
  8
1
100
AcDbLine
 10
4.12007874015748
 20
6.319881889763779
 30
0.0
 11
4.12007874015748
 21
6.334645669291338
 31
0.0
  0
POLYLINE
  5
309F
330
1F
100
AcDbEntity
  8
1
100
AcDb2dPolyline
 66
     1
 10
0.0
 20
0.0
 30
0.0
  0
VERTEX
  5
30A0
330
309F
100
AcDbEntity
  8
1
100
AcDbVertex
100
AcDb2dVertex
 10
4.143700787401574
 20
6.530511811023622
 30
0.0
  0
VERTEX
  5
30A1
330
309F
100
AcDbEntity
  8
1
100
AcDbVertex
100
AcDb2dVertex
 10
4.143700787401574
 20
6.536417322834645
 30
0.0
  0
VERTEX
  5
30A2
330
309F
100
AcDbEntity
  8
1
100
AcDbVertex
100
AcDb2dVertex
 10
4.143700787401574
 20
6.538385826771653
 30
0.0
  0
SEQEND
  5
30A3
330
309F
100
AcDbEntity
  8
1
  0
POLYLINE
  5
30A4
330
1F
100
AcDbEntity
  8
1
100
AcDb2dPolyline
 66
     1
 10
0.0
 20
0.0
 30
0.0
  0
VERTEX
  5
30A5
330
30A4
100
AcDbEntity
  8
1
100
AcDbVertex
100
AcDb2dVertex
 10
4.143700787401574
 20
6.530511811023622
 30
0.0
  0
VERTEX
  5
30A6
330
30A4
100
AcDbEntity
  8
1
100
AcDbVertex
100
AcDb2dVertex
 10
4.138779527559054
 20
6.531496062992125
 30
0.0
  0
VERTEX
  5
30A7
330
30A4
100
AcDbEntity
  8
1
100
AcDbVertex
100
AcDb2dVertex
 10
4.135826771653543
 20
6.531496062992125
 30
0.0
  0
SEQEND
  5
30A8
330
30A4
100
AcDbEntity
  8
1
  0
POLYLINE
  5
30A9
330
1F
100
AcDbEntity
  8
1
100
AcDb2dPolyline
 66
     1
 10
0.0
 20
0.0
 30
0.0
  0
VERTEX
  5
30AA
330
30A9
100
AcDbEntity
  8
1
100
AcDbVertex
100
AcDb2dVertex
 10
4.135826771653543
 20
6.531496062992125
 30
0.0
  0
VERTEX
  5
30AB
330
30A9
100
AcDbEntity
  8
1
100
AcDbVertex
100
AcDb2dVertex
 10
4.138779527559054
 20
6.536417322834645
 30
0.0
  0
VERTEX
  5
30AC
330
30A9
100
AcDbEntity
  8
1
100
AcDbVertex
100
AcDb2dVertex
 10
4.143700787401574
 20
6.538385826771653
 30
0.0
  0
SEQEND
  5
30AD
330
30A9
100
AcDbEntity
  8
1
  0
POLYLINE
  5
30AE
330
1F
100
AcDbEntity
  8
1
100
AcDb2dPolyline
 66
     1
 10
0.0
 20
0.0
 30
0.0
  0
VERTEX
  5
30AF
330
30AE
100
AcDbEntity
  8
1
100
AcDbVertex
100
AcDb2dVertex
 10
4.128937007874015
 20
6.334645669291338
 30
0.0
  0
VERTEX
  5
30B0
330
30AE
100
AcDbEntity
  8
1
100
AcDbVertex
100
AcDb2dVertex
 10
4.123031496062991
 20
6.334645669291338
 30
0.0
  0
VERTEX
  5
30B1
330
30AE
100
AcDbEntity
  8
1
100
AcDbVertex
100
AcDb2dVertex
 10
4.12007874015748
 20
6.334645669291338
 30
0.0
  0
SEQEND
  5
30B2
330
30AE
100
AcDbEntity
  8
1
  0
POLYLINE
  5
30B3
330
1F
100
AcDbEntity
  8
1
100
AcDb2dPolyline
 66
     1
 10
0.0
 20
0.0
 30
0.0
  0
VERTEX
  5
30B4
330
30B3
100
AcDbEntity
  8
1
100
AcDbVertex
100
AcDb2dVertex
 10
4.127952755905512
 20
6.319881889763779
 30
0.0
  0
VERTEX
  5
30B5
330
30B3
100
AcDbEntity
  8
1
100
AcDbVertex
100
AcDb2dVertex
 10
4.122047244094487
 20
6.319881889763779
 30
0.0
  0
VERTEX
  5
30B6
330
30B3
100
AcDbEntity
  8
1
100
AcDbVertex
100
AcDb2dVertex
 10
4.12007874015748
 20
6.319881889763779
 30
0.0
  0
SEQEND
  5
30B7
330
30B3
100
AcDbEntity
  8
1
  0
POLYLINE
  5
30B8
330
1F
100
AcDbEntity
  8
1
100
AcDb2dPolyline
 66
     1
 10
0.0
 20
0.0
 30
0.0
  0
VERTEX
  5
30B9
330
30B8
100
AcDbEntity
  8
1
100
AcDbVertex
100
AcDb2dVertex
 10
4.127952755905512
 20
4.984251968503937
 30
0.0
  0
VERTEX
  5
30BA
330
30B8
100
AcDbEntity
  8
1
100
AcDbVertex
100
AcDb2dVertex
 10
4.122047244094487
 20
4.984251968503937
 30
0.0
  0
VERTEX
  5
30BB
330
30B8
100
AcDbEntity
  8
1
100
AcDbVertex
100
AcDb2dVertex
 10
4.12007874015748
 20
4.984251968503937
 30
0.0
  0
SEQEND
  5
30BC
330
30B8
100
AcDbEntity
  8
1
  0
POLYLINE
  5
30BD
330
1F
100
AcDbEntity
  8
1
100
AcDb2dPolyline
 66
     1
 10
0.0
 20
0.0
 30
0.0
  0
VERTEX
  5
30BE
330
30BD
100
AcDbEntity
  8
1
100
AcDbVertex
100
AcDb2dVertex
 10
4.128937007874015
 20
4.970472440944881
 30
0.0
  0
VERTEX
  5
30BF
330
30BD
100
AcDbEntity
  8
1
100
AcDbVertex
100
AcDb2dVertex
 10
4.123031496062991
 20
4.969488188976377
 30
0.0
  0
VERTEX
  5
30C0
330
30BD
100
AcDbEntity
  8
1
100
AcDbVertex
100
AcDb2dVertex
 10
4.12007874015748
 20
4.969488188976377
 30
0.0
  0
SEQEND
  5
30C1
330
30BD
100
AcDbEntity
  8
1
  0
POLYLINE
  5
30C2
330
1F
100
AcDbEntity
  8
1
100
AcDb2dPolyline
 66
     1
 10
0.0
 20
0.0
 30
0.0
  0
VERTEX
  5
30C3
330
30C2
100
AcDbEntity
  8
1
100
AcDbVertex
100
AcDb2dVertex
 10
4.143700787401574
 20
4.774606299212598
 30
0.0
  0
VERTEX
  5
30C4
330
30C2
100
AcDbEntity
  8
1
100
AcDbVertex
100
AcDb2dVertex
 10
4.138779527559054
 20
4.773622047244094
 30
0.0
  0
VERTEX
  5
30C5
330
30C2
100
AcDbEntity
  8
1
100
AcDbVertex
100
AcDb2dVertex
 10
4.135826771653543
 20
4.773622047244094
 30
0.0
  0
SEQEND
  5
30C6
330
30C2
100
AcDbEntity
  8
1
  0
POLYLINE
  5
30C7
330
1F
100
AcDbEntity
  8
1
100
AcDb2dPolyline
 66
     1
 10
0.0
 20
0.0
 30
0.0
  0
VERTEX
  5
30C8
330
30C7
100
AcDbEntity
  8
1
100
AcDbVertex
100
AcDb2dVertex
 10
4.143700787401574
 20
4.766732283464566
 30
0.0
  0
VERTEX
  5
30C9
330
30C7
100
AcDbEntity
  8
1
100
AcDbVertex
100
AcDb2dVertex
 10
4.143700787401574
 20
4.768700787401574
 30
0.0
  0
VERTEX
  5
30CA
330
30C7
100
AcDbEntity
  8
1
100
AcDbVertex
100
AcDb2dVertex
 10
4.143700787401574
 20
4.774606299212598
 30
0.0
  0
SEQEND
  5
30CB
330
30C7
100
AcDbEntity
  8
1
  0
POLYLINE
  5
30CC
330
1F
100
AcDbEntity
  8
1
100
AcDb2dPolyline
 66
     1
 10
0.0
 20
0.0
 30
0.0
  0
VERTEX
  5
30CD
330
30CC
100
AcDbEntity
  8
1
100
AcDbVertex
100
AcDb2dVertex
 10
4.143700787401574
 20
4.766732283464566
 30
0.0
  0
VERTEX
  5
30CE
330
30CC
100
AcDbEntity
  8
1
100
AcDbVertex
100
AcDb2dVertex
 10
4.138779527559054
 20
4.768700787401574
 30
0.0
  0
VERTEX
  5
30CF
330
30CC
100
AcDbEntity
  8
1
100
AcDbVertex
100
AcDb2dVertex
 10
4.135826771653543
 20
4.773622047244094
 30
0.0
  0
SEQEND
  5
30D0
330
30CC
100
AcDbEntity
  8
1
  0
POLYLINE
  5
30D1
330
1F
100
AcDbEntity
  8
1
100
AcDb2dPolyline
 66
     1
 10
0.0
 20
0.0
 30
0.0
  0
VERTEX
  5
30D2
330
30D1
100
AcDbEntity
  8
1
100
AcDbVertex
100
AcDb2dVertex
 10
4.435039370078739
 20
6.373031496062991
 30
0.0
  0
VERTEX
  5
30D3
330
30D1
100
AcDbEntity
  8
1
100
AcDbVertex
100
AcDb2dVertex
 10
4.435039370078739
 20
6.374015748031496
 30
0.0
  0
VERTEX
  5
30D4
330
30D1
100
AcDbEntity
  8
1
100
AcDbVertex
100
AcDb2dVertex
 10
4.436023622047244
 20
6.375984251968503
 30
0.0
  0
VERTEX
  5
30D5
330
30D1
100
AcDbEntity
  8
1
100
AcDbVertex
100
AcDb2dVertex
 10
4.436023622047244
 20
6.377952755905512
 30
0.0
  0
VERTEX
  5
30D6
330
30D1
100
AcDbEntity
  8
1
100
AcDbVertex
100
AcDb2dVertex
 10
4.437992125984251
 20
6.378937007874015
 30
0.0
  0
VERTEX
  5
30D7
330
30D1
100
AcDbEntity
  8
1
100
AcDbVertex
100
AcDb2dVertex
 10
4.43996062992126
 20
6.380905511811023
 30
0.0
  0
SEQEND
  5
30D8
330
30D1
100
AcDbEntity
  8
1
  0
POLYLINE
  5
30D9
330
1F
100
AcDbEntity
  8
1
100
AcDb2dPolyline
 66
     1
 10
0.0
 20
0.0
 30
0.0
  0
VERTEX
  5
30DA
330
30D9
100
AcDbEntity
  8
1
100
AcDbVertex
100
AcDb2dVertex
 10
4.43996062992126
 20
4.924212598425197
 30
0.0
  0
VERTEX
  5
30DB
330
30D9
100
AcDbEntity
  8
1
100
AcDbVertex
100
AcDb2dVertex
 10
4.437992125984251
 20
4.9251968503937
 30
0.0
  0
VERTEX
  5
30DC
330
30D9
100
AcDbEntity
  8
1
100
AcDbVertex
100
AcDb2dVertex
 10
4.437007874015748
 20
4.927165354330708
 30
0.0
  0
VERTEX
  5
30DD
330
30D9
100
AcDbEntity
  8
1
100
AcDbVertex
100
AcDb2dVertex
 10
4.436023622047244
 20
4.929133858267716
 30
0.0
  0
VERTEX
  5
30DE
330
30D9
100
AcDbEntity
  8
1
100
AcDbVertex
100
AcDb2dVertex
 10
4.435039370078739
 20
4.93011811023622
 30
0.0
  0
VERTEX
  5
30DF
330
30D9
100
AcDbEntity
  8
1
100
AcDbVertex
100
AcDb2dVertex
 10
4.435039370078739
 20
4.931102362204724
 30
0.0
  0
SEQEND
  5
30E0
330
30D9
100
AcDbEntity
  8
1
  0
POLYLINE
  5
30E1
330
1F
100
AcDbEntity
  8
1
100
AcDb2dPolyline
 66
     1
 10
0.0
 20
0.0
 30
0.0
  0
VERTEX
  5
30E2
330
30E1
100
AcDbEntity
  8
1
100
AcDbVertex
100
AcDb2dVertex
 10
4.671259842519685
 20
4.981299212598425
 30
0.0
  0
VERTEX
  5
30E3
330
30E1
100
AcDbEntity
  8
1
100
AcDbVertex
100
AcDb2dVertex
 10
4.666338582677165
 20
4.981299212598425
 30
0.0
  0
VERTEX
  5
30E4
330
30E1
100
AcDbEntity
  8
1
100
AcDbVertex
100
AcDb2dVertex
 10
4.65255905511811
 20
4.981299212598425
 30
0.0
  0
VERTEX
  5
30E5
330
30E1
100
AcDbEntity
  8
1
100
AcDbVertex
100
AcDb2dVertex
 10
4.632874015748031
 20
4.981299212598425
 30
0.0
  0
SEQEND
  5
30E6
330
30E1
100
AcDbEntity
  8
1
  0
POLYLINE
  5
30E7
330
1F
100
AcDbEntity
  8
1
100
AcDb2dPolyline
 66
     1
 10
0.0
 20
0.0
 30
0.0
  0
VERTEX
  5
30E8
330
30E7
100
AcDbEntity
  8
1
100
AcDbVertex
100
AcDb2dVertex
 10
4.632874015748031
 20
6.322834645669291
 30
0.0
  0
VERTEX
  5
30E9
330
30E7
100
AcDbEntity
  8
1
100
AcDbVertex
100
AcDb2dVertex
 10
4.65255905511811
 20
6.323818897637795
 30
0.0
  0
VERTEX
  5
30EA
330
30E7
100
AcDbEntity
  8
1
100
AcDbVertex
100
AcDb2dVertex
 10
4.666338582677165
 20
6.323818897637795
 30
0.0
  0
VERTEX
  5
30EB
330
30E7
100
AcDbEntity
  8
1
100
AcDbVertex
100
AcDb2dVertex
 10
4.671259842519685
 20
6.323818897637795
 30
0.0
  0
SEQEND
  5
30EC
330
30E7
100
AcDbEntity
  8
1
  0
POLYLINE
  5
30ED
330
1F
100
AcDbEntity
  8
1
100
AcDb2dPolyline
 66
     1
 10
0.0
 20
0.0
 30
0.0
  0
VERTEX
  5
30EE
330
30ED
100
AcDbEntity
  8
1
100
AcDbVertex
100
AcDb2dVertex
 10
4.403543307086613
 20
6.316929133858267
 30
0.0
  0
VERTEX
  5
30EF
330
30ED
100
AcDbEntity
  8
1
100
AcDbVertex
100
AcDb2dVertex
 10
4.405511811023622
 20
6.316929133858267
 30
0.0
  0
VERTEX
  5
30F0
330
30ED
100
AcDbEntity
  8
1
100
AcDbVertex
100
AcDb2dVertex
 10
4.411417322834645
 20
6.317913385826771
 30
0.0
  0
SEQEND
  5
30F1
330
30ED
100
AcDbEntity
  8
1
  0
POLYLINE
  5
30F2
330
1F
100
AcDbEntity
  8
1
100
AcDb2dPolyline
 66
     1
 10
0.0
 20
0.0
 30
0.0
  0
VERTEX
  5
30F3
330
30F2
100
AcDbEntity
  8
1
100
AcDbVertex
100
AcDb2dVertex
 10
4.411417322834645
 20
4.987204724409449
 30
0.0
  0
VERTEX
  5
30F4
330
30F2
100
AcDbEntity
  8
1
100
AcDbVertex
100
AcDb2dVertex
 10
4.405511811023622
 20
4.988188976377952
 30
0.0
  0
VERTEX
  5
30F5
330
30F2
100
AcDbEntity
  8
1
100
AcDbVertex
100
AcDb2dVertex
 10
4.403543307086613
 20
4.988188976377952
 30
0.0
  0
SEQEND
  5
30F6
330
30F2
100
AcDbEntity
  8
1
  0
POLYLINE
  5
30F7
330
1F
100
AcDbEntity
  8
1
100
AcDb2dPolyline
 66
     1
 10
0.0
 20
0.0
 30
0.0
  0
VERTEX
  5
30F8
330
30F7
100
AcDbEntity
  8
1
100
AcDbVertex
100
AcDb2dVertex
 10
4.754921259842519
 20
4.878937007874015
 30
0.0
  0
VERTEX
  5
30F9
330
30F7
100
AcDbEntity
  8
1
100
AcDbVertex
100
AcDb2dVertex
 10
4.749015748031496
 20
4.86515748031496
 30
0.0
  0
VERTEX
  5
30FA
330
30F7
100
AcDbEntity
  8
1
100
AcDbVertex
100
AcDb2dVertex
 10
4.73523622047244
 20
4.859251968503937
 30
0.0
  0
SEQEND
  5
30FB
330
30F7
100
AcDbEntity
  8
1
  0
POLYLINE
  5
30FC
330
1F
100
AcDbEntity
  8
1
100
AcDb2dPolyline
 66
     1
 10
0.0
 20
0.0
 30
0.0
  0
VERTEX
  5
30FD
330
30FC
100
AcDbEntity
  8
1
100
AcDbVertex
100
AcDb2dVertex
 10
4.73523622047244
 20
6.445866141732283
 30
0.0
  0
VERTEX
  5
30FE
330
30FC
100
AcDbEntity
  8
1
100
AcDbVertex
100
AcDb2dVertex
 10
4.749015748031496
 20
6.43996062992126
 30
0.0
  0
VERTEX
  5
30FF
330
30FC
100
AcDbEntity
  8
1
100
AcDbVertex
100
AcDb2dVertex
 10
4.754921259842519
 20
6.426181102362204
 30
0.0
  0
SEQEND
  5
3100
330
30FC
100
AcDbEntity
  8
1
  0
POLYLINE
  5
3101
330
1F
100
AcDbEntity
  8
1
100
AcDb2dPolyline
 66
     1
 10
0.0
 20
0.0
 30
0.0
  0
VERTEX
  5
3102
330
3101
100
AcDbEntity
  8
1
100
AcDbVertex
100
AcDb2dVertex
 10
4.590551181102362
 20
6.445866141732283
 30
0.0
  0
VERTEX
  5
3103
330
3101
100
AcDbEntity
  8
1
100
AcDbVertex
100
AcDb2dVertex
 10
4.590551181102362
 20
6.443897637795275
 30
0.0
  0
VERTEX
  5
3104
330
3101
100
AcDbEntity
  8
1
100
AcDbVertex
100
AcDb2dVertex
 10
4.590551181102362
 20
6.437992125984251
 30
0.0
  0
SEQEND
  5
3105
330
3101
100
AcDbEntity
  8
1
  0
POLYLINE
  5
3106
330
1F
100
AcDbEntity
  8
1
100
AcDb2dPolyline
 66
     1
 10
0.0
 20
0.0
 30
0.0
  0
VERTEX
  5
3107
330
3106
100
AcDbEntity
  8
1
100
AcDbVertex
100
AcDb2dVertex
 10
4.598425196850393
 20
6.453740157480314
 30
0.0
  0
VERTEX
  5
3108
330
3106
100
AcDbEntity
  8
1
100
AcDbVertex
100
AcDb2dVertex
 10
4.600393700787401
 20
6.453740157480314
 30
0.0
  0
VERTEX
  5
3109
330
3106
100
AcDbEntity
  8
1
100
AcDbVertex
100
AcDb2dVertex
 10
4.606299212598425
 20
6.453740157480314
 30
0.0
  0
SEQEND
  5
310A
330
3106
100
AcDbEntity
  8
1
  0
POLYLINE
  5
310B
330
1F
100
AcDbEntity
  8
1
100
AcDb2dPolyline
 66
     1
 10
0.0
 20
0.0
 30
0.0
  0
VERTEX
  5
310C
330
310B
100
AcDbEntity
  8
1
100
AcDbVertex
100
AcDb2dVertex
 10
4.598425196850393
 20
6.49015748031496
 30
0.0
  0
VERTEX
  5
310D
330
310B
100
AcDbEntity
  8
1
100
AcDbVertex
100
AcDb2dVertex
 10
4.600393700787401
 20
6.49015748031496
 30
0.0
  0
VERTEX
  5
310E
330
310B
100
AcDbEntity
  8
1
100
AcDbVertex
100
AcDb2dVertex
 10
4.606299212598425
 20
6.49015748031496
 30
0.0
  0
SEQEND
  5
310F
330
310B
100
AcDbEntity
  8
1
  0
POLYLINE
  5
3110
330
1F
100
AcDbEntity
  8
1
100
AcDb2dPolyline
 66
     1
 10
0.0
 20
0.0
 30
0.0
  0
VERTEX
  5
3111
330
3110
100
AcDbEntity
  8
1
100
AcDbVertex
100
AcDb2dVertex
 10
4.607283464566928
 20
6.498031496062991
 30
0.0
  0
VERTEX
  5
3112
330
3110
100
AcDbEntity
  8
1
100
AcDbVertex
100
AcDb2dVertex
 10
4.607283464566928
 20
6.49507874015748
 30
0.0
  0
VERTEX
  5
3113
330
3110
100
AcDbEntity
  8
1
100
AcDbVertex
100
AcDb2dVertex
 10
4.606299212598425
 20
6.49015748031496
 30
0.0
  0
SEQEND
  5
3114
330
3110
100
AcDbEntity
  8
1
  0
POLYLINE
  5
3115
330
1F
100
AcDbEntity
  8
1
100
AcDb2dPolyline
 66
     1
 10
0.0
 20
0.0
 30
0.0
  0
VERTEX
  5
3116
330
3115
100
AcDbEntity
  8
1
100
AcDbVertex
100
AcDb2dVertex
 10
4.619094488188975
 20
6.496062992125984
 30
0.0
  0
VERTEX
  5
3117
330
3115
100
AcDbEntity
  8
1
100
AcDbVertex
100
AcDb2dVertex
 10
4.619094488188975
 20
6.494094488188975
 30
0.0
  0
VERTEX
  5
3118
330
3115
100
AcDbEntity
  8
1
100
AcDbVertex
100
AcDb2dVertex
 10
4.618110236220472
 20
6.488188976377952
 30
0.0
  0
SEQEND
  5
3119
330
3115
100
AcDbEntity
  8
1
  0
POLYLINE
  5
311A
330
1F
100
AcDbEntity
  8
1
100
AcDb2dPolyline
 66
     1
 10
0.0
 20
0.0
 30
0.0
  0
VERTEX
  5
311B
330
311A
100
AcDbEntity
  8
1
100
AcDbVertex
100
AcDb2dVertex
 10
4.623031496062991
 20
6.494094488188975
 30
0.0
  0
VERTEX
  5
311C
330
311A
100
AcDbEntity
  8
1
100
AcDbVertex
100
AcDb2dVertex
 10
4.622047244094487
 20
6.493110236220472
 30
0.0
  0
VERTEX
  5
311D
330
311A
100
AcDbEntity
  8
1
100
AcDbVertex
100
AcDb2dVertex
 10
4.618110236220472
 20
6.488188976377952
 30
0.0
  0
SEQEND
  5
311E
330
311A
100
AcDbEntity
  8
1
  0
POLYLINE
  5
311F
330
1F
100
AcDbEntity
  8
1
100
AcDb2dPolyline
 66
     1
 10
0.0
 20
0.0
 30
0.0
  0
VERTEX
  5
3120
330
311F
100
AcDbEntity
  8
1
100
AcDbVertex
100
AcDb2dVertex
 10
4.6751968503937
 20
6.447834645669291
 30
0.0
  0
VERTEX
  5
3121
330
311F
100
AcDbEntity
  8
1
100
AcDbVertex
100
AcDb2dVertex
 10
4.673228346456692
 20
6.445866141732283
 30
0.0
  0
VERTEX
  5
3122
330
311F
100
AcDbEntity
  8
1
100
AcDbVertex
100
AcDb2dVertex
 10
4.669291338582676
 20
6.441929133858267
 30
0.0
  0
SEQEND
  5
3123
330
311F
100
AcDbEntity
  8
1
  0
POLYLINE
  5
3124
330
1F
100
AcDbEntity
  8
1
100
AcDb2dPolyline
 66
     1
 10
0.0
 20
0.0
 30
0.0
  0
VERTEX
  5
3125
330
3124
100
AcDbEntity
  8
1
100
AcDbVertex
100
AcDb2dVertex
 10
4.68011811023622
 20
6.445866141732283
 30
0.0
  0
VERTEX
  5
3126
330
3124
100
AcDbEntity
  8
1
100
AcDbVertex
100
AcDb2dVertex
 10
4.68011811023622
 20
6.443897637795275
 30
0.0
  0
VERTEX
  5
3127
330
3124
100
AcDbEntity
  8
1
100
AcDbVertex
100
AcDb2dVertex
 10
4.68011811023622
 20
6.437992125984251
 30
0.0
  0
SEQEND
  5
3128
330
3124
100
AcDbEntity
  8
1
  0
POLYLINE
  5
3129
330
1F
100
AcDbEntity
  8
1
100
AcDb2dPolyline
 66
     1
 10
0.0
 20
0.0
 30
0.0
  0
VERTEX
  5
312A
330
3129
100
AcDbEntity
  8
1
100
AcDbVertex
100
AcDb2dVertex
 10
4.73523622047244
 20
6.445866141732283
 30
0.0
  0
VERTEX
  5
312B
330
3129
100
AcDbEntity
  8
1
100
AcDbVertex
100
AcDb2dVertex
 10
4.73523622047244
 20
6.443897637795275
 30
0.0
  0
VERTEX
  5
312C
330
3129
100
AcDbEntity
  8
1
100
AcDbVertex
100
AcDb2dVertex
 10
4.73523622047244
 20
6.437992125984251
 30
0.0
  0
SEQEND
  5
312D
330
3129
100
AcDbEntity
  8
1
  0
POLYLINE
  5
312E
330
1F
100
AcDbEntity
  8
1
100
AcDb2dPolyline
 66
     1
 10
0.0
 20
0.0
 30
0.0
  0
VERTEX
  5
312F
330
312E
100
AcDbEntity
  8
1
100
AcDbVertex
100
AcDb2dVertex
 10
4.754921259842519
 20
6.426181102362204
 30
0.0
  0
VERTEX
  5
3130
330
312E
100
AcDbEntity
  8
1
100
AcDbVertex
100
AcDb2dVertex
 10
4.752952755905512
 20
6.426181102362204
 30
0.0
  0
VERTEX
  5
3131
330
312E
100
AcDbEntity
  8
1
100
AcDbVertex
100
AcDb2dVertex
 10
4.747047244094487
 20
6.426181102362204
 30
0.0
  0
SEQEND
  5
3132
330
312E
100
AcDbEntity
  8
1
  0
POLYLINE
  5
3133
330
1F
100
AcDbEntity
  8
1
100
AcDb2dPolyline
 66
     1
 10
0.0
 20
0.0
 30
0.0
  0
VERTEX
  5
3134
330
3133
100
AcDbEntity
  8
1
100
AcDbVertex
100
AcDb2dVertex
 10
4.590551181102362
 20
4.867125984251968
 30
0.0
  0
VERTEX
  5
3135
330
3133
100
AcDbEntity
  8
1
100
AcDbVertex
100
AcDb2dVertex
 10
4.590551181102362
 20
4.861220472440944
 30
0.0
  0
VERTEX
  5
3136
330
3133
100
AcDbEntity
  8
1
100
AcDbVertex
100
AcDb2dVertex
 10
4.590551181102362
 20
4.859251968503937
 30
0.0
  0
SEQEND
  5
3137
330
3133
100
AcDbEntity
  8
1
  0
POLYLINE
  5
3138
330
1F
100
AcDbEntity
  8
1
100
AcDb2dPolyline
 66
     1
 10
0.0
 20
0.0
 30
0.0
  0
VERTEX
  5
3139
330
3138
100
AcDbEntity
  8
1
100
AcDbVertex
100
AcDb2dVertex
 10
4.606299212598425
 20
4.851377952755905
 30
0.0
  0
VERTEX
  5
313A
330
3138
100
AcDbEntity
  8
1
100
AcDbVertex
100
AcDb2dVertex
 10
4.600393700787401
 20
4.851377952755905
 30
0.0
  0
VERTEX
  5
313B
330
3138
100
AcDbEntity
  8
1
100
AcDbVertex
100
AcDb2dVertex
 10
4.598425196850393
 20
4.851377952755905
 30
0.0
  0
SEQEND
  5
313C
330
3138
100
AcDbEntity
  8
1
  0
POLYLINE
  5
313D
330
1F
100
AcDbEntity
  8
1
100
AcDb2dPolyline
 66
     1
 10
0.0
 20
0.0
 30
0.0
  0
VERTEX
  5
313E
330
313D
100
AcDbEntity
  8
1
100
AcDbVertex
100
AcDb2dVertex
 10
4.606299212598425
 20
4.81496062992126
 30
0.0
  0
VERTEX
  5
313F
330
313D
100
AcDbEntity
  8
1
100
AcDbVertex
100
AcDb2dVertex
 10
4.600393700787401
 20
4.81496062992126
 30
0.0
  0
VERTEX
  5
3140
330
313D
100
AcDbEntity
  8
1
100
AcDbVertex
100
AcDb2dVertex
 10
4.598425196850393
 20
4.81496062992126
 30
0.0
  0
SEQEND
  5
3141
330
313D
100
AcDbEntity
  8
1
  0
POLYLINE
  5
3142
330
1F
100
AcDbEntity
  8
1
100
AcDb2dPolyline
 66
     1
 10
0.0
 20
0.0
 30
0.0
  0
VERTEX
  5
3143
330
3142
100
AcDbEntity
  8
1
100
AcDbVertex
100
AcDb2dVertex
 10
4.606299212598425
 20
4.81496062992126
 30
0.0
  0
VERTEX
  5
3144
330
3142
100
AcDbEntity
  8
1
100
AcDbVertex
100
AcDb2dVertex
 10
4.607283464566928
 20
4.809055118110236
 30
0.0
  0
VERTEX
  5
3145
330
3142
100
AcDbEntity
  8
1
100
AcDbVertex
100
AcDb2dVertex
 10
4.607283464566928
 20
4.807086614173228
 30
0.0
  0
SEQEND
  5
3146
330
3142
100
AcDbEntity
  8
1
  0
POLYLINE
  5
3147
330
1F
100
AcDbEntity
  8
1
100
AcDb2dPolyline
 66
     1
 10
0.0
 20
0.0
 30
0.0
  0
VERTEX
  5
3148
330
3147
100
AcDbEntity
  8
1
100
AcDbVertex
100
AcDb2dVertex
 10
4.618110236220472
 20
4.815944881889763
 30
0.0
  0
VERTEX
  5
3149
330
3147
100
AcDbEntity
  8
1
100
AcDbVertex
100
AcDb2dVertex
 10
4.619094488188975
 20
4.811023622047244
 30
0.0
  0
VERTEX
  5
314A
330
3147
100
AcDbEntity
  8
1
100
AcDbVertex
100
AcDb2dVertex
 10
4.619094488188975
 20
4.809055118110236
 30
0.0
  0
SEQEND
  5
314B
330
3147
100
AcDbEntity
  8
1
  0
POLYLINE
  5
314C
330
1F
100
AcDbEntity
  8
1
100
AcDb2dPolyline
 66
     1
 10
0.0
 20
0.0
 30
0.0
  0
VERTEX
  5
314D
330
314C
100
AcDbEntity
  8
1
100
AcDbVertex
100
AcDb2dVertex
 10
4.618110236220472
 20
4.815944881889763
 30
0.0
  0
VERTEX
  5
314E
330
314C
100
AcDbEntity
  8
1
100
AcDbVertex
100
AcDb2dVertex
 10
4.622047244094487
 20
4.812007874015748
 30
0.0
  0
VERTEX
  5
314F
330
314C
100
AcDbEntity
  8
1
100
AcDbVertex
100
AcDb2dVertex
 10
4.623031496062991
 20
4.811023622047244
 30
0.0
  0
SEQEND
  5
3150
330
314C
100
AcDbEntity
  8
1
  0
POLYLINE
  5
3151
330
1F
100
AcDbEntity
  8
1
100
AcDb2dPolyline
 66
     1
 10
0.0
 20
0.0
 30
0.0
  0
VERTEX
  5
3152
330
3151
100
AcDbEntity
  8
1
100
AcDbVertex
100
AcDb2dVertex
 10
4.669291338582676
 20
4.863188976377952
 30
0.0
  0
VERTEX
  5
3153
330
3151
100
AcDbEntity
  8
1
100
AcDbVertex
100
AcDb2dVertex
 10
4.673228346456692
 20
4.858267716535433
 30
0.0
  0
VERTEX
  5
3154
330
3151
100
AcDbEntity
  8
1
100
AcDbVertex
100
AcDb2dVertex
 10
4.6751968503937
 20
4.857283464566928
 30
0.0
  0
SEQEND
  5
3155
330
3151
100
AcDbEntity
  8
1
  0
POLYLINE
  5
3156
330
1F
100
AcDbEntity
  8
1
100
AcDb2dPolyline
 66
     1
 10
0.0
 20
0.0
 30
0.0
  0
VERTEX
  5
3157
330
3156
100
AcDbEntity
  8
1
100
AcDbVertex
100
AcDb2dVertex
 10
4.68011811023622
 20
4.867125984251968
 30
0.0
  0
VERTEX
  5
3158
330
3156
100
AcDbEntity
  8
1
100
AcDbVertex
100
AcDb2dVertex
 10
4.68011811023622
 20
4.861220472440944
 30
0.0
  0
VERTEX
  5
3159
330
3156
100
AcDbEntity
  8
1
100
AcDbVertex
100
AcDb2dVertex
 10
4.68011811023622
 20
4.859251968503937
 30
0.0
  0
SEQEND
  5
315A
330
3156
100
AcDbEntity
  8
1
  0
POLYLINE
  5
315B
330
1F
100
AcDbEntity
  8
1
100
AcDb2dPolyline
 66
     1
 10
0.0
 20
0.0
 30
0.0
  0
VERTEX
  5
315C
330
315B
100
AcDbEntity
  8
1
100
AcDbVertex
100
AcDb2dVertex
 10
4.73523622047244
 20
4.867125984251968
 30
0.0
  0
VERTEX
  5
315D
330
315B
100
AcDbEntity
  8
1
100
AcDbVertex
100
AcDb2dVertex
 10
4.73523622047244
 20
4.861220472440944
 30
0.0
  0
VERTEX
  5
315E
330
315B
100
AcDbEntity
  8
1
100
AcDbVertex
100
AcDb2dVertex
 10
4.73523622047244
 20
4.859251968503937
 30
0.0
  0
SEQEND
  5
315F
330
315B
100
AcDbEntity
  8
1
  0
POLYLINE
  5
3160
330
1F
100
AcDbEntity
  8
1
100
AcDb2dPolyline
 66
     1
 10
0.0
 20
0.0
 30
0.0
  0
VERTEX
  5
3161
330
3160
100
AcDbEntity
  8
1
100
AcDbVertex
100
AcDb2dVertex
 10
4.747047244094487
 20
4.878937007874015
 30
0.0
  0
VERTEX
  5
3162
330
3160
100
AcDbEntity
  8
1
100
AcDbVertex
100
AcDb2dVertex
 10
4.752952755905512
 20
4.877952755905512
 30
0.0
  0
VERTEX
  5
3163
330
3160
100
AcDbEntity
  8
1
100
AcDbVertex
100
AcDb2dVertex
 10
4.754921259842519
 20
4.878937007874015
 30
0.0
  0
SEQEND
  5
3164
330
3160
100
AcDbEntity
  8
1
  0
POLYLINE
  5
3165
330
1F
100
AcDbEntity
  8
1
100
AcDb2dPolyline
 66
     1
 10
0.0
 20
0.0
 30
0.0
  0
VERTEX
  5
3166
330
3165
100
AcDbEntity
  8
1
100
AcDbVertex
100
AcDb2dVertex
 10
4.411417322834645
 20
6.317913385826771
 30
0.0
  0
VERTEX
  5
3167
330
3165
100
AcDbEntity
  8
1
100
AcDbVertex
100
AcDb2dVertex
 10
4.411417322834645
 20
6.312007874015748
 30
0.0
  0
VERTEX
  5
3168
330
3165
100
AcDbEntity
  8
1
100
AcDbVertex
100
AcDb2dVertex
 10
4.411417322834645
 20
6.310039370078739
 30
0.0
  0
SEQEND
  5
3169
330
3165
100
AcDbEntity
  8
1
  0
POLYLINE
  5
316A
330
1F
100
AcDbEntity
  8
1
100
AcDb2dPolyline
 66
     1
 10
0.0
 20
0.0
 30
0.0
  0
VERTEX
  5
316B
330
316A
100
AcDbEntity
  8
1
100
AcDbVertex
100
AcDb2dVertex
 10
4.632874015748031
 20
6.322834645669291
 30
0.0
  0
VERTEX
  5
316C
330
316A
100
AcDbEntity
  8
1
100
AcDbVertex
100
AcDb2dVertex
 10
4.632874015748031
 20
6.317913385826771
 30
0.0
  0
VERTEX
  5
316D
330
316A
100
AcDbEntity
  8
1
100
AcDbVertex
100
AcDb2dVertex
 10
4.632874015748031
 20
6.31496062992126
 30
0.0
  0
SEQEND
  5
316E
330
316A
100
AcDbEntity
  8
1
  0
POLYLINE
  5
316F
330
1F
100
AcDbEntity
  8
1
100
AcDb2dPolyline
 66
     1
 10
0.0
 20
0.0
 30
0.0
  0
VERTEX
  5
3170
330
316F
100
AcDbEntity
  8
1
100
AcDbVertex
100
AcDb2dVertex
 10
4.671259842519685
 20
6.323818897637795
 30
0.0
  0
VERTEX
  5
3171
330
316F
100
AcDbEntity
  8
1
100
AcDbVertex
100
AcDb2dVertex
 10
4.669291338582676
 20
6.318897637795275
 30
0.0
  0
VERTEX
  5
3172
330
316F
100
AcDbEntity
  8
1
100
AcDbVertex
100
AcDb2dVertex
 10
4.663385826771653
 20
6.315944881889763
 30
0.0
  0
SEQEND
  5
3173
330
316F
100
AcDbEntity
  8
1
  0
POLYLINE
  5
3174
330
1F
100
AcDbEntity
  8
1
100
AcDb2dPolyline
 66
     1
 10
0.0
 20
0.0
 30
0.0
  0
VERTEX
  5
3175
330
3174
100
AcDbEntity
  8
1
100
AcDbVertex
100
AcDb2dVertex
 10
4.411417322834645
 20
4.99507874015748
 30
0.0
  0
VERTEX
  5
3176
330
3174
100
AcDbEntity
  8
1
100
AcDbVertex
100
AcDb2dVertex
 10
4.411417322834645
 20
4.993110236220472
 30
0.0
  0
VERTEX
  5
3177
330
3174
100
AcDbEntity
  8
1
100
AcDbVertex
100
AcDb2dVertex
 10
4.411417322834645
 20
4.987204724409449
 30
0.0
  0
SEQEND
  5
3178
330
3174
100
AcDbEntity
  8
1
  0
POLYLINE
  5
3179
330
1F
100
AcDbEntity
  8
1
100
AcDb2dPolyline
 66
     1
 10
0.0
 20
0.0
 30
0.0
  0
VERTEX
  5
317A
330
3179
100
AcDbEntity
  8
1
100
AcDbVertex
100
AcDb2dVertex
 10
4.632874015748031
 20
4.989173228346456
 30
0.0
  0
VERTEX
  5
317B
330
3179
100
AcDbEntity
  8
1
100
AcDbVertex
100
AcDb2dVertex
 10
4.632874015748031
 20
4.987204724409449
 30
0.0
  0
VERTEX
  5
317C
330
3179
100
AcDbEntity
  8
1
100
AcDbVertex
100
AcDb2dVertex
 10
4.632874015748031
 20
4.981299212598425
 30
0.0
  0
SEQEND
  5
317D
330
3179
100
AcDbEntity
  8
1
  0
POLYLINE
  5
317E
330
1F
100
AcDbEntity
  8
1
100
AcDb2dPolyline
 66
     1
 10
0.0
 20
0.0
 30
0.0
  0
VERTEX
  5
317F
330
317E
100
AcDbEntity
  8
1
100
AcDbVertex
100
AcDb2dVertex
 10
4.663385826771653
 20
4.989173228346456
 30
0.0
  0
VERTEX
  5
3180
330
317E
100
AcDbEntity
  8
1
100
AcDbVertex
100
AcDb2dVertex
 10
4.669291338582676
 20
4.986220472440944
 30
0.0
  0
VERTEX
  5
3181
330
317E
100
AcDbEntity
  8
1
100
AcDbVertex
100
AcDb2dVertex
 10
4.671259842519685
 20
4.981299212598425
 30
0.0
  0
SEQEND
  5
3182
330
317E
100
AcDbEntity
  8
1
  0
ENDSEC
  0
SECTION
  2
OBJECTS
  0
DICTIONARY
  5
C
330
0
100
AcDbDictionary
281
     1
  3
ACAD_COLOR
350
34A9
  3
ACAD_GROUP
350
D
  3
ACAD_IMAGE_DICT
350
5A
  3
ACAD_LAYOUT
350
1A
  3
ACAD_MATERIAL
350
34A5
  3
ACAD_MLEADERSTYLE
350
34A3
  3
ACAD_MLINESTYLE
350
17
  3
ACAD_PLOTSETTINGS
350
19
  3
ACAD_PLOTSTYLENAME
350
E
  3
ACAD_TABLESTYLE
350
34A2
  3
ACAD_VISUALSTYLE
350
2A
  3
AcDbVariableDictionary
350
34AD
  0
DICTIONARY
  5
34A9
102
{ACAD_REACTORS
330
C
102
}
330
C
100
AcDbDictionary
281
     1
  0
DICTIONARY
  5
D
102
{ACAD_REACTORS
330
C
102
}
330
C
100
AcDbDictionary
281
     1
  0
DICTIONARY
  5
5A
102
{ACAD_REACTORS
330
C
102
}
330
C
100
AcDbDictionary
281
     1
  0
DICTIONARY
  5
1A
102
{ACAD_REACTORS
330
C
102
}
330
C
100
AcDbDictionary
281
     1
  3
Layout1
350
1E
  3
Layout2
350
26
  3
Model
350
22
  0
DICTIONARY
  5
34A5
102
{ACAD_REACTORS
330
C
102
}
330
C
100
AcDbDictionary
281
     1
  3
ByBlock
350
34A7
  3
ByLayer
350
34A6
  3
Global
350
34A8
  0
DICTIONARY
  5
34A3
102
{ACAD_REACTORS
330
C
102
}
330
C
100
AcDbDictionary
281
     1
  0
DICTIONARY
  5
17
102
{ACAD_REACTORS
330
C
102
}
330
C
100
AcDbDictionary
281
     1
  3
Standard
350
18
  0
DICTIONARY
  5
19
102
{ACAD_REACTORS
330
C
102
}
330
C
100
AcDbDictionary
281
     1
  0
ACDBDICTIONARYWDFLT
  5
E
102
{ACAD_REACTORS
330
C
102
}
330
C
100
AcDbDictionary
281
     1
  3
Normal
350
F
100
AcDbDictionaryWithDefault
340
F
  0
DICTIONARY
  5
34A2
102
{ACAD_REACTORS
330
C
102
}
330
C
100
AcDbDictionary
281
     1
  3
Standard
350
34AA
  0
DICTIONARY
  5
2A
102
{ACAD_REACTORS
330
C
102
}
330
C
100
AcDbDictionary
281
     1
  3
2dWireframe
350
2F
  3
3D Hidden
350
31
  3
3dWireframe
350
30
  3
Basic
350
32
  3
Brighten
350
36
  3
ColorChange
350
3A
  3
Conceptual
350
34
  3
Dim
350
35
  3
Facepattern
350
39
  3
Flat
350
2B
  3
FlatWithEdges
350
2C
  3
Gouraud
350
2D
  3
GouraudWithEdges
350
2E
  3
Linepattern
350
38
  3
Realistic
350
33
  3
Thicken
350
37
  0
DICTIONARY
  5
34AD
102
{ACAD_REACTORS
330
C
102
}
330
C
100
AcDbDictionary
281
     1
  3
CTABLESTYLE
350
34AE
  0
LAYOUT
  5
1E
102
{ACAD_REACTORS
330
1A
102
}
330
1A
100
AcDbPlotSettings
  1

  2
none_device
  4

  6

 40
0.0
 41
0.0
 42
0.0
 43
0.0
 44
0.0
 45
0.0
 46
0.0
 47
0.0
 48
0.0
 49
0.0
140
0.0
141
0.0
142
1.0
143
1.0
 70
   688
 72
     0
 73
     0
 74
     5
  7

 75
    16
147
1.0
 76
     0
 77
     2
 78
   300
148
0.0
149
0.0
100
AcDbLayout
  1
Layout1
 70
     1
 71
     1
 10
0.0
 20
0.0
 11
12.0
 21
9.0
 12
0.0
 22
0.0
 32
0.0
 14
1.000000000000000E+20
 24
1.000000000000000E+20
 34
1.000000000000000E+20
 15
-1.000000000000000E+20
 25
-1.000000000000000E+20
 35
-1.000000000000000E+20
146
0.0
 13
0.0
 23
0.0
 33
0.0
 16
1.0
 26
0.0
 36
0.0
 17
0.0
 27
1.0
 37
0.0
 76
     0
330
1B
  0
LAYOUT
  5
26
102
{ACAD_REACTORS
330
1A
102
}
330
1A
100
AcDbPlotSettings
  1

  2
none_device
  4

  6

 40
0.0
 41
0.0
 42
0.0
 43
0.0
 44
0.0
 45
0.0
 46
0.0
 47
0.0
 48
0.0
 49
0.0
140
0.0
141
0.0
142
1.0
143
1.0
 70
   688
 72
     0
 73
     0
 74
     5
  7

 75
    16
147
1.0
 76
     0
 77
     2
 78
   300
148
0.0
149
0.0
100
AcDbLayout
  1
Layout2
 70
     1
 71
     2
 10
0.0
 20
0.0
 11
0.0
 21
0.0
 12
0.0
 22
0.0
 32
0.0
 14
0.0
 24
0.0
 34
0.0
 15
0.0
 25
0.0
 35
0.0
146
0.0
 13
0.0
 23
0.0
 33
0.0
 16
1.0
 26
0.0
 36
0.0
 17
0.0
 27
1.0
 37
0.0
 76
     0
330
23
  0
LAYOUT
  5
22
102
{ACAD_REACTORS
330
1A
102
}
330
1A
100
AcDbPlotSettings
  1

  2
none_device
  4

  6

 40
0.0
 41
0.0
 42
0.0
 43
0.0
 44
0.0
 45
0.0
 46
0.0
 47
0.0
 48
0.0
 49
0.0
140
0.0
141
0.0
142
1.0
143
1.0
 70
  1712
 72
     0
 73
     0
 74
     0
  7

 75
     0
147
1.0
 76
     0
 77
     2
 78
   300
148
0.0
149
0.0
100
AcDbLayout
  1
Model
 70
     1
 71
     0
 10
0.0
 20
0.0
 11
12.0
 21
9.0
 12
0.0
 22
0.0
 32
0.0
 14
1.000000000000000E+20
 24
1.000000000000000E+20
 34
1.000000000000000E+20
 15
-1.000000000000000E+20
 25
-1.000000000000000E+20
 35
-1.000000000000000E+20
146
0.0
 13
0.0
 23
0.0
 33
0.0
 16
1.0
 26
0.0
 36
0.0
 17
0.0
 27
1.0
 37
0.0
 76
     0
330
1F
331
29
  0
MATERIAL
  5
34A7
102
{ACAD_REACTORS
330
34A5
102
}
330
34A5
100
AcDbMaterial
  1
ByBlock
  0
MATERIAL
  5
34A6
102
{ACAD_REACTORS
330
34A5
102
}
330
34A5
100
AcDbMaterial
  1
ByLayer
  0
MATERIAL
  5
34A8
102
{ACAD_REACTORS
330
34A5
102
}
330
34A5
100
AcDbMaterial
  1
Global
  0
MLINESTYLE
  5
18
102
{ACAD_REACTORS
330
17
102
}
330
17
100
AcDbMlineStyle
  2
STANDARD
 70
     0
  3

 62
   256
 51
90.0
 52
90.0
 71
     2
 49
0.5
 62
   256
  6
BYLAYER
 49
-0.5
 62
   256
  6
BYLAYER
  0
ACDBPLACEHOLDER
  5
F
102
{ACAD_REACTORS
330
E
102
}
330
E
  0
TABLESTYLE
  5
34AA
102
{ACAD_REACTORS
330
34A2
102
}
330
34A2
100
AcDbTableStyle
  3
Standard
 70
     0
 71
     0
 40
0.06
 41
0.06
280
     0
281
     0
  7
Standard
140
0.18
170
     2
 62
     0
 63
     7
283
     0
 90
      512
 91
        0
  1

274
    -2
284
     1
 64
     0
275
    -2
285
     1
 65
     0
276
    -2
286
     1
 66
     0
277
    -2
287
     1
 67
     0
278
    -2
288
     1
 68
     0
279
    -2
289
     1
 69
     0
  7
Standard
140
0.25
170
     5
 62
     0
 63
     7
283
     0
 90
      512
 91
        0
  1

274
    -2
284
     1
 64
     0
275
    -2
285
     1
 65
     0
276
    -2
286
     1
 66
     0
277
    -2
287
     1
 67
     0
278
    -2
288
     1
 68
     0
279
    -2
289
     1
 69
     0
  7
Standard
140
0.18
170
     5
 62
     0
 63
     7
283
     0
 90
      512
 91
        0
  1

274
    -2
284
     1
 64
     0
275
    -2
285
     1
 65
     0
276
    -2
286
     1
 66
     0
277
    -2
287
     1
 67
     0
278
    -2
288
     1
 68
     0
279
    -2
289
     1
 69
     0
  0
VISUALSTYLE
  5
2F
102
{ACAD_REACTORS
330
2A
102
}
330
2A
100
AcDbVisualStyle
  2
2dWireframe
 70
     4
 71
     0
 72
     2
 73
     0
 90
        0
 40
-0.6
 41
-30.0
 62
     5
 63
     7
 74
     1
 91
        4
 64
     7
 65
   257
 75
     1
175
     1
 42
1.0
 92
        0
 66
   257
 43
1.0
 76
     1
 77
     6
 78
     2
 67
     7
 79
     5
170
     0
171
     0
290
     0
174
     0
 93
        1
 44
0.0
173
     0
291
     0
 45
0.0
  0
VISUALSTYLE
  5
31
102
{ACAD_REACTORS
330
2A
102
}
330
2A
100
AcDbVisualStyle
  2
3D Hidden
 70
     6
 71
     1
 72
     2
 73
     2
 90
        0
 40
-0.6
 41
-30.0
 62
     5
 63
     7
 74
     2
 91
        2
 64
     7
 65
   257
 75
     2
175
     1
 42
40.0
 92
        0
 66
   257
 43
1.0
 76
     1
 77
     6
 78
     2
 67
     7
 79
     3
170
     0
171
     0
290
     0
174
     0
 93
        1
 44
0.0
173
     0
291
     0
 45
0.0
  0
VISUALSTYLE
  5
30
102
{ACAD_REACTORS
330
2A
102
}
330
2A
100
AcDbVisualStyle
  2
3dWireframe
 70
     5
 71
     0
 72
     2
 73
     0
 90
        0
 40
-0.6
 41
-30.0
 62
     5
 63
     7
 74
     1
 91
        4
 64
     7
 65
   257
 75
     1
175
     1
 42
1.0
 92
        0
 66
   257
 43
1.0
 76
     1
 77
     6
 78
     2
 67
     7
 79
     5
170
     0
171
     0
290
     0
174
     0
 93
        1
 44
0.0
173
     0
291
     0
 45
0.0
  0
VISUALSTYLE
  5
32
102
{ACAD_REACTORS
330
2A
102
}
330
2A
100
AcDbVisualStyle
  2
Basic
 70
     7
 71
     1
 72
     0
 73
     1
 90
        0
 40
-0.6
 41
-30.0
 62
     5
 63
     7
 74
     0
 91
        4
 64
     7
 65
   257
 75
     1
175
     1
 42
1.0
 92
        8
 66
     7
 43
1.0
 76
     1
 77
     6
 78
     2
 67
     7
 79
     5
170
     0
171
     0
290
     0
174
     0
 93
        1
 44
0.0
173
     0
291
     1
 45
0.0
  0
VISUALSTYLE
  5
36
102
{ACAD_REACTORS
330
2A
102
}
330
2A
100
AcDbVisualStyle
  2
Brighten
 70
    12
 71
     2
 72
     2
 73
     0
 90
        0
 40
-0.6
 41
-30.0
 62
     5
 63
     7
 74
     1
 91
        4
 64
     7
 65
   257
 75
     1
175
     1
 42
1.0
 92
        8
 66
     7
 43
1.0
 76
     1
 77
     6
 78
     2
 67
     7
 79
     5
170
     0
171
     0
290
     0
174
     0
 93
        1
 44
50.0
173
     0
291
     1
 45
0.0
  0
VISUALSTYLE
  5
3A
102
{ACAD_REACTORS
330
2A
102
}
330
2A
100
AcDbVisualStyle
  2
ColorChange
 70
    16
 71
     2
 72
     2
 73
     3
 90
        0
 40
-0.6
 41
-30.0
 62
     5
 63
     8
 74
     1
 91
        4
 64
     7
 65
   257
 75
     1
175
     1
 42
1.0
 92
        8
 66
     8
 43
1.0
 76
     1
 77
     6
 78
     2
 67
     7
 79
     5
170
     0
171
     0
290
     0
174
     0
 93
        1
 44
0.0
173
     0
291
     1
 45
0.0
  0
VISUALSTYLE
  5
34
102
{ACAD_REACTORS
330
2A
102
}
330
2A
100
AcDbVisualStyle
  2
Conceptual
 70
     9
 71
     3
 72
     2
 73
     0
 90
        0
 40
-0.6
 41
-30.0
 62
     5
 63
     7
 74
     2
 91
        2
 64
     7
 65
   257
 75
     1
175
     1
 42
40.0
 92
        8
 66
     7
 43
1.0
 76
     1
 77
     6
 78
     2
 67
     7
 79
     3
170
     0
171
     0
290
     0
174
     0
 93
        1
 44
0.0
173
     0
291
     0
 45
0.0
  0
VISUALSTYLE
  5
35
102
{ACAD_REACTORS
330
2A
102
}
330
2A
100
AcDbVisualStyle
  2
Dim
 70
    11
 71
     2
 72
     2
 73
     0
 90
        0
 40
-0.6
 41
-30.0
 62
     5
 63
     7
 74
     1
 91
        4
 64
     7
 65
   257
 75
     1
175
     1
 42
1.0
 92
        8
 66
     7
 43
1.0
 76
     1
 77
     6
 78
     2
 67
     7
 79
     5
170
     0
171
     0
290
     0
174
     0
 93
        1
 44
-50.0
173
     0
291
     1
 45
0.0
  0
VISUALSTYLE
  5
39
102
{ACAD_REACTORS
330
2A
102
}
330
2A
100
AcDbVisualStyle
  2
Facepattern
 70
    15
 71
     2
 72
     2
 73
     0
 90
        0
 40
-0.6
 41
-30.0
 62
     5
 63
     7
 74
     1
 91
        4
 64
     7
 65
   257
 75
     1
175
     1
 42
1.0
 92
        8
 66
     7
 43
1.0
 76
     1
 77
     6
 78
     2
 67
     7
 79
     5
170
     0
171
     0
290
     0
174
     0
 93
        1
 44
0.0
173
     0
291
     1
 45
0.0
  0
VISUALSTYLE
  5
2B
102
{ACAD_REACTORS
330
2A
102
}
330
2A
100
AcDbVisualStyle
  2
Flat
 70
     0
 71
     2
 72
     1
 73
     1
 90
        2
 40
-0.6
 41
30.0
 62
     5
 63
     7
 74
     0
 91
        4
 64
     7
 65
   257
 75
     1
175
     1
 42
1.0
 92
        8
 66
     7
 43
1.0
 76
     1
 77
     6
 78
     2
 67
     7
 79
     5
170
     0
171
     0
290
     0
174
     0
 93
       13
 44
0.0
173
     0
291
     1
 45
0.0
  0
VISUALSTYLE
  5
2C
102
{ACAD_REACTORS
330
2A
102
}
330
2A
100
AcDbVisualStyle
  2
FlatWithEdges
 70
     1
 71
     2
 72
     1
 73
     1
 90
        2
 40
-0.6
 41
30.0
 62
     5
 63
     7
 74
     1
 91
        4
 64
     7
 65
   257
 75
     1
175
     1
 42
1.0
 92
        0
 66
   257
 43
1.0
 76
     1
 77
     6
 78
     2
 67
     7
 79
     5
170
     0
171
     0
290
     0
174
     0
 93
       13
 44
0.0
173
     0
291
     1
 45
0.0
  0
VISUALSTYLE
  5
2D
102
{ACAD_REACTORS
330
2A
102
}
330
2A
100
AcDbVisualStyle
  2
Gouraud
 70
     2
 71
     2
 72
     2
 73
     1
 90
        2
 40
-0.6
 41
30.0
 62
     5
 63
     7
 74
     0
 91
        4
 64
     7
 65
   257
 75
     1
175
     1
 42
1.0
 92
        0
 66
     7
 43
1.0
 76
     1
 77
     6
 78
     2
 67
     7
 79
     5
170
     0
171
     0
290
     0
174
     0
 93
       13
 44
0.0
173
     0
291
     1
 45
0.0
  0
VISUALSTYLE
  5
2E
102
{ACAD_REACTORS
330
2A
102
}
330
2A
100
AcDbVisualStyle
  2
GouraudWithEdges
 70
     3
 71
     2
 72
     2
 73
     1
 90
        2
 40
-0.6
 41
30.0
 62
     5
 63
     7
 74
     1
 91
        4
 64
     7
 65
   257
 75
     1
175
     1
 42
1.0
 92
        0
 66
   257
 43
1.0
 76
     1
 77
     6
 78
     2
 67
     7
 79
     5
170
     0
171
     0
290
     0
174
     0
 93
       13
 44
0.0
173
     0
291
     1
 45
0.0
  0
VISUALSTYLE
  5
38
102
{ACAD_REACTORS
330
2A
102
}
330
2A
100
AcDbVisualStyle
  2
Linepattern
 70
    14
 71
     2
 72
     2
 73
     0
 90
        0
 40
-0.6
 41
-30.0
 62
     5
 63
     7
 74
     1
 91
        4
 64
     7
 65
   257
 75
     7
175
     7
 42
1.0
 92
        8
 66
     7
 43
1.0
 76
     1
 77
     6
 78
     2
 67
     7
 79
     5
170
     0
171
     0
290
     0
174
     0
 93
        1
 44
0.0
173
     0
291
     1
 45
0.0
  0
VISUALSTYLE
  5
33
102
{ACAD_REACTORS
330
2A
102
}
330
2A
100
AcDbVisualStyle
  2
Realistic
 70
     8
 71
     2
 72
     2
 73
     0
 90
        0
 40
-0.6
 41
-30.0
 62
     5
 63
     7
 74
     1
 91
        0
 64
     7
 65
   257
 75
     1
175
     1
 42
1.0
 92
        8
 66
     8
 43
1.0
 76
     1
 77
     6
 78
     2
 67
     7
 79
     5
170
     0
171
     0
290
     0
174
     0
 93
       13
 44
0.0
173
     0
291
     0
 45
0.0
  0
VISUALSTYLE
  5
37
102
{ACAD_REACTORS
330
2A
102
}
330
2A
100
AcDbVisualStyle
  2
Thicken
 70
    13
 71
     2
 72
     2
 73
     0
 90
        0
 40
-0.6
 41
-30.0
 62
     5
 63
     7
 74
     1
 91
        4
 64
     7
 65
   257
 75
     1
175
     1
 42
1.0
 92
       12
 66
     7
 43
1.0
 76
     1
 77
     6
 78
     2
 67
     7
 79
     5
170
     0
171
     0
290
     0
174
     0
 93
        1
 44
0.0
173
     0
291
     1
 45
0.0
  0
DICTIONARYVAR
  5
34AE
102
{ACAD_REACTORS
330
34AD
102
}
330
34AD
100
DictionaryVariables
280
     0
  1
STANDARD
  0
ENDSEC
  0
EOF
