  0
SECTION
  2
HEADER
  9
$ACADVER
  1
AC1012
  9
$DWGCODEPAGE
  3
ANSI_1252
  9
$INSBASE
 10
0.0
 20
0.0
 30
0.0
  9
$EXTMIN
 10
-1.03674313732975
 20
3.894378687597786
 30
-0.0015258207003583
  9
$EXTMAX
 10
7.422729514798533
 20
7.280914325594103
 30
0.0000000349246037
  9
$LIMMIN
 10
0.0
 20
0.0
  9
$LIMMAX
 10
12.0
 20
9.0
  9
$ORTHOMODE
 70
     0
  9
$REGENMODE
 70
     1
  9
$FILLMODE
 70
     1
  9
$QTEXTMODE
 70
     0
  9
$MIRRTEXT
 70
     1
  9
$DRAGMODE
 70
     2
  9
$LTSCALE
 40
1.0
  9
$OSMODE
 70
   547
  9
$ATTMODE
 70
     1
  9
$TEXTSIZE
 40
0.2
  9
$TRACEWID
 40
0.05
  9
$TEXTSTYLE
  7
STANDARD
  9
$CLAYER
  8
0
  9
$CELTYPE
  6
BYLAYER
  9
$CECOLOR
 62
   256
  9
$CELTSCALE
 40
1.0
  9
$DELOBJ
 70
     1
  9
$DISPSILH
 70
     0
  9
$DIMSCALE
 40
1.0
  9
$DIMASZ
 40
0.18
  9
$DIMEXO
 40
0.0625
  9
$DIMDLI
 40
0.38
  9
$DIMRND
 40
0.0
  9
$DIMDLE
 40
0.0
  9
$DIMEXE
 40
0.18
  9
$DIMTP
 40
0.0
  9
$DIMTM
 40
0.0
  9
$DIMTXT
 40
0.18
  9
$DIMCEN
 40
0.09
  9
$DIMTSZ
 40
0.0
  9
$DIMTOL
 70
     0
  9
$DIMLIM
 70
     0
  9
$DIMTIH
 70
     1
  9
$DIMTOH
 70
     1
  9
$DIMSE1
 70
     0
  9
$DIMSE2
 70
     0
  9
$DIMTAD
 70
     0
  9
$DIMZIN
 70
     0
  9
$DIMBLK
  1

  9
$DIMASO
 70
     1
  9
$DIMSHO
 70
     1
  9
$DIMPOST
  1

  9
$DIMAPOST
  1

  9
$DIMALT
 70
     0
  9
$DIMALTD
 70
     2
  9
$DIMALTF
 40
25.4
  9
$DIMLFAC
 40
1.0
  9
$DIMTOFL
 70
     0
  9
$DIMTVP
 40
0.0
  9
$DIMTIX
 70
     0
  9
$DIMSOXD
 70
     0
  9
$DIMSAH
 70
     0
  9
$DIMBLK1
  1

  9
$DIMBLK2
  1

  9
$DIMSTYLE
  2
STANDARD
  9
$DIMCLRD
 70
     0
  9
$DIMCLRE
 70
     0
  9
$DIMCLRT
 70
     0
  9
$DIMTFAC
 40
1.0
  9
$DIMGAP
 40
0.09
  9
$DIMJUST
 70
     0
  9
$DIMSD1
 70
     0
  9
$DIMSD2
 70
     0
  9
$DIMTOLJ
 70
     1
  9
$DIMTZIN
 70
     0
  9
$DIMALTZ
 70
     0
  9
$DIMALTTZ
 70
     0
  9
$DIMFIT
 70
     5
  9
$DIMUPT
 70
     0
  9
$DIMUNIT
 70
     2
  9
$DIMDEC
 70
     4
  9
$DIMTDEC
 70
     4
  9
$DIMALTU
 70
     2
  9
$DIMALTTD
 70
     2
  9
$DIMTXSTY
  7
STANDARD
  9
$DIMAUNIT
 70
     0
  9
$LUNITS
 70
     2
  9
$LUPREC
 70
     4
  9
$SKETCHINC
 40
0.1
  9
$FILLETRAD
 40
0.0
  9
$AUNITS
 70
     0
  9
$AUPREC
 70
     0
  9
$MENU
  1
acad
  9
$ELEVATION
 40
0.0
  9
$PELEVATION
 40
0.0
  9
$THICKNESS
 40
0.0
  9
$LIMCHECK
 70
     0
  9
$BLIPMODE
 70
     0
  9
$CHAMFERA
 40
0.0
  9
$CHAMFERB
 40
0.0
  9
$CHAMFERC
 40
0.0
  9
$CHAMFERD
 40
0.0
  9
$SKPOLY
 70
     0
  9
$TDCREATE
 40
2453946.323252314
  9
$TDUPDATE
 40
2453946.335868426
  9
$TDINDWG
 40
0.0030917245
  9
$TDUSRTIMER
 40
0.0030917245
  9
$USRTIMER
 70
     1
  9
$ANGBASE
 50
0.0
  9
$ANGDIR
 70
     0
  9
$PDMODE
 70
     0
  9
$PDSIZE
 40
0.0
  9
$PLINEWID
 40
0.0
  9
$COORDS
 70
     1
  9
$SPLFRAME
 70
     0
  9
$SPLINETYPE
 70
     6
  9
$SPLINESEGS
 70
     8
  9
$ATTDIA
 70
     0
  9
$ATTREQ
 70
     1
  9
$HANDLING
 70
  4097
  9
$HANDSEED
  5
5605
  9
$SURFTAB1
 70
     6
  9
$SURFTAB2
 70
     6
  9
$SURFTYPE
 70
     6
  9
$SURFU
 70
     6
  9
$SURFV
 70
     6
  9
$UCSNAME
  2

  9
$UCSORG
 10
0.0
 20
0.0
 30
0.0
  9
$UCSXDIR
 10
1.0
 20
0.0
 30
0.0
  9
$UCSYDIR
 10
0.0
 20
1.0
 30
0.0
  9
$PUCSNAME
  2

  9
$PUCSORG
 10
0.0
 20
0.0
 30
0.0
  9
$PUCSXDIR
 10
1.0
 20
0.0
 30
0.0
  9
$PUCSYDIR
 10
0.0
 20
1.0
 30
0.0
  9
$USERI1
 70
     0
  9
$USERI2
 70
     0
  9
$USERI3
 70
     0
  9
$USERI4
 70
     0
  9
$USERI5
 70
     0
  9
$USERR1
 40
0.0
  9
$USERR2
 40
0.0
  9
$USERR3
 40
0.0
  9
$USERR4
 40
0.0
  9
$USERR5
 40
0.0
  9
$WORLDVIEW
 70
     1
  9
$SHADEDGE
 70
     3
  9
$SHADEDIF
 70
    70
  9
$TILEMODE
 70
     1
  9
$MAXACTVP
 70
    16
  9
$PINSBASE
 10
0.0
 20
0.0
 30
0.0
  9
$PLIMCHECK
 70
     0
  9
$PEXTMIN
 10
1.000000000000000E+20
 20
1.000000000000000E+20
 30
1.000000000000000E+20
  9
$PEXTMAX
 10
-1.000000000000000E+20
 20
-1.000000000000000E+20
 30
-1.000000000000000E+20
  9
$PLIMMIN
 10
0.0
 20
0.0
  9
$PLIMMAX
 10
12.0
 20
9.0
  9
$UNITMODE
 70
     0
  9
$VISRETAIN
 70
     0
  9
$PLINEGEN
 70
     0
  9
$PSLTSCALE
 70
     1
  9
$TREEDEPTH
 70
  3020
  9
$PICKSTYLE
 70
     1
  9
$CMLSTYLE
  2
STANDARD
  9
$CMLJUST
 70
     0
  9
$CMLSCALE
 40
1.0
  9
$SAVEIMAGES
 70
     1
  0
ENDSEC
  0
SECTION
  2
CLASSES
  0
CLASS
  1
ACDBDICTIONARYWDFLT
  2
AcDbDictionaryWithDefault
  3
AutoCAD 2000
 90
    32768
280
     0
281
     0
  0
CLASS
  1
ACDBPLACEHOLDER
  2
AcDbPlaceHolder
  3
AutoCAD 2000
 90
    32768
280
     0
281
     0
  0
CLASS
  1
LAYOUT
  2
AcDbLayout
  3
AutoCAD 2000
 90
    32768
280
     0
281
     0
  0
CLASS
  1
LONG_TRANSACTION
  2
AcDbLongTransaction
  3
AutoCAD 2000
 90
    32768
280
     0
281
     0
  0
CLASS
  1
LWPOLYLINE
  2
AcDbPolyline
  3
AutoCAD 2000
 90
    32768
280
     0
281
     1
  0
CLASS
  1
HATCH
  2
AcDbHatch
  3
AutoCAD 2000
 90
    32768
280
     0
281
     1
  0
CLASS
  1
XRECORD
  2
AcDbXrecord
  3
AutoCAD 2000
 90
    32768
280
     0
281
     0
  0
ENDSEC
  0
SECTION
  2
TABLES
  0
TABLE
  2
VPORT
  5
8
330
0
100
AcDbSymbolTable
 70
     5
  0
VPORT
  5
5600
330
8
100
AcDbSymbolTableRecord
100
AcDbViewportTableRecord
  2
*ACTIVE
 70
     0
 10
0.0
 20
0.0
 11
1.0
 21
1.0
 12
3.192993188734391
 22
5.587646506595944
 13
0.0
 23
0.0
 14
1.0
 24
1.0
 15
0.0
 25
0.0
 16
0.0
 26
0.0
 36
1.0
 17
0.0
 27
0.0
 37
0.0
 40
5.166923029858505
 41
1.647569444444444
 42
50.0
 43
0.0
 44
0.0
 50
0.0
 51
0.0
 71
     0
 72
   100
 73
     1
 74
     1
 75
     0
 76
     0
 77
     0
 78
     0
  0
ENDTAB
  0
TABLE
  2
LTYPE
  5
5
330
0
100
AcDbSymbolTable
 70
    25
  0
LTYPE
  5
13
330
5
100
AcDbSymbolTableRecord
100
AcDbLinetypeTableRecord
  2
BYBLOCK
 70
     0
  3

 72
    65
 73
     0
 40
0.0
  0
LTYPE
  5
14
330
5
100
AcDbSymbolTableRecord
100
AcDbLinetypeTableRecord
  2
BYLAYER
 70
     0
  3

 72
    65
 73
     0
 40
0.0
  0
LTYPE
  5
15
330
5
100
AcDbSymbolTableRecord
100
AcDbLinetypeTableRecord
  2
CONTINUOUS
 70
     0
  3
Solid line
 72
    65
 73
     0
 40
0.0
  0
LTYPE
  5
22
330
5
100
AcDbSymbolTableRecord
100
AcDbLinetypeTableRecord
  2
BORDER
 70
     0
  3
__ __ . __ __ . __ __ . __ __ . __ __ . __ __ .
 72
    65
 73
     6
 40
1.75
 49
0.5
 74
     0
 49
-0.25
 74
     0
 49
0.5
 74
     0
 49
-0.25
 74
     0
 49
0.5
 74
     0
 49
-0.25
 74
     0
  0
LTYPE
  5
23
330
5
100
AcDbSymbolTableRecord
100
AcDbLinetypeTableRecord
  2
BORDER2
 70
     0
  3
__.__.__.__.__.__.__.__.
 72
    65
 73
     6
 40
0.875
 49
0.25
 74
     0
 49
-0.125
 74
     0
 49
0.25
 74
     0
 49
-0.125
 74
     0
 49
0.25
 74
     0
 49
-0.125
 74
     0
  0
LTYPE
  5
24
330
5
100
AcDbSymbolTableRecord
100
AcDbLinetypeTableRecord
  2
BORDERX2
 70
     0
  3
____  ____  .  
 72
    65
 73
     6
 40
3.5
 49
1.0
 74
     0
 49
-0.5
 74
     0
 49
1.0
 74
     0
 49
-0.5
 74
     0
 49
1.0
 74
     0
 49
-0.5
 74
     0
  0
LTYPE
  5
25
330
5
100
AcDbSymbolTableRecord
100
AcDbLinetypeTableRecord
  2
CENTER
 70
     0
  3
____ _ ____ _ ____ _ 
 72
    65
 73
     4
 40
2.0
 49
1.25
 74
     0
 49
-0.25
 74
     0
 49
0.25
 74
     0
 49
-0.25
 74
     0
  0
LTYPE
  5
26
330
5
100
AcDbSymbolTableRecord
100
AcDbLinetypeTableRecord
  2
CENTER2
 70
     0
  3
____ _ ____ _ ____ _ 
 72
    65
 73
     4
 40
1.125
 49
0.75
 74
     0
 49
-0.125
 74
     0
 49
0.125
 74
     0
 49
-0.125
 74
     0
  0
LTYPE
  5
27
330
5
100
AcDbSymbolTableRecord
100
AcDbLinetypeTableRecord
  2
CENTERX2
 70
     0
  3
________  __  
 72
    65
 73
     4
 40
4.0
 49
2.5
 74
     0
 49
-0.5
 74
     0
 49
0.5
 74
     0
 49
-0.5
 74
     0
  0
LTYPE
  5
28
330
5
100
AcDbSymbolTableRecord
100
AcDbLinetypeTableRecord
  2
DASHDOT
 70
     0
  3
__ . __ . __ . __ . 
 72
    65
 73
     4
 40
1.0
 49
0.5
 74
     0
 49
-0.25
 74
     0
 49
0.0
 74
     0
 49
-0.25
 74
     0
  0
LTYPE
  5
29
330
5
100
AcDbSymbolTableRecord
100
AcDbLinetypeTableRecord
  2
DASHDOT2
 70
     0
  3
_._._._._._._._._.
 72
    65
 73
     4
 40
0.5
 49
0.25
 74
     0
 49
-0.125
 74
     0
 49
0.0
 74
     0
 49
-0.125
 74
     0
  0
LTYPE
  5
2A
330
5
100
AcDbSymbolTableRecord
100
AcDbLinetypeTableRecord
  2
DASHDOTX2
 70
     0
  3
____  .  ____  .  
 72
    65
 73
     4
 40
2.0
 49
1.0
 74
     0
 49
-0.5
 74
     0
 49
0.0
 74
     0
 49
-0.5
 74
     0
  0
LTYPE
  5
2B
330
5
100
AcDbSymbolTableRecord
100
AcDbLinetypeTableRecord
  2
DASHED
 70
     0
  3
__ __ __ __ __ __ __ 
 72
    65
 73
     2
 40
0.75
 49
0.5
 74
     0
 49
-0.25
 74
     0
  0
LTYPE
  5
2C
330
5
100
AcDbSymbolTableRecord
100
AcDbLinetypeTableRecord
  2
DASHED2
 70
     0
  3
_ _ _ _ _ _ _ _ _ _ 
 72
    65
 73
     2
 40
0.375
 49
0.25
 74
     0
 49
-0.125
 74
     0
  0
LTYPE
  5
2D
330
5
100
AcDbSymbolTableRecord
100
AcDbLinetypeTableRecord
  2
DASHEDX2
 70
     0
  3
____  ____  ____  
 72
    65
 73
     2
 40
1.5
 49
1.0
 74
     0
 49
-0.5
 74
     0
  0
LTYPE
  5
2E
330
5
100
AcDbSymbolTableRecord
100
AcDbLinetypeTableRecord
  2
DIVIDE
 70
     0
  3
____ . . ____ . . 
 72
    65
 73
     6
 40
1.25
 49
0.5
 74
     0
 49
-0.25
 74
     0
 49
0.0
 74
     0
 49
-0.25
 74
     0
 49
0.0
 74
     0
 49
-0.25
 74
     0
  0
LTYPE
  5
2F
330
5
100
AcDbSymbolTableRecord
100
AcDbLinetypeTableRecord
  2
DIVIDE2
 70
     0
  3
__..__..__..__..__..
 72
    65
 73
     6
 40
0.625
 49
0.25
 74
     0
 49
-0.125
 74
     0
 49
0.0
 74
     0
 49
-0.125
 74
     0
 49
0.0
 74
     0
 49
-0.125
 74
     0
  0
LTYPE
  5
30
330
5
100
AcDbSymbolTableRecord
100
AcDbLinetypeTableRecord
  2
DIVIDEX2
 70
     0
  3
________  .  .  
 72
    65
 73
     6
 40
2.5
 49
1.0
 74
     0
 49
-0.5
 74
     0
 49
0.0
 74
     0
 49
-0.5
 74
     0
 49
0.0
 74
     0
 49
-0.5
 74
     0
  0
LTYPE
  5
31
330
5
100
AcDbSymbolTableRecord
100
AcDbLinetypeTableRecord
  2
DOT
 70
     0
  3
. . . . . . . . . 
 72
    65
 73
     2
 40
0.25
 49
0.0
 74
     0
 49
-0.25
 74
     0
  0
LTYPE
  5
32
330
5
100
AcDbSymbolTableRecord
100
AcDbLinetypeTableRecord
  2
DOT2
 70
     0
  3
..................
 72
    65
 73
     2
 40
0.125
 49
0.0
 74
     0
 49
-0.125
 74
     0
  0
LTYPE
  5
33
330
5
100
AcDbSymbolTableRecord
100
AcDbLinetypeTableRecord
  2
DOTX2
 70
     0
  3
.  .  .  .  .  .  
 72
    65
 73
     2
 40
0.5
 49
0.0
 74
     0
 49
-0.5
 74
     0
  0
LTYPE
  5
34
330
5
100
AcDbSymbolTableRecord
100
AcDbLinetypeTableRecord
  2
HIDDEN
 70
     0
  3
__ __ __ __ __ __ 
 72
    65
 73
     2
 40
0.375
 49
0.25
 74
     0
 49
-0.125
 74
     0
  0
LTYPE
  5
35
330
5
100
AcDbSymbolTableRecord
100
AcDbLinetypeTableRecord
  2
HIDDEN2
 70
     0
  3
_ _ _ _ _ _ _ _ _ 
 72
    65
 73
     2
 40
0.1875
 49
0.125
 74
     0
 49
-0.0625
 74
     0
  0
LTYPE
  5
36
330
5
100
AcDbSymbolTableRecord
100
AcDbLinetypeTableRecord
  2
HIDDENX2
 70
     0
  3
____ ____ ____ ____ 
 72
    65
 73
     2
 40
0.75
 49
0.5
 74
     0
 49
-0.25
 74
     0
  0
LTYPE
  5
37
330
5
100
AcDbSymbolTableRecord
100
AcDbLinetypeTableRecord
  2
PHANTOM
 70
     0
  3
______  __  __  
 72
    65
 73
     6
 40
2.5
 49
1.25
 74
     0
 49
-0.25
 74
     0
 49
0.25
 74
     0
 49
-0.25
 74
     0
 49
0.25
 74
     0
 49
-0.25
 74
     0
  0
LTYPE
  5
38
330
5
100
AcDbSymbolTableRecord
100
AcDbLinetypeTableRecord
  2
PHANTOM2
 70
     0
  3
___ _ _ ___ _ _ 
 72
    65
 73
     6
 40
1.25
 49
0.625
 74
     0
 49
-0.125
 74
     0
 49
0.125
 74
     0
 49
-0.125
 74
     0
 49
0.125
 74
     0
 49
-0.125
 74
     0
  0
LTYPE
  5
39
330
5
100
AcDbSymbolTableRecord
100
AcDbLinetypeTableRecord
  2
PHANTOMX2
 70
     0
  3
___ _ _ ___ _ _ 
 72
    65
 73
     6
 40
5.0
 49
2.5
 74
     0
 49
-0.5
 74
     0
 49
0.5
 74
     0
 49
-0.5
 74
     0
 49
0.5
 74
     0
 49
-0.5
 74
     0
  0
ENDTAB
  0
TABLE
  2
LAYER
  5
2
330
0
100
AcDbSymbolTable
 70
   257
  0
LAYER
  5
10
330
2
100
AcDbSymbolTableRecord
100
AcDbLayerTableRecord
  2
0
 70
     0
 62
     7
  6
CONTINUOUS
  0
LAYER
  5
3A
330
2
100
AcDbSymbolTableRecord
100
AcDbLayerTableRecord
  2
1
 70
     0
 62
     1
  6
CONTINUOUS
  0
LAYER
  5
3B
330
2
100
AcDbSymbolTableRecord
100
AcDbLayerTableRecord
  2
2
 70
     0
 62
     2
  6
CONTINUOUS
  0
LAYER
  5
3C
330
2
100
AcDbSymbolTableRecord
100
AcDbLayerTableRecord
  2
3
 70
     0
 62
     3
  6
CONTINUOUS
  0
LAYER
  5
3D
330
2
100
AcDbSymbolTableRecord
100
AcDbLayerTableRecord
  2
4
 70
     0
 62
     4
  6
CONTINUOUS
  0
LAYER
  5
3E
330
2
100
AcDbSymbolTableRecord
100
AcDbLayerTableRecord
  2
5
 70
     0
 62
     5
  6
CONTINUOUS
  0
LAYER
  5
3F
330
2
100
AcDbSymbolTableRecord
100
AcDbLayerTableRecord
  2
6
 70
     0
 62
     6
  6
CONTINUOUS
  0
LAYER
  5
40
330
2
100
AcDbSymbolTableRecord
100
AcDbLayerTableRecord
  2
7
 70
     0
 62
     7
  6
CONTINUOUS
  0
LAYER
  5
41
330
2
100
AcDbSymbolTableRecord
100
AcDbLayerTableRecord
  2
8
 70
     0
 62
     8
  6
CONTINUOUS
  0
LAYER
  5
42
330
2
100
AcDbSymbolTableRecord
100
AcDbLayerTableRecord
  2
9
 70
     0
 62
     9
  6
CONTINUOUS
  0
LAYER
  5
43
330
2
100
AcDbSymbolTableRecord
100
AcDbLayerTableRecord
  2
10
 70
     0
 62
    10
  6
CONTINUOUS
  0
LAYER
  5
44
330
2
100
AcDbSymbolTableRecord
100
AcDbLayerTableRecord
  2
11
 70
     0
 62
    11
  6
CONTINUOUS
  0
LAYER
  5
45
330
2
100
AcDbSymbolTableRecord
100
AcDbLayerTableRecord
  2
12
 70
     0
 62
    12
  6
CONTINUOUS
  0
LAYER
  5
46
330
2
100
AcDbSymbolTableRecord
100
AcDbLayerTableRecord
  2
13
 70
     0
 62
    13
  6
CONTINUOUS
  0
LAYER
  5
47
330
2
100
AcDbSymbolTableRecord
100
AcDbLayerTableRecord
  2
14
 70
     0
 62
    14
  6
CONTINUOUS
  0
LAYER
  5
48
330
2
100
AcDbSymbolTableRecord
100
AcDbLayerTableRecord
  2
15
 70
     0
 62
    15
  6
CONTINUOUS
  0
LAYER
  5
49
330
2
100
AcDbSymbolTableRecord
100
AcDbLayerTableRecord
  2
16
 70
     0
 62
    16
  6
CONTINUOUS
  0
LAYER
  5
4A
330
2
100
AcDbSymbolTableRecord
100
AcDbLayerTableRecord
  2
17
 70
     0
 62
    17
  6
CONTINUOUS
  0
LAYER
  5
4B
330
2
100
AcDbSymbolTableRecord
100
AcDbLayerTableRecord
  2
18
 70
     0
 62
    18
  6
CONTINUOUS
  0
LAYER
  5
4C
330
2
100
AcDbSymbolTableRecord
100
AcDbLayerTableRecord
  2
19
 70
     0
 62
    19
  6
CONTINUOUS
  0
LAYER
  5
4D
330
2
100
AcDbSymbolTableRecord
100
AcDbLayerTableRecord
  2
20
 70
     0
 62
    20
  6
CONTINUOUS
  0
LAYER
  5
4E
330
2
100
AcDbSymbolTableRecord
100
AcDbLayerTableRecord
  2
21
 70
     0
 62
    21
  6
CONTINUOUS
  0
LAYER
  5
4F
330
2
100
AcDbSymbolTableRecord
100
AcDbLayerTableRecord
  2
22
 70
     0
 62
    22
  6
CONTINUOUS
  0
LAYER
  5
50
330
2
100
AcDbSymbolTableRecord
100
AcDbLayerTableRecord
  2
23
 70
     0
 62
    23
  6
CONTINUOUS
  0
LAYER
  5
51
330
2
100
AcDbSymbolTableRecord
100
AcDbLayerTableRecord
  2
24
 70
     0
 62
    24
  6
CONTINUOUS
  0
LAYER
  5
52
330
2
100
AcDbSymbolTableRecord
100
AcDbLayerTableRecord
  2
25
 70
     0
 62
    25
  6
CONTINUOUS
  0
LAYER
  5
53
330
2
100
AcDbSymbolTableRecord
100
AcDbLayerTableRecord
  2
26
 70
     0
 62
    26
  6
CONTINUOUS
  0
LAYER
  5
54
330
2
100
AcDbSymbolTableRecord
100
AcDbLayerTableRecord
  2
27
 70
     0
 62
    27
  6
CONTINUOUS
  0
LAYER
  5
55
330
2
100
AcDbSymbolTableRecord
100
AcDbLayerTableRecord
  2
28
 70
     0
 62
    28
  6
CONTINUOUS
  0
LAYER
  5
56
330
2
100
AcDbSymbolTableRecord
100
AcDbLayerTableRecord
  2
29
 70
     0
 62
    29
  6
CONTINUOUS
  0
LAYER
  5
57
330
2
100
AcDbSymbolTableRecord
100
AcDbLayerTableRecord
  2
30
 70
     0
 62
    30
  6
CONTINUOUS
  0
LAYER
  5
58
330
2
100
AcDbSymbolTableRecord
100
AcDbLayerTableRecord
  2
31
 70
     0
 62
    31
  6
CONTINUOUS
  0
LAYER
  5
59
330
2
100
AcDbSymbolTableRecord
100
AcDbLayerTableRecord
  2
32
 70
     0
 62
    32
  6
CONTINUOUS
  0
LAYER
  5
5A
330
2
100
AcDbSymbolTableRecord
100
AcDbLayerTableRecord
  2
33
 70
     0
 62
    33
  6
CONTINUOUS
  0
LAYER
  5
5B
330
2
100
AcDbSymbolTableRecord
100
AcDbLayerTableRecord
  2
34
 70
     0
 62
    34
  6
CONTINUOUS
  0
LAYER
  5
5C
330
2
100
AcDbSymbolTableRecord
100
AcDbLayerTableRecord
  2
35
 70
     0
 62
    35
  6
CONTINUOUS
  0
LAYER
  5
5D
330
2
100
AcDbSymbolTableRecord
100
AcDbLayerTableRecord
  2
36
 70
     0
 62
    36
  6
CONTINUOUS
  0
LAYER
  5
5E
330
2
100
AcDbSymbolTableRecord
100
AcDbLayerTableRecord
  2
37
 70
     0
 62
    37
  6
CONTINUOUS
  0
LAYER
  5
5F
330
2
100
AcDbSymbolTableRecord
100
AcDbLayerTableRecord
  2
38
 70
     0
 62
    38
  6
CONTINUOUS
  0
LAYER
  5
60
330
2
100
AcDbSymbolTableRecord
100
AcDbLayerTableRecord
  2
39
 70
     0
 62
    39
  6
CONTINUOUS
  0
LAYER
  5
61
330
2
100
AcDbSymbolTableRecord
100
AcDbLayerTableRecord
  2
40
 70
     0
 62
    40
  6
CONTINUOUS
  0
LAYER
  5
62
330
2
100
AcDbSymbolTableRecord
100
AcDbLayerTableRecord
  2
41
 70
     0
 62
    41
  6
CONTINUOUS
  0
LAYER
  5
63
330
2
100
AcDbSymbolTableRecord
100
AcDbLayerTableRecord
  2
42
 70
     0
 62
    42
  6
CONTINUOUS
  0
LAYER
  5
64
330
2
100
AcDbSymbolTableRecord
100
AcDbLayerTableRecord
  2
43
 70
     0
 62
    43
  6
CONTINUOUS
  0
LAYER
  5
65
330
2
100
AcDbSymbolTableRecord
100
AcDbLayerTableRecord
  2
44
 70
     0
 62
    44
  6
CONTINUOUS
  0
LAYER
  5
66
330
2
100
AcDbSymbolTableRecord
100
AcDbLayerTableRecord
  2
45
 70
     0
 62
    45
  6
CONTINUOUS
  0
LAYER
  5
67
330
2
100
AcDbSymbolTableRecord
100
AcDbLayerTableRecord
  2
46
 70
     0
 62
    46
  6
CONTINUOUS
  0
LAYER
  5
68
330
2
100
AcDbSymbolTableRecord
100
AcDbLayerTableRecord
  2
47
 70
     0
 62
    47
  6
CONTINUOUS
  0
LAYER
  5
69
330
2
100
AcDbSymbolTableRecord
100
AcDbLayerTableRecord
  2
48
 70
     0
 62
    48
  6
CONTINUOUS
  0
LAYER
  5
6A
330
2
100
AcDbSymbolTableRecord
100
AcDbLayerTableRecord
  2
49
 70
     0
 62
    49
  6
CONTINUOUS
  0
LAYER
  5
6B
330
2
100
AcDbSymbolTableRecord
100
AcDbLayerTableRecord
  2
50
 70
     0
 62
    50
  6
CONTINUOUS
  0
LAYER
  5
6C
330
2
100
AcDbSymbolTableRecord
100
AcDbLayerTableRecord
  2
51
 70
     0
 62
    51
  6
CONTINUOUS
  0
LAYER
  5
6D
330
2
100
AcDbSymbolTableRecord
100
AcDbLayerTableRecord
  2
52
 70
     0
 62
    52
  6
CONTINUOUS
  0
LAYER
  5
6E
330
2
100
AcDbSymbolTableRecord
100
AcDbLayerTableRecord
  2
53
 70
     0
 62
    53
  6
CONTINUOUS
  0
LAYER
  5
6F
330
2
100
AcDbSymbolTableRecord
100
AcDbLayerTableRecord
  2
54
 70
     0
 62
    54
  6
CONTINUOUS
  0
LAYER
  5
70
330
2
100
AcDbSymbolTableRecord
100
AcDbLayerTableRecord
  2
55
 70
     0
 62
    55
  6
CONTINUOUS
  0
LAYER
  5
71
330
2
100
AcDbSymbolTableRecord
100
AcDbLayerTableRecord
  2
56
 70
     0
 62
    56
  6
CONTINUOUS
  0
LAYER
  5
72
330
2
100
AcDbSymbolTableRecord
100
AcDbLayerTableRecord
  2
57
 70
     0
 62
    57
  6
CONTINUOUS
  0
LAYER
  5
73
330
2
100
AcDbSymbolTableRecord
100
AcDbLayerTableRecord
  2
58
 70
     0
 62
    58
  6
CONTINUOUS
  0
LAYER
  5
74
330
2
100
AcDbSymbolTableRecord
100
AcDbLayerTableRecord
  2
59
 70
     0
 62
    59
  6
CONTINUOUS
  0
LAYER
  5
75
330
2
100
AcDbSymbolTableRecord
100
AcDbLayerTableRecord
  2
60
 70
     0
 62
    60
  6
CONTINUOUS
  0
LAYER
  5
76
330
2
100
AcDbSymbolTableRecord
100
AcDbLayerTableRecord
  2
61
 70
     0
 62
    61
  6
CONTINUOUS
  0
LAYER
  5
77
330
2
100
AcDbSymbolTableRecord
100
AcDbLayerTableRecord
  2
62
 70
     0
 62
    62
  6
CONTINUOUS
  0
LAYER
  5
78
330
2
100
AcDbSymbolTableRecord
100
AcDbLayerTableRecord
  2
63
 70
     0
 62
    63
  6
CONTINUOUS
  0
LAYER
  5
79
330
2
100
AcDbSymbolTableRecord
100
AcDbLayerTableRecord
  2
64
 70
     0
 62
    64
  6
CONTINUOUS
  0
LAYER
  5
7A
330
2
100
AcDbSymbolTableRecord
100
AcDbLayerTableRecord
  2
65
 70
     0
 62
    65
  6
CONTINUOUS
  0
LAYER
  5
7B
330
2
100
AcDbSymbolTableRecord
100
AcDbLayerTableRecord
  2
66
 70
     0
 62
    66
  6
CONTINUOUS
  0
LAYER
  5
7C
330
2
100
AcDbSymbolTableRecord
100
AcDbLayerTableRecord
  2
67
 70
     0
 62
    67
  6
CONTINUOUS
  0
LAYER
  5
7D
330
2
100
AcDbSymbolTableRecord
100
AcDbLayerTableRecord
  2
68
 70
     0
 62
    68
  6
CONTINUOUS
  0
LAYER
  5
7E
330
2
100
AcDbSymbolTableRecord
100
AcDbLayerTableRecord
  2
69
 70
     0
 62
    69
  6
CONTINUOUS
  0
LAYER
  5
7F
330
2
100
AcDbSymbolTableRecord
100
AcDbLayerTableRecord
  2
70
 70
     0
 62
    70
  6
CONTINUOUS
  0
LAYER
  5
80
330
2
100
AcDbSymbolTableRecord
100
AcDbLayerTableRecord
  2
71
 70
     0
 62
    71
  6
CONTINUOUS
  0
LAYER
  5
81
330
2
100
AcDbSymbolTableRecord
100
AcDbLayerTableRecord
  2
72
 70
     0
 62
    72
  6
CONTINUOUS
  0
LAYER
  5
82
330
2
100
AcDbSymbolTableRecord
100
AcDbLayerTableRecord
  2
73
 70
     0
 62
    73
  6
CONTINUOUS
  0
LAYER
  5
83
330
2
100
AcDbSymbolTableRecord
100
AcDbLayerTableRecord
  2
74
 70
     0
 62
    74
  6
CONTINUOUS
  0
LAYER
  5
84
330
2
100
AcDbSymbolTableRecord
100
AcDbLayerTableRecord
  2
75
 70
     0
 62
    75
  6
CONTINUOUS
  0
LAYER
  5
85
330
2
100
AcDbSymbolTableRecord
100
AcDbLayerTableRecord
  2
76
 70
     0
 62
    76
  6
CONTINUOUS
  0
LAYER
  5
86
330
2
100
AcDbSymbolTableRecord
100
AcDbLayerTableRecord
  2
77
 70
     0
 62
    77
  6
CONTINUOUS
  0
LAYER
  5
87
330
2
100
AcDbSymbolTableRecord
100
AcDbLayerTableRecord
  2
78
 70
     0
 62
    78
  6
CONTINUOUS
  0
LAYER
  5
88
330
2
100
AcDbSymbolTableRecord
100
AcDbLayerTableRecord
  2
79
 70
     0
 62
    79
  6
CONTINUOUS
  0
LAYER
  5
89
330
2
100
AcDbSymbolTableRecord
100
AcDbLayerTableRecord
  2
80
 70
     0
 62
    80
  6
CONTINUOUS
  0
LAYER
  5
8A
330
2
100
AcDbSymbolTableRecord
100
AcDbLayerTableRecord
  2
81
 70
     0
 62
    81
  6
CONTINUOUS
  0
LAYER
  5
8B
330
2
100
AcDbSymbolTableRecord
100
AcDbLayerTableRecord
  2
82
 70
     0
 62
    82
  6
CONTINUOUS
  0
LAYER
  5
8C
330
2
100
AcDbSymbolTableRecord
100
AcDbLayerTableRecord
  2
83
 70
     0
 62
    83
  6
CONTINUOUS
  0
LAYER
  5
8D
330
2
100
AcDbSymbolTableRecord
100
AcDbLayerTableRecord
  2
84
 70
     0
 62
    84
  6
CONTINUOUS
  0
LAYER
  5
8E
330
2
100
AcDbSymbolTableRecord
100
AcDbLayerTableRecord
  2
85
 70
     0
 62
    85
  6
CONTINUOUS
  0
LAYER
  5
8F
330
2
100
AcDbSymbolTableRecord
100
AcDbLayerTableRecord
  2
86
 70
     0
 62
    86
  6
CONTINUOUS
  0
LAYER
  5
90
330
2
100
AcDbSymbolTableRecord
100
AcDbLayerTableRecord
  2
87
 70
     0
 62
    87
  6
CONTINUOUS
  0
LAYER
  5
91
330
2
100
AcDbSymbolTableRecord
100
AcDbLayerTableRecord
  2
88
 70
     0
 62
    88
  6
CONTINUOUS
  0
LAYER
  5
92
330
2
100
AcDbSymbolTableRecord
100
AcDbLayerTableRecord
  2
89
 70
     0
 62
    89
  6
CONTINUOUS
  0
LAYER
  5
93
330
2
100
AcDbSymbolTableRecord
100
AcDbLayerTableRecord
  2
90
 70
     0
 62
    90
  6
CONTINUOUS
  0
LAYER
  5
94
330
2
100
AcDbSymbolTableRecord
100
AcDbLayerTableRecord
  2
91
 70
     0
 62
    91
  6
CONTINUOUS
  0
LAYER
  5
95
330
2
100
AcDbSymbolTableRecord
100
AcDbLayerTableRecord
  2
92
 70
     0
 62
    92
  6
CONTINUOUS
  0
LAYER
  5
96
330
2
100
AcDbSymbolTableRecord
100
AcDbLayerTableRecord
  2
93
 70
     0
 62
    93
  6
CONTINUOUS
  0
LAYER
  5
97
330
2
100
AcDbSymbolTableRecord
100
AcDbLayerTableRecord
  2
94
 70
     0
 62
    94
  6
CONTINUOUS
  0
LAYER
  5
98
330
2
100
AcDbSymbolTableRecord
100
AcDbLayerTableRecord
  2
95
 70
     0
 62
    95
  6
CONTINUOUS
  0
LAYER
  5
99
330
2
100
AcDbSymbolTableRecord
100
AcDbLayerTableRecord
  2
96
 70
     0
 62
    96
  6
CONTINUOUS
  0
LAYER
  5
9A
330
2
100
AcDbSymbolTableRecord
100
AcDbLayerTableRecord
  2
97
 70
     0
 62
    97
  6
CONTINUOUS
  0
LAYER
  5
9B
330
2
100
AcDbSymbolTableRecord
100
AcDbLayerTableRecord
  2
98
 70
     0
 62
    98
  6
CONTINUOUS
  0
LAYER
  5
9C
330
2
100
AcDbSymbolTableRecord
100
AcDbLayerTableRecord
  2
99
 70
     0
 62
    99
  6
CONTINUOUS
  0
LAYER
  5
9D
330
2
100
AcDbSymbolTableRecord
100
AcDbLayerTableRecord
  2
100
 70
     0
 62
   100
  6
CONTINUOUS
  0
LAYER
  5
9E
330
2
100
AcDbSymbolTableRecord
100
AcDbLayerTableRecord
  2
101
 70
     0
 62
   101
  6
CONTINUOUS
  0
LAYER
  5
9F
330
2
100
AcDbSymbolTableRecord
100
AcDbLayerTableRecord
  2
102
 70
     0
 62
   102
  6
CONTINUOUS
  0
LAYER
  5
A0
330
2
100
AcDbSymbolTableRecord
100
AcDbLayerTableRecord
  2
103
 70
     0
 62
   103
  6
CONTINUOUS
  0
LAYER
  5
A1
330
2
100
AcDbSymbolTableRecord
100
AcDbLayerTableRecord
  2
104
 70
     0
 62
   104
  6
CONTINUOUS
  0
LAYER
  5
A2
330
2
100
AcDbSymbolTableRecord
100
AcDbLayerTableRecord
  2
105
 70
     0
 62
   105
  6
CONTINUOUS
  0
LAYER
  5
A3
330
2
100
AcDbSymbolTableRecord
100
AcDbLayerTableRecord
  2
106
 70
     0
 62
   106
  6
CONTINUOUS
  0
LAYER
  5
A4
330
2
100
AcDbSymbolTableRecord
100
AcDbLayerTableRecord
  2
107
 70
     0
 62
   107
  6
CONTINUOUS
  0
LAYER
  5
A5
330
2
100
AcDbSymbolTableRecord
100
AcDbLayerTableRecord
  2
108
 70
     0
 62
   108
  6
CONTINUOUS
  0
LAYER
  5
A6
330
2
100
AcDbSymbolTableRecord
100
AcDbLayerTableRecord
  2
109
 70
     0
 62
   109
  6
CONTINUOUS
  0
LAYER
  5
A7
330
2
100
AcDbSymbolTableRecord
100
AcDbLayerTableRecord
  2
110
 70
     0
 62
   110
  6
CONTINUOUS
  0
LAYER
  5
A8
330
2
100
AcDbSymbolTableRecord
100
AcDbLayerTableRecord
  2
111
 70
     0
 62
   111
  6
CONTINUOUS
  0
LAYER
  5
A9
330
2
100
AcDbSymbolTableRecord
100
AcDbLayerTableRecord
  2
112
 70
     0
 62
   112
  6
CONTINUOUS
  0
LAYER
  5
AA
330
2
100
AcDbSymbolTableRecord
100
AcDbLayerTableRecord
  2
113
 70
     0
 62
   113
  6
CONTINUOUS
  0
LAYER
  5
AB
330
2
100
AcDbSymbolTableRecord
100
AcDbLayerTableRecord
  2
114
 70
     0
 62
   114
  6
CONTINUOUS
  0
LAYER
  5
AC
330
2
100
AcDbSymbolTableRecord
100
AcDbLayerTableRecord
  2
115
 70
     0
 62
   115
  6
CONTINUOUS
  0
LAYER
  5
AD
330
2
100
AcDbSymbolTableRecord
100
AcDbLayerTableRecord
  2
116
 70
     0
 62
   116
  6
CONTINUOUS
  0
LAYER
  5
AE
330
2
100
AcDbSymbolTableRecord
100
AcDbLayerTableRecord
  2
117
 70
     0
 62
   117
  6
CONTINUOUS
  0
LAYER
  5
AF
330
2
100
AcDbSymbolTableRecord
100
AcDbLayerTableRecord
  2
118
 70
     0
 62
   118
  6
CONTINUOUS
  0
LAYER
  5
B0
330
2
100
AcDbSymbolTableRecord
100
AcDbLayerTableRecord
  2
119
 70
     0
 62
   119
  6
CONTINUOUS
  0
LAYER
  5
B1
330
2
100
AcDbSymbolTableRecord
100
AcDbLayerTableRecord
  2
120
 70
     0
 62
   120
  6
CONTINUOUS
  0
LAYER
  5
B2
330
2
100
AcDbSymbolTableRecord
100
AcDbLayerTableRecord
  2
121
 70
     0
 62
   121
  6
CONTINUOUS
  0
LAYER
  5
B3
330
2
100
AcDbSymbolTableRecord
100
AcDbLayerTableRecord
  2
122
 70
     0
 62
   122
  6
CONTINUOUS
  0
LAYER
  5
B4
330
2
100
AcDbSymbolTableRecord
100
AcDbLayerTableRecord
  2
123
 70
     0
 62
   123
  6
CONTINUOUS
  0
LAYER
  5
B5
330
2
100
AcDbSymbolTableRecord
100
AcDbLayerTableRecord
  2
124
 70
     0
 62
   124
  6
CONTINUOUS
  0
LAYER
  5
B6
330
2
100
AcDbSymbolTableRecord
100
AcDbLayerTableRecord
  2
125
 70
     0
 62
   125
  6
CONTINUOUS
  0
LAYER
  5
B7
330
2
100
AcDbSymbolTableRecord
100
AcDbLayerTableRecord
  2
126
 70
     0
 62
   126
  6
CONTINUOUS
  0
LAYER
  5
B8
330
2
100
AcDbSymbolTableRecord
100
AcDbLayerTableRecord
  2
127
 70
     0
 62
   127
  6
CONTINUOUS
  0
LAYER
  5
B9
330
2
100
AcDbSymbolTableRecord
100
AcDbLayerTableRecord
  2
128
 70
     0
 62
   128
  6
CONTINUOUS
  0
LAYER
  5
BA
330
2
100
AcDbSymbolTableRecord
100
AcDbLayerTableRecord
  2
129
 70
     0
 62
   129
  6
CONTINUOUS
  0
LAYER
  5
BB
330
2
100
AcDbSymbolTableRecord
100
AcDbLayerTableRecord
  2
130
 70
     0
 62
   130
  6
CONTINUOUS
  0
LAYER
  5
BC
330
2
100
AcDbSymbolTableRecord
100
AcDbLayerTableRecord
  2
131
 70
     0
 62
   131
  6
CONTINUOUS
  0
LAYER
  5
BD
330
2
100
AcDbSymbolTableRecord
100
AcDbLayerTableRecord
  2
132
 70
     0
 62
   132
  6
CONTINUOUS
  0
LAYER
  5
BE
330
2
100
AcDbSymbolTableRecord
100
AcDbLayerTableRecord
  2
133
 70
     0
 62
   133
  6
CONTINUOUS
  0
LAYER
  5
BF
330
2
100
AcDbSymbolTableRecord
100
AcDbLayerTableRecord
  2
134
 70
     0
 62
   134
  6
CONTINUOUS
  0
LAYER
  5
C0
330
2
100
AcDbSymbolTableRecord
100
AcDbLayerTableRecord
  2
135
 70
     0
 62
   135
  6
CONTINUOUS
  0
LAYER
  5
C1
330
2
100
AcDbSymbolTableRecord
100
AcDbLayerTableRecord
  2
136
 70
     0
 62
   136
  6
CONTINUOUS
  0
LAYER
  5
C2
330
2
100
AcDbSymbolTableRecord
100
AcDbLayerTableRecord
  2
137
 70
     0
 62
   137
  6
CONTINUOUS
  0
LAYER
  5
C3
330
2
100
AcDbSymbolTableRecord
100
AcDbLayerTableRecord
  2
138
 70
     0
 62
   138
  6
CONTINUOUS
  0
LAYER
  5
C4
330
2
100
AcDbSymbolTableRecord
100
AcDbLayerTableRecord
  2
139
 70
     0
 62
   139
  6
CONTINUOUS
  0
LAYER
  5
C5
330
2
100
AcDbSymbolTableRecord
100
AcDbLayerTableRecord
  2
140
 70
     0
 62
   140
  6
CONTINUOUS
  0
LAYER
  5
C6
330
2
100
AcDbSymbolTableRecord
100
AcDbLayerTableRecord
  2
141
 70
     0
 62
   141
  6
CONTINUOUS
  0
LAYER
  5
C7
330
2
100
AcDbSymbolTableRecord
100
AcDbLayerTableRecord
  2
142
 70
     0
 62
   142
  6
CONTINUOUS
  0
LAYER
  5
C8
330
2
100
AcDbSymbolTableRecord
100
AcDbLayerTableRecord
  2
143
 70
     0
 62
   143
  6
CONTINUOUS
  0
LAYER
  5
C9
330
2
100
AcDbSymbolTableRecord
100
AcDbLayerTableRecord
  2
144
 70
     0
 62
   144
  6
CONTINUOUS
  0
LAYER
  5
CA
330
2
100
AcDbSymbolTableRecord
100
AcDbLayerTableRecord
  2
145
 70
     0
 62
   145
  6
CONTINUOUS
  0
LAYER
  5
CB
330
2
100
AcDbSymbolTableRecord
100
AcDbLayerTableRecord
  2
146
 70
     0
 62
   146
  6
CONTINUOUS
  0
LAYER
  5
CC
330
2
100
AcDbSymbolTableRecord
100
AcDbLayerTableRecord
  2
147
 70
     0
 62
   147
  6
CONTINUOUS
  0
LAYER
  5
CD
330
2
100
AcDbSymbolTableRecord
100
AcDbLayerTableRecord
  2
148
 70
     0
 62
   148
  6
CONTINUOUS
  0
LAYER
  5
CE
330
2
100
AcDbSymbolTableRecord
100
AcDbLayerTableRecord
  2
149
 70
     0
 62
   149
  6
CONTINUOUS
  0
LAYER
  5
CF
330
2
100
AcDbSymbolTableRecord
100
AcDbLayerTableRecord
  2
150
 70
     0
 62
   150
  6
CONTINUOUS
  0
LAYER
  5
D0
330
2
100
AcDbSymbolTableRecord
100
AcDbLayerTableRecord
  2
151
 70
     0
 62
   151
  6
CONTINUOUS
  0
LAYER
  5
D1
330
2
100
AcDbSymbolTableRecord
100
AcDbLayerTableRecord
  2
152
 70
     0
 62
   152
  6
CONTINUOUS
  0
LAYER
  5
D2
330
2
100
AcDbSymbolTableRecord
100
AcDbLayerTableRecord
  2
153
 70
     0
 62
   153
  6
CONTINUOUS
  0
LAYER
  5
D3
330
2
100
AcDbSymbolTableRecord
100
AcDbLayerTableRecord
  2
154
 70
     0
 62
   154
  6
CONTINUOUS
  0
LAYER
  5
D4
330
2
100
AcDbSymbolTableRecord
100
AcDbLayerTableRecord
  2
155
 70
     0
 62
   155
  6
CONTINUOUS
  0
LAYER
  5
D5
330
2
100
AcDbSymbolTableRecord
100
AcDbLayerTableRecord
  2
156
 70
     0
 62
   156
  6
CONTINUOUS
  0
LAYER
  5
D6
330
2
100
AcDbSymbolTableRecord
100
AcDbLayerTableRecord
  2
157
 70
     0
 62
   157
  6
CONTINUOUS
  0
LAYER
  5
D7
330
2
100
AcDbSymbolTableRecord
100
AcDbLayerTableRecord
  2
158
 70
     0
 62
   158
  6
CONTINUOUS
  0
LAYER
  5
D8
330
2
100
AcDbSymbolTableRecord
100
AcDbLayerTableRecord
  2
159
 70
     0
 62
   159
  6
CONTINUOUS
  0
LAYER
  5
D9
330
2
100
AcDbSymbolTableRecord
100
AcDbLayerTableRecord
  2
160
 70
     0
 62
   160
  6
CONTINUOUS
  0
LAYER
  5
DA
330
2
100
AcDbSymbolTableRecord
100
AcDbLayerTableRecord
  2
161
 70
     0
 62
   161
  6
CONTINUOUS
  0
LAYER
  5
DB
330
2
100
AcDbSymbolTableRecord
100
AcDbLayerTableRecord
  2
162
 70
     0
 62
   162
  6
CONTINUOUS
  0
LAYER
  5
DC
330
2
100
AcDbSymbolTableRecord
100
AcDbLayerTableRecord
  2
163
 70
     0
 62
   163
  6
CONTINUOUS
  0
LAYER
  5
DD
330
2
100
AcDbSymbolTableRecord
100
AcDbLayerTableRecord
  2
164
 70
     0
 62
   164
  6
CONTINUOUS
  0
LAYER
  5
DE
330
2
100
AcDbSymbolTableRecord
100
AcDbLayerTableRecord
  2
165
 70
     0
 62
   165
  6
CONTINUOUS
  0
LAYER
  5
DF
330
2
100
AcDbSymbolTableRecord
100
AcDbLayerTableRecord
  2
166
 70
     0
 62
   166
  6
CONTINUOUS
  0
LAYER
  5
E0
330
2
100
AcDbSymbolTableRecord
100
AcDbLayerTableRecord
  2
167
 70
     0
 62
   167
  6
CONTINUOUS
  0
LAYER
  5
E1
330
2
100
AcDbSymbolTableRecord
100
AcDbLayerTableRecord
  2
168
 70
     0
 62
   168
  6
CONTINUOUS
  0
LAYER
  5
E2
330
2
100
AcDbSymbolTableRecord
100
AcDbLayerTableRecord
  2
169
 70
     0
 62
   169
  6
CONTINUOUS
  0
LAYER
  5
E3
330
2
100
AcDbSymbolTableRecord
100
AcDbLayerTableRecord
  2
170
 70
     0
 62
   170
  6
CONTINUOUS
  0
LAYER
  5
E4
330
2
100
AcDbSymbolTableRecord
100
AcDbLayerTableRecord
  2
171
 70
     0
 62
   171
  6
CONTINUOUS
  0
LAYER
  5
E5
330
2
100
AcDbSymbolTableRecord
100
AcDbLayerTableRecord
  2
172
 70
     0
 62
   172
  6
CONTINUOUS
  0
LAYER
  5
E6
330
2
100
AcDbSymbolTableRecord
100
AcDbLayerTableRecord
  2
173
 70
     0
 62
   173
  6
CONTINUOUS
  0
LAYER
  5
E7
330
2
100
AcDbSymbolTableRecord
100
AcDbLayerTableRecord
  2
174
 70
     0
 62
   174
  6
CONTINUOUS
  0
LAYER
  5
E8
330
2
100
AcDbSymbolTableRecord
100
AcDbLayerTableRecord
  2
175
 70
     0
 62
   175
  6
CONTINUOUS
  0
LAYER
  5
E9
330
2
100
AcDbSymbolTableRecord
100
AcDbLayerTableRecord
  2
176
 70
     0
 62
   176
  6
CONTINUOUS
  0
LAYER
  5
EA
330
2
100
AcDbSymbolTableRecord
100
AcDbLayerTableRecord
  2
177
 70
     0
 62
   177
  6
CONTINUOUS
  0
LAYER
  5
EB
330
2
100
AcDbSymbolTableRecord
100
AcDbLayerTableRecord
  2
178
 70
     0
 62
   178
  6
CONTINUOUS
  0
LAYER
  5
EC
330
2
100
AcDbSymbolTableRecord
100
AcDbLayerTableRecord
  2
179
 70
     0
 62
   179
  6
CONTINUOUS
  0
LAYER
  5
ED
330
2
100
AcDbSymbolTableRecord
100
AcDbLayerTableRecord
  2
180
 70
     0
 62
   180
  6
CONTINUOUS
  0
LAYER
  5
EE
330
2
100
AcDbSymbolTableRecord
100
AcDbLayerTableRecord
  2
181
 70
     0
 62
   181
  6
CONTINUOUS
  0
LAYER
  5
EF
330
2
100
AcDbSymbolTableRecord
100
AcDbLayerTableRecord
  2
182
 70
     0
 62
   182
  6
CONTINUOUS
  0
LAYER
  5
F0
330
2
100
AcDbSymbolTableRecord
100
AcDbLayerTableRecord
  2
183
 70
     0
 62
   183
  6
CONTINUOUS
  0
LAYER
  5
F1
330
2
100
AcDbSymbolTableRecord
100
AcDbLayerTableRecord
  2
184
 70
     0
 62
   184
  6
CONTINUOUS
  0
LAYER
  5
F2
330
2
100
AcDbSymbolTableRecord
100
AcDbLayerTableRecord
  2
185
 70
     0
 62
   185
  6
CONTINUOUS
  0
LAYER
  5
F3
330
2
100
AcDbSymbolTableRecord
100
AcDbLayerTableRecord
  2
186
 70
     0
 62
   186
  6
CONTINUOUS
  0
LAYER
  5
F4
330
2
100
AcDbSymbolTableRecord
100
AcDbLayerTableRecord
  2
187
 70
     0
 62
   187
  6
CONTINUOUS
  0
LAYER
  5
F5
330
2
100
AcDbSymbolTableRecord
100
AcDbLayerTableRecord
  2
188
 70
     0
 62
   188
  6
CONTINUOUS
  0
LAYER
  5
F6
330
2
100
AcDbSymbolTableRecord
100
AcDbLayerTableRecord
  2
189
 70
     0
 62
   189
  6
CONTINUOUS
  0
LAYER
  5
F7
330
2
100
AcDbSymbolTableRecord
100
AcDbLayerTableRecord
  2
190
 70
     0
 62
   190
  6
CONTINUOUS
  0
LAYER
  5
F8
330
2
100
AcDbSymbolTableRecord
100
AcDbLayerTableRecord
  2
191
 70
     0
 62
   191
  6
CONTINUOUS
  0
LAYER
  5
F9
330
2
100
AcDbSymbolTableRecord
100
AcDbLayerTableRecord
  2
192
 70
     0
 62
   192
  6
CONTINUOUS
  0
LAYER
  5
FA
330
2
100
AcDbSymbolTableRecord
100
AcDbLayerTableRecord
  2
193
 70
     0
 62
   193
  6
CONTINUOUS
  0
LAYER
  5
FB
330
2
100
AcDbSymbolTableRecord
100
AcDbLayerTableRecord
  2
194
 70
     0
 62
   194
  6
CONTINUOUS
  0
LAYER
  5
FC
330
2
100
AcDbSymbolTableRecord
100
AcDbLayerTableRecord
  2
195
 70
     0
 62
   195
  6
CONTINUOUS
  0
LAYER
  5
FD
330
2
100
AcDbSymbolTableRecord
100
AcDbLayerTableRecord
  2
196
 70
     0
 62
   196
  6
CONTINUOUS
  0
LAYER
  5
FE
330
2
100
AcDbSymbolTableRecord
100
AcDbLayerTableRecord
  2
197
 70
     0
 62
   197
  6
CONTINUOUS
  0
LAYER
  5
FF
330
2
100
AcDbSymbolTableRecord
100
AcDbLayerTableRecord
  2
198
 70
     0
 62
   198
  6
CONTINUOUS
  0
LAYER
  5
100
330
2
100
AcDbSymbolTableRecord
100
AcDbLayerTableRecord
  2
199
 70
     0
 62
   199
  6
CONTINUOUS
  0
LAYER
  5
101
330
2
100
AcDbSymbolTableRecord
100
AcDbLayerTableRecord
  2
200
 70
     0
 62
   200
  6
CONTINUOUS
  0
LAYER
  5
102
330
2
100
AcDbSymbolTableRecord
100
AcDbLayerTableRecord
  2
201
 70
     0
 62
   201
  6
CONTINUOUS
  0
LAYER
  5
103
330
2
100
AcDbSymbolTableRecord
100
AcDbLayerTableRecord
  2
202
 70
     0
 62
   202
  6
CONTINUOUS
  0
LAYER
  5
104
330
2
100
AcDbSymbolTableRecord
100
AcDbLayerTableRecord
  2
203
 70
     0
 62
   203
  6
CONTINUOUS
  0
LAYER
  5
105
330
2
100
AcDbSymbolTableRecord
100
AcDbLayerTableRecord
  2
204
 70
     0
 62
   204
  6
CONTINUOUS
  0
LAYER
  5
106
330
2
100
AcDbSymbolTableRecord
100
AcDbLayerTableRecord
  2
205
 70
     0
 62
   205
  6
CONTINUOUS
  0
LAYER
  5
107
330
2
100
AcDbSymbolTableRecord
100
AcDbLayerTableRecord
  2
206
 70
     0
 62
   206
  6
CONTINUOUS
  0
LAYER
  5
108
330
2
100
AcDbSymbolTableRecord
100
AcDbLayerTableRecord
  2
207
 70
     0
 62
   207
  6
CONTINUOUS
  0
LAYER
  5
109
330
2
100
AcDbSymbolTableRecord
100
AcDbLayerTableRecord
  2
208
 70
     0
 62
   208
  6
CONTINUOUS
  0
LAYER
  5
10A
330
2
100
AcDbSymbolTableRecord
100
AcDbLayerTableRecord
  2
209
 70
     0
 62
   209
  6
CONTINUOUS
  0
LAYER
  5
10B
330
2
100
AcDbSymbolTableRecord
100
AcDbLayerTableRecord
  2
210
 70
     0
 62
   210
  6
CONTINUOUS
  0
LAYER
  5
10C
330
2
100
AcDbSymbolTableRecord
100
AcDbLayerTableRecord
  2
211
 70
     0
 62
   211
  6
CONTINUOUS
  0
LAYER
  5
10D
330
2
100
AcDbSymbolTableRecord
100
AcDbLayerTableRecord
  2
212
 70
     0
 62
   212
  6
CONTINUOUS
  0
LAYER
  5
10E
330
2
100
AcDbSymbolTableRecord
100
AcDbLayerTableRecord
  2
213
 70
     0
 62
   213
  6
CONTINUOUS
  0
LAYER
  5
10F
330
2
100
AcDbSymbolTableRecord
100
AcDbLayerTableRecord
  2
214
 70
     0
 62
   214
  6
CONTINUOUS
  0
LAYER
  5
110
330
2
100
AcDbSymbolTableRecord
100
AcDbLayerTableRecord
  2
215
 70
     0
 62
   215
  6
CONTINUOUS
  0
LAYER
  5
111
330
2
100
AcDbSymbolTableRecord
100
AcDbLayerTableRecord
  2
216
 70
     0
 62
   216
  6
CONTINUOUS
  0
LAYER
  5
112
330
2
100
AcDbSymbolTableRecord
100
AcDbLayerTableRecord
  2
217
 70
     0
 62
   217
  6
CONTINUOUS
  0
LAYER
  5
113
330
2
100
AcDbSymbolTableRecord
100
AcDbLayerTableRecord
  2
218
 70
     0
 62
   218
  6
CONTINUOUS
  0
LAYER
  5
114
330
2
100
AcDbSymbolTableRecord
100
AcDbLayerTableRecord
  2
219
 70
     0
 62
   219
  6
CONTINUOUS
  0
LAYER
  5
115
330
2
100
AcDbSymbolTableRecord
100
AcDbLayerTableRecord
  2
220
 70
     0
 62
   220
  6
CONTINUOUS
  0
LAYER
  5
116
330
2
100
AcDbSymbolTableRecord
100
AcDbLayerTableRecord
  2
221
 70
     0
 62
   221
  6
CONTINUOUS
  0
LAYER
  5
117
330
2
100
AcDbSymbolTableRecord
100
AcDbLayerTableRecord
  2
222
 70
     0
 62
   222
  6
CONTINUOUS
  0
LAYER
  5
118
330
2
100
AcDbSymbolTableRecord
100
AcDbLayerTableRecord
  2
223
 70
     0
 62
   223
  6
CONTINUOUS
  0
LAYER
  5
119
330
2
100
AcDbSymbolTableRecord
100
AcDbLayerTableRecord
  2
224
 70
     0
 62
   224
  6
CONTINUOUS
  0
LAYER
  5
11A
330
2
100
AcDbSymbolTableRecord
100
AcDbLayerTableRecord
  2
225
 70
     0
 62
   225
  6
CONTINUOUS
  0
LAYER
  5
11B
330
2
100
AcDbSymbolTableRecord
100
AcDbLayerTableRecord
  2
226
 70
     0
 62
   226
  6
CONTINUOUS
  0
LAYER
  5
11C
330
2
100
AcDbSymbolTableRecord
100
AcDbLayerTableRecord
  2
227
 70
     0
 62
   227
  6
CONTINUOUS
  0
LAYER
  5
11D
330
2
100
AcDbSymbolTableRecord
100
AcDbLayerTableRecord
  2
228
 70
     0
 62
   228
  6
CONTINUOUS
  0
LAYER
  5
11E
330
2
100
AcDbSymbolTableRecord
100
AcDbLayerTableRecord
  2
229
 70
     0
 62
   229
  6
CONTINUOUS
  0
LAYER
  5
11F
330
2
100
AcDbSymbolTableRecord
100
AcDbLayerTableRecord
  2
230
 70
     0
 62
   230
  6
CONTINUOUS
  0
LAYER
  5
120
330
2
100
AcDbSymbolTableRecord
100
AcDbLayerTableRecord
  2
231
 70
     0
 62
   231
  6
CONTINUOUS
  0
LAYER
  5
121
330
2
100
AcDbSymbolTableRecord
100
AcDbLayerTableRecord
  2
232
 70
     0
 62
   232
  6
CONTINUOUS
  0
LAYER
  5
122
330
2
100
AcDbSymbolTableRecord
100
AcDbLayerTableRecord
  2
233
 70
     0
 62
   233
  6
CONTINUOUS
  0
LAYER
  5
123
330
2
100
AcDbSymbolTableRecord
100
AcDbLayerTableRecord
  2
234
 70
     0
 62
   234
  6
CONTINUOUS
  0
LAYER
  5
124
330
2
100
AcDbSymbolTableRecord
100
AcDbLayerTableRecord
  2
235
 70
     0
 62
   235
  6
CONTINUOUS
  0
LAYER
  5
125
330
2
100
AcDbSymbolTableRecord
100
AcDbLayerTableRecord
  2
236
 70
     0
 62
   236
  6
CONTINUOUS
  0
LAYER
  5
126
330
2
100
AcDbSymbolTableRecord
100
AcDbLayerTableRecord
  2
237
 70
     0
 62
   237
  6
CONTINUOUS
  0
LAYER
  5
127
330
2
100
AcDbSymbolTableRecord
100
AcDbLayerTableRecord
  2
238
 70
     0
 62
   238
  6
CONTINUOUS
  0
LAYER
  5
128
330
2
100
AcDbSymbolTableRecord
100
AcDbLayerTableRecord
  2
239
 70
     0
 62
   239
  6
CONTINUOUS
  0
LAYER
  5
129
330
2
100
AcDbSymbolTableRecord
100
AcDbLayerTableRecord
  2
240
 70
     0
 62
   240
  6
CONTINUOUS
  0
LAYER
  5
12A
330
2
100
AcDbSymbolTableRecord
100
AcDbLayerTableRecord
  2
241
 70
     0
 62
   241
  6
CONTINUOUS
  0
LAYER
  5
12B
330
2
100
AcDbSymbolTableRecord
100
AcDbLayerTableRecord
  2
242
 70
     0
 62
   242
  6
CONTINUOUS
  0
LAYER
  5
12C
330
2
100
AcDbSymbolTableRecord
100
AcDbLayerTableRecord
  2
243
 70
     0
 62
   243
  6
CONTINUOUS
  0
LAYER
  5
12D
330
2
100
AcDbSymbolTableRecord
100
AcDbLayerTableRecord
  2
244
 70
     0
 62
   244
  6
CONTINUOUS
  0
LAYER
  5
12E
330
2
100
AcDbSymbolTableRecord
100
AcDbLayerTableRecord
  2
245
 70
     0
 62
   245
  6
CONTINUOUS
  0
LAYER
  5
12F
330
2
100
AcDbSymbolTableRecord
100
AcDbLayerTableRecord
  2
246
 70
     0
 62
   246
  6
CONTINUOUS
  0
LAYER
  5
130
330
2
100
AcDbSymbolTableRecord
100
AcDbLayerTableRecord
  2
247
 70
     0
 62
   247
  6
CONTINUOUS
  0
LAYER
  5
131
330
2
100
AcDbSymbolTableRecord
100
AcDbLayerTableRecord
  2
248
 70
     0
 62
   248
  6
CONTINUOUS
  0
LAYER
  5
132
330
2
100
AcDbSymbolTableRecord
100
AcDbLayerTableRecord
  2
249
 70
     0
 62
   249
  6
CONTINUOUS
  0
LAYER
  5
133
330
2
100
AcDbSymbolTableRecord
100
AcDbLayerTableRecord
  2
250
 70
     0
 62
   250
  6
CONTINUOUS
  0
LAYER
  5
134
330
2
100
AcDbSymbolTableRecord
100
AcDbLayerTableRecord
  2
251
 70
     0
 62
   251
  6
CONTINUOUS
  0
LAYER
  5
135
330
2
100
AcDbSymbolTableRecord
100
AcDbLayerTableRecord
  2
252
 70
     0
 62
   252
  6
CONTINUOUS
  0
LAYER
  5
136
330
2
100
AcDbSymbolTableRecord
100
AcDbLayerTableRecord
  2
253
 70
     0
 62
   253
  6
CONTINUOUS
  0
LAYER
  5
137
330
2
100
AcDbSymbolTableRecord
100
AcDbLayerTableRecord
  2
254
 70
     0
 62
   254
  6
CONTINUOUS
  0
LAYER
  5
138
330
2
100
AcDbSymbolTableRecord
100
AcDbLayerTableRecord
  2
255
 70
     0
 62
   255
  6
CONTINUOUS
  0
LAYER
  5
55E5
330
2
100
AcDbSymbolTableRecord
100
AcDbLayerTableRecord
  2
DEFPOINTS
 70
     0
 62
     7
  6
CONTINUOUS
  0
ENDTAB
  0
TABLE
  2
STYLE
  5
3
330
0
100
AcDbSymbolTable
 70
     1
  0
STYLE
  5
11
330
3
100
AcDbSymbolTableRecord
100
AcDbTextStyleTableRecord
  2
STANDARD
 70
     0
 40
0.0
 41
1.0
 50
0.0
 71
     0
 42
0.2
  3
txt
  4

  0
ENDTAB
  0
TABLE
  2
VIEW
  5
6
330
0
100
AcDbSymbolTable
 70
     0
  0
ENDTAB
  0
TABLE
  2
UCS
  5
7
330
0
100
AcDbSymbolTable
 70
     0
  0
ENDTAB
  0
TABLE
  2
APPID
  5
9
330
0
100
AcDbSymbolTable
 70
     1
  0
APPID
  5
12
330
9
100
AcDbSymbolTableRecord
100
AcDbRegAppTableRecord
  2
ACAD
 70
     0
  0
ENDTAB
  0
TABLE
  2
DIMSTYLE
  5
A
330
0
100
AcDbSymbolTable
 70
     1
  0
DIMSTYLE
105
3BCA
102
{ACAD_REACTORS
330
55E4
102
}
330
A
100
AcDbSymbolTableRecord
100
AcDbDimStyleTableRecord
  2
STANDARD
 70
     0
  3

  4

  5

  6

  7

 40
1.0
 41
0.18
 42
0.0625
 43
0.38
 44
0.18
 45
0.0
 46
0.0
 47
0.0
 48
0.0
140
0.18
141
0.09
142
0.0
143
25.4
144
1.0
145
0.0
146
1.0
147
0.09
 71
     0
 72
     0
 73
     1
 74
     1
 75
     0
 76
     0
 77
     0
 78
     0
170
     0
171
     2
172
     0
173
     0
174
     0
175
     0
176
     0
177
     0
178
     0
270
     2
271
     4
272
     4
273
     2
274
     2
340
11
275
     0
280
     0
281
     0
282
     0
283
     1
284
     0
285
     0
286
     0
287
     3
288
     0
  0
ENDTAB
  0
TABLE
  2
BLOCK_RECORD
  5
1
330
0
100
AcDbSymbolTable
 70
     1
  0
BLOCK_RECORD
  5
1E
102
{ACAD_XDICTIONARY
360
5603
102
}
330
1
100
AcDbSymbolTableRecord
100
AcDbBlockTableRecord
  2
*MODEL_SPACE
  0
BLOCK_RECORD
  5
1A
102
{ACAD_XDICTIONARY
360
5601
102
}
330
1
100
AcDbSymbolTableRecord
100
AcDbBlockTableRecord
  2
*PAPER_SPACE
  0
BLOCK_RECORD
  5
55E6
330
1
100
AcDbSymbolTableRecord
100
AcDbBlockTableRecord
  2
*D0
  0
ENDTAB
  0
ENDSEC
  0
SECTION
  2
BLOCKS
  0
BLOCK
  5
13B
330
1E
100
AcDbEntity
  8
0
100
AcDbBlockBegin
  2
*MODEL_SPACE
 70
     0
 10
0.0
 20
0.0
 30
0.0
  3
*MODEL_SPACE
  1

  0
ENDBLK
  5
13C
330
1E
100
AcDbEntity
  8
0
100
AcDbBlockEnd
  0
BLOCK
  5
139
330
1A
100
AcDbEntity
 67
     1
  8
0
100
AcDbBlockBegin
  2
*PAPER_SPACE
 70
     0
 10
0.0
 20
0.0
 30
0.0
  3
*PAPER_SPACE
  1

  0
ENDBLK
  5
13A
330
1A
100
AcDbEntity
 67
     1
  8
0
100
AcDbBlockEnd
  0
BLOCK
  5
55F1
330
55E6
100
AcDbEntity
  8
0
100
AcDbBlockBegin
  2
*D0
 70
     1
 10
0.0
 20
0.0
 30
0.0
  3
*D0
  1

  0
LINE
  5
55F3
330
55E6
100
AcDbEntity
  8
0
 62
     0
100
AcDbLine
 10
-1.036417322834645
 20
8.504429133858268
 30
0.0
 11
-1.036417322834645
 21
9.136130332493552
 31
0.0
  0
LINE
  5
55F4
330
55E6
100
AcDbEntity
  8
0
 62
     0
100
AcDbLine
 10
4.711614173228346
 20
8.504429133858268
 30
0.0
 11
4.711614173228346
 21
9.136130332493552
 31
0.0
  0
LINE
  5
55F5
330
55E6
100
AcDbEntity
  8
0
 62
     0
100
AcDbLine
 10
-0.8564173228346454
 20
8.956130332493552
 30
0.0
 11
1.31259842519685
 21
8.956130332493552
 31
0.0
  0
LINE
  5
55F6
330
55E6
100
AcDbEntity
  8
0
 62
     0
100
AcDbLine
 10
4.531614173228346
 20
8.956130332493552
 30
0.0
 11
2.36259842519685
 21
8.956130332493552
 31
0.0
  0
SOLID
  5
55F7
330
55E6
100
AcDbEntity
  8
0
 62
     0
100
AcDbTrace
 10
-0.8564173228346454
 20
8.986130332493551
 30
0.0
 11
-0.8564173228346454
 21
8.926130332493553
 31
0.0
 12
-1.036417322834645
 22
8.956130332493552
 32
0.0
 13
-1.036417322834645
 23
8.956130332493552
 33
0.0
  0
SOLID
  5
55F8
330
55E6
100
AcDbEntity
  8
0
 62
     0
100
AcDbTrace
 10
4.531614173228346
 20
8.986130332493551
 30
0.0
 11
4.531614173228346
 21
8.926130332493553
 31
0.0
 12
4.711614173228346
 22
8.956130332493552
 32
0.0
 13
4.711614173228346
 23
8.956130332493552
 33
0.0
  0
MTEXT
  5
55F9
330
55E6
100
AcDbEntity
  8
0
 62
     0
100
AcDbMText
 10
1.83759842519685
 20
8.956130332493552
 30
0.0
 40
0.18
 41
0.0
 71
     5
 72
     1
  1
\A1;5.7480
1001
ACAD
1000
MTEXTBEGIN
1070
    73
1070
     1
1070
    44
1040
1.0
1070
    74
1070
     0
1000
MTEXTEND
  0
POINT
  5
55FA
330
55E6
100
AcDbEntity
  8
DEFPOINTS
 62
     0
100
AcDbPoint
 10
-1.036417322834645
 20
8.441929133858268
 30
0.0
  0
POINT
  5
55FB
330
55E6
100
AcDbEntity
  8
DEFPOINTS
 62
     0
100
AcDbPoint
 10
4.711614173228346
 20
8.441929133858268
 30
0.0
  0
POINT
  5
55FC
330
55E6
100
AcDbEntity
  8
DEFPOINTS
 62
     0
100
AcDbPoint
 10
4.711614173228346
 20
8.956130332493552
 30
0.0
  0
ENDBLK
  5
55F2
330
55E6
100
AcDbEntity
  8
0
100
AcDbBlockEnd
  0
ENDSEC
  0
SECTION
  2
ENTITIES
  0
LINE
  5
2659
330
1E
100
AcDbEntity
  8
0
100
AcDbLine
 10
2.347440944881889
 20
4.902559055118111
 30
0.0
 11
2.357283464566929
 21
4.902559055118111
 31
0.0
  0
LINE
  5
265A
330
1E
100
AcDbEntity
  8
0
100
AcDbLine
 10
3.682086614173227
 20
4.902559055118111
 30
0.0
 11
3.691929133858268
 21
4.902559055118111
 31
0.0
  0
LINE
  5
265B
330
1E
100
AcDbEntity
  8
0
100
AcDbLine
 10
1.319881889763779
 20
4.902559055118111
 30
0.0
 11
1.329724409448818
 21
4.902559055118111
 31
0.0
  0
LINE
  5
265C
330
1E
100
AcDbEntity
  8
0
100
AcDbLine
 10
-0.0147637795275593
 20
4.902559055118111
 30
0.0
 11
-0.0049212598425195
 21
4.902559055118111
 31
0.0
  0
LINE
  5
265D
330
1E
100
AcDbEntity
  8
0
100
AcDbLine
 10
2.199803149606299
 20
5.186023622047244
 30
0.0
 11
2.199803149606299
 21
5.178149606299212
 31
0.0
  0
LINE
  5
265E
330
1E
100
AcDbEntity
  8
0
100
AcDbLine
 10
2.99507874015748
 20
5.245078740157479
 30
0.0
 11
2.274606299212598
 21
5.245078740157479
 31
0.0
  0
LINE
  5
265F
330
1E
100
AcDbEntity
  8
0
100
AcDbLine
 10
2.274606299212598
 20
5.119094488188975
 30
0.0
 11
2.325787401574802
 21
5.119094488188975
 31
0.0
  0
LINE
  5
2660
330
1E
100
AcDbEntity
  8
0
100
AcDbLine
 10
2.880905511811024
 20
4.798228346456692
 30
0.0
 11
2.932086614173228
 21
4.798228346456692
 31
0.0
  0
LINE
  5
2661
330
1E
100
AcDbEntity
  8
0
100
AcDbLine
 10
2.376968503937008
 20
4.798228346456692
 30
0.0
 11
2.406496062992125
 21
4.798228346456692
 31
0.0
  0
LINE
  5
2662
330
1E
100
AcDbEntity
  8
0
100
AcDbLine
 10
2.357283464566929
 20
4.882874015748031
 30
0.0
 11
2.345472440944882
 21
4.882874015748031
 31
0.0
  0
LINE
  5
2663
330
1E
100
AcDbEntity
  8
0
100
AcDbLine
 10
2.341535433070865
 20
4.802165354330709
 30
0.0
 11
2.363188976377952
 21
4.802165354330709
 31
0.0
  0
LINE
  5
2664
330
1E
100
AcDbEntity
  8
0
100
AcDbLine
 10
2.406496062992125
 20
4.804133858267716
 30
0.0
 11
2.880905511811024
 21
4.804133858267716
 31
0.0
  0
LINE
  5
2665
330
1E
100
AcDbEntity
  8
0
100
AcDbLine
 10
1.477362204724409
 20
5.178149606299212
 30
0.0
 11
1.477362204724409
 21
5.186023622047244
 31
0.0
  0
LINE
  5
2666
330
1E
100
AcDbEntity
  8
0
100
AcDbLine
 10
1.40255905511811
 20
5.245078740157479
 30
0.0
 11
0.6820866141732287
 21
5.245078740157479
 31
0.0
  0
LINE
  5
2667
330
1E
100
AcDbEntity
  8
0
100
AcDbLine
 10
1.349409448818898
 20
5.119094488188975
 30
0.0
 11
1.40255905511811
 21
5.119094488188975
 31
0.0
  0
LINE
  5
2668
330
1E
100
AcDbEntity
  8
0
100
AcDbLine
 10
0.7450787401574806
 20
4.798228346456692
 30
0.0
 11
0.7942913385826769
 21
4.798228346456692
 31
0.0
  0
LINE
  5
2669
330
1E
100
AcDbEntity
  8
0
100
AcDbLine
 10
1.270669291338582
 20
4.798228346456692
 30
0.0
 11
1.3001968503937
 21
4.798228346456692
 31
0.0
  0
LINE
  5
266A
330
1E
100
AcDbEntity
  8
0
100
AcDbLine
 10
1.331692913385826
 20
4.882874015748031
 30
0.0
 11
1.319881889763779
 21
4.882874015748031
 31
0.0
  0
LINE
  5
266B
330
1E
100
AcDbEntity
  8
0
100
AcDbLine
 10
1.313976377952755
 20
4.802165354330709
 30
0.0
 11
1.333661417322834
 21
4.802165354330709
 31
0.0
  0
LINE
  5
266C
330
1E
100
AcDbEntity
  8
0
100
AcDbLine
 10
0.7942913385826769
 20
4.804133858267716
 30
0.0
 11
1.270669291338582
 21
4.804133858267716
 31
0.0
  0
LINE
  5
266D
330
1E
100
AcDbEntity
  8
0
100
AcDbLine
 10
3.689960629921259
 20
4.898622047244094
 30
0.0
 11
3.691929133858268
 21
4.898622047244094
 31
0.0
  0
LINE
  5
266E
330
1E
100
AcDbEntity
  8
0
100
AcDbLine
 10
-0.1624015748031491
 20
5.186023622047244
 30
0.0
 11
-0.1624015748031491
 21
5.178149606299212
 31
0.0
  0
LINE
  5
266F
330
1E
100
AcDbEntity
  8
0
100
AcDbLine
 10
0.6328740157480315
 20
5.245078740157479
 30
0.0
 11
-0.08759842519685
 21
5.245078740157479
 31
0.0
  0
LINE
  5
2670
330
1E
100
AcDbEntity
  8
0
100
AcDbLine
 10
-0.08759842519685
 20
5.119094488188975
 30
0.0
 11
-0.0364173228346454
 21
5.119094488188975
 31
0.0
  0
LINE
  5
2671
330
1E
100
AcDbEntity
  8
0
100
AcDbLine
 10
0.5206692913385825
 20
4.798228346456692
 30
0.0
 11
0.5698818897637797
 21
4.798228346456692
 31
0.0
  0
LINE
  5
2672
330
1E
100
AcDbEntity
  8
0
100
AcDbLine
 10
0.0147637795275593
 20
4.798228346456692
 30
0.0
 11
0.0442913385826769
 21
4.798228346456692
 31
0.0
  0
LINE
  5
2673
330
1E
100
AcDbEntity
  8
0
100
AcDbLine
 10
-0.0049212598425195
 20
4.882874015748031
 30
0.0
 11
-0.0167322834645667
 21
4.882874015748031
 31
0.0
  0
LINE
  5
2674
330
1E
100
AcDbEntity
  8
0
100
AcDbLine
 10
-0.0206692913385824
 20
4.802165354330709
 30
0.0
 11
0.0009842519685037
 21
4.802165354330709
 31
0.0
  0
LINE
  5
2675
330
1E
100
AcDbEntity
  8
0
100
AcDbLine
 10
0.0442913385826769
 20
4.804133858267716
 30
0.0
 11
0.5206692913385825
 21
4.804133858267716
 31
0.0
  0
LINE
  5
2676
330
1E
100
AcDbEntity
  8
0
100
AcDbLine
 10
1.327755905511811
 20
4.898622047244094
 30
0.0
 11
1.329724409448818
 21
4.898622047244094
 31
0.0
  0
LINE
  5
2677
330
1E
100
AcDbEntity
  8
0
100
AcDbLine
 10
3.839566929133857
 20
5.178149606299212
 30
0.0
 11
3.839566929133857
 21
5.186023622047244
 31
0.0
  0
LINE
  5
2678
330
1E
100
AcDbEntity
  8
0
100
AcDbLine
 10
3.764763779527559
 20
5.245078740157479
 30
0.0
 11
3.044291338582676
 21
5.245078740157479
 31
0.0
  0
LINE
  5
2679
330
1E
100
AcDbEntity
  8
0
100
AcDbLine
 10
3.711614173228346
 20
5.119094488188975
 30
0.0
 11
3.764763779527559
 21
5.119094488188975
 31
0.0
  0
LINE
  5
267A
330
1E
100
AcDbEntity
  8
0
100
AcDbLine
 10
3.107283464566929
 20
4.798228346456692
 30
0.0
 11
3.156496062992125
 21
4.798228346456692
 31
0.0
  0
LINE
  5
267B
330
1E
100
AcDbEntity
  8
0
100
AcDbLine
 10
3.632874015748031
 20
4.798228346456692
 30
0.0
 11
3.662401574803149
 21
4.798228346456692
 31
0.0
  0
LINE
  5
267C
330
1E
100
AcDbEntity
  8
0
100
AcDbLine
 10
3.693897637795275
 20
4.882874015748031
 30
0.0
 11
3.682086614173227
 21
4.882874015748031
 31
0.0
  0
LINE
  5
267D
330
1E
100
AcDbEntity
  8
0
100
AcDbLine
 10
3.676181102362205
 20
4.802165354330709
 30
0.0
 11
3.695866141732283
 21
4.802165354330709
 31
0.0
  0
LINE
  5
267E
330
1E
100
AcDbEntity
  8
0
100
AcDbLine
 10
3.156496062992125
 20
4.804133858267716
 30
0.0
 11
3.632874015748031
 21
4.804133858267716
 31
0.0
  0
LINE
  5
26AC
330
1E
100
AcDbEntity
  8
0
100
AcDbLine
 10
2.343503937007874
 20
4.798228346456692
 30
0.0
 11
2.343503937007874
 21
4.802165354330709
 31
0.0
  0
LINE
  5
26B2
330
1E
100
AcDbEntity
  8
0
100
AcDbLine
 10
-0.018700787401575
 20
4.798228346456692
 30
0.0
 11
-0.018700787401575
 21
4.802165354330709
 31
0.0
  0
LINE
  5
270E
330
1E
100
AcDbEntity
  8
0
100
AcDbLine
 10
1.477362204724409
 20
5.186023622047244
 30
0.0
 11
1.477362204724409
 21
5.187992125984251
 31
0.0
  0
LINE
  5
2790
330
1E
100
AcDbEntity
  8
0
100
AcDbLine
 10
3.839566929133857
 20
5.186023622047244
 30
0.0
 11
3.839566929133857
 21
5.187992125984251
 31
0.0
  0
LINE
  5
27B9
330
1E
100
AcDbEntity
  8
0
100
AcDbLine
 10
1.432086614173228
 20
6.008858267716535
 30
0.0
 11
1.432086614173228
 21
5.845472440944881
 31
0.0
  0
LINE
  5
27BA
330
1E
100
AcDbEntity
  8
0
100
AcDbLine
 10
1.432086614173228
 20
5.845472440944881
 30
0.0
 11
1.432086614173228
 21
5.625
 31
0.0
  0
LINE
  5
27BB
330
1E
100
AcDbEntity
  8
0
100
AcDbLine
 10
-0.1171259842519685
 20
5.562007874015748
 30
0.0
 11
-0.1171259842519685
 21
5.506889763779527
 31
0.0
  0
LINE
  5
27BC
330
1E
100
AcDbEntity
  8
0
100
AcDbLine
 10
-0.1171259842519685
 20
5.079724409448818
 30
0.0
 11
-0.1171259842519685
 21
4.674212598425196
 31
0.0
  0
LINE
  5
27BD
330
1E
100
AcDbEntity
  8
0
100
AcDbLine
 10
1.345472440944882
 20
4.674212598425196
 30
0.0
 11
1.432086614173228
 21
4.674212598425196
 31
0.0
  0
LINE
  5
27BE
330
1E
100
AcDbEntity
  8
0
100
AcDbLine
 10
1.345472440944882
 20
4.674212598425196
 30
0.0
 11
-0.0305118110236222
 21
4.674212598425196
 31
0.0
  0
LINE
  5
27BF
330
1E
100
AcDbEntity
  8
0
100
AcDbLine
 10
-0.1171259842519685
 20
4.674212598425196
 30
0.0
 11
-0.0305118110236222
 21
4.674212598425196
 31
0.0
  0
LINE
  5
27C0
330
1E
100
AcDbEntity
  8
0
100
AcDbLine
 10
0.0364173228346454
 20
4.798228346456692
 30
0.0
 11
0.0364173228346454
 21
4.794291338582677
 31
0.0
  0
LINE
  5
27C1
330
1E
100
AcDbEntity
  8
0
100
AcDbLine
 10
0.0364173228346454
 20
4.786417322834646
 30
0.0
 11
0.0364173228346454
 21
4.794291338582677
 31
0.0
  0
LINE
  5
27C2
330
1E
100
AcDbEntity
  8
0
100
AcDbLine
 10
0.0364173228346454
 20
4.798228346456692
 30
0.0
 11
0.0364173228346454
 21
4.786417322834646
 31
0.0
  0
LINE
  5
27C3
330
1E
100
AcDbEntity
  8
0
100
AcDbLine
 10
1.278543307086613
 20
4.798228346456692
 30
0.0
 11
1.278543307086613
 21
4.786417322834646
 31
0.0
  0
LINE
  5
27C4
330
1E
100
AcDbEntity
  8
0
100
AcDbLine
 10
1.278543307086613
 20
4.794291338582677
 30
0.0
 11
1.278543307086613
 21
4.786417322834646
 31
0.0
  0
LINE
  5
27C5
330
1E
100
AcDbEntity
  8
0
100
AcDbLine
 10
1.278543307086613
 20
4.798228346456692
 30
0.0
 11
1.278543307086613
 21
4.794291338582677
 31
0.0
  0
LINE
  5
27C6
330
1E
100
AcDbEntity
  8
0
100
AcDbLine
 10
1.437992125984251
 20
5.500984251968503
 30
0.0
 11
1.432086614173228
 21
5.506889763779527
 31
0.0
  0
LINE
  5
27C7
330
1E
100
AcDbEntity
  8
0
100
AcDbLine
 10
-0.1171259842519685
 20
5.506889763779527
 30
0.0
 11
-0.1230314960629917
 21
5.500984251968503
 31
0.0
  0
LINE
  5
27C8
330
1E
100
AcDbEntity
  8
0
100
AcDbLine
 10
-0.1171259842519685
 20
6.008858267716535
 30
0.0
 11
1.432086614173228
 21
6.008858267716535
 31
0.0
  0
LINE
  5
27C9
330
1E
100
AcDbEntity
  8
0
100
AcDbLine
 10
-0.1171259842519685
 20
6.008858267716535
 30
0.0
 11
-0.1171259842519685
 21
5.845472440944881
 31
0.0
  0
LINE
  5
27D0
330
1E
100
AcDbEntity
  8
0
100
AcDbLine
 10
1.388779527559055
 20
5.908464566929133
 30
0.0
 11
-0.0738188976377954
 21
5.908464566929133
 31
0.0
  0
LINE
  5
27D7
330
1E
100
AcDbEntity
  8
0
100
AcDbLine
 10
-0.1171259842519685
 20
4.674212598425196
 30
0.0
 11
-0.1171259842519685
 21
4.674212598425196
 31
0.0
  0
LINE
  5
27D8
330
1E
100
AcDbEntity
  8
0
100
AcDbLine
 10
-0.1171259842519685
 20
4.674212598425196
 30
0.0
 11
-0.1131889763779528
 21
4.788385826771653
 31
0.0
  0
LINE
  5
27DE
330
1E
100
AcDbEntity
  8
0
100
AcDbLine
 10
-0.1131889763779528
 20
4.841535433070866
 30
0.0
 11
-0.1131889763779528
 21
4.943897637795275
 31
0.0
  0
LINE
  5
27DF
330
1E
100
AcDbEntity
  8
0
100
AcDbLine
 10
-0.1131889763779528
 20
4.943897637795275
 30
0.0
 11
-0.1053149606299213
 21
5.121062992125985
 31
0.0
  0
LINE
  5
27E0
330
1E
100
AcDbEntity
  8
0
100
AcDbLine
 10
-0.1013779527559055
 20
5.247047244094488
 30
0.0
 11
-0.1013779527559055
 21
5.243110236220472
 31
0.0
  0
LINE
  5
27E1
330
1E
100
AcDbEntity
  8
0
100
AcDbLine
 10
-0.1013779527559055
 20
5.249015748031496
 30
0.0
 11
-0.1013779527559055
 21
5.247047244094488
 31
0.0
  0
LINE
  5
27E2
330
1E
100
AcDbEntity
  8
0
100
AcDbLine
 10
-0.1013779527559055
 20
5.249015748031496
 30
0.0
 11
-0.0994094488188973
 21
5.286417322834646
 31
0.0
  0
LINE
  5
27E9
330
1E
100
AcDbEntity
  8
0
100
AcDbLine
 10
-0.0994094488188973
 20
5.355314960629922
 30
0.0
 11
-0.1171259842519685
 21
5.845472440944881
 31
0.0
  0
LINE
  5
27EA
330
1E
100
AcDbEntity
  8
0
100
AcDbLine
 10
-0.1171259842519685
 20
5.845472440944881
 30
0.0
 11
-0.1171259842519685
 21
5.625
 31
0.0
  0
LINE
  5
27EB
330
1E
100
AcDbEntity
  8
0
100
AcDbLine
 10
-0.1171259842519685
 20
5.625
 30
0.0
 11
-0.1171259842519685
 21
5.562007874015748
 31
0.0
  0
LINE
  5
27EC
330
1E
100
AcDbEntity
  8
0
100
AcDbLine
 10
-0.1230314960629917
 20
5.237204724409448
 30
0.0
 11
-0.1230314960629917
 21
5.500984251968503
 31
0.0
  0
LINE
  5
27ED
330
1E
100
AcDbEntity
  8
0
100
AcDbLine
 10
-0.1171259842519685
 20
5.125
 30
0.0
 11
-0.1171259842519685
 21
5.079724409448818
 31
0.0
  0
LINE
  5
27EE
330
1E
100
AcDbEntity
  8
0
100
AcDbLine
 10
1.331692913385826
 20
4.774606299212598
 30
0.0
 11
1.333661417322834
 21
4.774606299212598
 31
0.0
  0
LINE
  5
27EF
330
1E
100
AcDbEntity
  8
0
100
AcDbLine
 10
-0.0167322834645667
 20
4.774606299212598
 30
0.0
 11
-0.018700787401575
 21
4.774606299212598
 31
0.0
  0
LINE
  5
27F0
330
1E
100
AcDbEntity
  8
0
100
AcDbLine
 10
-0.012795275590551
 20
4.882874015748031
 30
0.0
 11
-0.0147637795275593
 21
4.902559055118111
 31
0.0
  0
LINE
  5
27FA
330
1E
100
AcDbEntity
  8
0
100
AcDbLine
 10
1.327755905511811
 20
4.882874015748031
 30
0.0
 11
1.329724409448818
 21
4.902559055118111
 31
0.0
  0
LINE
  5
27FB
330
1E
100
AcDbEntity
  8
0
100
AcDbLine
 10
1.329724409448818
 20
4.904527559055118
 30
0.0
 11
1.329724409448818
 21
4.904527559055118
 31
0.0
  0
LINE
  5
27FC
330
1E
100
AcDbEntity
  8
0
100
AcDbLine
 10
1.329724409448818
 20
4.904527559055118
 30
0.0
 11
1.329724409448818
 21
4.902559055118111
 31
0.0
  0
LINE
  5
27FD
330
1E
100
AcDbEntity
  8
0
100
AcDbLine
 10
1.331692913385826
 20
4.802165354330709
 30
0.0
 11
1.331692913385826
 21
4.794291338582677
 31
0.0
  0
LINE
  5
27FE
330
1E
100
AcDbEntity
  8
0
100
AcDbLine
 10
1.331692913385826
 20
4.774606299212598
 30
0.0
 11
1.331692913385826
 21
4.794291338582677
 31
0.0
  0
LINE
  5
280D
330
1E
100
AcDbEntity
  8
0
100
AcDbLine
 10
1.428149606299212
 20
4.788385826771653
 30
0.0
 11
1.432086614173228
 21
4.674212598425196
 31
0.0
  0
LINE
  5
280E
330
1E
100
AcDbEntity
  8
0
100
AcDbLine
 10
1.432086614173228
 20
4.674212598425196
 30
0.0
 11
1.432086614173228
 21
4.674212598425196
 31
0.0
  0
LINE
  5
280F
330
1E
100
AcDbEntity
  8
0
100
AcDbLine
 10
1.432086614173228
 20
5.079724409448818
 30
0.0
 11
1.432086614173228
 21
4.674212598425196
 31
0.0
  0
LINE
  5
2810
330
1E
100
AcDbEntity
  8
0
100
AcDbLine
 10
1.432086614173228
 20
5.125
 30
0.0
 11
1.432086614173228
 21
5.079724409448818
 31
0.0
  0
LINE
  5
2811
330
1E
100
AcDbEntity
  8
0
100
AcDbLine
 10
1.432086614173228
 20
5.562007874015748
 30
0.0
 11
1.432086614173228
 21
5.506889763779527
 31
0.0
  0
LINE
  5
2812
330
1E
100
AcDbEntity
  8
0
100
AcDbLine
 10
1.432086614173228
 20
5.625
 30
0.0
 11
1.432086614173228
 21
5.562007874015748
 31
0.0
  0
LINE
  5
2813
330
1E
100
AcDbEntity
  8
0
100
AcDbLine
 10
1.432086614173228
 20
5.845472440944881
 30
0.0
 11
1.414370078740157
 21
5.355314960629922
 31
0.0
  0
LINE
  5
281A
330
1E
100
AcDbEntity
  8
0
100
AcDbLine
 10
1.414370078740157
 20
5.286417322834646
 30
0.0
 11
1.416338582677165
 21
5.249015748031496
 31
0.0
  0
LINE
  5
281B
330
1E
100
AcDbEntity
  8
0
100
AcDbLine
 10
1.416338582677165
 20
5.247047244094488
 30
0.0
 11
1.416338582677165
 21
5.249015748031496
 31
0.0
  0
LINE
  5
281C
330
1E
100
AcDbEntity
  8
0
100
AcDbLine
 10
1.416338582677165
 20
5.247047244094488
 30
0.0
 11
1.416338582677165
 21
5.243110236220472
 31
0.0
  0
LINE
  5
281D
330
1E
100
AcDbEntity
  8
0
100
AcDbLine
 10
1.420275590551181
 20
5.121062992125985
 30
0.0
 11
1.426181102362204
 21
4.943897637795275
 31
0.0
  0
LINE
  5
281E
330
1E
100
AcDbEntity
  8
0
100
AcDbLine
 10
1.426181102362204
 20
4.943897637795275
 30
0.0
 11
1.426181102362204
 21
4.841535433070866
 31
0.0
  0
LINE
  5
281F
330
1E
100
AcDbEntity
  8
0
100
AcDbLine
 10
-0.0167322834645667
 20
4.774606299212598
 30
0.0
 11
-0.0167322834645667
 21
4.794291338582677
 31
0.0
  0
LINE
  5
2820
330
1E
100
AcDbEntity
  8
0
100
AcDbLine
 10
-0.0167322834645667
 20
4.802165354330709
 30
0.0
 11
-0.0167322834645667
 21
4.794291338582677
 31
0.0
  0
LINE
  5
2821
330
1E
100
AcDbEntity
  8
0
100
AcDbLine
 10
-0.0147637795275593
 20
4.904527559055118
 30
0.0
 11
-0.0147637795275593
 21
4.902559055118111
 31
0.0
  0
LINE
  5
2822
330
1E
100
AcDbEntity
  8
0
100
AcDbLine
 10
-0.0147637795275593
 20
4.904527559055118
 30
0.0
 11
-0.0147637795275593
 21
4.904527559055118
 31
0.0
  0
LINE
  5
2823
330
1E
100
AcDbEntity
  8
0
100
AcDbLine
 10
-0.0738188976377954
 20
5.908464566929133
 30
0.0
 11
-0.0561023622047241
 21
5.386811023622048
 31
0.0
  0
LINE
  5
2824
330
1E
100
AcDbEntity
  8
0
100
AcDbLine
 10
-0.0561023622047241
 20
5.386811023622048
 30
0.0
 11
1.369094488188976
 21
5.386811023622048
 31
0.0
  0
LINE
  5
2825
330
1E
100
AcDbEntity
  8
0
100
AcDbLine
 10
1.369094488188976
 20
5.386811023622048
 30
0.0
 11
1.388779527559055
 21
5.908464566929133
 31
0.0
  0
LINE
  5
2830
330
1E
100
AcDbEntity
  8
0
100
AcDbLine
 10
0.7450787401574806
 20
4.794291338582677
 30
0.0
 11
0.7450787401574806
 21
4.796259842519685
 31
0.0
  0
LINE
  5
2831
330
1E
100
AcDbEntity
  8
0
100
AcDbLine
 10
0.7450787401574806
 20
4.794291338582677
 30
0.0
 11
0.7450787401574806
 21
4.786417322834646
 31
0.0
  0
LINE
  5
2832
330
1E
100
AcDbEntity
  8
0
100
AcDbLine
 10
0.806102362204724
 20
4.786417322834646
 30
0.0
 11
0.7450787401574806
 21
4.786417322834646
 31
0.0
  0
LINE
  5
2833
330
1E
100
AcDbEntity
  8
0
100
AcDbLine
 10
0.806102362204724
 20
4.804133858267716
 30
0.0
 11
0.806102362204724
 21
4.800196850393701
 31
0.0
  0
LINE
  5
2834
330
1E
100
AcDbEntity
  8
0
100
AcDbLine
 10
1.270669291338582
 20
4.800196850393701
 30
0.0
 11
0.806102362204724
 21
4.800196850393701
 31
0.0
  0
LINE
  5
2835
330
1E
100
AcDbEntity
  8
0
100
AcDbLine
 10
0.806102362204724
 20
4.786417322834646
 30
0.0
 11
0.806102362204724
 21
4.800196850393701
 31
0.0
  0
LINE
  5
2836
330
1E
100
AcDbEntity
  8
0
100
AcDbLine
 10
0.0442913385826769
 20
4.800196850393701
 30
0.0
 11
0.5088582677165352
 21
4.800196850393701
 31
0.0
  0
LINE
  5
2837
330
1E
100
AcDbEntity
  8
0
100
AcDbLine
 10
0.5088582677165352
 20
4.800196850393701
 30
0.0
 11
0.5088582677165352
 21
4.804133858267716
 31
0.0
  0
LINE
  5
2838
330
1E
100
AcDbEntity
  8
0
100
AcDbLine
 10
0.5088582677165352
 20
4.800196850393701
 30
0.0
 11
0.5088582677165352
 21
4.786417322834646
 31
0.0
  0
LINE
  5
2839
330
1E
100
AcDbEntity
  8
0
100
AcDbLine
 10
0.5088582677165352
 20
4.786417322834646
 30
0.0
 11
0.5698818897637797
 21
4.786417322834646
 31
0.0
  0
LINE
  5
283A
330
1E
100
AcDbEntity
  8
0
100
AcDbLine
 10
0.5698818897637797
 20
4.794291338582677
 30
0.0
 11
0.5698818897637797
 21
4.786417322834646
 31
0.0
  0
LINE
  5
283B
330
1E
100
AcDbEntity
  8
0
100
AcDbLine
 10
0.5698818897637797
 20
4.794291338582677
 30
0.0
 11
0.5698818897637797
 21
4.796259842519685
 31
0.0
  0
LINE
  5
2846
330
1E
100
AcDbEntity
  8
0
100
AcDbLine
 10
0.7450787401574806
 20
4.81003937007874
 30
0.0
 11
0.5698818897637797
 21
4.81003937007874
 31
0.0
  0
LINE
  5
2847
330
1E
100
AcDbEntity
  8
0
100
AcDbLine
 10
0.5698818897637797
 20
4.796259842519685
 30
0.0
 11
0.7450787401574806
 21
4.796259842519685
 31
0.0
  0
LINE
  5
2848
330
1E
100
AcDbEntity
  8
0
100
AcDbLine
 10
0.5698818897637797
 20
4.794291338582677
 30
0.0
 11
0.7450787401574806
 21
4.794291338582677
 31
0.0
  0
LINE
  5
2849
330
1E
100
AcDbEntity
  8
0
100
AcDbLine
 10
-0.0561023622047241
 20
5.252952755905512
 30
0.0
 11
1.369094488188976
 21
5.252952755905512
 31
0.0
  0
LINE
  5
2850
330
1E
100
AcDbEntity
  8
0
100
AcDbLine
 10
-0.1013779527559055
 20
5.247047244094488
 30
0.0
 11
1.416338582677165
 21
5.247047244094488
 31
0.0
  0
LINE
  5
2857
330
1E
100
AcDbEntity
  8
0
100
AcDbLine
 10
1.331692913385826
 20
4.752952755905512
 30
0.0
 11
-0.0167322834645667
 21
4.752952755905512
 31
0.0
  0
LINE
  5
2858
330
1E
100
AcDbEntity
  8
0
100
AcDbLine
 10
-0.0167322834645667
 20
4.752952755905512
 30
0.0
 11
-0.0206692913385824
 21
4.684055118110237
 31
0.0
  0
LINE
  5
2859
330
1E
100
AcDbEntity
  8
0
100
AcDbLine
 10
-0.0206692913385824
 20
4.684055118110237
 30
0.0
 11
-0.0305118110236222
 21
4.674212598425196
 31
0.0
  0
LINE
  5
285A
330
1E
100
AcDbEntity
  8
0
100
AcDbLine
 10
1.345472440944882
 20
4.674212598425196
 30
0.0
 11
1.333661417322834
 21
4.684055118110237
 31
0.0
  0
LINE
  5
285B
330
1E
100
AcDbEntity
  8
0
100
AcDbLine
 10
1.331692913385826
 20
4.752952755905512
 30
0.0
 11
1.333661417322834
 21
4.684055118110237
 31
0.0
  0
LINE
  5
285C
330
1E
100
AcDbEntity
  8
0
100
AcDbLine
 10
0.66240157480315
 20
4.875
 30
0.0
 11
0.6525590551181102
 21
4.875
 31
0.0
  0
LINE
  5
285D
330
1E
100
AcDbEntity
  8
0
100
AcDbLine
 10
1.278543307086613
 20
4.786417322834646
 30
0.0
 11
0.806102362204724
 21
4.786417322834646
 31
0.0
  0
LINE
  5
285E
330
1E
100
AcDbEntity
  8
0
100
AcDbLine
 10
0.0364173228346454
 20
4.786417322834646
 30
0.0
 11
0.5088582677165352
 21
4.786417322834646
 31
0.0
  0
LINE
  5
285F
330
1E
100
AcDbEntity
  8
0
100
AcDbLine
 10
-0.0167322834645667
 20
4.794291338582677
 30
0.0
 11
0.0364173228346454
 21
4.794291338582677
 31
0.0
  0
LINE
  5
2860
330
1E
100
AcDbEntity
  8
0
100
AcDbLine
 10
-0.0167322834645667
 20
4.752952755905512
 30
0.0
 11
-0.0167322834645667
 21
4.774606299212598
 31
0.0
  0
LINE
  5
2861
330
1E
100
AcDbEntity
  8
0
100
AcDbLine
 10
1.331692913385826
 20
4.752952755905512
 30
0.0
 11
1.331692913385826
 21
4.774606299212598
 31
0.0
  0
LINE
  5
2862
330
1E
100
AcDbEntity
  8
0
100
AcDbLine
 10
1.331692913385826
 20
4.794291338582677
 30
0.0
 11
1.278543307086613
 21
4.794291338582677
 31
0.0
  0
LINE
  5
2863
330
1E
100
AcDbEntity
  8
0
100
AcDbLine
 10
1.369094488188976
 20
5.25492125984252
 30
0.0
 11
-0.0561023622047241
 21
5.25492125984252
 31
0.0
  0
LINE
  5
2864
330
1E
100
AcDbEntity
  8
0
100
AcDbLine
 10
-0.0561023622047241
 20
5.25492125984252
 30
0.0
 11
-0.0561023622047241
 21
5.252952755905512
 31
0.0
  0
LINE
  5
2865
330
1E
100
AcDbEntity
  8
0
100
AcDbLine
 10
1.369094488188976
 20
5.252952755905512
 30
0.0
 11
1.369094488188976
 21
5.25492125984252
 31
0.0
  0
LINE
  5
2866
330
1E
100
AcDbEntity
  8
0
100
AcDbLine
 10
1.329724409448818
 20
4.904527559055118
 30
0.0
 11
1.319881889763779
 21
4.904527559055118
 31
0.0
  0
LINE
  5
2867
330
1E
100
AcDbEntity
  8
0
100
AcDbLine
 10
1.329724409448818
 20
4.904527559055118
 30
0.0
 11
1.329724409448818
 21
5.115157480314961
 31
0.0
  0
LINE
  5
2868
330
1E
100
AcDbEntity
  8
0
100
AcDbLine
 10
-0.0147637795275593
 20
4.904527559055118
 30
0.0
 11
-0.0147637795275593
 21
5.115157480314961
 31
0.0
  0
LINE
  5
2869
330
1E
100
AcDbEntity
  8
0
100
AcDbLine
 10
-0.0147637795275593
 20
4.904527559055118
 30
0.0
 11
-0.0049212598425195
 21
4.904527559055118
 31
0.0
  0
LINE
  5
286A
330
1E
100
AcDbEntity
  8
0
100
AcDbLine
 10
0.66240157480315
 20
4.89271653543307
 30
0.0
 11
0.6525590551181102
 21
4.89271653543307
 31
0.0
  0
LINE
  5
286B
330
1E
100
AcDbEntity
  8
0
100
AcDbLine
 10
1.345472440944882
 20
4.674212598425196
 30
0.0
 11
1.410433070866141
 21
4.674212598425196
 31
0.0
  0
LINE
  5
286C
330
1E
100
AcDbEntity
  8
0
100
AcDbLine
 10
1.410433070866141
 20
4.674212598425196
 30
0.0
 11
1.408464566929134
 21
4.77263779527559
 31
0.0
  0
LINE
  5
286D
330
1E
100
AcDbEntity
  8
0
100
AcDbLine
 10
1.408464566929134
 20
4.77263779527559
 30
0.0
 11
1.345472440944882
 21
4.77263779527559
 31
0.0
  0
LINE
  5
286E
330
1E
100
AcDbEntity
  8
0
100
AcDbLine
 10
1.345472440944882
 20
4.77263779527559
 30
0.0
 11
1.345472440944882
 21
4.674212598425196
 31
0.0
  0
LINE
  5
286F
330
1E
100
AcDbEntity
  8
0
100
AcDbLine
 10
1.345472440944882
 20
4.674212598425196
 30
0.0
 11
1.345472440944882
 21
4.674212598425196
 31
0.0
  0
LINE
  5
2875
330
1E
100
AcDbEntity
  8
0
100
AcDbLine
 10
1.406496062992125
 20
4.841535433070866
 30
0.0
 11
1.343503937007874
 21
4.841535433070866
 31
0.0
  0
LINE
  5
287B
330
1E
100
AcDbEntity
  8
0
100
AcDbLine
 10
1.406496062992125
 20
4.841535433070866
 30
0.0
 11
1.406496062992125
 21
4.912401574803149
 31
0.0
  0
LINE
  5
287C
330
1E
100
AcDbEntity
  8
0
100
AcDbLine
 10
1.406496062992125
 20
4.912401574803149
 30
0.0
 11
1.382874015748031
 21
4.900590551181101
 31
0.0
  0
LINE
  5
287D
330
1E
100
AcDbEntity
  8
0
100
AcDbLine
 10
1.341535433070866
 20
4.900590551181101
 30
0.0
 11
1.382874015748031
 21
4.900590551181101
 31
0.0
  0
LINE
  5
287E
330
1E
100
AcDbEntity
  8
0
100
AcDbLine
 10
1.341535433070866
 20
4.900590551181101
 30
0.0
 11
1.343503937007874
 21
4.841535433070866
 31
0.0
  0
LINE
  5
287F
330
1E
100
AcDbEntity
  8
0
100
AcDbLine
 10
1.382874015748031
 20
4.900590551181101
 30
0.0
 11
1.375
 21
5.09744094488189
 31
0.0
  0
LINE
  5
2880
330
1E
100
AcDbEntity
  8
0
100
AcDbLine
 10
1.375
 20
5.09744094488189
 30
0.0
 11
1.341535433070866
 21
5.09744094488189
 31
0.0
  0
LINE
  5
2881
330
1E
100
AcDbEntity
  8
0
100
AcDbLine
 10
1.341535433070866
 20
5.09744094488189
 30
0.0
 11
1.341535433070866
 21
4.900590551181101
 31
0.0
  0
LINE
  5
2882
330
1E
100
AcDbEntity
  8
0
100
AcDbLine
 10
1.341535433070866
 20
4.900590551181101
 30
0.0
 11
1.341535433070866
 21
4.900590551181101
 31
0.0
  0
LINE
  5
2888
330
1E
100
AcDbEntity
  8
0
100
AcDbLine
 10
1.345472440944882
 20
4.674212598425196
 30
0.0
 11
1.345472440944882
 21
4.674212598425196
 31
0.0
  0
LINE
  5
2889
330
1E
100
AcDbEntity
  8
0
100
AcDbLine
 10
1.333661417322834
 20
4.841535433070866
 30
0.0
 11
1.331692913385826
 21
4.904527559055118
 31
0.0
  0
LINE
  5
288A
330
1E
100
AcDbEntity
  8
0
100
AcDbLine
 10
1.331692913385826
 20
4.904527559055118
 30
0.0
 11
1.331692913385826
 21
5.105314960629922
 31
0.0
  0
LINE
  5
288B
330
1E
100
AcDbEntity
  8
0
100
AcDbLine
 10
1.331692913385826
 20
5.115157480314961
 30
0.0
 11
1.331692913385826
 21
5.105314960629922
 31
0.0
  0
LINE
  5
288C
330
1E
100
AcDbEntity
  8
0
100
AcDbLine
 10
1.333661417322834
 20
4.684055118110237
 30
0.0
 11
1.335629921259842
 21
4.684055118110237
 31
0.0
  0
LINE
  5
288D
330
1E
100
AcDbEntity
  8
0
100
AcDbLine
 10
1.335629921259842
 20
4.684055118110237
 30
0.0
 11
1.335629921259842
 21
4.780511811023622
 31
0.0
  0
LINE
  5
2898
330
1E
100
AcDbEntity
  8
0
100
AcDbLine
 10
1.331692913385826
 20
5.105314960629922
 30
0.0
 11
1.341535433070866
 21
5.09744094488189
 31
0.0
  0
LINE
  5
2899
330
1E
100
AcDbEntity
  8
0
100
AcDbLine
 10
-0.0935039370078741
 20
4.77263779527559
 30
0.0
 11
-0.0305118110236222
 21
4.77263779527559
 31
0.0
  0
LINE
  5
289A
330
1E
100
AcDbEntity
  8
0
100
AcDbLine
 10
-0.0935039370078741
 20
4.77263779527559
 30
0.0
 11
-0.0974409448818898
 21
4.674212598425196
 31
0.0
  0
LINE
  5
289B
330
1E
100
AcDbEntity
  8
0
100
AcDbLine
 10
-0.0305118110236222
 20
4.674212598425196
 30
0.0
 11
-0.0974409448818898
 21
4.674212598425196
 31
0.0
  0
LINE
  5
289C
330
1E
100
AcDbEntity
  8
0
100
AcDbLine
 10
-0.0305118110236222
 20
4.674212598425196
 30
0.0
 11
-0.0305118110236222
 21
4.674212598425196
 31
0.0
  0
LINE
  5
289D
330
1E
100
AcDbEntity
  8
0
100
AcDbLine
 10
-0.0305118110236222
 20
4.674212598425196
 30
0.0
 11
-0.0305118110236222
 21
4.77263779527559
 31
0.0
  0
LINE
  5
289E
330
1E
100
AcDbEntity
  8
0
100
AcDbLine
 10
-0.0915354330708658
 20
4.841535433070866
 30
0.0
 11
-0.0305118110236222
 21
4.841535433070866
 31
0.0
  0
LINE
  5
28A9
330
1E
100
AcDbEntity
  8
0
100
AcDbLine
 10
-0.0679133858267713
 20
4.900590551181101
 30
0.0
 11
-0.0915354330708658
 21
4.912401574803149
 31
0.0
  0
LINE
  5
28AA
330
1E
100
AcDbEntity
  8
0
100
AcDbLine
 10
-0.0915354330708658
 20
4.912401574803149
 30
0.0
 11
-0.0915354330708658
 21
4.841535433070866
 31
0.0
  0
LINE
  5
28AB
330
1E
100
AcDbEntity
  8
0
100
AcDbLine
 10
-0.0305118110236222
 20
4.841535433070866
 30
0.0
 11
-0.0265748031496065
 21
4.900590551181101
 31
0.0
  0
LINE
  5
28AC
330
1E
100
AcDbEntity
  8
0
100
AcDbLine
 10
-0.0265748031496065
 20
4.900590551181101
 30
0.0
 11
-0.0679133858267713
 21
4.900590551181101
 31
0.0
  0
LINE
  5
28AD
330
1E
100
AcDbEntity
  8
0
100
AcDbLine
 10
-0.0600393700787398
 20
5.09744094488189
 30
0.0
 11
-0.0265748031496065
 21
5.09744094488189
 31
0.0
  0
LINE
  5
28AE
330
1E
100
AcDbEntity
  8
0
100
AcDbLine
 10
-0.0600393700787398
 20
5.09744094488189
 30
0.0
 11
-0.0679133858267713
 21
4.900590551181101
 31
0.0
  0
LINE
  5
28AF
330
1E
100
AcDbEntity
  8
0
100
AcDbLine
 10
-0.0265748031496065
 20
4.900590551181101
 30
0.0
 11
-0.0265748031496065
 21
4.900590551181101
 31
0.0
  0
LINE
  5
28B0
330
1E
100
AcDbEntity
  8
0
100
AcDbLine
 10
-0.0265748031496065
 20
4.900590551181101
 30
0.0
 11
-0.0265748031496065
 21
5.09744094488189
 31
0.0
  0
LINE
  5
28B6
330
1E
100
AcDbEntity
  8
0
100
AcDbLine
 10
-0.0305118110236222
 20
4.674212598425196
 30
0.0
 11
-0.0305118110236222
 21
4.674212598425196
 31
0.0
  0
LINE
  5
28B7
330
1E
100
AcDbEntity
  8
0
100
AcDbLine
 10
-0.0167322834645667
 20
5.115157480314961
 30
0.0
 11
-0.0167322834645667
 21
5.105314960629922
 31
0.0
  0
LINE
  5
28B8
330
1E
100
AcDbEntity
  8
0
100
AcDbLine
 10
-0.0167322834645667
 20
5.105314960629922
 30
0.0
 11
-0.0167322834645667
 21
4.904527559055118
 31
0.0
  0
LINE
  5
28B9
330
1E
100
AcDbEntity
  8
0
100
AcDbLine
 10
-0.0167322834645667
 20
4.904527559055118
 30
0.0
 11
-0.018700787401575
 21
4.841535433070866
 31
0.0
  0
LINE
  5
28BF
330
1E
100
AcDbEntity
  8
0
100
AcDbLine
 10
-0.0206692913385824
 20
4.780511811023622
 30
0.0
 11
-0.0206692913385824
 21
4.684055118110237
 31
0.0
  0
LINE
  5
28C0
330
1E
100
AcDbEntity
  8
0
100
AcDbLine
 10
-0.0206692913385824
 20
4.684055118110237
 30
0.0
 11
-0.0206692913385824
 21
4.684055118110237
 31
0.0
  0
LINE
  5
28C6
330
1E
100
AcDbEntity
  8
0
100
AcDbLine
 10
-0.0265748031496065
 20
5.09744094488189
 30
0.0
 11
-0.0167322834645667
 21
5.105314960629922
 31
0.0
  0
LINE
  5
28D5
330
1E
100
AcDbEntity
  8
0
100
AcDbLine
 10
-0.0305118110236222
 20
4.674212598425196
 30
0.0
 11
-0.0206692913385824
 21
4.684055118110237
 31
0.0
  0
LINE
  5
28E0
330
1E
100
AcDbEntity
  8
0
100
AcDbLine
 10
-0.0265748031496065
 20
4.900590551181101
 30
0.0
 11
-0.0167322834645667
 21
4.904527559055118
 31
0.0
  0
LINE
  5
28E1
330
1E
100
AcDbEntity
  8
0
100
AcDbLine
 10
1.335629921259842
 20
4.684055118110237
 30
0.0
 11
1.345472440944882
 21
4.674212598425196
 31
0.0
  0
LINE
  5
28EC
330
1E
100
AcDbEntity
  8
0
100
AcDbLine
 10
1.331692913385826
 20
4.904527559055118
 30
0.0
 11
1.341535433070866
 21
4.900590551181101
 31
0.0
  0
LINE
  5
2923
330
1E
100
AcDbEntity
  8
0
100
AcDbLine
 10
0.5698818897637797
 20
4.857283464566929
 30
0.0
 11
0.5698818897637797
 21
4.857283464566929
 31
0.0
  0
LINE
  5
2929
330
1E
100
AcDbEntity
  8
0
100
AcDbLine
 10
-0.0049212598425195
 20
5.02263779527559
 30
0.0
 11
0.0049212598425195
 21
5.016732283464566
 31
0.0
  0
LINE
  5
292A
330
1E
100
AcDbEntity
  8
0
100
AcDbLine
 10
0.0049212598425195
 20
5.048228346456692
 30
0.0
 11
-0.0049212598425195
 21
5.030511811023622
 31
0.0
  0
LINE
  5
292B
330
1E
100
AcDbEntity
  8
0
100
AcDbLine
 10
-0.0049212598425195
 20
5.02263779527559
 30
0.0
 11
-0.0049212598425195
 21
5.030511811023622
 31
0.0
  0
LINE
  5
292C
330
1E
100
AcDbEntity
  8
0
100
AcDbLine
 10
0.0049212598425195
 20
5.016732283464566
 30
0.0
 11
0.0049212598425195
 21
5.077755905511811
 31
0.0
  0
LINE
  5
292D
330
1E
100
AcDbEntity
  8
0
100
AcDbLine
 10
-0.0049212598425195
 20
5.09744094488189
 30
0.0
 11
0.0049212598425195
 21
5.077755905511811
 31
0.0
  0
LINE
  5
292E
330
1E
100
AcDbEntity
  8
0
100
AcDbLine
 10
-0.0049212598425195
 20
5.09744094488189
 30
0.0
 11
-0.0049212598425195
 21
5.103346456692912
 31
0.0
  0
LINE
  5
2966
330
1E
100
AcDbEntity
  8
0
100
AcDbLine
 10
0.0442913385826769
 20
4.857283464566929
 30
0.0
 11
0.0147637795275593
 21
4.857283464566929
 31
0.0
  0
LINE
  5
2967
330
1E
100
AcDbEntity
  8
0
100
AcDbLine
 10
0.0442913385826769
 20
4.843503937007874
 30
0.0
 11
0.0147637795275593
 21
4.843503937007874
 31
0.0
  0
LINE
  5
2968
330
1E
100
AcDbEntity
  8
0
100
AcDbLine
 10
-0.0049212598425195
 20
4.871062992125985
 30
0.0
 11
-0.0049212598425195
 21
5.02263779527559
 31
0.0
  0
LINE
  5
2969
330
1E
100
AcDbEntity
  8
0
100
AcDbLine
 10
-0.018700787401575
 20
4.835629921259842
 30
0.0
 11
-0.0049212598425195
 21
4.835629921259842
 31
0.0
  0
LINE
  5
296A
330
1E
100
AcDbEntity
  8
0
100
AcDbLine
 10
-0.0206692913385824
 20
4.81003937007874
 30
0.0
 11
-0.0049212598425195
 21
4.81003937007874
 31
0.0
  0
LINE
  5
2970
330
1E
100
AcDbEntity
  8
0
100
AcDbLine
 10
0.5206692913385825
 20
4.843503937007874
 30
0.0
 11
0.5698818897637797
 21
4.843503937007874
 31
0.0
  0
LINE
  5
2976
330
1E
100
AcDbEntity
  8
0
100
AcDbLine
 10
0.5206692913385825
 20
4.857283464566929
 30
0.0
 11
0.5698818897637797
 21
4.857283464566929
 31
0.0
  0
LINE
  5
297C
330
1E
100
AcDbEntity
  8
0
100
AcDbLine
 10
0.6328740157480315
 20
4.863188976377953
 30
0.0
 11
0.5777559055118111
 21
4.863188976377953
 31
0.0
  0
LINE
  5
297D
330
1E
100
AcDbEntity
  8
0
100
AcDbLine
 10
0.6328740157480315
 20
4.863188976377953
 30
0.0
 11
0.6328740157480315
 21
5.203740157480314
 31
0.0
  0
LINE
  5
297E
330
1E
100
AcDbEntity
  8
0
100
AcDbLine
 10
0.6328740157480315
 20
5.203740157480314
 30
0.0
 11
-0.08759842519685
 21
5.203740157480314
 31
0.0
  0
LINE
  5
2987
330
1E
100
AcDbEntity
  8
0
100
AcDbLine
 10
-0.08759842519685
 20
5.125
 30
0.0
 11
-0.0364173228346454
 21
5.125
 31
0.0
  0
LINE
  5
298D
330
1E
100
AcDbEntity
  8
0
100
AcDbLine
 10
0.0147637795275593
 20
5.089566929133859
 30
0.0
 11
0.0147637795275593
 21
4.857283464566929
 31
0.0
  0
LINE
  5
298E
330
1E
100
AcDbEntity
  8
0
100
AcDbLine
 10
0.0442913385826769
 20
4.81003937007874
 30
0.0
 11
0.5206692913385825
 21
4.81003937007874
 31
0.0
  0
LINE
  5
29AE
330
1E
100
AcDbEntity
  8
0
100
AcDbLine
 10
-0.08759842519685
 20
5.231299212598425
 30
0.0
 11
0.6328740157480315
 21
5.231299212598425
 31
0.0
  0
LINE
  5
29BE
330
1E
100
AcDbEntity
  8
0
100
AcDbLine
 10
0.6525590551181102
 20
5.21751968503937
 30
0.0
 11
0.6525590551181102
 21
4.876968503937007
 31
0.0
  0
LINE
  5
29CE
330
1E
100
AcDbEntity
  8
0
100
AcDbLine
 10
0.6328740157480315
 20
5.239173228346457
 30
0.0
 11
-0.08759842519685
 21
5.239173228346457
 31
0.0
  0
LINE
  5
29D5
330
1E
100
AcDbEntity
  8
0
100
AcDbLine
 10
0.6525590551181102
 20
5.223425196850394
 30
0.0
 11
0.6525590551181102
 21
5.21751968503937
 31
0.0
  0
LINE
  5
29D6
330
1E
100
AcDbEntity
  8
0
100
AcDbLine
 10
0.6328740157480315
 20
5.231299212598425
 30
0.0
 11
0.6328740157480315
 21
5.239173228346457
 31
0.0
  0
LINE
  5
29D7
330
1E
100
AcDbEntity
  8
0
100
AcDbLine
 10
-0.08759842519685
 20
5.239173228346457
 30
0.0
 11
-0.08759842519685
 21
5.231299212598425
 31
0.0
  0
LINE
  5
29E2
330
1E
100
AcDbEntity
  8
0
100
AcDbLine
 10
0.7450787401574806
 20
4.857283464566929
 30
0.0
 11
0.7450787401574806
 21
4.857283464566929
 31
0.0
  0
LINE
  5
29E3
330
1E
100
AcDbEntity
  8
0
100
AcDbLine
 10
1.319881889763779
 20
5.030511811023622
 30
0.0
 11
1.310039370078739
 21
5.048228346456692
 31
0.0
  0
LINE
  5
29E4
330
1E
100
AcDbEntity
  8
0
100
AcDbLine
 10
1.310039370078739
 20
5.016732283464566
 30
0.0
 11
1.319881889763779
 21
5.02263779527559
 31
0.0
  0
LINE
  5
29E5
330
1E
100
AcDbEntity
  8
0
100
AcDbLine
 10
1.319881889763779
 20
5.030511811023622
 30
0.0
 11
1.319881889763779
 21
5.02263779527559
 31
0.0
  0
LINE
  5
29E6
330
1E
100
AcDbEntity
  8
0
100
AcDbLine
 10
1.310039370078739
 20
5.077755905511811
 30
0.0
 11
1.310039370078739
 21
5.016732283464566
 31
0.0
  0
LINE
  5
29E7
330
1E
100
AcDbEntity
  8
0
100
AcDbLine
 10
1.310039370078739
 20
5.077755905511811
 30
0.0
 11
1.319881889763779
 21
5.09744094488189
 31
0.0
  0
LINE
  5
29E8
330
1E
100
AcDbEntity
  8
0
100
AcDbLine
 10
1.319881889763779
 20
5.103346456692912
 30
0.0
 11
1.319881889763779
 21
5.09744094488189
 31
0.0
  0
LINE
  5
29F8
330
1E
100
AcDbEntity
  8
0
100
AcDbLine
 10
1.317913385826771
 20
4.81003937007874
 30
0.0
 11
1.315944881889763
 21
4.806102362204724
 31
0.0
  0
LINE
  5
2A1C
330
1E
100
AcDbEntity
  8
0
100
AcDbLine
 10
1.270669291338582
 20
4.843503937007874
 30
0.0
 11
1.3001968503937
 21
4.843503937007874
 31
0.0
  0
LINE
  5
2A1D
330
1E
100
AcDbEntity
  8
0
100
AcDbLine
 10
1.270669291338582
 20
4.857283464566929
 30
0.0
 11
1.3001968503937
 21
4.857283464566929
 31
0.0
  0
LINE
  5
2A1E
330
1E
100
AcDbEntity
  8
0
100
AcDbLine
 10
1.319881889763779
 20
5.02263779527559
 30
0.0
 11
1.319881889763779
 21
4.871062992125985
 31
0.0
  0
LINE
  5
2A1F
330
1E
100
AcDbEntity
  8
0
100
AcDbLine
 10
1.317913385826771
 20
4.835629921259842
 30
0.0
 11
1.333661417322834
 21
4.835629921259842
 31
0.0
  0
LINE
  5
2A20
330
1E
100
AcDbEntity
  8
0
100
AcDbLine
 10
1.317913385826771
 20
4.81003937007874
 30
0.0
 11
1.333661417322834
 21
4.81003937007874
 31
0.0
  0
LINE
  5
2A2B
330
1E
100
AcDbEntity
  8
0
100
AcDbLine
 10
0.7942913385826769
 20
4.843503937007874
 30
0.0
 11
0.7450787401574806
 21
4.843503937007874
 31
0.0
  0
LINE
  5
2A31
330
1E
100
AcDbEntity
  8
0
100
AcDbLine
 10
0.7942913385826769
 20
4.857283464566929
 30
0.0
 11
0.7450787401574806
 21
4.857283464566929
 31
0.0
  0
LINE
  5
2A32
330
1E
100
AcDbEntity
  8
0
100
AcDbLine
 10
1.270669291338582
 20
4.81003937007874
 30
0.0
 11
0.7942913385826769
 21
4.81003937007874
 31
0.0
  0
LINE
  5
2A33
330
1E
100
AcDbEntity
  8
0
100
AcDbLine
 10
1.3001968503937
 20
4.857283464566929
 30
0.0
 11
1.3001968503937
 21
5.089566929133859
 31
0.0
  0
LINE
  5
2A39
330
1E
100
AcDbEntity
  8
0
100
AcDbLine
 10
1.349409448818898
 20
5.125
 30
0.0
 11
1.40255905511811
 21
5.125
 31
0.0
  0
LINE
  5
2A42
330
1E
100
AcDbEntity
  8
0
100
AcDbLine
 10
1.40255905511811
 20
5.203740157480314
 30
0.0
 11
0.6820866141732287
 21
5.203740157480314
 31
0.0
  0
LINE
  5
2A43
330
1E
100
AcDbEntity
  8
0
100
AcDbLine
 10
0.6820866141732287
 20
5.203740157480314
 30
0.0
 11
0.6820866141732287
 21
4.863188976377953
 31
0.0
  0
LINE
  5
2A44
330
1E
100
AcDbEntity
  8
0
100
AcDbLine
 10
0.6820866141732287
 20
4.863188976377953
 30
0.0
 11
0.7372047244094491
 21
4.863188976377953
 31
0.0
  0
LINE
  5
2A5A
330
1E
100
AcDbEntity
  8
0
100
AcDbLine
 10
1.40255905511811
 20
5.239173228346457
 30
0.0
 11
0.6820866141732287
 21
5.239173228346457
 31
0.0
  0
LINE
  5
2A65
330
1E
100
AcDbEntity
  8
0
100
AcDbLine
 10
0.66240157480315
 20
4.876968503937007
 30
0.0
 11
0.66240157480315
 21
5.21751968503937
 31
0.0
  0
LINE
  5
2A7A
330
1E
100
AcDbEntity
  8
0
100
AcDbLine
 10
0.6820866141732287
 20
5.231299212598425
 30
0.0
 11
1.40255905511811
 21
5.231299212598425
 31
0.0
  0
LINE
  5
2A90
330
1E
100
AcDbEntity
  8
0
100
AcDbLine
 10
0.66240157480315
 20
5.21751968503937
 30
0.0
 11
0.66240157480315
 21
5.223425196850394
 31
0.0
  0
LINE
  5
2A91
330
1E
100
AcDbEntity
  8
0
100
AcDbLine
 10
0.6820866141732287
 20
5.239173228346457
 30
0.0
 11
0.6820866141732287
 21
5.231299212598425
 31
0.0
  0
LINE
  5
2A92
330
1E
100
AcDbEntity
  8
0
100
AcDbLine
 10
1.40255905511811
 20
5.231299212598425
 30
0.0
 11
1.40255905511811
 21
5.239173228346457
 31
0.0
  0
LINE
  5
2A98
330
1E
100
AcDbEntity
  8
0
100
AcDbLine
 10
-0.0206692913385824
 20
4.794291338582677
 30
0.0
 11
-0.018700787401575
 21
4.794291338582677
 31
0.0
  0
LINE
  5
2A99
330
1E
100
AcDbEntity
  8
0
100
AcDbLine
 10
-0.018700787401575
 20
4.798228346456692
 30
0.0
 11
-0.0206692913385824
 21
4.800196850393701
 31
0.0
  0
LINE
  5
2AA0
330
1E
100
AcDbEntity
  8
0
100
AcDbLine
 10
3.794291338582677
 20
6.008858267716535
 30
0.0
 11
3.794291338582677
 21
5.845472440944881
 31
0.0
  0
LINE
  5
2AA1
330
1E
100
AcDbEntity
  8
0
100
AcDbLine
 10
3.794291338582677
 20
5.845472440944881
 30
0.0
 11
3.794291338582677
 21
5.625
 31
0.0
  0
LINE
  5
2AA2
330
1E
100
AcDbEntity
  8
0
100
AcDbLine
 10
2.24507874015748
 20
5.562007874015748
 30
0.0
 11
2.24507874015748
 21
5.506889763779527
 31
0.0
  0
LINE
  5
2AA3
330
1E
100
AcDbEntity
  8
0
100
AcDbLine
 10
2.24507874015748
 20
5.079724409448818
 30
0.0
 11
2.24507874015748
 21
4.674212598425196
 31
0.0
  0
LINE
  5
2AA4
330
1E
100
AcDbEntity
  8
0
100
AcDbLine
 10
3.705708661417322
 20
4.674212598425196
 30
0.0
 11
3.794291338582677
 21
4.674212598425196
 31
0.0
  0
LINE
  5
2AA5
330
1E
100
AcDbEntity
  8
0
100
AcDbLine
 10
3.705708661417322
 20
4.674212598425196
 30
0.0
 11
2.331692913385826
 21
4.674212598425196
 31
0.0
  0
LINE
  5
2AA6
330
1E
100
AcDbEntity
  8
0
100
AcDbLine
 10
2.24507874015748
 20
4.674212598425196
 30
0.0
 11
2.331692913385826
 21
4.674212598425196
 31
0.0
  0
LINE
  5
2AA7
330
1E
100
AcDbEntity
  8
0
100
AcDbLine
 10
2.398622047244094
 20
4.798228346456692
 30
0.0
 11
2.398622047244094
 21
4.794291338582677
 31
0.0
  0
LINE
  5
2AA8
330
1E
100
AcDbEntity
  8
0
100
AcDbLine
 10
2.398622047244094
 20
4.786417322834646
 30
0.0
 11
2.398622047244094
 21
4.794291338582677
 31
0.0
  0
LINE
  5
2AA9
330
1E
100
AcDbEntity
  8
0
100
AcDbLine
 10
2.398622047244094
 20
4.798228346456692
 30
0.0
 11
2.398622047244094
 21
4.786417322834646
 31
0.0
  0
LINE
  5
2AAA
330
1E
100
AcDbEntity
  8
0
100
AcDbLine
 10
3.640748031496062
 20
4.798228346456692
 30
0.0
 11
3.640748031496062
 21
4.786417322834646
 31
0.0
  0
LINE
  5
2AAB
330
1E
100
AcDbEntity
  8
0
100
AcDbLine
 10
3.640748031496062
 20
4.794291338582677
 30
0.0
 11
3.640748031496062
 21
4.786417322834646
 31
0.0
  0
LINE
  5
2AAC
330
1E
100
AcDbEntity
  8
0
100
AcDbLine
 10
3.640748031496062
 20
4.798228346456692
 30
0.0
 11
3.640748031496062
 21
4.794291338582677
 31
0.0
  0
LINE
  5
2AAD
330
1E
100
AcDbEntity
  8
0
100
AcDbLine
 10
3.8001968503937
 20
5.500984251968503
 30
0.0
 11
3.794291338582677
 21
5.506889763779527
 31
0.0
  0
LINE
  5
2AAE
330
1E
100
AcDbEntity
  8
0
100
AcDbLine
 10
2.24507874015748
 20
5.506889763779527
 30
0.0
 11
2.237204724409449
 21
5.500984251968503
 31
0.0
  0
LINE
  5
2AAF
330
1E
100
AcDbEntity
  8
0
100
AcDbLine
 10
2.24507874015748
 20
6.008858267716535
 30
0.0
 11
3.794291338582677
 21
6.008858267716535
 31
0.0
  0
LINE
  5
2AB0
330
1E
100
AcDbEntity
  8
0
100
AcDbLine
 10
2.24507874015748
 20
6.008858267716535
 30
0.0
 11
2.24507874015748
 21
5.845472440944881
 31
0.0
  0
LINE
  5
2AB7
330
1E
100
AcDbEntity
  8
0
100
AcDbLine
 10
3.750984251968503
 20
5.908464566929133
 30
0.0
 11
2.288385826771653
 21
5.908464566929133
 31
0.0
  0
LINE
  5
2ABE
330
1E
100
AcDbEntity
  8
0
100
AcDbLine
 10
2.24507874015748
 20
4.674212598425196
 30
0.0
 11
2.24507874015748
 21
4.674212598425196
 31
0.0
  0
LINE
  5
2ABF
330
1E
100
AcDbEntity
  8
0
100
AcDbLine
 10
2.24507874015748
 20
4.674212598425196
 30
0.0
 11
2.249015748031496
 21
4.788385826771653
 31
0.0
  0
LINE
  5
2AC5
330
1E
100
AcDbEntity
  8
0
100
AcDbLine
 10
2.249015748031496
 20
4.841535433070866
 30
0.0
 11
2.249015748031496
 21
4.943897637795275
 31
0.0
  0
LINE
  5
2AC6
330
1E
100
AcDbEntity
  8
0
100
AcDbLine
 10
2.249015748031496
 20
4.943897637795275
 30
0.0
 11
2.256889763779527
 21
5.121062992125985
 31
0.0
  0
LINE
  5
2AC7
330
1E
100
AcDbEntity
  8
0
100
AcDbLine
 10
2.260826771653543
 20
5.247047244094488
 30
0.0
 11
2.258858267716535
 21
5.243110236220472
 31
0.0
  0
LINE
  5
2AC8
330
1E
100
AcDbEntity
  8
0
100
AcDbLine
 10
2.260826771653543
 20
5.249015748031496
 30
0.0
 11
2.260826771653543
 21
5.247047244094488
 31
0.0
  0
LINE
  5
2AC9
330
1E
100
AcDbEntity
  8
0
100
AcDbLine
 10
2.260826771653543
 20
5.249015748031496
 30
0.0
 11
2.260826771653543
 21
5.286417322834646
 31
0.0
  0
LINE
  5
2AD0
330
1E
100
AcDbEntity
  8
0
100
AcDbLine
 10
2.260826771653543
 20
5.355314960629922
 30
0.0
 11
2.24507874015748
 21
5.845472440944881
 31
0.0
  0
LINE
  5
2AD1
330
1E
100
AcDbEntity
  8
0
100
AcDbLine
 10
2.24507874015748
 20
5.845472440944881
 30
0.0
 11
2.24507874015748
 21
5.625
 31
0.0
  0
LINE
  5
2AD2
330
1E
100
AcDbEntity
  8
0
100
AcDbLine
 10
2.24507874015748
 20
5.625
 30
0.0
 11
2.24507874015748
 21
5.562007874015748
 31
0.0
  0
LINE
  5
2AD3
330
1E
100
AcDbEntity
  8
0
100
AcDbLine
 10
2.237204724409449
 20
5.237204724409448
 30
0.0
 11
2.237204724409449
 21
5.500984251968503
 31
0.0
  0
LINE
  5
2AD4
330
1E
100
AcDbEntity
  8
0
100
AcDbLine
 10
2.24507874015748
 20
5.125
 30
0.0
 11
2.24507874015748
 21
5.079724409448818
 31
0.0
  0
LINE
  5
2AD5
330
1E
100
AcDbEntity
  8
0
100
AcDbLine
 10
3.693897637795275
 20
4.774606299212598
 30
0.0
 11
3.695866141732283
 21
4.774606299212598
 31
0.0
  0
LINE
  5
2AD6
330
1E
100
AcDbEntity
  8
0
100
AcDbLine
 10
2.345472440944882
 20
4.774606299212598
 30
0.0
 11
2.343503937007874
 21
4.774606299212598
 31
0.0
  0
LINE
  5
2AD7
330
1E
100
AcDbEntity
  8
0
100
AcDbLine
 10
2.347440944881889
 20
4.882874015748031
 30
0.0
 11
2.347440944881889
 21
4.902559055118111
 31
0.0
  0
LINE
  5
2AE1
330
1E
100
AcDbEntity
  8
0
100
AcDbLine
 10
3.689960629921259
 20
4.882874015748031
 30
0.0
 11
3.691929133858268
 21
4.902559055118111
 31
0.0
  0
LINE
  5
2AE2
330
1E
100
AcDbEntity
  8
0
100
AcDbLine
 10
3.691929133858268
 20
4.904527559055118
 30
0.0
 11
3.691929133858268
 21
4.904527559055118
 31
0.0
  0
LINE
  5
2AE3
330
1E
100
AcDbEntity
  8
0
100
AcDbLine
 10
3.691929133858268
 20
4.904527559055118
 30
0.0
 11
3.691929133858268
 21
4.902559055118111
 31
0.0
  0
LINE
  5
2AE4
330
1E
100
AcDbEntity
  8
0
100
AcDbLine
 10
3.693897637795275
 20
4.802165354330709
 30
0.0
 11
3.693897637795275
 21
4.794291338582677
 31
0.0
  0
LINE
  5
2AE5
330
1E
100
AcDbEntity
  8
0
100
AcDbLine
 10
3.693897637795275
 20
4.774606299212598
 30
0.0
 11
3.693897637795275
 21
4.794291338582677
 31
0.0
  0
LINE
  5
2AF4
330
1E
100
AcDbEntity
  8
0
100
AcDbLine
 10
3.790354330708661
 20
4.788385826771653
 30
0.0
 11
3.794291338582677
 21
4.674212598425196
 31
0.0
  0
LINE
  5
2AF5
330
1E
100
AcDbEntity
  8
0
100
AcDbLine
 10
3.794291338582677
 20
4.674212598425196
 30
0.0
 11
3.794291338582677
 21
4.674212598425196
 31
0.0
  0
LINE
  5
2AF6
330
1E
100
AcDbEntity
  8
0
100
AcDbLine
 10
3.794291338582677
 20
5.079724409448818
 30
0.0
 11
3.794291338582677
 21
4.674212598425196
 31
0.0
  0
LINE
  5
2AF7
330
1E
100
AcDbEntity
  8
0
100
AcDbLine
 10
3.794291338582677
 20
5.125
 30
0.0
 11
3.794291338582677
 21
5.079724409448818
 31
0.0
  0
LINE
  5
2AF8
330
1E
100
AcDbEntity
  8
0
100
AcDbLine
 10
3.794291338582677
 20
5.562007874015748
 30
0.0
 11
3.794291338582677
 21
5.506889763779527
 31
0.0
  0
LINE
  5
2AF9
330
1E
100
AcDbEntity
  8
0
100
AcDbLine
 10
3.794291338582677
 20
5.625
 30
0.0
 11
3.794291338582677
 21
5.562007874015748
 31
0.0
  0
LINE
  5
2AFA
330
1E
100
AcDbEntity
  8
0
100
AcDbLine
 10
3.794291338582677
 20
5.845472440944881
 30
0.0
 11
3.776574803149605
 21
5.355314960629922
 31
0.0
  0
LINE
  5
2B01
330
1E
100
AcDbEntity
  8
0
100
AcDbLine
 10
3.776574803149605
 20
5.286417322834646
 30
0.0
 11
3.778543307086614
 21
5.249015748031496
 31
0.0
  0
LINE
  5
2B02
330
1E
100
AcDbEntity
  8
0
100
AcDbLine
 10
3.778543307086614
 20
5.247047244094488
 30
0.0
 11
3.778543307086614
 21
5.249015748031496
 31
0.0
  0
LINE
  5
2B03
330
1E
100
AcDbEntity
  8
0
100
AcDbLine
 10
3.778543307086614
 20
5.247047244094488
 30
0.0
 11
3.778543307086614
 21
5.243110236220472
 31
0.0
  0
LINE
  5
2B04
330
1E
100
AcDbEntity
  8
0
100
AcDbLine
 10
3.782480314960629
 20
5.121062992125985
 30
0.0
 11
3.788385826771653
 21
4.943897637795275
 31
0.0
  0
LINE
  5
2B05
330
1E
100
AcDbEntity
  8
0
100
AcDbLine
 10
3.788385826771653
 20
4.943897637795275
 30
0.0
 11
3.788385826771653
 21
4.841535433070866
 31
0.0
  0
LINE
  5
2B06
330
1E
100
AcDbEntity
  8
0
100
AcDbLine
 10
2.345472440944882
 20
4.774606299212598
 30
0.0
 11
2.345472440944882
 21
4.794291338582677
 31
0.0
  0
LINE
  5
2B07
330
1E
100
AcDbEntity
  8
0
100
AcDbLine
 10
2.345472440944882
 20
4.802165354330709
 30
0.0
 11
2.345472440944882
 21
4.794291338582677
 31
0.0
  0
LINE
  5
2B08
330
1E
100
AcDbEntity
  8
0
100
AcDbLine
 10
2.347440944881889
 20
4.904527559055118
 30
0.0
 11
2.347440944881889
 21
4.902559055118111
 31
0.0
  0
LINE
  5
2B09
330
1E
100
AcDbEntity
  8
0
100
AcDbLine
 10
2.347440944881889
 20
4.904527559055118
 30
0.0
 11
2.347440944881889
 21
4.904527559055118
 31
0.0
  0
LINE
  5
2B0A
330
1E
100
AcDbEntity
  8
0
100
AcDbLine
 10
2.288385826771653
 20
5.908464566929133
 30
0.0
 11
2.306102362204724
 21
5.386811023622048
 31
0.0
  0
LINE
  5
2B0B
330
1E
100
AcDbEntity
  8
0
100
AcDbLine
 10
2.306102362204724
 20
5.386811023622048
 30
0.0
 11
3.731299212598425
 21
5.386811023622048
 31
0.0
  0
LINE
  5
2B0C
330
1E
100
AcDbEntity
  8
0
100
AcDbLine
 10
3.731299212598425
 20
5.386811023622048
 30
0.0
 11
3.750984251968503
 21
5.908464566929133
 31
0.0
  0
LINE
  5
2B17
330
1E
100
AcDbEntity
  8
0
100
AcDbLine
 10
3.107283464566929
 20
4.794291338582677
 30
0.0
 11
3.107283464566929
 21
4.796259842519685
 31
0.0
  0
LINE
  5
2B18
330
1E
100
AcDbEntity
  8
0
100
AcDbLine
 10
3.107283464566929
 20
4.794291338582677
 30
0.0
 11
3.107283464566929
 21
4.786417322834646
 31
0.0
  0
LINE
  5
2B19
330
1E
100
AcDbEntity
  8
0
100
AcDbLine
 10
3.168307086614173
 20
4.786417322834646
 30
0.0
 11
3.107283464566929
 21
4.786417322834646
 31
0.0
  0
LINE
  5
2B1A
330
1E
100
AcDbEntity
  8
0
100
AcDbLine
 10
3.168307086614173
 20
4.804133858267716
 30
0.0
 11
3.168307086614173
 21
4.800196850393701
 31
0.0
  0
LINE
  5
2B1B
330
1E
100
AcDbEntity
  8
0
100
AcDbLine
 10
3.632874015748031
 20
4.800196850393701
 30
0.0
 11
3.168307086614173
 21
4.800196850393701
 31
0.0
  0
LINE
  5
2B1C
330
1E
100
AcDbEntity
  8
0
100
AcDbLine
 10
3.168307086614173
 20
4.786417322834646
 30
0.0
 11
3.168307086614173
 21
4.800196850393701
 31
0.0
  0
LINE
  5
2B1D
330
1E
100
AcDbEntity
  8
0
100
AcDbLine
 10
2.406496062992125
 20
4.800196850393701
 30
0.0
 11
2.871062992125984
 21
4.800196850393701
 31
0.0
  0
LINE
  5
2B1E
330
1E
100
AcDbEntity
  8
0
100
AcDbLine
 10
2.871062992125984
 20
4.800196850393701
 30
0.0
 11
2.871062992125984
 21
4.804133858267716
 31
0.0
  0
LINE
  5
2B1F
330
1E
100
AcDbEntity
  8
0
100
AcDbLine
 10
2.871062992125984
 20
4.800196850393701
 30
0.0
 11
2.871062992125984
 21
4.786417322834646
 31
0.0
  0
LINE
  5
2B20
330
1E
100
AcDbEntity
  8
0
100
AcDbLine
 10
2.871062992125984
 20
4.786417322834646
 30
0.0
 11
2.932086614173228
 21
4.786417322834646
 31
0.0
  0
LINE
  5
2B21
330
1E
100
AcDbEntity
  8
0
100
AcDbLine
 10
2.932086614173228
 20
4.794291338582677
 30
0.0
 11
2.932086614173228
 21
4.786417322834646
 31
0.0
  0
LINE
  5
2B22
330
1E
100
AcDbEntity
  8
0
100
AcDbLine
 10
2.932086614173228
 20
4.794291338582677
 30
0.0
 11
2.932086614173228
 21
4.796259842519685
 31
0.0
  0
LINE
  5
2B2D
330
1E
100
AcDbEntity
  8
0
100
AcDbLine
 10
3.107283464566929
 20
4.81003937007874
 30
0.0
 11
2.932086614173228
 21
4.81003937007874
 31
0.0
  0
LINE
  5
2B2E
330
1E
100
AcDbEntity
  8
0
100
AcDbLine
 10
2.932086614173228
 20
4.796259842519685
 30
0.0
 11
3.107283464566929
 21
4.796259842519685
 31
0.0
  0
LINE
  5
2B2F
330
1E
100
AcDbEntity
  8
0
100
AcDbLine
 10
2.932086614173228
 20
4.794291338582677
 30
0.0
 11
3.107283464566929
 21
4.794291338582677
 31
0.0
  0
LINE
  5
2B30
330
1E
100
AcDbEntity
  8
0
100
AcDbLine
 10
2.306102362204724
 20
5.252952755905512
 30
0.0
 11
3.731299212598425
 21
5.252952755905512
 31
0.0
  0
LINE
  5
2B37
330
1E
100
AcDbEntity
  8
0
100
AcDbLine
 10
2.260826771653543
 20
5.247047244094488
 30
0.0
 11
3.778543307086614
 21
5.247047244094488
 31
0.0
  0
LINE
  5
2B3E
330
1E
100
AcDbEntity
  8
0
100
AcDbLine
 10
3.693897637795275
 20
4.752952755905512
 30
0.0
 11
2.345472440944882
 21
4.752952755905512
 31
0.0
  0
LINE
  5
2B3F
330
1E
100
AcDbEntity
  8
0
100
AcDbLine
 10
2.345472440944882
 20
4.752952755905512
 30
0.0
 11
2.341535433070865
 21
4.684055118110237
 31
0.0
  0
LINE
  5
2B40
330
1E
100
AcDbEntity
  8
0
100
AcDbLine
 10
2.341535433070865
 20
4.684055118110237
 30
0.0
 11
2.331692913385826
 21
4.674212598425196
 31
0.0
  0
LINE
  5
2B41
330
1E
100
AcDbEntity
  8
0
100
AcDbLine
 10
3.705708661417322
 20
4.674212598425196
 30
0.0
 11
3.695866141732283
 21
4.684055118110237
 31
0.0
  0
LINE
  5
2B42
330
1E
100
AcDbEntity
  8
0
100
AcDbLine
 10
3.693897637795275
 20
4.752952755905512
 30
0.0
 11
3.695866141732283
 21
4.684055118110237
 31
0.0
  0
LINE
  5
2B43
330
1E
100
AcDbEntity
  8
0
100
AcDbLine
 10
3.024606299212598
 20
4.875
 30
0.0
 11
3.01279527559055
 21
4.875
 31
0.0
  0
LINE
  5
2B44
330
1E
100
AcDbEntity
  8
0
100
AcDbLine
 10
3.640748031496062
 20
4.786417322834646
 30
0.0
 11
3.168307086614173
 21
4.786417322834646
 31
0.0
  0
LINE
  5
2B45
330
1E
100
AcDbEntity
  8
0
100
AcDbLine
 10
2.398622047244094
 20
4.786417322834646
 30
0.0
 11
2.871062992125984
 21
4.786417322834646
 31
0.0
  0
LINE
  5
2B46
330
1E
100
AcDbEntity
  8
0
100
AcDbLine
 10
2.345472440944882
 20
4.794291338582677
 30
0.0
 11
2.398622047244094
 21
4.794291338582677
 31
0.0
  0
LINE
  5
2B47
330
1E
100
AcDbEntity
  8
0
100
AcDbLine
 10
2.345472440944882
 20
4.752952755905512
 30
0.0
 11
2.345472440944882
 21
4.774606299212598
 31
0.0
  0
LINE
  5
2B48
330
1E
100
AcDbEntity
  8
0
100
AcDbLine
 10
3.693897637795275
 20
4.752952755905512
 30
0.0
 11
3.693897637795275
 21
4.774606299212598
 31
0.0
  0
LINE
  5
2B49
330
1E
100
AcDbEntity
  8
0
100
AcDbLine
 10
3.693897637795275
 20
4.794291338582677
 30
0.0
 11
3.640748031496062
 21
4.794291338582677
 31
0.0
  0
LINE
  5
2B4A
330
1E
100
AcDbEntity
  8
0
100
AcDbLine
 10
3.731299212598425
 20
5.25492125984252
 30
0.0
 11
2.306102362204724
 21
5.25492125984252
 31
0.0
  0
LINE
  5
2B4B
330
1E
100
AcDbEntity
  8
0
100
AcDbLine
 10
2.306102362204724
 20
5.25492125984252
 30
0.0
 11
2.306102362204724
 21
5.252952755905512
 31
0.0
  0
LINE
  5
2B4C
330
1E
100
AcDbEntity
  8
0
100
AcDbLine
 10
3.731299212598425
 20
5.252952755905512
 30
0.0
 11
3.731299212598425
 21
5.25492125984252
 31
0.0
  0
LINE
  5
2B4D
330
1E
100
AcDbEntity
  8
0
100
AcDbLine
 10
3.691929133858268
 20
4.904527559055118
 30
0.0
 11
3.682086614173227
 21
4.904527559055118
 31
0.0
  0
LINE
  5
2B4E
330
1E
100
AcDbEntity
  8
0
100
AcDbLine
 10
3.691929133858268
 20
4.904527559055118
 30
0.0
 11
3.691929133858268
 21
5.115157480314961
 31
0.0
  0
LINE
  5
2B4F
330
1E
100
AcDbEntity
  8
0
100
AcDbLine
 10
2.347440944881889
 20
4.904527559055118
 30
0.0
 11
2.347440944881889
 21
5.115157480314961
 31
0.0
  0
LINE
  5
2B50
330
1E
100
AcDbEntity
  8
0
100
AcDbLine
 10
2.347440944881889
 20
4.904527559055118
 30
0.0
 11
2.357283464566929
 21
4.904527559055118
 31
0.0
  0
LINE
  5
2B51
330
1E
100
AcDbEntity
  8
0
100
AcDbLine
 10
3.024606299212598
 20
4.89271653543307
 30
0.0
 11
3.014763779527559
 21
4.89271653543307
 31
0.0
  0
LINE
  5
2B52
330
1E
100
AcDbEntity
  8
0
100
AcDbLine
 10
3.707677165354331
 20
4.674212598425196
 30
0.0
 11
3.77263779527559
 21
4.674212598425196
 31
0.0
  0
LINE
  5
2B53
330
1E
100
AcDbEntity
  8
0
100
AcDbLine
 10
3.77263779527559
 20
4.674212598425196
 30
0.0
 11
3.768700787401574
 21
4.77263779527559
 31
0.0
  0
LINE
  5
2B54
330
1E
100
AcDbEntity
  8
0
100
AcDbLine
 10
3.768700787401574
 20
4.77263779527559
 30
0.0
 11
3.707677165354331
 21
4.77263779527559
 31
0.0
  0
LINE
  5
2B55
330
1E
100
AcDbEntity
  8
0
100
AcDbLine
 10
3.707677165354331
 20
4.77263779527559
 30
0.0
 11
3.707677165354331
 21
4.674212598425196
 31
0.0
  0
LINE
  5
2B56
330
1E
100
AcDbEntity
  8
0
100
AcDbLine
 10
3.707677165354331
 20
4.674212598425196
 30
0.0
 11
3.707677165354331
 21
4.674212598425196
 31
0.0
  0
LINE
  5
2B5C
330
1E
100
AcDbEntity
  8
0
100
AcDbLine
 10
3.768700787401574
 20
4.841535433070866
 30
0.0
 11
3.705708661417322
 21
4.841535433070866
 31
0.0
  0
LINE
  5
2B62
330
1E
100
AcDbEntity
  8
0
100
AcDbLine
 10
3.768700787401574
 20
4.841535433070866
 30
0.0
 11
3.768700787401574
 21
4.912401574803149
 31
0.0
  0
LINE
  5
2B63
330
1E
100
AcDbEntity
  8
0
100
AcDbLine
 10
3.768700787401574
 20
4.912401574803149
 30
0.0
 11
3.745078740157479
 21
4.900590551181101
 31
0.0
  0
LINE
  5
2B64
330
1E
100
AcDbEntity
  8
0
100
AcDbLine
 10
3.703740157480314
 20
4.900590551181101
 30
0.0
 11
3.745078740157479
 21
4.900590551181101
 31
0.0
  0
LINE
  5
2B65
330
1E
100
AcDbEntity
  8
0
100
AcDbLine
 10
3.703740157480314
 20
4.900590551181101
 30
0.0
 11
3.705708661417322
 21
4.841535433070866
 31
0.0
  0
LINE
  5
2B66
330
1E
100
AcDbEntity
  8
0
100
AcDbLine
 10
3.745078740157479
 20
4.900590551181101
 30
0.0
 11
3.737204724409448
 21
5.09744094488189
 31
0.0
  0
LINE
  5
2B67
330
1E
100
AcDbEntity
  8
0
100
AcDbLine
 10
3.737204724409448
 20
5.09744094488189
 30
0.0
 11
3.703740157480314
 21
5.09744094488189
 31
0.0
  0
LINE
  5
2B68
330
1E
100
AcDbEntity
  8
0
100
AcDbLine
 10
3.703740157480314
 20
5.09744094488189
 30
0.0
 11
3.703740157480314
 21
4.900590551181101
 31
0.0
  0
LINE
  5
2B69
330
1E
100
AcDbEntity
  8
0
100
AcDbLine
 10
3.703740157480314
 20
4.900590551181101
 30
0.0
 11
3.703740157480314
 21
4.900590551181101
 31
0.0
  0
LINE
  5
2B6F
330
1E
100
AcDbEntity
  8
0
100
AcDbLine
 10
3.707677165354331
 20
4.674212598425196
 30
0.0
 11
3.705708661417322
 21
4.674212598425196
 31
0.0
  0
LINE
  5
2B70
330
1E
100
AcDbEntity
  8
0
100
AcDbLine
 10
3.695866141732283
 20
4.841535433070866
 30
0.0
 11
3.693897637795275
 21
4.904527559055118
 31
0.0
  0
LINE
  5
2B71
330
1E
100
AcDbEntity
  8
0
100
AcDbLine
 10
3.693897637795275
 20
4.904527559055118
 30
0.0
 11
3.693897637795275
 21
5.105314960629922
 31
0.0
  0
LINE
  5
2B72
330
1E
100
AcDbEntity
  8
0
100
AcDbLine
 10
3.691929133858268
 20
5.115157480314961
 30
0.0
 11
3.693897637795275
 21
5.105314960629922
 31
0.0
  0
LINE
  5
2B73
330
1E
100
AcDbEntity
  8
0
100
AcDbLine
 10
3.695866141732283
 20
4.684055118110237
 30
0.0
 11
3.69783464566929
 21
4.684055118110237
 31
0.0
  0
LINE
  5
2B74
330
1E
100
AcDbEntity
  8
0
100
AcDbLine
 10
3.69783464566929
 20
4.684055118110237
 30
0.0
 11
3.69783464566929
 21
4.780511811023622
 31
0.0
  0
LINE
  5
2B7F
330
1E
100
AcDbEntity
  8
0
100
AcDbLine
 10
3.693897637795275
 20
5.105314960629922
 30
0.0
 11
3.703740157480314
 21
5.09744094488189
 31
0.0
  0
LINE
  5
2B80
330
1E
100
AcDbEntity
  8
0
100
AcDbLine
 10
2.268700787401574
 20
4.77263779527559
 30
0.0
 11
2.331692913385826
 21
4.77263779527559
 31
0.0
  0
LINE
  5
2B81
330
1E
100
AcDbEntity
  8
0
100
AcDbLine
 10
2.268700787401574
 20
4.77263779527559
 30
0.0
 11
2.264763779527559
 21
4.674212598425196
 31
0.0
  0
LINE
  5
2B82
330
1E
100
AcDbEntity
  8
0
100
AcDbLine
 10
2.329724409448818
 20
4.674212598425196
 30
0.0
 11
2.264763779527559
 21
4.674212598425196
 31
0.0
  0
LINE
  5
2B83
330
1E
100
AcDbEntity
  8
0
100
AcDbLine
 10
2.329724409448818
 20
4.674212598425196
 30
0.0
 11
2.331692913385826
 21
4.674212598425196
 31
0.0
  0
LINE
  5
2B84
330
1E
100
AcDbEntity
  8
0
100
AcDbLine
 10
2.331692913385826
 20
4.674212598425196
 30
0.0
 11
2.331692913385826
 21
4.77263779527559
 31
0.0
  0
LINE
  5
2B85
330
1E
100
AcDbEntity
  8
0
100
AcDbLine
 10
2.270669291338582
 20
4.841535433070866
 30
0.0
 11
2.331692913385826
 21
4.841535433070866
 31
0.0
  0
LINE
  5
2B90
330
1E
100
AcDbEntity
  8
0
100
AcDbLine
 10
2.294291338582676
 20
4.900590551181101
 30
0.0
 11
2.270669291338582
 21
4.912401574803149
 31
0.0
  0
LINE
  5
2B91
330
1E
100
AcDbEntity
  8
0
100
AcDbLine
 10
2.270669291338582
 20
4.912401574803149
 30
0.0
 11
2.270669291338582
 21
4.841535433070866
 31
0.0
  0
LINE
  5
2B92
330
1E
100
AcDbEntity
  8
0
100
AcDbLine
 10
2.331692913385826
 20
4.841535433070866
 30
0.0
 11
2.333661417322834
 21
4.900590551181101
 31
0.0
  0
LINE
  5
2B93
330
1E
100
AcDbEntity
  8
0
100
AcDbLine
 10
2.333661417322834
 20
4.900590551181101
 30
0.0
 11
2.294291338582676
 21
4.900590551181101
 31
0.0
  0
LINE
  5
2B94
330
1E
100
AcDbEntity
  8
0
100
AcDbLine
 10
2.302165354330708
 20
5.09744094488189
 30
0.0
 11
2.335629921259842
 21
5.09744094488189
 31
0.0
  0
LINE
  5
2B95
330
1E
100
AcDbEntity
  8
0
100
AcDbLine
 10
2.302165354330708
 20
5.09744094488189
 30
0.0
 11
2.294291338582676
 21
4.900590551181101
 31
0.0
  0
LINE
  5
2B96
330
1E
100
AcDbEntity
  8
0
100
AcDbLine
 10
2.333661417322834
 20
4.900590551181101
 30
0.0
 11
2.335629921259842
 21
4.900590551181101
 31
0.0
  0
LINE
  5
2B97
330
1E
100
AcDbEntity
  8
0
100
AcDbLine
 10
2.335629921259842
 20
4.900590551181101
 30
0.0
 11
2.335629921259842
 21
5.09744094488189
 31
0.0
  0
LINE
  5
2B9D
330
1E
100
AcDbEntity
  8
0
100
AcDbLine
 10
2.331692913385826
 20
4.674212598425196
 30
0.0
 11
2.329724409448818
 21
4.674212598425196
 31
0.0
  0
LINE
  5
2B9E
330
1E
100
AcDbEntity
  8
0
100
AcDbLine
 10
2.345472440944882
 20
5.115157480314961
 30
0.0
 11
2.345472440944882
 21
5.105314960629922
 31
0.0
  0
LINE
  5
2B9F
330
1E
100
AcDbEntity
  8
0
100
AcDbLine
 10
2.345472440944882
 20
5.105314960629922
 30
0.0
 11
2.345472440944882
 21
4.904527559055118
 31
0.0
  0
LINE
  5
2BA0
330
1E
100
AcDbEntity
  8
0
100
AcDbLine
 10
2.345472440944882
 20
4.904527559055118
 30
0.0
 11
2.341535433070865
 21
4.841535433070866
 31
0.0
  0
LINE
  5
2BA6
330
1E
100
AcDbEntity
  8
0
100
AcDbLine
 10
2.341535433070865
 20
4.780511811023622
 30
0.0
 11
2.341535433070865
 21
4.684055118110237
 31
0.0
  0
LINE
  5
2BA7
330
1E
100
AcDbEntity
  8
0
100
AcDbLine
 10
2.341535433070865
 20
4.684055118110237
 30
0.0
 11
2.341535433070865
 21
4.684055118110237
 31
0.0
  0
LINE
  5
2BAD
330
1E
100
AcDbEntity
  8
0
100
AcDbLine
 10
2.335629921259842
 20
5.09744094488189
 30
0.0
 11
2.345472440944882
 21
5.105314960629922
 31
0.0
  0
LINE
  5
2BBC
330
1E
100
AcDbEntity
  8
0
100
AcDbLine
 10
2.331692913385826
 20
4.674212598425196
 30
0.0
 11
2.341535433070865
 21
4.684055118110237
 31
0.0
  0
LINE
  5
2BC7
330
1E
100
AcDbEntity
  8
0
100
AcDbLine
 10
2.335629921259842
 20
4.900590551181101
 30
0.0
 11
2.345472440944882
 21
4.904527559055118
 31
0.0
  0
LINE
  5
2BC8
330
1E
100
AcDbEntity
  8
0
100
AcDbLine
 10
3.69783464566929
 20
4.684055118110237
 30
0.0
 11
3.707677165354331
 21
4.674212598425196
 31
0.0
  0
LINE
  5
2BD3
330
1E
100
AcDbEntity
  8
0
100
AcDbLine
 10
3.693897637795275
 20
4.904527559055118
 30
0.0
 11
3.703740157480314
 21
4.900590551181101
 31
0.0
  0
LINE
  5
2C0A
330
1E
100
AcDbEntity
  8
0
100
AcDbLine
 10
2.932086614173228
 20
4.857283464566929
 30
0.0
 11
2.932086614173228
 21
4.857283464566929
 31
0.0
  0
LINE
  5
2C10
330
1E
100
AcDbEntity
  8
0
100
AcDbLine
 10
2.357283464566929
 20
5.02263779527559
 30
0.0
 11
2.367125984251968
 21
5.016732283464566
 31
0.0
  0
LINE
  5
2C11
330
1E
100
AcDbEntity
  8
0
100
AcDbLine
 10
2.367125984251968
 20
5.048228346456692
 30
0.0
 11
2.357283464566929
 21
5.030511811023622
 31
0.0
  0
LINE
  5
2C12
330
1E
100
AcDbEntity
  8
0
100
AcDbLine
 10
2.357283464566929
 20
5.02263779527559
 30
0.0
 11
2.357283464566929
 21
5.030511811023622
 31
0.0
  0
LINE
  5
2C13
330
1E
100
AcDbEntity
  8
0
100
AcDbLine
 10
2.367125984251968
 20
5.016732283464566
 30
0.0
 11
2.367125984251968
 21
5.077755905511811
 31
0.0
  0
LINE
  5
2C14
330
1E
100
AcDbEntity
  8
0
100
AcDbLine
 10
2.357283464566929
 20
5.09744094488189
 30
0.0
 11
2.367125984251968
 21
5.077755905511811
 31
0.0
  0
LINE
  5
2C15
330
1E
100
AcDbEntity
  8
0
100
AcDbLine
 10
2.357283464566929
 20
5.09744094488189
 30
0.0
 11
2.357283464566929
 21
5.103346456692912
 31
0.0
  0
LINE
  5
2C4D
330
1E
100
AcDbEntity
  8
0
100
AcDbLine
 10
2.406496062992125
 20
4.857283464566929
 30
0.0
 11
2.376968503937008
 21
4.857283464566929
 31
0.0
  0
LINE
  5
2C4E
330
1E
100
AcDbEntity
  8
0
100
AcDbLine
 10
2.406496062992125
 20
4.843503937007874
 30
0.0
 11
2.376968503937008
 21
4.843503937007874
 31
0.0
  0
LINE
  5
2C4F
330
1E
100
AcDbEntity
  8
0
100
AcDbLine
 10
2.357283464566929
 20
4.871062992125985
 30
0.0
 11
2.357283464566929
 21
5.02263779527559
 31
0.0
  0
LINE
  5
2C50
330
1E
100
AcDbEntity
  8
0
100
AcDbLine
 10
2.343503937007874
 20
4.835629921259842
 30
0.0
 11
2.357283464566929
 21
4.835629921259842
 31
0.0
  0
LINE
  5
2C51
330
1E
100
AcDbEntity
  8
0
100
AcDbLine
 10
2.341535433070865
 20
4.81003937007874
 30
0.0
 11
2.357283464566929
 21
4.81003937007874
 31
0.0
  0
LINE
  5
2C57
330
1E
100
AcDbEntity
  8
0
100
AcDbLine
 10
2.880905511811024
 20
4.843503937007874
 30
0.0
 11
2.932086614173228
 21
4.843503937007874
 31
0.0
  0
LINE
  5
2C5D
330
1E
100
AcDbEntity
  8
0
100
AcDbLine
 10
2.880905511811024
 20
4.857283464566929
 30
0.0
 11
2.932086614173228
 21
4.857283464566929
 31
0.0
  0
LINE
  5
2C63
330
1E
100
AcDbEntity
  8
0
100
AcDbLine
 10
2.99507874015748
 20
4.863188976377953
 30
0.0
 11
2.93996062992126
 21
4.863188976377953
 31
0.0
  0
LINE
  5
2C64
330
1E
100
AcDbEntity
  8
0
100
AcDbLine
 10
2.99507874015748
 20
4.863188976377953
 30
0.0
 11
2.99507874015748
 21
5.203740157480314
 31
0.0
  0
LINE
  5
2C65
330
1E
100
AcDbEntity
  8
0
100
AcDbLine
 10
2.99507874015748
 20
5.203740157480314
 30
0.0
 11
2.274606299212598
 21
5.203740157480314
 31
0.0
  0
LINE
  5
2C6E
330
1E
100
AcDbEntity
  8
0
100
AcDbLine
 10
2.274606299212598
 20
5.125
 30
0.0
 11
2.325787401574802
 21
5.125
 31
0.0
  0
LINE
  5
2C74
330
1E
100
AcDbEntity
  8
0
100
AcDbLine
 10
2.376968503937008
 20
5.089566929133859
 30
0.0
 11
2.376968503937008
 21
4.857283464566929
 31
0.0
  0
LINE
  5
2C75
330
1E
100
AcDbEntity
  8
0
100
AcDbLine
 10
2.406496062992125
 20
4.81003937007874
 30
0.0
 11
2.880905511811024
 21
4.81003937007874
 31
0.0
  0
LINE
  5
2C95
330
1E
100
AcDbEntity
  8
0
100
AcDbLine
 10
2.274606299212598
 20
5.231299212598425
 30
0.0
 11
2.99507874015748
 21
5.231299212598425
 31
0.0
  0
LINE
  5
2CA5
330
1E
100
AcDbEntity
  8
0
100
AcDbLine
 10
3.014763779527559
 20
5.21751968503937
 30
0.0
 11
3.014763779527559
 21
4.876968503937007
 31
0.0
  0
LINE
  5
2CB5
330
1E
100
AcDbEntity
  8
0
100
AcDbLine
 10
2.99507874015748
 20
5.239173228346457
 30
0.0
 11
2.274606299212598
 21
5.239173228346457
 31
0.0
  0
LINE
  5
2CBC
330
1E
100
AcDbEntity
  8
0
100
AcDbLine
 10
3.014763779527559
 20
5.223425196850394
 30
0.0
 11
3.014763779527559
 21
5.21751968503937
 31
0.0
  0
LINE
  5
2CBD
330
1E
100
AcDbEntity
  8
0
100
AcDbLine
 10
2.99507874015748
 20
5.231299212598425
 30
0.0
 11
2.99507874015748
 21
5.239173228346457
 31
0.0
  0
LINE
  5
2CBE
330
1E
100
AcDbEntity
  8
0
100
AcDbLine
 10
2.274606299212598
 20
5.239173228346457
 30
0.0
 11
2.274606299212598
 21
5.231299212598425
 31
0.0
  0
LINE
  5
2CC9
330
1E
100
AcDbEntity
  8
0
100
AcDbLine
 10
3.107283464566929
 20
4.857283464566929
 30
0.0
 11
3.107283464566929
 21
4.857283464566929
 31
0.0
  0
LINE
  5
2CCA
330
1E
100
AcDbEntity
  8
0
100
AcDbLine
 10
3.682086614173227
 20
5.030511811023622
 30
0.0
 11
3.672244094488188
 21
5.048228346456692
 31
0.0
  0
LINE
  5
2CCB
330
1E
100
AcDbEntity
  8
0
100
AcDbLine
 10
3.672244094488188
 20
5.016732283464566
 30
0.0
 11
3.682086614173227
 21
5.02263779527559
 31
0.0
  0
LINE
  5
2CCC
330
1E
100
AcDbEntity
  8
0
100
AcDbLine
 10
3.682086614173227
 20
5.030511811023622
 30
0.0
 11
3.682086614173227
 21
5.02263779527559
 31
0.0
  0
LINE
  5
2CCD
330
1E
100
AcDbEntity
  8
0
100
AcDbLine
 10
3.672244094488188
 20
5.077755905511811
 30
0.0
 11
3.672244094488188
 21
5.016732283464566
 31
0.0
  0
LINE
  5
2CCE
330
1E
100
AcDbEntity
  8
0
100
AcDbLine
 10
3.672244094488188
 20
5.077755905511811
 30
0.0
 11
3.682086614173227
 21
5.09744094488189
 31
0.0
  0
LINE
  5
2CCF
330
1E
100
AcDbEntity
  8
0
100
AcDbLine
 10
3.682086614173227
 20
5.103346456692912
 30
0.0
 11
3.682086614173227
 21
5.09744094488189
 31
0.0
  0
LINE
  5
2CDF
330
1E
100
AcDbEntity
  8
0
100
AcDbLine
 10
3.68011811023622
 20
4.81003937007874
 30
0.0
 11
3.678149606299212
 21
4.806102362204724
 31
0.0
  0
LINE
  5
2D03
330
1E
100
AcDbEntity
  8
0
100
AcDbLine
 10
3.632874015748031
 20
4.843503937007874
 30
0.0
 11
3.662401574803149
 21
4.843503937007874
 31
0.0
  0
LINE
  5
2D04
330
1E
100
AcDbEntity
  8
0
100
AcDbLine
 10
3.632874015748031
 20
4.857283464566929
 30
0.0
 11
3.662401574803149
 21
4.857283464566929
 31
0.0
  0
LINE
  5
2D05
330
1E
100
AcDbEntity
  8
0
100
AcDbLine
 10
3.682086614173227
 20
5.02263779527559
 30
0.0
 11
3.682086614173227
 21
4.871062992125985
 31
0.0
  0
LINE
  5
2D06
330
1E
100
AcDbEntity
  8
0
100
AcDbLine
 10
3.68011811023622
 20
4.835629921259842
 30
0.0
 11
3.695866141732283
 21
4.835629921259842
 31
0.0
  0
LINE
  5
2D07
330
1E
100
AcDbEntity
  8
0
100
AcDbLine
 10
3.68011811023622
 20
4.81003937007874
 30
0.0
 11
3.695866141732283
 21
4.81003937007874
 31
0.0
  0
LINE
  5
2D12
330
1E
100
AcDbEntity
  8
0
100
AcDbLine
 10
3.156496062992125
 20
4.843503937007874
 30
0.0
 11
3.107283464566929
 21
4.843503937007874
 31
0.0
  0
LINE
  5
2D18
330
1E
100
AcDbEntity
  8
0
100
AcDbLine
 10
3.156496062992125
 20
4.857283464566929
 30
0.0
 11
3.107283464566929
 21
4.857283464566929
 31
0.0
  0
LINE
  5
2D19
330
1E
100
AcDbEntity
  8
0
100
AcDbLine
 10
3.632874015748031
 20
4.81003937007874
 30
0.0
 11
3.156496062992125
 21
4.81003937007874
 31
0.0
  0
LINE
  5
2D1A
330
1E
100
AcDbEntity
  8
0
100
AcDbLine
 10
3.662401574803149
 20
4.857283464566929
 30
0.0
 11
3.662401574803149
 21
5.089566929133859
 31
0.0
  0
LINE
  5
2D20
330
1E
100
AcDbEntity
  8
0
100
AcDbLine
 10
3.711614173228346
 20
5.125
 30
0.0
 11
3.764763779527559
 21
5.125
 31
0.0
  0
LINE
  5
2D29
330
1E
100
AcDbEntity
  8
0
100
AcDbLine
 10
3.764763779527559
 20
5.203740157480314
 30
0.0
 11
3.044291338582676
 21
5.203740157480314
 31
0.0
  0
LINE
  5
2D2A
330
1E
100
AcDbEntity
  8
0
100
AcDbLine
 10
3.044291338582676
 20
5.203740157480314
 30
0.0
 11
3.044291338582676
 21
4.863188976377953
 31
0.0
  0
LINE
  5
2D2B
330
1E
100
AcDbEntity
  8
0
100
AcDbLine
 10
3.044291338582676
 20
4.863188976377953
 30
0.0
 11
3.099409448818898
 21
4.863188976377953
 31
0.0
  0
LINE
  5
2D41
330
1E
100
AcDbEntity
  8
0
100
AcDbLine
 10
3.764763779527559
 20
5.239173228346457
 30
0.0
 11
3.044291338582676
 21
5.239173228346457
 31
0.0
  0
LINE
  5
2D4C
330
1E
100
AcDbEntity
  8
0
100
AcDbLine
 10
3.024606299212598
 20
4.876968503937007
 30
0.0
 11
3.024606299212598
 21
5.21751968503937
 31
0.0
  0
LINE
  5
2D61
330
1E
100
AcDbEntity
  8
0
100
AcDbLine
 10
3.044291338582676
 20
5.231299212598425
 30
0.0
 11
3.764763779527559
 21
5.231299212598425
 31
0.0
  0
LINE
  5
2D77
330
1E
100
AcDbEntity
  8
0
100
AcDbLine
 10
3.024606299212598
 20
5.21751968503937
 30
0.0
 11
3.024606299212598
 21
5.223425196850394
 31
0.0
  0
LINE
  5
2D78
330
1E
100
AcDbEntity
  8
0
100
AcDbLine
 10
3.044291338582676
 20
5.239173228346457
 30
0.0
 11
3.044291338582676
 21
5.231299212598425
 31
0.0
  0
LINE
  5
2D79
330
1E
100
AcDbEntity
  8
0
100
AcDbLine
 10
3.764763779527559
 20
5.231299212598425
 30
0.0
 11
3.764763779527559
 21
5.239173228346457
 31
0.0
  0
LINE
  5
2D7A
330
1E
100
AcDbEntity
  8
0
100
AcDbLine
 10
2.341535433070865
 20
4.794291338582677
 30
0.0
 11
2.341535433070865
 21
4.796259842519685
 31
0.0
  0
LINE
  5
2D86
330
1E
100
AcDbEntity
  8
0
100
AcDbLine
 10
2.233267716535433
 20
5.23523622047244
 30
0.0
 11
2.233267716535433
 21
5.249015748031496
 31
0.0
  0
LINE
  5
2D87
330
1E
100
AcDbEntity
  8
0
100
AcDbLine
 10
2.233267716535433
 20
5.249015748031496
 30
0.0
 11
2.229330708661417
 21
5.245078740157479
 31
0.0
  0
LINE
  5
2D88
330
1E
100
AcDbEntity
  8
0
100
AcDbLine
 10
2.229330708661417
 20
4.674212598425196
 30
0.0
 11
2.229330708661417
 21
5.130905511811024
 31
0.0
  0
LINE
  5
2D89
330
1E
100
AcDbEntity
  8
0
100
AcDbLine
 10
2.229330708661417
 20
5.233267716535433
 30
0.0
 11
2.229330708661417
 21
5.245078740157479
 31
0.0
  0
LINE
  5
2D8A
330
1E
100
AcDbEntity
  8
0
100
AcDbLine
 10
2.231299212598425
 20
4.668307086614174
 30
0.0
 11
2.233267716535433
 21
4.670275590551181
 31
0.0
  0
LINE
  5
2D8B
330
1E
100
AcDbEntity
  8
0
100
AcDbLine
 10
2.233267716535433
 20
4.670275590551181
 30
0.0
 11
2.233267716535433
 21
5.128937007874016
 31
0.0
  0
LINE
  5
2D8C
330
1E
100
AcDbEntity
  8
0
100
AcDbLine
 10
2.292322834645669
 20
4.674212598425196
 30
0.0
 11
2.292322834645669
 21
4.670275590551181
 31
0.0
  0
LINE
  5
2D8D
330
1E
100
AcDbEntity
  8
0
100
AcDbLine
 10
2.292322834645669
 20
4.670275590551181
 30
0.0
 11
2.233267716535433
 21
4.670275590551181
 31
0.0
  0
LINE
  5
2D8E
330
1E
100
AcDbEntity
  8
0
100
AcDbLine
 10
2.296259842519685
 20
4.674212598425196
 30
0.0
 11
2.296259842519685
 21
4.672244094488188
 31
0.0
  0
LINE
  5
2D8F
330
1E
100
AcDbEntity
  8
0
100
AcDbLine
 10
2.292322834645669
 20
4.670275590551181
 30
0.0
 11
2.296259842519685
 21
4.672244094488188
 31
0.0
  0
LINE
  5
2D90
330
1E
100
AcDbEntity
  8
0
100
AcDbLine
 10
3.808070866141731
 20
4.674212598425196
 30
0.0
 11
3.808070866141731
 21
5.130905511811024
 31
0.0
  0
LINE
  5
2D91
330
1E
100
AcDbEntity
  8
0
100
AcDbLine
 10
3.808070866141731
 20
5.233267716535433
 30
0.0
 11
3.808070866141731
 21
5.245078740157479
 31
0.0
  0
LINE
  5
2D92
330
1E
100
AcDbEntity
  8
0
100
AcDbLine
 10
3.808070866141731
 20
5.245078740157479
 30
0.0
 11
3.806102362204724
 21
5.249015748031496
 31
0.0
  0
LINE
  5
2D93
330
1E
100
AcDbEntity
  8
0
100
AcDbLine
 10
3.806102362204724
 20
5.233267716535433
 30
0.0
 11
3.806102362204724
 21
5.249015748031496
 31
0.0
  0
LINE
  5
2D94
330
1E
100
AcDbEntity
  8
0
100
AcDbLine
 10
3.806102362204724
 20
4.670275590551181
 30
0.0
 11
3.806102362204724
 21
5.128937007874016
 31
0.0
  0
LINE
  5
2D95
330
1E
100
AcDbEntity
  8
0
100
AcDbLine
 10
3.806102362204724
 20
4.668307086614174
 30
0.0
 11
3.806102362204724
 21
4.670275590551181
 31
0.0
  0
LINE
  5
2D96
330
1E
100
AcDbEntity
  8
0
100
AcDbLine
 10
3.806102362204724
 20
5.534448818897638
 30
0.0
 11
3.794291338582677
 21
5.524606299212598
 31
0.0
  0
LINE
  5
2D97
330
1E
100
AcDbEntity
  8
0
100
AcDbLine
 10
3.806102362204724
 20
5.534448818897638
 30
0.0
 11
3.794291338582677
 21
5.534448818897638
 31
0.0
  0
LINE
  5
2D98
330
1E
100
AcDbEntity
  8
0
100
AcDbLine
 10
3.806102362204724
 20
5.249015748031496
 30
0.0
 11
3.806102362204724
 21
5.434055118110237
 31
0.0
  0
LINE
  5
2D99
330
1E
100
AcDbEntity
  8
0
100
AcDbLine
 10
3.806102362204724
 20
5.434055118110237
 30
0.0
 11
3.806102362204724
 21
5.534448818897638
 31
0.0
  0
LINE
  5
2D9A
330
1E
100
AcDbEntity
  8
0
100
AcDbLine
 10
3.745078740157479
 20
4.670275590551181
 30
0.0
 11
3.745078740157479
 21
4.674212598425196
 31
0.0
  0
LINE
  5
2D9B
330
1E
100
AcDbEntity
  8
0
100
AcDbLine
 10
3.806102362204724
 20
4.670275590551181
 30
0.0
 11
3.745078740157479
 21
4.670275590551181
 31
0.0
  0
LINE
  5
2D9C
330
1E
100
AcDbEntity
  8
0
100
AcDbLine
 10
3.743110236220472
 20
4.674212598425196
 30
0.0
 11
3.743110236220472
 21
4.672244094488188
 31
0.0
  0
LINE
  5
2D9D
330
1E
100
AcDbEntity
  8
0
100
AcDbLine
 10
3.745078740157479
 20
4.670275590551181
 30
0.0
 11
3.743110236220472
 21
4.672244094488188
 31
0.0
  0
LINE
  5
2D9E
330
1E
100
AcDbEntity
  8
0
100
AcDbLine
 10
3.745078740157479
 20
6.008858267716535
 30
0.0
 11
3.745078740157479
 21
6.012795275590551
 31
0.0
  0
LINE
  5
2D9F
330
1E
100
AcDbEntity
  8
0
100
AcDbLine
 10
3.806102362204724
 20
5.534448818897638
 30
0.0
 11
3.806102362204724
 21
6.012795275590551
 31
0.0
  0
LINE
  5
2DA0
330
1E
100
AcDbEntity
  8
0
100
AcDbLine
 10
3.806102362204724
 20
6.012795275590551
 30
0.0
 11
3.745078740157479
 21
6.012795275590551
 31
0.0
  0
LINE
  5
2DA1
330
1E
100
AcDbEntity
  8
0
100
AcDbLine
 10
1.447834645669291
 20
4.674212598425196
 30
0.0
 11
1.447834645669291
 21
5.130905511811024
 31
0.0
  0
LINE
  5
2DA2
330
1E
100
AcDbEntity
  8
0
100
AcDbLine
 10
1.447834645669291
 20
5.233267716535433
 30
0.0
 11
1.447834645669291
 21
5.245078740157479
 31
0.0
  0
LINE
  5
2DA3
330
1E
100
AcDbEntity
  8
0
100
AcDbLine
 10
1.447834645669291
 20
5.245078740157479
 30
0.0
 11
1.443897637795275
 21
5.249015748031496
 31
0.0
  0
LINE
  5
2DA4
330
1E
100
AcDbEntity
  8
0
100
AcDbLine
 10
1.443897637795275
 20
5.233267716535433
 30
0.0
 11
1.443897637795275
 21
5.249015748031496
 31
0.0
  0
LINE
  5
2DA5
330
1E
100
AcDbEntity
  8
0
100
AcDbLine
 10
1.443897637795275
 20
4.670275590551181
 30
0.0
 11
1.443897637795275
 21
5.128937007874016
 31
0.0
  0
LINE
  5
2DA6
330
1E
100
AcDbEntity
  8
0
100
AcDbLine
 10
1.443897637795275
 20
4.668307086614174
 30
0.0
 11
1.443897637795275
 21
4.670275590551181
 31
0.0
  0
LINE
  5
2DA7
330
1E
100
AcDbEntity
  8
0
100
AcDbLine
 10
1.382874015748031
 20
4.670275590551181
 30
0.0
 11
1.382874015748031
 21
4.674212598425196
 31
0.0
  0
LINE
  5
2DA8
330
1E
100
AcDbEntity
  8
0
100
AcDbLine
 10
1.382874015748031
 20
4.670275590551181
 30
0.0
 11
1.443897637795275
 21
4.670275590551181
 31
0.0
  0
LINE
  5
2DA9
330
1E
100
AcDbEntity
  8
0
100
AcDbLine
 10
1.380905511811024
 20
4.674212598425196
 30
0.0
 11
1.380905511811024
 21
4.672244094488188
 31
0.0
  0
LINE
  5
2DAA
330
1E
100
AcDbEntity
  8
0
100
AcDbLine
 10
1.382874015748031
 20
4.670275590551181
 30
0.0
 11
1.380905511811024
 21
4.672244094488188
 31
0.0
  0
LINE
  5
2DAB
330
1E
100
AcDbEntity
  8
0
100
AcDbLine
 10
-0.1289370078740157
 20
5.23523622047244
 30
0.0
 11
-0.1289370078740157
 21
5.249015748031496
 31
0.0
  0
LINE
  5
2DAC
330
1E
100
AcDbEntity
  8
0
100
AcDbLine
 10
-0.1289370078740157
 20
5.249015748031496
 30
0.0
 11
-0.1328740157480315
 21
5.245078740157479
 31
0.0
  0
LINE
  5
2DAD
330
1E
100
AcDbEntity
  8
0
100
AcDbLine
 10
-0.1328740157480315
 20
4.674212598425196
 30
0.0
 11
-0.1328740157480315
 21
5.130905511811024
 31
0.0
  0
LINE
  5
2DAE
330
1E
100
AcDbEntity
  8
0
100
AcDbLine
 10
-0.1328740157480315
 20
5.233267716535433
 30
0.0
 11
-0.1328740157480315
 21
5.245078740157479
 31
0.0
  0
LINE
  5
2DAF
330
1E
100
AcDbEntity
  8
0
100
AcDbLine
 10
-0.1289370078740157
 20
4.668307086614174
 30
0.0
 11
-0.1289370078740157
 21
4.670275590551181
 31
0.0
  0
LINE
  5
2DB0
330
1E
100
AcDbEntity
  8
0
100
AcDbLine
 10
-0.1289370078740157
 20
4.670275590551181
 30
0.0
 11
-0.1289370078740157
 21
5.128937007874016
 31
0.0
  0
LINE
  5
2DB1
330
1E
100
AcDbEntity
  8
0
100
AcDbLine
 10
-0.1289370078740157
 20
5.534448818897638
 30
0.0
 11
-0.1171259842519685
 21
5.534448818897638
 31
0.0
  0
LINE
  5
2DB2
330
1E
100
AcDbEntity
  8
0
100
AcDbLine
 10
-0.1289370078740157
 20
5.534448818897638
 30
0.0
 11
-0.1171259842519685
 21
5.524606299212598
 31
0.0
  0
LINE
  5
2DB3
330
1E
100
AcDbEntity
  8
0
100
AcDbLine
 10
-0.1289370078740157
 20
5.434055118110237
 30
0.0
 11
-0.1289370078740157
 21
5.534448818897638
 31
0.0
  0
LINE
  5
2DB4
330
1E
100
AcDbEntity
  8
0
100
AcDbLine
 10
-0.1289370078740157
 20
5.249015748031496
 30
0.0
 11
-0.1289370078740157
 21
5.434055118110237
 31
0.0
  0
LINE
  5
2DB5
330
1E
100
AcDbEntity
  8
0
100
AcDbLine
 10
-0.0698818897637796
 20
4.674212598425196
 30
0.0
 11
-0.0698818897637796
 21
4.670275590551181
 31
0.0
  0
LINE
  5
2DB6
330
1E
100
AcDbEntity
  8
0
100
AcDbLine
 10
-0.1289370078740157
 20
4.670275590551181
 30
0.0
 11
-0.0698818897637796
 21
4.670275590551181
 31
0.0
  0
LINE
  5
2DB7
330
1E
100
AcDbEntity
  8
0
100
AcDbLine
 10
-0.0659448818897639
 20
4.674212598425196
 30
0.0
 11
-0.0659448818897639
 21
4.672244094488188
 31
0.0
  0
LINE
  5
2DB8
330
1E
100
AcDbEntity
  8
0
100
AcDbLine
 10
-0.0698818897637796
 20
4.670275590551181
 30
0.0
 11
-0.0659448818897639
 21
4.672244094488188
 31
0.0
  0
LINE
  5
2DB9
330
1E
100
AcDbEntity
  8
0
100
AcDbLine
 10
1.382874015748031
 20
6.008858267716535
 30
0.0
 11
1.382874015748031
 21
6.012795275590551
 31
0.0
  0
LINE
  5
2DBA
330
1E
100
AcDbEntity
  8
0
100
AcDbLine
 10
1.443897637795275
 20
5.534448818897638
 30
0.0
 11
1.432086614173228
 21
5.534448818897638
 31
0.0
  0
LINE
  5
2DBB
330
1E
100
AcDbEntity
  8
0
100
AcDbLine
 10
1.443897637795275
 20
5.534448818897638
 30
0.0
 11
1.443897637795275
 21
6.012795275590551
 31
0.0
  0
LINE
  5
2DBC
330
1E
100
AcDbEntity
  8
0
100
AcDbLine
 10
1.382874015748031
 20
6.012795275590551
 30
0.0
 11
1.443897637795275
 21
6.012795275590551
 31
0.0
  0
LINE
  5
2DBD
330
1E
100
AcDbEntity
  8
0
100
AcDbLine
 10
-1.004921259842519
 20
3.894685039370079
 30
0.0
 11
4.682086614173227
 21
3.894685039370079
 31
0.0
  0
LINE
  5
2DC3
330
1E
100
AcDbEntity
  8
0
100
AcDbLine
 10
-1.036417322834645
 20
7.249015748031496
 30
0.0
 11
-1.036417322834645
 21
3.926181102362205
 31
0.0
  0
LINE
  5
2DC9
330
1E
100
AcDbEntity
  8
0
100
AcDbLine
 10
4.682086614173227
 20
7.280511811023622
 30
0.0
 11
-1.004921259842519
 21
7.280511811023622
 31
0.0
  0
LINE
  5
2DCF
330
1E
100
AcDbEntity
  8
0
100
AcDbLine
 10
4.711614173228346
 20
3.926181102362205
 30
0.0
 11
4.711614173228346
 21
7.249015748031496
 31
0.0
  0
LINE
  5
2DD5
330
1E
100
AcDbEntity
  8
0
100
AcDbLine
 10
3.731299212598425
 20
6.514763779527559
 30
0.0
 11
2.308070866141732
 21
6.514763779527559
 31
0.0
  0
LINE
  5
2DDB
330
1E
100
AcDbEntity
  8
0
100
AcDbLine
 10
3.741141732283464
 20
6.50492125984252
 30
0.0
 11
3.741141732283464
 21
6.164370078740157
 31
0.0
  0
LINE
  5
2DE1
330
1E
100
AcDbEntity
  8
0
100
AcDbLine
 10
3.731299212598425
 20
6.154527559055118
 30
0.0
 11
2.308070866141732
 21
6.154527559055118
 31
0.0
  0
LINE
  5
2DE7
330
1E
100
AcDbEntity
  8
0
100
AcDbLine
 10
2.298228346456692
 20
6.50492125984252
 30
0.0
 11
2.298228346456692
 21
6.164370078740157
 31
0.0
  0
LINE
  5
2DED
330
1E
100
AcDbEntity
  8
0
100
AcDbLine
 10
-0.0639763779527556
 20
6.50492125984252
 30
0.0
 11
-0.0639763779527556
 21
6.164370078740157
 31
0.0
  0
LINE
  5
2DF3
330
1E
100
AcDbEntity
  8
0
100
AcDbLine
 10
-0.0541338582677167
 20
6.514763779527559
 30
0.0
 11
1.369094488188976
 21
6.514763779527559
 31
0.0
  0
LINE
  5
2DF9
330
1E
100
AcDbEntity
  8
0
100
AcDbLine
 10
1.378937007874015
 20
6.50492125984252
 30
0.0
 11
1.378937007874015
 21
6.164370078740157
 31
0.0
  0
LINE
  5
2DFF
330
1E
100
AcDbEntity
  8
0
100
AcDbLine
 10
-0.0541338582677167
 20
6.154527559055118
 30
0.0
 11
1.369094488188976
 21
6.154527559055118
 31
0.0
  0
LINE
  5
2E2F
330
1E
100
AcDbEntity
  8
0
100
AcDbLine
 10
2.229330708661417
 20
5.245078740157479
 30
0.0
 11
2.221456692913386
 21
5.252952755905512
 31
0.0
  0
LINE
  5
2E30
330
1E
100
AcDbEntity
  8
0
100
AcDbLine
 10
2.178149606299212
 20
5.252952755905512
 30
0.0
 11
2.221456692913386
 21
5.252952755905512
 31
0.0
  0
LINE
  5
2E31
330
1E
100
AcDbEntity
  8
0
100
AcDbLine
 10
2.178149606299212
 20
5.252952755905512
 30
0.0
 11
2.170275590551181
 21
5.260826771653544
 31
0.0
  0
LINE
  5
2E32
330
1E
100
AcDbEntity
  8
0
100
AcDbLine
 10
2.170275590551181
 20
5.420275590551181
 30
0.0
 11
2.170275590551181
 21
5.260826771653544
 31
0.0
  0
LINE
  5
2E33
330
1E
100
AcDbEntity
  8
0
100
AcDbLine
 10
2.170275590551181
 20
5.420275590551181
 30
0.0
 11
2.178149606299212
 21
5.428149606299212
 31
0.0
  0
LINE
  5
2E34
330
1E
100
AcDbEntity
  8
0
100
AcDbLine
 10
2.178149606299212
 20
5.428149606299212
 30
0.0
 11
2.221456692913386
 21
5.428149606299212
 31
0.0
  0
LINE
  5
2E35
330
1E
100
AcDbEntity
  8
0
100
AcDbLine
 10
2.221456692913386
 20
5.428149606299212
 30
0.0
 11
2.229330708661417
 21
5.436023622047244
 31
0.0
  0
LINE
  5
2E36
330
1E
100
AcDbEntity
  8
0
100
AcDbLine
 10
2.229330708661417
 20
5.436023622047244
 30
0.0
 11
2.229330708661417
 21
6.008858267716535
 31
0.0
  0
LINE
  5
2E3C
330
1E
100
AcDbEntity
  8
0
100
AcDbLine
 10
3.8001968503937
 20
6.016732283464566
 30
0.0
 11
2.237204724409449
 21
6.016732283464566
 31
0.0
  0
LINE
  5
2E42
330
1E
100
AcDbEntity
  8
0
100
AcDbLine
 10
3.808070866141731
 20
5.436023622047244
 30
0.0
 11
3.808070866141731
 21
6.008858267716535
 31
0.0
  0
LINE
  5
2E43
330
1E
100
AcDbEntity
  8
0
100
AcDbLine
 10
3.808070866141731
 20
5.436023622047244
 30
0.0
 11
3.815944881889762
 21
5.428149606299212
 31
0.0
  0
LINE
  5
2E44
330
1E
100
AcDbEntity
  8
0
100
AcDbLine
 10
3.861220472440944
 20
5.428149606299212
 30
0.0
 11
3.815944881889762
 21
5.428149606299212
 31
0.0
  0
LINE
  5
2E45
330
1E
100
AcDbEntity
  8
0
100
AcDbLine
 10
3.861220472440944
 20
5.428149606299212
 30
0.0
 11
3.869094488188975
 21
5.420275590551181
 31
0.0
  0
LINE
  5
2E46
330
1E
100
AcDbEntity
  8
0
100
AcDbLine
 10
3.869094488188975
 20
5.420275590551181
 30
0.0
 11
3.869094488188975
 21
5.260826771653544
 31
0.0
  0
LINE
  5
2E47
330
1E
100
AcDbEntity
  8
0
100
AcDbLine
 10
3.869094488188975
 20
5.260826771653544
 30
0.0
 11
3.861220472440944
 21
5.252952755905512
 31
0.0
  0
LINE
  5
2E48
330
1E
100
AcDbEntity
  8
0
100
AcDbLine
 10
3.861220472440944
 20
5.252952755905512
 30
0.0
 11
3.815944881889762
 21
5.252952755905512
 31
0.0
  0
LINE
  5
2E49
330
1E
100
AcDbEntity
  8
0
100
AcDbLine
 10
3.815944881889762
 20
5.252952755905512
 30
0.0
 11
3.808070866141731
 21
5.245078740157479
 31
0.0
  0
LINE
  5
2E4F
330
1E
100
AcDbEntity
  8
0
100
AcDbLine
 10
3.8001968503937
 20
4.666338582677164
 30
0.0
 11
2.237204724409449
 21
4.666338582677164
 31
0.0
  0
LINE
  5
2E55
330
1E
100
AcDbEntity
  8
0
100
AcDbLine
 10
1.499015748031496
 20
5.252952755905512
 30
0.0
 11
1.455708661417323
 21
5.252952755905512
 31
0.0
  0
LINE
  5
2E56
330
1E
100
AcDbEntity
  8
0
100
AcDbLine
 10
1.455708661417323
 20
5.252952755905512
 30
0.0
 11
1.447834645669291
 21
5.245078740157479
 31
0.0
  0
LINE
  5
2E5C
330
1E
100
AcDbEntity
  8
0
100
AcDbLine
 10
-0.125
 20
4.666338582677164
 30
0.0
 11
1.437992125984251
 21
4.666338582677164
 31
0.0
  0
LINE
  5
2E62
330
1E
100
AcDbEntity
  8
0
100
AcDbLine
 10
-0.1328740157480315
 20
5.245078740157479
 30
0.0
 11
-0.140748031496063
 21
5.252952755905512
 31
0.0
  0
LINE
  5
2E63
330
1E
100
AcDbEntity
  8
0
100
AcDbLine
 10
-0.1840551181102361
 20
5.252952755905512
 30
0.0
 11
-0.140748031496063
 21
5.252952755905512
 31
0.0
  0
LINE
  5
2E64
330
1E
100
AcDbEntity
  8
0
100
AcDbLine
 10
-0.1840551181102361
 20
5.252952755905512
 30
0.0
 11
-0.1919291338582676
 21
5.260826771653544
 31
0.0
  0
LINE
  5
2E65
330
1E
100
AcDbEntity
  8
0
100
AcDbLine
 10
-0.1919291338582676
 20
5.420275590551181
 30
0.0
 11
-0.1919291338582676
 21
5.260826771653544
 31
0.0
  0
LINE
  5
2E66
330
1E
100
AcDbEntity
  8
0
100
AcDbLine
 10
-0.1919291338582676
 20
5.420275590551181
 30
0.0
 11
-0.1840551181102361
 21
5.428149606299212
 31
0.0
  0
LINE
  5
2E67
330
1E
100
AcDbEntity
  8
0
100
AcDbLine
 10
-0.1840551181102361
 20
5.428149606299212
 30
0.0
 11
-0.140748031496063
 21
5.428149606299212
 31
0.0
  0
LINE
  5
2E68
330
1E
100
AcDbEntity
  8
0
100
AcDbLine
 10
-0.140748031496063
 20
5.428149606299212
 30
0.0
 11
-0.1328740157480315
 21
5.436023622047244
 31
0.0
  0
LINE
  5
2E69
330
1E
100
AcDbEntity
  8
0
100
AcDbLine
 10
-0.1328740157480315
 20
5.436023622047244
 30
0.0
 11
-0.1328740157480315
 21
6.008858267716535
 31
0.0
  0
LINE
  5
2E6F
330
1E
100
AcDbEntity
  8
0
100
AcDbLine
 10
-0.125
 20
6.016732283464566
 30
0.0
 11
1.437992125984251
 21
6.016732283464566
 31
0.0
  0
LINE
  5
2E75
330
1E
100
AcDbEntity
  8
0
100
AcDbLine
 10
1.447834645669291
 20
5.436023622047244
 30
0.0
 11
1.447834645669291
 21
6.008858267716535
 31
0.0
  0
LINE
  5
2E76
330
1E
100
AcDbEntity
  8
0
100
AcDbLine
 10
1.447834645669291
 20
5.436023622047244
 30
0.0
 11
1.455708661417323
 21
5.428149606299212
 31
0.0
  0
LINE
  5
2E77
330
1E
100
AcDbEntity
  8
0
100
AcDbLine
 10
1.499015748031496
 20
5.428149606299212
 30
0.0
 11
1.455708661417323
 21
5.428149606299212
 31
0.0
  0
LINE
  5
2E78
330
1E
100
AcDbEntity
  8
0
100
AcDbLine
 10
1.499015748031496
 20
5.428149606299212
 30
0.0
 11
1.506889763779527
 21
5.420275590551181
 31
0.0
  0
LINE
  5
2E79
330
1E
100
AcDbEntity
  8
0
100
AcDbLine
 10
1.506889763779527
 20
5.420275590551181
 30
0.0
 11
1.506889763779527
 21
5.260826771653544
 31
0.0
  0
LINE
  5
2E7A
330
1E
100
AcDbEntity
  8
0
100
AcDbLine
 10
1.506889763779527
 20
5.260826771653544
 30
0.0
 11
1.499015748031496
 21
5.252952755905512
 31
0.0
  0
LINE
  5
2E7B
330
1E
100
AcDbEntity
  8
0
100
AcDbLine
 10
-0.9950787401574796
 20
7.223425196850394
 30
0.0
 11
-0.9950787401574796
 21
3.949803149606299
 31
0.0
  0
LINE
  5
2E81
330
1E
100
AcDbEntity
  8
0
100
AcDbLine
 10
-0.9793307086614166
 20
3.934055118110237
 30
0.0
 11
4.656496062992125
 21
3.934055118110237
 31
0.0
  0
LINE
  5
2E87
330
1E
100
AcDbEntity
  8
0
100
AcDbLine
 10
4.672244094488188
 20
3.949803149606299
 30
0.0
 11
4.672244094488188
 21
7.223425196850394
 31
0.0
  0
LINE
  5
2E8D
330
1E
100
AcDbEntity
  8
0
100
AcDbLine
 10
4.656496062992125
 20
7.239173228346457
 30
0.0
 11
-0.9793307086614166
 21
7.239173228346457
 31
0.0
  0
LINE
  5
2E93
330
1E
100
AcDbEntity
  8
0
100
AcDbLine
 10
4.682086614173227
 20
3.894685039370079
 30
0.0
 11
4.656496062992125
 21
3.918307086614174
 31
0.0
  0
LINE
  5
2E94
330
1E
100
AcDbEntity
  8
0
100
AcDbLine
 10
4.656496062992125
 20
3.918307086614174
 30
0.0
 11
-0.9793307086614166
 21
3.918307086614174
 31
0.0
  0
LINE
  5
2E95
330
1E
100
AcDbEntity
  8
0
100
AcDbLine
 10
-0.9793307086614166
 20
3.918307086614174
 30
0.0
 11
-1.004921259842519
 21
3.894685039370079
 31
0.0
  0
LINE
  5
2E96
330
1E
100
AcDbEntity
  8
0
100
AcDbLine
 10
-1.036417322834645
 20
3.926181102362205
 30
0.0
 11
-1.010826771653542
 21
3.949803149606299
 31
0.0
  0
LINE
  5
2E97
330
1E
100
AcDbEntity
  8
0
100
AcDbLine
 10
-1.010826771653542
 20
3.949803149606299
 30
0.0
 11
-1.010826771653542
 21
7.223425196850394
 31
0.0
  0
LINE
  5
2E98
330
1E
100
AcDbEntity
  8
0
100
AcDbLine
 10
-1.010826771653542
 20
7.223425196850394
 30
0.0
 11
-1.036417322834645
 21
7.249015748031496
 31
0.0
  0
LINE
  5
2E99
330
1E
100
AcDbEntity
  8
0
100
AcDbLine
 10
-1.004921259842519
 20
7.280511811023622
 30
0.0
 11
-0.9793307086614166
 21
7.25492125984252
 31
0.0
  0
LINE
  5
2E9A
330
1E
100
AcDbEntity
  8
0
100
AcDbLine
 10
-0.9793307086614166
 20
7.25492125984252
 30
0.0
 11
4.656496062992125
 21
7.25492125984252
 31
0.0
  0
LINE
  5
2E9B
330
1E
100
AcDbEntity
  8
0
100
AcDbLine
 10
4.656496062992125
 20
7.25492125984252
 30
0.0
 11
4.682086614173227
 21
7.280511811023622
 31
0.0
  0
LINE
  5
2E9C
330
1E
100
AcDbEntity
  8
0
100
AcDbLine
 10
4.711614173228346
 20
7.249015748031496
 30
0.0
 11
4.687992125984251
 21
7.223425196850394
 31
0.0
  0
LINE
  5
2E9D
330
1E
100
AcDbEntity
  8
0
100
AcDbLine
 10
4.687992125984251
 20
7.223425196850394
 30
0.0
 11
4.687992125984251
 21
3.949803149606299
 31
0.0
  0
LINE
  5
2E9E
330
1E
100
AcDbEntity
  8
0
100
AcDbLine
 10
4.687992125984251
 20
3.949803149606299
 30
0.0
 11
4.711614173228346
 21
3.926181102362205
 31
0.0
  0
LINE
  5
2EDB
330
1E
100
AcDbEntity
  8
0
100
AcDbLine
 10
-0.1289370078740157
 20
5.534448818897638
 30
0.0
 11
-0.1289370078740157
 21
6.012795275590551
 31
0.0
  0
LINE
  5
2EDC
330
1E
100
AcDbEntity
  8
0
100
AcDbLine
 10
-0.0698818897637796
 20
6.012795275590551
 30
0.0
 11
-0.0698818897637796
 21
6.008858267716535
 31
0.0
  0
LINE
  5
2EDD
330
1E
100
AcDbEntity
  8
0
100
AcDbLine
 10
-0.1289370078740157
 20
6.012795275590551
 30
0.0
 11
-0.0698818897637796
 21
6.012795275590551
 31
0.0
  0
LINE
  5
2EDE
330
1E
100
AcDbEntity
  8
0
100
AcDbLine
 10
1.443897637795275
 20
5.434055118110237
 30
0.0
 11
1.443897637795275
 21
5.534448818897638
 31
0.0
  0
LINE
  5
2EDF
330
1E
100
AcDbEntity
  8
0
100
AcDbLine
 10
1.443897637795275
 20
5.434055118110237
 30
0.0
 11
1.447834645669291
 21
5.436023622047244
 31
0.0
  0
LINE
  5
2EE0
330
1E
100
AcDbEntity
  8
0
100
AcDbLine
 10
1.443897637795275
 20
6.012795275590551
 30
0.0
 11
1.443897637795275
 21
6.012795275590551
 31
0.0
  0
LINE
  5
2EE1
330
1E
100
AcDbEntity
  8
0
100
AcDbLine
 10
-0.1328740157480315
 20
5.436023622047244
 30
0.0
 11
-0.1289370078740157
 21
5.434055118110237
 31
0.0
  0
LINE
  5
2EE2
330
1E
100
AcDbEntity
  8
0
100
AcDbLine
 10
-0.1289370078740157
 20
6.012795275590551
 30
0.0
 11
-0.1289370078740157
 21
6.012795275590551
 31
0.0
  0
LINE
  5
2EE8
330
1E
100
AcDbEntity
  8
0
100
AcDbLine
 10
1.304133858267716
 20
6.010826771653544
 30
0.0
 11
1.308070866141732
 21
6.008858267716535
 31
0.0
  0
LINE
  5
2EE9
330
1E
100
AcDbEntity
  8
0
100
AcDbLine
 10
1.308070866141732
 20
6.008858267716535
 30
0.0
 11
1.380905511811024
 21
6.008858267716535
 31
0.0
  0
LINE
  5
2EEA
330
1E
100
AcDbEntity
  8
0
100
AcDbLine
 10
1.382874015748031
 20
6.012795275590551
 30
0.0
 11
1.380905511811024
 21
6.008858267716535
 31
0.0
  0
LINE
  5
2EEB
330
1E
100
AcDbEntity
  8
0
100
AcDbLine
 10
-0.0698818897637796
 20
6.012795275590551
 30
0.0
 11
-0.0659448818897639
 21
6.008858267716535
 31
0.0
  0
LINE
  5
2EEC
330
1E
100
AcDbEntity
  8
0
100
AcDbLine
 10
-0.0659448818897639
 20
6.008858267716535
 30
0.0
 11
0.0049212598425195
 21
6.008858267716535
 31
0.0
  0
LINE
  5
2EED
330
1E
100
AcDbEntity
  8
0
100
AcDbLine
 10
0.0049212598425195
 20
6.008858267716535
 30
0.0
 11
0.0108267716535435
 21
6.010826771653544
 31
0.0
  0
LINE
  5
2EF3
330
1E
100
AcDbEntity
  8
0
100
AcDbLine
 10
0.0305118110236222
 20
6.010826771653544
 30
0.0
 11
1.282480314960629
 21
6.010826771653544
 31
0.0
  0
LINE
  5
2EF4
330
1E
100
AcDbEntity
  8
0
100
AcDbLine
 10
1.380905511811024
 20
6.008858267716535
 30
0.0
 11
1.380905511811024
 21
6.008858267716535
 31
0.0
  0
LINE
  5
2EF5
330
1E
100
AcDbEntity
  8
0
100
AcDbLine
 10
-0.0659448818897639
 20
4.672244094488188
 30
0.0
 11
1.380905511811024
 21
4.672244094488188
 31
0.0
  0
LINE
  5
2EF6
330
1E
100
AcDbEntity
  8
0
100
AcDbLine
 10
-0.0659448818897639
 20
6.008858267716535
 30
0.0
 11
-0.0659448818897639
 21
6.008858267716535
 31
0.0
  0
LINE
  5
2EF7
330
1E
100
AcDbEntity
  8
0
100
AcDbLine
 10
2.233267716535433
 20
5.534448818897638
 30
0.0
 11
2.233267716535433
 21
6.012795275590551
 31
0.0
  0
LINE
  5
2EF8
330
1E
100
AcDbEntity
  8
0
100
AcDbLine
 10
2.233267716535433
 20
5.534448818897638
 30
0.0
 11
2.24507874015748
 21
5.534448818897638
 31
0.0
  0
LINE
  5
2EF9
330
1E
100
AcDbEntity
  8
0
100
AcDbLine
 10
2.292322834645669
 20
6.012795275590551
 30
0.0
 11
2.292322834645669
 21
6.008858267716535
 31
0.0
  0
LINE
  5
2EFA
330
1E
100
AcDbEntity
  8
0
100
AcDbLine
 10
2.292322834645669
 20
6.012795275590551
 30
0.0
 11
2.233267716535433
 21
6.012795275590551
 31
0.0
  0
LINE
  5
2EFB
330
1E
100
AcDbEntity
  8
0
100
AcDbLine
 10
2.229330708661417
 20
5.436023622047244
 30
0.0
 11
2.233267716535433
 21
5.434055118110237
 31
0.0
  0
LINE
  5
2EFC
330
1E
100
AcDbEntity
  8
0
100
AcDbLine
 10
2.233267716535433
 20
5.434055118110237
 30
0.0
 11
2.233267716535433
 21
5.534448818897638
 31
0.0
  0
LINE
  5
2EFD
330
1E
100
AcDbEntity
  8
0
100
AcDbLine
 10
2.231299212598425
 20
6.012795275590551
 30
0.0
 11
2.233267716535433
 21
6.012795275590551
 31
0.0
  0
LINE
  5
2EFE
330
1E
100
AcDbEntity
  8
0
100
AcDbLine
 10
3.806102362204724
 20
5.434055118110237
 30
0.0
 11
3.808070866141731
 21
5.436023622047244
 31
0.0
  0
LINE
  5
2EFF
330
1E
100
AcDbEntity
  8
0
100
AcDbLine
 10
3.806102362204724
 20
6.012795275590551
 30
0.0
 11
3.806102362204724
 21
6.012795275590551
 31
0.0
  0
LINE
  5
2F00
330
1E
100
AcDbEntity
  8
0
100
AcDbLine
 10
2.367125984251968
 20
6.008858267716535
 30
0.0
 11
2.296259842519685
 21
6.008858267716535
 31
0.0
  0
LINE
  5
2F01
330
1E
100
AcDbEntity
  8
0
100
AcDbLine
 10
2.367125984251968
 20
6.008858267716535
 30
0.0
 11
2.373031496062992
 21
6.010826771653544
 31
0.0
  0
LINE
  5
2F07
330
1E
100
AcDbEntity
  8
0
100
AcDbLine
 10
2.392716535433071
 20
6.010826771653544
 30
0.0
 11
3.644685039370079
 21
6.010826771653544
 31
0.0
  0
LINE
  5
2F0D
330
1E
100
AcDbEntity
  8
0
100
AcDbLine
 10
3.664370078740157
 20
6.010826771653544
 30
0.0
 11
3.670275590551181
 21
6.008858267716535
 31
0.0
  0
LINE
  5
2F0E
330
1E
100
AcDbEntity
  8
0
100
AcDbLine
 10
3.743110236220472
 20
6.008858267716535
 30
0.0
 11
3.670275590551181
 21
6.008858267716535
 31
0.0
  0
LINE
  5
2F0F
330
1E
100
AcDbEntity
  8
0
100
AcDbLine
 10
3.745078740157479
 20
6.012795275590551
 30
0.0
 11
3.743110236220472
 21
6.008858267716535
 31
0.0
  0
LINE
  5
2F10
330
1E
100
AcDbEntity
  8
0
100
AcDbLine
 10
2.292322834645669
 20
6.012795275590551
 30
0.0
 11
2.296259842519685
 21
6.008858267716535
 31
0.0
  0
LINE
  5
2F11
330
1E
100
AcDbEntity
  8
0
100
AcDbLine
 10
2.296259842519685
 20
6.008858267716535
 30
0.0
 11
2.296259842519685
 21
6.008858267716535
 31
0.0
  0
LINE
  5
2F12
330
1E
100
AcDbEntity
  8
0
100
AcDbLine
 10
3.743110236220472
 20
4.672244094488188
 30
0.0
 11
2.296259842519685
 21
4.672244094488188
 31
0.0
  0
LINE
  5
2F13
330
1E
100
AcDbEntity
  8
0
100
AcDbLine
 10
3.743110236220472
 20
6.008858267716535
 30
0.0
 11
3.743110236220472
 21
6.008858267716535
 31
0.0
  0
LINE
  5
2F14
330
1E
100
AcDbEntity
  8
0
100
AcDbLine
 10
-0.140748031496063
 20
5.252952755905512
 30
0.0
 11
-0.1368110236220472
 21
5.256889763779527
 31
0.0
  0
LINE
  5
2F15
330
1E
100
AcDbEntity
  8
0
100
AcDbLine
 10
-0.1801181102362204
 20
5.256889763779527
 30
0.0
 11
-0.1368110236220472
 21
5.256889763779527
 31
0.0
  0
LINE
  5
2F16
330
1E
100
AcDbEntity
  8
0
100
AcDbLine
 10
-0.1801181102362204
 20
5.256889763779527
 30
0.0
 11
-0.1840551181102361
 21
5.252952755905512
 31
0.0
  0
LINE
  5
2F17
330
1E
100
AcDbEntity
  8
0
100
AcDbLine
 10
-0.1879921259842518
 20
5.418307086614174
 30
0.0
 11
-0.1879921259842518
 21
5.264763779527559
 31
0.0
  0
LINE
  5
2F18
330
1E
100
AcDbEntity
  8
0
100
AcDbLine
 10
-0.1879921259842518
 20
5.264763779527559
 30
0.0
 11
-0.1801181102362204
 21
5.256889763779527
 31
0.0
  0
LINE
  5
2F19
330
1E
100
AcDbEntity
  8
0
100
AcDbLine
 10
-0.1368110236220472
 20
5.256889763779527
 30
0.0
 11
-0.1289370078740157
 21
5.249015748031496
 31
0.0
  0
LINE
  5
2F1A
330
1E
100
AcDbEntity
  8
0
100
AcDbLine
 10
-0.1289370078740157
 20
5.434055118110237
 30
0.0
 11
-0.1368110236220472
 21
5.426181102362205
 31
0.0
  0
LINE
  5
2F1B
330
1E
100
AcDbEntity
  8
0
100
AcDbLine
 10
-0.1801181102362204
 20
5.426181102362205
 30
0.0
 11
-0.1368110236220472
 21
5.426181102362205
 31
0.0
  0
LINE
  5
2F1C
330
1E
100
AcDbEntity
  8
0
100
AcDbLine
 10
-0.1801181102362204
 20
5.426181102362205
 30
0.0
 11
-0.1879921259842518
 21
5.418307086614174
 31
0.0
  0
LINE
  5
2F1D
330
1E
100
AcDbEntity
  8
0
100
AcDbLine
 10
-0.1840551181102361
 20
5.428149606299212
 30
0.0
 11
-0.1801181102362204
 21
5.426181102362205
 31
0.0
  0
LINE
  5
2F1E
330
1E
100
AcDbEntity
  8
0
100
AcDbLine
 10
-0.1368110236220472
 20
5.426181102362205
 30
0.0
 11
-0.140748031496063
 21
5.428149606299212
 31
0.0
  0
LINE
  5
2F1F
330
1E
100
AcDbEntity
  8
0
100
AcDbLine
 10
-0.1919291338582676
 20
5.260826771653544
 30
0.0
 11
-0.1879921259842518
 21
5.264763779527559
 31
0.0
  0
LINE
  5
2F20
330
1E
100
AcDbEntity
  8
0
100
AcDbLine
 10
-0.1879921259842518
 20
5.418307086614174
 30
0.0
 11
-0.1919291338582676
 21
5.420275590551181
 31
0.0
  0
LINE
  5
2F21
330
1E
100
AcDbEntity
  8
0
100
AcDbLine
 10
1.443897637795275
 20
5.534448818897638
 30
0.0
 11
1.432086614173228
 21
5.524606299212598
 31
0.0
  0
LINE
  5
2F22
330
1E
100
AcDbEntity
  8
0
100
AcDbLine
 10
1.443897637795275
 20
5.249015748031496
 30
0.0
 11
1.443897637795275
 21
5.434055118110237
 31
0.0
  0
LINE
  5
2F23
330
1E
100
AcDbEntity
  8
0
100
AcDbLine
 10
1.49507874015748
 20
5.256889763779527
 30
0.0
 11
1.451771653543307
 21
5.256889763779527
 31
0.0
  0
LINE
  5
2F24
330
1E
100
AcDbEntity
  8
0
100
AcDbLine
 10
1.451771653543307
 20
5.256889763779527
 30
0.0
 11
1.455708661417323
 21
5.252952755905512
 31
0.0
  0
LINE
  5
2F25
330
1E
100
AcDbEntity
  8
0
100
AcDbLine
 10
1.499015748031496
 20
5.252952755905512
 30
0.0
 11
1.49507874015748
 21
5.256889763779527
 31
0.0
  0
LINE
  5
2F26
330
1E
100
AcDbEntity
  8
0
100
AcDbLine
 10
1.49507874015748
 20
5.426181102362205
 30
0.0
 11
1.451771653543307
 21
5.426181102362205
 31
0.0
  0
LINE
  5
2F27
330
1E
100
AcDbEntity
  8
0
100
AcDbLine
 10
1.49507874015748
 20
5.426181102362205
 30
0.0
 11
1.499015748031496
 21
5.428149606299212
 31
0.0
  0
LINE
  5
2F28
330
1E
100
AcDbEntity
  8
0
100
AcDbLine
 10
1.455708661417323
 20
5.428149606299212
 30
0.0
 11
1.451771653543307
 21
5.426181102362205
 31
0.0
  0
LINE
  5
2F29
330
1E
100
AcDbEntity
  8
0
100
AcDbLine
 10
1.49507874015748
 20
5.256889763779527
 30
0.0
 11
1.502952755905512
 21
5.264763779527559
 31
0.0
  0
LINE
  5
2F2A
330
1E
100
AcDbEntity
  8
0
100
AcDbLine
 10
1.502952755905512
 20
5.418307086614174
 30
0.0
 11
1.502952755905512
 21
5.264763779527559
 31
0.0
  0
LINE
  5
2F2B
330
1E
100
AcDbEntity
  8
0
100
AcDbLine
 10
1.502952755905512
 20
5.418307086614174
 30
0.0
 11
1.49507874015748
 21
5.426181102362205
 31
0.0
  0
LINE
  5
2F2C
330
1E
100
AcDbEntity
  8
0
100
AcDbLine
 10
1.451771653543307
 20
5.426181102362205
 30
0.0
 11
1.443897637795275
 21
5.434055118110237
 31
0.0
  0
LINE
  5
2F2D
330
1E
100
AcDbEntity
  8
0
100
AcDbLine
 10
1.443897637795275
 20
5.249015748031496
 30
0.0
 11
1.451771653543307
 21
5.256889763779527
 31
0.0
  0
LINE
  5
2F2E
330
1E
100
AcDbEntity
  8
0
100
AcDbLine
 10
1.502952755905512
 20
5.264763779527559
 30
0.0
 11
1.506889763779527
 21
5.260826771653544
 31
0.0
  0
LINE
  5
2F2F
330
1E
100
AcDbEntity
  8
0
100
AcDbLine
 10
1.506889763779527
 20
5.420275590551181
 30
0.0
 11
1.502952755905512
 21
5.418307086614174
 31
0.0
  0
LINE
  5
2F30
330
1E
100
AcDbEntity
  8
0
100
AcDbLine
 10
3.857283464566929
 20
5.256889763779527
 30
0.0
 11
3.813976377952755
 21
5.256889763779527
 31
0.0
  0
LINE
  5
2F31
330
1E
100
AcDbEntity
  8
0
100
AcDbLine
 10
3.813976377952755
 20
5.256889763779527
 30
0.0
 11
3.815944881889762
 21
5.252952755905512
 31
0.0
  0
LINE
  5
2F32
330
1E
100
AcDbEntity
  8
0
100
AcDbLine
 10
3.861220472440944
 20
5.252952755905512
 30
0.0
 11
3.857283464566929
 21
5.256889763779527
 31
0.0
  0
LINE
  5
2F33
330
1E
100
AcDbEntity
  8
0
100
AcDbLine
 10
3.857283464566929
 20
5.256889763779527
 30
0.0
 11
3.865157480314961
 21
5.264763779527559
 31
0.0
  0
LINE
  5
2F34
330
1E
100
AcDbEntity
  8
0
100
AcDbLine
 10
3.865157480314961
 20
5.418307086614174
 30
0.0
 11
3.865157480314961
 21
5.264763779527559
 31
0.0
  0
LINE
  5
2F35
330
1E
100
AcDbEntity
  8
0
100
AcDbLine
 10
3.865157480314961
 20
5.418307086614174
 30
0.0
 11
3.857283464566929
 21
5.426181102362205
 31
0.0
  0
LINE
  5
2F36
330
1E
100
AcDbEntity
  8
0
100
AcDbLine
 10
3.857283464566929
 20
5.426181102362205
 30
0.0
 11
3.813976377952755
 21
5.426181102362205
 31
0.0
  0
LINE
  5
2F37
330
1E
100
AcDbEntity
  8
0
100
AcDbLine
 10
3.813976377952755
 20
5.426181102362205
 30
0.0
 11
3.806102362204724
 21
5.434055118110237
 31
0.0
  0
LINE
  5
2F38
330
1E
100
AcDbEntity
  8
0
100
AcDbLine
 10
3.806102362204724
 20
5.249015748031496
 30
0.0
 11
3.813976377952755
 21
5.256889763779527
 31
0.0
  0
LINE
  5
2F39
330
1E
100
AcDbEntity
  8
0
100
AcDbLine
 10
3.857283464566929
 20
5.426181102362205
 30
0.0
 11
3.861220472440944
 21
5.428149606299212
 31
0.0
  0
LINE
  5
2F3A
330
1E
100
AcDbEntity
  8
0
100
AcDbLine
 10
3.815944881889762
 20
5.428149606299212
 30
0.0
 11
3.813976377952755
 21
5.426181102362205
 31
0.0
  0
LINE
  5
2F3B
330
1E
100
AcDbEntity
  8
0
100
AcDbLine
 10
3.865157480314961
 20
5.264763779527559
 30
0.0
 11
3.869094488188975
 21
5.260826771653544
 31
0.0
  0
LINE
  5
2F3C
330
1E
100
AcDbEntity
  8
0
100
AcDbLine
 10
3.869094488188975
 20
5.420275590551181
 30
0.0
 11
3.865157480314961
 21
5.418307086614174
 31
0.0
  0
LINE
  5
2F3D
330
1E
100
AcDbEntity
  8
0
100
AcDbLine
 10
2.233267716535433
 20
5.534448818897638
 30
0.0
 11
2.24507874015748
 21
5.524606299212598
 31
0.0
  0
LINE
  5
2F3E
330
1E
100
AcDbEntity
  8
0
100
AcDbLine
 10
2.233267716535433
 20
5.249015748031496
 30
0.0
 11
2.233267716535433
 21
5.434055118110237
 31
0.0
  0
LINE
  5
2F3F
330
1E
100
AcDbEntity
  8
0
100
AcDbLine
 10
2.221456692913386
 20
5.252952755905512
 30
0.0
 11
2.225393700787401
 21
5.256889763779527
 31
0.0
  0
LINE
  5
2F40
330
1E
100
AcDbEntity
  8
0
100
AcDbLine
 10
2.18011811023622
 20
5.256889763779527
 30
0.0
 11
2.225393700787401
 21
5.256889763779527
 31
0.0
  0
LINE
  5
2F41
330
1E
100
AcDbEntity
  8
0
100
AcDbLine
 10
2.18011811023622
 20
5.256889763779527
 30
0.0
 11
2.178149606299212
 21
5.252952755905512
 31
0.0
  0
LINE
  5
2F42
330
1E
100
AcDbEntity
  8
0
100
AcDbLine
 10
2.178149606299212
 20
5.428149606299212
 30
0.0
 11
2.18011811023622
 21
5.426181102362205
 31
0.0
  0
LINE
  5
2F43
330
1E
100
AcDbEntity
  8
0
100
AcDbLine
 10
2.18011811023622
 20
5.426181102362205
 30
0.0
 11
2.225393700787401
 21
5.426181102362205
 31
0.0
  0
LINE
  5
2F44
330
1E
100
AcDbEntity
  8
0
100
AcDbLine
 10
2.225393700787401
 20
5.426181102362205
 30
0.0
 11
2.221456692913386
 21
5.428149606299212
 31
0.0
  0
LINE
  5
2F45
330
1E
100
AcDbEntity
  8
0
100
AcDbLine
 10
2.172244094488188
 20
5.418307086614174
 30
0.0
 11
2.172244094488188
 21
5.264763779527559
 31
0.0
  0
LINE
  5
2F46
330
1E
100
AcDbEntity
  8
0
100
AcDbLine
 10
2.172244094488188
 20
5.264763779527559
 30
0.0
 11
2.18011811023622
 21
5.256889763779527
 31
0.0
  0
LINE
  5
2F47
330
1E
100
AcDbEntity
  8
0
100
AcDbLine
 10
2.225393700787401
 20
5.256889763779527
 30
0.0
 11
2.233267716535433
 21
5.249015748031496
 31
0.0
  0
LINE
  5
2F48
330
1E
100
AcDbEntity
  8
0
100
AcDbLine
 10
2.233267716535433
 20
5.434055118110237
 30
0.0
 11
2.225393700787401
 21
5.426181102362205
 31
0.0
  0
LINE
  5
2F49
330
1E
100
AcDbEntity
  8
0
100
AcDbLine
 10
2.18011811023622
 20
5.426181102362205
 30
0.0
 11
2.172244094488188
 21
5.418307086614174
 31
0.0
  0
LINE
  5
2F4A
330
1E
100
AcDbEntity
  8
0
100
AcDbLine
 10
2.170275590551181
 20
5.260826771653544
 30
0.0
 11
2.172244094488188
 21
5.264763779527559
 31
0.0
  0
LINE
  5
2F4B
330
1E
100
AcDbEntity
  8
0
100
AcDbLine
 10
2.172244094488188
 20
5.418307086614174
 30
0.0
 11
2.170275590551181
 21
5.420275590551181
 31
0.0
  0
LINE
  5
2FB6
330
1E
100
AcDbEntity
  8
0
100
AcDbLine
 10
-0.0639763779527556
 20
6.164370078740157
 30
0.0
 11
-0.0639763779527556
 21
6.164370078740157
 31
0.0
  0
LINE
  5
2FB7
330
1E
100
AcDbEntity
  8
0
100
AcDbLine
 10
-0.0639763779527556
 20
6.164370078740157
 30
0.0
 11
-0.0639763779527556
 21
6.50492125984252
 31
0.0
  0
LINE
  5
2FB8
330
1E
100
AcDbEntity
  8
0
100
AcDbLine
 10
-0.0639763779527556
 20
6.50492125984252
 30
0.0
 11
-0.0639763779527556
 21
6.50492125984252
 31
0.0
  0
LINE
  5
2FB9
330
1E
100
AcDbEntity
  8
0
100
AcDbLine
 10
-0.012795275590551
 20
6.154527559055118
 30
0.0
 11
-0.0541338582677167
 21
6.154527559055118
 31
0.0
  0
LINE
  5
2FBA
330
1E
100
AcDbEntity
  8
0
100
AcDbLine
 10
-0.0541338582677167
 20
6.154527559055118
 30
0.0
 11
-0.0541338582677167
 21
6.154527559055118
 31
0.0
  0
LINE
  5
2FBB
330
1E
100
AcDbEntity
  8
0
100
AcDbLine
 10
1.369094488188976
 20
6.154527559055118
 30
0.0
 11
1.369094488188976
 21
6.154527559055118
 31
0.0
  0
LINE
  5
2FBC
330
1E
100
AcDbEntity
  8
0
100
AcDbLine
 10
1.369094488188976
 20
6.154527559055118
 30
0.0
 11
1.327755905511811
 21
6.154527559055118
 31
0.0
  0
LINE
  5
2FBD
330
1E
100
AcDbEntity
  8
0
100
AcDbLine
 10
1.327755905511811
 20
6.154527559055118
 30
0.0
 11
1.323818897637795
 21
6.154527559055118
 31
0.0
  0
LINE
  5
2FBE
330
1E
100
AcDbEntity
  8
0
100
AcDbLine
 10
-0.0108267716535435
 20
6.154527559055118
 30
0.0
 11
1.323818897637795
 21
6.154527559055118
 31
0.0
  0
LINE
  5
2FBF
330
1E
100
AcDbEntity
  8
0
100
AcDbLine
 10
-0.0108267716535435
 20
6.154527559055118
 30
0.0
 11
-0.012795275590551
 21
6.154527559055118
 31
0.0
  0
LINE
  5
2FC0
330
1E
100
AcDbEntity
  8
0
100
AcDbLine
 10
1.376968503937008
 20
6.50492125984252
 30
0.0
 11
1.376968503937008
 21
6.164370078740157
 31
0.0
  0
LINE
  5
2FC1
330
1E
100
AcDbEntity
  8
0
100
AcDbLine
 10
1.376968503937008
 20
6.164370078740157
 30
0.0
 11
1.378937007874015
 21
6.164370078740157
 31
0.0
  0
LINE
  5
2FC2
330
1E
100
AcDbEntity
  8
0
100
AcDbLine
 10
1.378937007874015
 20
6.50492125984252
 30
0.0
 11
1.376968503937008
 21
6.50492125984252
 31
0.0
  0
LINE
  5
2FC3
330
1E
100
AcDbEntity
  8
0
100
AcDbLine
 10
-0.0088582677165352
 20
6.512795275590551
 30
0.0
 11
1.323818897637795
 21
6.512795275590551
 31
0.0
  0
LINE
  5
2FC4
330
1E
100
AcDbEntity
  8
0
100
AcDbLine
 10
-0.0088582677165352
 20
6.512795275590551
 30
0.0
 11
-0.0108267716535435
 21
6.154527559055118
 31
0.0
  0
LINE
  5
2FC5
330
1E
100
AcDbEntity
  8
0
100
AcDbLine
 10
1.323818897637795
 20
6.154527559055118
 30
0.0
 11
1.323818897637795
 21
6.512795275590551
 31
0.0
  0
LINE
  5
2FC6
330
1E
100
AcDbEntity
  8
0
100
AcDbLine
 10
-0.0541338582677167
 20
6.514763779527559
 30
0.0
 11
-0.0541338582677167
 21
6.512795275590551
 31
0.0
  0
LINE
  5
2FC7
330
1E
100
AcDbEntity
  8
0
100
AcDbLine
 10
-0.0541338582677167
 20
6.512795275590551
 30
0.0
 11
-0.012795275590551
 21
6.512795275590551
 31
0.0
  0
LINE
  5
2FC8
330
1E
100
AcDbEntity
  8
0
100
AcDbLine
 10
-0.012795275590551
 20
6.512795275590551
 30
0.0
 11
-0.0088582677165352
 21
6.512795275590551
 31
0.0
  0
LINE
  5
2FC9
330
1E
100
AcDbEntity
  8
0
100
AcDbLine
 10
1.323818897637795
 20
6.512795275590551
 30
0.0
 11
1.327755905511811
 21
6.512795275590551
 31
0.0
  0
LINE
  5
2FCA
330
1E
100
AcDbEntity
  8
0
100
AcDbLine
 10
1.327755905511811
 20
6.512795275590551
 30
0.0
 11
1.369094488188976
 21
6.512795275590551
 31
0.0
  0
LINE
  5
2FCB
330
1E
100
AcDbEntity
  8
0
100
AcDbLine
 10
1.369094488188976
 20
6.512795275590551
 30
0.0
 11
1.369094488188976
 21
6.514763779527559
 31
0.0
  0
LINE
  5
2FE0
330
1E
100
AcDbEntity
  8
0
100
AcDbLine
 10
3.739173228346457
 20
6.50492125984252
 30
0.0
 11
3.739173228346457
 21
6.164370078740157
 31
0.0
  0
LINE
  5
2FE1
330
1E
100
AcDbEntity
  8
0
100
AcDbLine
 10
3.739173228346457
 20
6.164370078740157
 30
0.0
 11
3.741141732283464
 21
6.164370078740157
 31
0.0
  0
LINE
  5
2FE2
330
1E
100
AcDbEntity
  8
0
100
AcDbLine
 10
3.741141732283464
 20
6.50492125984252
 30
0.0
 11
3.739173228346457
 21
6.50492125984252
 31
0.0
  0
LINE
  5
2FE3
330
1E
100
AcDbEntity
  8
0
100
AcDbLine
 10
3.731299212598425
 20
6.154527559055118
 30
0.0
 11
3.731299212598425
 21
6.154527559055118
 31
0.0
  0
LINE
  5
2FE4
330
1E
100
AcDbEntity
  8
0
100
AcDbLine
 10
3.731299212598425
 20
6.154527559055118
 30
0.0
 11
3.689960629921259
 21
6.154527559055118
 31
0.0
  0
LINE
  5
2FE5
330
1E
100
AcDbEntity
  8
0
100
AcDbLine
 10
3.689960629921259
 20
6.154527559055118
 30
0.0
 11
3.686023622047244
 21
6.154527559055118
 31
0.0
  0
LINE
  5
2FE6
330
1E
100
AcDbEntity
  8
0
100
AcDbLine
 10
3.686023622047244
 20
6.154527559055118
 30
0.0
 11
2.351377952755905
 21
6.154527559055118
 31
0.0
  0
LINE
  5
2FE7
330
1E
100
AcDbEntity
  8
0
100
AcDbLine
 10
2.351377952755905
 20
6.154527559055118
 30
0.0
 11
2.349409448818898
 21
6.154527559055118
 31
0.0
  0
LINE
  5
2FE8
330
1E
100
AcDbEntity
  8
0
100
AcDbLine
 10
2.349409448818898
 20
6.154527559055118
 30
0.0
 11
2.308070866141732
 21
6.154527559055118
 31
0.0
  0
LINE
  5
2FE9
330
1E
100
AcDbEntity
  8
0
100
AcDbLine
 10
2.308070866141732
 20
6.154527559055118
 30
0.0
 11
2.308070866141732
 21
6.154527559055118
 31
0.0
  0
LINE
  5
2FEA
330
1E
100
AcDbEntity
  8
0
100
AcDbLine
 10
2.298228346456692
 20
6.164370078740157
 30
0.0
 11
2.298228346456692
 21
6.164370078740157
 31
0.0
  0
LINE
  5
2FEB
330
1E
100
AcDbEntity
  8
0
100
AcDbLine
 10
2.298228346456692
 20
6.164370078740157
 30
0.0
 11
2.298228346456692
 21
6.50492125984252
 31
0.0
  0
LINE
  5
2FEC
330
1E
100
AcDbEntity
  8
0
100
AcDbLine
 10
2.298228346456692
 20
6.50492125984252
 30
0.0
 11
2.298228346456692
 21
6.50492125984252
 31
0.0
  0
LINE
  5
2FED
330
1E
100
AcDbEntity
  8
0
100
AcDbLine
 10
3.686023622047244
 20
6.154527559055118
 30
0.0
 11
3.686023622047244
 21
6.512795275590551
 31
0.0
  0
LINE
  5
2FEE
330
1E
100
AcDbEntity
  8
0
100
AcDbLine
 10
3.686023622047244
 20
6.512795275590551
 30
0.0
 11
2.351377952755905
 21
6.512795275590551
 31
0.0
  0
LINE
  5
2FEF
330
1E
100
AcDbEntity
  8
0
100
AcDbLine
 10
2.351377952755905
 20
6.512795275590551
 30
0.0
 11
2.351377952755905
 21
6.154527559055118
 31
0.0
  0
LINE
  5
2FF0
330
1E
100
AcDbEntity
  8
0
100
AcDbLine
 10
3.689960629921259
 20
6.512795275590551
 30
0.0
 11
3.731299212598425
 21
6.512795275590551
 31
0.0
  0
LINE
  5
2FF1
330
1E
100
AcDbEntity
  8
0
100
AcDbLine
 10
3.731299212598425
 20
6.512795275590551
 30
0.0
 11
3.731299212598425
 21
6.514763779527559
 31
0.0
  0
LINE
  5
2FF2
330
1E
100
AcDbEntity
  8
0
100
AcDbLine
 10
2.308070866141732
 20
6.514763779527559
 30
0.0
 11
2.308070866141732
 21
6.512795275590551
 31
0.0
  0
LINE
  5
2FF3
330
1E
100
AcDbEntity
  8
0
100
AcDbLine
 10
2.308070866141732
 20
6.512795275590551
 30
0.0
 11
2.349409448818898
 21
6.512795275590551
 31
0.0
  0
LINE
  5
2FF4
330
1E
100
AcDbEntity
  8
0
100
AcDbLine
 10
2.349409448818898
 20
6.512795275590551
 30
0.0
 11
2.351377952755905
 21
6.512795275590551
 31
0.0
  0
LINE
  5
2FF5
330
1E
100
AcDbEntity
  8
0
100
AcDbLine
 10
3.686023622047244
 20
6.512795275590551
 30
0.0
 11
3.689960629921259
 21
6.512795275590551
 31
0.0
  0
LINE
  5
300A
330
1E
100
AcDbEntity
  8
0
100
AcDbLine
 10
7.376968503937007
 20
4.941929133858268
 30
0.0
 11
7.376968503937007
 21
4.739173228346457
 31
0.0
  0
LINE
  5
300B
330
1E
100
AcDbEntity
  8
0
100
AcDbLine
 10
7.376968503937007
 20
4.689960629921259
 30
0.0
 11
7.270669291338583
 21
4.686023622047244
 31
0.0
  0
LINE
  5
300C
330
1E
100
AcDbEntity
  8
0
100
AcDbLine
 10
7.270669291338583
 20
5.495078740157479
 30
0.0
 11
7.27263779527559
 21
5.495078740157479
 31
0.0
  0
LINE
  5
300D
330
1E
100
AcDbEntity
  8
0
100
AcDbLine
 10
7.27263779527559
 20
5.495078740157479
 30
0.0
 11
7.292322834645668
 21
5.495078740157479
 31
0.0
  0
LINE
  5
300E
330
1E
100
AcDbEntity
  8
0
100
AcDbLine
 10
7.422244094488188
 20
5.489173228346457
 30
0.0
 11
7.292322834645668
 21
5.495078740157479
 31
0.0
  0
LINE
  5
300F
330
1E
100
AcDbEntity
  8
0
100
AcDbLine
 10
7.422244094488188
 20
5.191929133858268
 30
0.0
 11
7.292322834645668
 21
5.187992125984251
 31
0.0
  0
LINE
  5
3010
330
1E
100
AcDbEntity
  8
0
100
AcDbLine
 10
7.27263779527559
 20
5.187992125984251
 30
0.0
 11
7.292322834645668
 21
5.187992125984251
 31
0.0
  0
LINE
  5
3011
330
1E
100
AcDbEntity
  8
0
100
AcDbLine
 10
7.270669291338583
 20
5.187992125984251
 30
0.0
 11
7.27263779527559
 21
5.187992125984251
 31
0.0
  0
LINE
  5
3017
330
1E
100
AcDbEntity
  8
0
100
AcDbLine
 10
6.778543307086614
 20
4.788385826771653
 30
0.0
 11
6.89271653543307
 21
4.674212598425196
 31
0.0
  0
LINE
  5
3018
330
1E
100
AcDbEntity
  8
0
100
AcDbLine
 10
6.904527559055118
 20
4.674212598425196
 30
0.0
 11
6.89271653543307
 21
4.674212598425196
 31
0.0
  0
LINE
  5
3019
330
1E
100
AcDbEntity
  8
0
100
AcDbLine
 10
6.904527559055118
 20
5.845472440944881
 30
0.0
 11
6.412401574803149
 21
5.355314960629922
 31
0.0
  0
LINE
  5
3020
330
1E
100
AcDbEntity
  8
0
100
AcDbLine
 10
6.412401574803149
 20
5.286417322834646
 30
0.0
 11
6.451771653543307
 21
5.249015748031496
 31
0.0
  0
LINE
  5
3021
330
1E
100
AcDbEntity
  8
0
100
AcDbLine
 10
6.46751968503937
 20
5.247047244094488
 30
0.0
 11
6.451771653543307
 21
5.249015748031496
 31
0.0
  0
LINE
  5
3022
330
1E
100
AcDbEntity
  8
0
100
AcDbLine
 10
6.46751968503937
 20
5.247047244094488
 30
0.0
 11
6.577755905511811
 21
5.136811023622048
 31
0.0
  0
LINE
  5
3023
330
1E
100
AcDbEntity
  8
0
100
AcDbLine
 10
6.577755905511811
 20
5.136811023622048
 30
0.0
 11
6.569881889763779
 21
5.128937007874016
 31
0.0
  0
LINE
  5
3024
330
1E
100
AcDbEntity
  8
0
100
AcDbLine
 10
6.569881889763779
 20
5.128937007874016
 30
0.0
 11
6.756889763779527
 21
4.943897637795275
 31
0.0
  0
LINE
  5
3025
330
1E
100
AcDbEntity
  8
0
100
AcDbLine
 10
6.756889763779527
 20
4.943897637795275
 30
0.0
 11
6.756889763779527
 21
4.841535433070866
 31
0.0
  0
LINE
  5
3026
330
1E
100
AcDbEntity
  8
0
100
AcDbLine
 10
6.382874015748031
 20
5.386811023622048
 30
0.0
 11
6.904527559055118
 21
5.908464566929133
 31
0.0
  0
LINE
  5
302D
330
1E
100
AcDbEntity
  8
0
100
AcDbLine
 10
6.386811023622048
 20
5.252952755905512
 30
0.0
 11
6.382874015748031
 21
5.25492125984252
 31
0.0
  0
LINE
  5
302E
330
1E
100
AcDbEntity
  8
0
100
AcDbLine
 10
6.865157480314961
 20
4.674212598425196
 30
0.0
 11
6.766732283464566
 21
4.77263779527559
 31
0.0
  0
LINE
  5
3034
330
1E
100
AcDbEntity
  8
0
100
AcDbLine
 10
6.737204724409448
 20
4.841535433070866
 30
0.0
 11
6.737204724409448
 21
4.912401574803149
 31
0.0
  0
LINE
  5
3035
330
1E
100
AcDbEntity
  8
0
100
AcDbLine
 10
6.737204724409448
 20
4.900590551181101
 30
0.0
 11
6.540354330708661
 21
5.09744094488189
 31
0.0
  0
LINE
  5
3048
330
1E
100
AcDbEntity
  8
0
100
AcDbLine
 10
7.296259842519685
 20
4.973425196850394
 30
0.0
 11
7.270669291338583
 21
4.999015748031496
 31
0.0
  0
LINE
  5
3049
330
1E
100
AcDbEntity
  8
0
100
AcDbLine
 10
7.345472440944881
 20
4.973425196850394
 30
0.0
 11
7.296259842519685
 21
4.973425196850394
 31
0.0
  0
LINE
  5
304F
330
1E
100
AcDbEntity
  8
0
100
AcDbLine
 10
7.376968503937007
 20
4.729330708661416
 30
0.0
 11
7.376968503937007
 21
4.699803149606299
 31
0.0
  0
LINE
  5
3050
330
1E
100
AcDbEntity
  8
0
100
AcDbLine
 10
7.376968503937007
 20
4.699803149606299
 30
0.0
 11
7.376968503937007
 21
4.689960629921259
 31
0.0
  0
LINE
  5
3051
330
1E
100
AcDbEntity
  8
0
100
AcDbLine
 10
7.376968503937007
 20
4.739173228346457
 30
0.0
 11
7.376968503937007
 21
4.729330708661416
 31
0.0
  0
LINE
  5
3052
330
1E
100
AcDbEntity
  8
0
100
AcDbLine
 10
7.270669291338583
 20
4.937992125984251
 30
0.0
 11
7.376968503937007
 21
4.941929133858268
 31
0.0
  0
LINE
  5
3053
330
1E
100
AcDbEntity
  8
0
100
AcDbLine
 10
7.376968503937007
 20
4.729330708661416
 30
0.0
 11
7.270669291338583
 21
4.731299212598425
 31
0.0
  0
LINE
  5
3054
330
1E
100
AcDbEntity
  8
0
100
AcDbLine
 10
7.270669291338583
 20
4.741141732283464
 30
0.0
 11
7.376968503937007
 21
4.739173228346457
 31
0.0
  0
LINE
  5
3055
330
1E
100
AcDbEntity
  8
0
100
AcDbLine
 10
7.270669291338583
 20
4.695866141732283
 30
0.0
 11
7.376968503937007
 21
4.699803149606299
 31
0.0
  0
LINE
  5
3056
330
1E
100
AcDbEntity
  8
0
100
AcDbLine
 10
7.27263779527559
 20
5.495078740157479
 30
0.0
 11
7.27263779527559
 21
5.187992125984251
 31
0.0
  0
LINE
  5
3057
330
1E
100
AcDbEntity
  8
0
100
AcDbLine
 10
7.292322834645668
 20
5.187992125984251
 30
0.0
 11
7.292322834645668
 21
5.495078740157479
 31
0.0
  0
LINE
  5
3058
330
1E
100
AcDbEntity
  8
0
100
AcDbLine
 10
7.422244094488188
 20
5.489173228346457
 30
0.0
 11
7.422244094488188
 21
5.191929133858268
 31
0.0
  0
LINE
  5
3074
330
1E
100
AcDbEntity
  8
0
100
AcDbLine
 10
6.473425196850394
 20
5.239173228346457
 30
0.0
 11
6.577755905511811
 21
5.136811023622048
 31
0.0
  0
LINE
  5
307A
330
1E
100
AcDbEntity
  8
0
100
AcDbLine
 10
6.445866141732283
 20
5.239173228346457
 30
0.0
 11
6.445866141732283
 21
5.239173228346457
 31
0.0
  0
LINE
  5
30C5
330
1E
100
AcDbEntity
  8
0
100
AcDbLine
 10
6.437992125984251
 20
5.231299212598425
 30
0.0
 11
6.445866141732283
 21
5.239173228346457
 31
0.0
  0
LINE
  5
30C6
330
1E
100
AcDbEntity
  8
0
100
AcDbLine
 10
6.544291338582677
 20
5.125
 30
0.0
 11
6.552165354330709
 21
5.132874015748031
 31
0.0
  0
LINE
  5
30CC
330
1E
100
AcDbEntity
  8
0
100
AcDbLine
 10
7.270669291338583
 20
3.926181102362205
 30
0.0
 11
7.270669291338583
 21
7.249015748031496
 31
0.0
  0
LINE
  5
30D7
330
1E
100
AcDbEntity
  8
0
100
AcDbLine
 10
6.904527559055118
 20
3.949803149606299
 30
0.0
 11
6.904527559055118
 21
7.223425196850394
 31
0.0
  0
LINE
  5
30DD
330
1E
100
AcDbEntity
  8
0
100
AcDbLine
 10
7.270669291338583
 20
3.894685039370079
 30
0.0
 11
6.918307086614174
 21
3.918307086614174
 31
0.0
  0
LINE
  5
30DE
330
1E
100
AcDbEntity
  8
0
100
AcDbLine
 10
6.918307086614174
 20
7.25492125984252
 30
0.0
 11
7.270669291338583
 21
7.280511811023622
 31
0.0
  0
LINE
  5
30DF
330
1E
100
AcDbEntity
  8
0
100
AcDbLine
 10
7.270669291338583
 20
7.249015748031496
 30
0.0
 11
6.918307086614174
 21
7.223425196850394
 31
0.0
  0
LINE
  5
30E0
330
1E
100
AcDbEntity
  8
0
100
AcDbLine
 10
6.918307086614174
 20
7.223425196850394
 30
0.0
 11
6.918307086614174
 21
3.949803149606299
 31
0.0
  0
LINE
  5
30E1
330
1E
100
AcDbEntity
  8
0
100
AcDbLine
 10
6.918307086614174
 20
3.949803149606299
 30
0.0
 11
7.270669291338583
 21
3.926181102362205
 31
0.0
  0
LINE
  5
3FF7
330
1E
100
AcDbEntity
  8
0
100
AcDbLine
 10
6.918307086614174
 20
3.918307086614174
 30
0.0
 11
6.908464566929133
 21
3.924212598425196
 31
0.0
  0
LINE
  5
3FF8
330
1E
100
AcDbEntity
  8
0
100
AcDbLine
 10
6.908464566929133
 20
3.924212598425196
 30
0.0
 11
6.904527559055118
 21
3.934055118110237
 31
0.0
  0
LINE
  5
3FF9
330
1E
100
AcDbEntity
  8
0
100
AcDbLine
 10
6.918307086614174
 20
3.949803149606299
 30
0.0
 11
6.908464566929133
 21
3.949803149606299
 31
0.0
  0
LINE
  5
3FFA
330
1E
100
AcDbEntity
  8
0
100
AcDbLine
 10
6.908464566929133
 20
3.949803149606299
 30
0.0
 11
6.904527559055118
 21
3.949803149606299
 31
0.0
  0
LINE
  5
3FFB
330
1E
100
AcDbEntity
  8
0
100
AcDbLine
 10
6.904527559055118
 20
7.239173228346457
 30
0.0
 11
6.908464566929133
 21
7.250984251968503
 31
0.0
  0
LINE
  5
3FFC
330
1E
100
AcDbEntity
  8
0
100
AcDbLine
 10
6.908464566929133
 20
7.250984251968503
 30
0.0
 11
6.918307086614174
 21
7.25492125984252
 31
0.0
  0
LINE
  5
3FFD
330
1E
100
AcDbEntity
  8
0
100
AcDbLine
 10
6.918307086614174
 20
7.223425196850394
 30
0.0
 11
6.908464566929133
 21
7.223425196850394
 31
0.0
  0
LINE
  5
3FFE
330
1E
100
AcDbEntity
  8
0
100
AcDbLine
 10
6.908464566929133
 20
7.223425196850394
 30
0.0
 11
6.904527559055118
 21
7.223425196850394
 31
0.0
  0
LINE
  5
3FFF
330
1E
100
AcDbEntity
  8
0
100
AcDbLine
 10
6.918307086614174
 20
3.949803149606299
 30
0.0
 11
6.918307086614174
 21
3.928149606299212
 31
0.0
  0
LINE
  5
4000
330
1E
100
AcDbEntity
  8
0
100
AcDbLine
 10
6.918307086614174
 20
3.928149606299212
 30
0.0
 11
6.918307086614174
 21
3.918307086614174
 31
0.0
  0
LINE
  5
4001
330
1E
100
AcDbEntity
  8
0
100
AcDbLine
 10
6.918307086614174
 20
7.25492125984252
 30
0.0
 11
6.918307086614174
 21
7.247047244094488
 31
0.0
  0
LINE
  5
4002
330
1E
100
AcDbEntity
  8
0
100
AcDbLine
 10
6.918307086614174
 20
7.247047244094488
 30
0.0
 11
6.918307086614174
 21
7.223425196850394
 31
0.0
  0
LINE
  5
4003
330
1E
100
AcDbEntity
  8
0
100
AcDbLine
 10
6.904527559055118
 20
7.223425196850394
 30
0.0
 11
6.904527559055118
 21
7.23523622047244
 31
0.0
  0
LINE
  5
4004
330
1E
100
AcDbEntity
  8
0
100
AcDbLine
 10
6.904527559055118
 20
7.23523622047244
 30
0.0
 11
6.904527559055118
 21
7.239173228346457
 31
0.0
  0
LINE
  5
4005
330
1E
100
AcDbEntity
  8
0
100
AcDbLine
 10
6.904527559055118
 20
3.934055118110237
 30
0.0
 11
6.904527559055118
 21
3.937992125984251
 31
0.0
  0
LINE
  5
4006
330
1E
100
AcDbEntity
  8
0
100
AcDbLine
 10
6.904527559055118
 20
3.937992125984251
 30
0.0
 11
6.904527559055118
 21
3.949803149606299
 31
0.0
  0
LINE
  5
4007
330
1E
100
AcDbEntity
  8
0
100
AcDbLine
 10
7.270669291338583
 20
3.926181102362205
 30
0.0
 11
7.270669291338583
 21
3.902559055118111
 31
0.0
  0
LINE
  5
4008
330
1E
100
AcDbEntity
  8
0
100
AcDbLine
 10
7.270669291338583
 20
3.902559055118111
 30
0.0
 11
7.270669291338583
 21
3.894685039370079
 31
0.0
  0
LINE
  5
4009
330
1E
100
AcDbEntity
  8
0
100
AcDbLine
 10
7.270669291338583
 20
7.280511811023622
 30
0.0
 11
7.270669291338583
 21
7.270669291338583
 31
0.0
  0
LINE
  5
400A
330
1E
100
AcDbEntity
  8
0
100
AcDbLine
 10
7.270669291338583
 20
7.270669291338583
 30
0.0
 11
7.270669291338583
 21
7.249015748031496
 31
0.0
  0
LINE
  5
400B
330
1E
100
AcDbEntity
  8
0
100
AcDbLine
 10
6.544291338582677
 20
5.125
 30
0.0
 11
6.548228346456692
 21
5.123031496062992
 31
0.0
  0
LINE
  5
400C
330
1E
100
AcDbEntity
  8
0
100
AcDbLine
 10
6.548228346456692
 20
5.123031496062992
 30
0.0
 11
6.556102362204724
 21
5.113188976377953
 31
0.0
  0
LINE
  5
400D
330
1E
100
AcDbEntity
  8
0
100
AcDbLine
 10
6.437992125984251
 20
5.231299212598425
 30
0.0
 11
6.445866141732283
 21
5.223425196850394
 31
0.0
  0
LINE
  5
400E
330
1E
100
AcDbEntity
  8
0
100
AcDbLine
 10
6.445866141732283
 20
5.223425196850394
 30
0.0
 11
6.465551181102362
 21
5.203740157480314
 31
0.0
  0
LINE
  5
400F
330
1E
100
AcDbEntity
  8
0
100
AcDbLine
 10
6.465551181102362
 20
5.203740157480314
 30
0.0
 11
6.491141732283464
 21
5.178149606299212
 31
0.0
  0
LINE
  5
4010
330
1E
100
AcDbEntity
  8
0
100
AcDbLine
 10
6.491141732283464
 20
5.178149606299212
 30
0.0
 11
6.518700787401574
 21
5.152559055118111
 31
0.0
  0
LINE
  5
4011
330
1E
100
AcDbEntity
  8
0
100
AcDbLine
 10
6.518700787401574
 20
5.152559055118111
 30
0.0
 11
6.538385826771653
 21
5.132874015748031
 31
0.0
  0
LINE
  5
4012
330
1E
100
AcDbEntity
  8
0
100
AcDbLine
 10
6.538385826771653
 20
5.132874015748031
 30
0.0
 11
6.544291338582677
 21
5.125
 31
0.0
  0
LINE
  5
4013
330
1E
100
AcDbEntity
  8
0
100
AcDbLine
 10
6.544291338582677
 20
5.125
 30
0.0
 11
6.530511811023622
 21
5.119094488188975
 31
0.0
  0
LINE
  5
4014
330
1E
100
AcDbEntity
  8
0
100
AcDbLine
 10
6.530511811023622
 20
5.119094488188975
 30
0.0
 11
6.516732283464566
 21
5.125
 31
0.0
  0
LINE
  5
4015
330
1E
100
AcDbEntity
  8
0
100
AcDbLine
 10
6.437992125984251
 20
5.231299212598425
 30
0.0
 11
6.432086614173227
 21
5.21751968503937
 31
0.0
  0
LINE
  5
4016
330
1E
100
AcDbEntity
  8
0
100
AcDbLine
 10
6.432086614173227
 20
5.21751968503937
 30
0.0
 11
6.437992125984251
 21
5.203740157480314
 31
0.0
  0
LINE
  5
4017
330
1E
100
AcDbEntity
  8
0
100
AcDbLine
 10
6.552165354330709
 20
5.132874015748031
 30
0.0
 11
6.544291338582677
 21
5.138779527559055
 31
0.0
  0
LINE
  5
4018
330
1E
100
AcDbEntity
  8
0
100
AcDbLine
 10
6.544291338582677
 20
5.138779527559055
 30
0.0
 11
6.524606299212598
 21
5.158464566929133
 31
0.0
  0
LINE
  5
4019
330
1E
100
AcDbEntity
  8
0
100
AcDbLine
 10
6.524606299212598
 20
5.158464566929133
 30
0.0
 11
6.499015748031496
 21
5.186023622047244
 31
0.0
  0
LINE
  5
401A
330
1E
100
AcDbEntity
  8
0
100
AcDbLine
 10
6.499015748031496
 20
5.186023622047244
 30
0.0
 11
6.471456692913385
 21
5.211614173228346
 31
0.0
  0
LINE
  5
401B
330
1E
100
AcDbEntity
  8
0
100
AcDbLine
 10
6.471456692913385
 20
5.211614173228346
 30
0.0
 11
6.453740157480314
 21
5.231299212598425
 31
0.0
  0
LINE
  5
401C
330
1E
100
AcDbEntity
  8
0
100
AcDbLine
 10
6.453740157480314
 20
5.231299212598425
 30
0.0
 11
6.445866141732283
 21
5.239173228346457
 31
0.0
  0
LINE
  5
401D
330
1E
100
AcDbEntity
  8
0
100
AcDbLine
 10
6.445866141732283
 20
5.239173228346457
 30
0.0
 11
6.459645669291338
 21
5.245078740157479
 31
0.0
  0
LINE
  5
401E
330
1E
100
AcDbEntity
  8
0
100
AcDbLine
 10
6.459645669291338
 20
5.245078740157479
 30
0.0
 11
6.473425196850394
 21
5.239173228346457
 31
0.0
  0
LINE
  5
401F
330
1E
100
AcDbEntity
  8
0
100
AcDbLine
 10
6.552165354330709
 20
5.132874015748031
 30
0.0
 11
6.558070866141731
 21
5.146653543307087
 31
0.0
  0
LINE
  5
4020
330
1E
100
AcDbEntity
  8
0
100
AcDbLine
 10
6.558070866141731
 20
5.146653543307087
 30
0.0
 11
6.552165354330709
 21
5.160433070866142
 31
0.0
  0
LINE
  5
4021
330
1E
100
AcDbEntity
  8
0
100
AcDbLine
 10
6.562007874015748
 20
5.121062992125985
 30
0.0
 11
6.554133858267716
 21
5.128937007874016
 31
0.0
  0
LINE
  5
4022
330
1E
100
AcDbEntity
  8
0
100
AcDbLine
 10
6.554133858267716
 20
5.128937007874016
 30
0.0
 11
6.552165354330709
 21
5.132874015748031
 31
0.0
  0
LINE
  5
4023
330
1E
100
AcDbEntity
  8
0
100
AcDbLine
 10
6.516732283464566
 20
5.125
 30
0.0
 11
6.508858267716535
 21
5.132874015748031
 31
0.0
  0
LINE
  5
4024
330
1E
100
AcDbEntity
  8
0
100
AcDbLine
 10
6.508858267716535
 20
5.132874015748031
 30
0.0
 11
6.489173228346457
 21
5.152559055118111
 31
0.0
  0
LINE
  5
4025
330
1E
100
AcDbEntity
  8
0
100
AcDbLine
 10
6.489173228346457
 20
5.152559055118111
 30
0.0
 11
6.465551181102362
 21
5.176181102362205
 31
0.0
  0
LINE
  5
4026
330
1E
100
AcDbEntity
  8
0
100
AcDbLine
 10
6.465551181102362
 20
5.176181102362205
 30
0.0
 11
6.445866141732283
 21
5.195866141732283
 31
0.0
  0
LINE
  5
4027
330
1E
100
AcDbEntity
  8
0
100
AcDbLine
 10
6.445866141732283
 20
5.195866141732283
 30
0.0
 11
6.437992125984251
 21
5.203740157480314
 31
0.0
  0
LINE
  5
4028
330
1E
100
AcDbEntity
  8
0
100
AcDbLine
 10
6.542322834645668
 20
5.099409448818898
 30
0.0
 11
6.524606299212598
 21
5.117125984251968
 31
0.0
  0
LINE
  5
4029
330
1E
100
AcDbEntity
  8
0
100
AcDbLine
 10
6.524606299212598
 20
5.117125984251968
 30
0.0
 11
6.516732283464566
 21
5.125
 31
0.0
  0
LINE
  5
402A
330
1E
100
AcDbEntity
  8
0
100
AcDbLine
 10
6.552165354330709
 20
5.160433070866142
 30
0.0
 11
6.558070866141731
 21
5.154527559055118
 31
0.0
  0
LINE
  5
402B
330
1E
100
AcDbEntity
  8
0
100
AcDbLine
 10
6.558070866141731
 20
5.154527559055118
 30
0.0
 11
6.575787401574803
 21
5.134842519685038
 31
0.0
  0
LINE
  5
402C
330
1E
100
AcDbEntity
  8
0
100
AcDbLine
 10
6.473425196850394
 20
5.239173228346457
 30
0.0
 11
6.481299212598425
 21
5.231299212598425
 31
0.0
  0
LINE
  5
402D
330
1E
100
AcDbEntity
  8
0
100
AcDbLine
 10
6.481299212598425
 20
5.231299212598425
 30
0.0
 11
6.500984251968503
 21
5.211614173228346
 31
0.0
  0
LINE
  5
402E
330
1E
100
AcDbEntity
  8
0
100
AcDbLine
 10
6.500984251968503
 20
5.211614173228346
 30
0.0
 11
6.524606299212598
 21
5.187992125984251
 31
0.0
  0
LINE
  5
402F
330
1E
100
AcDbEntity
  8
0
100
AcDbLine
 10
6.524606299212598
 20
5.187992125984251
 30
0.0
 11
6.544291338582677
 21
5.168307086614174
 31
0.0
  0
LINE
  5
4030
330
1E
100
AcDbEntity
  8
0
100
AcDbLine
 10
6.544291338582677
 20
5.168307086614174
 30
0.0
 11
6.552165354330709
 21
5.160433070866142
 31
0.0
  0
LINE
  5
4031
330
1E
100
AcDbEntity
  8
0
100
AcDbLine
 10
6.445866141732283
 20
5.239173228346457
 30
0.0
 11
6.459645669291338
 21
5.245078740157479
 31
0.0
  0
LINE
  5
4032
330
1E
100
AcDbEntity
  8
0
100
AcDbLine
 10
6.459645669291338
 20
5.245078740157479
 30
0.0
 11
6.473425196850394
 21
5.239173228346457
 31
0.0
  0
LINE
  5
4033
330
1E
100
AcDbEntity
  8
0
100
AcDbLine
 10
6.778543307086614
 20
4.788385826771653
 30
0.0
 11
6.768700787401574
 21
4.778543307086614
 31
0.0
  0
LINE
  5
4034
330
1E
100
AcDbEntity
  8
0
100
AcDbLine
 10
6.768700787401574
 20
4.778543307086614
 30
0.0
 11
6.766732283464566
 21
4.77263779527559
 31
0.0
  0
LINE
  5
4035
330
1E
100
AcDbEntity
  8
0
100
AcDbLine
 10
6.756889763779527
 20
4.841535433070866
 30
0.0
 11
6.743110236220472
 21
4.841535433070866
 31
0.0
  0
LINE
  5
4036
330
1E
100
AcDbEntity
  8
0
100
AcDbLine
 10
6.743110236220472
 20
4.841535433070866
 30
0.0
 11
6.737204724409448
 21
4.841535433070866
 31
0.0
  0
LINE
  5
4037
330
1E
100
AcDbEntity
  8
0
100
AcDbLine
 10
6.737204724409448
 20
4.912401574803149
 30
0.0
 11
6.739173228346457
 21
4.920275590551181
 31
0.0
  0
LINE
  5
4038
330
1E
100
AcDbEntity
  8
0
100
AcDbLine
 10
6.739173228346457
 20
4.920275590551181
 30
0.0
 11
6.745078740157479
 21
4.93011811023622
 31
0.0
  0
LINE
  5
4039
330
1E
100
AcDbEntity
  8
0
100
AcDbLine
 10
6.745078740157479
 20
4.93011811023622
 30
0.0
 11
6.752952755905511
 21
4.939960629921259
 31
0.0
  0
LINE
  5
403A
330
1E
100
AcDbEntity
  8
0
100
AcDbLine
 10
6.752952755905511
 20
4.939960629921259
 30
0.0
 11
6.756889763779527
 21
4.943897637795275
 31
0.0
  0
LINE
  5
403B
330
1E
100
AcDbEntity
  8
0
100
AcDbLine
 10
6.382874015748031
 20
5.386811023622048
 30
0.0
 11
6.390748031496062
 21
5.376968503937007
 31
0.0
  0
LINE
  5
403C
330
1E
100
AcDbEntity
  8
0
100
AcDbLine
 10
6.390748031496062
 20
5.376968503937007
 30
0.0
 11
6.412401574803149
 21
5.355314960629922
 31
0.0
  0
LINE
  5
403D
330
1E
100
AcDbEntity
  8
0
100
AcDbLine
 10
6.382874015748031
 20
5.25492125984252
 30
0.0
 11
6.390748031496062
 21
5.264763779527559
 31
0.0
  0
LINE
  5
403E
330
1E
100
AcDbEntity
  8
0
100
AcDbLine
 10
6.390748031496062
 20
5.264763779527559
 30
0.0
 11
6.412401574803149
 21
5.286417322834646
 31
0.0
  0
LINE
  5
403F
330
1E
100
AcDbEntity
  8
0
100
AcDbLine
 10
7.345472440944881
 20
4.973425196850394
 30
0.0
 11
7.367125984251968
 21
4.963582677165353
 31
0.0
  0
LINE
  5
4040
330
1E
100
AcDbEntity
  8
0
100
AcDbLine
 10
7.367125984251968
 20
4.963582677165353
 30
0.0
 11
7.376968503937007
 21
4.941929133858268
 31
0.0
  0
LINE
  5
4041
330
1E
100
AcDbEntity
  8
0
100
AcDbLine
 10
6.382874015748031
 20
5.25492125984252
 30
0.0
 11
6.363188976377951
 21
5.286417322834646
 31
0.0
  0
LINE
  5
4042
330
1E
100
AcDbEntity
  8
0
100
AcDbLine
 10
6.363188976377951
 20
5.286417322834646
 30
0.0
 11
6.35531496062992
 21
5.321850393700787
 31
0.0
  0
LINE
  5
4043
330
1E
100
AcDbEntity
  8
0
100
AcDbLine
 10
6.35531496062992
 20
5.321850393700787
 30
0.0
 11
6.363188976377951
 21
5.357283464566929
 31
0.0
  0
LINE
  5
4044
330
1E
100
AcDbEntity
  8
0
100
AcDbLine
 10
6.363188976377951
 20
5.357283464566929
 30
0.0
 11
6.382874015748031
 21
5.386811023622048
 31
0.0
  0
LINE
  5
4045
330
1E
100
AcDbEntity
  8
0
100
AcDbLine
 10
6.540354330708661
 20
5.09744094488189
 30
0.0
 11
6.544291338582677
 21
5.101377952755905
 31
0.0
  0
LINE
  5
4046
330
1E
100
AcDbEntity
  8
0
100
AcDbLine
 10
6.544291338582677
 20
5.101377952755905
 30
0.0
 11
6.556102362204724
 21
5.113188976377953
 31
0.0
  0
LINE
  5
4047
330
1E
100
AcDbEntity
  8
0
100
AcDbLine
 10
6.556102362204724
 20
5.113188976377953
 30
0.0
 11
6.569881889763779
 21
5.128937007874016
 31
0.0
  0
LINE
  5
4048
330
1E
100
AcDbEntity
  8
0
100
AcDbLine
 10
6.89271653543307
 20
4.674212598425196
 30
0.0
 11
6.873031496062992
 21
4.674212598425196
 31
0.0
  0
LINE
  5
4049
330
1E
100
AcDbEntity
  8
0
100
AcDbLine
 10
6.873031496062992
 20
4.674212598425196
 30
0.0
 11
6.865157480314961
 21
4.674212598425196
 31
0.0
  0
LINE
  5
404A
330
1E
100
AcDbEntity
  8
0
100
AcDbLine
 10
6.766732283464566
 20
4.77263779527559
 30
0.0
 11
6.745078740157479
 21
4.804133858267716
 31
0.0
  0
LINE
  5
404B
330
1E
100
AcDbEntity
  8
0
100
AcDbLine
 10
6.745078740157479
 20
4.804133858267716
 30
0.0
 11
6.737204724409448
 21
4.841535433070866
 31
0.0
  0
LINE
  5
404C
330
1E
100
AcDbEntity
  8
0
100
AcDbLine
 10
6.451771653543307
 20
5.249015748031496
 30
0.0
 11
6.418307086614174
 21
5.250984251968503
 31
0.0
  0
LINE
  5
404D
330
1E
100
AcDbEntity
  8
0
100
AcDbLine
 10
6.418307086614174
 20
5.250984251968503
 30
0.0
 11
6.394685039370079
 21
5.250984251968503
 31
0.0
  0
LINE
  5
404E
330
1E
100
AcDbEntity
  8
0
100
AcDbLine
 10
6.394685039370079
 20
5.250984251968503
 30
0.0
 11
6.386811023622048
 21
5.252952755905512
 31
0.0
  0
LINE
  5
404F
330
1E
100
AcDbEntity
  8
0
100
AcDbLine
 10
6.412401574803149
 20
5.355314960629922
 30
0.0
 11
6.400590551181101
 21
5.333661417322835
 31
0.0
  0
LINE
  5
4050
330
1E
100
AcDbEntity
  8
0
100
AcDbLine
 10
6.400590551181101
 20
5.333661417322835
 30
0.0
 11
6.400590551181101
 21
5.308070866141733
 31
0.0
  0
LINE
  5
4051
330
1E
100
AcDbEntity
  8
0
100
AcDbLine
 10
6.400590551181101
 20
5.308070866141733
 30
0.0
 11
6.412401574803149
 21
5.286417322834646
 31
0.0
  0
LINE
  5
4052
330
1E
100
AcDbEntity
  8
0
100
AcDbLine
 10
6.756889763779527
 20
4.841535433070866
 30
0.0
 11
6.762795275590551
 21
4.812007874015748
 31
0.0
  0
LINE
  5
4053
330
1E
100
AcDbEntity
  8
0
100
AcDbLine
 10
6.762795275590551
 20
4.812007874015748
 30
0.0
 11
6.778543307086614
 21
4.788385826771653
 31
0.0
  0
LINE
  5
4054
330
1E
100
AcDbEntity
  8
0
100
AcDbLine
 10
3.731299212598425
 20
6.154527559055118
 30
0.0
 11
3.737204724409448
 21
6.156496062992125
 31
0.0
  0
LINE
  5
4055
330
1E
100
AcDbEntity
  8
0
100
AcDbLine
 10
3.737204724409448
 20
6.156496062992125
 30
0.0
 11
3.739173228346457
 21
6.164370078740157
 31
0.0
  0
LINE
  5
4056
330
1E
100
AcDbEntity
  8
0
100
AcDbLine
 10
3.739173228346457
 20
6.50492125984252
 30
0.0
 11
3.737204724409448
 21
6.510826771653544
 31
0.0
  0
LINE
  5
4057
330
1E
100
AcDbEntity
  8
0
100
AcDbLine
 10
3.737204724409448
 20
6.510826771653544
 30
0.0
 11
3.731299212598425
 21
6.512795275590551
 31
0.0
  0
LINE
  5
4058
330
1E
100
AcDbEntity
  8
0
100
AcDbLine
 10
2.298228346456692
 20
6.164370078740157
 30
0.0
 11
2.302165354330708
 21
6.156496062992125
 31
0.0
  0
LINE
  5
4059
330
1E
100
AcDbEntity
  8
0
100
AcDbLine
 10
2.302165354330708
 20
6.156496062992125
 30
0.0
 11
2.308070866141732
 21
6.154527559055118
 31
0.0
  0
LINE
  5
405A
330
1E
100
AcDbEntity
  8
0
100
AcDbLine
 10
2.308070866141732
 20
6.512795275590551
 30
0.0
 11
2.302165354330708
 21
6.510826771653544
 31
0.0
  0
LINE
  5
405B
330
1E
100
AcDbEntity
  8
0
100
AcDbLine
 10
2.302165354330708
 20
6.510826771653544
 30
0.0
 11
2.298228346456692
 21
6.50492125984252
 31
0.0
  0
LINE
  5
405C
330
1E
100
AcDbEntity
  8
0
100
AcDbLine
 10
-0.0639763779527556
 20
6.164370078740157
 30
0.0
 11
-0.0600393700787398
 21
6.156496062992125
 31
0.0
  0
LINE
  5
405D
330
1E
100
AcDbEntity
  8
0
100
AcDbLine
 10
-0.0600393700787398
 20
6.156496062992125
 30
0.0
 11
-0.0541338582677167
 21
6.154527559055118
 31
0.0
  0
LINE
  5
405E
330
1E
100
AcDbEntity
  8
0
100
AcDbLine
 10
-0.0541338582677167
 20
6.512795275590551
 30
0.0
 11
-0.0600393700787398
 21
6.510826771653544
 31
0.0
  0
LINE
  5
405F
330
1E
100
AcDbEntity
  8
0
100
AcDbLine
 10
-0.0600393700787398
 20
6.510826771653544
 30
0.0
 11
-0.0639763779527556
 21
6.50492125984252
 31
0.0
  0
LINE
  5
4060
330
1E
100
AcDbEntity
  8
0
100
AcDbLine
 10
1.369094488188976
 20
6.154527559055118
 30
0.0
 11
1.375
 21
6.156496062992125
 31
0.0
  0
LINE
  5
4061
330
1E
100
AcDbEntity
  8
0
100
AcDbLine
 10
1.375
 20
6.156496062992125
 30
0.0
 11
1.376968503937008
 21
6.164370078740157
 31
0.0
  0
LINE
  5
4062
330
1E
100
AcDbEntity
  8
0
100
AcDbLine
 10
1.376968503937008
 20
6.50492125984252
 30
0.0
 11
1.375
 21
6.510826771653544
 31
0.0
  0
LINE
  5
4063
330
1E
100
AcDbEntity
  8
0
100
AcDbLine
 10
1.375
 20
6.510826771653544
 30
0.0
 11
1.369094488188976
 21
6.512795275590551
 31
0.0
  0
LINE
  5
4064
330
1E
100
AcDbEntity
  8
0
100
AcDbLine
 10
4.341535433070866
 20
5.58759842519685
 30
0.0
 11
4.333661417322835
 21
5.632874015748031
 31
0.0
  0
LINE
  5
4065
330
1E
100
AcDbEntity
  8
0
100
AcDbLine
 10
4.333661417322835
 20
5.632874015748031
 30
0.0
 11
4.31003937007874
 21
5.674212598425196
 31
0.0
  0
LINE
  5
4066
330
1E
100
AcDbEntity
  8
0
100
AcDbLine
 10
4.31003937007874
 20
5.674212598425196
 30
0.0
 11
4.274606299212598
 21
5.703740157480314
 31
0.0
  0
LINE
  5
4067
330
1E
100
AcDbEntity
  8
0
100
AcDbLine
 10
4.274606299212598
 20
5.703740157480314
 30
0.0
 11
4.231299212598425
 21
5.719488188976377
 31
0.0
  0
LINE
  5
4068
330
1E
100
AcDbEntity
  8
0
100
AcDbLine
 10
4.231299212598425
 20
5.719488188976377
 30
0.0
 11
4.184055118110237
 21
5.719488188976377
 31
0.0
  0
LINE
  5
4069
330
1E
100
AcDbEntity
  8
0
100
AcDbLine
 10
4.184055118110237
 20
5.719488188976377
 30
0.0
 11
4.140748031496062
 21
5.703740157480314
 31
0.0
  0
LINE
  5
406A
330
1E
100
AcDbEntity
  8
0
100
AcDbLine
 10
4.140748031496062
 20
5.703740157480314
 30
0.0
 11
4.103346456692912
 21
5.674212598425196
 31
0.0
  0
LINE
  5
406B
330
1E
100
AcDbEntity
  8
0
100
AcDbLine
 10
4.103346456692912
 20
5.674212598425196
 30
0.0
 11
4.079724409448818
 21
5.632874015748031
 31
0.0
  0
LINE
  5
406C
330
1E
100
AcDbEntity
  8
0
100
AcDbLine
 10
4.079724409448818
 20
5.632874015748031
 30
0.0
 11
4.071850393700787
 21
5.58759842519685
 31
0.0
  0
LINE
  5
406D
330
1E
100
AcDbEntity
  8
0
100
AcDbLine
 10
4.071850393700787
 20
5.58759842519685
 30
0.0
 11
4.079724409448818
 21
5.540354330708661
 31
0.0
  0
LINE
  5
406E
330
1E
100
AcDbEntity
  8
0
100
AcDbLine
 10
4.079724409448818
 20
5.540354330708661
 30
0.0
 11
4.103346456692912
 21
5.500984251968503
 31
0.0
  0
LINE
  5
406F
330
1E
100
AcDbEntity
  8
0
100
AcDbLine
 10
4.103346456692912
 20
5.500984251968503
 30
0.0
 11
4.140748031496062
 21
5.469488188976377
 31
0.0
  0
LINE
  5
4070
330
1E
100
AcDbEntity
  8
0
100
AcDbLine
 10
4.140748031496062
 20
5.469488188976377
 30
0.0
 11
4.184055118110237
 21
5.453740157480314
 31
0.0
  0
LINE
  5
4071
330
1E
100
AcDbEntity
  8
0
100
AcDbLine
 10
4.184055118110237
 20
5.453740157480314
 30
0.0
 11
4.231299212598425
 21
5.453740157480314
 31
0.0
  0
LINE
  5
4072
330
1E
100
AcDbEntity
  8
0
100
AcDbLine
 10
4.231299212598425
 20
5.453740157480314
 30
0.0
 11
4.274606299212598
 21
5.469488188976377
 31
0.0
  0
LINE
  5
4073
330
1E
100
AcDbEntity
  8
0
100
AcDbLine
 10
4.274606299212598
 20
5.469488188976377
 30
0.0
 11
4.31003937007874
 21
5.500984251968503
 31
0.0
  0
LINE
  5
4074
330
1E
100
AcDbEntity
  8
0
100
AcDbLine
 10
4.31003937007874
 20
5.500984251968503
 30
0.0
 11
4.333661417322835
 21
5.540354330708661
 31
0.0
  0
LINE
  5
4075
330
1E
100
AcDbEntity
  8
0
100
AcDbLine
 10
4.333661417322835
 20
5.540354330708661
 30
0.0
 11
4.341535433070866
 21
5.58759842519685
 31
0.0
  0
LINE
  5
4076
330
1E
100
AcDbEntity
  8
0
100
AcDbLine
 10
4.130905511811024
 20
5.58759842519685
 30
0.0
 11
4.138779527559055
 21
5.623031496062992
 31
0.0
  0
LINE
  5
4077
330
1E
100
AcDbEntity
  8
0
100
AcDbLine
 10
4.138779527559055
 20
5.623031496062992
 30
0.0
 11
4.164370078740157
 21
5.650590551181101
 31
0.0
  0
LINE
  5
4078
330
1E
100
AcDbEntity
  8
0
100
AcDbLine
 10
4.164370078740157
 20
5.650590551181101
 30
0.0
 11
4.19783464566929
 21
5.664370078740157
 31
0.0
  0
LINE
  5
4079
330
1E
100
AcDbEntity
  8
0
100
AcDbLine
 10
4.19783464566929
 20
5.664370078740157
 30
0.0
 11
4.23523622047244
 21
5.658464566929133
 31
0.0
  0
LINE
  5
407A
330
1E
100
AcDbEntity
  8
0
100
AcDbLine
 10
4.23523622047244
 20
5.658464566929133
 30
0.0
 11
4.264763779527559
 21
5.638779527559055
 31
0.0
  0
LINE
  5
407B
330
1E
100
AcDbEntity
  8
0
100
AcDbLine
 10
4.264763779527559
 20
5.638779527559055
 30
0.0
 11
4.282480314960629
 21
5.605314960629922
 31
0.0
  0
LINE
  5
407C
330
1E
100
AcDbEntity
  8
0
100
AcDbLine
 10
4.282480314960629
 20
5.605314960629922
 30
0.0
 11
4.282480314960629
 21
5.567913385826772
 31
0.0
  0
LINE
  5
407D
330
1E
100
AcDbEntity
  8
0
100
AcDbLine
 10
4.282480314960629
 20
5.567913385826772
 30
0.0
 11
4.264763779527559
 21
5.536417322834646
 31
0.0
  0
LINE
  5
407E
330
1E
100
AcDbEntity
  8
0
100
AcDbLine
 10
4.264763779527559
 20
5.536417322834646
 30
0.0
 11
4.23523622047244
 21
5.514763779527559
 31
0.0
  0
LINE
  5
407F
330
1E
100
AcDbEntity
  8
0
100
AcDbLine
 10
4.23523622047244
 20
5.514763779527559
 30
0.0
 11
4.19783464566929
 21
5.510826771653544
 31
0.0
  0
LINE
  5
4080
330
1E
100
AcDbEntity
  8
0
100
AcDbLine
 10
4.19783464566929
 20
5.510826771653544
 30
0.0
 11
4.164370078740157
 21
5.524606299212598
 31
0.0
  0
LINE
  5
4081
330
1E
100
AcDbEntity
  8
0
100
AcDbLine
 10
4.164370078740157
 20
5.524606299212598
 30
0.0
 11
4.138779527559055
 21
5.552165354330709
 31
0.0
  0
LINE
  5
4082
330
1E
100
AcDbEntity
  8
0
100
AcDbLine
 10
4.138779527559055
 20
5.552165354330709
 30
0.0
 11
4.130905511811024
 21
5.58759842519685
 31
0.0
  0
LINE
  5
4083
330
1E
100
AcDbEntity
  8
0
100
AcDbLine
 10
4.282480314960629
 20
5.58759842519685
 30
0.0
 11
4.274606299212598
 21
5.623031496062992
 31
0.0
  0
LINE
  5
4084
330
1E
100
AcDbEntity
  8
0
100
AcDbLine
 10
4.274606299212598
 20
5.623031496062992
 30
0.0
 11
4.250984251968503
 21
5.650590551181101
 31
0.0
  0
LINE
  5
4085
330
1E
100
AcDbEntity
  8
0
100
AcDbLine
 10
4.250984251968503
 20
5.650590551181101
 30
0.0
 11
4.215551181102362
 21
5.662401574803149
 31
0.0
  0
LINE
  5
4086
330
1E
100
AcDbEntity
  8
0
100
AcDbLine
 10
4.215551181102362
 20
5.662401574803149
 30
0.0
 11
4.18011811023622
 21
5.658464566929133
 31
0.0
  0
LINE
  5
4087
330
1E
100
AcDbEntity
  8
0
100
AcDbLine
 10
4.18011811023622
 20
5.658464566929133
 30
0.0
 11
4.150590551181101
 21
5.636811023622048
 31
0.0
  0
LINE
  5
4088
330
1E
100
AcDbEntity
  8
0
100
AcDbLine
 10
4.150590551181101
 20
5.636811023622048
 30
0.0
 11
4.132874015748031
 21
5.605314960629922
 31
0.0
  0
LINE
  5
4089
330
1E
100
AcDbEntity
  8
0
100
AcDbLine
 10
4.132874015748031
 20
5.605314960629922
 30
0.0
 11
4.132874015748031
 21
5.569881889763779
 31
0.0
  0
LINE
  5
408A
330
1E
100
AcDbEntity
  8
0
100
AcDbLine
 10
4.132874015748031
 20
5.569881889763779
 30
0.0
 11
4.150590551181101
 21
5.536417322834646
 31
0.0
  0
LINE
  5
408B
330
1E
100
AcDbEntity
  8
0
100
AcDbLine
 10
4.150590551181101
 20
5.536417322834646
 30
0.0
 11
4.18011811023622
 21
5.516732283464566
 31
0.0
  0
LINE
  5
408C
330
1E
100
AcDbEntity
  8
0
100
AcDbLine
 10
4.18011811023622
 20
5.516732283464566
 30
0.0
 11
4.215551181102362
 21
5.510826771653544
 31
0.0
  0
LINE
  5
408D
330
1E
100
AcDbEntity
  8
0
100
AcDbLine
 10
4.215551181102362
 20
5.510826771653544
 30
0.0
 11
4.250984251968503
 21
5.524606299212598
 31
0.0
  0
LINE
  5
408E
330
1E
100
AcDbEntity
  8
0
100
AcDbLine
 10
4.250984251968503
 20
5.524606299212598
 30
0.0
 11
4.274606299212598
 21
5.552165354330709
 31
0.0
  0
LINE
  5
408F
330
1E
100
AcDbEntity
  8
0
100
AcDbLine
 10
4.274606299212598
 20
5.552165354330709
 30
0.0
 11
4.282480314960629
 21
5.58759842519685
 31
0.0
  0
LINE
  5
4090
330
1E
100
AcDbEntity
  8
0
100
AcDbLine
 10
-0.3966535433070861
 20
5.58759842519685
 30
0.0
 11
-0.4045275590551177
 21
5.632874015748031
 31
0.0
  0
LINE
  5
4091
330
1E
100
AcDbEntity
  8
0
100
AcDbLine
 10
-0.4045275590551177
 20
5.632874015748031
 30
0.0
 11
-0.428149606299213
 21
5.674212598425196
 31
0.0
  0
LINE
  5
4092
330
1E
100
AcDbEntity
  8
0
100
AcDbLine
 10
-0.428149606299213
 20
5.674212598425196
 30
0.0
 11
-0.4635826771653547
 21
5.703740157480314
 31
0.0
  0
LINE
  5
4093
330
1E
100
AcDbEntity
  8
0
100
AcDbLine
 10
-0.4635826771653547
 20
5.703740157480314
 30
0.0
 11
-0.5068897637795278
 21
5.719488188976377
 31
0.0
  0
LINE
  5
4094
330
1E
100
AcDbEntity
  8
0
100
AcDbLine
 10
-0.5068897637795278
 20
5.719488188976377
 30
0.0
 11
-0.5541338582677167
 21
5.719488188976377
 31
0.0
  0
LINE
  5
4095
330
1E
100
AcDbEntity
  8
0
100
AcDbLine
 10
-0.5541338582677167
 20
5.719488188976377
 30
0.0
 11
-0.5974409448818899
 21
5.703740157480314
 31
0.0
  0
LINE
  5
4096
330
1E
100
AcDbEntity
  8
0
100
AcDbLine
 10
-0.5974409448818899
 20
5.703740157480314
 30
0.0
 11
-0.6348425196850389
 21
5.674212598425196
 31
0.0
  0
LINE
  5
4097
330
1E
100
AcDbEntity
  8
0
100
AcDbLine
 10
-0.6348425196850389
 20
5.674212598425196
 30
0.0
 11
-0.6584645669291334
 21
5.632874015748031
 31
0.0
  0
LINE
  5
4098
330
1E
100
AcDbEntity
  8
0
100
AcDbLine
 10
-0.6584645669291334
 20
5.632874015748031
 30
0.0
 11
-0.6663385826771649
 21
5.58759842519685
 31
0.0
  0
LINE
  5
4099
330
1E
100
AcDbEntity
  8
0
100
AcDbLine
 10
-0.6663385826771649
 20
5.58759842519685
 30
0.0
 11
-0.6584645669291334
 21
5.540354330708661
 31
0.0
  0
LINE
  5
409A
330
1E
100
AcDbEntity
  8
0
100
AcDbLine
 10
-0.6584645669291334
 20
5.540354330708661
 30
0.0
 11
-0.6348425196850389
 21
5.500984251968503
 31
0.0
  0
LINE
  5
409B
330
1E
100
AcDbEntity
  8
0
100
AcDbLine
 10
-0.6348425196850389
 20
5.500984251968503
 30
0.0
 11
-0.5974409448818899
 21
5.469488188976377
 31
0.0
  0
LINE
  5
409C
330
1E
100
AcDbEntity
  8
0
100
AcDbLine
 10
-0.5974409448818899
 20
5.469488188976377
 30
0.0
 11
-0.5541338582677167
 21
5.453740157480314
 31
0.0
  0
LINE
  5
409D
330
1E
100
AcDbEntity
  8
0
100
AcDbLine
 10
-0.5541338582677167
 20
5.453740157480314
 30
0.0
 11
-0.5068897637795278
 21
5.453740157480314
 31
0.0
  0
LINE
  5
409E
330
1E
100
AcDbEntity
  8
0
100
AcDbLine
 10
-0.5068897637795278
 20
5.453740157480314
 30
0.0
 11
-0.4635826771653547
 21
5.469488188976377
 31
0.0
  0
LINE
  5
409F
330
1E
100
AcDbEntity
  8
0
100
AcDbLine
 10
-0.4635826771653547
 20
5.469488188976377
 30
0.0
 11
-0.428149606299213
 21
5.500984251968503
 31
0.0
  0
LINE
  5
40A0
330
1E
100
AcDbEntity
  8
0
100
AcDbLine
 10
-0.428149606299213
 20
5.500984251968503
 30
0.0
 11
-0.4045275590551177
 21
5.540354330708661
 31
0.0
  0
LINE
  5
40A1
330
1E
100
AcDbEntity
  8
0
100
AcDbLine
 10
-0.4045275590551177
 20
5.540354330708661
 30
0.0
 11
-0.3966535433070861
 21
5.58759842519685
 31
0.0
  0
LINE
  5
40A2
330
1E
100
AcDbEntity
  8
0
100
AcDbLine
 10
-0.6072834645669288
 20
5.58759842519685
 30
0.0
 11
-0.5994094488188973
 21
5.623031496062992
 31
0.0
  0
LINE
  5
40A3
330
1E
100
AcDbEntity
  8
0
100
AcDbLine
 10
-0.5994094488188973
 20
5.623031496062992
 30
0.0
 11
-0.5738188976377954
 21
5.650590551181101
 31
0.0
  0
LINE
  5
40A4
330
1E
100
AcDbEntity
  8
0
100
AcDbLine
 10
-0.5738188976377954
 20
5.650590551181101
 30
0.0
 11
-0.5403543307086612
 21
5.664370078740157
 31
0.0
  0
LINE
  5
40A5
330
1E
100
AcDbEntity
  8
0
100
AcDbLine
 10
-0.5403543307086612
 20
5.664370078740157
 30
0.0
 11
-0.5029527559055121
 21
5.658464566929133
 31
0.0
  0
LINE
  5
40A6
330
1E
100
AcDbEntity
  8
0
100
AcDbLine
 10
-0.5029527559055121
 20
5.658464566929133
 30
0.0
 11
-0.4734251968503936
 21
5.638779527559055
 31
0.0
  0
LINE
  5
40A7
330
1E
100
AcDbEntity
  8
0
100
AcDbLine
 10
-0.4734251968503936
 20
5.638779527559055
 30
0.0
 11
-0.4557086614173232
 21
5.605314960629922
 31
0.0
  0
LINE
  5
40A8
330
1E
100
AcDbEntity
  8
0
100
AcDbLine
 10
-0.4557086614173232
 20
5.605314960629922
 30
0.0
 11
-0.4557086614173232
 21
5.567913385826772
 31
0.0
  0
LINE
  5
40A9
330
1E
100
AcDbEntity
  8
0
100
AcDbLine
 10
-0.4557086614173232
 20
5.567913385826772
 30
0.0
 11
-0.4734251968503936
 21
5.536417322834646
 31
0.0
  0
LINE
  5
40AA
330
1E
100
AcDbEntity
  8
0
100
AcDbLine
 10
-0.4734251968503936
 20
5.536417322834646
 30
0.0
 11
-0.5029527559055121
 21
5.514763779527559
 31
0.0
  0
LINE
  5
40AB
330
1E
100
AcDbEntity
  8
0
100
AcDbLine
 10
-0.5029527559055121
 20
5.514763779527559
 30
0.0
 11
-0.5403543307086612
 21
5.510826771653544
 31
0.0
  0
LINE
  5
40AC
330
1E
100
AcDbEntity
  8
0
100
AcDbLine
 10
-0.5403543307086612
 20
5.510826771653544
 30
0.0
 11
-0.5738188976377954
 21
5.524606299212598
 31
0.0
  0
LINE
  5
40AD
330
1E
100
AcDbEntity
  8
0
100
AcDbLine
 10
-0.5738188976377954
 20
5.524606299212598
 30
0.0
 11
-0.5994094488188973
 21
5.552165354330709
 31
0.0
  0
LINE
  5
40AE
330
1E
100
AcDbEntity
  8
0
100
AcDbLine
 10
-0.5994094488188973
 20
5.552165354330709
 30
0.0
 11
-0.6072834645669288
 21
5.58759842519685
 31
0.0
  0
LINE
  5
40AF
330
1E
100
AcDbEntity
  8
0
100
AcDbLine
 10
-0.4537401574803149
 20
5.58759842519685
 30
0.0
 11
-0.4635826771653547
 21
5.623031496062992
 31
0.0
  0
LINE
  5
40B0
330
1E
100
AcDbEntity
  8
0
100
AcDbLine
 10
-0.4635826771653547
 20
5.623031496062992
 30
0.0
 11
-0.4872047244094491
 21
5.650590551181101
 31
0.0
  0
LINE
  5
40B1
330
1E
100
AcDbEntity
  8
0
100
AcDbLine
 10
-0.4872047244094491
 20
5.650590551181101
 30
0.0
 11
-0.5206692913385825
 21
5.662401574803149
 31
0.0
  0
LINE
  5
40B2
330
1E
100
AcDbEntity
  8
0
100
AcDbLine
 10
-0.5206692913385825
 20
5.662401574803149
 30
0.0
 11
-0.5580708661417324
 21
5.658464566929133
 31
0.0
  0
LINE
  5
40B3
330
1E
100
AcDbEntity
  8
0
100
AcDbLine
 10
-0.5580708661417324
 20
5.658464566929133
 30
0.0
 11
-0.5875984251968501
 21
5.636811023622048
 31
0.0
  0
LINE
  5
40B4
330
1E
100
AcDbEntity
  8
0
100
AcDbLine
 10
-0.5875984251968501
 20
5.636811023622048
 30
0.0
 11
-0.6053149606299213
 21
5.605314960629922
 31
0.0
  0
LINE
  5
40B5
330
1E
100
AcDbEntity
  8
0
100
AcDbLine
 10
-0.6053149606299213
 20
5.605314960629922
 30
0.0
 11
-0.6053149606299213
 21
5.569881889763779
 31
0.0
  0
LINE
  5
40B6
330
1E
100
AcDbEntity
  8
0
100
AcDbLine
 10
-0.6053149606299213
 20
5.569881889763779
 30
0.0
 11
-0.5875984251968501
 21
5.536417322834646
 31
0.0
  0
LINE
  5
40B7
330
1E
100
AcDbEntity
  8
0
100
AcDbLine
 10
-0.5875984251968501
 20
5.536417322834646
 30
0.0
 11
-0.5580708661417324
 21
5.516732283464566
 31
0.0
  0
LINE
  5
40B8
330
1E
100
AcDbEntity
  8
0
100
AcDbLine
 10
-0.5580708661417324
 20
5.516732283464566
 30
0.0
 11
-0.5206692913385825
 21
5.510826771653544
 31
0.0
  0
LINE
  5
40B9
330
1E
100
AcDbEntity
  8
0
100
AcDbLine
 10
-0.5206692913385825
 20
5.510826771653544
 30
0.0
 11
-0.4872047244094491
 21
5.524606299212598
 31
0.0
  0
LINE
  5
40BA
330
1E
100
AcDbEntity
  8
0
100
AcDbLine
 10
-0.4872047244094491
 20
5.524606299212598
 30
0.0
 11
-0.4635826771653547
 21
5.552165354330709
 31
0.0
  0
LINE
  5
40BB
330
1E
100
AcDbEntity
  8
0
100
AcDbLine
 10
-0.4635826771653547
 20
5.552165354330709
 30
0.0
 11
-0.4537401574803149
 21
5.58759842519685
 31
0.0
  0
LINE
  5
40BC
330
1E
100
AcDbEntity
  8
0
100
AcDbLine
 10
3.644685039370079
 20
6.010826771653544
 30
0.0
 11
3.658464566929133
 21
6.010826771653544
 31
0.0
  0
LINE
  5
40BD
330
1E
100
AcDbEntity
  8
0
100
AcDbLine
 10
3.658464566929133
 20
6.010826771653544
 30
0.0
 11
3.664370078740157
 21
6.010826771653544
 31
0.0
  0
LINE
  5
40BE
330
1E
100
AcDbEntity
  8
0
100
AcDbLine
 10
2.373031496062992
 20
6.010826771653544
 30
0.0
 11
2.378937007874015
 21
6.010826771653544
 31
0.0
  0
LINE
  5
40BF
330
1E
100
AcDbEntity
  8
0
100
AcDbLine
 10
2.378937007874015
 20
6.010826771653544
 30
0.0
 11
2.392716535433071
 21
6.010826771653544
 31
0.0
  0
LINE
  5
40C0
330
1E
100
AcDbEntity
  8
0
100
AcDbLine
 10
0.0108267716535435
 20
6.010826771653544
 30
0.0
 11
0.0167322834645667
 21
6.010826771653544
 31
0.0
  0
LINE
  5
40C1
330
1E
100
AcDbEntity
  8
0
100
AcDbLine
 10
0.0167322834645667
 20
6.010826771653544
 30
0.0
 11
0.0305118110236222
 21
6.010826771653544
 31
0.0
  0
LINE
  5
40C2
330
1E
100
AcDbEntity
  8
0
100
AcDbLine
 10
1.282480314960629
 20
6.010826771653544
 30
0.0
 11
1.296259842519685
 21
6.010826771653544
 31
0.0
  0
LINE
  5
40C3
330
1E
100
AcDbEntity
  8
0
100
AcDbLine
 10
1.296259842519685
 20
6.010826771653544
 30
0.0
 11
1.304133858267716
 21
6.010826771653544
 31
0.0
  0
LINE
  5
40C4
330
1E
100
AcDbEntity
  8
0
100
AcDbLine
 10
-0.9793307086614166
 20
3.918307086614174
 30
0.0
 11
-0.9793307086614166
 21
3.924212598425196
 31
0.0
  0
LINE
  5
40C5
330
1E
100
AcDbEntity
  8
0
100
AcDbLine
 10
-0.9793307086614166
 20
3.924212598425196
 30
0.0
 11
-0.9793307086614166
 21
3.934055118110237
 31
0.0
  0
LINE
  5
40C6
330
1E
100
AcDbEntity
  8
0
100
AcDbLine
 10
-0.9950787401574796
 20
3.949803149606299
 30
0.0
 11
-1.006889763779527
 21
3.949803149606299
 31
0.0
  0
LINE
  5
40C7
330
1E
100
AcDbEntity
  8
0
100
AcDbLine
 10
-1.006889763779527
 20
3.949803149606299
 30
0.0
 11
-1.010826771653542
 21
3.949803149606299
 31
0.0
  0
LINE
  5
40C8
330
1E
100
AcDbEntity
  8
0
100
AcDbLine
 10
4.656496062992125
 20
3.918307086614174
 30
0.0
 11
4.656496062992125
 21
3.924212598425196
 31
0.0
  0
LINE
  5
40C9
330
1E
100
AcDbEntity
  8
0
100
AcDbLine
 10
4.656496062992125
 20
3.924212598425196
 30
0.0
 11
4.656496062992125
 21
3.934055118110237
 31
0.0
  0
LINE
  5
40CA
330
1E
100
AcDbEntity
  8
0
100
AcDbLine
 10
-0.9950787401574796
 20
7.223425196850394
 30
0.0
 11
-1.006889763779527
 21
7.223425196850394
 31
0.0
  0
LINE
  5
40CB
330
1E
100
AcDbEntity
  8
0
100
AcDbLine
 10
-1.006889763779527
 20
7.223425196850394
 30
0.0
 11
-1.010826771653542
 21
7.223425196850394
 31
0.0
  0
LINE
  5
40CC
330
1E
100
AcDbEntity
  8
0
100
AcDbLine
 10
4.687992125984251
 20
3.949803149606299
 30
0.0
 11
4.682086614173227
 21
3.949803149606299
 31
0.0
  0
LINE
  5
40CD
330
1E
100
AcDbEntity
  8
0
100
AcDbLine
 10
4.682086614173227
 20
3.949803149606299
 30
0.0
 11
4.672244094488188
 21
3.949803149606299
 31
0.0
  0
LINE
  5
40CE
330
1E
100
AcDbEntity
  8
0
100
AcDbLine
 10
-0.9793307086614166
 20
7.239173228346457
 30
0.0
 11
-0.9793307086614166
 21
7.250984251968503
 31
0.0
  0
LINE
  5
40CF
330
1E
100
AcDbEntity
  8
0
100
AcDbLine
 10
-0.9793307086614166
 20
7.250984251968503
 30
0.0
 11
-0.9793307086614166
 21
7.25492125984252
 31
0.0
  0
LINE
  5
40D0
330
1E
100
AcDbEntity
  8
0
100
AcDbLine
 10
4.656496062992125
 20
7.239173228346457
 30
0.0
 11
4.656496062992125
 21
7.250984251968503
 31
0.0
  0
LINE
  5
40D1
330
1E
100
AcDbEntity
  8
0
100
AcDbLine
 10
4.656496062992125
 20
7.250984251968503
 30
0.0
 11
4.656496062992125
 21
7.25492125984252
 31
0.0
  0
LINE
  5
40D2
330
1E
100
AcDbEntity
  8
0
100
AcDbLine
 10
4.687992125984251
 20
7.223425196850394
 30
0.0
 11
4.682086614173227
 21
7.223425196850394
 31
0.0
  0
LINE
  5
40D3
330
1E
100
AcDbEntity
  8
0
100
AcDbLine
 10
4.682086614173227
 20
7.223425196850394
 30
0.0
 11
4.672244094488188
 21
7.223425196850394
 31
0.0
  0
LINE
  5
40D4
330
1E
100
AcDbEntity
  8
0
100
AcDbLine
 10
4.687992125984251
 20
3.949803149606299
 30
0.0
 11
4.678149606299212
 21
3.928149606299212
 31
0.0
  0
LINE
  5
40D5
330
1E
100
AcDbEntity
  8
0
100
AcDbLine
 10
4.678149606299212
 20
3.928149606299212
 30
0.0
 11
4.656496062992125
 21
3.918307086614174
 31
0.0
  0
LINE
  5
40D6
330
1E
100
AcDbEntity
  8
0
100
AcDbLine
 10
4.656496062992125
 20
7.25492125984252
 30
0.0
 11
4.678149606299212
 21
7.247047244094488
 31
0.0
  0
LINE
  5
40D7
330
1E
100
AcDbEntity
  8
0
100
AcDbLine
 10
4.678149606299212
 20
7.247047244094488
 30
0.0
 11
4.687992125984251
 21
7.223425196850394
 31
0.0
  0
LINE
  5
40D8
330
1E
100
AcDbEntity
  8
0
100
AcDbLine
 10
-1.010826771653542
 20
7.223425196850394
 30
0.0
 11
-1.000984251968503
 21
7.247047244094488
 31
0.0
  0
LINE
  5
40D9
330
1E
100
AcDbEntity
  8
0
100
AcDbLine
 10
-1.000984251968503
 20
7.247047244094488
 30
0.0
 11
-0.9793307086614166
 21
7.25492125984252
 31
0.0
  0
LINE
  5
40DA
330
1E
100
AcDbEntity
  8
0
100
AcDbLine
 10
-0.9793307086614166
 20
3.918307086614174
 30
0.0
 11
-1.000984251968503
 21
3.928149606299212
 31
0.0
  0
LINE
  5
40DB
330
1E
100
AcDbEntity
  8
0
100
AcDbLine
 10
-1.000984251968503
 20
3.928149606299212
 30
0.0
 11
-1.010826771653542
 21
3.949803149606299
 31
0.0
  0
LINE
  5
40DC
330
1E
100
AcDbEntity
  8
0
100
AcDbLine
 10
-0.9793307086614166
 20
7.239173228346457
 30
0.0
 11
-0.9911417322834648
 21
7.23523622047244
 31
0.0
  0
LINE
  5
40DD
330
1E
100
AcDbEntity
  8
0
100
AcDbLine
 10
-0.9911417322834648
 20
7.23523622047244
 30
0.0
 11
-0.9950787401574796
 21
7.223425196850394
 31
0.0
  0
LINE
  5
40DE
330
1E
100
AcDbEntity
  8
0
100
AcDbLine
 10
4.672244094488188
 20
7.223425196850394
 30
0.0
 11
4.668307086614174
 21
7.23523622047244
 31
0.0
  0
LINE
  5
40DF
330
1E
100
AcDbEntity
  8
0
100
AcDbLine
 10
4.668307086614174
 20
7.23523622047244
 30
0.0
 11
4.656496062992125
 21
7.239173228346457
 31
0.0
  0
LINE
  5
40E0
330
1E
100
AcDbEntity
  8
0
100
AcDbLine
 10
4.656496062992125
 20
3.934055118110237
 30
0.0
 11
4.668307086614174
 21
3.937992125984251
 31
0.0
  0
LINE
  5
40E1
330
1E
100
AcDbEntity
  8
0
100
AcDbLine
 10
4.668307086614174
 20
3.937992125984251
 30
0.0
 11
4.672244094488188
 21
3.949803149606299
 31
0.0
  0
LINE
  5
40E2
330
1E
100
AcDbEntity
  8
0
100
AcDbLine
 10
-0.9950787401574796
 20
3.949803149606299
 30
0.0
 11
-0.9911417322834648
 21
3.937992125984251
 31
0.0
  0
LINE
  5
40E3
330
1E
100
AcDbEntity
  8
0
100
AcDbLine
 10
-0.9911417322834648
 20
3.937992125984251
 30
0.0
 11
-0.9793307086614166
 21
3.934055118110237
 31
0.0
  0
LINE
  5
40E4
330
1E
100
AcDbEntity
  8
0
100
AcDbLine
 10
1.437992125984251
 20
6.016732283464566
 30
0.0
 11
1.443897637795275
 21
6.012795275590551
 31
0.0
  0
LINE
  5
40E5
330
1E
100
AcDbEntity
  8
0
100
AcDbLine
 10
1.443897637795275
 20
6.012795275590551
 30
0.0
 11
1.447834645669291
 21
6.008858267716535
 31
0.0
  0
LINE
  5
40E6
330
1E
100
AcDbEntity
  8
0
100
AcDbLine
 10
-0.125
 20
6.016732283464566
 30
0.0
 11
-0.1289370078740157
 21
6.012795275590551
 31
0.0
  0
LINE
  5
40E7
330
1E
100
AcDbEntity
  8
0
100
AcDbLine
 10
-0.1289370078740157
 20
6.012795275590551
 30
0.0
 11
-0.1328740157480315
 21
6.008858267716535
 31
0.0
  0
LINE
  5
40E8
330
1E
100
AcDbEntity
  8
0
100
AcDbLine
 10
-0.125
 20
4.666338582677164
 30
0.0
 11
-0.1289370078740157
 21
4.668307086614174
 31
0.0
  0
LINE
  5
40E9
330
1E
100
AcDbEntity
  8
0
100
AcDbLine
 10
-0.1289370078740157
 20
4.668307086614174
 30
0.0
 11
-0.1328740157480315
 21
4.674212598425196
 31
0.0
  0
LINE
  5
40EA
330
1E
100
AcDbEntity
  8
0
100
AcDbLine
 10
1.437992125984251
 20
4.666338582677164
 30
0.0
 11
1.443897637795275
 21
4.668307086614174
 31
0.0
  0
LINE
  5
40EB
330
1E
100
AcDbEntity
  8
0
100
AcDbLine
 10
1.443897637795275
 20
4.668307086614174
 30
0.0
 11
1.447834645669291
 21
4.674212598425196
 31
0.0
  0
LINE
  5
40EC
330
1E
100
AcDbEntity
  8
0
100
AcDbLine
 10
2.237204724409449
 20
4.666338582677164
 30
0.0
 11
2.231299212598425
 21
4.668307086614174
 31
0.0
  0
LINE
  5
40ED
330
1E
100
AcDbEntity
  8
0
100
AcDbLine
 10
2.231299212598425
 20
4.668307086614174
 30
0.0
 11
2.229330708661417
 21
4.674212598425196
 31
0.0
  0
LINE
  5
40EE
330
1E
100
AcDbEntity
  8
0
100
AcDbLine
 10
3.8001968503937
 20
4.666338582677164
 30
0.0
 11
3.806102362204724
 21
4.668307086614174
 31
0.0
  0
LINE
  5
40EF
330
1E
100
AcDbEntity
  8
0
100
AcDbLine
 10
3.806102362204724
 20
4.668307086614174
 30
0.0
 11
3.808070866141731
 21
4.674212598425196
 31
0.0
  0
LINE
  5
40F0
330
1E
100
AcDbEntity
  8
0
100
AcDbLine
 10
3.8001968503937
 20
6.016732283464566
 30
0.0
 11
3.806102362204724
 21
6.012795275590551
 31
0.0
  0
LINE
  5
40F1
330
1E
100
AcDbEntity
  8
0
100
AcDbLine
 10
3.806102362204724
 20
6.012795275590551
 30
0.0
 11
3.808070866141731
 21
6.008858267716535
 31
0.0
  0
LINE
  5
40F2
330
1E
100
AcDbEntity
  8
0
100
AcDbLine
 10
2.237204724409449
 20
6.016732283464566
 30
0.0
 11
2.231299212598425
 21
6.012795275590551
 31
0.0
  0
LINE
  5
40F3
330
1E
100
AcDbEntity
  8
0
100
AcDbLine
 10
2.231299212598425
 20
6.012795275590551
 30
0.0
 11
2.229330708661417
 21
6.008858267716535
 31
0.0
  0
LINE
  5
40F4
330
1E
100
AcDbEntity
  8
0
100
AcDbLine
 10
-0.6663385826771649
 20
5.58759842519685
 30
0.0
 11
-0.6584645669291334
 21
5.632874015748031
 31
0.0
  0
LINE
  5
40F5
330
1E
100
AcDbEntity
  8
0
100
AcDbLine
 10
-0.6584645669291334
 20
5.632874015748031
 30
0.0
 11
-0.6348425196850389
 21
5.674212598425196
 31
0.0
  0
LINE
  5
40F6
330
1E
100
AcDbEntity
  8
0
100
AcDbLine
 10
-0.6348425196850389
 20
5.674212598425196
 30
0.0
 11
-0.5994094488188973
 21
5.705708661417322
 31
0.0
  0
LINE
  5
40F7
330
1E
100
AcDbEntity
  8
0
100
AcDbLine
 10
-0.5994094488188973
 20
5.705708661417322
 30
0.0
 11
-0.5541338582677167
 21
5.721456692913385
 31
0.0
  0
LINE
  5
40F8
330
1E
100
AcDbEntity
  8
0
100
AcDbLine
 10
-0.5541338582677167
 20
5.721456692913385
 30
0.0
 11
-0.5068897637795278
 21
5.721456692913385
 31
0.0
  0
LINE
  5
40F9
330
1E
100
AcDbEntity
  8
0
100
AcDbLine
 10
-0.5068897637795278
 20
5.721456692913385
 30
0.0
 11
-0.4635826771653547
 21
5.705708661417322
 31
0.0
  0
LINE
  5
40FA
330
1E
100
AcDbEntity
  8
0
100
AcDbLine
 10
-0.4635826771653547
 20
5.705708661417322
 30
0.0
 11
-0.4261811023622047
 21
5.674212598425196
 31
0.0
  0
LINE
  5
40FB
330
1E
100
AcDbEntity
  8
0
100
AcDbLine
 10
-0.4261811023622047
 20
5.674212598425196
 30
0.0
 11
-0.4025590551181102
 21
5.632874015748031
 31
0.0
  0
LINE
  5
40FC
330
1E
100
AcDbEntity
  8
0
100
AcDbLine
 10
-0.4025590551181102
 20
5.632874015748031
 30
0.0
 11
-0.3946850393700787
 21
5.58759842519685
 31
0.0
  0
LINE
  5
40FD
330
1E
100
AcDbEntity
  8
0
100
AcDbLine
 10
-0.3946850393700787
 20
5.58759842519685
 30
0.0
 11
-0.4025590551181102
 21
5.540354330708661
 31
0.0
  0
LINE
  5
40FE
330
1E
100
AcDbEntity
  8
0
100
AcDbLine
 10
-0.4025590551181102
 20
5.540354330708661
 30
0.0
 11
-0.4261811023622047
 21
5.499015748031496
 31
0.0
  0
LINE
  5
40FF
330
1E
100
AcDbEntity
  8
0
100
AcDbLine
 10
-0.4261811023622047
 20
5.499015748031496
 30
0.0
 11
-0.4635826771653547
 21
5.469488188976377
 31
0.0
  0
LINE
  5
4100
330
1E
100
AcDbEntity
  8
0
100
AcDbLine
 10
-0.4635826771653547
 20
5.469488188976377
 30
0.0
 11
-0.5068897637795278
 21
5.453740157480314
 31
0.0
  0
LINE
  5
4101
330
1E
100
AcDbEntity
  8
0
100
AcDbLine
 10
-0.5068897637795278
 20
5.453740157480314
 30
0.0
 11
-0.5541338582677167
 21
5.453740157480314
 31
0.0
  0
LINE
  5
4102
330
1E
100
AcDbEntity
  8
0
100
AcDbLine
 10
-0.5541338582677167
 20
5.453740157480314
 30
0.0
 11
-0.5994094488188973
 21
5.469488188976377
 31
0.0
  0
LINE
  5
4103
330
1E
100
AcDbEntity
  8
0
100
AcDbLine
 10
-0.5994094488188973
 20
5.469488188976377
 30
0.0
 11
-0.6348425196850389
 21
5.499015748031496
 31
0.0
  0
LINE
  5
4104
330
1E
100
AcDbEntity
  8
0
100
AcDbLine
 10
-0.6348425196850389
 20
5.499015748031496
 30
0.0
 11
-0.6584645669291334
 21
5.540354330708661
 31
0.0
  0
LINE
  5
4105
330
1E
100
AcDbEntity
  8
0
100
AcDbLine
 10
-0.6584645669291334
 20
5.540354330708661
 30
0.0
 11
-0.6663385826771649
 21
5.58759842519685
 31
0.0
  0
LINE
  5
4106
330
1E
100
AcDbEntity
  8
0
100
AcDbLine
 10
4.343503937007874
 20
5.58759842519685
 30
0.0
 11
4.335629921259842
 21
5.632874015748031
 31
0.0
  0
LINE
  5
4107
330
1E
100
AcDbEntity
  8
0
100
AcDbLine
 10
4.335629921259842
 20
5.632874015748031
 30
0.0
 11
4.312007874015748
 21
5.674212598425196
 31
0.0
  0
LINE
  5
4108
330
1E
100
AcDbEntity
  8
0
100
AcDbLine
 10
4.312007874015748
 20
5.674212598425196
 30
0.0
 11
4.274606299212598
 21
5.705708661417322
 31
0.0
  0
LINE
  5
4109
330
1E
100
AcDbEntity
  8
0
100
AcDbLine
 10
4.274606299212598
 20
5.705708661417322
 30
0.0
 11
4.231299212598425
 21
5.721456692913385
 31
0.0
  0
LINE
  5
410A
330
1E
100
AcDbEntity
  8
0
100
AcDbLine
 10
4.231299212598425
 20
5.721456692913385
 30
0.0
 11
4.184055118110237
 21
5.721456692913385
 31
0.0
  0
LINE
  5
410B
330
1E
100
AcDbEntity
  8
0
100
AcDbLine
 10
4.184055118110237
 20
5.721456692913385
 30
0.0
 11
4.138779527559055
 21
5.705708661417322
 31
0.0
  0
LINE
  5
410C
330
1E
100
AcDbEntity
  8
0
100
AcDbLine
 10
4.138779527559055
 20
5.705708661417322
 30
0.0
 11
4.103346456692912
 21
5.674212598425196
 31
0.0
  0
LINE
  5
410D
330
1E
100
AcDbEntity
  8
0
100
AcDbLine
 10
4.103346456692912
 20
5.674212598425196
 30
0.0
 11
4.079724409448818
 21
5.632874015748031
 31
0.0
  0
LINE
  5
410E
330
1E
100
AcDbEntity
  8
0
100
AcDbLine
 10
4.079724409448818
 20
5.632874015748031
 30
0.0
 11
4.071850393700787
 21
5.58759842519685
 31
0.0
  0
LINE
  5
410F
330
1E
100
AcDbEntity
  8
0
100
AcDbLine
 10
4.071850393700787
 20
5.58759842519685
 30
0.0
 11
4.079724409448818
 21
5.540354330708661
 31
0.0
  0
LINE
  5
4110
330
1E
100
AcDbEntity
  8
0
100
AcDbLine
 10
4.079724409448818
 20
5.540354330708661
 30
0.0
 11
4.103346456692912
 21
5.499015748031496
 31
0.0
  0
LINE
  5
4111
330
1E
100
AcDbEntity
  8
0
100
AcDbLine
 10
4.103346456692912
 20
5.499015748031496
 30
0.0
 11
4.138779527559055
 21
5.469488188976377
 31
0.0
  0
LINE
  5
4112
330
1E
100
AcDbEntity
  8
0
100
AcDbLine
 10
4.138779527559055
 20
5.469488188976377
 30
0.0
 11
4.184055118110237
 21
5.453740157480314
 31
0.0
  0
LINE
  5
4113
330
1E
100
AcDbEntity
  8
0
100
AcDbLine
 10
4.184055118110237
 20
5.453740157480314
 30
0.0
 11
4.231299212598425
 21
5.453740157480314
 31
0.0
  0
LINE
  5
4114
330
1E
100
AcDbEntity
  8
0
100
AcDbLine
 10
4.231299212598425
 20
5.453740157480314
 30
0.0
 11
4.274606299212598
 21
5.469488188976377
 31
0.0
  0
LINE
  5
4115
330
1E
100
AcDbEntity
  8
0
100
AcDbLine
 10
4.274606299212598
 20
5.469488188976377
 30
0.0
 11
4.312007874015748
 21
5.499015748031496
 31
0.0
  0
LINE
  5
4116
330
1E
100
AcDbEntity
  8
0
100
AcDbLine
 10
4.312007874015748
 20
5.499015748031496
 30
0.0
 11
4.335629921259842
 21
5.540354330708661
 31
0.0
  0
LINE
  5
4117
330
1E
100
AcDbEntity
  8
0
100
AcDbLine
 10
4.335629921259842
 20
5.540354330708661
 30
0.0
 11
4.343503937007874
 21
5.58759842519685
 31
0.0
  0
LINE
  5
4118
330
1E
100
AcDbEntity
  8
0
100
AcDbLine
 10
-0.0541338582677167
 20
6.154527559055118
 30
0.0
 11
-0.0600393700787398
 21
6.156496062992125
 31
0.0
  0
LINE
  5
4119
330
1E
100
AcDbEntity
  8
0
100
AcDbLine
 10
-0.0600393700787398
 20
6.156496062992125
 30
0.0
 11
-0.0639763779527556
 21
6.164370078740157
 31
0.0
  0
LINE
  5
411A
330
1E
100
AcDbEntity
  8
0
100
AcDbLine
 10
1.378937007874015
 20
6.164370078740157
 30
0.0
 11
1.375
 21
6.156496062992125
 31
0.0
  0
LINE
  5
411B
330
1E
100
AcDbEntity
  8
0
100
AcDbLine
 10
1.375
 20
6.156496062992125
 30
0.0
 11
1.369094488188976
 21
6.154527559055118
 31
0.0
  0
LINE
  5
411C
330
1E
100
AcDbEntity
  8
0
100
AcDbLine
 10
1.369094488188976
 20
6.514763779527559
 30
0.0
 11
1.375
 21
6.510826771653544
 31
0.0
  0
LINE
  5
411D
330
1E
100
AcDbEntity
  8
0
100
AcDbLine
 10
1.375
 20
6.510826771653544
 30
0.0
 11
1.378937007874015
 21
6.50492125984252
 31
0.0
  0
LINE
  5
411E
330
1E
100
AcDbEntity
  8
0
100
AcDbLine
 10
-0.0639763779527556
 20
6.50492125984252
 30
0.0
 11
-0.0600393700787398
 21
6.510826771653544
 31
0.0
  0
LINE
  5
411F
330
1E
100
AcDbEntity
  8
0
100
AcDbLine
 10
-0.0600393700787398
 20
6.510826771653544
 30
0.0
 11
-0.0541338582677167
 21
6.514763779527559
 31
0.0
  0
LINE
  5
4120
330
1E
100
AcDbEntity
  8
0
100
AcDbLine
 10
2.298228346456692
 20
6.50492125984252
 30
0.0
 11
2.3001968503937
 21
6.510826771653544
 31
0.0
  0
LINE
  5
4121
330
1E
100
AcDbEntity
  8
0
100
AcDbLine
 10
2.3001968503937
 20
6.510826771653544
 30
0.0
 11
2.308070866141732
 21
6.514763779527559
 31
0.0
  0
LINE
  5
4122
330
1E
100
AcDbEntity
  8
0
100
AcDbLine
 10
2.308070866141732
 20
6.154527559055118
 30
0.0
 11
2.3001968503937
 21
6.156496062992125
 31
0.0
  0
LINE
  5
4123
330
1E
100
AcDbEntity
  8
0
100
AcDbLine
 10
2.3001968503937
 20
6.156496062992125
 30
0.0
 11
2.298228346456692
 21
6.164370078740157
 31
0.0
  0
LINE
  5
4124
330
1E
100
AcDbEntity
  8
0
100
AcDbLine
 10
3.741141732283464
 20
6.164370078740157
 30
0.0
 11
3.737204724409448
 21
6.156496062992125
 31
0.0
  0
LINE
  5
4125
330
1E
100
AcDbEntity
  8
0
100
AcDbLine
 10
3.737204724409448
 20
6.156496062992125
 30
0.0
 11
3.731299212598425
 21
6.154527559055118
 31
0.0
  0
LINE
  5
4126
330
1E
100
AcDbEntity
  8
0
100
AcDbLine
 10
3.731299212598425
 20
6.514763779527559
 30
0.0
 11
3.737204724409448
 21
6.510826771653544
 31
0.0
  0
LINE
  5
4127
330
1E
100
AcDbEntity
  8
0
100
AcDbLine
 10
3.737204724409448
 20
6.510826771653544
 30
0.0
 11
3.741141732283464
 21
6.50492125984252
 31
0.0
  0
LINE
  5
4128
330
1E
100
AcDbEntity
  8
0
100
AcDbLine
 10
4.711614173228346
 20
3.926181102362205
 30
0.0
 11
4.703740157480314
 21
3.902559055118111
 31
0.0
  0
LINE
  5
4129
330
1E
100
AcDbEntity
  8
0
100
AcDbLine
 10
4.703740157480314
 20
3.902559055118111
 30
0.0
 11
4.682086614173227
 21
3.894685039370079
 31
0.0
  0
LINE
  5
412A
330
1E
100
AcDbEntity
  8
0
100
AcDbLine
 10
4.682086614173227
 20
7.280511811023622
 30
0.0
 11
4.703740157480314
 21
7.270669291338583
 31
0.0
  0
LINE
  5
412B
330
1E
100
AcDbEntity
  8
0
100
AcDbLine
 10
4.703740157480314
 20
7.270669291338583
 30
0.0
 11
4.711614173228346
 21
7.249015748031496
 31
0.0
  0
LINE
  5
412C
330
1E
100
AcDbEntity
  8
0
100
AcDbLine
 10
-1.036417322834645
 20
7.249015748031496
 30
0.0
 11
-1.026574803149605
 21
7.270669291338583
 31
0.0
  0
LINE
  5
412D
330
1E
100
AcDbEntity
  8
0
100
AcDbLine
 10
-1.026574803149605
 20
7.270669291338583
 30
0.0
 11
-1.004921259842519
 21
7.280511811023622
 31
0.0
  0
LINE
  5
412E
330
1E
100
AcDbEntity
  8
0
100
AcDbLine
 10
-1.004921259842519
 20
3.894685039370079
 30
0.0
 11
-1.026574803149605
 21
3.902559055118111
 31
0.0
  0
LINE
  5
412F
330
1E
100
AcDbEntity
  8
0
100
AcDbLine
 10
-1.026574803149605
 20
3.902559055118111
 30
0.0
 11
-1.036417322834645
 21
3.926181102362205
 31
0.0
  0
LINE
  5
4130
330
1E
100
AcDbEntity
  8
0
100
AcDbLine
 10
2.341535433070865
 20
4.815944881889764
 30
0.0
 11
2.351377952755905
 21
4.819881889763779
 31
0.0
  0
LINE
  5
4131
330
1E
100
AcDbEntity
  8
0
100
AcDbLine
 10
2.351377952755905
 20
4.819881889763779
 30
0.0
 11
2.351377952755905
 21
4.812007874015748
 31
0.0
  0
LINE
  5
4132
330
1E
100
AcDbEntity
  8
0
100
AcDbLine
 10
2.351377952755905
 20
4.812007874015748
 30
0.0
 11
2.341535433070865
 21
4.813976377952755
 31
0.0
  0
LINE
  5
4133
330
1E
100
AcDbEntity
  8
0
100
AcDbLine
 10
2.343503937007874
 20
4.798228346456692
 30
0.0
 11
2.341535433070865
 21
4.798228346456692
 31
0.0
  0
LINE
  5
4134
330
1E
100
AcDbEntity
  8
0
100
AcDbLine
 10
2.341535433070865
 20
4.798228346456692
 30
0.0
 11
2.341535433070865
 21
4.800196850393701
 31
0.0
  0
LINE
  5
4135
330
1E
100
AcDbEntity
  8
0
100
AcDbLine
 10
3.682086614173227
 20
5.103346456692912
 30
0.0
 11
3.676181102362205
 21
5.093503937007874
 31
0.0
  0
LINE
  5
4136
330
1E
100
AcDbEntity
  8
0
100
AcDbLine
 10
3.676181102362205
 20
5.093503937007874
 30
0.0
 11
3.662401574803149
 21
5.089566929133859
 31
0.0
  0
LINE
  5
4137
330
1E
100
AcDbEntity
  8
0
100
AcDbLine
 10
3.711614173228346
 20
5.119094488188975
 30
0.0
 11
3.711614173228346
 21
5.121062992125985
 31
0.0
  0
LINE
  5
4138
330
1E
100
AcDbEntity
  8
0
100
AcDbLine
 10
3.711614173228346
 20
5.121062992125985
 30
0.0
 11
3.711614173228346
 21
5.125
 31
0.0
  0
LINE
  5
4139
330
1E
100
AcDbEntity
  8
0
100
AcDbLine
 10
3.764763779527559
 20
5.231299212598425
 30
0.0
 11
3.802165354330709
 21
5.223425196850394
 31
0.0
  0
LINE
  5
413A
330
1E
100
AcDbEntity
  8
0
100
AcDbLine
 10
3.802165354330709
 20
5.223425196850394
 30
0.0
 11
3.829724409448818
 21
5.203740157480314
 31
0.0
  0
LINE
  5
413B
330
1E
100
AcDbEntity
  8
0
100
AcDbLine
 10
3.829724409448818
 20
5.203740157480314
 30
0.0
 11
3.839566929133857
 21
5.178149606299212
 31
0.0
  0
LINE
  5
413C
330
1E
100
AcDbEntity
  8
0
100
AcDbLine
 10
3.764763779527559
 20
5.119094488188975
 30
0.0
 11
3.764763779527559
 21
5.121062992125985
 31
0.0
  0
LINE
  5
413D
330
1E
100
AcDbEntity
  8
0
100
AcDbLine
 10
3.764763779527559
 20
5.121062992125985
 30
0.0
 11
3.764763779527559
 21
5.125
 31
0.0
  0
LINE
  5
413E
330
1E
100
AcDbEntity
  8
0
100
AcDbLine
 10
3.764763779527559
 20
5.231299212598425
 30
0.0
 11
3.764763779527559
 21
5.21751968503937
 31
0.0
  0
LINE
  5
413F
330
1E
100
AcDbEntity
  8
0
100
AcDbLine
 10
3.764763779527559
 20
5.21751968503937
 30
0.0
 11
3.764763779527559
 21
5.203740157480314
 31
0.0
  0
LINE
  5
4140
330
1E
100
AcDbEntity
  8
0
100
AcDbLine
 10
3.044291338582676
 20
5.231299212598425
 30
0.0
 11
3.044291338582676
 21
5.21751968503937
 31
0.0
  0
LINE
  5
4141
330
1E
100
AcDbEntity
  8
0
100
AcDbLine
 10
3.044291338582676
 20
5.21751968503937
 30
0.0
 11
3.044291338582676
 21
5.203740157480314
 31
0.0
  0
LINE
  5
4142
330
1E
100
AcDbEntity
  8
0
100
AcDbLine
 10
3.024606299212598
 20
5.21751968503937
 30
0.0
 11
3.030511811023622
 21
5.227362204724409
 31
0.0
  0
LINE
  5
4143
330
1E
100
AcDbEntity
  8
0
100
AcDbLine
 10
3.030511811023622
 20
5.227362204724409
 30
0.0
 11
3.044291338582676
 21
5.231299212598425
 31
0.0
  0
LINE
  5
4144
330
1E
100
AcDbEntity
  8
0
100
AcDbLine
 10
3.044291338582676
 20
4.863188976377953
 30
0.0
 11
3.030511811023622
 21
4.867125984251968
 31
0.0
  0
LINE
  5
4145
330
1E
100
AcDbEntity
  8
0
100
AcDbLine
 10
3.030511811023622
 20
4.867125984251968
 30
0.0
 11
3.024606299212598
 21
4.876968503937007
 31
0.0
  0
LINE
  5
4146
330
1E
100
AcDbEntity
  8
0
100
AcDbLine
 10
3.024606299212598
 20
5.21751968503937
 30
0.0
 11
3.030511811023622
 21
5.207677165354331
 31
0.0
  0
LINE
  5
4147
330
1E
100
AcDbEntity
  8
0
100
AcDbLine
 10
3.030511811023622
 20
5.207677165354331
 30
0.0
 11
3.044291338582676
 21
5.203740157480314
 31
0.0
  0
LINE
  5
4148
330
1E
100
AcDbEntity
  8
0
100
AcDbLine
 10
3.044291338582676
 20
5.239173228346457
 30
0.0
 11
3.030511811023622
 21
5.233267716535433
 31
0.0
  0
LINE
  5
4149
330
1E
100
AcDbEntity
  8
0
100
AcDbLine
 10
3.030511811023622
 20
5.233267716535433
 30
0.0
 11
3.024606299212598
 21
5.223425196850394
 31
0.0
  0
LINE
  5
414A
330
1E
100
AcDbEntity
  8
0
100
AcDbLine
 10
3.044291338582676
 20
5.239173228346457
 30
0.0
 11
3.044291338582676
 21
5.243110236220472
 31
0.0
  0
LINE
  5
414B
330
1E
100
AcDbEntity
  8
0
100
AcDbLine
 10
3.044291338582676
 20
5.243110236220472
 30
0.0
 11
3.044291338582676
 21
5.245078740157479
 31
0.0
  0
LINE
  5
414C
330
1E
100
AcDbEntity
  8
0
100
AcDbLine
 10
3.839566929133857
 20
5.186023622047244
 30
0.0
 11
3.829724409448818
 21
5.211614173228346
 31
0.0
  0
LINE
  5
414D
330
1E
100
AcDbEntity
  8
0
100
AcDbLine
 10
3.829724409448818
 20
5.211614173228346
 30
0.0
 11
3.802165354330709
 21
5.231299212598425
 31
0.0
  0
LINE
  5
414E
330
1E
100
AcDbEntity
  8
0
100
AcDbLine
 10
3.802165354330709
 20
5.231299212598425
 30
0.0
 11
3.764763779527559
 21
5.239173228346457
 31
0.0
  0
LINE
  5
414F
330
1E
100
AcDbEntity
  8
0
100
AcDbLine
 10
3.764763779527559
 20
5.239173228346457
 30
0.0
 11
3.764763779527559
 21
5.243110236220472
 31
0.0
  0
LINE
  5
4150
330
1E
100
AcDbEntity
  8
0
100
AcDbLine
 10
3.764763779527559
 20
5.243110236220472
 30
0.0
 11
3.764763779527559
 21
5.245078740157479
 31
0.0
  0
LINE
  5
4151
330
1E
100
AcDbEntity
  8
0
100
AcDbLine
 10
3.099409448818898
 20
4.863188976377953
 30
0.0
 11
3.105314960629921
 21
4.861220472440944
 31
0.0
  0
LINE
  5
4152
330
1E
100
AcDbEntity
  8
0
100
AcDbLine
 10
3.105314960629921
 20
4.861220472440944
 30
0.0
 11
3.107283464566929
 21
4.857283464566929
 31
0.0
  0
LINE
  5
4153
330
1E
100
AcDbEntity
  8
0
100
AcDbLine
 10
3.764763779527559
 20
5.125
 30
0.0
 11
3.796259842519685
 21
5.132874015748031
 31
0.0
  0
LINE
  5
4154
330
1E
100
AcDbEntity
  8
0
100
AcDbLine
 10
3.796259842519685
 20
5.132874015748031
 30
0.0
 11
3.815944881889762
 21
5.152559055118111
 31
0.0
  0
LINE
  5
4155
330
1E
100
AcDbEntity
  8
0
100
AcDbLine
 10
3.815944881889762
 20
5.152559055118111
 30
0.0
 11
3.815944881889762
 21
5.176181102362205
 31
0.0
  0
LINE
  5
4156
330
1E
100
AcDbEntity
  8
0
100
AcDbLine
 10
3.815944881889762
 20
5.176181102362205
 30
0.0
 11
3.796259842519685
 21
5.195866141732283
 31
0.0
  0
LINE
  5
4157
330
1E
100
AcDbEntity
  8
0
100
AcDbLine
 10
3.796259842519685
 20
5.195866141732283
 30
0.0
 11
3.764763779527559
 21
5.203740157480314
 31
0.0
  0
LINE
  5
4158
330
1E
100
AcDbEntity
  8
0
100
AcDbLine
 10
3.662401574803149
 20
5.089566929133859
 30
0.0
 11
3.676181102362205
 21
5.115157480314961
 31
0.0
  0
LINE
  5
4159
330
1E
100
AcDbEntity
  8
0
100
AcDbLine
 10
3.676181102362205
 20
5.115157480314961
 30
0.0
 11
3.711614173228346
 21
5.125
 31
0.0
  0
LINE
  5
415A
330
1E
100
AcDbEntity
  8
0
100
AcDbLine
 10
3.156496062992125
 20
4.857283464566929
 30
0.0
 11
3.156496062992125
 21
4.851377952755905
 31
0.0
  0
LINE
  5
415B
330
1E
100
AcDbEntity
  8
0
100
AcDbLine
 10
3.156496062992125
 20
4.851377952755905
 30
0.0
 11
3.156496062992125
 21
4.843503937007874
 31
0.0
  0
LINE
  5
415C
330
1E
100
AcDbEntity
  8
0
100
AcDbLine
 10
3.156496062992125
 20
4.798228346456692
 30
0.0
 11
3.156496062992125
 21
4.81003937007874
 31
0.0
  0
LINE
  5
415D
330
1E
100
AcDbEntity
  8
0
100
AcDbLine
 10
3.156496062992125
 20
4.81003937007874
 30
0.0
 11
3.156496062992125
 21
4.843503937007874
 31
0.0
  0
LINE
  5
415E
330
1E
100
AcDbEntity
  8
0
100
AcDbLine
 10
3.695866141732283
 20
4.827755905511811
 30
0.0
 11
3.687992125984251
 21
4.821850393700787
 31
0.0
  0
LINE
  5
415F
330
1E
100
AcDbEntity
  8
0
100
AcDbLine
 10
3.687992125984251
 20
4.821850393700787
 30
0.0
 11
3.695866141732283
 21
4.817913385826772
 31
0.0
  0
LINE
  5
4160
330
1E
100
AcDbEntity
  8
0
100
AcDbLine
 10
3.662401574803149
 20
4.843503937007874
 30
0.0
 11
3.662401574803149
 21
4.851377952755905
 31
0.0
  0
LINE
  5
4161
330
1E
100
AcDbEntity
  8
0
100
AcDbLine
 10
3.662401574803149
 20
4.851377952755905
 30
0.0
 11
3.662401574803149
 21
4.857283464566929
 31
0.0
  0
LINE
  5
4162
330
1E
100
AcDbEntity
  8
0
100
AcDbLine
 10
3.662401574803149
 20
4.857283464566929
 30
0.0
 11
3.676181102362205
 21
4.861220472440944
 31
0.0
  0
LINE
  5
4163
330
1E
100
AcDbEntity
  8
0
100
AcDbLine
 10
3.676181102362205
 20
4.861220472440944
 30
0.0
 11
3.682086614173227
 21
4.871062992125985
 31
0.0
  0
LINE
  5
4164
330
1E
100
AcDbEntity
  8
0
100
AcDbLine
 10
3.682086614173227
 20
4.871062992125985
 30
0.0
 11
3.682086614173227
 21
4.865157480314961
 31
0.0
  0
LINE
  5
4165
330
1E
100
AcDbEntity
  8
0
100
AcDbLine
 10
3.682086614173227
 20
4.865157480314961
 30
0.0
 11
3.678149606299212
 21
4.855314960629922
 31
0.0
  0
LINE
  5
4166
330
1E
100
AcDbEntity
  8
0
100
AcDbLine
 10
3.678149606299212
 20
4.855314960629922
 30
0.0
 11
3.676181102362205
 21
4.851377952755905
 31
0.0
  0
LINE
  5
4167
330
1E
100
AcDbEntity
  8
0
100
AcDbLine
 10
3.676181102362205
 20
4.851377952755905
 30
0.0
 11
3.678149606299212
 21
4.845472440944881
 31
0.0
  0
LINE
  5
4168
330
1E
100
AcDbEntity
  8
0
100
AcDbLine
 10
3.678149606299212
 20
4.845472440944881
 30
0.0
 11
3.678149606299212
 21
4.843503937007874
 31
0.0
  0
LINE
  5
4169
330
1E
100
AcDbEntity
  8
0
100
AcDbLine
 10
3.632874015748031
 20
4.857283464566929
 30
0.0
 11
3.632874015748031
 21
4.851377952755905
 31
0.0
  0
LINE
  5
416A
330
1E
100
AcDbEntity
  8
0
100
AcDbLine
 10
3.632874015748031
 20
4.851377952755905
 30
0.0
 11
3.632874015748031
 21
4.843503937007874
 31
0.0
  0
LINE
  5
416B
330
1E
100
AcDbEntity
  8
0
100
AcDbLine
 10
3.632874015748031
 20
4.798228346456692
 30
0.0
 11
3.632874015748031
 21
4.81003937007874
 31
0.0
  0
LINE
  5
416C
330
1E
100
AcDbEntity
  8
0
100
AcDbLine
 10
3.632874015748031
 20
4.81003937007874
 30
0.0
 11
3.632874015748031
 21
4.843503937007874
 31
0.0
  0
LINE
  5
416D
330
1E
100
AcDbEntity
  8
0
100
AcDbLine
 10
3.68011811023622
 20
4.835629921259842
 30
0.0
 11
3.682086614173227
 21
4.825787401574803
 31
0.0
  0
LINE
  5
416E
330
1E
100
AcDbEntity
  8
0
100
AcDbLine
 10
3.682086614173227
 20
4.825787401574803
 30
0.0
 11
3.682086614173227
 21
4.823818897637796
 31
0.0
  0
LINE
  5
416F
330
1E
100
AcDbEntity
  8
0
100
AcDbLine
 10
3.682086614173227
 20
4.823818897637796
 30
0.0
 11
3.68011811023622
 21
4.812007874015748
 31
0.0
  0
LINE
  5
4170
330
1E
100
AcDbEntity
  8
0
100
AcDbLine
 10
3.68011811023622
 20
4.812007874015748
 30
0.0
 11
3.68011811023622
 21
4.81003937007874
 31
0.0
  0
LINE
  5
4171
330
1E
100
AcDbEntity
  8
0
100
AcDbLine
 10
3.662401574803149
 20
4.798228346456692
 30
0.0
 11
3.662401574803149
 21
4.81003937007874
 31
0.0
  0
LINE
  5
4172
330
1E
100
AcDbEntity
  8
0
100
AcDbLine
 10
3.662401574803149
 20
4.81003937007874
 30
0.0
 11
3.662401574803149
 21
4.843503937007874
 31
0.0
  0
LINE
  5
4173
330
1E
100
AcDbEntity
  8
0
100
AcDbLine
 10
3.678149606299212
 20
4.843503937007874
 30
0.0
 11
3.670275590551181
 21
4.843503937007874
 31
0.0
  0
LINE
  5
4174
330
1E
100
AcDbEntity
  8
0
100
AcDbLine
 10
3.670275590551181
 20
4.843503937007874
 30
0.0
 11
3.662401574803149
 21
4.843503937007874
 31
0.0
  0
LINE
  5
4175
330
1E
100
AcDbEntity
  8
0
100
AcDbLine
 10
3.678149606299212
 20
4.843503937007874
 30
0.0
 11
3.68011811023622
 21
4.839566929133859
 31
0.0
  0
LINE
  5
4176
330
1E
100
AcDbEntity
  8
0
100
AcDbLine
 10
3.68011811023622
 20
4.839566929133859
 30
0.0
 11
3.68011811023622
 21
4.835629921259842
 31
0.0
  0
LINE
  5
4177
330
1E
100
AcDbEntity
  8
0
100
AcDbLine
 10
3.107283464566929
 20
4.857283464566929
 30
0.0
 11
3.107283464566929
 21
4.851377952755905
 31
0.0
  0
LINE
  5
4178
330
1E
100
AcDbEntity
  8
0
100
AcDbLine
 10
3.107283464566929
 20
4.851377952755905
 30
0.0
 11
3.107283464566929
 21
4.843503937007874
 31
0.0
  0
LINE
  5
4179
330
1E
100
AcDbEntity
  8
0
100
AcDbLine
 10
3.107283464566929
 20
4.798228346456692
 30
0.0
 11
3.107283464566929
 21
4.81003937007874
 31
0.0
  0
LINE
  5
417A
330
1E
100
AcDbEntity
  8
0
100
AcDbLine
 10
3.107283464566929
 20
4.81003937007874
 30
0.0
 11
3.107283464566929
 21
4.843503937007874
 31
0.0
  0
LINE
  5
417B
330
1E
100
AcDbEntity
  8
0
100
AcDbLine
 10
2.274606299212598
 20
5.239173228346457
 30
0.0
 11
2.237204724409449
 21
5.231299212598425
 31
0.0
  0
LINE
  5
417C
330
1E
100
AcDbEntity
  8
0
100
AcDbLine
 10
2.237204724409449
 20
5.231299212598425
 30
0.0
 11
2.209645669291338
 21
5.211614173228346
 31
0.0
  0
LINE
  5
417D
330
1E
100
AcDbEntity
  8
0
100
AcDbLine
 10
2.209645669291338
 20
5.211614173228346
 30
0.0
 11
2.199803149606299
 21
5.186023622047244
 31
0.0
  0
LINE
  5
417E
330
1E
100
AcDbEntity
  8
0
100
AcDbLine
 10
2.274606299212598
 20
5.239173228346457
 30
0.0
 11
2.274606299212598
 21
5.243110236220472
 31
0.0
  0
LINE
  5
417F
330
1E
100
AcDbEntity
  8
0
100
AcDbLine
 10
2.274606299212598
 20
5.243110236220472
 30
0.0
 11
2.274606299212598
 21
5.245078740157479
 31
0.0
  0
LINE
  5
4180
330
1E
100
AcDbEntity
  8
0
100
AcDbLine
 10
2.99507874015748
 20
5.239173228346457
 30
0.0
 11
2.99507874015748
 21
5.243110236220472
 31
0.0
  0
LINE
  5
4181
330
1E
100
AcDbEntity
  8
0
100
AcDbLine
 10
2.99507874015748
 20
5.243110236220472
 30
0.0
 11
2.99507874015748
 21
5.245078740157479
 31
0.0
  0
LINE
  5
4182
330
1E
100
AcDbEntity
  8
0
100
AcDbLine
 10
3.014763779527559
 20
5.223425196850394
 30
0.0
 11
3.008858267716535
 21
5.233267716535433
 31
0.0
  0
LINE
  5
4183
330
1E
100
AcDbEntity
  8
0
100
AcDbLine
 10
3.008858267716535
 20
5.233267716535433
 30
0.0
 11
2.99507874015748
 21
5.239173228346457
 31
0.0
  0
LINE
  5
4184
330
1E
100
AcDbEntity
  8
0
100
AcDbLine
 10
3.014763779527559
 20
4.876968503937007
 30
0.0
 11
3.008858267716535
 21
4.867125984251968
 31
0.0
  0
LINE
  5
4185
330
1E
100
AcDbEntity
  8
0
100
AcDbLine
 10
3.008858267716535
 20
4.867125984251968
 30
0.0
 11
2.99507874015748
 21
4.863188976377953
 31
0.0
  0
LINE
  5
4186
330
1E
100
AcDbEntity
  8
0
100
AcDbLine
 10
3.014763779527559
 20
5.21751968503937
 30
0.0
 11
3.008858267716535
 21
5.207677165354331
 31
0.0
  0
LINE
  5
4187
330
1E
100
AcDbEntity
  8
0
100
AcDbLine
 10
3.008858267716535
 20
5.207677165354331
 30
0.0
 11
2.99507874015748
 21
5.203740157480314
 31
0.0
  0
LINE
  5
4188
330
1E
100
AcDbEntity
  8
0
100
AcDbLine
 10
2.99507874015748
 20
5.231299212598425
 30
0.0
 11
3.008858267716535
 21
5.227362204724409
 31
0.0
  0
LINE
  5
4189
330
1E
100
AcDbEntity
  8
0
100
AcDbLine
 10
3.008858267716535
 20
5.227362204724409
 30
0.0
 11
3.014763779527559
 21
5.21751968503937
 31
0.0
  0
LINE
  5
418A
330
1E
100
AcDbEntity
  8
0
100
AcDbLine
 10
2.99507874015748
 20
5.231299212598425
 30
0.0
 11
2.99507874015748
 21
5.21751968503937
 31
0.0
  0
LINE
  5
418B
330
1E
100
AcDbEntity
  8
0
100
AcDbLine
 10
2.99507874015748
 20
5.21751968503937
 30
0.0
 11
2.99507874015748
 21
5.203740157480314
 31
0.0
  0
LINE
  5
418C
330
1E
100
AcDbEntity
  8
0
100
AcDbLine
 10
2.199803149606299
 20
5.178149606299212
 30
0.0
 11
2.209645669291338
 21
5.205708661417322
 31
0.0
  0
LINE
  5
418D
330
1E
100
AcDbEntity
  8
0
100
AcDbLine
 10
2.209645669291338
 20
5.205708661417322
 30
0.0
 11
2.237204724409449
 21
5.223425196850394
 31
0.0
  0
LINE
  5
418E
330
1E
100
AcDbEntity
  8
0
100
AcDbLine
 10
2.237204724409449
 20
5.223425196850394
 30
0.0
 11
2.274606299212598
 21
5.231299212598425
 31
0.0
  0
LINE
  5
418F
330
1E
100
AcDbEntity
  8
0
100
AcDbLine
 10
2.274606299212598
 20
5.231299212598425
 30
0.0
 11
2.274606299212598
 21
5.21751968503937
 31
0.0
  0
LINE
  5
4190
330
1E
100
AcDbEntity
  8
0
100
AcDbLine
 10
2.274606299212598
 20
5.21751968503937
 30
0.0
 11
2.274606299212598
 21
5.203740157480314
 31
0.0
  0
LINE
  5
4191
330
1E
100
AcDbEntity
  8
0
100
AcDbLine
 10
2.274606299212598
 20
5.119094488188975
 30
0.0
 11
2.274606299212598
 21
5.121062992125985
 31
0.0
  0
LINE
  5
4192
330
1E
100
AcDbEntity
  8
0
100
AcDbLine
 10
2.274606299212598
 20
5.121062992125985
 30
0.0
 11
2.274606299212598
 21
5.125
 31
0.0
  0
LINE
  5
4193
330
1E
100
AcDbEntity
  8
0
100
AcDbLine
 10
2.325787401574802
 20
5.119094488188975
 30
0.0
 11
2.325787401574802
 21
5.121062992125985
 31
0.0
  0
LINE
  5
4194
330
1E
100
AcDbEntity
  8
0
100
AcDbLine
 10
2.325787401574802
 20
5.121062992125985
 30
0.0
 11
2.325787401574802
 21
5.125
 31
0.0
  0
LINE
  5
4195
330
1E
100
AcDbEntity
  8
0
100
AcDbLine
 10
2.357283464566929
 20
5.103346456692912
 30
0.0
 11
2.363188976377952
 21
5.093503937007874
 31
0.0
  0
LINE
  5
4196
330
1E
100
AcDbEntity
  8
0
100
AcDbLine
 10
2.363188976377952
 20
5.093503937007874
 30
0.0
 11
2.376968503937008
 21
5.089566929133859
 31
0.0
  0
LINE
  5
4197
330
1E
100
AcDbEntity
  8
0
100
AcDbLine
 10
2.325787401574802
 20
5.125
 30
0.0
 11
2.361220472440945
 21
5.115157480314961
 31
0.0
  0
LINE
  5
4198
330
1E
100
AcDbEntity
  8
0
100
AcDbLine
 10
2.361220472440945
 20
5.115157480314961
 30
0.0
 11
2.376968503937008
 21
5.089566929133859
 31
0.0
  0
LINE
  5
4199
330
1E
100
AcDbEntity
  8
0
100
AcDbLine
 10
2.274606299212598
 20
5.203740157480314
 30
0.0
 11
2.243110236220472
 21
5.195866141732283
 31
0.0
  0
LINE
  5
419A
330
1E
100
AcDbEntity
  8
0
100
AcDbLine
 10
2.243110236220472
 20
5.195866141732283
 30
0.0
 11
2.223425196850393
 21
5.176181102362205
 31
0.0
  0
LINE
  5
419B
330
1E
100
AcDbEntity
  8
0
100
AcDbLine
 10
2.223425196850393
 20
5.176181102362205
 30
0.0
 11
2.223425196850393
 21
5.152559055118111
 31
0.0
  0
LINE
  5
419C
330
1E
100
AcDbEntity
  8
0
100
AcDbLine
 10
2.223425196850393
 20
5.152559055118111
 30
0.0
 11
2.243110236220472
 21
5.132874015748031
 31
0.0
  0
LINE
  5
419D
330
1E
100
AcDbEntity
  8
0
100
AcDbLine
 10
2.243110236220472
 20
5.132874015748031
 30
0.0
 11
2.274606299212598
 21
5.125
 31
0.0
  0
LINE
  5
419E
330
1E
100
AcDbEntity
  8
0
100
AcDbLine
 10
2.93996062992126
 20
4.863188976377953
 30
0.0
 11
2.934055118110236
 21
4.861220472440944
 31
0.0
  0
LINE
  5
419F
330
1E
100
AcDbEntity
  8
0
100
AcDbLine
 10
2.934055118110236
 20
4.861220472440944
 30
0.0
 11
2.932086614173228
 21
4.857283464566929
 31
0.0
  0
LINE
  5
41A0
330
1E
100
AcDbEntity
  8
0
100
AcDbLine
 10
2.880905511811024
 20
4.843503937007874
 30
0.0
 11
2.880905511811024
 21
4.851377952755905
 31
0.0
  0
LINE
  5
41A1
330
1E
100
AcDbEntity
  8
0
100
AcDbLine
 10
2.880905511811024
 20
4.851377952755905
 30
0.0
 11
2.880905511811024
 21
4.857283464566929
 31
0.0
  0
LINE
  5
41A2
330
1E
100
AcDbEntity
  8
0
100
AcDbLine
 10
2.880905511811024
 20
4.843503937007874
 30
0.0
 11
2.880905511811024
 21
4.81003937007874
 31
0.0
  0
LINE
  5
41A3
330
1E
100
AcDbEntity
  8
0
100
AcDbLine
 10
2.880905511811024
 20
4.81003937007874
 30
0.0
 11
2.880905511811024
 21
4.798228346456692
 31
0.0
  0
LINE
  5
41A4
330
1E
100
AcDbEntity
  8
0
100
AcDbLine
 10
2.376968503937008
 20
4.857283464566929
 30
0.0
 11
2.363188976377952
 21
4.861220472440944
 31
0.0
  0
LINE
  5
41A5
330
1E
100
AcDbEntity
  8
0
100
AcDbLine
 10
2.363188976377952
 20
4.861220472440944
 30
0.0
 11
2.357283464566929
 21
4.871062992125985
 31
0.0
  0
LINE
  5
41A6
330
1E
100
AcDbEntity
  8
0
100
AcDbLine
 10
2.376968503937008
 20
4.857283464566929
 30
0.0
 11
2.376968503937008
 21
4.851377952755905
 31
0.0
  0
LINE
  5
41A7
330
1E
100
AcDbEntity
  8
0
100
AcDbLine
 10
2.376968503937008
 20
4.851377952755905
 30
0.0
 11
2.376968503937008
 21
4.843503937007874
 31
0.0
  0
LINE
  5
41A8
330
1E
100
AcDbEntity
  8
0
100
AcDbLine
 10
2.361220472440945
 20
4.843503937007874
 30
0.0
 11
2.361220472440945
 21
4.84744094488189
 31
0.0
  0
LINE
  5
41A9
330
1E
100
AcDbEntity
  8
0
100
AcDbLine
 10
2.361220472440945
 20
4.84744094488189
 30
0.0
 11
2.361220472440945
 21
4.853346456692912
 31
0.0
  0
LINE
  5
41AA
330
1E
100
AcDbEntity
  8
0
100
AcDbLine
 10
2.361220472440945
 20
4.853346456692912
 30
0.0
 11
2.359251968503937
 21
4.861220472440944
 31
0.0
  0
LINE
  5
41AB
330
1E
100
AcDbEntity
  8
0
100
AcDbLine
 10
2.359251968503937
 20
4.861220472440944
 30
0.0
 11
2.357283464566929
 21
4.867125984251968
 31
0.0
  0
LINE
  5
41AC
330
1E
100
AcDbEntity
  8
0
100
AcDbLine
 10
2.357283464566929
 20
4.867125984251968
 30
0.0
 11
2.357283464566929
 21
4.871062992125985
 31
0.0
  0
LINE
  5
41AD
330
1E
100
AcDbEntity
  8
0
100
AcDbLine
 10
2.361220472440945
 20
4.843503937007874
 30
0.0
 11
2.367125984251968
 21
4.843503937007874
 31
0.0
  0
LINE
  5
41AE
330
1E
100
AcDbEntity
  8
0
100
AcDbLine
 10
2.367125984251968
 20
4.843503937007874
 30
0.0
 11
2.376968503937008
 21
4.843503937007874
 31
0.0
  0
LINE
  5
41AF
330
1E
100
AcDbEntity
  8
0
100
AcDbLine
 10
2.376968503937008
 20
4.843503937007874
 30
0.0
 11
2.376968503937008
 21
4.81003937007874
 31
0.0
  0
LINE
  5
41B0
330
1E
100
AcDbEntity
  8
0
100
AcDbLine
 10
2.376968503937008
 20
4.81003937007874
 30
0.0
 11
2.376968503937008
 21
4.798228346456692
 31
0.0
  0
LINE
  5
41B1
330
1E
100
AcDbEntity
  8
0
100
AcDbLine
 10
2.361220472440945
 20
4.806102362204724
 30
0.0
 11
2.359251968503937
 21
4.808070866141733
 31
0.0
  0
LINE
  5
41B2
330
1E
100
AcDbEntity
  8
0
100
AcDbLine
 10
2.359251968503937
 20
4.808070866141733
 30
0.0
 11
2.357283464566929
 21
4.81003937007874
 31
0.0
  0
LINE
  5
41B3
330
1E
100
AcDbEntity
  8
0
100
AcDbLine
 10
2.357283464566929
 20
4.81003937007874
 30
0.0
 11
2.357283464566929
 21
4.819881889763779
 31
0.0
  0
LINE
  5
41B4
330
1E
100
AcDbEntity
  8
0
100
AcDbLine
 10
2.357283464566929
 20
4.819881889763779
 30
0.0
 11
2.357283464566929
 21
4.823818897637796
 31
0.0
  0
LINE
  5
41B5
330
1E
100
AcDbEntity
  8
0
100
AcDbLine
 10
2.357283464566929
 20
4.823818897637796
 30
0.0
 11
2.357283464566929
 21
4.833661417322835
 31
0.0
  0
LINE
  5
41B6
330
1E
100
AcDbEntity
  8
0
100
AcDbLine
 10
2.357283464566929
 20
4.833661417322835
 30
0.0
 11
2.357283464566929
 21
4.835629921259842
 31
0.0
  0
LINE
  5
41B7
330
1E
100
AcDbEntity
  8
0
100
AcDbLine
 10
2.357283464566929
 20
4.835629921259842
 30
0.0
 11
2.359251968503937
 21
4.841535433070866
 31
0.0
  0
LINE
  5
41B8
330
1E
100
AcDbEntity
  8
0
100
AcDbLine
 10
2.359251968503937
 20
4.841535433070866
 30
0.0
 11
2.361220472440945
 21
4.843503937007874
 31
0.0
  0
LINE
  5
41B9
330
1E
100
AcDbEntity
  8
0
100
AcDbLine
 10
2.406496062992125
 20
4.843503937007874
 30
0.0
 11
2.406496062992125
 21
4.81003937007874
 31
0.0
  0
LINE
  5
41BA
330
1E
100
AcDbEntity
  8
0
100
AcDbLine
 10
2.406496062992125
 20
4.81003937007874
 30
0.0
 11
2.406496062992125
 21
4.798228346456692
 31
0.0
  0
LINE
  5
41BB
330
1E
100
AcDbEntity
  8
0
100
AcDbLine
 10
2.406496062992125
 20
4.843503937007874
 30
0.0
 11
2.406496062992125
 21
4.851377952755905
 31
0.0
  0
LINE
  5
41BC
330
1E
100
AcDbEntity
  8
0
100
AcDbLine
 10
2.406496062992125
 20
4.851377952755905
 30
0.0
 11
2.406496062992125
 21
4.857283464566929
 31
0.0
  0
LINE
  5
41BD
330
1E
100
AcDbEntity
  8
0
100
AcDbLine
 10
2.932086614173228
 20
4.843503937007874
 30
0.0
 11
2.932086614173228
 21
4.851377952755905
 31
0.0
  0
LINE
  5
41BE
330
1E
100
AcDbEntity
  8
0
100
AcDbLine
 10
2.932086614173228
 20
4.851377952755905
 30
0.0
 11
2.932086614173228
 21
4.857283464566929
 31
0.0
  0
LINE
  5
41BF
330
1E
100
AcDbEntity
  8
0
100
AcDbLine
 10
3.790354330708661
 20
4.788385826771653
 30
0.0
 11
3.784448818897637
 21
4.778543307086614
 31
0.0
  0
LINE
  5
41C0
330
1E
100
AcDbEntity
  8
0
100
AcDbLine
 10
3.784448818897637
 20
4.778543307086614
 30
0.0
 11
3.768700787401574
 21
4.77263779527559
 31
0.0
  0
LINE
  5
41C1
330
1E
100
AcDbEntity
  8
0
100
AcDbLine
 10
3.788385826771653
 20
4.841535433070866
 30
0.0
 11
3.782480314960629
 21
4.841535433070866
 31
0.0
  0
LINE
  5
41C2
330
1E
100
AcDbEntity
  8
0
100
AcDbLine
 10
3.782480314960629
 20
4.841535433070866
 30
0.0
 11
3.768700787401574
 21
4.841535433070866
 31
0.0
  0
LINE
  5
41C3
330
1E
100
AcDbEntity
  8
0
100
AcDbLine
 10
2.268700787401574
 20
4.77263779527559
 30
0.0
 11
2.254921259842519
 21
4.778543307086614
 31
0.0
  0
LINE
  5
41C4
330
1E
100
AcDbEntity
  8
0
100
AcDbLine
 10
2.254921259842519
 20
4.778543307086614
 30
0.0
 11
2.249015748031496
 21
4.788385826771653
 31
0.0
  0
LINE
  5
41C5
330
1E
100
AcDbEntity
  8
0
100
AcDbLine
 10
2.270669291338582
 20
4.841535433070866
 30
0.0
 11
2.254921259842519
 21
4.841535433070866
 31
0.0
  0
LINE
  5
41C6
330
1E
100
AcDbEntity
  8
0
100
AcDbLine
 10
2.254921259842519
 20
4.841535433070866
 30
0.0
 11
2.249015748031496
 21
4.841535433070866
 31
0.0
  0
LINE
  5
41C7
330
1E
100
AcDbEntity
  8
0
100
AcDbLine
 10
3.768700787401574
 20
4.912401574803149
 30
0.0
 11
3.778543307086614
 21
4.920275590551181
 31
0.0
  0
LINE
  5
41C8
330
1E
100
AcDbEntity
  8
0
100
AcDbLine
 10
3.778543307086614
 20
4.920275590551181
 30
0.0
 11
3.784448818897637
 21
4.93011811023622
 31
0.0
  0
LINE
  5
41C9
330
1E
100
AcDbEntity
  8
0
100
AcDbLine
 10
3.784448818897637
 20
4.93011811023622
 30
0.0
 11
3.788385826771653
 21
4.939960629921259
 31
0.0
  0
LINE
  5
41CA
330
1E
100
AcDbEntity
  8
0
100
AcDbLine
 10
3.788385826771653
 20
4.939960629921259
 30
0.0
 11
3.788385826771653
 21
4.943897637795275
 31
0.0
  0
LINE
  5
41CB
330
1E
100
AcDbEntity
  8
0
100
AcDbLine
 10
2.249015748031496
 20
4.943897637795275
 30
0.0
 11
2.250984251968503
 21
4.939960629921259
 31
0.0
  0
LINE
  5
41CC
330
1E
100
AcDbEntity
  8
0
100
AcDbLine
 10
2.250984251968503
 20
4.939960629921259
 30
0.0
 11
2.252952755905512
 21
4.93011811023622
 31
0.0
  0
LINE
  5
41CD
330
1E
100
AcDbEntity
  8
0
100
AcDbLine
 10
2.252952755905512
 20
4.93011811023622
 30
0.0
 11
2.260826771653543
 21
4.920275590551181
 31
0.0
  0
LINE
  5
41CE
330
1E
100
AcDbEntity
  8
0
100
AcDbLine
 10
2.260826771653543
 20
4.920275590551181
 30
0.0
 11
2.270669291338582
 21
4.912401574803149
 31
0.0
  0
LINE
  5
41CF
330
1E
100
AcDbEntity
  8
0
100
AcDbLine
 10
3.731299212598425
 20
5.386811023622048
 30
0.0
 11
3.762795275590551
 21
5.376968503937007
 31
0.0
  0
LINE
  5
41D0
330
1E
100
AcDbEntity
  8
0
100
AcDbLine
 10
3.762795275590551
 20
5.376968503937007
 30
0.0
 11
3.776574803149605
 21
5.355314960629922
 31
0.0
  0
LINE
  5
41D1
330
1E
100
AcDbEntity
  8
0
100
AcDbLine
 10
3.731299212598425
 20
5.25492125984252
 30
0.0
 11
3.762795275590551
 21
5.264763779527559
 31
0.0
  0
LINE
  5
41D2
330
1E
100
AcDbEntity
  8
0
100
AcDbLine
 10
3.762795275590551
 20
5.264763779527559
 30
0.0
 11
3.776574803149605
 21
5.286417322834646
 31
0.0
  0
LINE
  5
41D3
330
1E
100
AcDbEntity
  8
0
100
AcDbLine
 10
2.306102362204724
 20
5.25492125984252
 30
0.0
 11
2.274606299212598
 21
5.264763779527559
 31
0.0
  0
LINE
  5
41D4
330
1E
100
AcDbEntity
  8
0
100
AcDbLine
 10
2.274606299212598
 20
5.264763779527559
 30
0.0
 11
2.260826771653543
 21
5.286417322834646
 31
0.0
  0
LINE
  5
41D5
330
1E
100
AcDbEntity
  8
0
100
AcDbLine
 10
2.306102362204724
 20
5.386811023622048
 30
0.0
 11
2.274606299212598
 21
5.376968503937007
 31
0.0
  0
LINE
  5
41D6
330
1E
100
AcDbEntity
  8
0
100
AcDbLine
 10
2.274606299212598
 20
5.376968503937007
 30
0.0
 11
2.260826771653543
 21
5.355314960629922
 31
0.0
  0
LINE
  5
41D7
330
1E
100
AcDbEntity
  8
0
100
AcDbLine
 10
3.695866141732283
 20
4.841535433070866
 30
0.0
 11
3.699803149606299
 21
4.841535433070866
 31
0.0
  0
LINE
  5
41D8
330
1E
100
AcDbEntity
  8
0
100
AcDbLine
 10
3.699803149606299
 20
4.841535433070866
 30
0.0
 11
3.705708661417322
 21
4.841535433070866
 31
0.0
  0
LINE
  5
41D9
330
1E
100
AcDbEntity
  8
0
100
AcDbLine
 10
3.69783464566929
 20
4.780511811023622
 30
0.0
 11
3.699803149606299
 21
4.774606299212598
 31
0.0
  0
LINE
  5
41DA
330
1E
100
AcDbEntity
  8
0
100
AcDbLine
 10
3.699803149606299
 20
4.774606299212598
 30
0.0
 11
3.707677165354331
 21
4.77263779527559
 31
0.0
  0
LINE
  5
41DB
330
1E
100
AcDbEntity
  8
0
100
AcDbLine
 10
2.331692913385826
 20
4.841535433070866
 30
0.0
 11
2.339566929133858
 21
4.841535433070866
 31
0.0
  0
LINE
  5
41DC
330
1E
100
AcDbEntity
  8
0
100
AcDbLine
 10
2.339566929133858
 20
4.841535433070866
 30
0.0
 11
2.341535433070865
 21
4.841535433070866
 31
0.0
  0
LINE
  5
41DD
330
1E
100
AcDbEntity
  8
0
100
AcDbLine
 10
2.331692913385826
 20
4.77263779527559
 30
0.0
 11
2.33759842519685
 21
4.774606299212598
 31
0.0
  0
LINE
  5
41DE
330
1E
100
AcDbEntity
  8
0
100
AcDbLine
 10
2.33759842519685
 20
4.774606299212598
 30
0.0
 11
2.341535433070865
 21
4.780511811023622
 31
0.0
  0
LINE
  5
41DF
330
1E
100
AcDbEntity
  8
0
100
AcDbLine
 10
3.731299212598425
 20
5.25492125984252
 30
0.0
 11
3.731299212598425
 21
5.286417322834646
 31
0.0
  0
LINE
  5
41E0
330
1E
100
AcDbEntity
  8
0
100
AcDbLine
 10
3.731299212598425
 20
5.286417322834646
 30
0.0
 11
3.731299212598425
 21
5.321850393700787
 31
0.0
  0
LINE
  5
41E1
330
1E
100
AcDbEntity
  8
0
100
AcDbLine
 10
3.731299212598425
 20
5.321850393700787
 30
0.0
 11
3.731299212598425
 21
5.357283464566929
 31
0.0
  0
LINE
  5
41E2
330
1E
100
AcDbEntity
  8
0
100
AcDbLine
 10
3.731299212598425
 20
5.357283464566929
 30
0.0
 11
3.731299212598425
 21
5.386811023622048
 31
0.0
  0
LINE
  5
41E3
330
1E
100
AcDbEntity
  8
0
100
AcDbLine
 10
2.306102362204724
 20
5.386811023622048
 30
0.0
 11
2.308070866141732
 21
5.357283464566929
 31
0.0
  0
LINE
  5
41E4
330
1E
100
AcDbEntity
  8
0
100
AcDbLine
 10
2.308070866141732
 20
5.357283464566929
 30
0.0
 11
2.308070866141732
 21
5.321850393700787
 31
0.0
  0
LINE
  5
41E5
330
1E
100
AcDbEntity
  8
0
100
AcDbLine
 10
2.308070866141732
 20
5.321850393700787
 30
0.0
 11
2.308070866141732
 21
5.286417322834646
 31
0.0
  0
LINE
  5
41E6
330
1E
100
AcDbEntity
  8
0
100
AcDbLine
 10
2.308070866141732
 20
5.286417322834646
 30
0.0
 11
2.306102362204724
 21
5.25492125984252
 31
0.0
  0
LINE
  5
41E7
330
1E
100
AcDbEntity
  8
0
100
AcDbLine
 10
2.258858267716535
 20
5.121062992125985
 30
0.0
 11
2.274606299212598
 21
5.103346456692912
 31
0.0
  0
LINE
  5
41E8
330
1E
100
AcDbEntity
  8
0
100
AcDbLine
 10
2.274606299212598
 20
5.103346456692912
 30
0.0
 11
2.302165354330708
 21
5.09744094488189
 31
0.0
  0
LINE
  5
41E9
330
1E
100
AcDbEntity
  8
0
100
AcDbLine
 10
2.341535433070865
 20
4.841535433070866
 30
0.0
 11
2.341535433070865
 21
4.808070866141733
 31
0.0
  0
LINE
  5
41EA
330
1E
100
AcDbEntity
  8
0
100
AcDbLine
 10
2.341535433070865
 20
4.808070866141733
 30
0.0
 11
2.341535433070865
 21
4.780511811023622
 31
0.0
  0
LINE
  5
41EB
330
1E
100
AcDbEntity
  8
0
100
AcDbLine
 10
2.264763779527559
 20
4.674212598425196
 30
0.0
 11
2.250984251968503
 21
4.674212598425196
 31
0.0
  0
LINE
  5
41EC
330
1E
100
AcDbEntity
  8
0
100
AcDbLine
 10
2.250984251968503
 20
4.674212598425196
 30
0.0
 11
2.24507874015748
 21
4.674212598425196
 31
0.0
  0
LINE
  5
41ED
330
1E
100
AcDbEntity
  8
0
100
AcDbLine
 10
2.331692913385826
 20
4.77263779527559
 30
0.0
 11
2.331692913385826
 21
4.804133858267716
 31
0.0
  0
LINE
  5
41EE
330
1E
100
AcDbEntity
  8
0
100
AcDbLine
 10
2.331692913385826
 20
4.804133858267716
 30
0.0
 11
2.331692913385826
 21
4.841535433070866
 31
0.0
  0
LINE
  5
41EF
330
1E
100
AcDbEntity
  8
0
100
AcDbLine
 10
2.270669291338582
 20
4.841535433070866
 30
0.0
 11
2.268700787401574
 21
4.804133858267716
 31
0.0
  0
LINE
  5
41F0
330
1E
100
AcDbEntity
  8
0
100
AcDbLine
 10
2.268700787401574
 20
4.804133858267716
 30
0.0
 11
2.268700787401574
 21
4.77263779527559
 31
0.0
  0
LINE
  5
41F1
330
1E
100
AcDbEntity
  8
0
100
AcDbLine
 10
3.737204724409448
 20
5.09744094488189
 30
0.0
 11
3.764763779527559
 21
5.103346456692912
 31
0.0
  0
LINE
  5
41F2
330
1E
100
AcDbEntity
  8
0
100
AcDbLine
 10
3.764763779527559
 20
5.103346456692912
 30
0.0
 11
3.780511811023622
 21
5.121062992125985
 31
0.0
  0
LINE
  5
41F3
330
1E
100
AcDbEntity
  8
0
100
AcDbLine
 10
3.69783464566929
 20
4.780511811023622
 30
0.0
 11
3.69783464566929
 21
4.808070866141733
 31
0.0
  0
LINE
  5
41F4
330
1E
100
AcDbEntity
  8
0
100
AcDbLine
 10
3.69783464566929
 20
4.808070866141733
 30
0.0
 11
3.695866141732283
 21
4.841535433070866
 31
0.0
  0
LINE
  5
41F5
330
1E
100
AcDbEntity
  8
0
100
AcDbLine
 10
3.794291338582677
 20
4.674212598425196
 30
0.0
 11
3.786417322834646
 21
4.674212598425196
 31
0.0
  0
LINE
  5
41F6
330
1E
100
AcDbEntity
  8
0
100
AcDbLine
 10
3.786417322834646
 20
4.674212598425196
 30
0.0
 11
3.77263779527559
 21
4.674212598425196
 31
0.0
  0
LINE
  5
41F7
330
1E
100
AcDbEntity
  8
0
100
AcDbLine
 10
3.705708661417322
 20
4.841535433070866
 30
0.0
 11
3.707677165354331
 21
4.804133858267716
 31
0.0
  0
LINE
  5
41F8
330
1E
100
AcDbEntity
  8
0
100
AcDbLine
 10
3.707677165354331
 20
4.804133858267716
 30
0.0
 11
3.707677165354331
 21
4.77263779527559
 31
0.0
  0
LINE
  5
41F9
330
1E
100
AcDbEntity
  8
0
100
AcDbLine
 10
3.768700787401574
 20
4.77263779527559
 30
0.0
 11
3.768700787401574
 21
4.804133858267716
 31
0.0
  0
LINE
  5
41FA
330
1E
100
AcDbEntity
  8
0
100
AcDbLine
 10
3.768700787401574
 20
4.804133858267716
 30
0.0
 11
3.768700787401574
 21
4.841535433070866
 31
0.0
  0
LINE
  5
41FB
330
1E
100
AcDbEntity
  8
0
100
AcDbLine
 10
3.778543307086614
 20
5.249015748031496
 30
0.0
 11
3.770669291338583
 21
5.250984251968503
 31
0.0
  0
LINE
  5
41FC
330
1E
100
AcDbEntity
  8
0
100
AcDbLine
 10
3.770669291338583
 20
5.250984251968503
 30
0.0
 11
3.75492125984252
 21
5.250984251968503
 31
0.0
  0
LINE
  5
41FD
330
1E
100
AcDbEntity
  8
0
100
AcDbLine
 10
3.75492125984252
 20
5.250984251968503
 30
0.0
 11
3.731299212598425
 21
5.252952755905512
 31
0.0
  0
LINE
  5
41FE
330
1E
100
AcDbEntity
  8
0
100
AcDbLine
 10
2.306102362204724
 20
5.252952755905512
 30
0.0
 11
2.284448818897637
 21
5.250984251968503
 31
0.0
  0
LINE
  5
41FF
330
1E
100
AcDbEntity
  8
0
100
AcDbLine
 10
2.284448818897637
 20
5.250984251968503
 30
0.0
 11
2.266732283464566
 21
5.250984251968503
 31
0.0
  0
LINE
  5
4200
330
1E
100
AcDbEntity
  8
0
100
AcDbLine
 10
2.266732283464566
 20
5.250984251968503
 30
0.0
 11
2.260826771653543
 21
5.249015748031496
 31
0.0
  0
LINE
  5
4201
330
1E
100
AcDbEntity
  8
0
100
AcDbLine
 10
2.932086614173228
 20
4.857283464566929
 30
0.0
 11
2.932086614173228
 21
4.831692913385827
 31
0.0
  0
LINE
  5
4202
330
1E
100
AcDbEntity
  8
0
100
AcDbLine
 10
2.932086614173228
 20
4.831692913385827
 30
0.0
 11
2.932086614173228
 21
4.81003937007874
 31
0.0
  0
LINE
  5
4203
330
1E
100
AcDbEntity
  8
0
100
AcDbLine
 10
2.932086614173228
 20
4.81003937007874
 30
0.0
 11
2.932086614173228
 21
4.800196850393701
 31
0.0
  0
LINE
  5
4204
330
1E
100
AcDbEntity
  8
0
100
AcDbLine
 10
2.932086614173228
 20
4.800196850393701
 30
0.0
 11
2.932086614173228
 21
4.796259842519685
 31
0.0
  0
LINE
  5
4205
330
1E
100
AcDbEntity
  8
0
100
AcDbLine
 10
3.107283464566929
 20
4.81003937007874
 30
0.0
 11
3.107283464566929
 21
4.800196850393701
 31
0.0
  0
LINE
  5
4206
330
1E
100
AcDbEntity
  8
0
100
AcDbLine
 10
3.107283464566929
 20
4.800196850393701
 30
0.0
 11
3.107283464566929
 21
4.796259842519685
 31
0.0
  0
LINE
  5
4207
330
1E
100
AcDbEntity
  8
0
100
AcDbLine
 10
3.107283464566929
 20
4.857283464566929
 30
0.0
 11
3.107283464566929
 21
4.831692913385827
 31
0.0
  0
LINE
  5
4208
330
1E
100
AcDbEntity
  8
0
100
AcDbLine
 10
3.107283464566929
 20
4.831692913385827
 30
0.0
 11
3.107283464566929
 21
4.81003937007874
 31
0.0
  0
LINE
  5
4209
330
1E
100
AcDbEntity
  8
0
100
AcDbLine
 10
3.776574803149605
 20
5.355314960629922
 30
0.0
 11
3.776574803149605
 21
5.333661417322835
 31
0.0
  0
LINE
  5
420A
330
1E
100
AcDbEntity
  8
0
100
AcDbLine
 10
3.776574803149605
 20
5.333661417322835
 30
0.0
 11
3.776574803149605
 21
5.308070866141733
 31
0.0
  0
LINE
  5
420B
330
1E
100
AcDbEntity
  8
0
100
AcDbLine
 10
3.776574803149605
 20
5.308070866141733
 30
0.0
 11
3.776574803149605
 21
5.286417322834646
 31
0.0
  0
LINE
  5
420C
330
1E
100
AcDbEntity
  8
0
100
AcDbLine
 10
3.788385826771653
 20
4.841535433070866
 30
0.0
 11
3.788385826771653
 21
4.812007874015748
 31
0.0
  0
LINE
  5
420D
330
1E
100
AcDbEntity
  8
0
100
AcDbLine
 10
3.788385826771653
 20
4.812007874015748
 30
0.0
 11
3.790354330708661
 21
4.788385826771653
 31
0.0
  0
LINE
  5
420E
330
1E
100
AcDbEntity
  8
0
100
AcDbLine
 10
3.695866141732283
 20
4.774606299212598
 30
0.0
 11
3.695866141732283
 21
4.782480314960629
 31
0.0
  0
LINE
  5
420F
330
1E
100
AcDbEntity
  8
0
100
AcDbLine
 10
3.695866141732283
 20
4.782480314960629
 30
0.0
 11
3.695866141732283
 21
4.802165354330709
 31
0.0
  0
LINE
  5
4210
330
1E
100
AcDbEntity
  8
0
100
AcDbLine
 10
3.695866141732283
 20
4.802165354330709
 30
0.0
 11
3.695866141732283
 21
4.829724409448818
 31
0.0
  0
LINE
  5
4211
330
1E
100
AcDbEntity
  8
0
100
AcDbLine
 10
3.695866141732283
 20
4.829724409448818
 30
0.0
 11
3.693897637795275
 21
4.861220472440944
 31
0.0
  0
LINE
  5
4212
330
1E
100
AcDbEntity
  8
0
100
AcDbLine
 10
3.693897637795275
 20
4.861220472440944
 30
0.0
 11
3.693897637795275
 21
4.888779527559055
 31
0.0
  0
LINE
  5
4213
330
1E
100
AcDbEntity
  8
0
100
AcDbLine
 10
3.693897637795275
 20
4.888779527559055
 30
0.0
 11
3.691929133858268
 21
4.904527559055118
 31
0.0
  0
LINE
  5
4214
330
1E
100
AcDbEntity
  8
0
100
AcDbLine
 10
2.343503937007874
 20
4.774606299212598
 30
0.0
 11
2.341535433070865
 21
4.782480314960629
 31
0.0
  0
LINE
  5
4215
330
1E
100
AcDbEntity
  8
0
100
AcDbLine
 10
2.341535433070865
 20
4.782480314960629
 30
0.0
 11
2.341535433070865
 21
4.802165354330709
 31
0.0
  0
LINE
  5
4216
330
1E
100
AcDbEntity
  8
0
100
AcDbLine
 10
2.341535433070865
 20
4.802165354330709
 30
0.0
 11
2.343503937007874
 21
4.829724409448818
 31
0.0
  0
LINE
  5
4217
330
1E
100
AcDbEntity
  8
0
100
AcDbLine
 10
2.343503937007874
 20
4.829724409448818
 30
0.0
 11
2.343503937007874
 21
4.861220472440944
 31
0.0
  0
LINE
  5
4218
330
1E
100
AcDbEntity
  8
0
100
AcDbLine
 10
2.343503937007874
 20
4.861220472440944
 30
0.0
 11
2.345472440944882
 21
4.888779527559055
 31
0.0
  0
LINE
  5
4219
330
1E
100
AcDbEntity
  8
0
100
AcDbLine
 10
2.345472440944882
 20
4.888779527559055
 30
0.0
 11
2.347440944881889
 21
4.904527559055118
 31
0.0
  0
LINE
  5
421A
330
1E
100
AcDbEntity
  8
0
100
AcDbLine
 10
2.260826771653543
 20
5.286417322834646
 30
0.0
 11
2.26279527559055
 21
5.308070866141733
 31
0.0
  0
LINE
  5
421B
330
1E
100
AcDbEntity
  8
0
100
AcDbLine
 10
2.26279527559055
 20
5.308070866141733
 30
0.0
 11
2.26279527559055
 21
5.333661417322835
 31
0.0
  0
LINE
  5
421C
330
1E
100
AcDbEntity
  8
0
100
AcDbLine
 10
2.26279527559055
 20
5.333661417322835
 30
0.0
 11
2.260826771653543
 21
5.355314960629922
 31
0.0
  0
LINE
  5
421D
330
1E
100
AcDbEntity
  8
0
100
AcDbLine
 10
2.249015748031496
 20
4.788385826771653
 30
0.0
 11
2.249015748031496
 21
4.812007874015748
 31
0.0
  0
LINE
  5
421E
330
1E
100
AcDbEntity
  8
0
100
AcDbLine
 10
2.249015748031496
 20
4.812007874015748
 30
0.0
 11
2.249015748031496
 21
4.841535433070866
 31
0.0
  0
LINE
  5
421F
330
1E
100
AcDbEntity
  8
0
100
AcDbLine
 10
3.750984251968503
 20
5.908464566929133
 30
0.0
 11
3.77263779527559
 21
5.898622047244094
 31
0.0
  0
LINE
  5
4220
330
1E
100
AcDbEntity
  8
0
100
AcDbLine
 10
3.77263779527559
 20
5.898622047244094
 30
0.0
 11
3.788385826771653
 21
5.876968503937007
 31
0.0
  0
LINE
  5
4221
330
1E
100
AcDbEntity
  8
0
100
AcDbLine
 10
3.788385826771653
 20
5.876968503937007
 30
0.0
 11
3.794291338582677
 21
5.845472440944881
 31
0.0
  0
LINE
  5
4222
330
1E
100
AcDbEntity
  8
0
100
AcDbLine
 10
2.24507874015748
 20
5.845472440944881
 30
0.0
 11
2.250984251968503
 21
5.876968503937007
 31
0.0
  0
LINE
  5
4223
330
1E
100
AcDbEntity
  8
0
100
AcDbLine
 10
2.250984251968503
 20
5.876968503937007
 30
0.0
 11
2.266732283464566
 21
5.898622047244094
 31
0.0
  0
LINE
  5
4224
330
1E
100
AcDbEntity
  8
0
100
AcDbLine
 10
2.266732283464566
 20
5.898622047244094
 30
0.0
 11
2.288385826771653
 21
5.908464566929133
 31
0.0
  0
LINE
  5
4225
330
1E
100
AcDbEntity
  8
0
100
AcDbLine
 10
-0.018700787401575
 20
4.815944881889764
 30
0.0
 11
-0.0108267716535435
 21
4.819881889763779
 31
0.0
  0
LINE
  5
4226
330
1E
100
AcDbEntity
  8
0
100
AcDbLine
 10
-0.0108267716535435
 20
4.819881889763779
 30
0.0
 11
-0.0108267716535435
 21
4.812007874015748
 31
0.0
  0
LINE
  5
4227
330
1E
100
AcDbEntity
  8
0
100
AcDbLine
 10
-0.0108267716535435
 20
4.812007874015748
 30
0.0
 11
-0.018700787401575
 21
4.813976377952755
 31
0.0
  0
LINE
  5
4228
330
1E
100
AcDbEntity
  8
0
100
AcDbLine
 10
-0.018700787401575
 20
4.794291338582677
 30
0.0
 11
-0.0206692913385824
 21
4.794291338582677
 31
0.0
  0
LINE
  5
4229
330
1E
100
AcDbEntity
  8
0
100
AcDbLine
 10
-0.0206692913385824
 20
4.794291338582677
 30
0.0
 11
-0.0206692913385824
 21
4.796259842519685
 31
0.0
  0
LINE
  5
422A
330
1E
100
AcDbEntity
  8
0
100
AcDbLine
 10
1.319881889763779
 20
5.103346456692912
 30
0.0
 11
1.313976377952755
 21
5.093503937007874
 31
0.0
  0
LINE
  5
422B
330
1E
100
AcDbEntity
  8
0
100
AcDbLine
 10
1.313976377952755
 20
5.093503937007874
 30
0.0
 11
1.3001968503937
 21
5.089566929133859
 31
0.0
  0
LINE
  5
422C
330
1E
100
AcDbEntity
  8
0
100
AcDbLine
 10
1.349409448818898
 20
5.119094488188975
 30
0.0
 11
1.349409448818898
 21
5.121062992125985
 31
0.0
  0
LINE
  5
422D
330
1E
100
AcDbEntity
  8
0
100
AcDbLine
 10
1.349409448818898
 20
5.121062992125985
 30
0.0
 11
1.349409448818898
 21
5.125
 31
0.0
  0
LINE
  5
422E
330
1E
100
AcDbEntity
  8
0
100
AcDbLine
 10
1.40255905511811
 20
5.231299212598425
 30
0.0
 11
1.43996062992126
 21
5.223425196850394
 31
0.0
  0
LINE
  5
422F
330
1E
100
AcDbEntity
  8
0
100
AcDbLine
 10
1.43996062992126
 20
5.223425196850394
 30
0.0
 11
1.46751968503937
 21
5.203740157480314
 31
0.0
  0
LINE
  5
4230
330
1E
100
AcDbEntity
  8
0
100
AcDbLine
 10
1.46751968503937
 20
5.203740157480314
 30
0.0
 11
1.477362204724409
 21
5.178149606299212
 31
0.0
  0
LINE
  5
4231
330
1E
100
AcDbEntity
  8
0
100
AcDbLine
 10
1.40255905511811
 20
5.119094488188975
 30
0.0
 11
1.40255905511811
 21
5.121062992125985
 31
0.0
  0
LINE
  5
4232
330
1E
100
AcDbEntity
  8
0
100
AcDbLine
 10
1.40255905511811
 20
5.121062992125985
 30
0.0
 11
1.40255905511811
 21
5.125
 31
0.0
  0
LINE
  5
4233
330
1E
100
AcDbEntity
  8
0
100
AcDbLine
 10
1.40255905511811
 20
5.231299212598425
 30
0.0
 11
1.40255905511811
 21
5.21751968503937
 31
0.0
  0
LINE
  5
4234
330
1E
100
AcDbEntity
  8
0
100
AcDbLine
 10
1.40255905511811
 20
5.21751968503937
 30
0.0
 11
1.40255905511811
 21
5.203740157480314
 31
0.0
  0
LINE
  5
4235
330
1E
100
AcDbEntity
  8
0
100
AcDbLine
 10
0.6820866141732287
 20
5.231299212598425
 30
0.0
 11
0.6820866141732287
 21
5.21751968503937
 31
0.0
  0
LINE
  5
4236
330
1E
100
AcDbEntity
  8
0
100
AcDbLine
 10
0.6820866141732287
 20
5.21751968503937
 30
0.0
 11
0.6820866141732287
 21
5.203740157480314
 31
0.0
  0
LINE
  5
4237
330
1E
100
AcDbEntity
  8
0
100
AcDbLine
 10
0.66240157480315
 20
5.21751968503937
 30
0.0
 11
0.6683070866141732
 21
5.227362204724409
 31
0.0
  0
LINE
  5
4238
330
1E
100
AcDbEntity
  8
0
100
AcDbLine
 10
0.6683070866141732
 20
5.227362204724409
 30
0.0
 11
0.6820866141732287
 21
5.231299212598425
 31
0.0
  0
LINE
  5
4239
330
1E
100
AcDbEntity
  8
0
100
AcDbLine
 10
0.6820866141732287
 20
4.863188976377953
 30
0.0
 11
0.6683070866141732
 21
4.867125984251968
 31
0.0
  0
LINE
  5
423A
330
1E
100
AcDbEntity
  8
0
100
AcDbLine
 10
0.6683070866141732
 20
4.867125984251968
 30
0.0
 11
0.66240157480315
 21
4.876968503937007
 31
0.0
  0
LINE
  5
423B
330
1E
100
AcDbEntity
  8
0
100
AcDbLine
 10
0.66240157480315
 20
5.21751968503937
 30
0.0
 11
0.6683070866141732
 21
5.207677165354331
 31
0.0
  0
LINE
  5
423C
330
1E
100
AcDbEntity
  8
0
100
AcDbLine
 10
0.6683070866141732
 20
5.207677165354331
 30
0.0
 11
0.6820866141732287
 21
5.203740157480314
 31
0.0
  0
LINE
  5
423D
330
1E
100
AcDbEntity
  8
0
100
AcDbLine
 10
0.6820866141732287
 20
5.239173228346457
 30
0.0
 11
0.6683070866141732
 21
5.233267716535433
 31
0.0
  0
LINE
  5
423E
330
1E
100
AcDbEntity
  8
0
100
AcDbLine
 10
0.6683070866141732
 20
5.233267716535433
 30
0.0
 11
0.66240157480315
 21
5.223425196850394
 31
0.0
  0
LINE
  5
423F
330
1E
100
AcDbEntity
  8
0
100
AcDbLine
 10
0.6820866141732287
 20
5.239173228346457
 30
0.0
 11
0.6820866141732287
 21
5.243110236220472
 31
0.0
  0
LINE
  5
4240
330
1E
100
AcDbEntity
  8
0
100
AcDbLine
 10
0.6820866141732287
 20
5.243110236220472
 30
0.0
 11
0.6820866141732287
 21
5.245078740157479
 31
0.0
  0
LINE
  5
4241
330
1E
100
AcDbEntity
  8
0
100
AcDbLine
 10
1.477362204724409
 20
5.186023622047244
 30
0.0
 11
1.46751968503937
 21
5.211614173228346
 31
0.0
  0
LINE
  5
4242
330
1E
100
AcDbEntity
  8
0
100
AcDbLine
 10
1.46751968503937
 20
5.211614173228346
 30
0.0
 11
1.43996062992126
 21
5.231299212598425
 31
0.0
  0
LINE
  5
4243
330
1E
100
AcDbEntity
  8
0
100
AcDbLine
 10
1.43996062992126
 20
5.231299212598425
 30
0.0
 11
1.40255905511811
 21
5.239173228346457
 31
0.0
  0
LINE
  5
4244
330
1E
100
AcDbEntity
  8
0
100
AcDbLine
 10
1.40255905511811
 20
5.239173228346457
 30
0.0
 11
1.40255905511811
 21
5.243110236220472
 31
0.0
  0
LINE
  5
4245
330
1E
100
AcDbEntity
  8
0
100
AcDbLine
 10
1.40255905511811
 20
5.243110236220472
 30
0.0
 11
1.40255905511811
 21
5.245078740157479
 31
0.0
  0
LINE
  5
4246
330
1E
100
AcDbEntity
  8
0
100
AcDbLine
 10
0.7372047244094491
 20
4.863188976377953
 30
0.0
 11
0.7431102362204723
 21
4.861220472440944
 31
0.0
  0
LINE
  5
4247
330
1E
100
AcDbEntity
  8
0
100
AcDbLine
 10
0.7431102362204723
 20
4.861220472440944
 30
0.0
 11
0.7450787401574806
 21
4.857283464566929
 31
0.0
  0
LINE
  5
4248
330
1E
100
AcDbEntity
  8
0
100
AcDbLine
 10
1.40255905511811
 20
5.125
 30
0.0
 11
1.434055118110236
 21
5.132874015748031
 31
0.0
  0
LINE
  5
4249
330
1E
100
AcDbEntity
  8
0
100
AcDbLine
 10
1.434055118110236
 20
5.132874015748031
 30
0.0
 11
1.453740157480314
 21
5.152559055118111
 31
0.0
  0
LINE
  5
424A
330
1E
100
AcDbEntity
  8
0
100
AcDbLine
 10
1.453740157480314
 20
5.152559055118111
 30
0.0
 11
1.453740157480314
 21
5.176181102362205
 31
0.0
  0
LINE
  5
424B
330
1E
100
AcDbEntity
  8
0
100
AcDbLine
 10
1.453740157480314
 20
5.176181102362205
 30
0.0
 11
1.434055118110236
 21
5.195866141732283
 31
0.0
  0
LINE
  5
424C
330
1E
100
AcDbEntity
  8
0
100
AcDbLine
 10
1.434055118110236
 20
5.195866141732283
 30
0.0
 11
1.40255905511811
 21
5.203740157480314
 31
0.0
  0
LINE
  5
424D
330
1E
100
AcDbEntity
  8
0
100
AcDbLine
 10
1.3001968503937
 20
5.089566929133859
 30
0.0
 11
1.313976377952755
 21
5.115157480314961
 31
0.0
  0
LINE
  5
424E
330
1E
100
AcDbEntity
  8
0
100
AcDbLine
 10
1.313976377952755
 20
5.115157480314961
 30
0.0
 11
1.349409448818898
 21
5.125
 31
0.0
  0
LINE
  5
424F
330
1E
100
AcDbEntity
  8
0
100
AcDbLine
 10
0.7942913385826769
 20
4.857283464566929
 30
0.0
 11
0.7942913385826769
 21
4.851377952755905
 31
0.0
  0
LINE
  5
4250
330
1E
100
AcDbEntity
  8
0
100
AcDbLine
 10
0.7942913385826769
 20
4.851377952755905
 30
0.0
 11
0.7942913385826769
 21
4.843503937007874
 31
0.0
  0
LINE
  5
4251
330
1E
100
AcDbEntity
  8
0
100
AcDbLine
 10
0.7942913385826769
 20
4.798228346456692
 30
0.0
 11
0.7942913385826769
 21
4.81003937007874
 31
0.0
  0
LINE
  5
4252
330
1E
100
AcDbEntity
  8
0
100
AcDbLine
 10
0.7942913385826769
 20
4.81003937007874
 30
0.0
 11
0.7942913385826769
 21
4.843503937007874
 31
0.0
  0
LINE
  5
4253
330
1E
100
AcDbEntity
  8
0
100
AcDbLine
 10
1.333661417322834
 20
4.827755905511811
 30
0.0
 11
1.327755905511811
 21
4.821850393700787
 31
0.0
  0
LINE
  5
4254
330
1E
100
AcDbEntity
  8
0
100
AcDbLine
 10
1.327755905511811
 20
4.821850393700787
 30
0.0
 11
1.333661417322834
 21
4.817913385826772
 31
0.0
  0
LINE
  5
4255
330
1E
100
AcDbEntity
  8
0
100
AcDbLine
 10
1.3001968503937
 20
4.843503937007874
 30
0.0
 11
1.3001968503937
 21
4.851377952755905
 31
0.0
  0
LINE
  5
4256
330
1E
100
AcDbEntity
  8
0
100
AcDbLine
 10
1.3001968503937
 20
4.851377952755905
 30
0.0
 11
1.3001968503937
 21
4.857283464566929
 31
0.0
  0
LINE
  5
4257
330
1E
100
AcDbEntity
  8
0
100
AcDbLine
 10
1.3001968503937
 20
4.857283464566929
 30
0.0
 11
1.313976377952755
 21
4.861220472440944
 31
0.0
  0
LINE
  5
4258
330
1E
100
AcDbEntity
  8
0
100
AcDbLine
 10
1.313976377952755
 20
4.861220472440944
 30
0.0
 11
1.319881889763779
 21
4.871062992125985
 31
0.0
  0
LINE
  5
4259
330
1E
100
AcDbEntity
  8
0
100
AcDbLine
 10
1.319881889763779
 20
4.871062992125985
 30
0.0
 11
1.319881889763779
 21
4.865157480314961
 31
0.0
  0
LINE
  5
425A
330
1E
100
AcDbEntity
  8
0
100
AcDbLine
 10
1.319881889763779
 20
4.865157480314961
 30
0.0
 11
1.315944881889763
 21
4.855314960629922
 31
0.0
  0
LINE
  5
425B
330
1E
100
AcDbEntity
  8
0
100
AcDbLine
 10
1.315944881889763
 20
4.855314960629922
 30
0.0
 11
1.313976377952755
 21
4.851377952755905
 31
0.0
  0
LINE
  5
425C
330
1E
100
AcDbEntity
  8
0
100
AcDbLine
 10
1.313976377952755
 20
4.851377952755905
 30
0.0
 11
1.315944881889763
 21
4.845472440944881
 31
0.0
  0
LINE
  5
425D
330
1E
100
AcDbEntity
  8
0
100
AcDbLine
 10
1.315944881889763
 20
4.845472440944881
 30
0.0
 11
1.315944881889763
 21
4.843503937007874
 31
0.0
  0
LINE
  5
425E
330
1E
100
AcDbEntity
  8
0
100
AcDbLine
 10
1.270669291338582
 20
4.857283464566929
 30
0.0
 11
1.270669291338582
 21
4.851377952755905
 31
0.0
  0
LINE
  5
425F
330
1E
100
AcDbEntity
  8
0
100
AcDbLine
 10
1.270669291338582
 20
4.851377952755905
 30
0.0
 11
1.270669291338582
 21
4.843503937007874
 31
0.0
  0
LINE
  5
4260
330
1E
100
AcDbEntity
  8
0
100
AcDbLine
 10
1.270669291338582
 20
4.798228346456692
 30
0.0
 11
1.270669291338582
 21
4.81003937007874
 31
0.0
  0
LINE
  5
4261
330
1E
100
AcDbEntity
  8
0
100
AcDbLine
 10
1.270669291338582
 20
4.81003937007874
 30
0.0
 11
1.270669291338582
 21
4.843503937007874
 31
0.0
  0
LINE
  5
4262
330
1E
100
AcDbEntity
  8
0
100
AcDbLine
 10
1.317913385826771
 20
4.835629921259842
 30
0.0
 11
1.319881889763779
 21
4.825787401574803
 31
0.0
  0
LINE
  5
4263
330
1E
100
AcDbEntity
  8
0
100
AcDbLine
 10
1.319881889763779
 20
4.825787401574803
 30
0.0
 11
1.319881889763779
 21
4.823818897637796
 31
0.0
  0
LINE
  5
4264
330
1E
100
AcDbEntity
  8
0
100
AcDbLine
 10
1.319881889763779
 20
4.823818897637796
 30
0.0
 11
1.319881889763779
 21
4.812007874015748
 31
0.0
  0
LINE
  5
4265
330
1E
100
AcDbEntity
  8
0
100
AcDbLine
 10
1.319881889763779
 20
4.812007874015748
 30
0.0
 11
1.317913385826771
 21
4.81003937007874
 31
0.0
  0
LINE
  5
4266
330
1E
100
AcDbEntity
  8
0
100
AcDbLine
 10
1.3001968503937
 20
4.798228346456692
 30
0.0
 11
1.3001968503937
 21
4.81003937007874
 31
0.0
  0
LINE
  5
4267
330
1E
100
AcDbEntity
  8
0
100
AcDbLine
 10
1.3001968503937
 20
4.81003937007874
 30
0.0
 11
1.3001968503937
 21
4.843503937007874
 31
0.0
  0
LINE
  5
4268
330
1E
100
AcDbEntity
  8
0
100
AcDbLine
 10
1.315944881889763
 20
4.843503937007874
 30
0.0
 11
1.310039370078739
 21
4.843503937007874
 31
0.0
  0
LINE
  5
4269
330
1E
100
AcDbEntity
  8
0
100
AcDbLine
 10
1.310039370078739
 20
4.843503937007874
 30
0.0
 11
1.3001968503937
 21
4.843503937007874
 31
0.0
  0
LINE
  5
426A
330
1E
100
AcDbEntity
  8
0
100
AcDbLine
 10
1.315944881889763
 20
4.843503937007874
 30
0.0
 11
1.317913385826771
 21
4.839566929133859
 31
0.0
  0
LINE
  5
426B
330
1E
100
AcDbEntity
  8
0
100
AcDbLine
 10
1.317913385826771
 20
4.839566929133859
 30
0.0
 11
1.317913385826771
 21
4.835629921259842
 31
0.0
  0
LINE
  5
426C
330
1E
100
AcDbEntity
  8
0
100
AcDbLine
 10
0.7450787401574806
 20
4.857283464566929
 30
0.0
 11
0.7450787401574806
 21
4.851377952755905
 31
0.0
  0
LINE
  5
426D
330
1E
100
AcDbEntity
  8
0
100
AcDbLine
 10
0.7450787401574806
 20
4.851377952755905
 30
0.0
 11
0.7450787401574806
 21
4.843503937007874
 31
0.0
  0
LINE
  5
426E
330
1E
100
AcDbEntity
  8
0
100
AcDbLine
 10
0.7450787401574806
 20
4.798228346456692
 30
0.0
 11
0.7450787401574806
 21
4.81003937007874
 31
0.0
  0
LINE
  5
426F
330
1E
100
AcDbEntity
  8
0
100
AcDbLine
 10
0.7450787401574806
 20
4.81003937007874
 30
0.0
 11
0.7450787401574806
 21
4.843503937007874
 31
0.0
  0
LINE
  5
4270
330
1E
100
AcDbEntity
  8
0
100
AcDbLine
 10
-0.08759842519685
 20
5.239173228346457
 30
0.0
 11
-0.125
 21
5.231299212598425
 31
0.0
  0
LINE
  5
4271
330
1E
100
AcDbEntity
  8
0
100
AcDbLine
 10
-0.125
 20
5.231299212598425
 30
0.0
 11
-0.1525590551181102
 21
5.211614173228346
 31
0.0
  0
LINE
  5
4272
330
1E
100
AcDbEntity
  8
0
100
AcDbLine
 10
-0.1525590551181102
 20
5.211614173228346
 30
0.0
 11
-0.1624015748031491
 21
5.186023622047244
 31
0.0
  0
LINE
  5
4273
330
1E
100
AcDbEntity
  8
0
100
AcDbLine
 10
-0.08759842519685
 20
5.239173228346457
 30
0.0
 11
-0.08759842519685
 21
5.243110236220472
 31
0.0
  0
LINE
  5
4274
330
1E
100
AcDbEntity
  8
0
100
AcDbLine
 10
-0.08759842519685
 20
5.243110236220472
 30
0.0
 11
-0.08759842519685
 21
5.245078740157479
 31
0.0
  0
LINE
  5
4275
330
1E
100
AcDbEntity
  8
0
100
AcDbLine
 10
0.6328740157480315
 20
5.239173228346457
 30
0.0
 11
0.6328740157480315
 21
5.243110236220472
 31
0.0
  0
LINE
  5
4276
330
1E
100
AcDbEntity
  8
0
100
AcDbLine
 10
0.6328740157480315
 20
5.243110236220472
 30
0.0
 11
0.6328740157480315
 21
5.245078740157479
 31
0.0
  0
LINE
  5
4277
330
1E
100
AcDbEntity
  8
0
100
AcDbLine
 10
0.6525590551181102
 20
5.223425196850394
 30
0.0
 11
0.6466535433070871
 21
5.233267716535433
 31
0.0
  0
LINE
  5
4278
330
1E
100
AcDbEntity
  8
0
100
AcDbLine
 10
0.6466535433070871
 20
5.233267716535433
 30
0.0
 11
0.6328740157480315
 21
5.239173228346457
 31
0.0
  0
LINE
  5
4279
330
1E
100
AcDbEntity
  8
0
100
AcDbLine
 10
0.6525590551181102
 20
4.876968503937007
 30
0.0
 11
0.6466535433070871
 21
4.867125984251968
 31
0.0
  0
LINE
  5
427A
330
1E
100
AcDbEntity
  8
0
100
AcDbLine
 10
0.6466535433070871
 20
4.867125984251968
 30
0.0
 11
0.6328740157480315
 21
4.863188976377953
 31
0.0
  0
LINE
  5
427B
330
1E
100
AcDbEntity
  8
0
100
AcDbLine
 10
0.6525590551181102
 20
5.21751968503937
 30
0.0
 11
0.6466535433070871
 21
5.207677165354331
 31
0.0
  0
LINE
  5
427C
330
1E
100
AcDbEntity
  8
0
100
AcDbLine
 10
0.6466535433070871
 20
5.207677165354331
 30
0.0
 11
0.6328740157480315
 21
5.203740157480314
 31
0.0
  0
LINE
  5
427D
330
1E
100
AcDbEntity
  8
0
100
AcDbLine
 10
0.6328740157480315
 20
5.231299212598425
 30
0.0
 11
0.6466535433070871
 21
5.227362204724409
 31
0.0
  0
LINE
  5
427E
330
1E
100
AcDbEntity
  8
0
100
AcDbLine
 10
0.6466535433070871
 20
5.227362204724409
 30
0.0
 11
0.6525590551181102
 21
5.21751968503937
 31
0.0
  0
LINE
  5
427F
330
1E
100
AcDbEntity
  8
0
100
AcDbLine
 10
0.6328740157480315
 20
5.231299212598425
 30
0.0
 11
0.6328740157480315
 21
5.21751968503937
 31
0.0
  0
LINE
  5
4280
330
1E
100
AcDbEntity
  8
0
100
AcDbLine
 10
0.6328740157480315
 20
5.21751968503937
 30
0.0
 11
0.6328740157480315
 21
5.203740157480314
 31
0.0
  0
LINE
  5
4281
330
1E
100
AcDbEntity
  8
0
100
AcDbLine
 10
-0.1624015748031491
 20
5.178149606299212
 30
0.0
 11
-0.1525590551181102
 21
5.205708661417322
 31
0.0
  0
LINE
  5
4282
330
1E
100
AcDbEntity
  8
0
100
AcDbLine
 10
-0.1525590551181102
 20
5.205708661417322
 30
0.0
 11
-0.125
 21
5.223425196850394
 31
0.0
  0
LINE
  5
4283
330
1E
100
AcDbEntity
  8
0
100
AcDbLine
 10
-0.125
 20
5.223425196850394
 30
0.0
 11
-0.08759842519685
 21
5.231299212598425
 31
0.0
  0
LINE
  5
4284
330
1E
100
AcDbEntity
  8
0
100
AcDbLine
 10
-0.08759842519685
 20
5.231299212598425
 30
0.0
 11
-0.08759842519685
 21
5.21751968503937
 31
0.0
  0
LINE
  5
4285
330
1E
100
AcDbEntity
  8
0
100
AcDbLine
 10
-0.08759842519685
 20
5.21751968503937
 30
0.0
 11
-0.08759842519685
 21
5.203740157480314
 31
0.0
  0
LINE
  5
4286
330
1E
100
AcDbEntity
  8
0
100
AcDbLine
 10
-0.08759842519685
 20
5.119094488188975
 30
0.0
 11
-0.08759842519685
 21
5.121062992125985
 31
0.0
  0
LINE
  5
4287
330
1E
100
AcDbEntity
  8
0
100
AcDbLine
 10
-0.08759842519685
 20
5.121062992125985
 30
0.0
 11
-0.08759842519685
 21
5.125
 31
0.0
  0
LINE
  5
4288
330
1E
100
AcDbEntity
  8
0
100
AcDbLine
 10
-0.0364173228346454
 20
5.119094488188975
 30
0.0
 11
-0.0364173228346454
 21
5.121062992125985
 31
0.0
  0
LINE
  5
4289
330
1E
100
AcDbEntity
  8
0
100
AcDbLine
 10
-0.0364173228346454
 20
5.121062992125985
 30
0.0
 11
-0.0364173228346454
 21
5.125
 31
0.0
  0
LINE
  5
428A
330
1E
100
AcDbEntity
  8
0
100
AcDbLine
 10
-0.0049212598425195
 20
5.103346456692912
 30
0.0
 11
0.0009842519685037
 21
5.093503937007874
 31
0.0
  0
LINE
  5
428B
330
1E
100
AcDbEntity
  8
0
100
AcDbLine
 10
0.0009842519685037
 20
5.093503937007874
 30
0.0
 11
0.0147637795275593
 21
5.089566929133859
 31
0.0
  0
LINE
  5
428C
330
1E
100
AcDbEntity
  8
0
100
AcDbLine
 10
-0.0364173228346454
 20
5.125
 30
0.0
 11
-0.0009842519685037
 21
5.115157480314961
 31
0.0
  0
LINE
  5
428D
330
1E
100
AcDbEntity
  8
0
100
AcDbLine
 10
-0.0009842519685037
 20
5.115157480314961
 30
0.0
 11
0.0147637795275593
 21
5.089566929133859
 31
0.0
  0
LINE
  5
428E
330
1E
100
AcDbEntity
  8
0
100
AcDbLine
 10
-0.08759842519685
 20
5.203740157480314
 30
0.0
 11
-0.1190944881889759
 21
5.195866141732283
 31
0.0
  0
LINE
  5
428F
330
1E
100
AcDbEntity
  8
0
100
AcDbLine
 10
-0.1190944881889759
 20
5.195866141732283
 30
0.0
 11
-0.1387795275590546
 21
5.176181102362205
 31
0.0
  0
LINE
  5
4290
330
1E
100
AcDbEntity
  8
0
100
AcDbLine
 10
-0.1387795275590546
 20
5.176181102362205
 30
0.0
 11
-0.1387795275590546
 21
5.152559055118111
 31
0.0
  0
LINE
  5
4291
330
1E
100
AcDbEntity
  8
0
100
AcDbLine
 10
-0.1387795275590546
 20
5.152559055118111
 30
0.0
 11
-0.1190944881889759
 21
5.132874015748031
 31
0.0
  0
LINE
  5
4292
330
1E
100
AcDbEntity
  8
0
100
AcDbLine
 10
-0.1190944881889759
 20
5.132874015748031
 30
0.0
 11
-0.08759842519685
 21
5.125
 31
0.0
  0
LINE
  5
4293
330
1E
100
AcDbEntity
  8
0
100
AcDbLine
 10
0.5777559055118111
 20
4.863188976377953
 30
0.0
 11
0.5718503937007871
 21
4.861220472440944
 31
0.0
  0
LINE
  5
4294
330
1E
100
AcDbEntity
  8
0
100
AcDbLine
 10
0.5718503937007871
 20
4.861220472440944
 30
0.0
 11
0.5698818897637797
 21
4.857283464566929
 31
0.0
  0
LINE
  5
4295
330
1E
100
AcDbEntity
  8
0
100
AcDbLine
 10
0.5206692913385825
 20
4.843503937007874
 30
0.0
 11
0.5206692913385825
 21
4.851377952755905
 31
0.0
  0
LINE
  5
4296
330
1E
100
AcDbEntity
  8
0
100
AcDbLine
 10
0.5206692913385825
 20
4.851377952755905
 30
0.0
 11
0.5206692913385825
 21
4.857283464566929
 31
0.0
  0
LINE
  5
4297
330
1E
100
AcDbEntity
  8
0
100
AcDbLine
 10
0.5206692913385825
 20
4.843503937007874
 30
0.0
 11
0.5206692913385825
 21
4.81003937007874
 31
0.0
  0
LINE
  5
4298
330
1E
100
AcDbEntity
  8
0
100
AcDbLine
 10
0.5206692913385825
 20
4.81003937007874
 30
0.0
 11
0.5206692913385825
 21
4.798228346456692
 31
0.0
  0
LINE
  5
4299
330
1E
100
AcDbEntity
  8
0
100
AcDbLine
 10
0.0147637795275593
 20
4.857283464566929
 30
0.0
 11
0.0009842519685037
 21
4.861220472440944
 31
0.0
  0
LINE
  5
429A
330
1E
100
AcDbEntity
  8
0
100
AcDbLine
 10
0.0009842519685037
 20
4.861220472440944
 30
0.0
 11
-0.0049212598425195
 21
4.871062992125985
 31
0.0
  0
LINE
  5
429B
330
1E
100
AcDbEntity
  8
0
100
AcDbLine
 10
0.0147637795275593
 20
4.857283464566929
 30
0.0
 11
0.0147637795275593
 21
4.851377952755905
 31
0.0
  0
LINE
  5
429C
330
1E
100
AcDbEntity
  8
0
100
AcDbLine
 10
0.0147637795275593
 20
4.851377952755905
 30
0.0
 11
0.0147637795275593
 21
4.843503937007874
 31
0.0
  0
LINE
  5
429D
330
1E
100
AcDbEntity
  8
0
100
AcDbLine
 10
-0.0009842519685037
 20
4.843503937007874
 30
0.0
 11
-0.0009842519685037
 21
4.84744094488189
 31
0.0
  0
LINE
  5
429E
330
1E
100
AcDbEntity
  8
0
100
AcDbLine
 10
-0.0009842519685037
 20
4.84744094488189
 30
0.0
 11
-0.0009842519685037
 21
4.853346456692912
 31
0.0
  0
LINE
  5
429F
330
1E
100
AcDbEntity
  8
0
100
AcDbLine
 10
-0.0009842519685037
 20
4.853346456692912
 30
0.0
 11
-0.002952755905512
 21
4.861220472440944
 31
0.0
  0
LINE
  5
42A0
330
1E
100
AcDbEntity
  8
0
100
AcDbLine
 10
-0.002952755905512
 20
4.861220472440944
 30
0.0
 11
-0.0049212598425195
 21
4.867125984251968
 31
0.0
  0
LINE
  5
42A1
330
1E
100
AcDbEntity
  8
0
100
AcDbLine
 10
-0.0049212598425195
 20
4.867125984251968
 30
0.0
 11
-0.0049212598425195
 21
4.871062992125985
 31
0.0
  0
LINE
  5
42A2
330
1E
100
AcDbEntity
  8
0
100
AcDbLine
 10
-0.0009842519685037
 20
4.843503937007874
 30
0.0
 11
0.0049212598425195
 21
4.843503937007874
 31
0.0
  0
LINE
  5
42A3
330
1E
100
AcDbEntity
  8
0
100
AcDbLine
 10
0.0049212598425195
 20
4.843503937007874
 30
0.0
 11
0.0147637795275593
 21
4.843503937007874
 31
0.0
  0
LINE
  5
42A4
330
1E
100
AcDbEntity
  8
0
100
AcDbLine
 10
0.0147637795275593
 20
4.843503937007874
 30
0.0
 11
0.0147637795275593
 21
4.81003937007874
 31
0.0
  0
LINE
  5
42A5
330
1E
100
AcDbEntity
  8
0
100
AcDbLine
 10
0.0147637795275593
 20
4.81003937007874
 30
0.0
 11
0.0147637795275593
 21
4.798228346456692
 31
0.0
  0
LINE
  5
42A6
330
1E
100
AcDbEntity
  8
0
100
AcDbLine
 10
-0.0009842519685037
 20
4.806102362204724
 30
0.0
 11
-0.002952755905512
 21
4.808070866141733
 31
0.0
  0
LINE
  5
42A7
330
1E
100
AcDbEntity
  8
0
100
AcDbLine
 10
-0.002952755905512
 20
4.808070866141733
 30
0.0
 11
-0.0049212598425195
 21
4.81003937007874
 31
0.0
  0
LINE
  5
42A8
330
1E
100
AcDbEntity
  8
0
100
AcDbLine
 10
-0.0049212598425195
 20
4.81003937007874
 30
0.0
 11
-0.0049212598425195
 21
4.819881889763779
 31
0.0
  0
LINE
  5
42A9
330
1E
100
AcDbEntity
  8
0
100
AcDbLine
 10
-0.0049212598425195
 20
4.819881889763779
 30
0.0
 11
-0.0049212598425195
 21
4.823818897637796
 31
0.0
  0
LINE
  5
42AA
330
1E
100
AcDbEntity
  8
0
100
AcDbLine
 10
-0.0049212598425195
 20
4.823818897637796
 30
0.0
 11
-0.0049212598425195
 21
4.833661417322835
 31
0.0
  0
LINE
  5
42AB
330
1E
100
AcDbEntity
  8
0
100
AcDbLine
 10
-0.0049212598425195
 20
4.833661417322835
 30
0.0
 11
-0.0049212598425195
 21
4.835629921259842
 31
0.0
  0
LINE
  5
42AC
330
1E
100
AcDbEntity
  8
0
100
AcDbLine
 10
-0.0049212598425195
 20
4.835629921259842
 30
0.0
 11
-0.0009842519685037
 21
4.841535433070866
 31
0.0
  0
LINE
  5
42AD
330
1E
100
AcDbEntity
  8
0
100
AcDbLine
 10
-0.0009842519685037
 20
4.841535433070866
 30
0.0
 11
-0.0009842519685037
 21
4.843503937007874
 31
0.0
  0
LINE
  5
42AE
330
1E
100
AcDbEntity
  8
0
100
AcDbLine
 10
0.0442913385826769
 20
4.843503937007874
 30
0.0
 11
0.0442913385826769
 21
4.81003937007874
 31
0.0
  0
LINE
  5
42AF
330
1E
100
AcDbEntity
  8
0
100
AcDbLine
 10
0.0442913385826769
 20
4.81003937007874
 30
0.0
 11
0.0442913385826769
 21
4.798228346456692
 31
0.0
  0
LINE
  5
42B0
330
1E
100
AcDbEntity
  8
0
100
AcDbLine
 10
0.0442913385826769
 20
4.843503937007874
 30
0.0
 11
0.0442913385826769
 21
4.851377952755905
 31
0.0
  0
LINE
  5
42B1
330
1E
100
AcDbEntity
  8
0
100
AcDbLine
 10
0.0442913385826769
 20
4.851377952755905
 30
0.0
 11
0.0442913385826769
 21
4.857283464566929
 31
0.0
  0
LINE
  5
42B2
330
1E
100
AcDbEntity
  8
0
100
AcDbLine
 10
0.5698818897637797
 20
4.843503937007874
 30
0.0
 11
0.5698818897637797
 21
4.851377952755905
 31
0.0
  0
LINE
  5
42B3
330
1E
100
AcDbEntity
  8
0
100
AcDbLine
 10
0.5698818897637797
 20
4.851377952755905
 30
0.0
 11
0.5698818897637797
 21
4.857283464566929
 31
0.0
  0
LINE
  5
42B4
330
1E
100
AcDbEntity
  8
0
100
AcDbLine
 10
1.428149606299212
 20
4.788385826771653
 30
0.0
 11
1.422244094488188
 21
4.778543307086614
 31
0.0
  0
LINE
  5
42B5
330
1E
100
AcDbEntity
  8
0
100
AcDbLine
 10
1.422244094488188
 20
4.778543307086614
 30
0.0
 11
1.408464566929134
 21
4.77263779527559
 31
0.0
  0
LINE
  5
42B6
330
1E
100
AcDbEntity
  8
0
100
AcDbLine
 10
1.426181102362204
 20
4.841535433070866
 30
0.0
 11
1.420275590551181
 21
4.841535433070866
 31
0.0
  0
LINE
  5
42B7
330
1E
100
AcDbEntity
  8
0
100
AcDbLine
 10
1.420275590551181
 20
4.841535433070866
 30
0.0
 11
1.406496062992125
 21
4.841535433070866
 31
0.0
  0
LINE
  5
42B8
330
1E
100
AcDbEntity
  8
0
100
AcDbLine
 10
-0.0935039370078741
 20
4.77263779527559
 30
0.0
 11
-0.1072834645669287
 21
4.778543307086614
 31
0.0
  0
LINE
  5
42B9
330
1E
100
AcDbEntity
  8
0
100
AcDbLine
 10
-0.1072834645669287
 20
4.778543307086614
 30
0.0
 11
-0.1131889763779528
 21
4.788385826771653
 31
0.0
  0
LINE
  5
42BA
330
1E
100
AcDbEntity
  8
0
100
AcDbLine
 10
-0.0915354330708658
 20
4.841535433070866
 30
0.0
 11
-0.1053149606299213
 21
4.841535433070866
 31
0.0
  0
LINE
  5
42BB
330
1E
100
AcDbEntity
  8
0
100
AcDbLine
 10
-0.1053149606299213
 20
4.841535433070866
 30
0.0
 11
-0.1131889763779528
 21
4.841535433070866
 31
0.0
  0
LINE
  5
42BC
330
1E
100
AcDbEntity
  8
0
100
AcDbLine
 10
1.406496062992125
 20
4.912401574803149
 30
0.0
 11
1.416338582677165
 21
4.920275590551181
 31
0.0
  0
LINE
  5
42BD
330
1E
100
AcDbEntity
  8
0
100
AcDbLine
 10
1.416338582677165
 20
4.920275590551181
 30
0.0
 11
1.422244094488188
 21
4.93011811023622
 31
0.0
  0
LINE
  5
42BE
330
1E
100
AcDbEntity
  8
0
100
AcDbLine
 10
1.422244094488188
 20
4.93011811023622
 30
0.0
 11
1.426181102362204
 21
4.939960629921259
 31
0.0
  0
LINE
  5
42BF
330
1E
100
AcDbEntity
  8
0
100
AcDbLine
 10
1.426181102362204
 20
4.939960629921259
 30
0.0
 11
1.426181102362204
 21
4.943897637795275
 31
0.0
  0
LINE
  5
42C0
330
1E
100
AcDbEntity
  8
0
100
AcDbLine
 10
-0.1131889763779528
 20
4.943897637795275
 30
0.0
 11
-0.1112204724409445
 21
4.939960629921259
 31
0.0
  0
LINE
  5
42C1
330
1E
100
AcDbEntity
  8
0
100
AcDbLine
 10
-0.1112204724409445
 20
4.939960629921259
 30
0.0
 11
-0.1072834645669287
 21
4.93011811023622
 31
0.0
  0
LINE
  5
42C2
330
1E
100
AcDbEntity
  8
0
100
AcDbLine
 10
-0.1072834645669287
 20
4.93011811023622
 30
0.0
 11
-0.1013779527559055
 21
4.920275590551181
 31
0.0
  0
LINE
  5
42C3
330
1E
100
AcDbEntity
  8
0
100
AcDbLine
 10
-0.1013779527559055
 20
4.920275590551181
 30
0.0
 11
-0.0915354330708658
 21
4.912401574803149
 31
0.0
  0
LINE
  5
42C4
330
1E
100
AcDbEntity
  8
0
100
AcDbLine
 10
1.369094488188976
 20
5.386811023622048
 30
0.0
 11
1.400590551181102
 21
5.376968503937007
 31
0.0
  0
LINE
  5
42C5
330
1E
100
AcDbEntity
  8
0
100
AcDbLine
 10
1.400590551181102
 20
5.376968503937007
 30
0.0
 11
1.414370078740157
 21
5.355314960629922
 31
0.0
  0
LINE
  5
42C6
330
1E
100
AcDbEntity
  8
0
100
AcDbLine
 10
1.369094488188976
 20
5.25492125984252
 30
0.0
 11
1.400590551181102
 21
5.264763779527559
 31
0.0
  0
LINE
  5
42C7
330
1E
100
AcDbEntity
  8
0
100
AcDbLine
 10
1.400590551181102
 20
5.264763779527559
 30
0.0
 11
1.414370078740157
 21
5.286417322834646
 31
0.0
  0
LINE
  5
42C8
330
1E
100
AcDbEntity
  8
0
100
AcDbLine
 10
-0.0561023622047241
 20
5.25492125984252
 30
0.0
 11
-0.08759842519685
 21
5.264763779527559
 31
0.0
  0
LINE
  5
42C9
330
1E
100
AcDbEntity
  8
0
100
AcDbLine
 10
-0.08759842519685
 20
5.264763779527559
 30
0.0
 11
-0.0994094488188973
 21
5.286417322834646
 31
0.0
  0
LINE
  5
42CA
330
1E
100
AcDbEntity
  8
0
100
AcDbLine
 10
-0.0561023622047241
 20
5.386811023622048
 30
0.0
 11
-0.08759842519685
 21
5.376968503937007
 31
0.0
  0
LINE
  5
42CB
330
1E
100
AcDbEntity
  8
0
100
AcDbLine
 10
-0.08759842519685
 20
5.376968503937007
 30
0.0
 11
-0.0994094488188973
 21
5.355314960629922
 31
0.0
  0
LINE
  5
42CC
330
1E
100
AcDbEntity
  8
0
100
AcDbLine
 10
1.333661417322834
 20
4.841535433070866
 30
0.0
 11
1.33759842519685
 21
4.841535433070866
 31
0.0
  0
LINE
  5
42CD
330
1E
100
AcDbEntity
  8
0
100
AcDbLine
 10
1.33759842519685
 20
4.841535433070866
 30
0.0
 11
1.343503937007874
 21
4.841535433070866
 31
0.0
  0
LINE
  5
42CE
330
1E
100
AcDbEntity
  8
0
100
AcDbLine
 10
1.335629921259842
 20
4.780511811023622
 30
0.0
 11
1.339566929133858
 21
4.774606299212598
 31
0.0
  0
LINE
  5
42CF
330
1E
100
AcDbEntity
  8
0
100
AcDbLine
 10
1.339566929133858
 20
4.774606299212598
 30
0.0
 11
1.345472440944882
 21
4.77263779527559
 31
0.0
  0
LINE
  5
42D0
330
1E
100
AcDbEntity
  8
0
100
AcDbLine
 10
-0.0305118110236222
 20
4.841535433070866
 30
0.0
 11
-0.0226377952755907
 21
4.841535433070866
 31
0.0
  0
LINE
  5
42D1
330
1E
100
AcDbEntity
  8
0
100
AcDbLine
 10
-0.0226377952755907
 20
4.841535433070866
 30
0.0
 11
-0.018700787401575
 21
4.841535433070866
 31
0.0
  0
LINE
  5
42D2
330
1E
100
AcDbEntity
  8
0
100
AcDbLine
 10
-0.0305118110236222
 20
4.77263779527559
 30
0.0
 11
-0.0246062992125982
 21
4.774606299212598
 31
0.0
  0
LINE
  5
42D3
330
1E
100
AcDbEntity
  8
0
100
AcDbLine
 10
-0.0246062992125982
 20
4.774606299212598
 30
0.0
 11
-0.0206692913385824
 21
4.780511811023622
 31
0.0
  0
LINE
  5
42D4
330
1E
100
AcDbEntity
  8
0
100
AcDbLine
 10
1.369094488188976
 20
5.25492125984252
 30
0.0
 11
1.369094488188976
 21
5.286417322834646
 31
0.0
  0
LINE
  5
42D5
330
1E
100
AcDbEntity
  8
0
100
AcDbLine
 10
1.369094488188976
 20
5.286417322834646
 30
0.0
 11
1.369094488188976
 21
5.321850393700787
 31
0.0
  0
LINE
  5
42D6
330
1E
100
AcDbEntity
  8
0
100
AcDbLine
 10
1.369094488188976
 20
5.321850393700787
 30
0.0
 11
1.369094488188976
 21
5.357283464566929
 31
0.0
  0
LINE
  5
42D7
330
1E
100
AcDbEntity
  8
0
100
AcDbLine
 10
1.369094488188976
 20
5.357283464566929
 30
0.0
 11
1.369094488188976
 21
5.386811023622048
 31
0.0
  0
LINE
  5
42D8
330
1E
100
AcDbEntity
  8
0
100
AcDbLine
 10
-0.0561023622047241
 20
5.386811023622048
 30
0.0
 11
-0.0541338582677167
 21
5.357283464566929
 31
0.0
  0
LINE
  5
42D9
330
1E
100
AcDbEntity
  8
0
100
AcDbLine
 10
-0.0541338582677167
 20
5.357283464566929
 30
0.0
 11
-0.0541338582677167
 21
5.321850393700787
 31
0.0
  0
LINE
  5
42DA
330
1E
100
AcDbEntity
  8
0
100
AcDbLine
 10
-0.0541338582677167
 20
5.321850393700787
 30
0.0
 11
-0.0541338582677167
 21
5.286417322834646
 31
0.0
  0
LINE
  5
42DB
330
1E
100
AcDbEntity
  8
0
100
AcDbLine
 10
-0.0541338582677167
 20
5.286417322834646
 30
0.0
 11
-0.0561023622047241
 21
5.25492125984252
 31
0.0
  0
LINE
  5
42DC
330
1E
100
AcDbEntity
  8
0
100
AcDbLine
 10
-0.103346456692913
 20
5.121062992125985
 30
0.0
 11
-0.08759842519685
 21
5.103346456692912
 31
0.0
  0
LINE
  5
42DD
330
1E
100
AcDbEntity
  8
0
100
AcDbLine
 10
-0.08759842519685
 20
5.103346456692912
 30
0.0
 11
-0.0600393700787398
 21
5.09744094488189
 31
0.0
  0
LINE
  5
42DE
330
1E
100
AcDbEntity
  8
0
100
AcDbLine
 10
-0.018700787401575
 20
4.841535433070866
 30
0.0
 11
-0.0206692913385824
 21
4.808070866141733
 31
0.0
  0
LINE
  5
42DF
330
1E
100
AcDbEntity
  8
0
100
AcDbLine
 10
-0.0206692913385824
 20
4.808070866141733
 30
0.0
 11
-0.0206692913385824
 21
4.780511811023622
 31
0.0
  0
LINE
  5
42E0
330
1E
100
AcDbEntity
  8
0
100
AcDbLine
 10
-0.0974409448818898
 20
4.674212598425196
 30
0.0
 11
-0.1112204724409445
 21
4.674212598425196
 31
0.0
  0
LINE
  5
42E1
330
1E
100
AcDbEntity
  8
0
100
AcDbLine
 10
-0.1112204724409445
 20
4.674212598425196
 30
0.0
 11
-0.1171259842519685
 21
4.674212598425196
 31
0.0
  0
LINE
  5
42E2
330
1E
100
AcDbEntity
  8
0
100
AcDbLine
 10
-0.0305118110236222
 20
4.77263779527559
 30
0.0
 11
-0.0305118110236222
 21
4.804133858267716
 31
0.0
  0
LINE
  5
42E3
330
1E
100
AcDbEntity
  8
0
100
AcDbLine
 10
-0.0305118110236222
 20
4.804133858267716
 30
0.0
 11
-0.0305118110236222
 21
4.841535433070866
 31
0.0
  0
LINE
  5
42E4
330
1E
100
AcDbEntity
  8
0
100
AcDbLine
 10
-0.0915354330708658
 20
4.841535433070866
 30
0.0
 11
-0.0915354330708658
 21
4.804133858267716
 31
0.0
  0
LINE
  5
42E5
330
1E
100
AcDbEntity
  8
0
100
AcDbLine
 10
-0.0915354330708658
 20
4.804133858267716
 30
0.0
 11
-0.0935039370078741
 21
4.77263779527559
 31
0.0
  0
LINE
  5
42E6
330
1E
100
AcDbEntity
  8
0
100
AcDbLine
 10
1.375
 20
5.09744094488189
 30
0.0
 11
1.40255905511811
 21
5.103346456692912
 31
0.0
  0
LINE
  5
42E7
330
1E
100
AcDbEntity
  8
0
100
AcDbLine
 10
1.40255905511811
 20
5.103346456692912
 30
0.0
 11
1.418307086614173
 21
5.121062992125985
 31
0.0
  0
LINE
  5
42E8
330
1E
100
AcDbEntity
  8
0
100
AcDbLine
 10
1.335629921259842
 20
4.780511811023622
 30
0.0
 11
1.335629921259842
 21
4.808070866141733
 31
0.0
  0
LINE
  5
42E9
330
1E
100
AcDbEntity
  8
0
100
AcDbLine
 10
1.335629921259842
 20
4.808070866141733
 30
0.0
 11
1.333661417322834
 21
4.841535433070866
 31
0.0
  0
LINE
  5
42EA
330
1E
100
AcDbEntity
  8
0
100
AcDbLine
 10
1.432086614173228
 20
4.674212598425196
 30
0.0
 11
1.426181102362204
 21
4.674212598425196
 31
0.0
  0
LINE
  5
42EB
330
1E
100
AcDbEntity
  8
0
100
AcDbLine
 10
1.426181102362204
 20
4.674212598425196
 30
0.0
 11
1.410433070866141
 21
4.674212598425196
 31
0.0
  0
LINE
  5
42EC
330
1E
100
AcDbEntity
  8
0
100
AcDbLine
 10
1.343503937007874
 20
4.841535433070866
 30
0.0
 11
1.345472440944882
 21
4.804133858267716
 31
0.0
  0
LINE
  5
42ED
330
1E
100
AcDbEntity
  8
0
100
AcDbLine
 10
1.345472440944882
 20
4.804133858267716
 30
0.0
 11
1.345472440944882
 21
4.77263779527559
 31
0.0
  0
LINE
  5
42EE
330
1E
100
AcDbEntity
  8
0
100
AcDbLine
 10
1.408464566929134
 20
4.77263779527559
 30
0.0
 11
1.406496062992125
 21
4.804133858267716
 31
0.0
  0
LINE
  5
42EF
330
1E
100
AcDbEntity
  8
0
100
AcDbLine
 10
1.406496062992125
 20
4.804133858267716
 30
0.0
 11
1.406496062992125
 21
4.841535433070866
 31
0.0
  0
LINE
  5
42F0
330
1E
100
AcDbEntity
  8
0
100
AcDbLine
 10
1.416338582677165
 20
5.249015748031496
 30
0.0
 11
1.408464566929134
 21
5.250984251968503
 31
0.0
  0
LINE
  5
42F1
330
1E
100
AcDbEntity
  8
0
100
AcDbLine
 10
1.408464566929134
 20
5.250984251968503
 30
0.0
 11
1.392716535433071
 21
5.250984251968503
 31
0.0
  0
LINE
  5
42F2
330
1E
100
AcDbEntity
  8
0
100
AcDbLine
 10
1.392716535433071
 20
5.250984251968503
 30
0.0
 11
1.369094488188976
 21
5.252952755905512
 31
0.0
  0
LINE
  5
42F3
330
1E
100
AcDbEntity
  8
0
100
AcDbLine
 10
-0.0561023622047241
 20
5.252952755905512
 30
0.0
 11
-0.0777559055118111
 21
5.250984251968503
 31
0.0
  0
LINE
  5
42F4
330
1E
100
AcDbEntity
  8
0
100
AcDbLine
 10
-0.0777559055118111
 20
5.250984251968503
 30
0.0
 11
-0.0954724409448815
 21
5.250984251968503
 31
0.0
  0
LINE
  5
42F5
330
1E
100
AcDbEntity
  8
0
100
AcDbLine
 10
-0.0954724409448815
 20
5.250984251968503
 30
0.0
 11
-0.1013779527559055
 21
5.249015748031496
 31
0.0
  0
LINE
  5
42F6
330
1E
100
AcDbEntity
  8
0
100
AcDbLine
 10
0.5698818897637797
 20
4.857283464566929
 30
0.0
 11
0.5698818897637797
 21
4.831692913385827
 31
0.0
  0
LINE
  5
42F7
330
1E
100
AcDbEntity
  8
0
100
AcDbLine
 10
0.5698818897637797
 20
4.831692913385827
 30
0.0
 11
0.5698818897637797
 21
4.81003937007874
 31
0.0
  0
LINE
  5
42F8
330
1E
100
AcDbEntity
  8
0
100
AcDbLine
 10
0.5698818897637797
 20
4.81003937007874
 30
0.0
 11
0.5698818897637797
 21
4.800196850393701
 31
0.0
  0
LINE
  5
42F9
330
1E
100
AcDbEntity
  8
0
100
AcDbLine
 10
0.5698818897637797
 20
4.800196850393701
 30
0.0
 11
0.5698818897637797
 21
4.796259842519685
 31
0.0
  0
LINE
  5
42FA
330
1E
100
AcDbEntity
  8
0
100
AcDbLine
 10
0.7450787401574806
 20
4.81003937007874
 30
0.0
 11
0.7450787401574806
 21
4.800196850393701
 31
0.0
  0
LINE
  5
42FB
330
1E
100
AcDbEntity
  8
0
100
AcDbLine
 10
0.7450787401574806
 20
4.800196850393701
 30
0.0
 11
0.7450787401574806
 21
4.796259842519685
 31
0.0
  0
LINE
  5
42FC
330
1E
100
AcDbEntity
  8
0
100
AcDbLine
 10
0.7450787401574806
 20
4.857283464566929
 30
0.0
 11
0.7450787401574806
 21
4.831692913385827
 31
0.0
  0
LINE
  5
42FD
330
1E
100
AcDbEntity
  8
0
100
AcDbLine
 10
0.7450787401574806
 20
4.831692913385827
 30
0.0
 11
0.7450787401574806
 21
4.81003937007874
 31
0.0
  0
LINE
  5
42FE
330
1E
100
AcDbEntity
  8
0
100
AcDbLine
 10
1.414370078740157
 20
5.355314960629922
 30
0.0
 11
1.414370078740157
 21
5.333661417322835
 31
0.0
  0
LINE
  5
42FF
330
1E
100
AcDbEntity
  8
0
100
AcDbLine
 10
1.414370078740157
 20
5.333661417322835
 30
0.0
 11
1.414370078740157
 21
5.308070866141733
 31
0.0
  0
LINE
  5
4300
330
1E
100
AcDbEntity
  8
0
100
AcDbLine
 10
1.414370078740157
 20
5.308070866141733
 30
0.0
 11
1.414370078740157
 21
5.286417322834646
 31
0.0
  0
LINE
  5
4301
330
1E
100
AcDbEntity
  8
0
100
AcDbLine
 10
1.426181102362204
 20
4.841535433070866
 30
0.0
 11
1.426181102362204
 21
4.812007874015748
 31
0.0
  0
LINE
  5
4302
330
1E
100
AcDbEntity
  8
0
100
AcDbLine
 10
1.426181102362204
 20
4.812007874015748
 30
0.0
 11
1.428149606299212
 21
4.788385826771653
 31
0.0
  0
LINE
  5
4303
330
1E
100
AcDbEntity
  8
0
100
AcDbLine
 10
1.333661417322834
 20
4.774606299212598
 30
0.0
 11
1.333661417322834
 21
4.782480314960629
 31
0.0
  0
LINE
  5
4304
330
1E
100
AcDbEntity
  8
0
100
AcDbLine
 10
1.333661417322834
 20
4.782480314960629
 30
0.0
 11
1.333661417322834
 21
4.802165354330709
 31
0.0
  0
LINE
  5
4305
330
1E
100
AcDbEntity
  8
0
100
AcDbLine
 10
1.333661417322834
 20
4.802165354330709
 30
0.0
 11
1.333661417322834
 21
4.829724409448818
 31
0.0
  0
LINE
  5
4306
330
1E
100
AcDbEntity
  8
0
100
AcDbLine
 10
1.333661417322834
 20
4.829724409448818
 30
0.0
 11
1.333661417322834
 21
4.861220472440944
 31
0.0
  0
LINE
  5
4307
330
1E
100
AcDbEntity
  8
0
100
AcDbLine
 10
1.333661417322834
 20
4.861220472440944
 30
0.0
 11
1.331692913385826
 21
4.888779527559055
 31
0.0
  0
LINE
  5
4308
330
1E
100
AcDbEntity
  8
0
100
AcDbLine
 10
1.331692913385826
 20
4.888779527559055
 30
0.0
 11
1.329724409448818
 21
4.904527559055118
 31
0.0
  0
LINE
  5
4309
330
1E
100
AcDbEntity
  8
0
100
AcDbLine
 10
-0.018700787401575
 20
4.774606299212598
 30
0.0
 11
-0.0206692913385824
 21
4.782480314960629
 31
0.0
  0
LINE
  5
430A
330
1E
100
AcDbEntity
  8
0
100
AcDbLine
 10
-0.0206692913385824
 20
4.782480314960629
 30
0.0
 11
-0.0206692913385824
 21
4.802165354330709
 31
0.0
  0
LINE
  5
430B
330
1E
100
AcDbEntity
  8
0
100
AcDbLine
 10
-0.0206692913385824
 20
4.802165354330709
 30
0.0
 11
-0.018700787401575
 21
4.829724409448818
 31
0.0
  0
LINE
  5
430C
330
1E
100
AcDbEntity
  8
0
100
AcDbLine
 10
-0.018700787401575
 20
4.829724409448818
 30
0.0
 11
-0.018700787401575
 21
4.861220472440944
 31
0.0
  0
LINE
  5
430D
330
1E
100
AcDbEntity
  8
0
100
AcDbLine
 10
-0.018700787401575
 20
4.861220472440944
 30
0.0
 11
-0.0167322834645667
 21
4.888779527559055
 31
0.0
  0
LINE
  5
430E
330
1E
100
AcDbEntity
  8
0
100
AcDbLine
 10
-0.0167322834645667
 20
4.888779527559055
 30
0.0
 11
-0.0147637795275593
 21
4.904527559055118
 31
0.0
  0
LINE
  5
430F
330
1E
100
AcDbEntity
  8
0
100
AcDbLine
 10
-0.0994094488188973
 20
5.286417322834646
 30
0.0
 11
-0.0994094488188973
 21
5.308070866141733
 31
0.0
  0
LINE
  5
4310
330
1E
100
AcDbEntity
  8
0
100
AcDbLine
 10
-0.0994094488188973
 20
5.308070866141733
 30
0.0
 11
-0.0994094488188973
 21
5.333661417322835
 31
0.0
  0
LINE
  5
4311
330
1E
100
AcDbEntity
  8
0
100
AcDbLine
 10
-0.0994094488188973
 20
5.333661417322835
 30
0.0
 11
-0.0994094488188973
 21
5.355314960629922
 31
0.0
  0
LINE
  5
4312
330
1E
100
AcDbEntity
  8
0
100
AcDbLine
 10
-0.1131889763779528
 20
4.788385826771653
 30
0.0
 11
-0.1131889763779528
 21
4.812007874015748
 31
0.0
  0
LINE
  5
4313
330
1E
100
AcDbEntity
  8
0
100
AcDbLine
 10
-0.1131889763779528
 20
4.812007874015748
 30
0.0
 11
-0.1131889763779528
 21
4.841535433070866
 31
0.0
  0
LINE
  5
4314
330
1E
100
AcDbEntity
  8
0
100
AcDbLine
 10
1.388779527559055
 20
5.908464566929133
 30
0.0
 11
1.410433070866141
 21
5.898622047244094
 31
0.0
  0
LINE
  5
4315
330
1E
100
AcDbEntity
  8
0
100
AcDbLine
 10
1.410433070866141
 20
5.898622047244094
 30
0.0
 11
1.426181102362204
 21
5.876968503937007
 31
0.0
  0
LINE
  5
4316
330
1E
100
AcDbEntity
  8
0
100
AcDbLine
 10
1.426181102362204
 20
5.876968503937007
 30
0.0
 11
1.432086614173228
 21
5.845472440944881
 31
0.0
  0
LINE
  5
4317
330
1E
100
AcDbEntity
  8
0
100
AcDbLine
 10
-0.1171259842519685
 20
5.845472440944881
 30
0.0
 11
-0.1112204724409445
 21
5.876968503937007
 31
0.0
  0
LINE
  5
4318
330
1E
100
AcDbEntity
  8
0
100
AcDbLine
 10
-0.1112204724409445
 20
5.876968503937007
 30
0.0
 11
-0.0954724409448815
 21
5.898622047244094
 31
0.0
  0
LINE
  5
4319
330
1E
100
AcDbEntity
  8
0
100
AcDbLine
 10
-0.0954724409448815
 20
5.898622047244094
 30
0.0
 11
-0.0738188976377954
 21
5.908464566929133
 31
0.0
  0
LINE
  5
431A
330
1E
100
AcDbEntity
  8
0
100
AcDbLine
 10
3.682086614173227
 20
5.103346456692912
 30
0.0
 11
3.682086614173227
 21
5.105314960629922
 31
0.0
  0
LINE
  5
431B
330
1E
100
AcDbEntity
  8
0
100
AcDbLine
 10
3.682086614173227
 20
5.105314960629922
 30
0.0
 11
3.682086614173227
 21
5.107283464566929
 31
0.0
  0
LINE
  5
431C
330
1E
100
AcDbEntity
  8
0
100
AcDbLine
 10
3.682086614173227
 20
5.107283464566929
 30
0.0
 11
3.684055118110237
 21
5.107283464566929
 31
0.0
  0
LINE
  5
431D
330
1E
100
AcDbEntity
  8
0
100
AcDbLine
 10
3.684055118110237
 20
5.107283464566929
 30
0.0
 11
3.684055118110237
 21
5.109251968503937
 31
0.0
  0
LINE
  5
431E
330
1E
100
AcDbEntity
  8
0
100
AcDbLine
 10
3.684055118110237
 20
5.109251968503937
 30
0.0
 11
3.686023622047244
 21
5.111220472440944
 31
0.0
  0
LINE
  5
431F
330
1E
100
AcDbEntity
  8
0
100
AcDbLine
 10
3.686023622047244
 20
5.111220472440944
 30
0.0
 11
3.687992125984251
 21
5.111220472440944
 31
0.0
  0
LINE
  5
4320
330
1E
100
AcDbEntity
  8
0
100
AcDbLine
 10
3.687992125984251
 20
5.111220472440944
 30
0.0
 11
3.689960629921259
 21
5.113188976377953
 31
0.0
  0
LINE
  5
4321
330
1E
100
AcDbEntity
  8
0
100
AcDbLine
 10
3.689960629921259
 20
5.113188976377953
 30
0.0
 11
3.691929133858268
 21
5.115157480314961
 31
0.0
  0
LINE
  5
4322
330
1E
100
AcDbEntity
  8
0
100
AcDbLine
 10
3.691929133858268
 20
5.115157480314961
 30
0.0
 11
3.693897637795275
 21
5.115157480314961
 31
0.0
  0
LINE
  5
4323
330
1E
100
AcDbEntity
  8
0
100
AcDbLine
 10
3.693897637795275
 20
5.115157480314961
 30
0.0
 11
3.69783464566929
 21
5.117125984251968
 31
0.0
  0
LINE
  5
4324
330
1E
100
AcDbEntity
  8
0
100
AcDbLine
 10
3.69783464566929
 20
5.117125984251968
 30
0.0
 11
3.701771653543307
 21
5.117125984251968
 31
0.0
  0
LINE
  5
4325
330
1E
100
AcDbEntity
  8
0
100
AcDbLine
 10
3.701771653543307
 20
5.117125984251968
 30
0.0
 11
3.703740157480314
 21
5.119094488188975
 31
0.0
  0
LINE
  5
4326
330
1E
100
AcDbEntity
  8
0
100
AcDbLine
 10
3.703740157480314
 20
5.119094488188975
 30
0.0
 11
3.707677165354331
 21
5.119094488188975
 31
0.0
  0
LINE
  5
4327
330
1E
100
AcDbEntity
  8
0
100
AcDbLine
 10
3.707677165354331
 20
5.119094488188975
 30
0.0
 11
3.711614173228346
 21
5.119094488188975
 31
0.0
  0
LINE
  5
4328
330
1E
100
AcDbEntity
  8
0
100
AcDbLine
 10
3.83759842519685
 20
5.189960629921259
 30
0.0
 11
3.83759842519685
 21
5.193897637795275
 31
0.0
  0
LINE
  5
4329
330
1E
100
AcDbEntity
  8
0
100
AcDbLine
 10
3.83759842519685
 20
5.193897637795275
 30
0.0
 11
3.83759842519685
 21
5.19783464566929
 31
0.0
  0
LINE
  5
432A
330
1E
100
AcDbEntity
  8
0
100
AcDbLine
 10
3.83759842519685
 20
5.19783464566929
 30
0.0
 11
3.835629921259842
 21
5.201771653543307
 31
0.0
  0
LINE
  5
432B
330
1E
100
AcDbEntity
  8
0
100
AcDbLine
 10
3.835629921259842
 20
5.201771653543307
 30
0.0
 11
3.833661417322835
 21
5.205708661417322
 31
0.0
  0
LINE
  5
432C
330
1E
100
AcDbEntity
  8
0
100
AcDbLine
 10
3.833661417322835
 20
5.205708661417322
 30
0.0
 11
3.831692913385825
 21
5.211614173228346
 31
0.0
  0
LINE
  5
432D
330
1E
100
AcDbEntity
  8
0
100
AcDbLine
 10
3.831692913385825
 20
5.211614173228346
 30
0.0
 11
3.829724409448818
 21
5.215551181102362
 31
0.0
  0
LINE
  5
432E
330
1E
100
AcDbEntity
  8
0
100
AcDbLine
 10
3.829724409448818
 20
5.215551181102362
 30
0.0
 11
3.825787401574803
 21
5.219488188976377
 31
0.0
  0
LINE
  5
432F
330
1E
100
AcDbEntity
  8
0
100
AcDbLine
 10
3.825787401574803
 20
5.219488188976377
 30
0.0
 11
3.821850393700787
 21
5.221456692913385
 31
0.0
  0
LINE
  5
4330
330
1E
100
AcDbEntity
  8
0
100
AcDbLine
 10
3.821850393700787
 20
5.221456692913385
 30
0.0
 11
3.817913385826772
 21
5.225393700787401
 31
0.0
  0
LINE
  5
4331
330
1E
100
AcDbEntity
  8
0
100
AcDbLine
 10
3.817913385826772
 20
5.225393700787401
 30
0.0
 11
3.813976377952755
 21
5.229330708661416
 31
0.0
  0
LINE
  5
4332
330
1E
100
AcDbEntity
  8
0
100
AcDbLine
 10
3.813976377952755
 20
5.229330708661416
 30
0.0
 11
3.81003937007874
 21
5.231299212598425
 31
0.0
  0
LINE
  5
4333
330
1E
100
AcDbEntity
  8
0
100
AcDbLine
 10
3.81003937007874
 20
5.231299212598425
 30
0.0
 11
3.806102362204724
 21
5.23523622047244
 31
0.0
  0
LINE
  5
4334
330
1E
100
AcDbEntity
  8
0
100
AcDbLine
 10
3.806102362204724
 20
5.23523622047244
 30
0.0
 11
3.8001968503937
 21
5.237204724409448
 31
0.0
  0
LINE
  5
4335
330
1E
100
AcDbEntity
  8
0
100
AcDbLine
 10
3.8001968503937
 20
5.237204724409448
 30
0.0
 11
3.794291338582677
 21
5.239173228346457
 31
0.0
  0
LINE
  5
4336
330
1E
100
AcDbEntity
  8
0
100
AcDbLine
 10
3.794291338582677
 20
5.239173228346457
 30
0.0
 11
3.790354330708661
 21
5.241141732283464
 31
0.0
  0
LINE
  5
4337
330
1E
100
AcDbEntity
  8
0
100
AcDbLine
 10
3.790354330708661
 20
5.241141732283464
 30
0.0
 11
3.784448818897637
 21
5.241141732283464
 31
0.0
  0
LINE
  5
4338
330
1E
100
AcDbEntity
  8
0
100
AcDbLine
 10
3.784448818897637
 20
5.241141732283464
 30
0.0
 11
3.778543307086614
 21
5.243110236220472
 31
0.0
  0
LINE
  5
4339
330
1E
100
AcDbEntity
  8
0
100
AcDbLine
 10
3.778543307086614
 20
5.243110236220472
 30
0.0
 11
3.77263779527559
 21
5.243110236220472
 31
0.0
  0
LINE
  5
433A
330
1E
100
AcDbEntity
  8
0
100
AcDbLine
 10
3.77263779527559
 20
5.243110236220472
 30
0.0
 11
3.766732283464566
 21
5.243110236220472
 31
0.0
  0
LINE
  5
433B
330
1E
100
AcDbEntity
  8
0
100
AcDbLine
 10
3.766732283464566
 20
5.243110236220472
 30
0.0
 11
3.764763779527559
 21
5.245078740157479
 31
0.0
  0
LINE
  5
433C
330
1E
100
AcDbEntity
  8
0
100
AcDbLine
 10
3.764763779527559
 20
5.119094488188975
 30
0.0
 11
3.766732283464566
 21
5.119094488188975
 31
0.0
  0
LINE
  5
433D
330
1E
100
AcDbEntity
  8
0
100
AcDbLine
 10
3.766732283464566
 20
5.119094488188975
 30
0.0
 11
3.770669291338583
 21
5.119094488188975
 31
0.0
  0
LINE
  5
433E
330
1E
100
AcDbEntity
  8
0
100
AcDbLine
 10
3.770669291338583
 20
5.119094488188975
 30
0.0
 11
3.776574803149605
 21
5.121062992125985
 31
0.0
  0
LINE
  5
433F
330
1E
100
AcDbEntity
  8
0
100
AcDbLine
 10
3.776574803149605
 20
5.121062992125985
 30
0.0
 11
3.782480314960629
 21
5.121062992125985
 31
0.0
  0
LINE
  5
4340
330
1E
100
AcDbEntity
  8
0
100
AcDbLine
 10
3.782480314960629
 20
5.121062992125985
 30
0.0
 11
3.788385826771653
 21
5.123031496062992
 31
0.0
  0
LINE
  5
4341
330
1E
100
AcDbEntity
  8
0
100
AcDbLine
 10
3.788385826771653
 20
5.123031496062992
 30
0.0
 11
3.794291338582677
 21
5.123031496062992
 31
0.0
  0
LINE
  5
4342
330
1E
100
AcDbEntity
  8
0
100
AcDbLine
 10
3.794291338582677
 20
5.123031496062992
 30
0.0
 11
3.798228346456692
 21
5.126968503937007
 31
0.0
  0
LINE
  5
4343
330
1E
100
AcDbEntity
  8
0
100
AcDbLine
 10
3.798228346456692
 20
5.126968503937007
 30
0.0
 11
3.804133858267716
 21
5.128937007874016
 31
0.0
  0
LINE
  5
4344
330
1E
100
AcDbEntity
  8
0
100
AcDbLine
 10
3.804133858267716
 20
5.128937007874016
 30
0.0
 11
3.81003937007874
 21
5.130905511811024
 31
0.0
  0
LINE
  5
4345
330
1E
100
AcDbEntity
  8
0
100
AcDbLine
 10
3.81003937007874
 20
5.130905511811024
 30
0.0
 11
3.813976377952755
 21
5.134842519685038
 31
0.0
  0
LINE
  5
4346
330
1E
100
AcDbEntity
  8
0
100
AcDbLine
 10
3.813976377952755
 20
5.134842519685038
 30
0.0
 11
3.817913385826772
 21
5.136811023622048
 31
0.0
  0
LINE
  5
4347
330
1E
100
AcDbEntity
  8
0
100
AcDbLine
 10
3.817913385826772
 20
5.136811023622048
 30
0.0
 11
3.821850393700787
 21
5.140748031496062
 31
0.0
  0
LINE
  5
4348
330
1E
100
AcDbEntity
  8
0
100
AcDbLine
 10
3.821850393700787
 20
5.140748031496062
 30
0.0
 11
3.825787401574803
 21
5.144685039370079
 31
0.0
  0
LINE
  5
4349
330
1E
100
AcDbEntity
  8
0
100
AcDbLine
 10
3.825787401574803
 20
5.144685039370079
 30
0.0
 11
3.829724409448818
 21
5.148622047244094
 31
0.0
  0
LINE
  5
434A
330
1E
100
AcDbEntity
  8
0
100
AcDbLine
 10
3.829724409448818
 20
5.148622047244094
 30
0.0
 11
3.831692913385825
 21
5.152559055118111
 31
0.0
  0
LINE
  5
434B
330
1E
100
AcDbEntity
  8
0
100
AcDbLine
 10
3.831692913385825
 20
5.152559055118111
 30
0.0
 11
3.833661417322835
 21
5.158464566929133
 31
0.0
  0
LINE
  5
434C
330
1E
100
AcDbEntity
  8
0
100
AcDbLine
 10
3.833661417322835
 20
5.158464566929133
 30
0.0
 11
3.835629921259842
 21
5.162401574803149
 31
0.0
  0
LINE
  5
434D
330
1E
100
AcDbEntity
  8
0
100
AcDbLine
 10
3.835629921259842
 20
5.162401574803149
 30
0.0
 11
3.83759842519685
 21
5.168307086614174
 31
0.0
  0
LINE
  5
434E
330
1E
100
AcDbEntity
  8
0
100
AcDbLine
 10
3.83759842519685
 20
5.168307086614174
 30
0.0
 11
3.83759842519685
 21
5.172244094488188
 31
0.0
  0
LINE
  5
434F
330
1E
100
AcDbEntity
  8
0
100
AcDbLine
 10
3.83759842519685
 20
5.172244094488188
 30
0.0
 11
3.839566929133857
 21
5.176181102362205
 31
0.0
  0
LINE
  5
4350
330
1E
100
AcDbEntity
  8
0
100
AcDbLine
 10
3.839566929133857
 20
5.176181102362205
 30
0.0
 11
3.839566929133857
 21
5.178149606299212
 31
0.0
  0
LINE
  5
4351
330
1E
100
AcDbEntity
  8
0
100
AcDbLine
 10
-0.0364173228346454
 20
5.119094488188975
 30
0.0
 11
-0.034448818897638
 21
5.119094488188975
 31
0.0
  0
LINE
  5
4352
330
1E
100
AcDbEntity
  8
0
100
AcDbLine
 10
-0.034448818897638
 20
5.119094488188975
 30
0.0
 11
-0.0324803149606297
 21
5.119094488188975
 31
0.0
  0
LINE
  5
4353
330
1E
100
AcDbEntity
  8
0
100
AcDbLine
 10
-0.0324803149606297
 20
5.119094488188975
 30
0.0
 11
-0.0285433070866139
 21
5.119094488188975
 31
0.0
  0
LINE
  5
4354
330
1E
100
AcDbEntity
  8
0
100
AcDbLine
 10
-0.0285433070866139
 20
5.119094488188975
 30
0.0
 11
-0.0246062992125982
 21
5.119094488188975
 31
0.0
  0
LINE
  5
4355
330
1E
100
AcDbEntity
  8
0
100
AcDbLine
 10
-0.0246062992125982
 20
5.119094488188975
 30
0.0
 11
-0.0206692913385824
 21
5.117125984251968
 31
0.0
  0
LINE
  5
4356
330
1E
100
AcDbEntity
  8
0
100
AcDbLine
 10
-0.0206692913385824
 20
5.117125984251968
 30
0.0
 11
-0.018700787401575
 21
5.117125984251968
 31
0.0
  0
LINE
  5
4357
330
1E
100
AcDbEntity
  8
0
100
AcDbLine
 10
-0.018700787401575
 20
5.117125984251968
 30
0.0
 11
-0.0167322834645667
 21
5.115157480314961
 31
0.0
  0
LINE
  5
4358
330
1E
100
AcDbEntity
  8
0
100
AcDbLine
 10
-0.0167322834645667
 20
5.115157480314961
 30
0.0
 11
-0.012795275590551
 21
5.113188976377953
 31
0.0
  0
LINE
  5
4359
330
1E
100
AcDbEntity
  8
0
100
AcDbLine
 10
-0.012795275590551
 20
5.113188976377953
 30
0.0
 11
-0.0108267716535435
 21
5.113188976377953
 31
0.0
  0
LINE
  5
435A
330
1E
100
AcDbEntity
  8
0
100
AcDbLine
 10
-0.0108267716535435
 20
5.113188976377953
 30
0.0
 11
-0.0088582677165352
 21
5.111220472440944
 31
0.0
  0
LINE
  5
435B
330
1E
100
AcDbEntity
  8
0
100
AcDbLine
 10
-0.0088582677165352
 20
5.111220472440944
 30
0.0
 11
-0.0088582677165352
 21
5.109251968503937
 31
0.0
  0
LINE
  5
435C
330
1E
100
AcDbEntity
  8
0
100
AcDbLine
 10
-0.0088582677165352
 20
5.109251968503937
 30
0.0
 11
-0.0068897637795278
 21
5.107283464566929
 31
0.0
  0
LINE
  5
435D
330
1E
100
AcDbEntity
  8
0
100
AcDbLine
 10
-0.0068897637795278
 20
5.107283464566929
 30
0.0
 11
-0.0068897637795278
 21
5.105314960629922
 31
0.0
  0
LINE
  5
435E
330
1E
100
AcDbEntity
  8
0
100
AcDbLine
 10
-0.0068897637795278
 20
5.105314960629922
 30
0.0
 11
-0.0049212598425195
 21
5.105314960629922
 31
0.0
  0
LINE
  5
435F
330
1E
100
AcDbEntity
  8
0
100
AcDbLine
 10
-0.0049212598425195
 20
5.105314960629922
 30
0.0
 11
-0.0049212598425195
 21
5.103346456692912
 31
0.0
  0
LINE
  5
4360
330
1E
100
AcDbEntity
  8
0
100
AcDbLine
 10
-0.08759842519685
 20
5.245078740157479
 30
0.0
 11
-0.0895669291338584
 21
5.245078740157479
 31
0.0
  0
LINE
  5
4361
330
1E
100
AcDbEntity
  8
0
100
AcDbLine
 10
-0.0895669291338584
 20
5.245078740157479
 30
0.0
 11
-0.0935039370078741
 21
5.243110236220472
 31
0.0
  0
LINE
  5
4362
330
1E
100
AcDbEntity
  8
0
100
AcDbLine
 10
-0.0935039370078741
 20
5.243110236220472
 30
0.0
 11
-0.0994094488188973
 21
5.243110236220472
 31
0.0
  0
LINE
  5
4363
330
1E
100
AcDbEntity
  8
0
100
AcDbLine
 10
-0.0994094488188973
 20
5.243110236220472
 30
0.0
 11
-0.1053149606299213
 21
5.243110236220472
 31
0.0
  0
LINE
  5
4364
330
1E
100
AcDbEntity
  8
0
100
AcDbLine
 10
-0.1053149606299213
 20
5.243110236220472
 30
0.0
 11
-0.1112204724409445
 21
5.241141732283464
 31
0.0
  0
LINE
  5
4365
330
1E
100
AcDbEntity
  8
0
100
AcDbLine
 10
-0.1112204724409445
 20
5.241141732283464
 30
0.0
 11
-0.1171259842519685
 21
5.239173228346457
 31
0.0
  0
LINE
  5
4366
330
1E
100
AcDbEntity
  8
0
100
AcDbLine
 10
-0.1171259842519685
 20
5.239173228346457
 30
0.0
 11
-0.1230314960629917
 21
5.237204724409448
 31
0.0
  0
LINE
  5
4367
330
1E
100
AcDbEntity
  8
0
100
AcDbLine
 10
-0.1230314960629917
 20
5.237204724409448
 30
0.0
 11
-0.1269685039370074
 21
5.23523622047244
 31
0.0
  0
LINE
  5
4368
330
1E
100
AcDbEntity
  8
0
100
AcDbLine
 10
-0.1269685039370074
 20
5.23523622047244
 30
0.0
 11
-0.1328740157480315
 21
5.233267716535433
 31
0.0
  0
LINE
  5
4369
330
1E
100
AcDbEntity
  8
0
100
AcDbLine
 10
-0.1328740157480315
 20
5.233267716535433
 30
0.0
 11
-0.1368110236220472
 21
5.229330708661416
 31
0.0
  0
LINE
  5
436A
330
1E
100
AcDbEntity
  8
0
100
AcDbLine
 10
-0.1368110236220472
 20
5.229330708661416
 30
0.0
 11
-0.140748031496063
 21
5.225393700787401
 31
0.0
  0
LINE
  5
436B
330
1E
100
AcDbEntity
  8
0
100
AcDbLine
 10
-0.140748031496063
 20
5.225393700787401
 30
0.0
 11
-0.1466535433070861
 21
5.223425196850394
 31
0.0
  0
LINE
  5
436C
330
1E
100
AcDbEntity
  8
0
100
AcDbLine
 10
-0.1466535433070861
 20
5.223425196850394
 30
0.0
 11
-0.1486220472440944
 21
5.219488188976377
 31
0.0
  0
LINE
  5
436D
330
1E
100
AcDbEntity
  8
0
100
AcDbLine
 10
-0.1486220472440944
 20
5.219488188976377
 30
0.0
 11
-0.1525590551181102
 21
5.213582677165353
 31
0.0
  0
LINE
  5
436E
330
1E
100
AcDbEntity
  8
0
100
AcDbLine
 10
-0.1525590551181102
 20
5.213582677165353
 30
0.0
 11
-0.1545275590551176
 21
5.209645669291338
 31
0.0
  0
LINE
  5
436F
330
1E
100
AcDbEntity
  8
0
100
AcDbLine
 10
-0.1545275590551176
 20
5.209645669291338
 30
0.0
 11
-0.1584645669291333
 21
5.205708661417322
 31
0.0
  0
LINE
  5
4370
330
1E
100
AcDbEntity
  8
0
100
AcDbLine
 10
-0.1584645669291333
 20
5.205708661417322
 30
0.0
 11
-0.1604330708661417
 21
5.201771653543307
 31
0.0
  0
LINE
  5
4371
330
1E
100
AcDbEntity
  8
0
100
AcDbLine
 10
-0.1604330708661417
 20
5.201771653543307
 30
0.0
 11
-0.1604330708661417
 21
5.195866141732283
 31
0.0
  0
LINE
  5
4372
330
1E
100
AcDbEntity
  8
0
100
AcDbLine
 10
-0.1604330708661417
 20
5.195866141732283
 30
0.0
 11
-0.1624015748031491
 21
5.191929133858268
 31
0.0
  0
LINE
  5
4373
330
1E
100
AcDbEntity
  8
0
100
AcDbLine
 10
-0.1624015748031491
 20
5.191929133858268
 30
0.0
 11
-0.1624015748031491
 21
5.186023622047244
 31
0.0
  0
LINE
  5
4374
330
1E
100
AcDbEntity
  8
0
100
AcDbLine
 10
-0.1624015748031491
 20
5.186023622047244
 30
0.0
 11
-0.1624015748031491
 21
5.184055118110237
 31
0.0
  0
LINE
  5
4375
330
1E
100
AcDbEntity
  8
0
100
AcDbLine
 10
-0.1624015748031491
 20
5.178149606299212
 30
0.0
 11
-0.1624015748031491
 21
5.174212598425196
 31
0.0
  0
LINE
  5
4376
330
1E
100
AcDbEntity
  8
0
100
AcDbLine
 10
-0.1624015748031491
 20
5.174212598425196
 30
0.0
 11
-0.1624015748031491
 21
5.170275590551181
 31
0.0
  0
LINE
  5
4377
330
1E
100
AcDbEntity
  8
0
100
AcDbLine
 10
-0.1624015748031491
 20
5.170275590551181
 30
0.0
 11
-0.1604330708661417
 21
5.166338582677164
 31
0.0
  0
LINE
  5
4378
330
1E
100
AcDbEntity
  8
0
100
AcDbLine
 10
-0.1604330708661417
 20
5.166338582677164
 30
0.0
 11
-0.1584645669291333
 21
5.160433070866142
 31
0.0
  0
LINE
  5
4379
330
1E
100
AcDbEntity
  8
0
100
AcDbLine
 10
-0.1584645669291333
 20
5.160433070866142
 30
0.0
 11
-0.1564960629921259
 21
5.156496062992125
 31
0.0
  0
LINE
  5
437A
330
1E
100
AcDbEntity
  8
0
100
AcDbLine
 10
-0.1564960629921259
 20
5.156496062992125
 30
0.0
 11
-0.1545275590551176
 21
5.152559055118111
 31
0.0
  0
LINE
  5
437B
330
1E
100
AcDbEntity
  8
0
100
AcDbLine
 10
-0.1545275590551176
 20
5.152559055118111
 30
0.0
 11
-0.1525590551181102
 21
5.148622047244094
 31
0.0
  0
LINE
  5
437C
330
1E
100
AcDbEntity
  8
0
100
AcDbLine
 10
-0.1525590551181102
 20
5.148622047244094
 30
0.0
 11
-0.1486220472440944
 21
5.144685039370079
 31
0.0
  0
LINE
  5
437D
330
1E
100
AcDbEntity
  8
0
100
AcDbLine
 10
-0.1486220472440944
 20
5.144685039370079
 30
0.0
 11
-0.1466535433070861
 21
5.140748031496062
 31
0.0
  0
LINE
  5
437E
330
1E
100
AcDbEntity
  8
0
100
AcDbLine
 10
-0.1466535433070861
 20
5.140748031496062
 30
0.0
 11
-0.1427165354330704
 21
5.138779527559055
 31
0.0
  0
LINE
  5
437F
330
1E
100
AcDbEntity
  8
0
100
AcDbLine
 10
-0.1427165354330704
 20
5.138779527559055
 30
0.0
 11
-0.1387795275590546
 21
5.134842519685038
 31
0.0
  0
LINE
  5
4380
330
1E
100
AcDbEntity
  8
0
100
AcDbLine
 10
-0.1387795275590546
 20
5.134842519685038
 30
0.0
 11
-0.1328740157480315
 21
5.130905511811024
 31
0.0
  0
LINE
  5
4381
330
1E
100
AcDbEntity
  8
0
100
AcDbLine
 10
-0.1328740157480315
 20
5.130905511811024
 30
0.0
 11
-0.1289370078740157
 21
5.128937007874016
 31
0.0
  0
LINE
  5
4382
330
1E
100
AcDbEntity
  8
0
100
AcDbLine
 10
-0.1289370078740157
 20
5.128937007874016
 30
0.0
 11
-0.1230314960629917
 21
5.126968503937007
 31
0.0
  0
LINE
  5
4383
330
1E
100
AcDbEntity
  8
0
100
AcDbLine
 10
-0.1230314960629917
 20
5.126968503937007
 30
0.0
 11
-0.1190944881889759
 21
5.125
 31
0.0
  0
LINE
  5
4384
330
1E
100
AcDbEntity
  8
0
100
AcDbLine
 10
-0.1190944881889759
 20
5.125
 30
0.0
 11
-0.1131889763779528
 21
5.123031496062992
 31
0.0
  0
LINE
  5
4385
330
1E
100
AcDbEntity
  8
0
100
AcDbLine
 10
-0.1131889763779528
 20
5.123031496062992
 30
0.0
 11
-0.1072834645669287
 21
5.121062992125985
 31
0.0
  0
LINE
  5
4386
330
1E
100
AcDbEntity
  8
0
100
AcDbLine
 10
-0.1072834645669287
 20
5.121062992125985
 30
0.0
 11
-0.1013779527559055
 21
5.121062992125985
 31
0.0
  0
LINE
  5
4387
330
1E
100
AcDbEntity
  8
0
100
AcDbLine
 10
-0.1013779527559055
 20
5.121062992125985
 30
0.0
 11
-0.0954724409448815
 21
5.119094488188975
 31
0.0
  0
LINE
  5
4388
330
1E
100
AcDbEntity
  8
0
100
AcDbLine
 10
-0.0954724409448815
 20
5.119094488188975
 30
0.0
 11
-0.0895669291338584
 21
5.119094488188975
 31
0.0
  0
LINE
  5
4389
330
1E
100
AcDbEntity
  8
0
100
AcDbLine
 10
-0.0895669291338584
 20
5.119094488188975
 30
0.0
 11
-0.08759842519685
 21
5.119094488188975
 31
0.0
  0
LINE
  5
438A
330
1E
100
AcDbEntity
  8
0
100
AcDbLine
 10
1.319881889763779
 20
5.103346456692912
 30
0.0
 11
1.319881889763779
 21
5.105314960629922
 31
0.0
  0
LINE
  5
438B
330
1E
100
AcDbEntity
  8
0
100
AcDbLine
 10
1.319881889763779
 20
5.105314960629922
 30
0.0
 11
1.321850393700787
 21
5.107283464566929
 31
0.0
  0
LINE
  5
438C
330
1E
100
AcDbEntity
  8
0
100
AcDbLine
 10
1.321850393700787
 20
5.107283464566929
 30
0.0
 11
1.321850393700787
 21
5.109251968503937
 31
0.0
  0
LINE
  5
438D
330
1E
100
AcDbEntity
  8
0
100
AcDbLine
 10
1.321850393700787
 20
5.109251968503937
 30
0.0
 11
1.323818897637795
 21
5.111220472440944
 31
0.0
  0
LINE
  5
438E
330
1E
100
AcDbEntity
  8
0
100
AcDbLine
 10
1.323818897637795
 20
5.111220472440944
 30
0.0
 11
1.325787401574802
 21
5.111220472440944
 31
0.0
  0
LINE
  5
438F
330
1E
100
AcDbEntity
  8
0
100
AcDbLine
 10
1.325787401574802
 20
5.111220472440944
 30
0.0
 11
1.327755905511811
 21
5.113188976377953
 31
0.0
  0
LINE
  5
4390
330
1E
100
AcDbEntity
  8
0
100
AcDbLine
 10
1.327755905511811
 20
5.113188976377953
 30
0.0
 11
1.329724409448818
 21
5.115157480314961
 31
0.0
  0
LINE
  5
4391
330
1E
100
AcDbEntity
  8
0
100
AcDbLine
 10
1.329724409448818
 20
5.115157480314961
 30
0.0
 11
1.333661417322834
 21
5.115157480314961
 31
0.0
  0
LINE
  5
4392
330
1E
100
AcDbEntity
  8
0
100
AcDbLine
 10
1.333661417322834
 20
5.115157480314961
 30
0.0
 11
1.335629921259842
 21
5.117125984251968
 31
0.0
  0
LINE
  5
4393
330
1E
100
AcDbEntity
  8
0
100
AcDbLine
 10
1.335629921259842
 20
5.117125984251968
 30
0.0
 11
1.339566929133858
 21
5.117125984251968
 31
0.0
  0
LINE
  5
4394
330
1E
100
AcDbEntity
  8
0
100
AcDbLine
 10
1.339566929133858
 20
5.117125984251968
 30
0.0
 11
1.343503937007874
 21
5.119094488188975
 31
0.0
  0
LINE
  5
4395
330
1E
100
AcDbEntity
  8
0
100
AcDbLine
 10
1.343503937007874
 20
5.119094488188975
 30
0.0
 11
1.345472440944882
 21
5.119094488188975
 31
0.0
  0
LINE
  5
4396
330
1E
100
AcDbEntity
  8
0
100
AcDbLine
 10
1.345472440944882
 20
5.119094488188975
 30
0.0
 11
1.349409448818898
 21
5.119094488188975
 31
0.0
  0
LINE
  5
4397
330
1E
100
AcDbEntity
  8
0
100
AcDbLine
 10
1.477362204724409
 20
5.189960629921259
 30
0.0
 11
1.475393700787401
 21
5.193897637795275
 31
0.0
  0
LINE
  5
4398
330
1E
100
AcDbEntity
  8
0
100
AcDbLine
 10
1.475393700787401
 20
5.193897637795275
 30
0.0
 11
1.475393700787401
 21
5.19783464566929
 31
0.0
  0
LINE
  5
4399
330
1E
100
AcDbEntity
  8
0
100
AcDbLine
 10
1.475393700787401
 20
5.19783464566929
 30
0.0
 11
1.473425196850393
 21
5.201771653543307
 31
0.0
  0
LINE
  5
439A
330
1E
100
AcDbEntity
  8
0
100
AcDbLine
 10
1.473425196850393
 20
5.201771653543307
 30
0.0
 11
1.471456692913386
 21
5.205708661417322
 31
0.0
  0
LINE
  5
439B
330
1E
100
AcDbEntity
  8
0
100
AcDbLine
 10
1.471456692913386
 20
5.205708661417322
 30
0.0
 11
1.469488188976377
 21
5.211614173228346
 31
0.0
  0
LINE
  5
439C
330
1E
100
AcDbEntity
  8
0
100
AcDbLine
 10
1.469488188976377
 20
5.211614173228346
 30
0.0
 11
1.46751968503937
 21
5.215551181102362
 31
0.0
  0
LINE
  5
439D
330
1E
100
AcDbEntity
  8
0
100
AcDbLine
 10
1.46751968503937
 20
5.215551181102362
 30
0.0
 11
1.463582677165354
 21
5.219488188976377
 31
0.0
  0
LINE
  5
439E
330
1E
100
AcDbEntity
  8
0
100
AcDbLine
 10
1.463582677165354
 20
5.219488188976377
 30
0.0
 11
1.459645669291338
 21
5.221456692913385
 31
0.0
  0
LINE
  5
439F
330
1E
100
AcDbEntity
  8
0
100
AcDbLine
 10
1.459645669291338
 20
5.221456692913385
 30
0.0
 11
1.45767716535433
 21
5.225393700787401
 31
0.0
  0
LINE
  5
43A0
330
1E
100
AcDbEntity
  8
0
100
AcDbLine
 10
1.45767716535433
 20
5.225393700787401
 30
0.0
 11
1.451771653543307
 21
5.229330708661416
 31
0.0
  0
LINE
  5
43A1
330
1E
100
AcDbEntity
  8
0
100
AcDbLine
 10
1.451771653543307
 20
5.229330708661416
 30
0.0
 11
1.447834645669291
 21
5.231299212598425
 31
0.0
  0
LINE
  5
43A2
330
1E
100
AcDbEntity
  8
0
100
AcDbLine
 10
1.447834645669291
 20
5.231299212598425
 30
0.0
 11
1.443897637795275
 21
5.23523622047244
 31
0.0
  0
LINE
  5
43A3
330
1E
100
AcDbEntity
  8
0
100
AcDbLine
 10
1.443897637795275
 20
5.23523622047244
 30
0.0
 11
1.437992125984251
 21
5.237204724409448
 31
0.0
  0
LINE
  5
43A4
330
1E
100
AcDbEntity
  8
0
100
AcDbLine
 10
1.437992125984251
 20
5.237204724409448
 30
0.0
 11
1.434055118110236
 21
5.239173228346457
 31
0.0
  0
LINE
  5
43A5
330
1E
100
AcDbEntity
  8
0
100
AcDbLine
 10
1.434055118110236
 20
5.239173228346457
 30
0.0
 11
1.428149606299212
 21
5.241141732283464
 31
0.0
  0
LINE
  5
43A6
330
1E
100
AcDbEntity
  8
0
100
AcDbLine
 10
1.428149606299212
 20
5.241141732283464
 30
0.0
 11
1.422244094488188
 21
5.241141732283464
 31
0.0
  0
LINE
  5
43A7
330
1E
100
AcDbEntity
  8
0
100
AcDbLine
 10
1.422244094488188
 20
5.241141732283464
 30
0.0
 11
1.416338582677165
 21
5.243110236220472
 31
0.0
  0
LINE
  5
43A8
330
1E
100
AcDbEntity
  8
0
100
AcDbLine
 10
1.416338582677165
 20
5.243110236220472
 30
0.0
 11
1.410433070866141
 21
5.243110236220472
 31
0.0
  0
LINE
  5
43A9
330
1E
100
AcDbEntity
  8
0
100
AcDbLine
 10
1.410433070866141
 20
5.243110236220472
 30
0.0
 11
1.404527559055118
 21
5.243110236220472
 31
0.0
  0
LINE
  5
43AA
330
1E
100
AcDbEntity
  8
0
100
AcDbLine
 10
1.404527559055118
 20
5.243110236220472
 30
0.0
 11
1.40255905511811
 21
5.245078740157479
 31
0.0
  0
LINE
  5
43AB
330
1E
100
AcDbEntity
  8
0
100
AcDbLine
 10
1.40255905511811
 20
5.119094488188975
 30
0.0
 11
1.404527559055118
 21
5.119094488188975
 31
0.0
  0
LINE
  5
43AC
330
1E
100
AcDbEntity
  8
0
100
AcDbLine
 10
1.404527559055118
 20
5.119094488188975
 30
0.0
 11
1.408464566929134
 21
5.119094488188975
 31
0.0
  0
LINE
  5
43AD
330
1E
100
AcDbEntity
  8
0
100
AcDbLine
 10
1.408464566929134
 20
5.119094488188975
 30
0.0
 11
1.414370078740157
 21
5.121062992125985
 31
0.0
  0
LINE
  5
43AE
330
1E
100
AcDbEntity
  8
0
100
AcDbLine
 10
1.414370078740157
 20
5.121062992125985
 30
0.0
 11
1.420275590551181
 21
5.121062992125985
 31
0.0
  0
LINE
  5
43AF
330
1E
100
AcDbEntity
  8
0
100
AcDbLine
 10
1.420275590551181
 20
5.121062992125985
 30
0.0
 11
1.426181102362204
 21
5.123031496062992
 31
0.0
  0
LINE
  5
43B0
330
1E
100
AcDbEntity
  8
0
100
AcDbLine
 10
1.426181102362204
 20
5.123031496062992
 30
0.0
 11
1.432086614173228
 21
5.123031496062992
 31
0.0
  0
LINE
  5
43B1
330
1E
100
AcDbEntity
  8
0
100
AcDbLine
 10
1.432086614173228
 20
5.123031496062992
 30
0.0
 11
1.436023622047244
 21
5.126968503937007
 31
0.0
  0
LINE
  5
43B2
330
1E
100
AcDbEntity
  8
0
100
AcDbLine
 10
1.436023622047244
 20
5.126968503937007
 30
0.0
 11
1.441929133858267
 21
5.128937007874016
 31
0.0
  0
LINE
  5
43B3
330
1E
100
AcDbEntity
  8
0
100
AcDbLine
 10
1.441929133858267
 20
5.128937007874016
 30
0.0
 11
1.447834645669291
 21
5.130905511811024
 31
0.0
  0
LINE
  5
43B4
330
1E
100
AcDbEntity
  8
0
100
AcDbLine
 10
1.447834645669291
 20
5.130905511811024
 30
0.0
 11
1.451771653543307
 21
5.134842519685038
 31
0.0
  0
LINE
  5
43B5
330
1E
100
AcDbEntity
  8
0
100
AcDbLine
 10
1.451771653543307
 20
5.134842519685038
 30
0.0
 11
1.455708661417323
 21
5.136811023622048
 31
0.0
  0
LINE
  5
43B6
330
1E
100
AcDbEntity
  8
0
100
AcDbLine
 10
1.455708661417323
 20
5.136811023622048
 30
0.0
 11
1.459645669291338
 21
5.140748031496062
 31
0.0
  0
LINE
  5
43B7
330
1E
100
AcDbEntity
  8
0
100
AcDbLine
 10
1.459645669291338
 20
5.140748031496062
 30
0.0
 11
1.463582677165354
 21
5.144685039370079
 31
0.0
  0
LINE
  5
43B8
330
1E
100
AcDbEntity
  8
0
100
AcDbLine
 10
1.463582677165354
 20
5.144685039370079
 30
0.0
 11
1.46751968503937
 21
5.148622047244094
 31
0.0
  0
LINE
  5
43B9
330
1E
100
AcDbEntity
  8
0
100
AcDbLine
 10
1.46751968503937
 20
5.148622047244094
 30
0.0
 11
1.469488188976377
 21
5.152559055118111
 31
0.0
  0
LINE
  5
43BA
330
1E
100
AcDbEntity
  8
0
100
AcDbLine
 10
1.469488188976377
 20
5.152559055118111
 30
0.0
 11
1.471456692913386
 21
5.158464566929133
 31
0.0
  0
LINE
  5
43BB
330
1E
100
AcDbEntity
  8
0
100
AcDbLine
 10
1.471456692913386
 20
5.158464566929133
 30
0.0
 11
1.473425196850393
 21
5.162401574803149
 31
0.0
  0
LINE
  5
43BC
330
1E
100
AcDbEntity
  8
0
100
AcDbLine
 10
1.473425196850393
 20
5.162401574803149
 30
0.0
 11
1.475393700787401
 21
5.168307086614174
 31
0.0
  0
LINE
  5
43BD
330
1E
100
AcDbEntity
  8
0
100
AcDbLine
 10
1.475393700787401
 20
5.168307086614174
 30
0.0
 11
1.477362204724409
 21
5.172244094488188
 31
0.0
  0
LINE
  5
43BE
330
1E
100
AcDbEntity
  8
0
100
AcDbLine
 10
1.477362204724409
 20
5.172244094488188
 30
0.0
 11
1.477362204724409
 21
5.176181102362205
 31
0.0
  0
LINE
  5
43BF
330
1E
100
AcDbEntity
  8
0
100
AcDbLine
 10
1.477362204724409
 20
5.176181102362205
 30
0.0
 11
1.477362204724409
 21
5.178149606299212
 31
0.0
  0
LINE
  5
43C0
330
1E
100
AcDbEntity
  8
0
100
AcDbLine
 10
2.325787401574802
 20
5.119094488188975
 30
0.0
 11
2.327755905511811
 21
5.119094488188975
 31
0.0
  0
LINE
  5
43C1
330
1E
100
AcDbEntity
  8
0
100
AcDbLine
 10
2.327755905511811
 20
5.119094488188975
 30
0.0
 11
2.329724409448818
 21
5.119094488188975
 31
0.0
  0
LINE
  5
43C2
330
1E
100
AcDbEntity
  8
0
100
AcDbLine
 10
2.329724409448818
 20
5.119094488188975
 30
0.0
 11
2.333661417322834
 21
5.119094488188975
 31
0.0
  0
LINE
  5
43C3
330
1E
100
AcDbEntity
  8
0
100
AcDbLine
 10
2.333661417322834
 20
5.119094488188975
 30
0.0
 11
2.33759842519685
 21
5.119094488188975
 31
0.0
  0
LINE
  5
43C4
330
1E
100
AcDbEntity
  8
0
100
AcDbLine
 10
2.33759842519685
 20
5.119094488188975
 30
0.0
 11
2.339566929133858
 21
5.117125984251968
 31
0.0
  0
LINE
  5
43C5
330
1E
100
AcDbEntity
  8
0
100
AcDbLine
 10
2.339566929133858
 20
5.117125984251968
 30
0.0
 11
2.343503937007874
 21
5.117125984251968
 31
0.0
  0
LINE
  5
43C6
330
1E
100
AcDbEntity
  8
0
100
AcDbLine
 10
2.343503937007874
 20
5.117125984251968
 30
0.0
 11
2.345472440944882
 21
5.115157480314961
 31
0.0
  0
LINE
  5
43C7
330
1E
100
AcDbEntity
  8
0
100
AcDbLine
 10
2.345472440944882
 20
5.115157480314961
 30
0.0
 11
2.349409448818898
 21
5.113188976377953
 31
0.0
  0
LINE
  5
43C8
330
1E
100
AcDbEntity
  8
0
100
AcDbLine
 10
2.349409448818898
 20
5.113188976377953
 30
0.0
 11
2.351377952755905
 21
5.113188976377953
 31
0.0
  0
LINE
  5
43C9
330
1E
100
AcDbEntity
  8
0
100
AcDbLine
 10
2.351377952755905
 20
5.113188976377953
 30
0.0
 11
2.353346456692913
 21
5.111220472440944
 31
0.0
  0
LINE
  5
43CA
330
1E
100
AcDbEntity
  8
0
100
AcDbLine
 10
2.353346456692913
 20
5.111220472440944
 30
0.0
 11
2.353346456692913
 21
5.109251968503937
 31
0.0
  0
LINE
  5
43CB
330
1E
100
AcDbEntity
  8
0
100
AcDbLine
 10
2.353346456692913
 20
5.109251968503937
 30
0.0
 11
2.355314960629921
 21
5.107283464566929
 31
0.0
  0
LINE
  5
43CC
330
1E
100
AcDbEntity
  8
0
100
AcDbLine
 10
2.355314960629921
 20
5.107283464566929
 30
0.0
 11
2.355314960629921
 21
5.105314960629922
 31
0.0
  0
LINE
  5
43CD
330
1E
100
AcDbEntity
  8
0
100
AcDbLine
 10
2.355314960629921
 20
5.105314960629922
 30
0.0
 11
2.357283464566929
 21
5.105314960629922
 31
0.0
  0
LINE
  5
43CE
330
1E
100
AcDbEntity
  8
0
100
AcDbLine
 10
2.357283464566929
 20
5.105314960629922
 30
0.0
 11
2.357283464566929
 21
5.103346456692912
 31
0.0
  0
LINE
  5
43CF
330
1E
100
AcDbEntity
  8
0
100
AcDbLine
 10
2.274606299212598
 20
5.245078740157479
 30
0.0
 11
2.270669291338582
 21
5.245078740157479
 31
0.0
  0
LINE
  5
43D0
330
1E
100
AcDbEntity
  8
0
100
AcDbLine
 10
2.270669291338582
 20
5.245078740157479
 30
0.0
 11
2.268700787401574
 21
5.243110236220472
 31
0.0
  0
LINE
  5
43D1
330
1E
100
AcDbEntity
  8
0
100
AcDbLine
 10
2.268700787401574
 20
5.243110236220472
 30
0.0
 11
2.26279527559055
 21
5.243110236220472
 31
0.0
  0
LINE
  5
43D2
330
1E
100
AcDbEntity
  8
0
100
AcDbLine
 10
2.26279527559055
 20
5.243110236220472
 30
0.0
 11
2.256889763779527
 21
5.243110236220472
 31
0.0
  0
LINE
  5
43D3
330
1E
100
AcDbEntity
  8
0
100
AcDbLine
 10
2.256889763779527
 20
5.243110236220472
 30
0.0
 11
2.250984251968503
 21
5.241141732283464
 31
0.0
  0
LINE
  5
43D4
330
1E
100
AcDbEntity
  8
0
100
AcDbLine
 10
2.250984251968503
 20
5.241141732283464
 30
0.0
 11
2.24507874015748
 21
5.239173228346457
 31
0.0
  0
LINE
  5
43D5
330
1E
100
AcDbEntity
  8
0
100
AcDbLine
 10
2.24507874015748
 20
5.239173228346457
 30
0.0
 11
2.239173228346456
 21
5.237204724409448
 31
0.0
  0
LINE
  5
43D6
330
1E
100
AcDbEntity
  8
0
100
AcDbLine
 10
2.239173228346456
 20
5.237204724409448
 30
0.0
 11
2.23523622047244
 21
5.23523622047244
 31
0.0
  0
LINE
  5
43D7
330
1E
100
AcDbEntity
  8
0
100
AcDbLine
 10
2.23523622047244
 20
5.23523622047244
 30
0.0
 11
2.229330708661417
 21
5.233267716535433
 31
0.0
  0
LINE
  5
43D8
330
1E
100
AcDbEntity
  8
0
100
AcDbLine
 10
2.229330708661417
 20
5.233267716535433
 30
0.0
 11
2.225393700787401
 21
5.229330708661416
 31
0.0
  0
LINE
  5
43D9
330
1E
100
AcDbEntity
  8
0
100
AcDbLine
 10
2.225393700787401
 20
5.229330708661416
 30
0.0
 11
2.219488188976377
 21
5.225393700787401
 31
0.0
  0
LINE
  5
43DA
330
1E
100
AcDbEntity
  8
0
100
AcDbLine
 10
2.219488188976377
 20
5.225393700787401
 30
0.0
 11
2.215551181102362
 21
5.223425196850394
 31
0.0
  0
LINE
  5
43DB
330
1E
100
AcDbEntity
  8
0
100
AcDbLine
 10
2.215551181102362
 20
5.223425196850394
 30
0.0
 11
2.213582677165354
 21
5.219488188976377
 31
0.0
  0
LINE
  5
43DC
330
1E
100
AcDbEntity
  8
0
100
AcDbLine
 10
2.213582677165354
 20
5.219488188976377
 30
0.0
 11
2.209645669291338
 21
5.213582677165353
 31
0.0
  0
LINE
  5
43DD
330
1E
100
AcDbEntity
  8
0
100
AcDbLine
 10
2.209645669291338
 20
5.213582677165353
 30
0.0
 11
2.205708661417323
 21
5.209645669291338
 31
0.0
  0
LINE
  5
43DE
330
1E
100
AcDbEntity
  8
0
100
AcDbLine
 10
2.205708661417323
 20
5.209645669291338
 30
0.0
 11
2.203740157480314
 21
5.205708661417322
 31
0.0
  0
LINE
  5
43DF
330
1E
100
AcDbEntity
  8
0
100
AcDbLine
 10
2.203740157480314
 20
5.205708661417322
 30
0.0
 11
2.201771653543307
 21
5.201771653543307
 31
0.0
  0
LINE
  5
43E0
330
1E
100
AcDbEntity
  8
0
100
AcDbLine
 10
2.201771653543307
 20
5.201771653543307
 30
0.0
 11
2.201771653543307
 21
5.195866141732283
 31
0.0
  0
LINE
  5
43E1
330
1E
100
AcDbEntity
  8
0
100
AcDbLine
 10
2.201771653543307
 20
5.195866141732283
 30
0.0
 11
2.199803149606299
 21
5.191929133858268
 31
0.0
  0
LINE
  5
43E2
330
1E
100
AcDbEntity
  8
0
100
AcDbLine
 10
2.199803149606299
 20
5.191929133858268
 30
0.0
 11
2.199803149606299
 21
5.186023622047244
 31
0.0
  0
LINE
  5
43E3
330
1E
100
AcDbEntity
  8
0
100
AcDbLine
 10
2.199803149606299
 20
5.186023622047244
 30
0.0
 11
2.199803149606299
 21
5.184055118110237
 31
0.0
  0
LINE
  5
43E4
330
1E
100
AcDbEntity
  8
0
100
AcDbLine
 10
2.199803149606299
 20
5.178149606299212
 30
0.0
 11
2.199803149606299
 21
5.174212598425196
 31
0.0
  0
LINE
  5
43E5
330
1E
100
AcDbEntity
  8
0
100
AcDbLine
 10
2.199803149606299
 20
5.174212598425196
 30
0.0
 11
2.199803149606299
 21
5.170275590551181
 31
0.0
  0
LINE
  5
43E6
330
1E
100
AcDbEntity
  8
0
100
AcDbLine
 10
2.199803149606299
 20
5.170275590551181
 30
0.0
 11
2.201771653543307
 21
5.166338582677164
 31
0.0
  0
LINE
  5
43E7
330
1E
100
AcDbEntity
  8
0
100
AcDbLine
 10
2.201771653543307
 20
5.166338582677164
 30
0.0
 11
2.203740157480314
 21
5.160433070866142
 31
0.0
  0
LINE
  5
43E8
330
1E
100
AcDbEntity
  8
0
100
AcDbLine
 10
2.203740157480314
 20
5.160433070866142
 30
0.0
 11
2.205708661417323
 21
5.156496062992125
 31
0.0
  0
LINE
  5
43E9
330
1E
100
AcDbEntity
  8
0
100
AcDbLine
 10
2.205708661417323
 20
5.156496062992125
 30
0.0
 11
2.20767716535433
 21
5.152559055118111
 31
0.0
  0
LINE
  5
43EA
330
1E
100
AcDbEntity
  8
0
100
AcDbLine
 10
2.20767716535433
 20
5.152559055118111
 30
0.0
 11
2.209645669291338
 21
5.148622047244094
 31
0.0
  0
LINE
  5
43EB
330
1E
100
AcDbEntity
  8
0
100
AcDbLine
 10
2.209645669291338
 20
5.148622047244094
 30
0.0
 11
2.213582677165354
 21
5.144685039370079
 31
0.0
  0
LINE
  5
43EC
330
1E
100
AcDbEntity
  8
0
100
AcDbLine
 10
2.213582677165354
 20
5.144685039370079
 30
0.0
 11
2.215551181102362
 21
5.140748031496062
 31
0.0
  0
LINE
  5
43ED
330
1E
100
AcDbEntity
  8
0
100
AcDbLine
 10
2.215551181102362
 20
5.140748031496062
 30
0.0
 11
2.219488188976377
 21
5.138779527559055
 31
0.0
  0
LINE
  5
43EE
330
1E
100
AcDbEntity
  8
0
100
AcDbLine
 10
2.219488188976377
 20
5.138779527559055
 30
0.0
 11
2.223425196850393
 21
5.134842519685038
 31
0.0
  0
LINE
  5
43EF
330
1E
100
AcDbEntity
  8
0
100
AcDbLine
 10
2.223425196850393
 20
5.134842519685038
 30
0.0
 11
2.229330708661417
 21
5.130905511811024
 31
0.0
  0
LINE
  5
43F0
330
1E
100
AcDbEntity
  8
0
100
AcDbLine
 10
2.229330708661417
 20
5.130905511811024
 30
0.0
 11
2.233267716535433
 21
5.128937007874016
 31
0.0
  0
LINE
  5
43F1
330
1E
100
AcDbEntity
  8
0
100
AcDbLine
 10
2.233267716535433
 20
5.128937007874016
 30
0.0
 11
2.239173228346456
 21
5.126968503937007
 31
0.0
  0
LINE
  5
43F2
330
1E
100
AcDbEntity
  8
0
100
AcDbLine
 10
2.239173228346456
 20
5.126968503937007
 30
0.0
 11
2.243110236220472
 21
5.125
 31
0.0
  0
LINE
  5
43F3
330
1E
100
AcDbEntity
  8
0
100
AcDbLine
 10
2.243110236220472
 20
5.125
 30
0.0
 11
2.249015748031496
 21
5.123031496062992
 31
0.0
  0
LINE
  5
43F4
330
1E
100
AcDbEntity
  8
0
100
AcDbLine
 10
2.249015748031496
 20
5.123031496062992
 30
0.0
 11
2.254921259842519
 21
5.121062992125985
 31
0.0
  0
LINE
  5
43F5
330
1E
100
AcDbEntity
  8
0
100
AcDbLine
 10
2.254921259842519
 20
5.121062992125985
 30
0.0
 11
2.260826771653543
 21
5.121062992125985
 31
0.0
  0
LINE
  5
43F6
330
1E
100
AcDbEntity
  8
0
100
AcDbLine
 10
2.260826771653543
 20
5.121062992125985
 30
0.0
 11
2.266732283464566
 21
5.119094488188975
 31
0.0
  0
LINE
  5
43F7
330
1E
100
AcDbEntity
  8
0
100
AcDbLine
 10
2.266732283464566
 20
5.119094488188975
 30
0.0
 11
2.270669291338582
 21
5.119094488188975
 31
0.0
  0
LINE
  5
43F8
330
1E
100
AcDbEntity
  8
0
100
AcDbLine
 10
2.270669291338582
 20
5.119094488188975
 30
0.0
 11
2.27263779527559
 21
5.119094488188975
 31
0.0
  0
LINE
  5
43F9
330
1E
100
AcDbEntity
  8
0
100
AcDbLine
 10
2.27263779527559
 20
5.119094488188975
 30
0.0
 11
2.274606299212598
 21
5.119094488188975
 31
0.0
  0
LINE
  5
43FA
330
1E
100
AcDbEntity
  8
0
100
AcDbLine
 10
-0.0206692913385824
 20
4.794291338582677
 30
0.0
 11
-0.018700787401575
 21
4.796259842519685
 31
0.0
  0
LINE
  5
43FB
330
1E
100
AcDbEntity
  8
0
100
AcDbLine
 10
-0.018700787401575
 20
4.796259842519685
 30
0.0
 11
-0.018700787401575
 21
4.798228346456692
 31
0.0
  0
LINE
  5
43FC
330
1E
100
AcDbEntity
  8
0
100
AcDbLine
 10
2.341535433070865
 20
4.794291338582677
 30
0.0
 11
2.341535433070865
 21
4.796259842519685
 31
0.0
  0
LINE
  5
43FD
330
1E
100
AcDbEntity
  8
0
100
AcDbLine
 10
2.341535433070865
 20
4.796259842519685
 30
0.0
 11
2.343503937007874
 21
4.798228346456692
 31
0.0
  0
LINE
  5
43FE
330
1E
100
AcDbEntity
  8
0
100
AcDbLine
 10
3.662401574803149
 20
4.798228346456692
 30
0.0
 11
3.672244094488188
 21
4.800196850393701
 31
0.0
  0
LINE
  5
43FF
330
1E
100
AcDbEntity
  8
0
100
AcDbLine
 10
3.672244094488188
 20
4.800196850393701
 30
0.0
 11
3.678149606299212
 21
4.806102362204724
 31
0.0
  0
LINE
  5
4400
330
1E
100
AcDbEntity
  8
0
100
AcDbLine
 10
3.044291338582676
 20
5.245078740157479
 30
0.0
 11
3.030511811023622
 21
5.239173228346457
 31
0.0
  0
LINE
  5
4401
330
1E
100
AcDbEntity
  8
0
100
AcDbLine
 10
3.030511811023622
 20
5.239173228346457
 30
0.0
 11
3.024606299212598
 21
5.223425196850394
 31
0.0
  0
LINE
  5
4402
330
1E
100
AcDbEntity
  8
0
100
AcDbLine
 10
-0.0009842519685037
 20
4.806102362204724
 30
0.0
 11
0.0049212598425195
 21
4.800196850393701
 31
0.0
  0
LINE
  5
4403
330
1E
100
AcDbEntity
  8
0
100
AcDbLine
 10
0.0049212598425195
 20
4.800196850393701
 30
0.0
 11
0.0147637795275593
 21
4.798228346456692
 31
0.0
  0
LINE
  5
4404
330
1E
100
AcDbEntity
  8
0
100
AcDbLine
 10
0.6525590551181102
 20
5.223425196850394
 30
0.0
 11
0.6466535433070871
 21
5.239173228346457
 31
0.0
  0
LINE
  5
4405
330
1E
100
AcDbEntity
  8
0
100
AcDbLine
 10
0.6466535433070871
 20
5.239173228346457
 30
0.0
 11
0.6328740157480315
 21
5.245078740157479
 31
0.0
  0
LINE
  5
4406
330
1E
100
AcDbEntity
  8
0
100
AcDbLine
 10
1.3001968503937
 20
4.798228346456692
 30
0.0
 11
1.310039370078739
 21
4.800196850393701
 31
0.0
  0
LINE
  5
4407
330
1E
100
AcDbEntity
  8
0
100
AcDbLine
 10
1.310039370078739
 20
4.800196850393701
 30
0.0
 11
1.315944881889763
 21
4.806102362204724
 31
0.0
  0
LINE
  5
4408
330
1E
100
AcDbEntity
  8
0
100
AcDbLine
 10
0.6820866141732287
 20
5.245078740157479
 30
0.0
 11
0.6683070866141732
 21
5.239173228346457
 31
0.0
  0
LINE
  5
4409
330
1E
100
AcDbEntity
  8
0
100
AcDbLine
 10
0.6683070866141732
 20
5.239173228346457
 30
0.0
 11
0.66240157480315
 21
5.223425196850394
 31
0.0
  0
LINE
  5
440A
330
1E
100
AcDbEntity
  8
0
100
AcDbLine
 10
2.359251968503937
 20
4.806102362204724
 30
0.0
 11
2.367125984251968
 21
4.800196850393701
 31
0.0
  0
LINE
  5
440B
330
1E
100
AcDbEntity
  8
0
100
AcDbLine
 10
2.367125984251968
 20
4.800196850393701
 30
0.0
 11
2.376968503937008
 21
4.798228346456692
 31
0.0
  0
LINE
  5
440C
330
1E
100
AcDbEntity
  8
0
100
AcDbLine
 10
3.014763779527559
 20
5.223425196850394
 30
0.0
 11
3.008858267716535
 21
5.239173228346457
 31
0.0
  0
LINE
  5
440D
330
1E
100
AcDbEntity
  8
0
100
AcDbLine
 10
3.008858267716535
 20
5.239173228346457
 30
0.0
 11
2.99507874015748
 21
5.245078740157479
 31
0.0
  0
ENDSEC
  0
SECTION
  2
OBJECTS
  0
DICTIONARY
  5
C
330
0
100
AcDbDictionary
  3
ACAD_GROUP
350
D
  3
ACAD_MLINESTYLE
350
16
  3
ACAD_PLOTSETTINGS
350
18
  3
ACAD_LAYOUT
350
19
1001
ACAD
1000
TREAT_AS_HARD
1070
     0
  0
DICTIONARY
  5
5603
330
1E
100
AcDbDictionary
  3
ACAD_LAYOUTSELFREF
350
5604
  0
DICTIONARY
  5
5601
330
1A
100
AcDbDictionary
  3
ACAD_LAYOUTSELFREF
350
5602
  0
DICTIONARY
  5
D
102
{ACAD_REACTORS
330
C
102
}
330
C
100
AcDbDictionary
1001
ACAD
1000
TREAT_AS_HARD
1070
     0
  0
DICTIONARY
  5
16
102
{ACAD_REACTORS
330
C
102
}
330
C
100
AcDbDictionary
  3
STANDARD
350
17
1001
ACAD
1000
TREAT_AS_HARD
1070
     0
  0
DICTIONARY
  5
18
102
{ACAD_REACTORS
330
C
102
}
330
C
100
AcDbDictionary
1001
ACAD
1000
TREAT_AS_HARD
1070
     0
  0
DICTIONARY
  5
19
102
{ACAD_REACTORS
330
C
102
}
330
C
100
AcDbDictionary
1001
ACAD
1000
TREAT_AS_HARD
1070
     0
  0
XRECORD
  5
5604
102
{ACAD_REACTORS
330
5603
102
}
330
5603
100
AcDbXrecord
340
1E
  0
XRECORD
  5
5602
102
{ACAD_REACTORS
330
5601
102
}
330
5601
100
AcDbXrecord
340
1A
  0
MLINESTYLE
  5
17
102
{ACAD_REACTORS
330
16
102
}
330
16
100
AcDbMlineStyle
  2
STANDARD
 70
     0
  3

 62
   256
 51
90.0
 52
90.0
 71
     2
 49
0.5
 62
   256
  6
BYLAYER
 49
-0.5
 62
   256
  6
BYLAYER
  0
ENDSEC
  0
EOF
