  0
SECTION
  2
HEADER
  9
$ACADVER
  1
AC1012
  9
$DWGCODEPAGE
  3
ANSI_1252
  9
$INSBASE
 10
0.0
 20
0.0
 30
0.0
  9
$EXTMIN
 10
-1.017517063088618
 20
3.895065333106398
 30
-0.0015258207003583
  9
$EXTMAX
 10
7.441955589039665
 20
7.281600971102715
 30
0.0000000349246037
  9
$LIMMIN
 10
0.0
 20
0.0
  9
$LIMMAX
 10
12.0
 20
9.0
  9
$ORTHOMODE
 70
     0
  9
$REGENMODE
 70
     1
  9
$FILLMODE
 70
     1
  9
$QTEXTMODE
 70
     0
  9
$MIRRTEXT
 70
     1
  9
$DRAGMODE
 70
     2
  9
$LTSCALE
 40
1.0
  9
$OSMODE
 70
   547
  9
$ATTMODE
 70
     1
  9
$TEXTSIZE
 40
0.2
  9
$TRACEWID
 40
0.05
  9
$TEXTSTYLE
  7
STANDARD
  9
$CLAYER
  8
0
  9
$CELTYPE
  6
BYLAYER
  9
$CECOLOR
 62
   256
  9
$CELTSCALE
 40
1.0
  9
$DELOBJ
 70
     1
  9
$DISPSILH
 70
     0
  9
$DIMSCALE
 40
1.0
  9
$DIMASZ
 40
0.18
  9
$DIMEXO
 40
0.0625
  9
$DIMDLI
 40
0.38
  9
$DIMRND
 40
0.0
  9
$DIMDLE
 40
0.0
  9
$DIMEXE
 40
0.18
  9
$DIMTP
 40
0.0
  9
$DIMTM
 40
0.0
  9
$DIMTXT
 40
0.18
  9
$DIMCEN
 40
0.09
  9
$DIMTSZ
 40
0.0
  9
$DIMTOL
 70
     0
  9
$DIMLIM
 70
     0
  9
$DIMTIH
 70
     1
  9
$DIMTOH
 70
     1
  9
$DIMSE1
 70
     0
  9
$DIMSE2
 70
     0
  9
$DIMTAD
 70
     0
  9
$DIMZIN
 70
     0
  9
$DIMBLK
  1

  9
$DIMASO
 70
     1
  9
$DIMSHO
 70
     1
  9
$DIMPOST
  1

  9
$DIMAPOST
  1

  9
$DIMALT
 70
     0
  9
$DIMALTD
 70
     2
  9
$DIMALTF
 40
25.4
  9
$DIMLFAC
 40
1.0
  9
$DIMTOFL
 70
     0
  9
$DIMTVP
 40
0.0
  9
$DIMTIX
 70
     0
  9
$DIMSOXD
 70
     0
  9
$DIMSAH
 70
     0
  9
$DIMBLK1
  1

  9
$DIMBLK2
  1

  9
$DIMSTYLE
  2
STANDARD
  9
$DIMCLRD
 70
     0
  9
$DIMCLRE
 70
     0
  9
$DIMCLRT
 70
     0
  9
$DIMTFAC
 40
1.0
  9
$DIMGAP
 40
0.09
  9
$DIMJUST
 70
     0
  9
$DIMSD1
 70
     0
  9
$DIMSD2
 70
     0
  9
$DIMTOLJ
 70
     1
  9
$DIMTZIN
 70
     0
  9
$DIMALTZ
 70
     0
  9
$DIMALTTZ
 70
     0
  9
$DIMFIT
 70
     5
  9
$DIMUPT
 70
     0
  9
$DIMUNIT
 70
     2
  9
$DIMDEC
 70
     4
  9
$DIMTDEC
 70
     4
  9
$DIMALTU
 70
     2
  9
$DIMALTTD
 70
     2
  9
$DIMTXSTY
  7
STANDARD
  9
$DIMAUNIT
 70
     0
  9
$LUNITS
 70
     2
  9
$LUPREC
 70
     4
  9
$SKETCHINC
 40
0.1
  9
$FILLETRAD
 40
0.0
  9
$AUNITS
 70
     0
  9
$AUPREC
 70
     0
  9
$MENU
  1
acad
  9
$ELEVATION
 40
0.0
  9
$PELEVATION
 40
0.0
  9
$THICKNESS
 40
0.0
  9
$LIMCHECK
 70
     0
  9
$BLIPMODE
 70
     0
  9
$CHAMFERA
 40
0.0
  9
$CHAMFERB
 40
0.0
  9
$CHAMFERC
 40
0.0
  9
$CHAMFERD
 40
0.0
  9
$SKPOLY
 70
     0
  9
$TDCREATE
 40
2454019.484467592
  9
$TDUPDATE
 40
2454019.523180092
  9
$TDINDWG
 40
0.0050369213
  9
$TDUSRTIMER
 40
0.0050369213
  9
$USRTIMER
 70
     1
  9
$ANGBASE
 50
0.0
  9
$ANGDIR
 70
     0
  9
$PDMODE
 70
     0
  9
$PDSIZE
 40
0.0
  9
$PLINEWID
 40
0.0
  9
$COORDS
 70
     1
  9
$SPLFRAME
 70
     0
  9
$SPLINETYPE
 70
     6
  9
$SPLINESEGS
 70
     8
  9
$ATTDIA
 70
     0
  9
$ATTREQ
 70
     1
  9
$HANDLING
 70
  4097
  9
$HANDSEED
  5
2E57
  9
$SURFTAB1
 70
     6
  9
$SURFTAB2
 70
     6
  9
$SURFTYPE
 70
     6
  9
$SURFU
 70
     6
  9
$SURFV
 70
     6
  9
$UCSNAME
  2

  9
$UCSORG
 10
0.0
 20
0.0
 30
0.0
  9
$UCSXDIR
 10
1.0
 20
0.0
 30
0.0
  9
$UCSYDIR
 10
0.0
 20
1.0
 30
0.0
  9
$PUCSNAME
  2

  9
$PUCSORG
 10
0.0
 20
0.0
 30
0.0
  9
$PUCSXDIR
 10
1.0
 20
0.0
 30
0.0
  9
$PUCSYDIR
 10
0.0
 20
1.0
 30
0.0
  9
$USERI1
 70
     0
  9
$USERI2
 70
     0
  9
$USERI3
 70
     0
  9
$USERI4
 70
     0
  9
$USERI5
 70
     0
  9
$USERR1
 40
0.0
  9
$USERR2
 40
0.0
  9
$USERR3
 40
0.0
  9
$USERR4
 40
0.0
  9
$USERR5
 40
0.0
  9
$WORLDVIEW
 70
     1
  9
$SHADEDGE
 70
     3
  9
$SHADEDIF
 70
    70
  9
$TILEMODE
 70
     1
  9
$MAXACTVP
 70
    16
  9
$PINSBASE
 10
0.0
 20
0.0
 30
0.0
  9
$PLIMCHECK
 70
     0
  9
$PEXTMIN
 10
1.000000000000000E+20
 20
1.000000000000000E+20
 30
1.000000000000000E+20
  9
$PEXTMAX
 10
-1.000000000000000E+20
 20
-1.000000000000000E+20
 30
-1.000000000000000E+20
  9
$PLIMMIN
 10
0.0
 20
0.0
  9
$PLIMMAX
 10
12.0
 20
9.0
  9
$UNITMODE
 70
     0
  9
$VISRETAIN
 70
     0
  9
$PLINEGEN
 70
     0
  9
$PSLTSCALE
 70
     1
  9
$TREEDEPTH
 70
  3020
  9
$PICKSTYLE
 70
     1
  9
$CMLSTYLE
  2
STANDARD
  9
$CMLJUST
 70
     0
  9
$CMLSCALE
 40
1.0
  9
$SAVEIMAGES
 70
     1
  0
ENDSEC
  0
SECTION
  2
CLASSES
  0
CLASS
  1
ACDBDICTIONARYWDFLT
  2
AcDbDictionaryWithDefault
  3
AutoCAD 2000
 90
    32768
280
     0
281
     0
  0
CLASS
  1
ACDBPLACEHOLDER
  2
AcDbPlaceHolder
  3
AutoCAD 2000
 90
    32768
280
     0
281
     0
  0
CLASS
  1
LAYOUT
  2
AcDbLayout
  3
AutoCAD 2000
 90
    32768
280
     0
281
     0
  0
CLASS
  1
LONG_TRANSACTION
  2
AcDbLongTransaction
  3
AutoCAD 2000
 90
    32768
280
     0
281
     0
  0
CLASS
  1
LWPOLYLINE
  2
AcDbPolyline
  3
AutoCAD 2000
 90
    32768
280
     0
281
     1
  0
CLASS
  1
HATCH
  2
AcDbHatch
  3
AutoCAD 2000
 90
    32768
280
     0
281
     1
  0
CLASS
  1
XRECORD
  2
AcDbXrecord
  3
AutoCAD 2000
 90
    32768
280
     0
281
     0
  0
ENDSEC
  0
SECTION
  2
TABLES
  0
TABLE
  2
VPORT
  5
8
330
0
100
AcDbSymbolTable
 70
     5
  0
VPORT
  5
2C5B
330
8
100
AcDbSymbolTableRecord
100
AcDbViewportTableRecord
  2
*ACTIVE
 70
     0
 10
0.0
 20
0.0
 11
1.0
 21
1.0
 12
3.212219262975523
 22
5.588333152104556
 13
0.0
 23
0.0
 14
1.0
 24
1.0
 15
0.0
 25
0.0
 16
0.0
 26
0.0
 36
1.0
 17
0.0
 27
0.0
 37
0.0
 40
4.891085081362438
 41
1.740671641791044
 42
50.0
 43
0.0
 44
0.0
 50
0.0
 51
0.0
 71
     0
 72
   100
 73
     1
 74
     1
 75
     0
 76
     0
 77
     0
 78
     0
  0
ENDTAB
  0
TABLE
  2
LTYPE
  5
5
330
0
100
AcDbSymbolTable
 70
    25
  0
LTYPE
  5
13
330
5
100
AcDbSymbolTableRecord
100
AcDbLinetypeTableRecord
  2
BYBLOCK
 70
     0
  3

 72
    65
 73
     0
 40
0.0
  0
LTYPE
  5
14
330
5
100
AcDbSymbolTableRecord
100
AcDbLinetypeTableRecord
  2
BYLAYER
 70
     0
  3

 72
    65
 73
     0
 40
0.0
  0
LTYPE
  5
15
330
5
100
AcDbSymbolTableRecord
100
AcDbLinetypeTableRecord
  2
CONTINUOUS
 70
     0
  3
Solid line
 72
    65
 73
     0
 40
0.0
  0
LTYPE
  5
22
330
5
100
AcDbSymbolTableRecord
100
AcDbLinetypeTableRecord
  2
BORDER
 70
     0
  3
__ __ . __ __ . __ __ . __ __ . __ __ . __ __ .
 72
    65
 73
     6
 40
1.75
 49
0.5
 74
     0
 49
-0.25
 74
     0
 49
0.5
 74
     0
 49
-0.25
 74
     0
 49
0.5
 74
     0
 49
-0.25
 74
     0
  0
LTYPE
  5
23
330
5
100
AcDbSymbolTableRecord
100
AcDbLinetypeTableRecord
  2
BORDER2
 70
     0
  3
__.__.__.__.__.__.__.__.
 72
    65
 73
     6
 40
0.875
 49
0.25
 74
     0
 49
-0.125
 74
     0
 49
0.25
 74
     0
 49
-0.125
 74
     0
 49
0.25
 74
     0
 49
-0.125
 74
     0
  0
LTYPE
  5
24
330
5
100
AcDbSymbolTableRecord
100
AcDbLinetypeTableRecord
  2
BORDERX2
 70
     0
  3
____  ____  .  
 72
    65
 73
     6
 40
3.5
 49
1.0
 74
     0
 49
-0.5
 74
     0
 49
1.0
 74
     0
 49
-0.5
 74
     0
 49
1.0
 74
     0
 49
-0.5
 74
     0
  0
LTYPE
  5
25
330
5
100
AcDbSymbolTableRecord
100
AcDbLinetypeTableRecord
  2
CENTER
 70
     0
  3
____ _ ____ _ ____ _ 
 72
    65
 73
     4
 40
2.0
 49
1.25
 74
     0
 49
-0.25
 74
     0
 49
0.25
 74
     0
 49
-0.25
 74
     0
  0
LTYPE
  5
26
330
5
100
AcDbSymbolTableRecord
100
AcDbLinetypeTableRecord
  2
CENTER2
 70
     0
  3
____ _ ____ _ ____ _ 
 72
    65
 73
     4
 40
1.125
 49
0.75
 74
     0
 49
-0.125
 74
     0
 49
0.125
 74
     0
 49
-0.125
 74
     0
  0
LTYPE
  5
27
330
5
100
AcDbSymbolTableRecord
100
AcDbLinetypeTableRecord
  2
CENTERX2
 70
     0
  3
________  __  
 72
    65
 73
     4
 40
4.0
 49
2.5
 74
     0
 49
-0.5
 74
     0
 49
0.5
 74
     0
 49
-0.5
 74
     0
  0
LTYPE
  5
28
330
5
100
AcDbSymbolTableRecord
100
AcDbLinetypeTableRecord
  2
DASHDOT
 70
     0
  3
__ . __ . __ . __ . 
 72
    65
 73
     4
 40
1.0
 49
0.5
 74
     0
 49
-0.25
 74
     0
 49
0.0
 74
     0
 49
-0.25
 74
     0
  0
LTYPE
  5
29
330
5
100
AcDbSymbolTableRecord
100
AcDbLinetypeTableRecord
  2
DASHDOT2
 70
     0
  3
_._._._._._._._._.
 72
    65
 73
     4
 40
0.5
 49
0.25
 74
     0
 49
-0.125
 74
     0
 49
0.0
 74
     0
 49
-0.125
 74
     0
  0
LTYPE
  5
2A
330
5
100
AcDbSymbolTableRecord
100
AcDbLinetypeTableRecord
  2
DASHDOTX2
 70
     0
  3
____  .  ____  .  
 72
    65
 73
     4
 40
2.0
 49
1.0
 74
     0
 49
-0.5
 74
     0
 49
0.0
 74
     0
 49
-0.5
 74
     0
  0
LTYPE
  5
2B
330
5
100
AcDbSymbolTableRecord
100
AcDbLinetypeTableRecord
  2
DASHED
 70
     0
  3
__ __ __ __ __ __ __ 
 72
    65
 73
     2
 40
0.75
 49
0.5
 74
     0
 49
-0.25
 74
     0
  0
LTYPE
  5
2C
330
5
100
AcDbSymbolTableRecord
100
AcDbLinetypeTableRecord
  2
DASHED2
 70
     0
  3
_ _ _ _ _ _ _ _ _ _ 
 72
    65
 73
     2
 40
0.375
 49
0.25
 74
     0
 49
-0.125
 74
     0
  0
LTYPE
  5
2D
330
5
100
AcDbSymbolTableRecord
100
AcDbLinetypeTableRecord
  2
DASHEDX2
 70
     0
  3
____  ____  ____  
 72
    65
 73
     2
 40
1.5
 49
1.0
 74
     0
 49
-0.5
 74
     0
  0
LTYPE
  5
2E
330
5
100
AcDbSymbolTableRecord
100
AcDbLinetypeTableRecord
  2
DIVIDE
 70
     0
  3
____ . . ____ . . 
 72
    65
 73
     6
 40
1.25
 49
0.5
 74
     0
 49
-0.25
 74
     0
 49
0.0
 74
     0
 49
-0.25
 74
     0
 49
0.0
 74
     0
 49
-0.25
 74
     0
  0
LTYPE
  5
2F
330
5
100
AcDbSymbolTableRecord
100
AcDbLinetypeTableRecord
  2
DIVIDE2
 70
     0
  3
__..__..__..__..__..
 72
    65
 73
     6
 40
0.625
 49
0.25
 74
     0
 49
-0.125
 74
     0
 49
0.0
 74
     0
 49
-0.125
 74
     0
 49
0.0
 74
     0
 49
-0.125
 74
     0
  0
LTYPE
  5
30
330
5
100
AcDbSymbolTableRecord
100
AcDbLinetypeTableRecord
  2
DIVIDEX2
 70
     0
  3
________  .  .  
 72
    65
 73
     6
 40
2.5
 49
1.0
 74
     0
 49
-0.5
 74
     0
 49
0.0
 74
     0
 49
-0.5
 74
     0
 49
0.0
 74
     0
 49
-0.5
 74
     0
  0
LTYPE
  5
31
330
5
100
AcDbSymbolTableRecord
100
AcDbLinetypeTableRecord
  2
DOT
 70
     0
  3
. . . . . . . . . 
 72
    65
 73
     2
 40
0.25
 49
0.0
 74
     0
 49
-0.25
 74
     0
  0
LTYPE
  5
32
330
5
100
AcDbSymbolTableRecord
100
AcDbLinetypeTableRecord
  2
DOT2
 70
     0
  3
..................
 72
    65
 73
     2
 40
0.125
 49
0.0
 74
     0
 49
-0.125
 74
     0
  0
LTYPE
  5
33
330
5
100
AcDbSymbolTableRecord
100
AcDbLinetypeTableRecord
  2
DOTX2
 70
     0
  3
.  .  .  .  .  .  
 72
    65
 73
     2
 40
0.5
 49
0.0
 74
     0
 49
-0.5
 74
     0
  0
LTYPE
  5
34
330
5
100
AcDbSymbolTableRecord
100
AcDbLinetypeTableRecord
  2
HIDDEN
 70
     0
  3
__ __ __ __ __ __ 
 72
    65
 73
     2
 40
0.375
 49
0.25
 74
     0
 49
-0.125
 74
     0
  0
LTYPE
  5
35
330
5
100
AcDbSymbolTableRecord
100
AcDbLinetypeTableRecord
  2
HIDDEN2
 70
     0
  3
_ _ _ _ _ _ _ _ _ 
 72
    65
 73
     2
 40
0.1875
 49
0.125
 74
     0
 49
-0.0625
 74
     0
  0
LTYPE
  5
36
330
5
100
AcDbSymbolTableRecord
100
AcDbLinetypeTableRecord
  2
HIDDENX2
 70
     0
  3
____ ____ ____ ____ 
 72
    65
 73
     2
 40
0.75
 49
0.5
 74
     0
 49
-0.25
 74
     0
  0
LTYPE
  5
37
330
5
100
AcDbSymbolTableRecord
100
AcDbLinetypeTableRecord
  2
PHANTOM
 70
     0
  3
______  __  __  
 72
    65
 73
     6
 40
2.5
 49
1.25
 74
     0
 49
-0.25
 74
     0
 49
0.25
 74
     0
 49
-0.25
 74
     0
 49
0.25
 74
     0
 49
-0.25
 74
     0
  0
LTYPE
  5
38
330
5
100
AcDbSymbolTableRecord
100
AcDbLinetypeTableRecord
  2
PHANTOM2
 70
     0
  3
___ _ _ ___ _ _ 
 72
    65
 73
     6
 40
1.25
 49
0.625
 74
     0
 49
-0.125
 74
     0
 49
0.125
 74
     0
 49
-0.125
 74
     0
 49
0.125
 74
     0
 49
-0.125
 74
     0
  0
LTYPE
  5
39
330
5
100
AcDbSymbolTableRecord
100
AcDbLinetypeTableRecord
  2
PHANTOMX2
 70
     0
  3
___ _ _ ___ _ _ 
 72
    65
 73
     6
 40
5.0
 49
2.5
 74
     0
 49
-0.5
 74
     0
 49
0.5
 74
     0
 49
-0.5
 74
     0
 49
0.5
 74
     0
 49
-0.5
 74
     0
  0
ENDTAB
  0
TABLE
  2
LAYER
  5
2
330
0
100
AcDbSymbolTable
 70
   257
  0
LAYER
  5
10
330
2
100
AcDbSymbolTableRecord
100
AcDbLayerTableRecord
  2
0
 70
     0
 62
     7
  6
CONTINUOUS
  0
LAYER
  5
3A
330
2
100
AcDbSymbolTableRecord
100
AcDbLayerTableRecord
  2
1
 70
     0
 62
     1
  6
CONTINUOUS
  0
LAYER
  5
3B
330
2
100
AcDbSymbolTableRecord
100
AcDbLayerTableRecord
  2
2
 70
     0
 62
     2
  6
CONTINUOUS
  0
LAYER
  5
3C
330
2
100
AcDbSymbolTableRecord
100
AcDbLayerTableRecord
  2
3
 70
     0
 62
     3
  6
CONTINUOUS
  0
LAYER
  5
3D
330
2
100
AcDbSymbolTableRecord
100
AcDbLayerTableRecord
  2
4
 70
     0
 62
     4
  6
CONTINUOUS
  0
LAYER
  5
3E
330
2
100
AcDbSymbolTableRecord
100
AcDbLayerTableRecord
  2
5
 70
     0
 62
     5
  6
CONTINUOUS
  0
LAYER
  5
3F
330
2
100
AcDbSymbolTableRecord
100
AcDbLayerTableRecord
  2
6
 70
     0
 62
     6
  6
CONTINUOUS
  0
LAYER
  5
40
330
2
100
AcDbSymbolTableRecord
100
AcDbLayerTableRecord
  2
7
 70
     0
 62
     7
  6
CONTINUOUS
  0
LAYER
  5
41
330
2
100
AcDbSymbolTableRecord
100
AcDbLayerTableRecord
  2
8
 70
     0
 62
     8
  6
CONTINUOUS
  0
LAYER
  5
42
330
2
100
AcDbSymbolTableRecord
100
AcDbLayerTableRecord
  2
9
 70
     0
 62
     9
  6
CONTINUOUS
  0
LAYER
  5
43
330
2
100
AcDbSymbolTableRecord
100
AcDbLayerTableRecord
  2
10
 70
     0
 62
    10
  6
CONTINUOUS
  0
LAYER
  5
44
330
2
100
AcDbSymbolTableRecord
100
AcDbLayerTableRecord
  2
11
 70
     0
 62
    11
  6
CONTINUOUS
  0
LAYER
  5
45
330
2
100
AcDbSymbolTableRecord
100
AcDbLayerTableRecord
  2
12
 70
     0
 62
    12
  6
CONTINUOUS
  0
LAYER
  5
46
330
2
100
AcDbSymbolTableRecord
100
AcDbLayerTableRecord
  2
13
 70
     0
 62
    13
  6
CONTINUOUS
  0
LAYER
  5
47
330
2
100
AcDbSymbolTableRecord
100
AcDbLayerTableRecord
  2
14
 70
     0
 62
    14
  6
CONTINUOUS
  0
LAYER
  5
48
330
2
100
AcDbSymbolTableRecord
100
AcDbLayerTableRecord
  2
15
 70
     0
 62
    15
  6
CONTINUOUS
  0
LAYER
  5
49
330
2
100
AcDbSymbolTableRecord
100
AcDbLayerTableRecord
  2
16
 70
     0
 62
    16
  6
CONTINUOUS
  0
LAYER
  5
4A
330
2
100
AcDbSymbolTableRecord
100
AcDbLayerTableRecord
  2
17
 70
     0
 62
    17
  6
CONTINUOUS
  0
LAYER
  5
4B
330
2
100
AcDbSymbolTableRecord
100
AcDbLayerTableRecord
  2
18
 70
     0
 62
    18
  6
CONTINUOUS
  0
LAYER
  5
4C
330
2
100
AcDbSymbolTableRecord
100
AcDbLayerTableRecord
  2
19
 70
     0
 62
    19
  6
CONTINUOUS
  0
LAYER
  5
4D
330
2
100
AcDbSymbolTableRecord
100
AcDbLayerTableRecord
  2
20
 70
     0
 62
    20
  6
CONTINUOUS
  0
LAYER
  5
4E
330
2
100
AcDbSymbolTableRecord
100
AcDbLayerTableRecord
  2
21
 70
     0
 62
    21
  6
CONTINUOUS
  0
LAYER
  5
4F
330
2
100
AcDbSymbolTableRecord
100
AcDbLayerTableRecord
  2
22
 70
     0
 62
    22
  6
CONTINUOUS
  0
LAYER
  5
50
330
2
100
AcDbSymbolTableRecord
100
AcDbLayerTableRecord
  2
23
 70
     0
 62
    23
  6
CONTINUOUS
  0
LAYER
  5
51
330
2
100
AcDbSymbolTableRecord
100
AcDbLayerTableRecord
  2
24
 70
     0
 62
    24
  6
CONTINUOUS
  0
LAYER
  5
52
330
2
100
AcDbSymbolTableRecord
100
AcDbLayerTableRecord
  2
25
 70
     0
 62
    25
  6
CONTINUOUS
  0
LAYER
  5
53
330
2
100
AcDbSymbolTableRecord
100
AcDbLayerTableRecord
  2
26
 70
     0
 62
    26
  6
CONTINUOUS
  0
LAYER
  5
54
330
2
100
AcDbSymbolTableRecord
100
AcDbLayerTableRecord
  2
27
 70
     0
 62
    27
  6
CONTINUOUS
  0
LAYER
  5
55
330
2
100
AcDbSymbolTableRecord
100
AcDbLayerTableRecord
  2
28
 70
     0
 62
    28
  6
CONTINUOUS
  0
LAYER
  5
56
330
2
100
AcDbSymbolTableRecord
100
AcDbLayerTableRecord
  2
29
 70
     0
 62
    29
  6
CONTINUOUS
  0
LAYER
  5
57
330
2
100
AcDbSymbolTableRecord
100
AcDbLayerTableRecord
  2
30
 70
     0
 62
    30
  6
CONTINUOUS
  0
LAYER
  5
58
330
2
100
AcDbSymbolTableRecord
100
AcDbLayerTableRecord
  2
31
 70
     0
 62
    31
  6
CONTINUOUS
  0
LAYER
  5
59
330
2
100
AcDbSymbolTableRecord
100
AcDbLayerTableRecord
  2
32
 70
     0
 62
    32
  6
CONTINUOUS
  0
LAYER
  5
5A
330
2
100
AcDbSymbolTableRecord
100
AcDbLayerTableRecord
  2
33
 70
     0
 62
    33
  6
CONTINUOUS
  0
LAYER
  5
5B
330
2
100
AcDbSymbolTableRecord
100
AcDbLayerTableRecord
  2
34
 70
     0
 62
    34
  6
CONTINUOUS
  0
LAYER
  5
5C
330
2
100
AcDbSymbolTableRecord
100
AcDbLayerTableRecord
  2
35
 70
     0
 62
    35
  6
CONTINUOUS
  0
LAYER
  5
5D
330
2
100
AcDbSymbolTableRecord
100
AcDbLayerTableRecord
  2
36
 70
     0
 62
    36
  6
CONTINUOUS
  0
LAYER
  5
5E
330
2
100
AcDbSymbolTableRecord
100
AcDbLayerTableRecord
  2
37
 70
     0
 62
    37
  6
CONTINUOUS
  0
LAYER
  5
5F
330
2
100
AcDbSymbolTableRecord
100
AcDbLayerTableRecord
  2
38
 70
     0
 62
    38
  6
CONTINUOUS
  0
LAYER
  5
60
330
2
100
AcDbSymbolTableRecord
100
AcDbLayerTableRecord
  2
39
 70
     0
 62
    39
  6
CONTINUOUS
  0
LAYER
  5
61
330
2
100
AcDbSymbolTableRecord
100
AcDbLayerTableRecord
  2
40
 70
     0
 62
    40
  6
CONTINUOUS
  0
LAYER
  5
62
330
2
100
AcDbSymbolTableRecord
100
AcDbLayerTableRecord
  2
41
 70
     0
 62
    41
  6
CONTINUOUS
  0
LAYER
  5
63
330
2
100
AcDbSymbolTableRecord
100
AcDbLayerTableRecord
  2
42
 70
     0
 62
    42
  6
CONTINUOUS
  0
LAYER
  5
64
330
2
100
AcDbSymbolTableRecord
100
AcDbLayerTableRecord
  2
43
 70
     0
 62
    43
  6
CONTINUOUS
  0
LAYER
  5
65
330
2
100
AcDbSymbolTableRecord
100
AcDbLayerTableRecord
  2
44
 70
     0
 62
    44
  6
CONTINUOUS
  0
LAYER
  5
66
330
2
100
AcDbSymbolTableRecord
100
AcDbLayerTableRecord
  2
45
 70
     0
 62
    45
  6
CONTINUOUS
  0
LAYER
  5
67
330
2
100
AcDbSymbolTableRecord
100
AcDbLayerTableRecord
  2
46
 70
     0
 62
    46
  6
CONTINUOUS
  0
LAYER
  5
68
330
2
100
AcDbSymbolTableRecord
100
AcDbLayerTableRecord
  2
47
 70
     0
 62
    47
  6
CONTINUOUS
  0
LAYER
  5
69
330
2
100
AcDbSymbolTableRecord
100
AcDbLayerTableRecord
  2
48
 70
     0
 62
    48
  6
CONTINUOUS
  0
LAYER
  5
6A
330
2
100
AcDbSymbolTableRecord
100
AcDbLayerTableRecord
  2
49
 70
     0
 62
    49
  6
CONTINUOUS
  0
LAYER
  5
6B
330
2
100
AcDbSymbolTableRecord
100
AcDbLayerTableRecord
  2
50
 70
     0
 62
    50
  6
CONTINUOUS
  0
LAYER
  5
6C
330
2
100
AcDbSymbolTableRecord
100
AcDbLayerTableRecord
  2
51
 70
     0
 62
    51
  6
CONTINUOUS
  0
LAYER
  5
6D
330
2
100
AcDbSymbolTableRecord
100
AcDbLayerTableRecord
  2
52
 70
     0
 62
    52
  6
CONTINUOUS
  0
LAYER
  5
6E
330
2
100
AcDbSymbolTableRecord
100
AcDbLayerTableRecord
  2
53
 70
     0
 62
    53
  6
CONTINUOUS
  0
LAYER
  5
6F
330
2
100
AcDbSymbolTableRecord
100
AcDbLayerTableRecord
  2
54
 70
     0
 62
    54
  6
CONTINUOUS
  0
LAYER
  5
70
330
2
100
AcDbSymbolTableRecord
100
AcDbLayerTableRecord
  2
55
 70
     0
 62
    55
  6
CONTINUOUS
  0
LAYER
  5
71
330
2
100
AcDbSymbolTableRecord
100
AcDbLayerTableRecord
  2
56
 70
     0
 62
    56
  6
CONTINUOUS
  0
LAYER
  5
72
330
2
100
AcDbSymbolTableRecord
100
AcDbLayerTableRecord
  2
57
 70
     0
 62
    57
  6
CONTINUOUS
  0
LAYER
  5
73
330
2
100
AcDbSymbolTableRecord
100
AcDbLayerTableRecord
  2
58
 70
     0
 62
    58
  6
CONTINUOUS
  0
LAYER
  5
74
330
2
100
AcDbSymbolTableRecord
100
AcDbLayerTableRecord
  2
59
 70
     0
 62
    59
  6
CONTINUOUS
  0
LAYER
  5
75
330
2
100
AcDbSymbolTableRecord
100
AcDbLayerTableRecord
  2
60
 70
     0
 62
    60
  6
CONTINUOUS
  0
LAYER
  5
76
330
2
100
AcDbSymbolTableRecord
100
AcDbLayerTableRecord
  2
61
 70
     0
 62
    61
  6
CONTINUOUS
  0
LAYER
  5
77
330
2
100
AcDbSymbolTableRecord
100
AcDbLayerTableRecord
  2
62
 70
     0
 62
    62
  6
CONTINUOUS
  0
LAYER
  5
78
330
2
100
AcDbSymbolTableRecord
100
AcDbLayerTableRecord
  2
63
 70
     0
 62
    63
  6
CONTINUOUS
  0
LAYER
  5
79
330
2
100
AcDbSymbolTableRecord
100
AcDbLayerTableRecord
  2
64
 70
     0
 62
    64
  6
CONTINUOUS
  0
LAYER
  5
7A
330
2
100
AcDbSymbolTableRecord
100
AcDbLayerTableRecord
  2
65
 70
     0
 62
    65
  6
CONTINUOUS
  0
LAYER
  5
7B
330
2
100
AcDbSymbolTableRecord
100
AcDbLayerTableRecord
  2
66
 70
     0
 62
    66
  6
CONTINUOUS
  0
LAYER
  5
7C
330
2
100
AcDbSymbolTableRecord
100
AcDbLayerTableRecord
  2
67
 70
     0
 62
    67
  6
CONTINUOUS
  0
LAYER
  5
7D
330
2
100
AcDbSymbolTableRecord
100
AcDbLayerTableRecord
  2
68
 70
     0
 62
    68
  6
CONTINUOUS
  0
LAYER
  5
7E
330
2
100
AcDbSymbolTableRecord
100
AcDbLayerTableRecord
  2
69
 70
     0
 62
    69
  6
CONTINUOUS
  0
LAYER
  5
7F
330
2
100
AcDbSymbolTableRecord
100
AcDbLayerTableRecord
  2
70
 70
     0
 62
    70
  6
CONTINUOUS
  0
LAYER
  5
80
330
2
100
AcDbSymbolTableRecord
100
AcDbLayerTableRecord
  2
71
 70
     0
 62
    71
  6
CONTINUOUS
  0
LAYER
  5
81
330
2
100
AcDbSymbolTableRecord
100
AcDbLayerTableRecord
  2
72
 70
     0
 62
    72
  6
CONTINUOUS
  0
LAYER
  5
82
330
2
100
AcDbSymbolTableRecord
100
AcDbLayerTableRecord
  2
73
 70
     0
 62
    73
  6
CONTINUOUS
  0
LAYER
  5
83
330
2
100
AcDbSymbolTableRecord
100
AcDbLayerTableRecord
  2
74
 70
     0
 62
    74
  6
CONTINUOUS
  0
LAYER
  5
84
330
2
100
AcDbSymbolTableRecord
100
AcDbLayerTableRecord
  2
75
 70
     0
 62
    75
  6
CONTINUOUS
  0
LAYER
  5
85
330
2
100
AcDbSymbolTableRecord
100
AcDbLayerTableRecord
  2
76
 70
     0
 62
    76
  6
CONTINUOUS
  0
LAYER
  5
86
330
2
100
AcDbSymbolTableRecord
100
AcDbLayerTableRecord
  2
77
 70
     0
 62
    77
  6
CONTINUOUS
  0
LAYER
  5
87
330
2
100
AcDbSymbolTableRecord
100
AcDbLayerTableRecord
  2
78
 70
     0
 62
    78
  6
CONTINUOUS
  0
LAYER
  5
88
330
2
100
AcDbSymbolTableRecord
100
AcDbLayerTableRecord
  2
79
 70
     0
 62
    79
  6
CONTINUOUS
  0
LAYER
  5
89
330
2
100
AcDbSymbolTableRecord
100
AcDbLayerTableRecord
  2
80
 70
     0
 62
    80
  6
CONTINUOUS
  0
LAYER
  5
8A
330
2
100
AcDbSymbolTableRecord
100
AcDbLayerTableRecord
  2
81
 70
     0
 62
    81
  6
CONTINUOUS
  0
LAYER
  5
8B
330
2
100
AcDbSymbolTableRecord
100
AcDbLayerTableRecord
  2
82
 70
     0
 62
    82
  6
CONTINUOUS
  0
LAYER
  5
8C
330
2
100
AcDbSymbolTableRecord
100
AcDbLayerTableRecord
  2
83
 70
     0
 62
    83
  6
CONTINUOUS
  0
LAYER
  5
8D
330
2
100
AcDbSymbolTableRecord
100
AcDbLayerTableRecord
  2
84
 70
     0
 62
    84
  6
CONTINUOUS
  0
LAYER
  5
8E
330
2
100
AcDbSymbolTableRecord
100
AcDbLayerTableRecord
  2
85
 70
     0
 62
    85
  6
CONTINUOUS
  0
LAYER
  5
8F
330
2
100
AcDbSymbolTableRecord
100
AcDbLayerTableRecord
  2
86
 70
     0
 62
    86
  6
CONTINUOUS
  0
LAYER
  5
90
330
2
100
AcDbSymbolTableRecord
100
AcDbLayerTableRecord
  2
87
 70
     0
 62
    87
  6
CONTINUOUS
  0
LAYER
  5
91
330
2
100
AcDbSymbolTableRecord
100
AcDbLayerTableRecord
  2
88
 70
     0
 62
    88
  6
CONTINUOUS
  0
LAYER
  5
92
330
2
100
AcDbSymbolTableRecord
100
AcDbLayerTableRecord
  2
89
 70
     0
 62
    89
  6
CONTINUOUS
  0
LAYER
  5
93
330
2
100
AcDbSymbolTableRecord
100
AcDbLayerTableRecord
  2
90
 70
     0
 62
    90
  6
CONTINUOUS
  0
LAYER
  5
94
330
2
100
AcDbSymbolTableRecord
100
AcDbLayerTableRecord
  2
91
 70
     0
 62
    91
  6
CONTINUOUS
  0
LAYER
  5
95
330
2
100
AcDbSymbolTableRecord
100
AcDbLayerTableRecord
  2
92
 70
     0
 62
    92
  6
CONTINUOUS
  0
LAYER
  5
96
330
2
100
AcDbSymbolTableRecord
100
AcDbLayerTableRecord
  2
93
 70
     0
 62
    93
  6
CONTINUOUS
  0
LAYER
  5
97
330
2
100
AcDbSymbolTableRecord
100
AcDbLayerTableRecord
  2
94
 70
     0
 62
    94
  6
CONTINUOUS
  0
LAYER
  5
98
330
2
100
AcDbSymbolTableRecord
100
AcDbLayerTableRecord
  2
95
 70
     0
 62
    95
  6
CONTINUOUS
  0
LAYER
  5
99
330
2
100
AcDbSymbolTableRecord
100
AcDbLayerTableRecord
  2
96
 70
     0
 62
    96
  6
CONTINUOUS
  0
LAYER
  5
9A
330
2
100
AcDbSymbolTableRecord
100
AcDbLayerTableRecord
  2
97
 70
     0
 62
    97
  6
CONTINUOUS
  0
LAYER
  5
9B
330
2
100
AcDbSymbolTableRecord
100
AcDbLayerTableRecord
  2
98
 70
     0
 62
    98
  6
CONTINUOUS
  0
LAYER
  5
9C
330
2
100
AcDbSymbolTableRecord
100
AcDbLayerTableRecord
  2
99
 70
     0
 62
    99
  6
CONTINUOUS
  0
LAYER
  5
9D
330
2
100
AcDbSymbolTableRecord
100
AcDbLayerTableRecord
  2
100
 70
     0
 62
   100
  6
CONTINUOUS
  0
LAYER
  5
9E
330
2
100
AcDbSymbolTableRecord
100
AcDbLayerTableRecord
  2
101
 70
     0
 62
   101
  6
CONTINUOUS
  0
LAYER
  5
9F
330
2
100
AcDbSymbolTableRecord
100
AcDbLayerTableRecord
  2
102
 70
     0
 62
   102
  6
CONTINUOUS
  0
LAYER
  5
A0
330
2
100
AcDbSymbolTableRecord
100
AcDbLayerTableRecord
  2
103
 70
     0
 62
   103
  6
CONTINUOUS
  0
LAYER
  5
A1
330
2
100
AcDbSymbolTableRecord
100
AcDbLayerTableRecord
  2
104
 70
     0
 62
   104
  6
CONTINUOUS
  0
LAYER
  5
A2
330
2
100
AcDbSymbolTableRecord
100
AcDbLayerTableRecord
  2
105
 70
     0
 62
   105
  6
CONTINUOUS
  0
LAYER
  5
A3
330
2
100
AcDbSymbolTableRecord
100
AcDbLayerTableRecord
  2
106
 70
     0
 62
   106
  6
CONTINUOUS
  0
LAYER
  5
A4
330
2
100
AcDbSymbolTableRecord
100
AcDbLayerTableRecord
  2
107
 70
     0
 62
   107
  6
CONTINUOUS
  0
LAYER
  5
A5
330
2
100
AcDbSymbolTableRecord
100
AcDbLayerTableRecord
  2
108
 70
     0
 62
   108
  6
CONTINUOUS
  0
LAYER
  5
A6
330
2
100
AcDbSymbolTableRecord
100
AcDbLayerTableRecord
  2
109
 70
     0
 62
   109
  6
CONTINUOUS
  0
LAYER
  5
A7
330
2
100
AcDbSymbolTableRecord
100
AcDbLayerTableRecord
  2
110
 70
     0
 62
   110
  6
CONTINUOUS
  0
LAYER
  5
A8
330
2
100
AcDbSymbolTableRecord
100
AcDbLayerTableRecord
  2
111
 70
     0
 62
   111
  6
CONTINUOUS
  0
LAYER
  5
A9
330
2
100
AcDbSymbolTableRecord
100
AcDbLayerTableRecord
  2
112
 70
     0
 62
   112
  6
CONTINUOUS
  0
LAYER
  5
AA
330
2
100
AcDbSymbolTableRecord
100
AcDbLayerTableRecord
  2
113
 70
     0
 62
   113
  6
CONTINUOUS
  0
LAYER
  5
AB
330
2
100
AcDbSymbolTableRecord
100
AcDbLayerTableRecord
  2
114
 70
     0
 62
   114
  6
CONTINUOUS
  0
LAYER
  5
AC
330
2
100
AcDbSymbolTableRecord
100
AcDbLayerTableRecord
  2
115
 70
     0
 62
   115
  6
CONTINUOUS
  0
LAYER
  5
AD
330
2
100
AcDbSymbolTableRecord
100
AcDbLayerTableRecord
  2
116
 70
     0
 62
   116
  6
CONTINUOUS
  0
LAYER
  5
AE
330
2
100
AcDbSymbolTableRecord
100
AcDbLayerTableRecord
  2
117
 70
     0
 62
   117
  6
CONTINUOUS
  0
LAYER
  5
AF
330
2
100
AcDbSymbolTableRecord
100
AcDbLayerTableRecord
  2
118
 70
     0
 62
   118
  6
CONTINUOUS
  0
LAYER
  5
B0
330
2
100
AcDbSymbolTableRecord
100
AcDbLayerTableRecord
  2
119
 70
     0
 62
   119
  6
CONTINUOUS
  0
LAYER
  5
B1
330
2
100
AcDbSymbolTableRecord
100
AcDbLayerTableRecord
  2
120
 70
     0
 62
   120
  6
CONTINUOUS
  0
LAYER
  5
B2
330
2
100
AcDbSymbolTableRecord
100
AcDbLayerTableRecord
  2
121
 70
     0
 62
   121
  6
CONTINUOUS
  0
LAYER
  5
B3
330
2
100
AcDbSymbolTableRecord
100
AcDbLayerTableRecord
  2
122
 70
     0
 62
   122
  6
CONTINUOUS
  0
LAYER
  5
B4
330
2
100
AcDbSymbolTableRecord
100
AcDbLayerTableRecord
  2
123
 70
     0
 62
   123
  6
CONTINUOUS
  0
LAYER
  5
B5
330
2
100
AcDbSymbolTableRecord
100
AcDbLayerTableRecord
  2
124
 70
     0
 62
   124
  6
CONTINUOUS
  0
LAYER
  5
B6
330
2
100
AcDbSymbolTableRecord
100
AcDbLayerTableRecord
  2
125
 70
     0
 62
   125
  6
CONTINUOUS
  0
LAYER
  5
B7
330
2
100
AcDbSymbolTableRecord
100
AcDbLayerTableRecord
  2
126
 70
     0
 62
   126
  6
CONTINUOUS
  0
LAYER
  5
B8
330
2
100
AcDbSymbolTableRecord
100
AcDbLayerTableRecord
  2
127
 70
     0
 62
   127
  6
CONTINUOUS
  0
LAYER
  5
B9
330
2
100
AcDbSymbolTableRecord
100
AcDbLayerTableRecord
  2
128
 70
     0
 62
   128
  6
CONTINUOUS
  0
LAYER
  5
BA
330
2
100
AcDbSymbolTableRecord
100
AcDbLayerTableRecord
  2
129
 70
     0
 62
   129
  6
CONTINUOUS
  0
LAYER
  5
BB
330
2
100
AcDbSymbolTableRecord
100
AcDbLayerTableRecord
  2
130
 70
     0
 62
   130
  6
CONTINUOUS
  0
LAYER
  5
BC
330
2
100
AcDbSymbolTableRecord
100
AcDbLayerTableRecord
  2
131
 70
     0
 62
   131
  6
CONTINUOUS
  0
LAYER
  5
BD
330
2
100
AcDbSymbolTableRecord
100
AcDbLayerTableRecord
  2
132
 70
     0
 62
   132
  6
CONTINUOUS
  0
LAYER
  5
BE
330
2
100
AcDbSymbolTableRecord
100
AcDbLayerTableRecord
  2
133
 70
     0
 62
   133
  6
CONTINUOUS
  0
LAYER
  5
BF
330
2
100
AcDbSymbolTableRecord
100
AcDbLayerTableRecord
  2
134
 70
     0
 62
   134
  6
CONTINUOUS
  0
LAYER
  5
C0
330
2
100
AcDbSymbolTableRecord
100
AcDbLayerTableRecord
  2
135
 70
     0
 62
   135
  6
CONTINUOUS
  0
LAYER
  5
C1
330
2
100
AcDbSymbolTableRecord
100
AcDbLayerTableRecord
  2
136
 70
     0
 62
   136
  6
CONTINUOUS
  0
LAYER
  5
C2
330
2
100
AcDbSymbolTableRecord
100
AcDbLayerTableRecord
  2
137
 70
     0
 62
   137
  6
CONTINUOUS
  0
LAYER
  5
C3
330
2
100
AcDbSymbolTableRecord
100
AcDbLayerTableRecord
  2
138
 70
     0
 62
   138
  6
CONTINUOUS
  0
LAYER
  5
C4
330
2
100
AcDbSymbolTableRecord
100
AcDbLayerTableRecord
  2
139
 70
     0
 62
   139
  6
CONTINUOUS
  0
LAYER
  5
C5
330
2
100
AcDbSymbolTableRecord
100
AcDbLayerTableRecord
  2
140
 70
     0
 62
   140
  6
CONTINUOUS
  0
LAYER
  5
C6
330
2
100
AcDbSymbolTableRecord
100
AcDbLayerTableRecord
  2
141
 70
     0
 62
   141
  6
CONTINUOUS
  0
LAYER
  5
C7
330
2
100
AcDbSymbolTableRecord
100
AcDbLayerTableRecord
  2
142
 70
     0
 62
   142
  6
CONTINUOUS
  0
LAYER
  5
C8
330
2
100
AcDbSymbolTableRecord
100
AcDbLayerTableRecord
  2
143
 70
     0
 62
   143
  6
CONTINUOUS
  0
LAYER
  5
C9
330
2
100
AcDbSymbolTableRecord
100
AcDbLayerTableRecord
  2
144
 70
     0
 62
   144
  6
CONTINUOUS
  0
LAYER
  5
CA
330
2
100
AcDbSymbolTableRecord
100
AcDbLayerTableRecord
  2
145
 70
     0
 62
   145
  6
CONTINUOUS
  0
LAYER
  5
CB
330
2
100
AcDbSymbolTableRecord
100
AcDbLayerTableRecord
  2
146
 70
     0
 62
   146
  6
CONTINUOUS
  0
LAYER
  5
CC
330
2
100
AcDbSymbolTableRecord
100
AcDbLayerTableRecord
  2
147
 70
     0
 62
   147
  6
CONTINUOUS
  0
LAYER
  5
CD
330
2
100
AcDbSymbolTableRecord
100
AcDbLayerTableRecord
  2
148
 70
     0
 62
   148
  6
CONTINUOUS
  0
LAYER
  5
CE
330
2
100
AcDbSymbolTableRecord
100
AcDbLayerTableRecord
  2
149
 70
     0
 62
   149
  6
CONTINUOUS
  0
LAYER
  5
CF
330
2
100
AcDbSymbolTableRecord
100
AcDbLayerTableRecord
  2
150
 70
     0
 62
   150
  6
CONTINUOUS
  0
LAYER
  5
D0
330
2
100
AcDbSymbolTableRecord
100
AcDbLayerTableRecord
  2
151
 70
     0
 62
   151
  6
CONTINUOUS
  0
LAYER
  5
D1
330
2
100
AcDbSymbolTableRecord
100
AcDbLayerTableRecord
  2
152
 70
     0
 62
   152
  6
CONTINUOUS
  0
LAYER
  5
D2
330
2
100
AcDbSymbolTableRecord
100
AcDbLayerTableRecord
  2
153
 70
     0
 62
   153
  6
CONTINUOUS
  0
LAYER
  5
D3
330
2
100
AcDbSymbolTableRecord
100
AcDbLayerTableRecord
  2
154
 70
     0
 62
   154
  6
CONTINUOUS
  0
LAYER
  5
D4
330
2
100
AcDbSymbolTableRecord
100
AcDbLayerTableRecord
  2
155
 70
     0
 62
   155
  6
CONTINUOUS
  0
LAYER
  5
D5
330
2
100
AcDbSymbolTableRecord
100
AcDbLayerTableRecord
  2
156
 70
     0
 62
   156
  6
CONTINUOUS
  0
LAYER
  5
D6
330
2
100
AcDbSymbolTableRecord
100
AcDbLayerTableRecord
  2
157
 70
     0
 62
   157
  6
CONTINUOUS
  0
LAYER
  5
D7
330
2
100
AcDbSymbolTableRecord
100
AcDbLayerTableRecord
  2
158
 70
     0
 62
   158
  6
CONTINUOUS
  0
LAYER
  5
D8
330
2
100
AcDbSymbolTableRecord
100
AcDbLayerTableRecord
  2
159
 70
     0
 62
   159
  6
CONTINUOUS
  0
LAYER
  5
D9
330
2
100
AcDbSymbolTableRecord
100
AcDbLayerTableRecord
  2
160
 70
     0
 62
   160
  6
CONTINUOUS
  0
LAYER
  5
DA
330
2
100
AcDbSymbolTableRecord
100
AcDbLayerTableRecord
  2
161
 70
     0
 62
   161
  6
CONTINUOUS
  0
LAYER
  5
DB
330
2
100
AcDbSymbolTableRecord
100
AcDbLayerTableRecord
  2
162
 70
     0
 62
   162
  6
CONTINUOUS
  0
LAYER
  5
DC
330
2
100
AcDbSymbolTableRecord
100
AcDbLayerTableRecord
  2
163
 70
     0
 62
   163
  6
CONTINUOUS
  0
LAYER
  5
DD
330
2
100
AcDbSymbolTableRecord
100
AcDbLayerTableRecord
  2
164
 70
     0
 62
   164
  6
CONTINUOUS
  0
LAYER
  5
DE
330
2
100
AcDbSymbolTableRecord
100
AcDbLayerTableRecord
  2
165
 70
     0
 62
   165
  6
CONTINUOUS
  0
LAYER
  5
DF
330
2
100
AcDbSymbolTableRecord
100
AcDbLayerTableRecord
  2
166
 70
     0
 62
   166
  6
CONTINUOUS
  0
LAYER
  5
E0
330
2
100
AcDbSymbolTableRecord
100
AcDbLayerTableRecord
  2
167
 70
     0
 62
   167
  6
CONTINUOUS
  0
LAYER
  5
E1
330
2
100
AcDbSymbolTableRecord
100
AcDbLayerTableRecord
  2
168
 70
     0
 62
   168
  6
CONTINUOUS
  0
LAYER
  5
E2
330
2
100
AcDbSymbolTableRecord
100
AcDbLayerTableRecord
  2
169
 70
     0
 62
   169
  6
CONTINUOUS
  0
LAYER
  5
E3
330
2
100
AcDbSymbolTableRecord
100
AcDbLayerTableRecord
  2
170
 70
     0
 62
   170
  6
CONTINUOUS
  0
LAYER
  5
E4
330
2
100
AcDbSymbolTableRecord
100
AcDbLayerTableRecord
  2
171
 70
     0
 62
   171
  6
CONTINUOUS
  0
LAYER
  5
E5
330
2
100
AcDbSymbolTableRecord
100
AcDbLayerTableRecord
  2
172
 70
     0
 62
   172
  6
CONTINUOUS
  0
LAYER
  5
E6
330
2
100
AcDbSymbolTableRecord
100
AcDbLayerTableRecord
  2
173
 70
     0
 62
   173
  6
CONTINUOUS
  0
LAYER
  5
E7
330
2
100
AcDbSymbolTableRecord
100
AcDbLayerTableRecord
  2
174
 70
     0
 62
   174
  6
CONTINUOUS
  0
LAYER
  5
E8
330
2
100
AcDbSymbolTableRecord
100
AcDbLayerTableRecord
  2
175
 70
     0
 62
   175
  6
CONTINUOUS
  0
LAYER
  5
E9
330
2
100
AcDbSymbolTableRecord
100
AcDbLayerTableRecord
  2
176
 70
     0
 62
   176
  6
CONTINUOUS
  0
LAYER
  5
EA
330
2
100
AcDbSymbolTableRecord
100
AcDbLayerTableRecord
  2
177
 70
     0
 62
   177
  6
CONTINUOUS
  0
LAYER
  5
EB
330
2
100
AcDbSymbolTableRecord
100
AcDbLayerTableRecord
  2
178
 70
     0
 62
   178
  6
CONTINUOUS
  0
LAYER
  5
EC
330
2
100
AcDbSymbolTableRecord
100
AcDbLayerTableRecord
  2
179
 70
     0
 62
   179
  6
CONTINUOUS
  0
LAYER
  5
ED
330
2
100
AcDbSymbolTableRecord
100
AcDbLayerTableRecord
  2
180
 70
     0
 62
   180
  6
CONTINUOUS
  0
LAYER
  5
EE
330
2
100
AcDbSymbolTableRecord
100
AcDbLayerTableRecord
  2
181
 70
     0
 62
   181
  6
CONTINUOUS
  0
LAYER
  5
EF
330
2
100
AcDbSymbolTableRecord
100
AcDbLayerTableRecord
  2
182
 70
     0
 62
   182
  6
CONTINUOUS
  0
LAYER
  5
F0
330
2
100
AcDbSymbolTableRecord
100
AcDbLayerTableRecord
  2
183
 70
     0
 62
   183
  6
CONTINUOUS
  0
LAYER
  5
F1
330
2
100
AcDbSymbolTableRecord
100
AcDbLayerTableRecord
  2
184
 70
     0
 62
   184
  6
CONTINUOUS
  0
LAYER
  5
F2
330
2
100
AcDbSymbolTableRecord
100
AcDbLayerTableRecord
  2
185
 70
     0
 62
   185
  6
CONTINUOUS
  0
LAYER
  5
F3
330
2
100
AcDbSymbolTableRecord
100
AcDbLayerTableRecord
  2
186
 70
     0
 62
   186
  6
CONTINUOUS
  0
LAYER
  5
F4
330
2
100
AcDbSymbolTableRecord
100
AcDbLayerTableRecord
  2
187
 70
     0
 62
   187
  6
CONTINUOUS
  0
LAYER
  5
F5
330
2
100
AcDbSymbolTableRecord
100
AcDbLayerTableRecord
  2
188
 70
     0
 62
   188
  6
CONTINUOUS
  0
LAYER
  5
F6
330
2
100
AcDbSymbolTableRecord
100
AcDbLayerTableRecord
  2
189
 70
     0
 62
   189
  6
CONTINUOUS
  0
LAYER
  5
F7
330
2
100
AcDbSymbolTableRecord
100
AcDbLayerTableRecord
  2
190
 70
     0
 62
   190
  6
CONTINUOUS
  0
LAYER
  5
F8
330
2
100
AcDbSymbolTableRecord
100
AcDbLayerTableRecord
  2
191
 70
     0
 62
   191
  6
CONTINUOUS
  0
LAYER
  5
F9
330
2
100
AcDbSymbolTableRecord
100
AcDbLayerTableRecord
  2
192
 70
     0
 62
   192
  6
CONTINUOUS
  0
LAYER
  5
FA
330
2
100
AcDbSymbolTableRecord
100
AcDbLayerTableRecord
  2
193
 70
     0
 62
   193
  6
CONTINUOUS
  0
LAYER
  5
FB
330
2
100
AcDbSymbolTableRecord
100
AcDbLayerTableRecord
  2
194
 70
     0
 62
   194
  6
CONTINUOUS
  0
LAYER
  5
FC
330
2
100
AcDbSymbolTableRecord
100
AcDbLayerTableRecord
  2
195
 70
     0
 62
   195
  6
CONTINUOUS
  0
LAYER
  5
FD
330
2
100
AcDbSymbolTableRecord
100
AcDbLayerTableRecord
  2
196
 70
     0
 62
   196
  6
CONTINUOUS
  0
LAYER
  5
FE
330
2
100
AcDbSymbolTableRecord
100
AcDbLayerTableRecord
  2
197
 70
     0
 62
   197
  6
CONTINUOUS
  0
LAYER
  5
FF
330
2
100
AcDbSymbolTableRecord
100
AcDbLayerTableRecord
  2
198
 70
     0
 62
   198
  6
CONTINUOUS
  0
LAYER
  5
100
330
2
100
AcDbSymbolTableRecord
100
AcDbLayerTableRecord
  2
199
 70
     0
 62
   199
  6
CONTINUOUS
  0
LAYER
  5
101
330
2
100
AcDbSymbolTableRecord
100
AcDbLayerTableRecord
  2
200
 70
     0
 62
   200
  6
CONTINUOUS
  0
LAYER
  5
102
330
2
100
AcDbSymbolTableRecord
100
AcDbLayerTableRecord
  2
201
 70
     0
 62
   201
  6
CONTINUOUS
  0
LAYER
  5
103
330
2
100
AcDbSymbolTableRecord
100
AcDbLayerTableRecord
  2
202
 70
     0
 62
   202
  6
CONTINUOUS
  0
LAYER
  5
104
330
2
100
AcDbSymbolTableRecord
100
AcDbLayerTableRecord
  2
203
 70
     0
 62
   203
  6
CONTINUOUS
  0
LAYER
  5
105
330
2
100
AcDbSymbolTableRecord
100
AcDbLayerTableRecord
  2
204
 70
     0
 62
   204
  6
CONTINUOUS
  0
LAYER
  5
106
330
2
100
AcDbSymbolTableRecord
100
AcDbLayerTableRecord
  2
205
 70
     0
 62
   205
  6
CONTINUOUS
  0
LAYER
  5
107
330
2
100
AcDbSymbolTableRecord
100
AcDbLayerTableRecord
  2
206
 70
     0
 62
   206
  6
CONTINUOUS
  0
LAYER
  5
108
330
2
100
AcDbSymbolTableRecord
100
AcDbLayerTableRecord
  2
207
 70
     0
 62
   207
  6
CONTINUOUS
  0
LAYER
  5
109
330
2
100
AcDbSymbolTableRecord
100
AcDbLayerTableRecord
  2
208
 70
     0
 62
   208
  6
CONTINUOUS
  0
LAYER
  5
10A
330
2
100
AcDbSymbolTableRecord
100
AcDbLayerTableRecord
  2
209
 70
     0
 62
   209
  6
CONTINUOUS
  0
LAYER
  5
10B
330
2
100
AcDbSymbolTableRecord
100
AcDbLayerTableRecord
  2
210
 70
     0
 62
   210
  6
CONTINUOUS
  0
LAYER
  5
10C
330
2
100
AcDbSymbolTableRecord
100
AcDbLayerTableRecord
  2
211
 70
     0
 62
   211
  6
CONTINUOUS
  0
LAYER
  5
10D
330
2
100
AcDbSymbolTableRecord
100
AcDbLayerTableRecord
  2
212
 70
     0
 62
   212
  6
CONTINUOUS
  0
LAYER
  5
10E
330
2
100
AcDbSymbolTableRecord
100
AcDbLayerTableRecord
  2
213
 70
     0
 62
   213
  6
CONTINUOUS
  0
LAYER
  5
10F
330
2
100
AcDbSymbolTableRecord
100
AcDbLayerTableRecord
  2
214
 70
     0
 62
   214
  6
CONTINUOUS
  0
LAYER
  5
110
330
2
100
AcDbSymbolTableRecord
100
AcDbLayerTableRecord
  2
215
 70
     0
 62
   215
  6
CONTINUOUS
  0
LAYER
  5
111
330
2
100
AcDbSymbolTableRecord
100
AcDbLayerTableRecord
  2
216
 70
     0
 62
   216
  6
CONTINUOUS
  0
LAYER
  5
112
330
2
100
AcDbSymbolTableRecord
100
AcDbLayerTableRecord
  2
217
 70
     0
 62
   217
  6
CONTINUOUS
  0
LAYER
  5
113
330
2
100
AcDbSymbolTableRecord
100
AcDbLayerTableRecord
  2
218
 70
     0
 62
   218
  6
CONTINUOUS
  0
LAYER
  5
114
330
2
100
AcDbSymbolTableRecord
100
AcDbLayerTableRecord
  2
219
 70
     0
 62
   219
  6
CONTINUOUS
  0
LAYER
  5
115
330
2
100
AcDbSymbolTableRecord
100
AcDbLayerTableRecord
  2
220
 70
     0
 62
   220
  6
CONTINUOUS
  0
LAYER
  5
116
330
2
100
AcDbSymbolTableRecord
100
AcDbLayerTableRecord
  2
221
 70
     0
 62
   221
  6
CONTINUOUS
  0
LAYER
  5
117
330
2
100
AcDbSymbolTableRecord
100
AcDbLayerTableRecord
  2
222
 70
     0
 62
   222
  6
CONTINUOUS
  0
LAYER
  5
118
330
2
100
AcDbSymbolTableRecord
100
AcDbLayerTableRecord
  2
223
 70
     0
 62
   223
  6
CONTINUOUS
  0
LAYER
  5
119
330
2
100
AcDbSymbolTableRecord
100
AcDbLayerTableRecord
  2
224
 70
     0
 62
   224
  6
CONTINUOUS
  0
LAYER
  5
11A
330
2
100
AcDbSymbolTableRecord
100
AcDbLayerTableRecord
  2
225
 70
     0
 62
   225
  6
CONTINUOUS
  0
LAYER
  5
11B
330
2
100
AcDbSymbolTableRecord
100
AcDbLayerTableRecord
  2
226
 70
     0
 62
   226
  6
CONTINUOUS
  0
LAYER
  5
11C
330
2
100
AcDbSymbolTableRecord
100
AcDbLayerTableRecord
  2
227
 70
     0
 62
   227
  6
CONTINUOUS
  0
LAYER
  5
11D
330
2
100
AcDbSymbolTableRecord
100
AcDbLayerTableRecord
  2
228
 70
     0
 62
   228
  6
CONTINUOUS
  0
LAYER
  5
11E
330
2
100
AcDbSymbolTableRecord
100
AcDbLayerTableRecord
  2
229
 70
     0
 62
   229
  6
CONTINUOUS
  0
LAYER
  5
11F
330
2
100
AcDbSymbolTableRecord
100
AcDbLayerTableRecord
  2
230
 70
     0
 62
   230
  6
CONTINUOUS
  0
LAYER
  5
120
330
2
100
AcDbSymbolTableRecord
100
AcDbLayerTableRecord
  2
231
 70
     0
 62
   231
  6
CONTINUOUS
  0
LAYER
  5
121
330
2
100
AcDbSymbolTableRecord
100
AcDbLayerTableRecord
  2
232
 70
     0
 62
   232
  6
CONTINUOUS
  0
LAYER
  5
122
330
2
100
AcDbSymbolTableRecord
100
AcDbLayerTableRecord
  2
233
 70
     0
 62
   233
  6
CONTINUOUS
  0
LAYER
  5
123
330
2
100
AcDbSymbolTableRecord
100
AcDbLayerTableRecord
  2
234
 70
     0
 62
   234
  6
CONTINUOUS
  0
LAYER
  5
124
330
2
100
AcDbSymbolTableRecord
100
AcDbLayerTableRecord
  2
235
 70
     0
 62
   235
  6
CONTINUOUS
  0
LAYER
  5
125
330
2
100
AcDbSymbolTableRecord
100
AcDbLayerTableRecord
  2
236
 70
     0
 62
   236
  6
CONTINUOUS
  0
LAYER
  5
126
330
2
100
AcDbSymbolTableRecord
100
AcDbLayerTableRecord
  2
237
 70
     0
 62
   237
  6
CONTINUOUS
  0
LAYER
  5
127
330
2
100
AcDbSymbolTableRecord
100
AcDbLayerTableRecord
  2
238
 70
     0
 62
   238
  6
CONTINUOUS
  0
LAYER
  5
128
330
2
100
AcDbSymbolTableRecord
100
AcDbLayerTableRecord
  2
239
 70
     0
 62
   239
  6
CONTINUOUS
  0
LAYER
  5
129
330
2
100
AcDbSymbolTableRecord
100
AcDbLayerTableRecord
  2
240
 70
     0
 62
   240
  6
CONTINUOUS
  0
LAYER
  5
12A
330
2
100
AcDbSymbolTableRecord
100
AcDbLayerTableRecord
  2
241
 70
     0
 62
   241
  6
CONTINUOUS
  0
LAYER
  5
12B
330
2
100
AcDbSymbolTableRecord
100
AcDbLayerTableRecord
  2
242
 70
     0
 62
   242
  6
CONTINUOUS
  0
LAYER
  5
12C
330
2
100
AcDbSymbolTableRecord
100
AcDbLayerTableRecord
  2
243
 70
     0
 62
   243
  6
CONTINUOUS
  0
LAYER
  5
12D
330
2
100
AcDbSymbolTableRecord
100
AcDbLayerTableRecord
  2
244
 70
     0
 62
   244
  6
CONTINUOUS
  0
LAYER
  5
12E
330
2
100
AcDbSymbolTableRecord
100
AcDbLayerTableRecord
  2
245
 70
     0
 62
   245
  6
CONTINUOUS
  0
LAYER
  5
12F
330
2
100
AcDbSymbolTableRecord
100
AcDbLayerTableRecord
  2
246
 70
     0
 62
   246
  6
CONTINUOUS
  0
LAYER
  5
130
330
2
100
AcDbSymbolTableRecord
100
AcDbLayerTableRecord
  2
247
 70
     0
 62
   247
  6
CONTINUOUS
  0
LAYER
  5
131
330
2
100
AcDbSymbolTableRecord
100
AcDbLayerTableRecord
  2
248
 70
     0
 62
   248
  6
CONTINUOUS
  0
LAYER
  5
132
330
2
100
AcDbSymbolTableRecord
100
AcDbLayerTableRecord
  2
249
 70
     0
 62
   249
  6
CONTINUOUS
  0
LAYER
  5
133
330
2
100
AcDbSymbolTableRecord
100
AcDbLayerTableRecord
  2
250
 70
     0
 62
   250
  6
CONTINUOUS
  0
LAYER
  5
134
330
2
100
AcDbSymbolTableRecord
100
AcDbLayerTableRecord
  2
251
 70
     0
 62
   251
  6
CONTINUOUS
  0
LAYER
  5
135
330
2
100
AcDbSymbolTableRecord
100
AcDbLayerTableRecord
  2
252
 70
     0
 62
   252
  6
CONTINUOUS
  0
LAYER
  5
136
330
2
100
AcDbSymbolTableRecord
100
AcDbLayerTableRecord
  2
253
 70
     0
 62
   253
  6
CONTINUOUS
  0
LAYER
  5
137
330
2
100
AcDbSymbolTableRecord
100
AcDbLayerTableRecord
  2
254
 70
     0
 62
   254
  6
CONTINUOUS
  0
LAYER
  5
138
330
2
100
AcDbSymbolTableRecord
100
AcDbLayerTableRecord
  2
255
 70
     0
 62
   255
  6
CONTINUOUS
  0
LAYER
  5
2C40
330
2
100
AcDbSymbolTableRecord
100
AcDbLayerTableRecord
  2
DEFPOINTS
 70
     0
 62
     7
  6
CONTINUOUS
  0
ENDTAB
  0
TABLE
  2
STYLE
  5
3
330
0
100
AcDbSymbolTable
 70
     1
  0
STYLE
  5
11
330
3
100
AcDbSymbolTableRecord
100
AcDbTextStyleTableRecord
  2
STANDARD
 70
     0
 40
0.0
 41
1.0
 50
0.0
 71
     0
 42
0.2
  3
txt
  4

  0
ENDTAB
  0
TABLE
  2
VIEW
  5
6
330
0
100
AcDbSymbolTable
 70
     0
  0
ENDTAB
  0
TABLE
  2
UCS
  5
7
330
0
100
AcDbSymbolTable
 70
     0
  0
ENDTAB
  0
TABLE
  2
APPID
  5
9
330
0
100
AcDbSymbolTable
 70
     1
  0
APPID
  5
12
330
9
100
AcDbSymbolTableRecord
100
AcDbRegAppTableRecord
  2
ACAD
 70
     0
  0
ENDTAB
  0
TABLE
  2
DIMSTYLE
  5
A
330
0
100
AcDbSymbolTable
 70
     1
  0
DIMSTYLE
105
2C3C
102
{ACAD_REACTORS
330
2C3F
102
}
330
A
100
AcDbSymbolTableRecord
100
AcDbDimStyleTableRecord
  2
STANDARD
 70
     0
  3

  4

  5

  6

  7

 40
1.0
 41
0.18
 42
0.0625
 43
0.38
 44
0.18
 45
0.0
 46
0.0
 47
0.0
 48
0.0
140
0.18
141
0.09
142
0.0
143
25.4
144
1.0
145
0.0
146
1.0
147
0.09
 71
     0
 72
     0
 73
     1
 74
     1
 75
     0
 76
     0
 77
     0
 78
     0
170
     0
171
     2
172
     0
173
     0
174
     0
175
     0
176
     0
177
     0
178
     0
270
     2
271
     4
272
     4
273
     2
274
     2
340
11
275
     0
280
     0
281
     0
282
     0
283
     1
284
     0
285
     0
286
     0
287
     3
288
     0
  0
ENDTAB
  0
TABLE
  2
BLOCK_RECORD
  5
1
330
0
100
AcDbSymbolTable
 70
     1
  0
BLOCK_RECORD
  5
1E
102
{ACAD_XDICTIONARY
360
2C5E
102
}
330
1
100
AcDbSymbolTableRecord
100
AcDbBlockTableRecord
  2
*MODEL_SPACE
  0
BLOCK_RECORD
  5
1A
102
{ACAD_XDICTIONARY
360
2C5C
102
}
330
1
100
AcDbSymbolTableRecord
100
AcDbBlockTableRecord
  2
*PAPER_SPACE
  0
BLOCK_RECORD
  5
2C41
330
1
100
AcDbSymbolTableRecord
100
AcDbBlockTableRecord
  2
*D0
  0
ENDTAB
  0
ENDSEC
  0
SECTION
  2
BLOCKS
  0
BLOCK
  5
13B
330
1E
100
AcDbEntity
  8
0
100
AcDbBlockBegin
  2
*MODEL_SPACE
 70
     0
 10
0.0
 20
0.0
 30
0.0
  3
*MODEL_SPACE
  1

  0
ENDBLK
  5
13C
330
1E
100
AcDbEntity
  8
0
100
AcDbBlockEnd
  0
BLOCK
  5
139
330
1A
100
AcDbEntity
 67
     1
  8
0
100
AcDbBlockBegin
  2
*PAPER_SPACE
 70
     0
 10
0.0
 20
0.0
 30
0.0
  3
*PAPER_SPACE
  1

  0
ENDBLK
  5
13A
330
1A
100
AcDbEntity
 67
     1
  8
0
100
AcDbBlockEnd
  0
BLOCK
  5
2C4C
330
2C41
100
AcDbEntity
  8
0
100
AcDbBlockBegin
  2
*D0
 70
     1
 10
0.0
 20
0.0
 30
0.0
  3
*D0
  1

  0
LINE
  5
2C4E
330
2C41
100
AcDbEntity
  8
0
 62
     0
100
AcDbLine
 10
-1.016732283464566
 20
8.50492125984252
 30
0.0
 11
-1.016732283464566
 21
8.62242125984252
 31
0.0
  0
LINE
  5
2C4F
330
2C41
100
AcDbEntity
  8
0
 62
     0
100
AcDbLine
 10
4.731299212598425
 20
8.50492125984252
 30
0.0
 11
4.731299212598425
 21
8.62242125984252
 31
0.0
  0
LINE
  5
2C50
330
2C41
100
AcDbEntity
  8
0
 62
     0
100
AcDbLine
 10
-0.8367322834645667
 20
8.44242125984252
 30
0.0
 11
1.332283464566929
 21
8.44242125984252
 31
0.0
  0
LINE
  5
2C51
330
2C41
100
AcDbEntity
  8
0
 62
     0
100
AcDbLine
 10
4.551299212598425
 20
8.44242125984252
 30
0.0
 11
2.382283464566929
 21
8.44242125984252
 31
0.0
  0
SOLID
  5
2C52
330
2C41
100
AcDbEntity
  8
0
 62
     0
100
AcDbTrace
 10
-0.8367322834645667
 20
8.472421259842519
 30
0.0
 11
-0.8367322834645667
 21
8.41242125984252
 31
0.0
 12
-1.016732283464566
 22
8.44242125984252
 32
0.0
 13
-1.016732283464566
 23
8.44242125984252
 33
0.0
  0
SOLID
  5
2C53
330
2C41
100
AcDbEntity
  8
0
 62
     0
100
AcDbTrace
 10
4.551299212598425
 20
8.472421259842519
 30
0.0
 11
4.551299212598425
 21
8.41242125984252
 31
0.0
 12
4.731299212598425
 22
8.44242125984252
 32
0.0
 13
4.731299212598425
 23
8.44242125984252
 33
0.0
  0
MTEXT
  5
2C54
330
2C41
100
AcDbEntity
  8
0
 62
     0
100
AcDbMText
 10
1.857283464566929
 20
8.44242125984252
 30
0.0
 40
0.18
 41
0.0
 71
     5
 72
     1
  1
\A1;5.7480
1001
ACAD
1000
MTEXTBEGIN
1070
    73
1070
     1
1070
    44
1040
1.0
1070
    74
1070
     0
1000
MTEXTEND
  0
POINT
  5
2C55
330
2C41
100
AcDbEntity
  8
DEFPOINTS
 62
     0
100
AcDbPoint
 10
-1.016732283464566
 20
8.44242125984252
 30
0.0
  0
POINT
  5
2C56
330
2C41
100
AcDbEntity
  8
DEFPOINTS
 62
     0
100
AcDbPoint
 10
4.731299212598425
 20
8.44242125984252
 30
0.0
  0
POINT
  5
2C57
330
2C41
100
AcDbEntity
  8
DEFPOINTS
 62
     0
100
AcDbPoint
 10
4.731299212598425
 20
8.44242125984252
 30
0.0
  0
ENDBLK
  5
2C4D
330
2C41
100
AcDbEntity
  8
0
100
AcDbBlockEnd
  0
ENDSEC
  0
SECTION
  2
ENTITIES
  0
LINE
  5
2579
330
1E
100
AcDbEntity
  8
0
100
AcDbLine
 10
3.819881889763778
 20
5.176673228346457
 30
0.0
 11
3.819881889763778
 21
5.174704724409448
 31
0.0
  0
LINE
  5
257A
330
1E
100
AcDbEntity
  8
0
100
AcDbLine
 10
3.819881889763778
 20
5.174704724409448
 30
0.0
 11
3.817913385826771
 21
5.174704724409448
 31
0.0
  0
LINE
  5
257B
330
1E
100
AcDbEntity
  8
0
100
AcDbLine
 10
2.258858267716535
 20
5.176673228346457
 30
0.0
 11
2.256889763779527
 21
5.174704724409448
 31
0.0
  0
LINE
  5
257C
330
1E
100
AcDbEntity
  8
0
100
AcDbLine
 10
2.258858267716535
 20
5.174704724409448
 30
0.0
 11
2.256889763779527
 21
5.174704724409448
 31
0.0
  0
LINE
  5
257D
330
1E
100
AcDbEntity
  8
0
100
AcDbLine
 10
3.686023622047243
 20
5.940452755905511
 30
0.0
 11
2.392716535433071
 21
5.940452755905511
 31
0.0
  0
POLYLINE
  5
257E
330
1E
100
AcDbEntity
  8
0
100
AcDb2dPolyline
 66
     1
 10
0.0
 20
0.0
 30
0.0
  0
VERTEX
  5
2C60
330
257E
100
AcDbEntity
  8
0
100
AcDbVertex
100
AcDb2dVertex
 10
3.686023622047243
 20
5.940452755905511
 30
0.0
  0
VERTEX
  5
2C61
330
257E
100
AcDbEntity
  8
0
100
AcDbVertex
100
AcDb2dVertex
 10
3.719488188976378
 20
5.930610236220472
 30
0.0
  0
VERTEX
  5
2C62
330
257E
100
AcDbEntity
  8
0
100
AcDbVertex
100
AcDb2dVertex
 10
3.749015748031495
 20
5.903051181102362
 30
0.0
  0
VERTEX
  5
2C63
330
257E
100
AcDbEntity
  8
0
100
AcDbVertex
100
AcDb2dVertex
 10
3.768700787401574
 20
5.861712598425196
 30
0.0
  0
VERTEX
  5
2C64
330
257E
100
AcDbEntity
  8
0
100
AcDbVertex
100
AcDb2dVertex
 10
3.774606299212599
 20
5.8125
 30
0.0
  0
SEQEND
  5
2C65
330
257E
100
AcDbEntity
  8
0
  0
LINE
  5
2585
330
1E
100
AcDbEntity
  8
0
100
AcDbLine
 10
3.774606299212599
 20
4.869586614173227
 30
0.0
 11
3.774606299212599
 21
5.8125
 31
0.0
  0
POLYLINE
  5
2586
330
1E
100
AcDbEntity
  8
0
100
AcDb2dPolyline
 66
     1
 10
0.0
 20
0.0
 30
0.0
  0
VERTEX
  5
2C66
330
2586
100
AcDbEntity
  8
0
100
AcDbVertex
100
AcDb2dVertex
 10
3.774606299212599
 20
4.869586614173227
 30
0.0
  0
VERTEX
  5
2C67
330
2586
100
AcDbEntity
  8
0
100
AcDbVertex
100
AcDb2dVertex
 10
3.768700787401574
 20
4.820374015748031
 30
0.0
  0
VERTEX
  5
2C68
330
2586
100
AcDbEntity
  8
0
100
AcDbVertex
100
AcDb2dVertex
 10
3.749015748031495
 20
4.781003937007874
 30
0.0
  0
VERTEX
  5
2C69
330
2586
100
AcDbEntity
  8
0
100
AcDbVertex
100
AcDb2dVertex
 10
3.719488188976378
 20
4.753444881889764
 30
0.0
  0
VERTEX
  5
2C6A
330
2586
100
AcDbEntity
  8
0
100
AcDbVertex
100
AcDb2dVertex
 10
3.686023622047243
 20
4.743602362204724
 30
0.0
  0
SEQEND
  5
2C6B
330
2586
100
AcDbEntity
  8
0
  0
LINE
  5
258D
330
1E
100
AcDbEntity
  8
0
100
AcDbLine
 10
2.392716535433071
 20
4.743602362204724
 30
0.0
 11
3.686023622047243
 21
4.743602362204724
 31
0.0
  0
POLYLINE
  5
258E
330
1E
100
AcDbEntity
  8
0
100
AcDb2dPolyline
 66
     1
 10
0.0
 20
0.0
 30
0.0
  0
VERTEX
  5
2C6C
330
258E
100
AcDbEntity
  8
0
100
AcDbVertex
100
AcDb2dVertex
 10
2.392716535433071
 20
4.743602362204724
 30
0.0
  0
VERTEX
  5
2C6D
330
258E
100
AcDbEntity
  8
0
100
AcDbVertex
100
AcDb2dVertex
 10
2.357283464566928
 20
4.753444881889764
 30
0.0
  0
VERTEX
  5
2C6E
330
258E
100
AcDbEntity
  8
0
100
AcDbVertex
100
AcDb2dVertex
 10
2.329724409448818
 20
4.781003937007874
 30
0.0
  0
VERTEX
  5
2C6F
330
258E
100
AcDbEntity
  8
0
100
AcDbVertex
100
AcDb2dVertex
 10
2.310039370078739
 20
4.820374015748031
 30
0.0
  0
VERTEX
  5
2C70
330
258E
100
AcDbEntity
  8
0
100
AcDbVertex
100
AcDb2dVertex
 10
2.302165354330708
 20
4.869586614173227
 30
0.0
  0
SEQEND
  5
2C71
330
258E
100
AcDbEntity
  8
0
  0
LINE
  5
2595
330
1E
100
AcDbEntity
  8
0
100
AcDbLine
 10
2.302165354330708
 20
5.8125
 30
0.0
 11
2.302165354330708
 21
4.869586614173227
 31
0.0
  0
POLYLINE
  5
2596
330
1E
100
AcDbEntity
  8
0
100
AcDb2dPolyline
 66
     1
 10
0.0
 20
0.0
 30
0.0
  0
VERTEX
  5
2C72
330
2596
100
AcDbEntity
  8
0
100
AcDbVertex
100
AcDb2dVertex
 10
2.302165354330708
 20
5.8125
 30
0.0
  0
VERTEX
  5
2C73
330
2596
100
AcDbEntity
  8
0
100
AcDbVertex
100
AcDb2dVertex
 10
2.310039370078739
 20
5.861712598425196
 30
0.0
  0
VERTEX
  5
2C74
330
2596
100
AcDbEntity
  8
0
100
AcDbVertex
100
AcDb2dVertex
 10
2.329724409448818
 20
5.903051181102362
 30
0.0
  0
VERTEX
  5
2C75
330
2596
100
AcDbEntity
  8
0
100
AcDbVertex
100
AcDb2dVertex
 10
2.357283464566928
 20
5.930610236220472
 30
0.0
  0
VERTEX
  5
2C76
330
2596
100
AcDbEntity
  8
0
100
AcDbVertex
100
AcDb2dVertex
 10
2.392716535433071
 20
5.940452755905511
 30
0.0
  0
SEQEND
  5
2C77
330
2596
100
AcDbEntity
  8
0
  0
LINE
  5
259D
330
1E
100
AcDbEntity
  8
0
100
AcDbLine
 10
2.258858267716535
 20
5.174704724409448
 30
0.0
 11
2.258858267716535
 21
5.507381889763779
 31
0.0
  0
LINE
  5
259E
330
1E
100
AcDbEntity
  8
0
100
AcDbLine
 10
2.256889763779527
 20
4.674704724409448
 30
0.0
 11
2.256889763779527
 21
5.174704724409448
 31
0.0
  0
LINE
  5
259F
330
1E
100
AcDbEntity
  8
0
100
AcDbLine
 10
2.256889763779527
 20
4.674704724409448
 30
0.0
 11
3.819881889763778
 21
4.674704724409448
 31
0.0
  0
LINE
  5
25A0
330
1E
100
AcDbEntity
  8
0
100
AcDbLine
 10
3.819881889763778
 20
4.674704724409448
 30
0.0
 11
3.819881889763778
 21
5.174704724409448
 31
0.0
  0
LINE
  5
25A1
330
1E
100
AcDbEntity
  8
0
100
AcDbLine
 10
3.817913385826771
 20
5.507381889763779
 30
0.0
 11
3.817913385826771
 21
5.174704724409448
 31
0.0
  0
LINE
  5
25A2
330
1E
100
AcDbEntity
  8
0
100
AcDbLine
 10
3.819881889763778
 20
5.507381889763779
 30
0.0
 11
3.819881889763778
 21
6.009350393700787
 31
0.0
  0
LINE
  5
25A3
330
1E
100
AcDbEntity
  8
0
100
AcDbLine
 10
2.256889763779527
 20
6.009350393700787
 30
0.0
 11
3.819881889763778
 21
6.009350393700787
 31
0.0
  0
LINE
  5
25A4
330
1E
100
AcDbEntity
  8
0
100
AcDbLine
 10
2.256889763779527
 20
5.507381889763779
 30
0.0
 11
2.256889763779527
 21
6.009350393700787
 31
0.0
  0
LINE
  5
25A5
330
1E
100
AcDbEntity
  8
0
100
AcDbLine
 10
2.422244094488188
 20
5.219980314960629
 30
0.0
 11
2.422244094488188
 21
4.761318897637796
 31
0.0
  0
LINE
  5
25A6
330
1E
100
AcDbEntity
  8
0
100
AcDbLine
 10
3.004921259842519
 20
5.219980314960629
 30
0.0
 11
3.004921259842519
 21
4.761318897637796
 31
0.0
  0
LINE
  5
25A7
330
1E
100
AcDbEntity
  8
0
100
AcDbLine
 10
3.004921259842519
 20
4.796751968503937
 30
0.0
 11
2.422244094488188
 21
4.796751968503937
 31
0.0
  0
LINE
  5
25A8
330
1E
100
AcDbEntity
  8
0
100
AcDbLine
 10
2.422244094488188
 20
4.78494094488189
 30
0.0
 11
3.004921259842519
 21
4.78494094488189
 31
0.0
  0
LINE
  5
25A9
330
1E
100
AcDbEntity
  8
0
100
AcDbLine
 10
3.654527559055117
 20
5.219980314960629
 30
0.0
 11
3.654527559055117
 21
4.761318897637796
 31
0.0
  0
LINE
  5
25AA
330
1E
100
AcDbEntity
  8
0
100
AcDbLine
 10
3.073818897637795
 20
5.219980314960629
 30
0.0
 11
3.073818897637795
 21
4.761318897637796
 31
0.0
  0
LINE
  5
25AB
330
1E
100
AcDbEntity
  8
0
100
AcDbLine
 10
3.654527559055117
 20
4.796751968503937
 30
0.0
 11
3.073818897637795
 21
4.796751968503937
 31
0.0
  0
LINE
  5
25AC
330
1E
100
AcDbEntity
  8
0
100
AcDbLine
 10
3.073818897637795
 20
4.78494094488189
 30
0.0
 11
3.654527559055117
 21
4.78494094488189
 31
0.0
  0
LINE
  5
25AD
330
1E
100
AcDbEntity
  8
0
100
AcDbLine
 10
2.420275590551181
 20
5.406988188976377
 30
0.0
 11
3.658464566929134
 21
5.406988188976377
 31
0.0
  0
LINE
  5
25AE
330
1E
100
AcDbEntity
  8
0
100
AcDbLine
 10
3.658464566929134
 20
5.406988188976377
 30
0.0
 11
3.686023622047243
 21
5.940452755905511
 31
0.0
  0
LINE
  5
25AF
330
1E
100
AcDbEntity
  8
0
100
AcDbLine
 10
2.392716535433071
 20
5.940452755905511
 30
0.0
 11
2.420275590551181
 21
5.406988188976377
 31
0.0
  0
LINE
  5
25B0
330
1E
100
AcDbEntity
  8
0
100
AcDbLine
 10
3.774606299212599
 20
5.8125
 30
0.0
 11
3.750984251968504
 21
5.342027559055118
 31
0.0
  0
LINE
  5
25B1
330
1E
100
AcDbEntity
  8
0
100
AcDbLine
 10
3.750984251968504
 20
5.342027559055118
 30
0.0
 11
3.774606299212599
 21
4.869586614173227
 31
0.0
  0
LINE
  5
25B2
330
1E
100
AcDbEntity
  8
0
100
AcDbLine
 10
2.302165354330708
 20
4.869586614173227
 30
0.0
 11
2.327755905511811
 21
5.342027559055118
 31
0.0
  0
LINE
  5
25B3
330
1E
100
AcDbEntity
  8
0
100
AcDbLine
 10
2.327755905511811
 20
5.342027559055118
 30
0.0
 11
2.302165354330708
 21
5.8125
 31
0.0
  0
LINE
  5
25B4
330
1E
100
AcDbEntity
  8
0
100
AcDbLine
 10
2.422244094488188
 20
5.219980314960629
 30
0.0
 11
3.004921259842519
 21
5.219980314960629
 31
0.0
  0
LINE
  5
25B5
330
1E
100
AcDbEntity
  8
0
100
AcDbLine
 10
2.422244094488188
 20
4.761318897637796
 30
0.0
 11
3.004921259842519
 21
4.761318897637796
 31
0.0
  0
LINE
  5
25B6
330
1E
100
AcDbEntity
  8
0
100
AcDbLine
 10
3.073818897637795
 20
5.219980314960629
 30
0.0
 11
3.654527559055117
 21
5.219980314960629
 31
0.0
  0
LINE
  5
25B7
330
1E
100
AcDbEntity
  8
0
100
AcDbLine
 10
3.686023622047243
 20
4.743602362204724
 30
0.0
 11
3.658464566929134
 21
5.27509842519685
 31
0.0
  0
LINE
  5
25B8
330
1E
100
AcDbEntity
  8
0
100
AcDbLine
 10
3.658464566929134
 20
5.27509842519685
 30
0.0
 11
2.420275590551181
 21
5.27509842519685
 31
0.0
  0
LINE
  5
25B9
330
1E
100
AcDbEntity
  8
0
100
AcDbLine
 10
2.420275590551181
 20
5.27509842519685
 30
0.0
 11
2.392716535433071
 21
4.743602362204724
 31
0.0
  0
LINE
  5
25BA
330
1E
100
AcDbEntity
  8
0
100
AcDbLine
 10
3.073818897637795
 20
4.761318897637796
 30
0.0
 11
3.654527559055117
 21
4.761318897637796
 31
0.0
  0
LINE
  5
25BB
330
1E
100
AcDbEntity
  8
0
100
AcDbLine
 10
2.796259842519685
 20
4.910925196850394
 30
0.0
 11
2.630905511811024
 21
4.910925196850394
 31
0.0
  0
LINE
  5
25BC
330
1E
100
AcDbEntity
  8
0
100
AcDbLine
 10
2.796259842519685
 20
4.910925196850394
 30
0.0
 11
2.796259842519685
 21
4.938484251968503
 31
0.0
  0
LINE
  5
25BD
330
1E
100
AcDbEntity
  8
0
100
AcDbLine
 10
2.796259842519685
 20
4.938484251968503
 30
0.0
 11
2.796259842519685
 21
4.938484251968503
 31
0.0
  0
LINE
  5
25BE
330
1E
100
AcDbEntity
  8
0
100
AcDbLine
 10
2.796259842519685
 20
4.910925196850394
 30
0.0
 11
2.796259842519685
 21
4.938484251968503
 31
0.0
  0
LINE
  5
25BF
330
1E
100
AcDbEntity
  8
0
100
AcDbLine
 10
3.280511811023622
 20
4.910925196850394
 30
0.0
 11
3.280511811023622
 21
4.938484251968503
 31
0.0
  0
LINE
  5
25C0
330
1E
100
AcDbEntity
  8
0
100
AcDbLine
 10
3.280511811023622
 20
4.938484251968503
 30
0.0
 11
3.280511811023622
 21
4.938484251968503
 31
0.0
  0
LINE
  5
25C1
330
1E
100
AcDbEntity
  8
0
100
AcDbLine
 10
3.280511811023622
 20
4.910925196850394
 30
0.0
 11
3.280511811023622
 21
4.938484251968503
 31
0.0
  0
LINE
  5
25C2
330
1E
100
AcDbEntity
  8
0
100
AcDbLine
 10
3.447834645669291
 20
4.910925196850394
 30
0.0
 11
3.280511811023622
 21
4.910925196850394
 31
0.0
  0
LINE
  5
25C3
330
1E
100
AcDbEntity
  8
0
100
AcDbLine
 10
2.630905511811024
 20
4.910925196850394
 30
0.0
 11
2.630905511811024
 21
4.938484251968503
 31
0.0
  0
LINE
  5
25C4
330
1E
100
AcDbEntity
  8
0
100
AcDbLine
 10
2.630905511811024
 20
4.938484251968503
 30
0.0
 11
2.630905511811024
 21
4.938484251968503
 31
0.0
  0
LINE
  5
25C5
330
1E
100
AcDbEntity
  8
0
100
AcDbLine
 10
2.630905511811024
 20
4.910925196850394
 30
0.0
 11
2.630905511811024
 21
4.938484251968503
 31
0.0
  0
LINE
  5
25C6
330
1E
100
AcDbEntity
  8
0
100
AcDbLine
 10
3.447834645669291
 20
4.910925196850394
 30
0.0
 11
3.447834645669291
 21
4.938484251968503
 31
0.0
  0
LINE
  5
25C7
330
1E
100
AcDbEntity
  8
0
100
AcDbLine
 10
3.445866141732284
 20
4.938484251968503
 30
0.0
 11
3.447834645669291
 21
4.938484251968503
 31
0.0
  0
LINE
  5
25C8
330
1E
100
AcDbEntity
  8
0
100
AcDbLine
 10
3.445866141732284
 20
4.910925196850394
 30
0.0
 11
3.445866141732284
 21
4.938484251968503
 31
0.0
  0
LINE
  5
25C9
330
1E
100
AcDbEntity
  8
0
100
AcDbLine
 10
3.445866141732284
 20
4.938484251968503
 30
0.0
 11
3.445866141732284
 21
4.938484251968503
 31
0.0
  0
LINE
  5
25CA
330
1E
100
AcDbEntity
  8
0
100
AcDbLine
 10
3.445866141732284
 20
4.938484251968503
 30
0.0
 11
3.445866141732284
 21
4.910925196850394
 31
0.0
  0
LINE
  5
25CB
330
1E
100
AcDbEntity
  8
0
100
AcDbLine
 10
3.441929133858267
 20
4.938484251968503
 30
0.0
 11
3.445866141732284
 21
4.938484251968503
 31
0.0
  0
LINE
  5
25CC
330
1E
100
AcDbEntity
  8
0
100
AcDbLine
 10
3.441929133858267
 20
4.938484251968503
 30
0.0
 11
3.441929133858267
 21
4.938484251968503
 31
0.0
  0
LINE
  5
25CD
330
1E
100
AcDbEntity
  8
0
100
AcDbLine
 10
3.441929133858267
 20
4.938484251968503
 30
0.0
 11
3.441929133858267
 21
4.910925196850394
 31
0.0
  0
LINE
  5
25CE
330
1E
100
AcDbEntity
  8
0
100
AcDbLine
 10
3.441929133858267
 20
4.938484251968503
 30
0.0
 11
3.286417322834645
 21
4.938484251968503
 31
0.0
  0
LINE
  5
25CF
330
1E
100
AcDbEntity
  8
0
100
AcDbLine
 10
3.286417322834645
 20
4.938484251968503
 30
0.0
 11
3.286417322834645
 21
4.910925196850394
 31
0.0
  0
LINE
  5
25D0
330
1E
100
AcDbEntity
  8
0
100
AcDbLine
 10
3.286417322834645
 20
4.938484251968503
 30
0.0
 11
3.284448818897637
 21
4.938484251968503
 31
0.0
  0
LINE
  5
25D1
330
1E
100
AcDbEntity
  8
0
100
AcDbLine
 10
3.280511811023622
 20
4.938484251968503
 30
0.0
 11
3.284448818897637
 21
4.938484251968503
 31
0.0
  0
LINE
  5
25D2
330
1E
100
AcDbEntity
  8
0
100
AcDbLine
 10
2.792322834645669
 20
4.938484251968503
 30
0.0
 11
2.796259842519685
 21
4.938484251968503
 31
0.0
  0
LINE
  5
25D3
330
1E
100
AcDbEntity
  8
0
100
AcDbLine
 10
2.792322834645669
 20
4.938484251968503
 30
0.0
 11
2.792322834645669
 21
4.938484251968503
 31
0.0
  0
LINE
  5
25D4
330
1E
100
AcDbEntity
  8
0
100
AcDbLine
 10
2.792322834645669
 20
4.910925196850394
 30
0.0
 11
2.792322834645669
 21
4.938484251968503
 31
0.0
  0
LINE
  5
25D5
330
1E
100
AcDbEntity
  8
0
100
AcDbLine
 10
2.792322834645669
 20
4.938484251968503
 30
0.0
 11
2.636811023622047
 21
4.938484251968503
 31
0.0
  0
LINE
  5
25D6
330
1E
100
AcDbEntity
  8
0
100
AcDbLine
 10
2.636811023622047
 20
4.910925196850394
 30
0.0
 11
2.636811023622047
 21
4.938484251968503
 31
0.0
  0
LINE
  5
25D7
330
1E
100
AcDbEntity
  8
0
100
AcDbLine
 10
2.636811023622047
 20
4.938484251968503
 30
0.0
 11
2.634842519685039
 21
4.938484251968503
 31
0.0
  0
LINE
  5
25D8
330
1E
100
AcDbEntity
  8
0
100
AcDbLine
 10
2.630905511811024
 20
4.938484251968503
 30
0.0
 11
2.634842519685039
 21
4.938484251968503
 31
0.0
  0
LINE
  5
25D9
330
1E
100
AcDbEntity
  8
0
100
AcDbLine
 10
3.280511811023622
 20
4.938484251968503
 30
0.0
 11
3.073818897637795
 21
4.938484251968503
 31
0.0
  0
LINE
  5
25DA
330
1E
100
AcDbEntity
  8
0
100
AcDbLine
 10
3.004921259842519
 20
4.938484251968503
 30
0.0
 11
2.796259842519685
 21
4.938484251968503
 31
0.0
  0
LINE
  5
25DB
330
1E
100
AcDbEntity
  8
0
100
AcDbLine
 10
2.422244094488188
 20
4.910925196850394
 30
0.0
 11
2.630905511811024
 21
4.910925196850394
 31
0.0
  0
LINE
  5
25DC
330
1E
100
AcDbEntity
  8
0
100
AcDbLine
 10
2.630905511811024
 20
4.938484251968503
 30
0.0
 11
2.422244094488188
 21
4.938484251968503
 31
0.0
  0
LINE
  5
25DD
330
1E
100
AcDbEntity
  8
0
100
AcDbLine
 10
2.422244094488188
 20
4.847933070866142
 30
0.0
 11
3.004921259842519
 21
4.847933070866142
 31
0.0
  0
LINE
  5
25DE
330
1E
100
AcDbEntity
  8
0
100
AcDbLine
 10
3.004921259842519
 20
4.859744094488188
 30
0.0
 11
2.422244094488188
 21
4.859744094488188
 31
0.0
  0
LINE
  5
25DF
330
1E
100
AcDbEntity
  8
0
100
AcDbLine
 10
3.004921259842519
 20
4.899114173228346
 30
0.0
 11
2.422244094488188
 21
4.899114173228346
 31
0.0
  0
LINE
  5
25E0
330
1E
100
AcDbEntity
  8
0
100
AcDbLine
 10
2.796259842519685
 20
4.910925196850394
 30
0.0
 11
3.004921259842519
 21
4.910925196850394
 31
0.0
  0
LINE
  5
25E1
330
1E
100
AcDbEntity
  8
0
100
AcDbLine
 10
3.654527559055117
 20
4.938484251968503
 30
0.0
 11
3.447834645669291
 21
4.938484251968503
 31
0.0
  0
LINE
  5
25E2
330
1E
100
AcDbEntity
  8
0
100
AcDbLine
 10
3.447834645669291
 20
4.910925196850394
 30
0.0
 11
3.654527559055117
 21
4.910925196850394
 31
0.0
  0
LINE
  5
25E3
330
1E
100
AcDbEntity
  8
0
100
AcDbLine
 10
3.073818897637795
 20
4.910925196850394
 30
0.0
 11
3.280511811023622
 21
4.910925196850394
 31
0.0
  0
LINE
  5
25E4
330
1E
100
AcDbEntity
  8
0
100
AcDbLine
 10
3.654527559055117
 20
4.899114173228346
 30
0.0
 11
3.073818897637795
 21
4.899114173228346
 31
0.0
  0
LINE
  5
25E5
330
1E
100
AcDbEntity
  8
0
100
AcDbLine
 10
3.654527559055117
 20
4.859744094488188
 30
0.0
 11
3.073818897637795
 21
4.859744094488188
 31
0.0
  0
LINE
  5
25E6
330
1E
100
AcDbEntity
  8
0
100
AcDbLine
 10
3.073818897637795
 20
4.847933070866142
 30
0.0
 11
3.654527559055117
 21
4.847933070866142
 31
0.0
  0
POLYLINE
  5
25E7
330
1E
100
AcDbEntity
  8
0
100
AcDb2dPolyline
 66
     1
 10
0.0
 20
0.0
 30
0.0
  0
VERTEX
  5
2C78
330
25E7
100
AcDbEntity
  8
0
100
AcDbVertex
100
AcDb2dVertex
 10
3.658464566929134
 20
5.27509842519685
 30
0.0
  0
VERTEX
  5
2C79
330
25E7
100
AcDbEntity
  8
0
100
AcDbVertex
100
AcDb2dVertex
 10
3.658464566929134
 20
5.318405511811024
 30
0.0
  0
VERTEX
  5
2C7A
330
25E7
100
AcDbEntity
  8
0
100
AcDbVertex
100
AcDb2dVertex
 10
3.658464566929134
 20
5.365649606299212
 30
0.0
  0
VERTEX
  5
2C7B
330
25E7
100
AcDbEntity
  8
0
100
AcDbVertex
100
AcDb2dVertex
 10
3.658464566929134
 20
5.406988188976377
 30
0.0
  0
SEQEND
  5
2C7C
330
25E7
100
AcDbEntity
  8
0
  0
POLYLINE
  5
25ED
330
1E
100
AcDbEntity
  8
0
100
AcDb2dPolyline
 66
     1
 10
0.0
 20
0.0
 30
0.0
  0
VERTEX
  5
2C7D
330
25ED
100
AcDbEntity
  8
0
100
AcDbVertex
100
AcDb2dVertex
 10
2.420275590551181
 20
5.406988188976377
 30
0.0
  0
VERTEX
  5
2C7E
330
25ED
100
AcDbEntity
  8
0
100
AcDbVertex
100
AcDb2dVertex
 10
2.420275590551181
 20
5.365649606299212
 30
0.0
  0
VERTEX
  5
2C7F
330
25ED
100
AcDbEntity
  8
0
100
AcDbVertex
100
AcDb2dVertex
 10
2.420275590551181
 20
5.318405511811024
 30
0.0
  0
VERTEX
  5
2C80
330
25ED
100
AcDbEntity
  8
0
100
AcDbVertex
100
AcDb2dVertex
 10
2.420275590551181
 20
5.27509842519685
 30
0.0
  0
SEQEND
  5
2C81
330
25ED
100
AcDbEntity
  8
0
  0
POLYLINE
  5
25F3
330
1E
100
AcDbEntity
  8
0
100
AcDb2dPolyline
 66
     1
 10
0.0
 20
0.0
 30
0.0
  0
VERTEX
  5
2C82
330
25F3
100
AcDbEntity
  8
0
100
AcDbVertex
100
AcDb2dVertex
 10
3.750984251968504
 20
5.342027559055118
 30
0.0
  0
VERTEX
  5
2C83
330
25F3
100
AcDbEntity
  8
0
100
AcDbVertex
100
AcDb2dVertex
 10
3.737204724409449
 20
5.373523622047244
 30
0.0
  0
VERTEX
  5
2C84
330
25F3
100
AcDbEntity
  8
0
100
AcDbVertex
100
AcDb2dVertex
 10
3.703740157480315
 20
5.397145669291338
 30
0.0
  0
VERTEX
  5
2C85
330
25F3
100
AcDbEntity
  8
0
100
AcDbVertex
100
AcDb2dVertex
 10
3.658464566929134
 20
5.406988188976377
 30
0.0
  0
SEQEND
  5
2C86
330
25F3
100
AcDbEntity
  8
0
  0
POLYLINE
  5
25F9
330
1E
100
AcDbEntity
  8
0
100
AcDb2dPolyline
 66
     1
 10
0.0
 20
0.0
 30
0.0
  0
VERTEX
  5
2C87
330
25F9
100
AcDbEntity
  8
0
100
AcDbVertex
100
AcDb2dVertex
 10
3.750984251968504
 20
5.342027559055118
 30
0.0
  0
VERTEX
  5
2C88
330
25F9
100
AcDbEntity
  8
0
100
AcDbVertex
100
AcDb2dVertex
 10
3.737204724409449
 20
5.308562992125985
 30
0.0
  0
VERTEX
  5
2C89
330
25F9
100
AcDbEntity
  8
0
100
AcDbVertex
100
AcDb2dVertex
 10
3.703740157480315
 20
5.28494094488189
 30
0.0
  0
VERTEX
  5
2C8A
330
25F9
100
AcDbEntity
  8
0
100
AcDbVertex
100
AcDb2dVertex
 10
3.658464566929134
 20
5.27509842519685
 30
0.0
  0
SEQEND
  5
2C8B
330
25F9
100
AcDbEntity
  8
0
  0
POLYLINE
  5
25FF
330
1E
100
AcDbEntity
  8
0
100
AcDb2dPolyline
 66
     1
 10
0.0
 20
0.0
 30
0.0
  0
VERTEX
  5
2C8C
330
25FF
100
AcDbEntity
  8
0
100
AcDbVertex
100
AcDb2dVertex
 10
2.327755905511811
 20
5.342027559055118
 30
0.0
  0
VERTEX
  5
2C8D
330
25FF
100
AcDbEntity
  8
0
100
AcDbVertex
100
AcDb2dVertex
 10
2.341535433070865
 20
5.308562992125985
 30
0.0
  0
VERTEX
  5
2C8E
330
25FF
100
AcDbEntity
  8
0
100
AcDbVertex
100
AcDb2dVertex
 10
2.375
 20
5.28494094488189
 30
0.0
  0
VERTEX
  5
2C8F
330
25FF
100
AcDbEntity
  8
0
100
AcDbVertex
100
AcDb2dVertex
 10
2.420275590551181
 20
5.27509842519685
 30
0.0
  0
SEQEND
  5
2C90
330
25FF
100
AcDbEntity
  8
0
  0
POLYLINE
  5
2605
330
1E
100
AcDbEntity
  8
0
100
AcDb2dPolyline
 66
     1
 10
0.0
 20
0.0
 30
0.0
  0
VERTEX
  5
2C91
330
2605
100
AcDbEntity
  8
0
100
AcDbVertex
100
AcDb2dVertex
 10
2.327755905511811
 20
5.342027559055118
 30
0.0
  0
VERTEX
  5
2C92
330
2605
100
AcDbEntity
  8
0
100
AcDbVertex
100
AcDb2dVertex
 10
2.341535433070865
 20
5.373523622047244
 30
0.0
  0
VERTEX
  5
2C93
330
2605
100
AcDbEntity
  8
0
100
AcDbVertex
100
AcDb2dVertex
 10
2.375
 20
5.397145669291338
 30
0.0
  0
VERTEX
  5
2C94
330
2605
100
AcDbEntity
  8
0
100
AcDbVertex
100
AcDb2dVertex
 10
2.420275590551181
 20
5.406988188976377
 30
0.0
  0
SEQEND
  5
2C95
330
2605
100
AcDbEntity
  8
0
  0
LINE
  5
260B
330
1E
100
AcDbEntity
  8
0
100
AcDbLine
 10
2.252952755905512
 20
5.147145669291338
 30
0.0
 11
2.252952755905512
 21
5.249507874015748
 31
0.0
  0
LINE
  5
260C
330
1E
100
AcDbEntity
  8
0
100
AcDbLine
 10
2.252952755905512
 20
5.249507874015748
 30
0.0
 11
2.249015748031496
 21
5.245570866141731
 31
0.0
  0
LINE
  5
260D
330
1E
100
AcDbEntity
  8
0
100
AcDbLine
 10
2.249015748031496
 20
4.674704724409448
 30
0.0
 11
2.249015748031496
 21
5.245570866141731
 31
0.0
  0
LINE
  5
260E
330
1E
100
AcDbEntity
  8
0
100
AcDbLine
 10
2.250984251968503
 20
4.668799212598425
 30
0.0
 11
2.252952755905512
 21
4.670767716535433
 31
0.0
  0
LINE
  5
260F
330
1E
100
AcDbEntity
  8
0
100
AcDbLine
 10
2.252952755905512
 20
4.670767716535433
 30
0.0
 11
2.252952755905512
 21
5.147145669291338
 31
0.0
  0
LINE
  5
2610
330
1E
100
AcDbEntity
  8
0
100
AcDbLine
 10
2.312007874015748
 20
4.674704724409448
 30
0.0
 11
2.312007874015748
 21
4.670767716535433
 31
0.0
  0
LINE
  5
2611
330
1E
100
AcDbEntity
  8
0
100
AcDbLine
 10
2.252952755905512
 20
5.147145669291338
 30
0.0
 11
2.256889763779527
 21
5.147145669291338
 31
0.0
  0
LINE
  5
2612
330
1E
100
AcDbEntity
  8
0
100
AcDbLine
 10
2.312007874015748
 20
4.670767716535433
 30
0.0
 11
2.252952755905512
 21
4.670767716535433
 31
0.0
  0
LINE
  5
2613
330
1E
100
AcDbEntity
  8
0
100
AcDbLine
 10
2.315944881889763
 20
4.674704724409448
 30
0.0
 11
2.315944881889763
 21
4.67273622047244
 31
0.0
  0
LINE
  5
2614
330
1E
100
AcDbEntity
  8
0
100
AcDbLine
 10
2.312007874015748
 20
4.670767716535433
 30
0.0
 11
2.315944881889763
 21
4.67273622047244
 31
0.0
  0
LINE
  5
2615
330
1E
100
AcDbEntity
  8
0
100
AcDbLine
 10
3.82775590551181
 20
4.674704724409448
 30
0.0
 11
3.82775590551181
 21
5.245570866141731
 31
0.0
  0
LINE
  5
2616
330
1E
100
AcDbEntity
  8
0
100
AcDbLine
 10
3.82775590551181
 20
5.245570866141731
 30
0.0
 11
3.825787401574802
 21
5.249507874015748
 31
0.0
  0
LINE
  5
2617
330
1E
100
AcDbEntity
  8
0
100
AcDbLine
 10
3.825787401574802
 20
5.147145669291338
 30
0.0
 11
3.825787401574802
 21
5.249507874015748
 31
0.0
  0
LINE
  5
2618
330
1E
100
AcDbEntity
  8
0
100
AcDbLine
 10
3.825787401574802
 20
4.670767716535433
 30
0.0
 11
3.825787401574802
 21
5.147145669291338
 31
0.0
  0
LINE
  5
2619
330
1E
100
AcDbEntity
  8
0
100
AcDbLine
 10
3.825787401574802
 20
4.668799212598425
 30
0.0
 11
3.825787401574802
 21
4.670767716535433
 31
0.0
  0
LINE
  5
261A
330
1E
100
AcDbEntity
  8
0
100
AcDbLine
 10
3.825787401574802
 20
5.147145669291338
 30
0.0
 11
3.819881889763778
 21
5.147145669291338
 31
0.0
  0
LINE
  5
261B
330
1E
100
AcDbEntity
  8
0
100
AcDbLine
 10
3.825787401574802
 20
5.147145669291338
 30
0.0
 11
3.819881889763778
 21
5.153051181102362
 31
0.0
  0
LINE
  5
261C
330
1E
100
AcDbEntity
  8
0
100
AcDbLine
 10
3.825787401574802
 20
5.53494094488189
 30
0.0
 11
3.819881889763778
 21
5.531003937007874
 31
0.0
  0
LINE
  5
261D
330
1E
100
AcDbEntity
  8
0
100
AcDbLine
 10
3.825787401574802
 20
5.53494094488189
 30
0.0
 11
3.819881889763778
 21
5.53494094488189
 31
0.0
  0
LINE
  5
261E
330
1E
100
AcDbEntity
  8
0
100
AcDbLine
 10
3.825787401574802
 20
5.249507874015748
 30
0.0
 11
3.825787401574802
 21
5.434547244094488
 31
0.0
  0
LINE
  5
261F
330
1E
100
AcDbEntity
  8
0
100
AcDbLine
 10
3.825787401574802
 20
5.434547244094488
 30
0.0
 11
3.825787401574802
 21
5.53494094488189
 31
0.0
  0
LINE
  5
2620
330
1E
100
AcDbEntity
  8
0
100
AcDbLine
 10
3.764763779527558
 20
4.670767716535433
 30
0.0
 11
3.764763779527558
 21
4.674704724409448
 31
0.0
  0
LINE
  5
2621
330
1E
100
AcDbEntity
  8
0
100
AcDbLine
 10
3.825787401574802
 20
4.670767716535433
 30
0.0
 11
3.764763779527558
 21
4.670767716535433
 31
0.0
  0
LINE
  5
2622
330
1E
100
AcDbEntity
  8
0
100
AcDbLine
 10
3.76279527559055
 20
4.674704724409448
 30
0.0
 11
3.76279527559055
 21
4.67273622047244
 31
0.0
  0
LINE
  5
2623
330
1E
100
AcDbEntity
  8
0
100
AcDbLine
 10
3.764763779527558
 20
4.670767716535433
 30
0.0
 11
3.76279527559055
 21
4.67273622047244
 31
0.0
  0
LINE
  5
2624
330
1E
100
AcDbEntity
  8
0
100
AcDbLine
 10
3.764763779527558
 20
6.009350393700787
 30
0.0
 11
3.764763779527558
 21
6.013287401574803
 31
0.0
  0
LINE
  5
2625
330
1E
100
AcDbEntity
  8
0
100
AcDbLine
 10
3.825787401574802
 20
5.53494094488189
 30
0.0
 11
3.825787401574802
 21
6.013287401574803
 31
0.0
  0
LINE
  5
2626
330
1E
100
AcDbEntity
  8
0
100
AcDbLine
 10
3.825787401574802
 20
6.013287401574803
 30
0.0
 11
3.764763779527558
 21
6.013287401574803
 31
0.0
  0
LINE
  5
2627
330
1E
100
AcDbEntity
  8
0
100
AcDbLine
 10
1.46751968503937
 20
4.674704724409448
 30
0.0
 11
1.46751968503937
 21
5.245570866141731
 31
0.0
  0
LINE
  5
2628
330
1E
100
AcDbEntity
  8
0
100
AcDbLine
 10
1.46751968503937
 20
5.245570866141731
 30
0.0
 11
1.463582677165354
 21
5.249507874015748
 31
0.0
  0
LINE
  5
2629
330
1E
100
AcDbEntity
  8
0
100
AcDbLine
 10
1.463582677165354
 20
5.147145669291338
 30
0.0
 11
1.463582677165354
 21
5.249507874015748
 31
0.0
  0
LINE
  5
262A
330
1E
100
AcDbEntity
  8
0
100
AcDbLine
 10
1.463582677165354
 20
4.670767716535433
 30
0.0
 11
1.463582677165354
 21
5.147145669291338
 31
0.0
  0
LINE
  5
262B
330
1E
100
AcDbEntity
  8
0
100
AcDbLine
 10
1.463582677165354
 20
4.668799212598425
 30
0.0
 11
1.463582677165354
 21
4.670767716535433
 31
0.0
  0
LINE
  5
262C
330
1E
100
AcDbEntity
  8
0
100
AcDbLine
 10
1.463582677165354
 20
5.147145669291338
 30
0.0
 11
1.45767716535433
 21
5.147145669291338
 31
0.0
  0
LINE
  5
262D
330
1E
100
AcDbEntity
  8
0
100
AcDbLine
 10
1.40255905511811
 20
4.670767716535433
 30
0.0
 11
1.40255905511811
 21
4.674704724409448
 31
0.0
  0
LINE
  5
262E
330
1E
100
AcDbEntity
  8
0
100
AcDbLine
 10
1.40255905511811
 20
4.670767716535433
 30
0.0
 11
1.463582677165354
 21
4.670767716535433
 31
0.0
  0
LINE
  5
262F
330
1E
100
AcDbEntity
  8
0
100
AcDbLine
 10
1.400590551181102
 20
4.674704724409448
 30
0.0
 11
1.400590551181102
 21
4.67273622047244
 31
0.0
  0
LINE
  5
2630
330
1E
100
AcDbEntity
  8
0
100
AcDbLine
 10
1.40255905511811
 20
4.670767716535433
 30
0.0
 11
1.400590551181102
 21
4.67273622047244
 31
0.0
  0
LINE
  5
2631
330
1E
100
AcDbEntity
  8
0
100
AcDbLine
 10
-0.109251968503937
 20
5.147145669291338
 30
0.0
 11
-0.109251968503937
 21
5.249507874015748
 31
0.0
  0
LINE
  5
2632
330
1E
100
AcDbEntity
  8
0
100
AcDbLine
 10
-0.109251968503937
 20
5.249507874015748
 30
0.0
 11
-0.1131889763779528
 21
5.245570866141731
 31
0.0
  0
LINE
  5
2633
330
1E
100
AcDbEntity
  8
0
100
AcDbLine
 10
-0.1131889763779528
 20
4.674704724409448
 30
0.0
 11
-0.1131889763779528
 21
5.245570866141731
 31
0.0
  0
LINE
  5
2634
330
1E
100
AcDbEntity
  8
0
100
AcDbLine
 10
-0.109251968503937
 20
4.668799212598425
 30
0.0
 11
-0.109251968503937
 21
4.670767716535433
 31
0.0
  0
LINE
  5
2635
330
1E
100
AcDbEntity
  8
0
100
AcDbLine
 10
-0.109251968503937
 20
4.670767716535433
 30
0.0
 11
-0.109251968503937
 21
5.147145669291338
 31
0.0
  0
LINE
  5
2636
330
1E
100
AcDbEntity
  8
0
100
AcDbLine
 10
-0.109251968503937
 20
5.147145669291338
 30
0.0
 11
-0.103346456692913
 21
5.153051181102362
 31
0.0
  0
LINE
  5
2637
330
1E
100
AcDbEntity
  8
0
100
AcDbLine
 10
-0.109251968503937
 20
5.147145669291338
 30
0.0
 11
-0.103346456692913
 21
5.147145669291338
 31
0.0
  0
LINE
  5
2638
330
1E
100
AcDbEntity
  8
0
100
AcDbLine
 10
-0.109251968503937
 20
5.53494094488189
 30
0.0
 11
-0.103346456692913
 21
5.53494094488189
 31
0.0
  0
LINE
  5
2639
330
1E
100
AcDbEntity
  8
0
100
AcDbLine
 10
-0.109251968503937
 20
5.53494094488189
 30
0.0
 11
-0.103346456692913
 21
5.531003937007874
 31
0.0
  0
LINE
  5
263A
330
1E
100
AcDbEntity
  8
0
100
AcDbLine
 10
-0.109251968503937
 20
5.434547244094488
 30
0.0
 11
-0.109251968503937
 21
5.53494094488189
 31
0.0
  0
LINE
  5
263B
330
1E
100
AcDbEntity
  8
0
100
AcDbLine
 10
-0.109251968503937
 20
5.249507874015748
 30
0.0
 11
-0.109251968503937
 21
5.434547244094488
 31
0.0
  0
LINE
  5
263C
330
1E
100
AcDbEntity
  8
0
100
AcDbLine
 10
-0.0501968503937009
 20
4.674704724409448
 30
0.0
 11
-0.0501968503937009
 21
4.670767716535433
 31
0.0
  0
LINE
  5
263D
330
1E
100
AcDbEntity
  8
0
100
AcDbLine
 10
-0.109251968503937
 20
4.670767716535433
 30
0.0
 11
-0.0501968503937009
 21
4.670767716535433
 31
0.0
  0
LINE
  5
263E
330
1E
100
AcDbEntity
  8
0
100
AcDbLine
 10
-0.0462598425196852
 20
4.674704724409448
 30
0.0
 11
-0.0462598425196852
 21
4.67273622047244
 31
0.0
  0
LINE
  5
263F
330
1E
100
AcDbEntity
  8
0
100
AcDbLine
 10
-0.0501968503937009
 20
4.670767716535433
 30
0.0
 11
-0.0462598425196852
 21
4.67273622047244
 31
0.0
  0
LINE
  5
2640
330
1E
100
AcDbEntity
  8
0
100
AcDbLine
 10
1.40255905511811
 20
6.009350393700787
 30
0.0
 11
1.40255905511811
 21
6.013287401574803
 31
0.0
  0
LINE
  5
2641
330
1E
100
AcDbEntity
  8
0
100
AcDbLine
 10
1.463582677165354
 20
5.53494094488189
 30
0.0
 11
1.45767716535433
 21
5.53494094488189
 31
0.0
  0
LINE
  5
2642
330
1E
100
AcDbEntity
  8
0
100
AcDbLine
 10
1.463582677165354
 20
5.53494094488189
 30
0.0
 11
1.463582677165354
 21
6.013287401574803
 31
0.0
  0
LINE
  5
2643
330
1E
100
AcDbEntity
  8
0
100
AcDbLine
 10
1.40255905511811
 20
6.013287401574803
 30
0.0
 11
1.463582677165354
 21
6.013287401574803
 31
0.0
  0
LINE
  5
2644
330
1E
100
AcDbEntity
  8
0
100
AcDbLine
 10
-0.9852362204724407
 20
3.895177165354331
 30
0.0
 11
4.701771653543306
 21
3.895177165354331
 31
0.0
  0
POLYLINE
  5
2645
330
1E
100
AcDbEntity
  8
0
100
AcDb2dPolyline
 66
     1
 10
0.0
 20
0.0
 30
0.0
  0
VERTEX
  5
2C96
330
2645
100
AcDbEntity
  8
0
100
AcDbVertex
100
AcDb2dVertex
 10
-0.9852362204724407
 20
3.895177165354331
 30
0.0
  0
VERTEX
  5
2C97
330
2645
100
AcDbEntity
  8
0
100
AcDbVertex
100
AcDb2dVertex
 10
-1.006889763779527
 20
3.903051181102362
 30
0.0
  0
VERTEX
  5
2C98
330
2645
100
AcDbEntity
  8
0
100
AcDbVertex
100
AcDb2dVertex
 10
-1.016732283464566
 20
3.926673228346457
 30
0.0
  0
SEQEND
  5
2C99
330
2645
100
AcDbEntity
  8
0
  0
LINE
  5
264A
330
1E
100
AcDbEntity
  8
0
100
AcDbLine
 10
-1.016732283464566
 20
7.249507874015748
 30
0.0
 11
-1.016732283464566
 21
3.926673228346457
 31
0.0
  0
POLYLINE
  5
264B
330
1E
100
AcDbEntity
  8
0
100
AcDb2dPolyline
 66
     1
 10
0.0
 20
0.0
 30
0.0
  0
VERTEX
  5
2C9A
330
264B
100
AcDbEntity
  8
0
100
AcDbVertex
100
AcDb2dVertex
 10
-1.016732283464566
 20
7.249507874015748
 30
0.0
  0
VERTEX
  5
2C9B
330
264B
100
AcDbEntity
  8
0
100
AcDbVertex
100
AcDb2dVertex
 10
-1.006889763779527
 20
7.271161417322835
 30
0.0
  0
VERTEX
  5
2C9C
330
264B
100
AcDbEntity
  8
0
100
AcDbVertex
100
AcDb2dVertex
 10
-0.9852362204724407
 20
7.281003937007874
 30
0.0
  0
SEQEND
  5
2C9D
330
264B
100
AcDbEntity
  8
0
  0
LINE
  5
2650
330
1E
100
AcDbEntity
  8
0
100
AcDbLine
 10
4.701771653543306
 20
7.281003937007874
 30
0.0
 11
-0.9852362204724407
 21
7.281003937007874
 31
0.0
  0
POLYLINE
  5
2651
330
1E
100
AcDbEntity
  8
0
100
AcDb2dPolyline
 66
     1
 10
0.0
 20
0.0
 30
0.0
  0
VERTEX
  5
2C9E
330
2651
100
AcDbEntity
  8
0
100
AcDbVertex
100
AcDb2dVertex
 10
4.701771653543306
 20
7.281003937007874
 30
0.0
  0
VERTEX
  5
2C9F
330
2651
100
AcDbEntity
  8
0
100
AcDbVertex
100
AcDb2dVertex
 10
4.723425196850393
 20
7.271161417322835
 30
0.0
  0
VERTEX
  5
2CA0
330
2651
100
AcDbEntity
  8
0
100
AcDbVertex
100
AcDb2dVertex
 10
4.731299212598425
 20
7.249507874015748
 30
0.0
  0
SEQEND
  5
2CA1
330
2651
100
AcDbEntity
  8
0
  0
LINE
  5
2656
330
1E
100
AcDbEntity
  8
0
100
AcDbLine
 10
4.731299212598425
 20
3.926673228346457
 30
0.0
 11
4.731299212598425
 21
7.249507874015748
 31
0.0
  0
POLYLINE
  5
2657
330
1E
100
AcDbEntity
  8
0
100
AcDb2dPolyline
 66
     1
 10
0.0
 20
0.0
 30
0.0
  0
VERTEX
  5
2CA2
330
2657
100
AcDbEntity
  8
0
100
AcDbVertex
100
AcDb2dVertex
 10
4.731299212598425
 20
3.926673228346457
 30
0.0
  0
VERTEX
  5
2CA3
330
2657
100
AcDbEntity
  8
0
100
AcDbVertex
100
AcDb2dVertex
 10
4.723425196850393
 20
3.903051181102362
 30
0.0
  0
VERTEX
  5
2CA4
330
2657
100
AcDbEntity
  8
0
100
AcDbVertex
100
AcDb2dVertex
 10
4.701771653543306
 20
3.895177165354331
 30
0.0
  0
SEQEND
  5
2CA5
330
2657
100
AcDbEntity
  8
0
  0
LINE
  5
265C
330
1E
100
AcDbEntity
  8
0
100
AcDbLine
 10
3.750984251968504
 20
6.515255905511811
 30
0.0
 11
2.327755905511811
 21
6.515255905511811
 31
0.0
  0
POLYLINE
  5
265D
330
1E
100
AcDbEntity
  8
0
100
AcDb2dPolyline
 66
     1
 10
0.0
 20
0.0
 30
0.0
  0
VERTEX
  5
2CA6
330
265D
100
AcDbEntity
  8
0
100
AcDbVertex
100
AcDb2dVertex
 10
3.750984251968504
 20
6.515255905511811
 30
0.0
  0
VERTEX
  5
2CA7
330
265D
100
AcDbEntity
  8
0
100
AcDbVertex
100
AcDb2dVertex
 10
3.756889763779526
 20
6.511318897637796
 30
0.0
  0
VERTEX
  5
2CA8
330
265D
100
AcDbEntity
  8
0
100
AcDbVertex
100
AcDb2dVertex
 10
3.760826771653543
 20
6.505413385826772
 30
0.0
  0
SEQEND
  5
2CA9
330
265D
100
AcDbEntity
  8
0
  0
LINE
  5
2662
330
1E
100
AcDbEntity
  8
0
100
AcDbLine
 10
3.760826771653543
 20
6.505413385826772
 30
0.0
 11
3.760826771653543
 21
6.164862204724409
 31
0.0
  0
POLYLINE
  5
2663
330
1E
100
AcDbEntity
  8
0
100
AcDb2dPolyline
 66
     1
 10
0.0
 20
0.0
 30
0.0
  0
VERTEX
  5
2CAA
330
2663
100
AcDbEntity
  8
0
100
AcDbVertex
100
AcDb2dVertex
 10
3.760826771653543
 20
6.164862204724409
 30
0.0
  0
VERTEX
  5
2CAB
330
2663
100
AcDbEntity
  8
0
100
AcDbVertex
100
AcDb2dVertex
 10
3.756889763779526
 20
6.156988188976377
 30
0.0
  0
VERTEX
  5
2CAC
330
2663
100
AcDbEntity
  8
0
100
AcDbVertex
100
AcDb2dVertex
 10
3.750984251968504
 20
6.15501968503937
 30
0.0
  0
SEQEND
  5
2CAD
330
2663
100
AcDbEntity
  8
0
  0
LINE
  5
2668
330
1E
100
AcDbEntity
  8
0
100
AcDbLine
 10
3.750984251968504
 20
6.15501968503937
 30
0.0
 11
2.327755905511811
 21
6.15501968503937
 31
0.0
  0
POLYLINE
  5
2669
330
1E
100
AcDbEntity
  8
0
100
AcDb2dPolyline
 66
     1
 10
0.0
 20
0.0
 30
0.0
  0
VERTEX
  5
2CAE
330
2669
100
AcDbEntity
  8
0
100
AcDbVertex
100
AcDb2dVertex
 10
2.327755905511811
 20
6.15501968503937
 30
0.0
  0
VERTEX
  5
2CAF
330
2669
100
AcDbEntity
  8
0
100
AcDbVertex
100
AcDb2dVertex
 10
2.319881889763779
 20
6.156988188976377
 30
0.0
  0
VERTEX
  5
2CB0
330
2669
100
AcDbEntity
  8
0
100
AcDbVertex
100
AcDb2dVertex
 10
2.317913385826771
 20
6.164862204724409
 30
0.0
  0
SEQEND
  5
2CB1
330
2669
100
AcDbEntity
  8
0
  0
LINE
  5
266E
330
1E
100
AcDbEntity
  8
0
100
AcDbLine
 10
2.317913385826771
 20
6.505413385826772
 30
0.0
 11
2.317913385826771
 21
6.164862204724409
 31
0.0
  0
POLYLINE
  5
266F
330
1E
100
AcDbEntity
  8
0
100
AcDb2dPolyline
 66
     1
 10
0.0
 20
0.0
 30
0.0
  0
VERTEX
  5
2CB2
330
266F
100
AcDbEntity
  8
0
100
AcDbVertex
100
AcDb2dVertex
 10
2.317913385826771
 20
6.505413385826772
 30
0.0
  0
VERTEX
  5
2CB3
330
266F
100
AcDbEntity
  8
0
100
AcDbVertex
100
AcDb2dVertex
 10
2.319881889763779
 20
6.511318897637796
 30
0.0
  0
VERTEX
  5
2CB4
330
266F
100
AcDbEntity
  8
0
100
AcDbVertex
100
AcDb2dVertex
 10
2.327755905511811
 20
6.515255905511811
 30
0.0
  0
SEQEND
  5
2CB5
330
266F
100
AcDbEntity
  8
0
  0
LINE
  5
2674
330
1E
100
AcDbEntity
  8
0
100
AcDbLine
 10
-0.0442913385826769
 20
6.505413385826772
 30
0.0
 11
-0.0442913385826769
 21
6.164862204724409
 31
0.0
  0
POLYLINE
  5
2675
330
1E
100
AcDbEntity
  8
0
100
AcDb2dPolyline
 66
     1
 10
0.0
 20
0.0
 30
0.0
  0
VERTEX
  5
2CB6
330
2675
100
AcDbEntity
  8
0
100
AcDbVertex
100
AcDb2dVertex
 10
-0.0442913385826769
 20
6.505413385826772
 30
0.0
  0
VERTEX
  5
2CB7
330
2675
100
AcDbEntity
  8
0
100
AcDbVertex
100
AcDb2dVertex
 10
-0.0403543307086611
 20
6.511318897637796
 30
0.0
  0
VERTEX
  5
2CB8
330
2675
100
AcDbEntity
  8
0
100
AcDbVertex
100
AcDb2dVertex
 10
-0.034448818897638
 20
6.515255905511811
 30
0.0
  0
SEQEND
  5
2CB9
330
2675
100
AcDbEntity
  8
0
  0
LINE
  5
267A
330
1E
100
AcDbEntity
  8
0
100
AcDbLine
 10
-0.034448818897638
 20
6.515255905511811
 30
0.0
 11
1.388779527559055
 21
6.515255905511811
 31
0.0
  0
POLYLINE
  5
267B
330
1E
100
AcDbEntity
  8
0
100
AcDb2dPolyline
 66
     1
 10
0.0
 20
0.0
 30
0.0
  0
VERTEX
  5
2CBA
330
267B
100
AcDbEntity
  8
0
100
AcDbVertex
100
AcDb2dVertex
 10
1.388779527559055
 20
6.515255905511811
 30
0.0
  0
VERTEX
  5
2CBB
330
267B
100
AcDbEntity
  8
0
100
AcDbVertex
100
AcDb2dVertex
 10
1.394685039370078
 20
6.511318897637796
 30
0.0
  0
VERTEX
  5
2CBC
330
267B
100
AcDbEntity
  8
0
100
AcDbVertex
100
AcDb2dVertex
 10
1.398622047244094
 20
6.505413385826772
 30
0.0
  0
SEQEND
  5
2CBD
330
267B
100
AcDbEntity
  8
0
  0
LINE
  5
2680
330
1E
100
AcDbEntity
  8
0
100
AcDbLine
 10
1.398622047244094
 20
6.505413385826772
 30
0.0
 11
1.398622047244094
 21
6.164862204724409
 31
0.0
  0
POLYLINE
  5
2681
330
1E
100
AcDbEntity
  8
0
100
AcDb2dPolyline
 66
     1
 10
0.0
 20
0.0
 30
0.0
  0
VERTEX
  5
2CBE
330
2681
100
AcDbEntity
  8
0
100
AcDbVertex
100
AcDb2dVertex
 10
1.398622047244094
 20
6.164862204724409
 30
0.0
  0
VERTEX
  5
2CBF
330
2681
100
AcDbEntity
  8
0
100
AcDbVertex
100
AcDb2dVertex
 10
1.394685039370078
 20
6.156988188976377
 30
0.0
  0
VERTEX
  5
2CC0
330
2681
100
AcDbEntity
  8
0
100
AcDbVertex
100
AcDb2dVertex
 10
1.388779527559055
 20
6.15501968503937
 30
0.0
  0
SEQEND
  5
2CC1
330
2681
100
AcDbEntity
  8
0
  0
LINE
  5
2686
330
1E
100
AcDbEntity
  8
0
100
AcDbLine
 10
-0.034448818897638
 20
6.15501968503937
 30
0.0
 11
1.388779527559055
 21
6.15501968503937
 31
0.0
  0
POLYLINE
  5
2687
330
1E
100
AcDbEntity
  8
0
100
AcDb2dPolyline
 66
     1
 10
0.0
 20
0.0
 30
0.0
  0
VERTEX
  5
2CC2
330
2687
100
AcDbEntity
  8
0
100
AcDbVertex
100
AcDb2dVertex
 10
-0.034448818897638
 20
6.15501968503937
 30
0.0
  0
VERTEX
  5
2CC3
330
2687
100
AcDbEntity
  8
0
100
AcDbVertex
100
AcDb2dVertex
 10
-0.0403543307086611
 20
6.156988188976377
 30
0.0
  0
VERTEX
  5
2CC4
330
2687
100
AcDbEntity
  8
0
100
AcDbVertex
100
AcDb2dVertex
 10
-0.0442913385826769
 20
6.164862204724409
 30
0.0
  0
SEQEND
  5
2CC5
330
2687
100
AcDbEntity
  8
0
  0
POLYLINE
  5
268C
330
1E
100
AcDbEntity
  8
0
100
AcDb2dPolyline
 66
     1
 10
0.0
 20
0.0
 30
0.0
  0
VERTEX
  5
2CC6
330
268C
100
AcDbEntity
  8
0
100
AcDbVertex
100
AcDb2dVertex
 10
4.363188976377952
 20
5.588090551181101
 30
0.0
  0
VERTEX
  5
2CC7
330
268C
100
AcDbEntity
  8
0
100
AcDbVertex
100
AcDb2dVertex
 10
4.355314960629921
 20
5.633366141732283
 30
0.0
  0
VERTEX
  5
2CC8
330
268C
100
AcDbEntity
  8
0
100
AcDbVertex
100
AcDb2dVertex
 10
4.331692913385826
 20
5.674704724409448
 30
0.0
  0
VERTEX
  5
2CC9
330
268C
100
AcDbEntity
  8
0
100
AcDbVertex
100
AcDb2dVertex
 10
4.294291338582676
 20
5.706200787401574
 30
0.0
  0
VERTEX
  5
2CCA
330
268C
100
AcDbEntity
  8
0
100
AcDbVertex
100
AcDb2dVertex
 10
4.250984251968504
 20
5.721948818897637
 30
0.0
  0
VERTEX
  5
2CCB
330
268C
100
AcDbEntity
  8
0
100
AcDbVertex
100
AcDb2dVertex
 10
4.203740157480315
 20
5.721948818897637
 30
0.0
  0
VERTEX
  5
2CCC
330
268C
100
AcDbEntity
  8
0
100
AcDbVertex
100
AcDb2dVertex
 10
4.158464566929134
 20
5.706200787401574
 30
0.0
  0
VERTEX
  5
2CCD
330
268C
100
AcDbEntity
  8
0
100
AcDbVertex
100
AcDb2dVertex
 10
4.123031496062991
 20
5.674704724409448
 30
0.0
  0
VERTEX
  5
2CCE
330
268C
100
AcDbEntity
  8
0
100
AcDbVertex
100
AcDb2dVertex
 10
4.099409448818897
 20
5.633366141732283
 30
0.0
  0
VERTEX
  5
2CCF
330
268C
100
AcDbEntity
  8
0
100
AcDbVertex
100
AcDb2dVertex
 10
4.091535433070865
 20
5.588090551181101
 30
0.0
  0
VERTEX
  5
2CD0
330
268C
100
AcDbEntity
  8
0
100
AcDbVertex
100
AcDb2dVertex
 10
4.099409448818897
 20
5.540846456692912
 30
0.0
  0
VERTEX
  5
2CD1
330
268C
100
AcDbEntity
  8
0
100
AcDbVertex
100
AcDb2dVertex
 10
4.123031496062991
 20
5.499507874015748
 30
0.0
  0
VERTEX
  5
2CD2
330
268C
100
AcDbEntity
  8
0
100
AcDbVertex
100
AcDb2dVertex
 10
4.158464566929134
 20
5.469980314960629
 30
0.0
  0
VERTEX
  5
2CD3
330
268C
100
AcDbEntity
  8
0
100
AcDbVertex
100
AcDb2dVertex
 10
4.203740157480315
 20
5.454232283464566
 30
0.0
  0
VERTEX
  5
2CD4
330
268C
100
AcDbEntity
  8
0
100
AcDbVertex
100
AcDb2dVertex
 10
4.250984251968504
 20
5.454232283464566
 30
0.0
  0
VERTEX
  5
2CD5
330
268C
100
AcDbEntity
  8
0
100
AcDbVertex
100
AcDb2dVertex
 10
4.294291338582676
 20
5.469980314960629
 30
0.0
  0
VERTEX
  5
2CD6
330
268C
100
AcDbEntity
  8
0
100
AcDbVertex
100
AcDb2dVertex
 10
4.331692913385826
 20
5.499507874015748
 30
0.0
  0
VERTEX
  5
2CD7
330
268C
100
AcDbEntity
  8
0
100
AcDbVertex
100
AcDb2dVertex
 10
4.355314960629921
 20
5.540846456692912
 30
0.0
  0
VERTEX
  5
2CD8
330
268C
100
AcDbEntity
  8
0
100
AcDbVertex
100
AcDb2dVertex
 10
4.363188976377952
 20
5.588090551181101
 30
0.0
  0
SEQEND
  5
2CD9
330
268C
100
AcDbEntity
  8
0
  0
POLYLINE
  5
26A1
330
1E
100
AcDbEntity
  8
0
100
AcDb2dPolyline
 66
     1
 10
0.0
 20
0.0
 30
0.0
  0
VERTEX
  5
2CDA
330
26A1
100
AcDbEntity
  8
0
100
AcDbVertex
100
AcDb2dVertex
 10
-0.6466535433070862
 20
5.588090551181101
 30
0.0
  0
VERTEX
  5
2CDB
330
26A1
100
AcDbEntity
  8
0
100
AcDbVertex
100
AcDb2dVertex
 10
-0.6387795275590547
 20
5.633366141732283
 30
0.0
  0
VERTEX
  5
2CDC
330
26A1
100
AcDbEntity
  8
0
100
AcDbVertex
100
AcDb2dVertex
 10
-0.6151574803149602
 20
5.674704724409448
 30
0.0
  0
VERTEX
  5
2CDD
330
26A1
100
AcDbEntity
  8
0
100
AcDbVertex
100
AcDb2dVertex
 10
-0.5797244094488186
 20
5.706200787401574
 30
0.0
  0
VERTEX
  5
2CDE
330
26A1
100
AcDbEntity
  8
0
100
AcDbVertex
100
AcDb2dVertex
 10
-0.534448818897638
 20
5.721948818897637
 30
0.0
  0
VERTEX
  5
2CDF
330
26A1
100
AcDbEntity
  8
0
100
AcDbVertex
100
AcDb2dVertex
 10
-0.4872047244094491
 20
5.721948818897637
 30
0.0
  0
VERTEX
  5
2CE0
330
26A1
100
AcDbEntity
  8
0
100
AcDbVertex
100
AcDb2dVertex
 10
-0.443897637795276
 20
5.706200787401574
 30
0.0
  0
VERTEX
  5
2CE1
330
26A1
100
AcDbEntity
  8
0
100
AcDbVertex
100
AcDb2dVertex
 10
-0.406496062992126
 20
5.674704724409448
 30
0.0
  0
VERTEX
  5
2CE2
330
26A1
100
AcDbEntity
  8
0
100
AcDbVertex
100
AcDb2dVertex
 10
-0.3828740157480315
 20
5.633366141732283
 30
0.0
  0
VERTEX
  5
2CE3
330
26A1
100
AcDbEntity
  8
0
100
AcDbVertex
100
AcDb2dVertex
 10
-0.375
 20
5.588090551181101
 30
0.0
  0
VERTEX
  5
2CE4
330
26A1
100
AcDbEntity
  8
0
100
AcDbVertex
100
AcDb2dVertex
 10
-0.3828740157480315
 20
5.540846456692912
 30
0.0
  0
VERTEX
  5
2CE5
330
26A1
100
AcDbEntity
  8
0
100
AcDbVertex
100
AcDb2dVertex
 10
-0.406496062992126
 20
5.499507874015748
 30
0.0
  0
VERTEX
  5
2CE6
330
26A1
100
AcDbEntity
  8
0
100
AcDbVertex
100
AcDb2dVertex
 10
-0.443897637795276
 20
5.469980314960629
 30
0.0
  0
VERTEX
  5
2CE7
330
26A1
100
AcDbEntity
  8
0
100
AcDbVertex
100
AcDb2dVertex
 10
-0.4872047244094491
 20
5.454232283464566
 30
0.0
  0
VERTEX
  5
2CE8
330
26A1
100
AcDbEntity
  8
0
100
AcDbVertex
100
AcDb2dVertex
 10
-0.534448818897638
 20
5.454232283464566
 30
0.0
  0
VERTEX
  5
2CE9
330
26A1
100
AcDbEntity
  8
0
100
AcDbVertex
100
AcDb2dVertex
 10
-0.5797244094488186
 20
5.469980314960629
 30
0.0
  0
VERTEX
  5
2CEA
330
26A1
100
AcDbEntity
  8
0
100
AcDbVertex
100
AcDb2dVertex
 10
-0.6151574803149602
 20
5.499507874015748
 30
0.0
  0
VERTEX
  5
2CEB
330
26A1
100
AcDbEntity
  8
0
100
AcDbVertex
100
AcDb2dVertex
 10
-0.6387795275590547
 20
5.540846456692912
 30
0.0
  0
VERTEX
  5
2CEC
330
26A1
100
AcDbEntity
  8
0
100
AcDbVertex
100
AcDb2dVertex
 10
-0.6466535433070862
 20
5.588090551181101
 30
0.0
  0
SEQEND
  5
2CED
330
26A1
100
AcDbEntity
  8
0
  0
LINE
  5
26B6
330
1E
100
AcDbEntity
  8
0
100
AcDbLine
 10
2.249015748031496
 20
5.245570866141731
 30
0.0
 11
2.241141732283464
 21
5.253444881889764
 31
0.0
  0
LINE
  5
26B7
330
1E
100
AcDbEntity
  8
0
100
AcDbLine
 10
2.197834645669291
 20
5.253444881889764
 30
0.0
 11
2.241141732283464
 21
5.253444881889764
 31
0.0
  0
LINE
  5
26B8
330
1E
100
AcDbEntity
  8
0
100
AcDbLine
 10
2.197834645669291
 20
5.253444881889764
 30
0.0
 11
2.18996062992126
 21
5.261318897637796
 31
0.0
  0
LINE
  5
26B9
330
1E
100
AcDbEntity
  8
0
100
AcDbLine
 10
2.18996062992126
 20
5.420767716535433
 30
0.0
 11
2.18996062992126
 21
5.261318897637796
 31
0.0
  0
LINE
  5
26BA
330
1E
100
AcDbEntity
  8
0
100
AcDbLine
 10
2.18996062992126
 20
5.420767716535433
 30
0.0
 11
2.197834645669291
 21
5.428641732283464
 31
0.0
  0
LINE
  5
26BB
330
1E
100
AcDbEntity
  8
0
100
AcDbLine
 10
2.197834645669291
 20
5.428641732283464
 30
0.0
 11
2.241141732283464
 21
5.428641732283464
 31
0.0
  0
LINE
  5
26BC
330
1E
100
AcDbEntity
  8
0
100
AcDbLine
 10
2.241141732283464
 20
5.428641732283464
 30
0.0
 11
2.249015748031496
 21
5.436515748031496
 31
0.0
  0
LINE
  5
26BD
330
1E
100
AcDbEntity
  8
0
100
AcDbLine
 10
2.249015748031496
 20
5.436515748031496
 30
0.0
 11
2.249015748031496
 21
6.009350393700787
 31
0.0
  0
POLYLINE
  5
26BE
330
1E
100
AcDbEntity
  8
0
100
AcDb2dPolyline
 66
     1
 10
0.0
 20
0.0
 30
0.0
  0
VERTEX
  5
2CEE
330
26BE
100
AcDbEntity
  8
0
100
AcDbVertex
100
AcDb2dVertex
 10
2.256889763779527
 20
6.017224409448818
 30
0.0
  0
VERTEX
  5
2CEF
330
26BE
100
AcDbEntity
  8
0
100
AcDbVertex
100
AcDb2dVertex
 10
2.250984251968503
 20
6.013287401574803
 30
0.0
  0
VERTEX
  5
2CF0
330
26BE
100
AcDbEntity
  8
0
100
AcDbVertex
100
AcDb2dVertex
 10
2.249015748031496
 20
6.009350393700787
 30
0.0
  0
SEQEND
  5
2CF1
330
26BE
100
AcDbEntity
  8
0
  0
LINE
  5
26C3
330
1E
100
AcDbEntity
  8
0
100
AcDbLine
 10
3.819881889763778
 20
6.017224409448818
 30
0.0
 11
2.256889763779527
 21
6.017224409448818
 31
0.0
  0
POLYLINE
  5
26C4
330
1E
100
AcDbEntity
  8
0
100
AcDb2dPolyline
 66
     1
 10
0.0
 20
0.0
 30
0.0
  0
VERTEX
  5
2CF2
330
26C4
100
AcDbEntity
  8
0
100
AcDbVertex
100
AcDb2dVertex
 10
3.819881889763778
 20
6.017224409448818
 30
0.0
  0
VERTEX
  5
2CF3
330
26C4
100
AcDbEntity
  8
0
100
AcDbVertex
100
AcDb2dVertex
 10
3.825787401574802
 20
6.013287401574803
 30
0.0
  0
VERTEX
  5
2CF4
330
26C4
100
AcDbEntity
  8
0
100
AcDbVertex
100
AcDb2dVertex
 10
3.82775590551181
 20
6.009350393700787
 30
0.0
  0
SEQEND
  5
2CF5
330
26C4
100
AcDbEntity
  8
0
  0
LINE
  5
26C9
330
1E
100
AcDbEntity
  8
0
100
AcDbLine
 10
3.82775590551181
 20
5.436515748031496
 30
0.0
 11
3.82775590551181
 21
6.009350393700787
 31
0.0
  0
LINE
  5
26CA
330
1E
100
AcDbEntity
  8
0
100
AcDbLine
 10
3.82775590551181
 20
5.436515748031496
 30
0.0
 11
3.835629921259841
 21
5.428641732283464
 31
0.0
  0
LINE
  5
26CB
330
1E
100
AcDbEntity
  8
0
100
AcDbLine
 10
3.880905511811023
 20
5.428641732283464
 30
0.0
 11
3.835629921259841
 21
5.428641732283464
 31
0.0
  0
LINE
  5
26CC
330
1E
100
AcDbEntity
  8
0
100
AcDbLine
 10
3.880905511811023
 20
5.428641732283464
 30
0.0
 11
3.888779527559054
 21
5.420767716535433
 31
0.0
  0
LINE
  5
26CD
330
1E
100
AcDbEntity
  8
0
100
AcDbLine
 10
3.888779527559054
 20
5.420767716535433
 30
0.0
 11
3.888779527559054
 21
5.261318897637796
 31
0.0
  0
LINE
  5
26CE
330
1E
100
AcDbEntity
  8
0
100
AcDbLine
 10
3.888779527559054
 20
5.261318897637796
 30
0.0
 11
3.880905511811023
 21
5.253444881889764
 31
0.0
  0
LINE
  5
26CF
330
1E
100
AcDbEntity
  8
0
100
AcDbLine
 10
3.880905511811023
 20
5.253444881889764
 30
0.0
 11
3.835629921259841
 21
5.253444881889764
 31
0.0
  0
LINE
  5
26D0
330
1E
100
AcDbEntity
  8
0
100
AcDbLine
 10
3.835629921259841
 20
5.253444881889764
 30
0.0
 11
3.82775590551181
 21
5.245570866141731
 31
0.0
  0
POLYLINE
  5
26D1
330
1E
100
AcDbEntity
  8
0
100
AcDb2dPolyline
 66
     1
 10
0.0
 20
0.0
 30
0.0
  0
VERTEX
  5
2CF6
330
26D1
100
AcDbEntity
  8
0
100
AcDbVertex
100
AcDb2dVertex
 10
3.819881889763778
 20
4.666830708661416
 30
0.0
  0
VERTEX
  5
2CF7
330
26D1
100
AcDbEntity
  8
0
100
AcDbVertex
100
AcDb2dVertex
 10
3.825787401574802
 20
4.668799212598425
 30
0.0
  0
VERTEX
  5
2CF8
330
26D1
100
AcDbEntity
  8
0
100
AcDbVertex
100
AcDb2dVertex
 10
3.82775590551181
 20
4.674704724409448
 30
0.0
  0
SEQEND
  5
2CF9
330
26D1
100
AcDbEntity
  8
0
  0
LINE
  5
26D6
330
1E
100
AcDbEntity
  8
0
100
AcDbLine
 10
3.819881889763778
 20
4.666830708661416
 30
0.0
 11
2.256889763779527
 21
4.666830708661416
 31
0.0
  0
POLYLINE
  5
26D7
330
1E
100
AcDbEntity
  8
0
100
AcDb2dPolyline
 66
     1
 10
0.0
 20
0.0
 30
0.0
  0
VERTEX
  5
2CFA
330
26D7
100
AcDbEntity
  8
0
100
AcDbVertex
100
AcDb2dVertex
 10
2.256889763779527
 20
4.666830708661416
 30
0.0
  0
VERTEX
  5
2CFB
330
26D7
100
AcDbEntity
  8
0
100
AcDbVertex
100
AcDb2dVertex
 10
2.250984251968503
 20
4.668799212598425
 30
0.0
  0
VERTEX
  5
2CFC
330
26D7
100
AcDbEntity
  8
0
100
AcDbVertex
100
AcDb2dVertex
 10
2.249015748031496
 20
4.674704724409448
 30
0.0
  0
SEQEND
  5
2CFD
330
26D7
100
AcDbEntity
  8
0
  0
LINE
  5
26DC
330
1E
100
AcDbEntity
  8
0
100
AcDbLine
 10
1.518700787401574
 20
5.253444881889764
 30
0.0
 11
1.475393700787401
 21
5.253444881889764
 31
0.0
  0
LINE
  5
26DD
330
1E
100
AcDbEntity
  8
0
100
AcDbLine
 10
1.475393700787401
 20
5.253444881889764
 30
0.0
 11
1.46751968503937
 21
5.245570866141731
 31
0.0
  0
POLYLINE
  5
26DE
330
1E
100
AcDbEntity
  8
0
100
AcDb2dPolyline
 66
     1
 10
0.0
 20
0.0
 30
0.0
  0
VERTEX
  5
2CFE
330
26DE
100
AcDbEntity
  8
0
100
AcDbVertex
100
AcDb2dVertex
 10
1.45767716535433
 20
4.666830708661416
 30
0.0
  0
VERTEX
  5
2CFF
330
26DE
100
AcDbEntity
  8
0
100
AcDbVertex
100
AcDb2dVertex
 10
1.463582677165354
 20
4.668799212598425
 30
0.0
  0
VERTEX
  5
2D00
330
26DE
100
AcDbEntity
  8
0
100
AcDbVertex
100
AcDb2dVertex
 10
1.46751968503937
 20
4.674704724409448
 30
0.0
  0
SEQEND
  5
2D01
330
26DE
100
AcDbEntity
  8
0
  0
LINE
  5
26E3
330
1E
100
AcDbEntity
  8
0
100
AcDbLine
 10
-0.1053149606299213
 20
4.666830708661416
 30
0.0
 11
1.45767716535433
 21
4.666830708661416
 31
0.0
  0
POLYLINE
  5
26E4
330
1E
100
AcDbEntity
  8
0
100
AcDb2dPolyline
 66
     1
 10
0.0
 20
0.0
 30
0.0
  0
VERTEX
  5
2D02
330
26E4
100
AcDbEntity
  8
0
100
AcDbVertex
100
AcDb2dVertex
 10
-0.1053149606299213
 20
4.666830708661416
 30
0.0
  0
VERTEX
  5
2D03
330
26E4
100
AcDbEntity
  8
0
100
AcDbVertex
100
AcDb2dVertex
 10
-0.109251968503937
 20
4.668799212598425
 30
0.0
  0
VERTEX
  5
2D04
330
26E4
100
AcDbEntity
  8
0
100
AcDbVertex
100
AcDb2dVertex
 10
-0.1131889763779528
 20
4.674704724409448
 30
0.0
  0
SEQEND
  5
2D05
330
26E4
100
AcDbEntity
  8
0
  0
LINE
  5
26E9
330
1E
100
AcDbEntity
  8
0
100
AcDbLine
 10
-0.1131889763779528
 20
5.245570866141731
 30
0.0
 11
-0.1210629921259843
 21
5.253444881889764
 31
0.0
  0
LINE
  5
26EA
330
1E
100
AcDbEntity
  8
0
100
AcDbLine
 10
-0.1643700787401574
 20
5.253444881889764
 30
0.0
 11
-0.1210629921259843
 21
5.253444881889764
 31
0.0
  0
LINE
  5
26EB
330
1E
100
AcDbEntity
  8
0
100
AcDbLine
 10
-0.1643700787401574
 20
5.253444881889764
 30
0.0
 11
-0.1722440944881889
 21
5.261318897637796
 31
0.0
  0
LINE
  5
26EC
330
1E
100
AcDbEntity
  8
0
100
AcDbLine
 10
-0.1722440944881889
 20
5.420767716535433
 30
0.0
 11
-0.1722440944881889
 21
5.261318897637796
 31
0.0
  0
LINE
  5
26ED
330
1E
100
AcDbEntity
  8
0
100
AcDbLine
 10
-0.1722440944881889
 20
5.420767716535433
 30
0.0
 11
-0.1643700787401574
 21
5.428641732283464
 31
0.0
  0
LINE
  5
26EE
330
1E
100
AcDbEntity
  8
0
100
AcDbLine
 10
-0.1643700787401574
 20
5.428641732283464
 30
0.0
 11
-0.1210629921259843
 21
5.428641732283464
 31
0.0
  0
LINE
  5
26EF
330
1E
100
AcDbEntity
  8
0
100
AcDbLine
 10
-0.1210629921259843
 20
5.428641732283464
 30
0.0
 11
-0.1131889763779528
 21
5.436515748031496
 31
0.0
  0
LINE
  5
26F0
330
1E
100
AcDbEntity
  8
0
100
AcDbLine
 10
-0.1131889763779528
 20
5.436515748031496
 30
0.0
 11
-0.1131889763779528
 21
6.009350393700787
 31
0.0
  0
POLYLINE
  5
26F1
330
1E
100
AcDbEntity
  8
0
100
AcDb2dPolyline
 66
     1
 10
0.0
 20
0.0
 30
0.0
  0
VERTEX
  5
2D06
330
26F1
100
AcDbEntity
  8
0
100
AcDbVertex
100
AcDb2dVertex
 10
-0.1053149606299213
 20
6.017224409448818
 30
0.0
  0
VERTEX
  5
2D07
330
26F1
100
AcDbEntity
  8
0
100
AcDbVertex
100
AcDb2dVertex
 10
-0.109251968503937
 20
6.013287401574803
 30
0.0
  0
VERTEX
  5
2D08
330
26F1
100
AcDbEntity
  8
0
100
AcDbVertex
100
AcDb2dVertex
 10
-0.1131889763779528
 20
6.009350393700787
 30
0.0
  0
SEQEND
  5
2D09
330
26F1
100
AcDbEntity
  8
0
  0
LINE
  5
26F6
330
1E
100
AcDbEntity
  8
0
100
AcDbLine
 10
-0.1053149606299213
 20
6.017224409448818
 30
0.0
 11
1.45767716535433
 21
6.017224409448818
 31
0.0
  0
POLYLINE
  5
26F7
330
1E
100
AcDbEntity
  8
0
100
AcDb2dPolyline
 66
     1
 10
0.0
 20
0.0
 30
0.0
  0
VERTEX
  5
2D0A
330
26F7
100
AcDbEntity
  8
0
100
AcDbVertex
100
AcDb2dVertex
 10
1.45767716535433
 20
6.017224409448818
 30
0.0
  0
VERTEX
  5
2D0B
330
26F7
100
AcDbEntity
  8
0
100
AcDbVertex
100
AcDb2dVertex
 10
1.463582677165354
 20
6.013287401574803
 30
0.0
  0
VERTEX
  5
2D0C
330
26F7
100
AcDbEntity
  8
0
100
AcDbVertex
100
AcDb2dVertex
 10
1.46751968503937
 20
6.009350393700787
 30
0.0
  0
SEQEND
  5
2D0D
330
26F7
100
AcDbEntity
  8
0
  0
LINE
  5
26FC
330
1E
100
AcDbEntity
  8
0
100
AcDbLine
 10
1.46751968503937
 20
5.436515748031496
 30
0.0
 11
1.46751968503937
 21
6.009350393700787
 31
0.0
  0
LINE
  5
26FD
330
1E
100
AcDbEntity
  8
0
100
AcDbLine
 10
1.46751968503937
 20
5.436515748031496
 30
0.0
 11
1.475393700787401
 21
5.428641732283464
 31
0.0
  0
LINE
  5
26FE
330
1E
100
AcDbEntity
  8
0
100
AcDbLine
 10
1.518700787401574
 20
5.428641732283464
 30
0.0
 11
1.475393700787401
 21
5.428641732283464
 31
0.0
  0
LINE
  5
26FF
330
1E
100
AcDbEntity
  8
0
100
AcDbLine
 10
1.518700787401574
 20
5.428641732283464
 30
0.0
 11
1.526574803149606
 21
5.420767716535433
 31
0.0
  0
LINE
  5
2700
330
1E
100
AcDbEntity
  8
0
100
AcDbLine
 10
1.526574803149606
 20
5.420767716535433
 30
0.0
 11
1.526574803149606
 21
5.261318897637796
 31
0.0
  0
LINE
  5
2701
330
1E
100
AcDbEntity
  8
0
100
AcDbLine
 10
1.526574803149606
 20
5.261318897637796
 30
0.0
 11
1.518700787401574
 21
5.253444881889764
 31
0.0
  0
LINE
  5
2702
330
1E
100
AcDbEntity
  8
0
100
AcDbLine
 10
-0.9753937007874009
 20
7.223917322834646
 30
0.0
 11
-0.9753937007874009
 21
3.950295275590551
 31
0.0
  0
POLYLINE
  5
2703
330
1E
100
AcDbEntity
  8
0
100
AcDb2dPolyline
 66
     1
 10
0.0
 20
0.0
 30
0.0
  0
VERTEX
  5
2D0E
330
2703
100
AcDbEntity
  8
0
100
AcDbVertex
100
AcDb2dVertex
 10
-0.9753937007874014
 20
3.950295275590551
 30
0.0
  0
VERTEX
  5
2D0F
330
2703
100
AcDbEntity
  8
0
100
AcDbVertex
100
AcDb2dVertex
 10
-0.9714566929133855
 20
3.938484251968503
 30
0.0
  0
VERTEX
  5
2D10
330
2703
100
AcDbEntity
  8
0
100
AcDbVertex
100
AcDb2dVertex
 10
-0.9596456692913385
 20
3.934547244094488
 30
0.0
  0
SEQEND
  5
2D11
330
2703
100
AcDbEntity
  8
0
  0
LINE
  5
2708
330
1E
100
AcDbEntity
  8
0
100
AcDbLine
 10
-0.9596456692913379
 20
3.934547244094488
 30
0.0
 11
4.676181102362204
 21
3.934547244094488
 31
0.0
  0
POLYLINE
  5
2709
330
1E
100
AcDbEntity
  8
0
100
AcDb2dPolyline
 66
     1
 10
0.0
 20
0.0
 30
0.0
  0
VERTEX
  5
2D12
330
2709
100
AcDbEntity
  8
0
100
AcDbVertex
100
AcDb2dVertex
 10
4.676181102362204
 20
3.934547244094488
 30
0.0
  0
VERTEX
  5
2D13
330
2709
100
AcDbEntity
  8
0
100
AcDbVertex
100
AcDb2dVertex
 10
4.687992125984252
 20
3.938484251968503
 30
0.0
  0
VERTEX
  5
2D14
330
2709
100
AcDbEntity
  8
0
100
AcDbVertex
100
AcDb2dVertex
 10
4.691929133858267
 20
3.950295275590551
 30
0.0
  0
SEQEND
  5
2D15
330
2709
100
AcDbEntity
  8
0
  0
LINE
  5
270E
330
1E
100
AcDbEntity
  8
0
100
AcDbLine
 10
4.691929133858267
 20
3.950295275590551
 30
0.0
 11
4.691929133858267
 21
7.223917322834646
 31
0.0
  0
POLYLINE
  5
270F
330
1E
100
AcDbEntity
  8
0
100
AcDb2dPolyline
 66
     1
 10
0.0
 20
0.0
 30
0.0
  0
VERTEX
  5
2D16
330
270F
100
AcDbEntity
  8
0
100
AcDbVertex
100
AcDb2dVertex
 10
4.691929133858267
 20
7.223917322834646
 30
0.0
  0
VERTEX
  5
2D17
330
270F
100
AcDbEntity
  8
0
100
AcDbVertex
100
AcDb2dVertex
 10
4.687992125984252
 20
7.235728346456692
 30
0.0
  0
VERTEX
  5
2D18
330
270F
100
AcDbEntity
  8
0
100
AcDbVertex
100
AcDb2dVertex
 10
4.676181102362204
 20
7.239665354330709
 30
0.0
  0
SEQEND
  5
2D19
330
270F
100
AcDbEntity
  8
0
  0
LINE
  5
2714
330
1E
100
AcDbEntity
  8
0
100
AcDbLine
 10
4.676181102362204
 20
7.239665354330709
 30
0.0
 11
-0.9596456692913379
 21
7.239665354330709
 31
0.0
  0
POLYLINE
  5
2715
330
1E
100
AcDbEntity
  8
0
100
AcDb2dPolyline
 66
     1
 10
0.0
 20
0.0
 30
0.0
  0
VERTEX
  5
2D1A
330
2715
100
AcDbEntity
  8
0
100
AcDbVertex
100
AcDb2dVertex
 10
-0.9596456692913385
 20
7.239665354330709
 30
0.0
  0
VERTEX
  5
2D1B
330
2715
100
AcDbEntity
  8
0
100
AcDbVertex
100
AcDb2dVertex
 10
-0.9714566929133855
 20
7.235728346456692
 30
0.0
  0
VERTEX
  5
2D1C
330
2715
100
AcDbEntity
  8
0
100
AcDbVertex
100
AcDb2dVertex
 10
-0.9753937007874014
 20
7.223917322834646
 30
0.0
  0
SEQEND
  5
2D1D
330
2715
100
AcDbEntity
  8
0
  0
LINE
  5
271A
330
1E
100
AcDbEntity
  8
0
100
AcDbLine
 10
4.701771653543306
 20
3.895177165354331
 30
0.0
 11
4.676181102362204
 21
3.918799212598425
 31
0.0
  0
LINE
  5
271B
330
1E
100
AcDbEntity
  8
0
100
AcDbLine
 10
4.676181102362204
 20
3.918799212598425
 30
0.0
 11
-0.9596456692913379
 21
3.918799212598425
 31
0.0
  0
LINE
  5
271C
330
1E
100
AcDbEntity
  8
0
100
AcDbLine
 10
-0.9596456692913379
 20
3.918799212598425
 30
0.0
 11
-0.9852362204724407
 21
3.895177165354331
 31
0.0
  0
LINE
  5
271D
330
1E
100
AcDbEntity
  8
0
100
AcDbLine
 10
-1.016732283464566
 20
3.926673228346457
 30
0.0
 11
-0.9911417322834639
 21
3.950295275590551
 31
0.0
  0
LINE
  5
271E
330
1E
100
AcDbEntity
  8
0
100
AcDbLine
 10
-0.9911417322834639
 20
3.950295275590551
 30
0.0
 11
-0.9911417322834639
 21
7.223917322834646
 31
0.0
  0
LINE
  5
271F
330
1E
100
AcDbEntity
  8
0
100
AcDbLine
 10
-0.9911417322834639
 20
7.223917322834646
 30
0.0
 11
-1.016732283464566
 21
7.249507874015748
 31
0.0
  0
LINE
  5
2720
330
1E
100
AcDbEntity
  8
0
100
AcDbLine
 10
-0.9852362204724407
 20
7.281003937007874
 30
0.0
 11
-0.9596456692913379
 21
7.255413385826772
 31
0.0
  0
LINE
  5
2721
330
1E
100
AcDbEntity
  8
0
100
AcDbLine
 10
-0.9596456692913379
 20
7.255413385826772
 30
0.0
 11
4.676181102362204
 21
7.255413385826772
 31
0.0
  0
LINE
  5
2722
330
1E
100
AcDbEntity
  8
0
100
AcDbLine
 10
4.676181102362204
 20
7.255413385826772
 30
0.0
 11
4.701771653543306
 21
7.281003937007874
 31
0.0
  0
LINE
  5
2723
330
1E
100
AcDbEntity
  8
0
100
AcDbLine
 10
4.731299212598425
 20
7.249507874015748
 30
0.0
 11
4.70767716535433
 21
7.223917322834646
 31
0.0
  0
LINE
  5
2724
330
1E
100
AcDbEntity
  8
0
100
AcDbLine
 10
4.70767716535433
 20
7.223917322834646
 30
0.0
 11
4.70767716535433
 21
3.950295275590551
 31
0.0
  0
LINE
  5
2725
330
1E
100
AcDbEntity
  8
0
100
AcDbLine
 10
4.70767716535433
 20
3.950295275590551
 30
0.0
 11
4.731299212598425
 21
3.926673228346457
 31
0.0
  0
POLYLINE
  5
2726
330
1E
100
AcDbEntity
  8
0
100
AcDb2dPolyline
 66
     1
 10
0.0
 20
0.0
 30
0.0
  0
VERTEX
  5
2D1E
330
2726
100
AcDbEntity
  8
0
100
AcDbVertex
100
AcDb2dVertex
 10
-0.9596456692913385
 20
3.918799212598425
 30
0.0
  0
VERTEX
  5
2D1F
330
2726
100
AcDbEntity
  8
0
100
AcDbVertex
100
AcDb2dVertex
 10
-0.981299212598425
 20
3.928641732283464
 30
0.0
  0
VERTEX
  5
2D20
330
2726
100
AcDbEntity
  8
0
100
AcDbVertex
100
AcDb2dVertex
 10
-0.9911417322834644
 20
3.950295275590551
 30
0.0
  0
SEQEND
  5
2D21
330
2726
100
AcDbEntity
  8
0
  0
POLYLINE
  5
272B
330
1E
100
AcDbEntity
  8
0
100
AcDb2dPolyline
 66
     1
 10
0.0
 20
0.0
 30
0.0
  0
VERTEX
  5
2D22
330
272B
100
AcDbEntity
  8
0
100
AcDbVertex
100
AcDb2dVertex
 10
-0.9911417322834644
 20
7.223917322834646
 30
0.0
  0
VERTEX
  5
2D23
330
272B
100
AcDbEntity
  8
0
100
AcDbVertex
100
AcDb2dVertex
 10
-0.981299212598425
 20
7.24753937007874
 30
0.0
  0
VERTEX
  5
2D24
330
272B
100
AcDbEntity
  8
0
100
AcDbVertex
100
AcDb2dVertex
 10
-0.9596456692913385
 20
7.255413385826772
 30
0.0
  0
SEQEND
  5
2D25
330
272B
100
AcDbEntity
  8
0
  0
POLYLINE
  5
2730
330
1E
100
AcDbEntity
  8
0
100
AcDb2dPolyline
 66
     1
 10
0.0
 20
0.0
 30
0.0
  0
VERTEX
  5
2D26
330
2730
100
AcDbEntity
  8
0
100
AcDbVertex
100
AcDb2dVertex
 10
4.676181102362204
 20
7.255413385826772
 30
0.0
  0
VERTEX
  5
2D27
330
2730
100
AcDbEntity
  8
0
100
AcDbVertex
100
AcDb2dVertex
 10
4.697834645669291
 20
7.24753937007874
 30
0.0
  0
VERTEX
  5
2D28
330
2730
100
AcDbEntity
  8
0
100
AcDbVertex
100
AcDb2dVertex
 10
4.70767716535433
 20
7.223917322834646
 30
0.0
  0
SEQEND
  5
2D29
330
2730
100
AcDbEntity
  8
0
  0
POLYLINE
  5
2735
330
1E
100
AcDbEntity
  8
0
100
AcDb2dPolyline
 66
     1
 10
0.0
 20
0.0
 30
0.0
  0
VERTEX
  5
2D2A
330
2735
100
AcDbEntity
  8
0
100
AcDbVertex
100
AcDb2dVertex
 10
4.70767716535433
 20
3.950295275590551
 30
0.0
  0
VERTEX
  5
2D2B
330
2735
100
AcDbEntity
  8
0
100
AcDbVertex
100
AcDb2dVertex
 10
4.697834645669291
 20
3.928641732283464
 30
0.0
  0
VERTEX
  5
2D2C
330
2735
100
AcDbEntity
  8
0
100
AcDbVertex
100
AcDb2dVertex
 10
4.676181102362204
 20
3.918799212598425
 30
0.0
  0
SEQEND
  5
2D2D
330
2735
100
AcDbEntity
  8
0
  0
POLYLINE
  5
273A
330
1E
100
AcDbEntity
  8
0
100
AcDb2dPolyline
 66
     1
 10
0.0
 20
0.0
 30
0.0
  0
VERTEX
  5
2D2E
330
273A
100
AcDbEntity
  8
0
100
AcDbVertex
100
AcDb2dVertex
 10
4.70767716535433
 20
7.223917322834646
 30
0.0
  0
VERTEX
  5
2D2F
330
273A
100
AcDbEntity
  8
0
100
AcDbVertex
100
AcDb2dVertex
 10
4.701771653543306
 20
7.223917322834646
 30
0.0
  0
VERTEX
  5
2D30
330
273A
100
AcDbEntity
  8
0
100
AcDbVertex
100
AcDb2dVertex
 10
4.691929133858267
 20
7.223917322834646
 30
0.0
  0
SEQEND
  5
2D31
330
273A
100
AcDbEntity
  8
0
  0
POLYLINE
  5
273F
330
1E
100
AcDbEntity
  8
0
100
AcDb2dPolyline
 66
     1
 10
0.0
 20
0.0
 30
0.0
  0
VERTEX
  5
2D32
330
273F
100
AcDbEntity
  8
0
100
AcDbVertex
100
AcDb2dVertex
 10
4.676181102362204
 20
7.239665354330709
 30
0.0
  0
VERTEX
  5
2D33
330
273F
100
AcDbEntity
  8
0
100
AcDbVertex
100
AcDb2dVertex
 10
4.676181102362204
 20
7.251476377952755
 30
0.0
  0
VERTEX
  5
2D34
330
273F
100
AcDbEntity
  8
0
100
AcDbVertex
100
AcDb2dVertex
 10
4.676181102362204
 20
7.255413385826772
 30
0.0
  0
SEQEND
  5
2D35
330
273F
100
AcDbEntity
  8
0
  0
POLYLINE
  5
2744
330
1E
100
AcDbEntity
  8
0
100
AcDb2dPolyline
 66
     1
 10
0.0
 20
0.0
 30
0.0
  0
VERTEX
  5
2D36
330
2744
100
AcDbEntity
  8
0
100
AcDbVertex
100
AcDb2dVertex
 10
-0.9596456692913385
 20
7.239665354330709
 30
0.0
  0
VERTEX
  5
2D37
330
2744
100
AcDbEntity
  8
0
100
AcDbVertex
100
AcDb2dVertex
 10
-0.9596456692913385
 20
7.251476377952755
 30
0.0
  0
VERTEX
  5
2D38
330
2744
100
AcDbEntity
  8
0
100
AcDbVertex
100
AcDb2dVertex
 10
-0.9596456692913385
 20
7.255413385826772
 30
0.0
  0
SEQEND
  5
2D39
330
2744
100
AcDbEntity
  8
0
  0
POLYLINE
  5
2749
330
1E
100
AcDbEntity
  8
0
100
AcDb2dPolyline
 66
     1
 10
0.0
 20
0.0
 30
0.0
  0
VERTEX
  5
2D3A
330
2749
100
AcDbEntity
  8
0
100
AcDbVertex
100
AcDb2dVertex
 10
4.70767716535433
 20
3.950295275590551
 30
0.0
  0
VERTEX
  5
2D3B
330
2749
100
AcDbEntity
  8
0
100
AcDbVertex
100
AcDb2dVertex
 10
4.701771653543306
 20
3.950295275590551
 30
0.0
  0
VERTEX
  5
2D3C
330
2749
100
AcDbEntity
  8
0
100
AcDbVertex
100
AcDb2dVertex
 10
4.691929133858267
 20
3.950295275590551
 30
0.0
  0
SEQEND
  5
2D3D
330
2749
100
AcDbEntity
  8
0
  0
POLYLINE
  5
274E
330
1E
100
AcDbEntity
  8
0
100
AcDb2dPolyline
 66
     1
 10
0.0
 20
0.0
 30
0.0
  0
VERTEX
  5
2D3E
330
274E
100
AcDbEntity
  8
0
100
AcDbVertex
100
AcDb2dVertex
 10
-0.9753937007874014
 20
7.223917322834646
 30
0.0
  0
VERTEX
  5
2D3F
330
274E
100
AcDbEntity
  8
0
100
AcDbVertex
100
AcDb2dVertex
 10
-0.9872047244094485
 20
7.223917322834646
 30
0.0
  0
VERTEX
  5
2D40
330
274E
100
AcDbEntity
  8
0
100
AcDbVertex
100
AcDb2dVertex
 10
-0.9911417322834644
 20
7.223917322834646
 30
0.0
  0
SEQEND
  5
2D41
330
274E
100
AcDbEntity
  8
0
  0
POLYLINE
  5
2753
330
1E
100
AcDbEntity
  8
0
100
AcDb2dPolyline
 66
     1
 10
0.0
 20
0.0
 30
0.0
  0
VERTEX
  5
2D42
330
2753
100
AcDbEntity
  8
0
100
AcDbVertex
100
AcDb2dVertex
 10
4.676181102362204
 20
3.918799212598425
 30
0.0
  0
VERTEX
  5
2D43
330
2753
100
AcDbEntity
  8
0
100
AcDbVertex
100
AcDb2dVertex
 10
4.676181102362204
 20
3.924704724409448
 30
0.0
  0
VERTEX
  5
2D44
330
2753
100
AcDbEntity
  8
0
100
AcDbVertex
100
AcDb2dVertex
 10
4.676181102362204
 20
3.934547244094488
 30
0.0
  0
SEQEND
  5
2D45
330
2753
100
AcDbEntity
  8
0
  0
POLYLINE
  5
2758
330
1E
100
AcDbEntity
  8
0
100
AcDb2dPolyline
 66
     1
 10
0.0
 20
0.0
 30
0.0
  0
VERTEX
  5
2D46
330
2758
100
AcDbEntity
  8
0
100
AcDbVertex
100
AcDb2dVertex
 10
-0.9753937007874014
 20
3.950295275590551
 30
0.0
  0
VERTEX
  5
2D47
330
2758
100
AcDbEntity
  8
0
100
AcDbVertex
100
AcDb2dVertex
 10
-0.9872047244094485
 20
3.950295275590551
 30
0.0
  0
VERTEX
  5
2D48
330
2758
100
AcDbEntity
  8
0
100
AcDbVertex
100
AcDb2dVertex
 10
-0.9911417322834644
 20
3.950295275590551
 30
0.0
  0
SEQEND
  5
2D49
330
2758
100
AcDbEntity
  8
0
  0
POLYLINE
  5
275D
330
1E
100
AcDbEntity
  8
0
100
AcDb2dPolyline
 66
     1
 10
0.0
 20
0.0
 30
0.0
  0
VERTEX
  5
2D4A
330
275D
100
AcDbEntity
  8
0
100
AcDbVertex
100
AcDb2dVertex
 10
-0.9596456692913385
 20
3.918799212598425
 30
0.0
  0
VERTEX
  5
2D4B
330
275D
100
AcDbEntity
  8
0
100
AcDbVertex
100
AcDb2dVertex
 10
-0.9596456692913385
 20
3.924704724409448
 30
0.0
  0
VERTEX
  5
2D4C
330
275D
100
AcDbEntity
  8
0
100
AcDbVertex
100
AcDb2dVertex
 10
-0.9596456692913385
 20
3.934547244094488
 30
0.0
  0
SEQEND
  5
2D4D
330
275D
100
AcDbEntity
  8
0
  0
LINE
  5
2762
330
1E
100
AcDbEntity
  8
0
100
AcDbLine
 10
-0.109251968503937
 20
5.53494094488189
 30
0.0
 11
-0.109251968503937
 21
6.013287401574803
 31
0.0
  0
LINE
  5
2763
330
1E
100
AcDbEntity
  8
0
100
AcDbLine
 10
-0.0501968503937009
 20
6.013287401574803
 30
0.0
 11
-0.0501968503937009
 21
6.009350393700787
 31
0.0
  0
LINE
  5
2764
330
1E
100
AcDbEntity
  8
0
100
AcDbLine
 10
-0.109251968503937
 20
6.013287401574803
 30
0.0
 11
-0.0501968503937009
 21
6.013287401574803
 31
0.0
  0
LINE
  5
2765
330
1E
100
AcDbEntity
  8
0
100
AcDbLine
 10
1.463582677165354
 20
5.434547244094488
 30
0.0
 11
1.463582677165354
 21
5.53494094488189
 31
0.0
  0
LINE
  5
2766
330
1E
100
AcDbEntity
  8
0
100
AcDbLine
 10
1.463582677165354
 20
5.434547244094488
 30
0.0
 11
1.46751968503937
 21
5.436515748031496
 31
0.0
  0
LINE
  5
2767
330
1E
100
AcDbEntity
  8
0
100
AcDbLine
 10
1.463582677165354
 20
6.013287401574803
 30
0.0
 11
1.463582677165354
 21
6.013287401574803
 31
0.0
  0
LINE
  5
2768
330
1E
100
AcDbEntity
  8
0
100
AcDbLine
 10
-0.1131889763779528
 20
5.436515748031496
 30
0.0
 11
-0.109251968503937
 21
5.434547244094488
 31
0.0
  0
LINE
  5
2769
330
1E
100
AcDbEntity
  8
0
100
AcDbLine
 10
-0.109251968503937
 20
6.013287401574803
 30
0.0
 11
-0.109251968503937
 21
6.013287401574803
 31
0.0
  0
POLYLINE
  5
276A
330
1E
100
AcDbEntity
  8
0
100
AcDb2dPolyline
 66
     1
 10
0.0
 20
0.0
 30
0.0
  0
VERTEX
  5
2D4E
330
276A
100
AcDbEntity
  8
0
100
AcDbVertex
100
AcDb2dVertex
 10
1.302165354330708
 20
6.011318897637796
 30
0.0
  0
VERTEX
  5
2D4F
330
276A
100
AcDbEntity
  8
0
100
AcDbVertex
100
AcDb2dVertex
 10
1.315944881889763
 20
6.011318897637796
 30
0.0
  0
VERTEX
  5
2D50
330
276A
100
AcDbEntity
  8
0
100
AcDbVertex
100
AcDb2dVertex
 10
1.323818897637795
 20
6.011318897637796
 30
0.0
  0
SEQEND
  5
2D51
330
276A
100
AcDbEntity
  8
0
  0
LINE
  5
276F
330
1E
100
AcDbEntity
  8
0
100
AcDbLine
 10
1.323818897637795
 20
6.011318897637796
 30
0.0
 11
1.327755905511811
 21
6.009350393700787
 31
0.0
  0
LINE
  5
2770
330
1E
100
AcDbEntity
  8
0
100
AcDbLine
 10
1.327755905511811
 20
6.009350393700787
 30
0.0
 11
1.400590551181102
 21
6.009350393700787
 31
0.0
  0
LINE
  5
2771
330
1E
100
AcDbEntity
  8
0
100
AcDbLine
 10
1.40255905511811
 20
6.013287401574803
 30
0.0
 11
1.400590551181102
 21
6.009350393700787
 31
0.0
  0
LINE
  5
2772
330
1E
100
AcDbEntity
  8
0
100
AcDbLine
 10
-0.0501968503937009
 20
6.013287401574803
 30
0.0
 11
-0.0462598425196852
 21
6.009350393700787
 31
0.0
  0
LINE
  5
2773
330
1E
100
AcDbEntity
  8
0
100
AcDbLine
 10
-0.0462598425196852
 20
6.009350393700787
 30
0.0
 11
0.0246062992125982
 21
6.009350393700787
 31
0.0
  0
LINE
  5
2774
330
1E
100
AcDbEntity
  8
0
100
AcDbLine
 10
0.0246062992125982
 20
6.009350393700787
 30
0.0
 11
0.0305118110236222
 21
6.011318897637796
 31
0.0
  0
POLYLINE
  5
2775
330
1E
100
AcDbEntity
  8
0
100
AcDb2dPolyline
 66
     1
 10
0.0
 20
0.0
 30
0.0
  0
VERTEX
  5
2D52
330
2775
100
AcDbEntity
  8
0
100
AcDbVertex
100
AcDb2dVertex
 10
0.0305118110236222
 20
6.011318897637796
 30
0.0
  0
VERTEX
  5
2D53
330
2775
100
AcDbEntity
  8
0
100
AcDbVertex
100
AcDb2dVertex
 10
0.0364173228346454
 20
6.011318897637796
 30
0.0
  0
VERTEX
  5
2D54
330
2775
100
AcDbEntity
  8
0
100
AcDbVertex
100
AcDb2dVertex
 10
0.0501968503937009
 20
6.011318897637796
 30
0.0
  0
SEQEND
  5
2D55
330
2775
100
AcDbEntity
  8
0
  0
LINE
  5
277A
330
1E
100
AcDbEntity
  8
0
100
AcDbLine
 10
0.0501968503937009
 20
6.011318897637796
 30
0.0
 11
1.302165354330708
 21
6.011318897637796
 31
0.0
  0
LINE
  5
277B
330
1E
100
AcDbEntity
  8
0
100
AcDbLine
 10
1.400590551181102
 20
6.009350393700787
 30
0.0
 11
1.400590551181102
 21
6.009350393700787
 31
0.0
  0
LINE
  5
277C
330
1E
100
AcDbEntity
  8
0
100
AcDbLine
 10
-0.0462598425196852
 20
4.67273622047244
 30
0.0
 11
1.400590551181102
 21
4.67273622047244
 31
0.0
  0
LINE
  5
277D
330
1E
100
AcDbEntity
  8
0
100
AcDbLine
 10
-0.0462598425196852
 20
6.009350393700787
 30
0.0
 11
-0.0462598425196852
 21
6.009350393700787
 31
0.0
  0
LINE
  5
277E
330
1E
100
AcDbEntity
  8
0
100
AcDbLine
 10
2.252952755905512
 20
5.53494094488189
 30
0.0
 11
2.252952755905512
 21
6.013287401574803
 31
0.0
  0
LINE
  5
277F
330
1E
100
AcDbEntity
  8
0
100
AcDbLine
 10
2.252952755905512
 20
5.53494094488189
 30
0.0
 11
2.256889763779527
 21
5.53494094488189
 31
0.0
  0
LINE
  5
2780
330
1E
100
AcDbEntity
  8
0
100
AcDbLine
 10
2.312007874015748
 20
6.013287401574803
 30
0.0
 11
2.312007874015748
 21
6.009350393700787
 31
0.0
  0
LINE
  5
2781
330
1E
100
AcDbEntity
  8
0
100
AcDbLine
 10
2.312007874015748
 20
6.013287401574803
 30
0.0
 11
2.252952755905512
 21
6.013287401574803
 31
0.0
  0
LINE
  5
2782
330
1E
100
AcDbEntity
  8
0
100
AcDbLine
 10
2.249015748031496
 20
5.436515748031496
 30
0.0
 11
2.252952755905512
 21
5.434547244094488
 31
0.0
  0
LINE
  5
2783
330
1E
100
AcDbEntity
  8
0
100
AcDbLine
 10
2.252952755905512
 20
5.434547244094488
 30
0.0
 11
2.252952755905512
 21
5.53494094488189
 31
0.0
  0
LINE
  5
2784
330
1E
100
AcDbEntity
  8
0
100
AcDbLine
 10
2.250984251968503
 20
6.013287401574803
 30
0.0
 11
2.252952755905512
 21
6.013287401574803
 31
0.0
  0
LINE
  5
2785
330
1E
100
AcDbEntity
  8
0
100
AcDbLine
 10
3.825787401574802
 20
5.434547244094488
 30
0.0
 11
3.82775590551181
 21
5.436515748031496
 31
0.0
  0
LINE
  5
2786
330
1E
100
AcDbEntity
  8
0
100
AcDbLine
 10
3.825787401574802
 20
6.013287401574803
 30
0.0
 11
3.825787401574802
 21
6.013287401574803
 31
0.0
  0
LINE
  5
2787
330
1E
100
AcDbEntity
  8
0
100
AcDbLine
 10
2.386811023622047
 20
6.009350393700787
 30
0.0
 11
2.315944881889763
 21
6.009350393700787
 31
0.0
  0
LINE
  5
2788
330
1E
100
AcDbEntity
  8
0
100
AcDbLine
 10
2.386811023622047
 20
6.009350393700787
 30
0.0
 11
2.392716535433071
 21
6.011318897637796
 31
0.0
  0
POLYLINE
  5
2789
330
1E
100
AcDbEntity
  8
0
100
AcDb2dPolyline
 66
     1
 10
0.0
 20
0.0
 30
0.0
  0
VERTEX
  5
2D56
330
2789
100
AcDbEntity
  8
0
100
AcDbVertex
100
AcDb2dVertex
 10
2.392716535433071
 20
6.011318897637796
 30
0.0
  0
VERTEX
  5
2D57
330
2789
100
AcDbEntity
  8
0
100
AcDbVertex
100
AcDb2dVertex
 10
2.398622047244094
 20
6.011318897637796
 30
0.0
  0
VERTEX
  5
2D58
330
2789
100
AcDbEntity
  8
0
100
AcDbVertex
100
AcDb2dVertex
 10
2.412401574803149
 20
6.011318897637796
 30
0.0
  0
SEQEND
  5
2D59
330
2789
100
AcDbEntity
  8
0
  0
LINE
  5
278E
330
1E
100
AcDbEntity
  8
0
100
AcDbLine
 10
2.412401574803149
 20
6.011318897637796
 30
0.0
 11
3.664370078740158
 21
6.011318897637796
 31
0.0
  0
POLYLINE
  5
278F
330
1E
100
AcDbEntity
  8
0
100
AcDb2dPolyline
 66
     1
 10
0.0
 20
0.0
 30
0.0
  0
VERTEX
  5
2D5A
330
278F
100
AcDbEntity
  8
0
100
AcDbVertex
100
AcDb2dVertex
 10
3.664370078740158
 20
6.011318897637796
 30
0.0
  0
VERTEX
  5
2D5B
330
278F
100
AcDbEntity
  8
0
100
AcDbVertex
100
AcDb2dVertex
 10
3.678149606299212
 20
6.011318897637796
 30
0.0
  0
VERTEX
  5
2D5C
330
278F
100
AcDbEntity
  8
0
100
AcDbVertex
100
AcDb2dVertex
 10
3.684055118110236
 20
6.011318897637796
 30
0.0
  0
SEQEND
  5
2D5D
330
278F
100
AcDbEntity
  8
0
  0
LINE
  5
2794
330
1E
100
AcDbEntity
  8
0
100
AcDbLine
 10
3.684055118110236
 20
6.011318897637796
 30
0.0
 11
3.68996062992126
 21
6.009350393700787
 31
0.0
  0
LINE
  5
2795
330
1E
100
AcDbEntity
  8
0
100
AcDbLine
 10
3.76279527559055
 20
6.009350393700787
 30
0.0
 11
3.68996062992126
 21
6.009350393700787
 31
0.0
  0
LINE
  5
2796
330
1E
100
AcDbEntity
  8
0
100
AcDbLine
 10
3.764763779527558
 20
6.013287401574803
 30
0.0
 11
3.76279527559055
 21
6.009350393700787
 31
0.0
  0
LINE
  5
2797
330
1E
100
AcDbEntity
  8
0
100
AcDbLine
 10
2.312007874015748
 20
6.013287401574803
 30
0.0
 11
2.315944881889763
 21
6.009350393700787
 31
0.0
  0
LINE
  5
2798
330
1E
100
AcDbEntity
  8
0
100
AcDbLine
 10
2.315944881889763
 20
6.009350393700787
 30
0.0
 11
2.315944881889763
 21
6.009350393700787
 31
0.0
  0
LINE
  5
2799
330
1E
100
AcDbEntity
  8
0
100
AcDbLine
 10
3.76279527559055
 20
4.67273622047244
 30
0.0
 11
2.315944881889763
 21
4.67273622047244
 31
0.0
  0
LINE
  5
279A
330
1E
100
AcDbEntity
  8
0
100
AcDbLine
 10
3.76279527559055
 20
6.009350393700787
 30
0.0
 11
3.76279527559055
 21
6.009350393700787
 31
0.0
  0
LINE
  5
279B
330
1E
100
AcDbEntity
  8
0
100
AcDbLine
 10
-0.1210629921259843
 20
5.253444881889764
 30
0.0
 11
-0.1171259842519685
 21
5.257381889763779
 31
0.0
  0
LINE
  5
279C
330
1E
100
AcDbEntity
  8
0
100
AcDbLine
 10
-0.1604330708661417
 20
5.257381889763779
 30
0.0
 11
-0.1171259842519685
 21
5.257381889763779
 31
0.0
  0
LINE
  5
279D
330
1E
100
AcDbEntity
  8
0
100
AcDbLine
 10
-0.1604330708661417
 20
5.257381889763779
 30
0.0
 11
-0.1643700787401574
 21
5.253444881889764
 31
0.0
  0
LINE
  5
279E
330
1E
100
AcDbEntity
  8
0
100
AcDbLine
 10
-0.1683070866141731
 20
5.418799212598425
 30
0.0
 11
-0.1683070866141731
 21
5.265255905511811
 31
0.0
  0
LINE
  5
279F
330
1E
100
AcDbEntity
  8
0
100
AcDbLine
 10
-0.1683070866141731
 20
5.265255905511811
 30
0.0
 11
-0.1604330708661417
 21
5.257381889763779
 31
0.0
  0
LINE
  5
27A0
330
1E
100
AcDbEntity
  8
0
100
AcDbLine
 10
-0.1171259842519685
 20
5.257381889763779
 30
0.0
 11
-0.109251968503937
 21
5.249507874015748
 31
0.0
  0
LINE
  5
27A1
330
1E
100
AcDbEntity
  8
0
100
AcDbLine
 10
-0.109251968503937
 20
5.434547244094488
 30
0.0
 11
-0.1171259842519685
 21
5.426673228346457
 31
0.0
  0
LINE
  5
27A2
330
1E
100
AcDbEntity
  8
0
100
AcDbLine
 10
-0.1604330708661417
 20
5.426673228346457
 30
0.0
 11
-0.1171259842519685
 21
5.426673228346457
 31
0.0
  0
LINE
  5
27A3
330
1E
100
AcDbEntity
  8
0
100
AcDbLine
 10
-0.1604330708661417
 20
5.426673228346457
 30
0.0
 11
-0.1683070866141731
 21
5.418799212598425
 31
0.0
  0
LINE
  5
27A4
330
1E
100
AcDbEntity
  8
0
100
AcDbLine
 10
-0.1643700787401574
 20
5.428641732283464
 30
0.0
 11
-0.1604330708661417
 21
5.426673228346457
 31
0.0
  0
LINE
  5
27A5
330
1E
100
AcDbEntity
  8
0
100
AcDbLine
 10
-0.1171259842519685
 20
5.426673228346457
 30
0.0
 11
-0.1210629921259843
 21
5.428641732283464
 31
0.0
  0
LINE
  5
27A6
330
1E
100
AcDbEntity
  8
0
100
AcDbLine
 10
-0.1722440944881889
 20
5.261318897637796
 30
0.0
 11
-0.1683070866141731
 21
5.265255905511811
 31
0.0
  0
LINE
  5
27A7
330
1E
100
AcDbEntity
  8
0
100
AcDbLine
 10
-0.1683070866141731
 20
5.418799212598425
 30
0.0
 11
-0.1722440944881889
 21
5.420767716535433
 31
0.0
  0
LINE
  5
27A8
330
1E
100
AcDbEntity
  8
0
100
AcDbLine
 10
1.463582677165354
 20
5.147145669291338
 30
0.0
 11
1.45767716535433
 21
5.153051181102362
 31
0.0
  0
LINE
  5
27A9
330
1E
100
AcDbEntity
  8
0
100
AcDbLine
 10
1.463582677165354
 20
5.53494094488189
 30
0.0
 11
1.45767716535433
 21
5.531003937007874
 31
0.0
  0
LINE
  5
27AA
330
1E
100
AcDbEntity
  8
0
100
AcDbLine
 10
1.463582677165354
 20
5.249507874015748
 30
0.0
 11
1.463582677165354
 21
5.434547244094488
 31
0.0
  0
LINE
  5
27AB
330
1E
100
AcDbEntity
  8
0
100
AcDbLine
 10
1.514763779527559
 20
5.257381889763779
 30
0.0
 11
1.471456692913386
 21
5.257381889763779
 31
0.0
  0
LINE
  5
27AC
330
1E
100
AcDbEntity
  8
0
100
AcDbLine
 10
1.471456692913386
 20
5.257381889763779
 30
0.0
 11
1.475393700787401
 21
5.253444881889764
 31
0.0
  0
LINE
  5
27AD
330
1E
100
AcDbEntity
  8
0
100
AcDbLine
 10
1.518700787401574
 20
5.253444881889764
 30
0.0
 11
1.514763779527559
 21
5.257381889763779
 31
0.0
  0
LINE
  5
27AE
330
1E
100
AcDbEntity
  8
0
100
AcDbLine
 10
1.514763779527559
 20
5.426673228346457
 30
0.0
 11
1.471456692913386
 21
5.426673228346457
 31
0.0
  0
LINE
  5
27AF
330
1E
100
AcDbEntity
  8
0
100
AcDbLine
 10
1.514763779527559
 20
5.426673228346457
 30
0.0
 11
1.518700787401574
 21
5.428641732283464
 31
0.0
  0
LINE
  5
27B0
330
1E
100
AcDbEntity
  8
0
100
AcDbLine
 10
1.475393700787401
 20
5.428641732283464
 30
0.0
 11
1.471456692913386
 21
5.426673228346457
 31
0.0
  0
LINE
  5
27B1
330
1E
100
AcDbEntity
  8
0
100
AcDbLine
 10
1.514763779527559
 20
5.257381889763779
 30
0.0
 11
1.52263779527559
 21
5.265255905511811
 31
0.0
  0
LINE
  5
27B2
330
1E
100
AcDbEntity
  8
0
100
AcDbLine
 10
1.52263779527559
 20
5.418799212598425
 30
0.0
 11
1.52263779527559
 21
5.265255905511811
 31
0.0
  0
LINE
  5
27B3
330
1E
100
AcDbEntity
  8
0
100
AcDbLine
 10
1.52263779527559
 20
5.418799212598425
 30
0.0
 11
1.514763779527559
 21
5.426673228346457
 31
0.0
  0
LINE
  5
27B4
330
1E
100
AcDbEntity
  8
0
100
AcDbLine
 10
1.471456692913386
 20
5.426673228346457
 30
0.0
 11
1.463582677165354
 21
5.434547244094488
 31
0.0
  0
LINE
  5
27B5
330
1E
100
AcDbEntity
  8
0
100
AcDbLine
 10
1.463582677165354
 20
5.249507874015748
 30
0.0
 11
1.471456692913386
 21
5.257381889763779
 31
0.0
  0
LINE
  5
27B6
330
1E
100
AcDbEntity
  8
0
100
AcDbLine
 10
1.52263779527559
 20
5.265255905511811
 30
0.0
 11
1.526574803149606
 21
5.261318897637796
 31
0.0
  0
LINE
  5
27B7
330
1E
100
AcDbEntity
  8
0
100
AcDbLine
 10
1.526574803149606
 20
5.420767716535433
 30
0.0
 11
1.52263779527559
 21
5.418799212598425
 31
0.0
  0
LINE
  5
27B8
330
1E
100
AcDbEntity
  8
0
100
AcDbLine
 10
3.876968503937008
 20
5.257381889763779
 30
0.0
 11
3.833661417322834
 21
5.257381889763779
 31
0.0
  0
LINE
  5
27B9
330
1E
100
AcDbEntity
  8
0
100
AcDbLine
 10
3.833661417322834
 20
5.257381889763779
 30
0.0
 11
3.835629921259841
 21
5.253444881889764
 31
0.0
  0
LINE
  5
27BA
330
1E
100
AcDbEntity
  8
0
100
AcDbLine
 10
3.880905511811023
 20
5.253444881889764
 30
0.0
 11
3.876968503937008
 21
5.257381889763779
 31
0.0
  0
LINE
  5
27BB
330
1E
100
AcDbEntity
  8
0
100
AcDbLine
 10
3.876968503937008
 20
5.257381889763779
 30
0.0
 11
3.884842519685039
 21
5.265255905511811
 31
0.0
  0
LINE
  5
27BC
330
1E
100
AcDbEntity
  8
0
100
AcDbLine
 10
3.884842519685039
 20
5.418799212598425
 30
0.0
 11
3.884842519685039
 21
5.265255905511811
 31
0.0
  0
LINE
  5
27BD
330
1E
100
AcDbEntity
  8
0
100
AcDbLine
 10
3.884842519685039
 20
5.418799212598425
 30
0.0
 11
3.876968503937008
 21
5.426673228346457
 31
0.0
  0
LINE
  5
27BE
330
1E
100
AcDbEntity
  8
0
100
AcDbLine
 10
3.876968503937008
 20
5.426673228346457
 30
0.0
 11
3.833661417322834
 21
5.426673228346457
 31
0.0
  0
LINE
  5
27BF
330
1E
100
AcDbEntity
  8
0
100
AcDbLine
 10
3.833661417322834
 20
5.426673228346457
 30
0.0
 11
3.825787401574802
 21
5.434547244094488
 31
0.0
  0
LINE
  5
27C0
330
1E
100
AcDbEntity
  8
0
100
AcDbLine
 10
3.825787401574802
 20
5.249507874015748
 30
0.0
 11
3.833661417322834
 21
5.257381889763779
 31
0.0
  0
LINE
  5
27C1
330
1E
100
AcDbEntity
  8
0
100
AcDbLine
 10
3.876968503937008
 20
5.426673228346457
 30
0.0
 11
3.880905511811023
 21
5.428641732283464
 31
0.0
  0
LINE
  5
27C2
330
1E
100
AcDbEntity
  8
0
100
AcDbLine
 10
3.835629921259841
 20
5.428641732283464
 30
0.0
 11
3.833661417322834
 21
5.426673228346457
 31
0.0
  0
LINE
  5
27C3
330
1E
100
AcDbEntity
  8
0
100
AcDbLine
 10
3.884842519685039
 20
5.265255905511811
 30
0.0
 11
3.888779527559054
 21
5.261318897637796
 31
0.0
  0
LINE
  5
27C4
330
1E
100
AcDbEntity
  8
0
100
AcDbLine
 10
3.888779527559054
 20
5.420767716535433
 30
0.0
 11
3.884842519685039
 21
5.418799212598425
 31
0.0
  0
LINE
  5
27C5
330
1E
100
AcDbEntity
  8
0
100
AcDbLine
 10
2.252952755905512
 20
5.147145669291338
 30
0.0
 11
2.256889763779527
 21
5.153051181102362
 31
0.0
  0
LINE
  5
27C6
330
1E
100
AcDbEntity
  8
0
100
AcDbLine
 10
2.252952755905512
 20
5.53494094488189
 30
0.0
 11
2.256889763779527
 21
5.531003937007874
 31
0.0
  0
LINE
  5
27C7
330
1E
100
AcDbEntity
  8
0
100
AcDbLine
 10
2.252952755905512
 20
5.249507874015748
 30
0.0
 11
2.252952755905512
 21
5.434547244094488
 31
0.0
  0
LINE
  5
27C8
330
1E
100
AcDbEntity
  8
0
100
AcDbLine
 10
2.241141732283464
 20
5.253444881889764
 30
0.0
 11
2.24507874015748
 21
5.257381889763779
 31
0.0
  0
LINE
  5
27C9
330
1E
100
AcDbEntity
  8
0
100
AcDbLine
 10
2.199803149606299
 20
5.257381889763779
 30
0.0
 11
2.24507874015748
 21
5.257381889763779
 31
0.0
  0
LINE
  5
27CA
330
1E
100
AcDbEntity
  8
0
100
AcDbLine
 10
2.199803149606299
 20
5.257381889763779
 30
0.0
 11
2.197834645669291
 21
5.253444881889764
 31
0.0
  0
LINE
  5
27CB
330
1E
100
AcDbEntity
  8
0
100
AcDbLine
 10
2.197834645669291
 20
5.428641732283464
 30
0.0
 11
2.199803149606299
 21
5.426673228346457
 31
0.0
  0
LINE
  5
27CC
330
1E
100
AcDbEntity
  8
0
100
AcDbLine
 10
2.199803149606299
 20
5.426673228346457
 30
0.0
 11
2.24507874015748
 21
5.426673228346457
 31
0.0
  0
LINE
  5
27CD
330
1E
100
AcDbEntity
  8
0
100
AcDbLine
 10
2.24507874015748
 20
5.426673228346457
 30
0.0
 11
2.241141732283464
 21
5.428641732283464
 31
0.0
  0
LINE
  5
27CE
330
1E
100
AcDbEntity
  8
0
100
AcDbLine
 10
2.191929133858267
 20
5.418799212598425
 30
0.0
 11
2.191929133858267
 21
5.265255905511811
 31
0.0
  0
LINE
  5
27CF
330
1E
100
AcDbEntity
  8
0
100
AcDbLine
 10
2.191929133858267
 20
5.265255905511811
 30
0.0
 11
2.199803149606299
 21
5.257381889763779
 31
0.0
  0
LINE
  5
27D0
330
1E
100
AcDbEntity
  8
0
100
AcDbLine
 10
2.24507874015748
 20
5.257381889763779
 30
0.0
 11
2.252952755905512
 21
5.249507874015748
 31
0.0
  0
LINE
  5
27D1
330
1E
100
AcDbEntity
  8
0
100
AcDbLine
 10
2.252952755905512
 20
5.434547244094488
 30
0.0
 11
2.24507874015748
 21
5.426673228346457
 31
0.0
  0
LINE
  5
27D2
330
1E
100
AcDbEntity
  8
0
100
AcDbLine
 10
2.199803149606299
 20
5.426673228346457
 30
0.0
 11
2.191929133858267
 21
5.418799212598425
 31
0.0
  0
LINE
  5
27D3
330
1E
100
AcDbEntity
  8
0
100
AcDbLine
 10
2.18996062992126
 20
5.261318897637796
 30
0.0
 11
2.191929133858267
 21
5.265255905511811
 31
0.0
  0
LINE
  5
27D4
330
1E
100
AcDbEntity
  8
0
100
AcDbLine
 10
2.191929133858267
 20
5.418799212598425
 30
0.0
 11
2.18996062992126
 21
5.420767716535433
 31
0.0
  0
POLYLINE
  5
27D5
330
1E
100
AcDbEntity
  8
0
100
AcDb2dPolyline
 66
     1
 10
0.0
 20
0.0
 30
0.0
  0
VERTEX
  5
2D5E
330
27D5
100
AcDbEntity
  8
0
100
AcDbVertex
100
AcDb2dVertex
 10
-0.4340551181102362
 20
5.588090551181101
 30
0.0
  0
VERTEX
  5
2D5F
330
27D5
100
AcDbEntity
  8
0
100
AcDbVertex
100
AcDb2dVertex
 10
-0.443897637795276
 20
5.623523622047244
 30
0.0
  0
VERTEX
  5
2D60
330
27D5
100
AcDbEntity
  8
0
100
AcDbVertex
100
AcDb2dVertex
 10
-0.4675196850393704
 20
5.651082677165353
 30
0.0
  0
VERTEX
  5
2D61
330
27D5
100
AcDbEntity
  8
0
100
AcDbVertex
100
AcDb2dVertex
 10
-0.5009842519685038
 20
5.662893700787401
 30
0.0
  0
VERTEX
  5
2D62
330
27D5
100
AcDbEntity
  8
0
100
AcDbVertex
100
AcDb2dVertex
 10
-0.5383858267716537
 20
5.658956692913385
 30
0.0
  0
VERTEX
  5
2D63
330
27D5
100
AcDbEntity
  8
0
100
AcDbVertex
100
AcDb2dVertex
 10
-0.5679133858267713
 20
5.637303149606299
 30
0.0
  0
VERTEX
  5
2D64
330
27D5
100
AcDbEntity
  8
0
100
AcDbVertex
100
AcDb2dVertex
 10
-0.5856299212598426
 20
5.605807086614174
 30
0.0
  0
VERTEX
  5
2D65
330
27D5
100
AcDbEntity
  8
0
100
AcDbVertex
100
AcDb2dVertex
 10
-0.5856299212598426
 20
5.570374015748031
 30
0.0
  0
VERTEX
  5
2D66
330
27D5
100
AcDbEntity
  8
0
100
AcDbVertex
100
AcDb2dVertex
 10
-0.5679133858267713
 20
5.536909448818898
 30
0.0
  0
VERTEX
  5
2D67
330
27D5
100
AcDbEntity
  8
0
100
AcDbVertex
100
AcDb2dVertex
 10
-0.5383858267716537
 20
5.517224409448818
 30
0.0
  0
VERTEX
  5
2D68
330
27D5
100
AcDbEntity
  8
0
100
AcDbVertex
100
AcDb2dVertex
 10
-0.5009842519685038
 20
5.511318897637796
 30
0.0
  0
VERTEX
  5
2D69
330
27D5
100
AcDbEntity
  8
0
100
AcDbVertex
100
AcDb2dVertex
 10
-0.4675196850393704
 20
5.52509842519685
 30
0.0
  0
VERTEX
  5
2D6A
330
27D5
100
AcDbEntity
  8
0
100
AcDbVertex
100
AcDb2dVertex
 10
-0.443897637795276
 20
5.552657480314961
 30
0.0
  0
VERTEX
  5
2D6B
330
27D5
100
AcDbEntity
  8
0
100
AcDbVertex
100
AcDb2dVertex
 10
-0.4340551181102362
 20
5.588090551181101
 30
0.0
  0
SEQEND
  5
2D6C
330
27D5
100
AcDbEntity
  8
0
  0
POLYLINE
  5
27E5
330
1E
100
AcDbEntity
  8
0
100
AcDb2dPolyline
 66
     1
 10
0.0
 20
0.0
 30
0.0
  0
VERTEX
  5
2D6D
330
27E5
100
AcDbEntity
  8
0
100
AcDbVertex
100
AcDb2dVertex
 10
-0.5875984251968501
 20
5.588090551181101
 30
0.0
  0
VERTEX
  5
2D6E
330
27E5
100
AcDbEntity
  8
0
100
AcDbVertex
100
AcDb2dVertex
 10
-0.5797244094488186
 20
5.623523622047244
 30
0.0
  0
VERTEX
  5
2D6F
330
27E5
100
AcDbEntity
  8
0
100
AcDbVertex
100
AcDb2dVertex
 10
-0.5541338582677167
 20
5.651082677165353
 30
0.0
  0
VERTEX
  5
2D70
330
27E5
100
AcDbEntity
  8
0
100
AcDbVertex
100
AcDb2dVertex
 10
-0.5206692913385825
 20
5.664862204724409
 30
0.0
  0
VERTEX
  5
2D71
330
27E5
100
AcDbEntity
  8
0
100
AcDbVertex
100
AcDb2dVertex
 10
-0.4832677165354334
 20
5.658956692913385
 30
0.0
  0
VERTEX
  5
2D72
330
27E5
100
AcDbEntity
  8
0
100
AcDbVertex
100
AcDb2dVertex
 10
-0.4537401574803149
 20
5.639271653543307
 30
0.0
  0
VERTEX
  5
2D73
330
27E5
100
AcDbEntity
  8
0
100
AcDbVertex
100
AcDb2dVertex
 10
-0.4360236220472445
 20
5.605807086614174
 30
0.0
  0
VERTEX
  5
2D74
330
27E5
100
AcDbEntity
  8
0
100
AcDbVertex
100
AcDb2dVertex
 10
-0.4360236220472445
 20
5.568405511811024
 30
0.0
  0
VERTEX
  5
2D75
330
27E5
100
AcDbEntity
  8
0
100
AcDbVertex
100
AcDb2dVertex
 10
-0.4537401574803149
 20
5.536909448818898
 30
0.0
  0
VERTEX
  5
2D76
330
27E5
100
AcDbEntity
  8
0
100
AcDbVertex
100
AcDb2dVertex
 10
-0.4832677165354334
 20
5.515255905511811
 30
0.0
  0
VERTEX
  5
2D77
330
27E5
100
AcDbEntity
  8
0
100
AcDbVertex
100
AcDb2dVertex
 10
-0.5206692913385825
 20
5.511318897637796
 30
0.0
  0
VERTEX
  5
2D78
330
27E5
100
AcDbEntity
  8
0
100
AcDbVertex
100
AcDb2dVertex
 10
-0.5541338582677167
 20
5.52509842519685
 30
0.0
  0
VERTEX
  5
2D79
330
27E5
100
AcDbEntity
  8
0
100
AcDbVertex
100
AcDb2dVertex
 10
-0.5797244094488186
 20
5.552657480314961
 30
0.0
  0
VERTEX
  5
2D7A
330
27E5
100
AcDbEntity
  8
0
100
AcDbVertex
100
AcDb2dVertex
 10
-0.5875984251968501
 20
5.588090551181101
 30
0.0
  0
SEQEND
  5
2D7B
330
27E5
100
AcDbEntity
  8
0
  0
POLYLINE
  5
27F5
330
1E
100
AcDbEntity
  8
0
100
AcDb2dPolyline
 66
     1
 10
0.0
 20
0.0
 30
0.0
  0
VERTEX
  5
2D7C
330
27F5
100
AcDbEntity
  8
0
100
AcDbVertex
100
AcDb2dVertex
 10
-0.3769685039370074
 20
5.588090551181101
 30
0.0
  0
VERTEX
  5
2D7D
330
27F5
100
AcDbEntity
  8
0
100
AcDbVertex
100
AcDb2dVertex
 10
-0.3848425196850389
 20
5.633366141732283
 30
0.0
  0
VERTEX
  5
2D7E
330
27F5
100
AcDbEntity
  8
0
100
AcDbVertex
100
AcDb2dVertex
 10
-0.4084645669291343
 20
5.674704724409448
 30
0.0
  0
VERTEX
  5
2D7F
330
27F5
100
AcDbEntity
  8
0
100
AcDbVertex
100
AcDb2dVertex
 10
-0.443897637795276
 20
5.704232283464566
 30
0.0
  0
VERTEX
  5
2D80
330
27F5
100
AcDbEntity
  8
0
100
AcDbVertex
100
AcDb2dVertex
 10
-0.4872047244094491
 20
5.719980314960629
 30
0.0
  0
VERTEX
  5
2D81
330
27F5
100
AcDbEntity
  8
0
100
AcDbVertex
100
AcDb2dVertex
 10
-0.534448818897638
 20
5.719980314960629
 30
0.0
  0
VERTEX
  5
2D82
330
27F5
100
AcDbEntity
  8
0
100
AcDbVertex
100
AcDb2dVertex
 10
-0.5777559055118111
 20
5.704232283464566
 30
0.0
  0
VERTEX
  5
2D83
330
27F5
100
AcDbEntity
  8
0
100
AcDbVertex
100
AcDb2dVertex
 10
-0.6151574803149602
 20
5.674704724409448
 30
0.0
  0
VERTEX
  5
2D84
330
27F5
100
AcDbEntity
  8
0
100
AcDbVertex
100
AcDb2dVertex
 10
-0.6387795275590547
 20
5.633366141732283
 30
0.0
  0
VERTEX
  5
2D85
330
27F5
100
AcDbEntity
  8
0
100
AcDbVertex
100
AcDb2dVertex
 10
-0.6466535433070862
 20
5.588090551181101
 30
0.0
  0
VERTEX
  5
2D86
330
27F5
100
AcDbEntity
  8
0
100
AcDbVertex
100
AcDb2dVertex
 10
-0.6387795275590547
 20
5.540846456692912
 30
0.0
  0
VERTEX
  5
2D87
330
27F5
100
AcDbEntity
  8
0
100
AcDbVertex
100
AcDb2dVertex
 10
-0.6151574803149602
 20
5.501476377952755
 30
0.0
  0
VERTEX
  5
2D88
330
27F5
100
AcDbEntity
  8
0
100
AcDbVertex
100
AcDb2dVertex
 10
-0.5777559055118111
 20
5.469980314960629
 30
0.0
  0
VERTEX
  5
2D89
330
27F5
100
AcDbEntity
  8
0
100
AcDbVertex
100
AcDb2dVertex
 10
-0.534448818897638
 20
5.454232283464566
 30
0.0
  0
VERTEX
  5
2D8A
330
27F5
100
AcDbEntity
  8
0
100
AcDbVertex
100
AcDb2dVertex
 10
-0.4872047244094491
 20
5.454232283464566
 30
0.0
  0
VERTEX
  5
2D8B
330
27F5
100
AcDbEntity
  8
0
100
AcDbVertex
100
AcDb2dVertex
 10
-0.443897637795276
 20
5.469980314960629
 30
0.0
  0
VERTEX
  5
2D8C
330
27F5
100
AcDbEntity
  8
0
100
AcDbVertex
100
AcDb2dVertex
 10
-0.4084645669291343
 20
5.501476377952755
 30
0.0
  0
VERTEX
  5
2D8D
330
27F5
100
AcDbEntity
  8
0
100
AcDbVertex
100
AcDb2dVertex
 10
-0.3848425196850389
 20
5.540846456692912
 30
0.0
  0
VERTEX
  5
2D8E
330
27F5
100
AcDbEntity
  8
0
100
AcDbVertex
100
AcDb2dVertex
 10
-0.3769685039370074
 20
5.588090551181101
 30
0.0
  0
SEQEND
  5
2D8F
330
27F5
100
AcDbEntity
  8
0
  0
POLYLINE
  5
280A
330
1E
100
AcDbEntity
  8
0
100
AcDb2dPolyline
 66
     1
 10
0.0
 20
0.0
 30
0.0
  0
VERTEX
  5
2D90
330
280A
100
AcDbEntity
  8
0
100
AcDbVertex
100
AcDb2dVertex
 10
4.302165354330708
 20
5.588090551181101
 30
0.0
  0
VERTEX
  5
2D91
330
280A
100
AcDbEntity
  8
0
100
AcDbVertex
100
AcDb2dVertex
 10
4.294291338582676
 20
5.623523622047244
 30
0.0
  0
VERTEX
  5
2D92
330
280A
100
AcDbEntity
  8
0
100
AcDbVertex
100
AcDb2dVertex
 10
4.270669291338582
 20
5.651082677165353
 30
0.0
  0
VERTEX
  5
2D93
330
280A
100
AcDbEntity
  8
0
100
AcDbVertex
100
AcDb2dVertex
 10
4.235236220472441
 20
5.662893700787401
 30
0.0
  0
VERTEX
  5
2D94
330
280A
100
AcDbEntity
  8
0
100
AcDbVertex
100
AcDb2dVertex
 10
4.199803149606299
 20
5.658956692913385
 30
0.0
  0
VERTEX
  5
2D95
330
280A
100
AcDbEntity
  8
0
100
AcDbVertex
100
AcDb2dVertex
 10
4.17027559055118
 20
5.637303149606299
 30
0.0
  0
VERTEX
  5
2D96
330
280A
100
AcDbEntity
  8
0
100
AcDbVertex
100
AcDb2dVertex
 10
4.15255905511811
 20
5.605807086614174
 30
0.0
  0
VERTEX
  5
2D97
330
280A
100
AcDbEntity
  8
0
100
AcDbVertex
100
AcDb2dVertex
 10
4.15255905511811
 20
5.570374015748031
 30
0.0
  0
VERTEX
  5
2D98
330
280A
100
AcDbEntity
  8
0
100
AcDbVertex
100
AcDb2dVertex
 10
4.17027559055118
 20
5.536909448818898
 30
0.0
  0
VERTEX
  5
2D99
330
280A
100
AcDbEntity
  8
0
100
AcDbVertex
100
AcDb2dVertex
 10
4.199803149606299
 20
5.517224409448818
 30
0.0
  0
VERTEX
  5
2D9A
330
280A
100
AcDbEntity
  8
0
100
AcDbVertex
100
AcDb2dVertex
 10
4.235236220472441
 20
5.511318897637796
 30
0.0
  0
VERTEX
  5
2D9B
330
280A
100
AcDbEntity
  8
0
100
AcDbVertex
100
AcDb2dVertex
 10
4.270669291338582
 20
5.52509842519685
 30
0.0
  0
VERTEX
  5
2D9C
330
280A
100
AcDbEntity
  8
0
100
AcDbVertex
100
AcDb2dVertex
 10
4.294291338582676
 20
5.552657480314961
 30
0.0
  0
VERTEX
  5
2D9D
330
280A
100
AcDbEntity
  8
0
100
AcDbVertex
100
AcDb2dVertex
 10
4.302165354330708
 20
5.588090551181101
 30
0.0
  0
SEQEND
  5
2D9E
330
280A
100
AcDbEntity
  8
0
  0
POLYLINE
  5
281A
330
1E
100
AcDbEntity
  8
0
100
AcDb2dPolyline
 66
     1
 10
0.0
 20
0.0
 30
0.0
  0
VERTEX
  5
2D9F
330
281A
100
AcDbEntity
  8
0
100
AcDbVertex
100
AcDb2dVertex
 10
4.150590551181102
 20
5.588090551181101
 30
0.0
  0
VERTEX
  5
2DA0
330
281A
100
AcDbEntity
  8
0
100
AcDbVertex
100
AcDb2dVertex
 10
4.158464566929134
 20
5.623523622047244
 30
0.0
  0
VERTEX
  5
2DA1
330
281A
100
AcDbEntity
  8
0
100
AcDbVertex
100
AcDb2dVertex
 10
4.184055118110236
 20
5.651082677165353
 30
0.0
  0
VERTEX
  5
2DA2
330
281A
100
AcDbEntity
  8
0
100
AcDbVertex
100
AcDb2dVertex
 10
4.217519685039369
 20
5.664862204724409
 30
0.0
  0
VERTEX
  5
2DA3
330
281A
100
AcDbEntity
  8
0
100
AcDbVertex
100
AcDb2dVertex
 10
4.254921259842519
 20
5.658956692913385
 30
0.0
  0
VERTEX
  5
2DA4
330
281A
100
AcDbEntity
  8
0
100
AcDbVertex
100
AcDb2dVertex
 10
4.284448818897637
 20
5.639271653543307
 30
0.0
  0
VERTEX
  5
2DA5
330
281A
100
AcDbEntity
  8
0
100
AcDbVertex
100
AcDb2dVertex
 10
4.302165354330708
 20
5.605807086614174
 30
0.0
  0
VERTEX
  5
2DA6
330
281A
100
AcDbEntity
  8
0
100
AcDbVertex
100
AcDb2dVertex
 10
4.302165354330708
 20
5.568405511811024
 30
0.0
  0
VERTEX
  5
2DA7
330
281A
100
AcDbEntity
  8
0
100
AcDbVertex
100
AcDb2dVertex
 10
4.284448818897637
 20
5.536909448818898
 30
0.0
  0
VERTEX
  5
2DA8
330
281A
100
AcDbEntity
  8
0
100
AcDbVertex
100
AcDb2dVertex
 10
4.254921259842519
 20
5.515255905511811
 30
0.0
  0
VERTEX
  5
2DA9
330
281A
100
AcDbEntity
  8
0
100
AcDbVertex
100
AcDb2dVertex
 10
4.217519685039369
 20
5.511318897637796
 30
0.0
  0
VERTEX
  5
2DAA
330
281A
100
AcDbEntity
  8
0
100
AcDbVertex
100
AcDb2dVertex
 10
4.184055118110236
 20
5.52509842519685
 30
0.0
  0
VERTEX
  5
2DAB
330
281A
100
AcDbEntity
  8
0
100
AcDbVertex
100
AcDb2dVertex
 10
4.158464566929134
 20
5.552657480314961
 30
0.0
  0
VERTEX
  5
2DAC
330
281A
100
AcDbEntity
  8
0
100
AcDbVertex
100
AcDb2dVertex
 10
4.150590551181102
 20
5.588090551181101
 30
0.0
  0
SEQEND
  5
2DAD
330
281A
100
AcDbEntity
  8
0
  0
POLYLINE
  5
282A
330
1E
100
AcDbEntity
  8
0
100
AcDb2dPolyline
 66
     1
 10
0.0
 20
0.0
 30
0.0
  0
VERTEX
  5
2DAE
330
282A
100
AcDbEntity
  8
0
100
AcDbVertex
100
AcDb2dVertex
 10
4.361220472440945
 20
5.588090551181101
 30
0.0
  0
VERTEX
  5
2DAF
330
282A
100
AcDbEntity
  8
0
100
AcDbVertex
100
AcDb2dVertex
 10
4.353346456692913
 20
5.633366141732283
 30
0.0
  0
VERTEX
  5
2DB0
330
282A
100
AcDbEntity
  8
0
100
AcDbVertex
100
AcDb2dVertex
 10
4.329724409448819
 20
5.674704724409448
 30
0.0
  0
VERTEX
  5
2DB1
330
282A
100
AcDbEntity
  8
0
100
AcDbVertex
100
AcDb2dVertex
 10
4.294291338582676
 20
5.704232283464566
 30
0.0
  0
VERTEX
  5
2DB2
330
282A
100
AcDbEntity
  8
0
100
AcDbVertex
100
AcDb2dVertex
 10
4.250984251968504
 20
5.719980314960629
 30
0.0
  0
VERTEX
  5
2DB3
330
282A
100
AcDbEntity
  8
0
100
AcDbVertex
100
AcDb2dVertex
 10
4.203740157480315
 20
5.719980314960629
 30
0.0
  0
VERTEX
  5
2DB4
330
282A
100
AcDbEntity
  8
0
100
AcDbVertex
100
AcDb2dVertex
 10
4.160433070866141
 20
5.704232283464566
 30
0.0
  0
VERTEX
  5
2DB5
330
282A
100
AcDbEntity
  8
0
100
AcDbVertex
100
AcDb2dVertex
 10
4.123031496062991
 20
5.674704724409448
 30
0.0
  0
VERTEX
  5
2DB6
330
282A
100
AcDbEntity
  8
0
100
AcDbVertex
100
AcDb2dVertex
 10
4.099409448818897
 20
5.633366141732283
 30
0.0
  0
VERTEX
  5
2DB7
330
282A
100
AcDbEntity
  8
0
100
AcDbVertex
100
AcDb2dVertex
 10
4.091535433070865
 20
5.588090551181101
 30
0.0
  0
VERTEX
  5
2DB8
330
282A
100
AcDbEntity
  8
0
100
AcDbVertex
100
AcDb2dVertex
 10
4.099409448818897
 20
5.540846456692912
 30
0.0
  0
VERTEX
  5
2DB9
330
282A
100
AcDbEntity
  8
0
100
AcDbVertex
100
AcDb2dVertex
 10
4.123031496062991
 20
5.501476377952755
 30
0.0
  0
VERTEX
  5
2DBA
330
282A
100
AcDbEntity
  8
0
100
AcDbVertex
100
AcDb2dVertex
 10
4.160433070866141
 20
5.469980314960629
 30
0.0
  0
VERTEX
  5
2DBB
330
282A
100
AcDbEntity
  8
0
100
AcDbVertex
100
AcDb2dVertex
 10
4.203740157480315
 20
5.454232283464566
 30
0.0
  0
VERTEX
  5
2DBC
330
282A
100
AcDbEntity
  8
0
100
AcDbVertex
100
AcDb2dVertex
 10
4.250984251968504
 20
5.454232283464566
 30
0.0
  0
VERTEX
  5
2DBD
330
282A
100
AcDbEntity
  8
0
100
AcDbVertex
100
AcDb2dVertex
 10
4.294291338582676
 20
5.469980314960629
 30
0.0
  0
VERTEX
  5
2DBE
330
282A
100
AcDbEntity
  8
0
100
AcDbVertex
100
AcDb2dVertex
 10
4.329724409448819
 20
5.501476377952755
 30
0.0
  0
VERTEX
  5
2DBF
330
282A
100
AcDbEntity
  8
0
100
AcDbVertex
100
AcDb2dVertex
 10
4.353346456692913
 20
5.540846456692912
 30
0.0
  0
VERTEX
  5
2DC0
330
282A
100
AcDbEntity
  8
0
100
AcDbVertex
100
AcDb2dVertex
 10
4.361220472440945
 20
5.588090551181101
 30
0.0
  0
SEQEND
  5
2DC1
330
282A
100
AcDbEntity
  8
0
  0
LINE
  5
283F
330
1E
100
AcDbEntity
  8
0
100
AcDbLine
 10
-0.0442913385826769
 20
6.164862204724409
 30
0.0
 11
-0.0442913385826769
 21
6.164862204724409
 31
0.0
  0
LINE
  5
2840
330
1E
100
AcDbEntity
  8
0
100
AcDbLine
 10
-0.0442913385826769
 20
6.164862204724409
 30
0.0
 11
-0.0442913385826769
 21
6.505413385826772
 31
0.0
  0
LINE
  5
2841
330
1E
100
AcDbEntity
  8
0
100
AcDbLine
 10
-0.0442913385826769
 20
6.505413385826772
 30
0.0
 11
-0.0442913385826769
 21
6.505413385826772
 31
0.0
  0
LINE
  5
2842
330
1E
100
AcDbEntity
  8
0
100
AcDbLine
 10
0.0068897637795278
 20
6.15501968503937
 30
0.0
 11
-0.034448818897638
 21
6.15501968503937
 31
0.0
  0
LINE
  5
2843
330
1E
100
AcDbEntity
  8
0
100
AcDbLine
 10
-0.034448818897638
 20
6.15501968503937
 30
0.0
 11
-0.034448818897638
 21
6.15501968503937
 31
0.0
  0
LINE
  5
2844
330
1E
100
AcDbEntity
  8
0
100
AcDbLine
 10
1.388779527559055
 20
6.15501968503937
 30
0.0
 11
1.388779527559055
 21
6.15501968503937
 31
0.0
  0
LINE
  5
2845
330
1E
100
AcDbEntity
  8
0
100
AcDbLine
 10
1.388779527559055
 20
6.15501968503937
 30
0.0
 11
1.347440944881889
 21
6.15501968503937
 31
0.0
  0
LINE
  5
2846
330
1E
100
AcDbEntity
  8
0
100
AcDbLine
 10
1.347440944881889
 20
6.15501968503937
 30
0.0
 11
1.343503937007874
 21
6.15501968503937
 31
0.0
  0
LINE
  5
2847
330
1E
100
AcDbEntity
  8
0
100
AcDbLine
 10
0.0088582677165352
 20
6.15501968503937
 30
0.0
 11
1.343503937007874
 21
6.15501968503937
 31
0.0
  0
LINE
  5
2848
330
1E
100
AcDbEntity
  8
0
100
AcDbLine
 10
0.0088582677165352
 20
6.15501968503937
 30
0.0
 11
0.0068897637795278
 21
6.15501968503937
 31
0.0
  0
LINE
  5
2849
330
1E
100
AcDbEntity
  8
0
100
AcDbLine
 10
1.396653543307087
 20
6.505413385826772
 30
0.0
 11
1.396653543307087
 21
6.164862204724409
 31
0.0
  0
LINE
  5
284A
330
1E
100
AcDbEntity
  8
0
100
AcDbLine
 10
1.396653543307087
 20
6.164862204724409
 30
0.0
 11
1.398622047244094
 21
6.164862204724409
 31
0.0
  0
LINE
  5
284B
330
1E
100
AcDbEntity
  8
0
100
AcDbLine
 10
1.398622047244094
 20
6.505413385826772
 30
0.0
 11
1.396653543307087
 21
6.505413385826772
 31
0.0
  0
LINE
  5
284C
330
1E
100
AcDbEntity
  8
0
100
AcDbLine
 10
0.0108267716535435
 20
6.513287401574803
 30
0.0
 11
1.343503937007874
 21
6.513287401574803
 31
0.0
  0
LINE
  5
284D
330
1E
100
AcDbEntity
  8
0
100
AcDbLine
 10
0.0108267716535435
 20
6.513287401574803
 30
0.0
 11
0.0088582677165352
 21
6.15501968503937
 31
0.0
  0
LINE
  5
284E
330
1E
100
AcDbEntity
  8
0
100
AcDbLine
 10
1.343503937007874
 20
6.15501968503937
 30
0.0
 11
1.343503937007874
 21
6.513287401574803
 31
0.0
  0
LINE
  5
284F
330
1E
100
AcDbEntity
  8
0
100
AcDbLine
 10
-0.034448818897638
 20
6.515255905511811
 30
0.0
 11
-0.034448818897638
 21
6.513287401574803
 31
0.0
  0
LINE
  5
2850
330
1E
100
AcDbEntity
  8
0
100
AcDbLine
 10
-0.034448818897638
 20
6.513287401574803
 30
0.0
 11
0.0068897637795278
 21
6.513287401574803
 31
0.0
  0
LINE
  5
2851
330
1E
100
AcDbEntity
  8
0
100
AcDbLine
 10
0.0068897637795278
 20
6.513287401574803
 30
0.0
 11
0.0108267716535435
 21
6.513287401574803
 31
0.0
  0
LINE
  5
2852
330
1E
100
AcDbEntity
  8
0
100
AcDbLine
 10
1.343503937007874
 20
6.513287401574803
 30
0.0
 11
1.347440944881889
 21
6.513287401574803
 31
0.0
  0
LINE
  5
2853
330
1E
100
AcDbEntity
  8
0
100
AcDbLine
 10
1.347440944881889
 20
6.513287401574803
 30
0.0
 11
1.388779527559055
 21
6.513287401574803
 31
0.0
  0
LINE
  5
2854
330
1E
100
AcDbEntity
  8
0
100
AcDbLine
 10
1.388779527559055
 20
6.513287401574803
 30
0.0
 11
1.388779527559055
 21
6.515255905511811
 31
0.0
  0
POLYLINE
  5
2855
330
1E
100
AcDbEntity
  8
0
100
AcDb2dPolyline
 66
     1
 10
0.0
 20
0.0
 30
0.0
  0
VERTEX
  5
2DC2
330
2855
100
AcDbEntity
  8
0
100
AcDbVertex
100
AcDb2dVertex
 10
1.396653543307087
 20
6.505413385826772
 30
0.0
  0
VERTEX
  5
2DC3
330
2855
100
AcDbEntity
  8
0
100
AcDbVertex
100
AcDb2dVertex
 10
1.394685039370078
 20
6.511318897637796
 30
0.0
  0
VERTEX
  5
2DC4
330
2855
100
AcDbEntity
  8
0
100
AcDbVertex
100
AcDb2dVertex
 10
1.388779527559055
 20
6.513287401574803
 30
0.0
  0
SEQEND
  5
2DC5
330
2855
100
AcDbEntity
  8
0
  0
POLYLINE
  5
285A
330
1E
100
AcDbEntity
  8
0
100
AcDb2dPolyline
 66
     1
 10
0.0
 20
0.0
 30
0.0
  0
VERTEX
  5
2DC6
330
285A
100
AcDbEntity
  8
0
100
AcDbVertex
100
AcDb2dVertex
 10
1.388779527559055
 20
6.15501968503937
 30
0.0
  0
VERTEX
  5
2DC7
330
285A
100
AcDbEntity
  8
0
100
AcDbVertex
100
AcDb2dVertex
 10
1.394685039370078
 20
6.156988188976377
 30
0.0
  0
VERTEX
  5
2DC8
330
285A
100
AcDbEntity
  8
0
100
AcDbVertex
100
AcDb2dVertex
 10
1.396653543307087
 20
6.164862204724409
 30
0.0
  0
SEQEND
  5
2DC9
330
285A
100
AcDbEntity
  8
0
  0
POLYLINE
  5
285F
330
1E
100
AcDbEntity
  8
0
100
AcDb2dPolyline
 66
     1
 10
0.0
 20
0.0
 30
0.0
  0
VERTEX
  5
2DCA
330
285F
100
AcDbEntity
  8
0
100
AcDbVertex
100
AcDb2dVertex
 10
-0.034448818897638
 20
6.513287401574803
 30
0.0
  0
VERTEX
  5
2DCB
330
285F
100
AcDbEntity
  8
0
100
AcDbVertex
100
AcDb2dVertex
 10
-0.0403543307086611
 20
6.511318897637796
 30
0.0
  0
VERTEX
  5
2DCC
330
285F
100
AcDbEntity
  8
0
100
AcDbVertex
100
AcDb2dVertex
 10
-0.0442913385826769
 20
6.505413385826772
 30
0.0
  0
SEQEND
  5
2DCD
330
285F
100
AcDbEntity
  8
0
  0
POLYLINE
  5
2864
330
1E
100
AcDbEntity
  8
0
100
AcDb2dPolyline
 66
     1
 10
0.0
 20
0.0
 30
0.0
  0
VERTEX
  5
2DCE
330
2864
100
AcDbEntity
  8
0
100
AcDbVertex
100
AcDb2dVertex
 10
-0.0442913385826769
 20
6.164862204724409
 30
0.0
  0
VERTEX
  5
2DCF
330
2864
100
AcDbEntity
  8
0
100
AcDbVertex
100
AcDb2dVertex
 10
-0.0403543307086611
 20
6.156988188976377
 30
0.0
  0
VERTEX
  5
2DD0
330
2864
100
AcDbEntity
  8
0
100
AcDbVertex
100
AcDb2dVertex
 10
-0.034448818897638
 20
6.15501968503937
 30
0.0
  0
SEQEND
  5
2DD1
330
2864
100
AcDbEntity
  8
0
  0
LINE
  5
2869
330
1E
100
AcDbEntity
  8
0
100
AcDbLine
 10
3.758858267716536
 20
6.505413385826772
 30
0.0
 11
3.758858267716536
 21
6.164862204724409
 31
0.0
  0
LINE
  5
286A
330
1E
100
AcDbEntity
  8
0
100
AcDbLine
 10
3.758858267716536
 20
6.164862204724409
 30
0.0
 11
3.760826771653543
 21
6.164862204724409
 31
0.0
  0
LINE
  5
286B
330
1E
100
AcDbEntity
  8
0
100
AcDbLine
 10
3.760826771653543
 20
6.505413385826772
 30
0.0
 11
3.758858267716536
 21
6.505413385826772
 31
0.0
  0
LINE
  5
286C
330
1E
100
AcDbEntity
  8
0
100
AcDbLine
 10
3.750984251968504
 20
6.15501968503937
 30
0.0
 11
3.750984251968504
 21
6.15501968503937
 31
0.0
  0
LINE
  5
286D
330
1E
100
AcDbEntity
  8
0
100
AcDbLine
 10
3.750984251968504
 20
6.15501968503937
 30
0.0
 11
3.709645669291337
 21
6.15501968503937
 31
0.0
  0
LINE
  5
286E
330
1E
100
AcDbEntity
  8
0
100
AcDbLine
 10
3.709645669291337
 20
6.15501968503937
 30
0.0
 11
3.705708661417323
 21
6.15501968503937
 31
0.0
  0
LINE
  5
286F
330
1E
100
AcDbEntity
  8
0
100
AcDbLine
 10
3.705708661417323
 20
6.15501968503937
 30
0.0
 11
2.371062992125984
 21
6.15501968503937
 31
0.0
  0
LINE
  5
2870
330
1E
100
AcDbEntity
  8
0
100
AcDbLine
 10
2.371062992125984
 20
6.15501968503937
 30
0.0
 11
2.369094488188976
 21
6.15501968503937
 31
0.0
  0
LINE
  5
2871
330
1E
100
AcDbEntity
  8
0
100
AcDbLine
 10
2.369094488188976
 20
6.15501968503937
 30
0.0
 11
2.327755905511811
 21
6.15501968503937
 31
0.0
  0
LINE
  5
2872
330
1E
100
AcDbEntity
  8
0
100
AcDbLine
 10
2.327755905511811
 20
6.15501968503937
 30
0.0
 11
2.327755905511811
 21
6.15501968503937
 31
0.0
  0
LINE
  5
2873
330
1E
100
AcDbEntity
  8
0
100
AcDbLine
 10
2.317913385826771
 20
6.164862204724409
 30
0.0
 11
2.317913385826771
 21
6.164862204724409
 31
0.0
  0
LINE
  5
2874
330
1E
100
AcDbEntity
  8
0
100
AcDbLine
 10
2.317913385826771
 20
6.164862204724409
 30
0.0
 11
2.317913385826771
 21
6.505413385826772
 31
0.0
  0
LINE
  5
2875
330
1E
100
AcDbEntity
  8
0
100
AcDbLine
 10
2.317913385826771
 20
6.505413385826772
 30
0.0
 11
2.317913385826771
 21
6.505413385826772
 31
0.0
  0
LINE
  5
2876
330
1E
100
AcDbEntity
  8
0
100
AcDbLine
 10
3.705708661417323
 20
6.15501968503937
 30
0.0
 11
3.705708661417323
 21
6.513287401574803
 31
0.0
  0
LINE
  5
2877
330
1E
100
AcDbEntity
  8
0
100
AcDbLine
 10
3.705708661417323
 20
6.513287401574803
 30
0.0
 11
2.371062992125984
 21
6.513287401574803
 31
0.0
  0
LINE
  5
2878
330
1E
100
AcDbEntity
  8
0
100
AcDbLine
 10
2.371062992125984
 20
6.513287401574803
 30
0.0
 11
2.371062992125984
 21
6.15501968503937
 31
0.0
  0
LINE
  5
2879
330
1E
100
AcDbEntity
  8
0
100
AcDbLine
 10
3.709645669291337
 20
6.513287401574803
 30
0.0
 11
3.750984251968504
 21
6.513287401574803
 31
0.0
  0
LINE
  5
287A
330
1E
100
AcDbEntity
  8
0
100
AcDbLine
 10
3.750984251968504
 20
6.513287401574803
 30
0.0
 11
3.750984251968504
 21
6.515255905511811
 31
0.0
  0
LINE
  5
287B
330
1E
100
AcDbEntity
  8
0
100
AcDbLine
 10
2.327755905511811
 20
6.515255905511811
 30
0.0
 11
2.327755905511811
 21
6.513287401574803
 31
0.0
  0
LINE
  5
287C
330
1E
100
AcDbEntity
  8
0
100
AcDbLine
 10
2.327755905511811
 20
6.513287401574803
 30
0.0
 11
2.369094488188976
 21
6.513287401574803
 31
0.0
  0
LINE
  5
287D
330
1E
100
AcDbEntity
  8
0
100
AcDbLine
 10
2.369094488188976
 20
6.513287401574803
 30
0.0
 11
2.371062992125984
 21
6.513287401574803
 31
0.0
  0
LINE
  5
287E
330
1E
100
AcDbEntity
  8
0
100
AcDbLine
 10
3.705708661417323
 20
6.513287401574803
 30
0.0
 11
3.709645669291337
 21
6.513287401574803
 31
0.0
  0
POLYLINE
  5
287F
330
1E
100
AcDbEntity
  8
0
100
AcDb2dPolyline
 66
     1
 10
0.0
 20
0.0
 30
0.0
  0
VERTEX
  5
2DD2
330
287F
100
AcDbEntity
  8
0
100
AcDbVertex
100
AcDb2dVertex
 10
2.327755905511811
 20
6.513287401574803
 30
0.0
  0
VERTEX
  5
2DD3
330
287F
100
AcDbEntity
  8
0
100
AcDbVertex
100
AcDb2dVertex
 10
2.321850393700787
 20
6.511318897637796
 30
0.0
  0
VERTEX
  5
2DD4
330
287F
100
AcDbEntity
  8
0
100
AcDbVertex
100
AcDb2dVertex
 10
2.317913385826771
 20
6.505413385826772
 30
0.0
  0
SEQEND
  5
2DD5
330
287F
100
AcDbEntity
  8
0
  0
POLYLINE
  5
2884
330
1E
100
AcDbEntity
  8
0
100
AcDb2dPolyline
 66
     1
 10
0.0
 20
0.0
 30
0.0
  0
VERTEX
  5
2DD6
330
2884
100
AcDbEntity
  8
0
100
AcDbVertex
100
AcDb2dVertex
 10
2.317913385826771
 20
6.164862204724409
 30
0.0
  0
VERTEX
  5
2DD7
330
2884
100
AcDbEntity
  8
0
100
AcDbVertex
100
AcDb2dVertex
 10
2.321850393700787
 20
6.156988188976377
 30
0.0
  0
VERTEX
  5
2DD8
330
2884
100
AcDbEntity
  8
0
100
AcDbVertex
100
AcDb2dVertex
 10
2.327755905511811
 20
6.15501968503937
 30
0.0
  0
SEQEND
  5
2DD9
330
2884
100
AcDbEntity
  8
0
  0
POLYLINE
  5
2889
330
1E
100
AcDbEntity
  8
0
100
AcDb2dPolyline
 66
     1
 10
0.0
 20
0.0
 30
0.0
  0
VERTEX
  5
2DDA
330
2889
100
AcDbEntity
  8
0
100
AcDbVertex
100
AcDb2dVertex
 10
3.758858267716536
 20
6.505413385826772
 30
0.0
  0
VERTEX
  5
2DDB
330
2889
100
AcDbEntity
  8
0
100
AcDbVertex
100
AcDb2dVertex
 10
3.756889763779526
 20
6.511318897637796
 30
0.0
  0
VERTEX
  5
2DDC
330
2889
100
AcDbEntity
  8
0
100
AcDbVertex
100
AcDb2dVertex
 10
3.750984251968504
 20
6.513287401574803
 30
0.0
  0
SEQEND
  5
2DDD
330
2889
100
AcDbEntity
  8
0
  0
POLYLINE
  5
288E
330
1E
100
AcDbEntity
  8
0
100
AcDb2dPolyline
 66
     1
 10
0.0
 20
0.0
 30
0.0
  0
VERTEX
  5
2DDE
330
288E
100
AcDbEntity
  8
0
100
AcDbVertex
100
AcDb2dVertex
 10
3.750984251968504
 20
6.15501968503937
 30
0.0
  0
VERTEX
  5
2DDF
330
288E
100
AcDbEntity
  8
0
100
AcDbVertex
100
AcDb2dVertex
 10
3.756889763779526
 20
6.156988188976377
 30
0.0
  0
VERTEX
  5
2DE0
330
288E
100
AcDbEntity
  8
0
100
AcDbVertex
100
AcDb2dVertex
 10
3.758858267716536
 20
6.164862204724409
 30
0.0
  0
SEQEND
  5
2DE1
330
288E
100
AcDbEntity
  8
0
  0
LINE
  5
2893
330
1E
100
AcDbEntity
  8
0
100
AcDbLine
 10
1.45767716535433
 20
5.176673228346457
 30
0.0
 11
1.45767716535433
 21
5.174704724409448
 31
0.0
  0
LINE
  5
2894
330
1E
100
AcDbEntity
  8
0
100
AcDbLine
 10
1.45767716535433
 20
5.174704724409448
 30
0.0
 11
1.455708661417323
 21
5.174704724409448
 31
0.0
  0
LINE
  5
2895
330
1E
100
AcDbEntity
  8
0
100
AcDbLine
 10
-0.103346456692913
 20
5.176673228346457
 30
0.0
 11
-0.103346456692913
 21
5.174704724409448
 31
0.0
  0
LINE
  5
2896
330
1E
100
AcDbEntity
  8
0
100
AcDbLine
 10
-0.103346456692913
 20
5.174704724409448
 30
0.0
 11
-0.103346456692913
 21
5.174704724409448
 31
0.0
  0
LINE
  5
2897
330
1E
100
AcDbEntity
  8
0
100
AcDbLine
 10
1.323818897637795
 20
5.940452755905511
 30
0.0
 11
0.0305118110236222
 21
5.940452755905511
 31
0.0
  0
POLYLINE
  5
2898
330
1E
100
AcDbEntity
  8
0
100
AcDb2dPolyline
 66
     1
 10
0.0
 20
0.0
 30
0.0
  0
VERTEX
  5
2DE2
330
2898
100
AcDbEntity
  8
0
100
AcDbVertex
100
AcDb2dVertex
 10
1.323818897637795
 20
5.940452755905511
 30
0.0
  0
VERTEX
  5
2DE3
330
2898
100
AcDbEntity
  8
0
100
AcDbVertex
100
AcDb2dVertex
 10
1.357283464566929
 20
5.930610236220472
 30
0.0
  0
VERTEX
  5
2DE4
330
2898
100
AcDbEntity
  8
0
100
AcDbVertex
100
AcDb2dVertex
 10
1.386811023622047
 20
5.903051181102362
 30
0.0
  0
VERTEX
  5
2DE5
330
2898
100
AcDbEntity
  8
0
100
AcDbVertex
100
AcDb2dVertex
 10
1.406496062992125
 20
5.861712598425196
 30
0.0
  0
VERTEX
  5
2DE6
330
2898
100
AcDbEntity
  8
0
100
AcDbVertex
100
AcDb2dVertex
 10
1.412401574803149
 20
5.8125
 30
0.0
  0
SEQEND
  5
2DE7
330
2898
100
AcDbEntity
  8
0
  0
LINE
  5
289F
330
1E
100
AcDbEntity
  8
0
100
AcDbLine
 10
1.412401574803149
 20
4.869586614173227
 30
0.0
 11
1.412401574803149
 21
5.8125
 31
0.0
  0
POLYLINE
  5
28A0
330
1E
100
AcDbEntity
  8
0
100
AcDb2dPolyline
 66
     1
 10
0.0
 20
0.0
 30
0.0
  0
VERTEX
  5
2DE8
330
28A0
100
AcDbEntity
  8
0
100
AcDbVertex
100
AcDb2dVertex
 10
1.412401574803149
 20
4.869586614173227
 30
0.0
  0
VERTEX
  5
2DE9
330
28A0
100
AcDbEntity
  8
0
100
AcDbVertex
100
AcDb2dVertex
 10
1.406496062992125
 20
4.820374015748031
 30
0.0
  0
VERTEX
  5
2DEA
330
28A0
100
AcDbEntity
  8
0
100
AcDbVertex
100
AcDb2dVertex
 10
1.386811023622047
 20
4.781003937007874
 30
0.0
  0
VERTEX
  5
2DEB
330
28A0
100
AcDbEntity
  8
0
100
AcDbVertex
100
AcDb2dVertex
 10
1.357283464566929
 20
4.753444881889764
 30
0.0
  0
VERTEX
  5
2DEC
330
28A0
100
AcDbEntity
  8
0
100
AcDbVertex
100
AcDb2dVertex
 10
1.323818897637795
 20
4.743602362204724
 30
0.0
  0
SEQEND
  5
2DED
330
28A0
100
AcDbEntity
  8
0
  0
LINE
  5
28A7
330
1E
100
AcDbEntity
  8
0
100
AcDbLine
 10
0.0305118110236222
 20
4.743602362204724
 30
0.0
 11
1.323818897637795
 21
4.743602362204724
 31
0.0
  0
POLYLINE
  5
28A8
330
1E
100
AcDbEntity
  8
0
100
AcDb2dPolyline
 66
     1
 10
0.0
 20
0.0
 30
0.0
  0
VERTEX
  5
2DEE
330
28A8
100
AcDbEntity
  8
0
100
AcDbVertex
100
AcDb2dVertex
 10
0.0305118110236222
 20
4.743602362204724
 30
0.0
  0
VERTEX
  5
2DEF
330
28A8
100
AcDbEntity
  8
0
100
AcDbVertex
100
AcDb2dVertex
 10
-0.0049212598425195
 20
4.753444881889764
 30
0.0
  0
VERTEX
  5
2DF0
330
28A8
100
AcDbEntity
  8
0
100
AcDbVertex
100
AcDb2dVertex
 10
-0.0324803149606297
 20
4.781003937007874
 30
0.0
  0
VERTEX
  5
2DF1
330
28A8
100
AcDbEntity
  8
0
100
AcDbVertex
100
AcDb2dVertex
 10
-0.0521653543307084
 20
4.820374015748031
 30
0.0
  0
VERTEX
  5
2DF2
330
28A8
100
AcDbEntity
  8
0
100
AcDbVertex
100
AcDb2dVertex
 10
-0.0600393700787398
 20
4.869586614173227
 30
0.0
  0
SEQEND
  5
2DF3
330
28A8
100
AcDbEntity
  8
0
  0
LINE
  5
28AF
330
1E
100
AcDbEntity
  8
0
100
AcDbLine
 10
-0.0600393700787398
 20
5.8125
 30
0.0
 11
-0.0600393700787398
 21
4.869586614173227
 31
0.0
  0
POLYLINE
  5
28B0
330
1E
100
AcDbEntity
  8
0
100
AcDb2dPolyline
 66
     1
 10
0.0
 20
0.0
 30
0.0
  0
VERTEX
  5
2DF4
330
28B0
100
AcDbEntity
  8
0
100
AcDbVertex
100
AcDb2dVertex
 10
-0.0600393700787398
 20
5.8125
 30
0.0
  0
VERTEX
  5
2DF5
330
28B0
100
AcDbEntity
  8
0
100
AcDbVertex
100
AcDb2dVertex
 10
-0.0521653543307084
 20
5.861712598425196
 30
0.0
  0
VERTEX
  5
2DF6
330
28B0
100
AcDbEntity
  8
0
100
AcDbVertex
100
AcDb2dVertex
 10
-0.0324803149606297
 20
5.903051181102362
 30
0.0
  0
VERTEX
  5
2DF7
330
28B0
100
AcDbEntity
  8
0
100
AcDbVertex
100
AcDb2dVertex
 10
-0.0049212598425195
 20
5.930610236220472
 30
0.0
  0
VERTEX
  5
2DF8
330
28B0
100
AcDbEntity
  8
0
100
AcDbVertex
100
AcDb2dVertex
 10
0.0305118110236222
 20
5.940452755905511
 30
0.0
  0
SEQEND
  5
2DF9
330
28B0
100
AcDbEntity
  8
0
  0
LINE
  5
28B7
330
1E
100
AcDbEntity
  8
0
100
AcDbLine
 10
-0.103346456692913
 20
5.174704724409448
 30
0.0
 11
-0.103346456692913
 21
5.507381889763779
 31
0.0
  0
LINE
  5
28B8
330
1E
100
AcDbEntity
  8
0
100
AcDbLine
 10
-0.103346456692913
 20
4.674704724409448
 30
0.0
 11
-0.103346456692913
 21
5.174704724409448
 31
0.0
  0
LINE
  5
28B9
330
1E
100
AcDbEntity
  8
0
100
AcDbLine
 10
-0.103346456692913
 20
4.674704724409448
 30
0.0
 11
1.45767716535433
 21
4.674704724409448
 31
0.0
  0
LINE
  5
28BA
330
1E
100
AcDbEntity
  8
0
100
AcDbLine
 10
1.45767716535433
 20
4.674704724409448
 30
0.0
 11
1.45767716535433
 21
5.174704724409448
 31
0.0
  0
LINE
  5
28BB
330
1E
100
AcDbEntity
  8
0
100
AcDbLine
 10
1.455708661417323
 20
5.507381889763779
 30
0.0
 11
1.455708661417323
 21
5.174704724409448
 31
0.0
  0
LINE
  5
28BC
330
1E
100
AcDbEntity
  8
0
100
AcDbLine
 10
1.45767716535433
 20
5.507381889763779
 30
0.0
 11
1.45767716535433
 21
6.009350393700787
 31
0.0
  0
LINE
  5
28BD
330
1E
100
AcDbEntity
  8
0
100
AcDbLine
 10
-0.103346456692913
 20
6.009350393700787
 30
0.0
 11
1.45767716535433
 21
6.009350393700787
 31
0.0
  0
LINE
  5
28BE
330
1E
100
AcDbEntity
  8
0
100
AcDbLine
 10
-0.103346456692913
 20
5.507381889763779
 30
0.0
 11
-0.103346456692913
 21
6.009350393700787
 31
0.0
  0
LINE
  5
28BF
330
1E
100
AcDbEntity
  8
0
100
AcDbLine
 10
0.0600393700787398
 20
5.219980314960629
 30
0.0
 11
0.0600393700787398
 21
4.761318897637796
 31
0.0
  0
LINE
  5
28C0
330
1E
100
AcDbEntity
  8
0
100
AcDbLine
 10
0.6427165354330713
 20
5.219980314960629
 30
0.0
 11
0.6427165354330713
 21
4.761318897637796
 31
0.0
  0
LINE
  5
28C1
330
1E
100
AcDbEntity
  8
0
100
AcDbLine
 10
0.6427165354330713
 20
4.796751968503937
 30
0.0
 11
0.0600393700787398
 21
4.796751968503937
 31
0.0
  0
LINE
  5
28C2
330
1E
100
AcDbEntity
  8
0
100
AcDbLine
 10
0.0600393700787398
 20
4.78494094488189
 30
0.0
 11
0.6427165354330713
 21
4.78494094488189
 31
0.0
  0
LINE
  5
28C3
330
1E
100
AcDbEntity
  8
0
100
AcDbLine
 10
1.292322834645669
 20
5.219980314960629
 30
0.0
 11
1.292322834645669
 21
4.761318897637796
 31
0.0
  0
LINE
  5
28C4
330
1E
100
AcDbEntity
  8
0
100
AcDbLine
 10
0.7116141732283463
 20
5.219980314960629
 30
0.0
 11
0.7116141732283463
 21
4.761318897637796
 31
0.0
  0
LINE
  5
28C5
330
1E
100
AcDbEntity
  8
0
100
AcDbLine
 10
1.292322834645669
 20
4.796751968503937
 30
0.0
 11
0.7116141732283463
 21
4.796751968503937
 31
0.0
  0
LINE
  5
28C6
330
1E
100
AcDbEntity
  8
0
100
AcDbLine
 10
0.7116141732283463
 20
4.78494094488189
 30
0.0
 11
1.292322834645669
 21
4.78494094488189
 31
0.0
  0
LINE
  5
28C7
330
1E
100
AcDbEntity
  8
0
100
AcDbLine
 10
0.0580708661417324
 20
5.406988188976377
 30
0.0
 11
1.296259842519685
 21
5.406988188976377
 31
0.0
  0
LINE
  5
28C8
330
1E
100
AcDbEntity
  8
0
100
AcDbLine
 10
1.296259842519685
 20
5.406988188976377
 30
0.0
 11
1.323818897637795
 21
5.940452755905511
 31
0.0
  0
LINE
  5
28C9
330
1E
100
AcDbEntity
  8
0
100
AcDbLine
 10
0.0305118110236222
 20
5.940452755905511
 30
0.0
 11
0.0580708661417324
 21
5.406988188976377
 31
0.0
  0
LINE
  5
28CA
330
1E
100
AcDbEntity
  8
0
100
AcDbLine
 10
1.412401574803149
 20
5.8125
 30
0.0
 11
1.388779527559055
 21
5.342027559055118
 31
0.0
  0
LINE
  5
28CB
330
1E
100
AcDbEntity
  8
0
100
AcDbLine
 10
1.388779527559055
 20
5.342027559055118
 30
0.0
 11
1.412401574803149
 21
4.869586614173227
 31
0.0
  0
LINE
  5
28CC
330
1E
100
AcDbEntity
  8
0
100
AcDbLine
 10
-0.0600393700787398
 20
4.869586614173227
 30
0.0
 11
-0.034448818897638
 21
5.342027559055118
 31
0.0
  0
LINE
  5
28CD
330
1E
100
AcDbEntity
  8
0
100
AcDbLine
 10
-0.034448818897638
 20
5.342027559055118
 30
0.0
 11
-0.0600393700787398
 21
5.8125
 31
0.0
  0
LINE
  5
28CE
330
1E
100
AcDbEntity
  8
0
100
AcDbLine
 10
0.0600393700787398
 20
5.219980314960629
 30
0.0
 11
0.6427165354330713
 21
5.219980314960629
 31
0.0
  0
LINE
  5
28CF
330
1E
100
AcDbEntity
  8
0
100
AcDbLine
 10
0.0600393700787398
 20
4.761318897637796
 30
0.0
 11
0.6427165354330713
 21
4.761318897637796
 31
0.0
  0
LINE
  5
28D0
330
1E
100
AcDbEntity
  8
0
100
AcDbLine
 10
0.7116141732283463
 20
5.219980314960629
 30
0.0
 11
1.292322834645669
 21
5.219980314960629
 31
0.0
  0
LINE
  5
28D1
330
1E
100
AcDbEntity
  8
0
100
AcDbLine
 10
1.323818897637795
 20
4.743602362204724
 30
0.0
 11
1.296259842519685
 21
5.27509842519685
 31
0.0
  0
LINE
  5
28D2
330
1E
100
AcDbEntity
  8
0
100
AcDbLine
 10
1.296259842519685
 20
5.27509842519685
 30
0.0
 11
0.0580708661417324
 21
5.27509842519685
 31
0.0
  0
LINE
  5
28D3
330
1E
100
AcDbEntity
  8
0
100
AcDbLine
 10
0.0580708661417324
 20
5.27509842519685
 30
0.0
 11
0.0305118110236222
 21
4.743602362204724
 31
0.0
  0
LINE
  5
28D4
330
1E
100
AcDbEntity
  8
0
100
AcDbLine
 10
0.7116141732283463
 20
4.761318897637796
 30
0.0
 11
1.292322834645669
 21
4.761318897637796
 31
0.0
  0
LINE
  5
28D5
330
1E
100
AcDbEntity
  8
0
100
AcDbLine
 10
0.4360236220472445
 20
4.910925196850394
 30
0.0
 11
0.268700787401575
 21
4.910925196850394
 31
0.0
  0
LINE
  5
28D6
330
1E
100
AcDbEntity
  8
0
100
AcDbLine
 10
0.4360236220472445
 20
4.910925196850394
 30
0.0
 11
0.4360236220472445
 21
4.938484251968503
 31
0.0
  0
LINE
  5
28D7
330
1E
100
AcDbEntity
  8
0
100
AcDbLine
 10
0.4340551181102362
 20
4.938484251968503
 30
0.0
 11
0.4360236220472445
 21
4.938484251968503
 31
0.0
  0
LINE
  5
28D8
330
1E
100
AcDbEntity
  8
0
100
AcDbLine
 10
0.4340551181102362
 20
4.910925196850394
 30
0.0
 11
0.4340551181102362
 21
4.938484251968503
 31
0.0
  0
LINE
  5
28D9
330
1E
100
AcDbEntity
  8
0
100
AcDbLine
 10
0.9202755905511814
 20
4.910925196850394
 30
0.0
 11
0.9202755905511814
 21
4.938484251968503
 31
0.0
  0
LINE
  5
28DA
330
1E
100
AcDbEntity
  8
0
100
AcDbLine
 10
0.9183070866141731
 20
4.938484251968503
 30
0.0
 11
0.9202755905511814
 21
4.938484251968503
 31
0.0
  0
LINE
  5
28DB
330
1E
100
AcDbEntity
  8
0
100
AcDbLine
 10
0.9183070866141731
 20
4.910925196850394
 30
0.0
 11
0.9183070866141731
 21
4.938484251968503
 31
0.0
  0
LINE
  5
28DC
330
1E
100
AcDbEntity
  8
0
100
AcDbLine
 10
1.085629921259842
 20
4.910925196850394
 30
0.0
 11
0.9183070866141731
 21
4.910925196850394
 31
0.0
  0
LINE
  5
28DD
330
1E
100
AcDbEntity
  8
0
100
AcDbLine
 10
0.268700787401575
 20
4.910925196850394
 30
0.0
 11
0.268700787401575
 21
4.938484251968503
 31
0.0
  0
LINE
  5
28DE
330
1E
100
AcDbEntity
  8
0
100
AcDbLine
 10
0.268700787401575
 20
4.938484251968503
 30
0.0
 11
0.268700787401575
 21
4.938484251968503
 31
0.0
  0
LINE
  5
28DF
330
1E
100
AcDbEntity
  8
0
100
AcDbLine
 10
0.268700787401575
 20
4.910925196850394
 30
0.0
 11
0.268700787401575
 21
4.938484251968503
 31
0.0
  0
LINE
  5
28E0
330
1E
100
AcDbEntity
  8
0
100
AcDbLine
 10
1.085629921259842
 20
4.910925196850394
 30
0.0
 11
1.085629921259842
 21
4.938484251968503
 31
0.0
  0
LINE
  5
28E1
330
1E
100
AcDbEntity
  8
0
100
AcDbLine
 10
1.085629921259842
 20
4.938484251968503
 30
0.0
 11
1.085629921259842
 21
4.938484251968503
 31
0.0
  0
LINE
  5
28E2
330
1E
100
AcDbEntity
  8
0
100
AcDbLine
 10
1.085629921259842
 20
4.910925196850394
 30
0.0
 11
1.085629921259842
 21
4.938484251968503
 31
0.0
  0
LINE
  5
28E3
330
1E
100
AcDbEntity
  8
0
100
AcDbLine
 10
1.083661417322834
 20
4.938484251968503
 30
0.0
 11
1.085629921259842
 21
4.938484251968503
 31
0.0
  0
LINE
  5
28E4
330
1E
100
AcDbEntity
  8
0
100
AcDbLine
 10
1.083661417322834
 20
4.938484251968503
 30
0.0
 11
1.083661417322834
 21
4.910925196850394
 31
0.0
  0
LINE
  5
28E5
330
1E
100
AcDbEntity
  8
0
100
AcDbLine
 10
1.079724409448818
 20
4.938484251968503
 30
0.0
 11
1.083661417322834
 21
4.938484251968503
 31
0.0
  0
LINE
  5
28E6
330
1E
100
AcDbEntity
  8
0
100
AcDbLine
 10
1.079724409448818
 20
4.938484251968503
 30
0.0
 11
1.079724409448818
 21
4.938484251968503
 31
0.0
  0
LINE
  5
28E7
330
1E
100
AcDbEntity
  8
0
100
AcDbLine
 10
1.079724409448818
 20
4.938484251968503
 30
0.0
 11
1.079724409448818
 21
4.910925196850394
 31
0.0
  0
LINE
  5
28E8
330
1E
100
AcDbEntity
  8
0
100
AcDbLine
 10
1.079724409448818
 20
4.938484251968503
 30
0.0
 11
0.9242125984251972
 21
4.938484251968503
 31
0.0
  0
LINE
  5
28E9
330
1E
100
AcDbEntity
  8
0
100
AcDbLine
 10
0.9242125984251972
 20
4.938484251968503
 30
0.0
 11
0.9242125984251972
 21
4.910925196850394
 31
0.0
  0
LINE
  5
28EA
330
1E
100
AcDbEntity
  8
0
100
AcDbLine
 10
0.9242125984251972
 20
4.938484251968503
 30
0.0
 11
0.9222440944881888
 21
4.938484251968503
 31
0.0
  0
LINE
  5
28EB
330
1E
100
AcDbEntity
  8
0
100
AcDbLine
 10
0.9202755905511814
 20
4.938484251968503
 30
0.0
 11
0.9222440944881888
 21
4.938484251968503
 31
0.0
  0
LINE
  5
28EC
330
1E
100
AcDbEntity
  8
0
100
AcDbLine
 10
0.4301181102362204
 20
4.938484251968503
 30
0.0
 11
0.4340551181102362
 21
4.938484251968503
 31
0.0
  0
LINE
  5
28ED
330
1E
100
AcDbEntity
  8
0
100
AcDbLine
 10
0.4301181102362204
 20
4.938484251968503
 30
0.0
 11
0.4301181102362204
 21
4.938484251968503
 31
0.0
  0
LINE
  5
28EE
330
1E
100
AcDbEntity
  8
0
100
AcDbLine
 10
0.4301181102362204
 20
4.910925196850394
 30
0.0
 11
0.4301181102362204
 21
4.938484251968503
 31
0.0
  0
LINE
  5
28EF
330
1E
100
AcDbEntity
  8
0
100
AcDbLine
 10
0.4301181102362204
 20
4.938484251968503
 30
0.0
 11
0.2746062992125982
 21
4.938484251968503
 31
0.0
  0
LINE
  5
28F0
330
1E
100
AcDbEntity
  8
0
100
AcDbLine
 10
0.2746062992125982
 20
4.910925196850394
 30
0.0
 11
0.2746062992125982
 21
4.938484251968503
 31
0.0
  0
LINE
  5
28F1
330
1E
100
AcDbEntity
  8
0
100
AcDbLine
 10
0.2746062992125982
 20
4.938484251968503
 30
0.0
 11
0.2726377952755907
 21
4.938484251968503
 31
0.0
  0
LINE
  5
28F2
330
1E
100
AcDbEntity
  8
0
100
AcDbLine
 10
0.268700787401575
 20
4.938484251968503
 30
0.0
 11
0.2726377952755907
 21
4.938484251968503
 31
0.0
  0
LINE
  5
28F3
330
1E
100
AcDbEntity
  8
0
100
AcDbLine
 10
0.9183070866141731
 20
4.938484251968503
 30
0.0
 11
0.7116141732283463
 21
4.938484251968503
 31
0.0
  0
LINE
  5
28F4
330
1E
100
AcDbEntity
  8
0
100
AcDbLine
 10
0.6427165354330713
 20
4.938484251968503
 30
0.0
 11
0.4360236220472445
 21
4.938484251968503
 31
0.0
  0
LINE
  5
28F5
330
1E
100
AcDbEntity
  8
0
100
AcDbLine
 10
0.0600393700787398
 20
4.910925196850394
 30
0.0
 11
0.268700787401575
 21
4.910925196850394
 31
0.0
  0
LINE
  5
28F6
330
1E
100
AcDbEntity
  8
0
100
AcDbLine
 10
0.268700787401575
 20
4.938484251968503
 30
0.0
 11
0.0600393700787398
 21
4.938484251968503
 31
0.0
  0
LINE
  5
28F7
330
1E
100
AcDbEntity
  8
0
100
AcDbLine
 10
0.0600393700787398
 20
4.847933070866142
 30
0.0
 11
0.6427165354330713
 21
4.847933070866142
 31
0.0
  0
LINE
  5
28F8
330
1E
100
AcDbEntity
  8
0
100
AcDbLine
 10
0.6427165354330713
 20
4.859744094488188
 30
0.0
 11
0.0600393700787398
 21
4.859744094488188
 31
0.0
  0
LINE
  5
28F9
330
1E
100
AcDbEntity
  8
0
100
AcDbLine
 10
0.6427165354330713
 20
4.899114173228346
 30
0.0
 11
0.0600393700787398
 21
4.899114173228346
 31
0.0
  0
LINE
  5
28FA
330
1E
100
AcDbEntity
  8
0
100
AcDbLine
 10
0.4360236220472445
 20
4.910925196850394
 30
0.0
 11
0.6427165354330713
 21
4.910925196850394
 31
0.0
  0
LINE
  5
28FB
330
1E
100
AcDbEntity
  8
0
100
AcDbLine
 10
1.292322834645669
 20
4.938484251968503
 30
0.0
 11
1.085629921259842
 21
4.938484251968503
 31
0.0
  0
LINE
  5
28FC
330
1E
100
AcDbEntity
  8
0
100
AcDbLine
 10
1.085629921259842
 20
4.910925196850394
 30
0.0
 11
1.292322834645669
 21
4.910925196850394
 31
0.0
  0
LINE
  5
28FD
330
1E
100
AcDbEntity
  8
0
100
AcDbLine
 10
0.7116141732283463
 20
4.910925196850394
 30
0.0
 11
0.9183070866141731
 21
4.910925196850394
 31
0.0
  0
LINE
  5
28FE
330
1E
100
AcDbEntity
  8
0
100
AcDbLine
 10
1.292322834645669
 20
4.899114173228346
 30
0.0
 11
0.7116141732283463
 21
4.899114173228346
 31
0.0
  0
LINE
  5
28FF
330
1E
100
AcDbEntity
  8
0
100
AcDbLine
 10
1.292322834645669
 20
4.859744094488188
 30
0.0
 11
0.7116141732283463
 21
4.859744094488188
 31
0.0
  0
LINE
  5
2900
330
1E
100
AcDbEntity
  8
0
100
AcDbLine
 10
0.7116141732283463
 20
4.847933070866142
 30
0.0
 11
1.292322834645669
 21
4.847933070866142
 31
0.0
  0
POLYLINE
  5
2901
330
1E
100
AcDbEntity
  8
0
100
AcDb2dPolyline
 66
     1
 10
0.0
 20
0.0
 30
0.0
  0
VERTEX
  5
2DFA
330
2901
100
AcDbEntity
  8
0
100
AcDbVertex
100
AcDb2dVertex
 10
1.296259842519685
 20
5.27509842519685
 30
0.0
  0
VERTEX
  5
2DFB
330
2901
100
AcDbEntity
  8
0
100
AcDbVertex
100
AcDb2dVertex
 10
1.296259842519685
 20
5.318405511811024
 30
0.0
  0
VERTEX
  5
2DFC
330
2901
100
AcDbEntity
  8
0
100
AcDbVertex
100
AcDb2dVertex
 10
1.296259842519685
 20
5.365649606299212
 30
0.0
  0
VERTEX
  5
2DFD
330
2901
100
AcDbEntity
  8
0
100
AcDbVertex
100
AcDb2dVertex
 10
1.296259842519685
 20
5.406988188976377
 30
0.0
  0
SEQEND
  5
2DFE
330
2901
100
AcDbEntity
  8
0
  0
POLYLINE
  5
2907
330
1E
100
AcDbEntity
  8
0
100
AcDb2dPolyline
 66
     1
 10
0.0
 20
0.0
 30
0.0
  0
VERTEX
  5
2DFF
330
2907
100
AcDbEntity
  8
0
100
AcDbVertex
100
AcDb2dVertex
 10
0.0580708661417324
 20
5.406988188976377
 30
0.0
  0
VERTEX
  5
2E00
330
2907
100
AcDbEntity
  8
0
100
AcDbVertex
100
AcDb2dVertex
 10
0.0580708661417324
 20
5.365649606299212
 30
0.0
  0
VERTEX
  5
2E01
330
2907
100
AcDbEntity
  8
0
100
AcDbVertex
100
AcDb2dVertex
 10
0.0580708661417324
 20
5.318405511811024
 30
0.0
  0
VERTEX
  5
2E02
330
2907
100
AcDbEntity
  8
0
100
AcDbVertex
100
AcDb2dVertex
 10
0.0580708661417324
 20
5.27509842519685
 30
0.0
  0
SEQEND
  5
2E03
330
2907
100
AcDbEntity
  8
0
  0
POLYLINE
  5
290D
330
1E
100
AcDbEntity
  8
0
100
AcDb2dPolyline
 66
     1
 10
0.0
 20
0.0
 30
0.0
  0
VERTEX
  5
2E04
330
290D
100
AcDbEntity
  8
0
100
AcDbVertex
100
AcDb2dVertex
 10
1.388779527559055
 20
5.342027559055118
 30
0.0
  0
VERTEX
  5
2E05
330
290D
100
AcDbEntity
  8
0
100
AcDbVertex
100
AcDb2dVertex
 10
1.375
 20
5.373523622047244
 30
0.0
  0
VERTEX
  5
2E06
330
290D
100
AcDbEntity
  8
0
100
AcDbVertex
100
AcDb2dVertex
 10
1.341535433070865
 20
5.397145669291338
 30
0.0
  0
VERTEX
  5
2E07
330
290D
100
AcDbEntity
  8
0
100
AcDbVertex
100
AcDb2dVertex
 10
1.296259842519685
 20
5.406988188976377
 30
0.0
  0
SEQEND
  5
2E08
330
290D
100
AcDbEntity
  8
0
  0
POLYLINE
  5
2913
330
1E
100
AcDbEntity
  8
0
100
AcDb2dPolyline
 66
     1
 10
0.0
 20
0.0
 30
0.0
  0
VERTEX
  5
2E09
330
2913
100
AcDbEntity
  8
0
100
AcDbVertex
100
AcDb2dVertex
 10
1.388779527559055
 20
5.342027559055118
 30
0.0
  0
VERTEX
  5
2E0A
330
2913
100
AcDbEntity
  8
0
100
AcDbVertex
100
AcDb2dVertex
 10
1.375
 20
5.308562992125985
 30
0.0
  0
VERTEX
  5
2E0B
330
2913
100
AcDbEntity
  8
0
100
AcDbVertex
100
AcDb2dVertex
 10
1.341535433070865
 20
5.28494094488189
 30
0.0
  0
VERTEX
  5
2E0C
330
2913
100
AcDbEntity
  8
0
100
AcDbVertex
100
AcDb2dVertex
 10
1.296259842519685
 20
5.27509842519685
 30
0.0
  0
SEQEND
  5
2E0D
330
2913
100
AcDbEntity
  8
0
  0
POLYLINE
  5
2919
330
1E
100
AcDbEntity
  8
0
100
AcDb2dPolyline
 66
     1
 10
0.0
 20
0.0
 30
0.0
  0
VERTEX
  5
2E0E
330
2919
100
AcDbEntity
  8
0
100
AcDbVertex
100
AcDb2dVertex
 10
-0.034448818897638
 20
5.342027559055118
 30
0.0
  0
VERTEX
  5
2E0F
330
2919
100
AcDbEntity
  8
0
100
AcDbVertex
100
AcDb2dVertex
 10
-0.0206692913385824
 20
5.308562992125985
 30
0.0
  0
VERTEX
  5
2E10
330
2919
100
AcDbEntity
  8
0
100
AcDbVertex
100
AcDb2dVertex
 10
0.012795275590551
 20
5.28494094488189
 30
0.0
  0
VERTEX
  5
2E11
330
2919
100
AcDbEntity
  8
0
100
AcDbVertex
100
AcDb2dVertex
 10
0.0580708661417324
 20
5.27509842519685
 30
0.0
  0
SEQEND
  5
2E12
330
2919
100
AcDbEntity
  8
0
  0
POLYLINE
  5
291F
330
1E
100
AcDbEntity
  8
0
100
AcDb2dPolyline
 66
     1
 10
0.0
 20
0.0
 30
0.0
  0
VERTEX
  5
2E13
330
291F
100
AcDbEntity
  8
0
100
AcDbVertex
100
AcDb2dVertex
 10
-0.034448818897638
 20
5.342027559055118
 30
0.0
  0
VERTEX
  5
2E14
330
291F
100
AcDbEntity
  8
0
100
AcDbVertex
100
AcDb2dVertex
 10
-0.0206692913385824
 20
5.373523622047244
 30
0.0
  0
VERTEX
  5
2E15
330
291F
100
AcDbEntity
  8
0
100
AcDbVertex
100
AcDb2dVertex
 10
0.012795275590551
 20
5.397145669291338
 30
0.0
  0
VERTEX
  5
2E16
330
291F
100
AcDbEntity
  8
0
100
AcDbVertex
100
AcDb2dVertex
 10
0.0580708661417324
 20
5.406988188976377
 30
0.0
  0
SEQEND
  5
2E17
330
291F
100
AcDbEntity
  8
0
  0
LINE
  5
2925
330
1E
100
AcDbEntity
  8
0
100
AcDbLine
 10
6.390748031496062
 20
5.406988188976377
 30
0.0
 11
6.924212598425197
 21
5.940452755905511
 31
0.0
  0
LINE
  5
2926
330
1E
100
AcDbEntity
  8
0
100
AcDbLine
 10
6.924212598425197
 20
5.8125
 30
0.0
 11
6.451771653543306
 21
5.342027559055118
 31
0.0
  0
LINE
  5
2927
330
1E
100
AcDbEntity
  8
0
100
AcDbLine
 10
6.451771653543306
 20
5.342027559055118
 30
0.0
 11
6.924212598425197
 21
4.869586614173227
 31
0.0
  0
LINE
  5
2928
330
1E
100
AcDbEntity
  8
0
100
AcDbLine
 10
6.924212598425197
 20
4.743602362204724
 30
0.0
 11
6.390748031496062
 21
5.27509842519685
 31
0.0
  0
LINE
  5
2929
330
1E
100
AcDbEntity
  8
0
100
AcDbLine
 10
7.3001968503937
 20
4.938484251968503
 30
0.0
 11
7.290354330708662
 21
4.938484251968503
 31
0.0
  0
POLYLINE
  5
292A
330
1E
100
AcDbEntity
  8
0
100
AcDb2dPolyline
 66
     1
 10
0.0
 20
0.0
 30
0.0
  0
VERTEX
  5
2E18
330
292A
100
AcDbEntity
  8
0
100
AcDbVertex
100
AcDb2dVertex
 10
7.3001968503937
 20
4.938484251968503
 30
0.0
  0
VERTEX
  5
2E19
330
292A
100
AcDbEntity
  8
0
100
AcDbVertex
100
AcDb2dVertex
 10
7.319881889763778
 20
4.928641732283464
 30
0.0
  0
VERTEX
  5
2E1A
330
292A
100
AcDbEntity
  8
0
100
AcDbVertex
100
AcDb2dVertex
 10
7.329724409448819
 20
4.908956692913385
 30
0.0
  0
SEQEND
  5
2E1B
330
292A
100
AcDbEntity
  8
0
  0
LINE
  5
292F
330
1E
100
AcDbEntity
  8
0
100
AcDbLine
 10
7.329724409448819
 20
4.908956692913385
 30
0.0
 11
7.329724409448819
 21
4.847933070866142
 31
0.0
  0
POLYLINE
  5
2930
330
1E
100
AcDbEntity
  8
0
100
AcDb2dPolyline
 66
     1
 10
0.0
 20
0.0
 30
0.0
  0
VERTEX
  5
2E1C
330
2930
100
AcDbEntity
  8
0
100
AcDbVertex
100
AcDb2dVertex
 10
7.290354330708662
 20
4.757381889763779
 30
0.0
  0
VERTEX
  5
2E1D
330
2930
100
AcDbEntity
  8
0
100
AcDbVertex
100
AcDb2dVertex
 10
7.319881889763778
 20
4.798720472440944
 30
0.0
  0
VERTEX
  5
2E1E
330
2930
100
AcDbEntity
  8
0
100
AcDbVertex
100
AcDb2dVertex
 10
7.329724409448819
 20
4.847933070866142
 30
0.0
  0
SEQEND
  5
2E1F
330
2930
100
AcDbEntity
  8
0
  0
LINE
  5
2935
330
1E
100
AcDbEntity
  8
0
100
AcDbLine
 10
7.290354330708662
 20
5.495570866141731
 30
0.0
 11
7.292322834645669
 21
5.495570866141731
 31
0.0
  0
LINE
  5
2936
330
1E
100
AcDbEntity
  8
0
100
AcDbLine
 10
7.292322834645669
 20
5.495570866141731
 30
0.0
 11
7.312007874015747
 21
5.495570866141731
 31
0.0
  0
LINE
  5
2937
330
1E
100
AcDbEntity
  8
0
100
AcDbLine
 10
7.441929133858267
 20
5.489665354330709
 30
0.0
 11
7.312007874015747
 21
5.495570866141731
 31
0.0
  0
LINE
  5
2938
330
1E
100
AcDbEntity
  8
0
100
AcDbLine
 10
7.441929133858267
 20
5.19242125984252
 30
0.0
 11
7.312007874015747
 21
5.188484251968503
 31
0.0
  0
LINE
  5
2939
330
1E
100
AcDbEntity
  8
0
100
AcDbLine
 10
7.292322834645669
 20
5.188484251968503
 30
0.0
 11
7.312007874015747
 21
5.188484251968503
 31
0.0
  0
LINE
  5
293A
330
1E
100
AcDbEntity
  8
0
100
AcDbLine
 10
7.290354330708662
 20
5.188484251968503
 30
0.0
 11
7.292322834645669
 21
5.188484251968503
 31
0.0
  0
LINE
  5
293B
330
1E
100
AcDbEntity
  8
0
100
AcDbLine
 10
7.312007874015747
 20
5.188484251968503
 30
0.0
 11
7.312007874015747
 21
5.495570866141731
 31
0.0
  0
LINE
  5
293C
330
1E
100
AcDbEntity
  8
0
100
AcDbLine
 10
7.292322834645669
 20
5.495570866141731
 30
0.0
 11
7.292322834645669
 21
5.188484251968503
 31
0.0
  0
LINE
  5
293D
330
1E
100
AcDbEntity
  8
0
100
AcDbLine
 10
7.441929133858267
 20
5.489665354330709
 30
0.0
 11
7.441929133858267
 21
5.19242125984252
 31
0.0
  0
POLYLINE
  5
293E
330
1E
100
AcDbEntity
  8
0
100
AcDb2dPolyline
 66
     1
 10
0.0
 20
0.0
 30
0.0
  0
VERTEX
  5
2E20
330
293E
100
AcDbEntity
  8
0
100
AcDbVertex
100
AcDb2dVertex
 10
6.390748031496062
 20
5.27509842519685
 30
0.0
  0
VERTEX
  5
2E21
330
293E
100
AcDbEntity
  8
0
100
AcDbVertex
100
AcDb2dVertex
 10
6.367125984251967
 20
5.318405511811024
 30
0.0
  0
VERTEX
  5
2E22
330
293E
100
AcDbEntity
  8
0
100
AcDbVertex
100
AcDb2dVertex
 10
6.367125984251967
 20
5.365649606299212
 30
0.0
  0
VERTEX
  5
2E23
330
293E
100
AcDbEntity
  8
0
100
AcDbVertex
100
AcDb2dVertex
 10
6.390748031496062
 20
5.406988188976377
 30
0.0
  0
SEQEND
  5
2E24
330
293E
100
AcDbEntity
  8
0
  0
POLYLINE
  5
2944
330
1E
100
AcDbEntity
  8
0
100
AcDb2dPolyline
 66
     1
 10
0.0
 20
0.0
 30
0.0
  0
VERTEX
  5
2E25
330
2944
100
AcDbEntity
  8
0
100
AcDbVertex
100
AcDb2dVertex
 10
6.451771653543306
 20
5.342027559055118
 30
0.0
  0
VERTEX
  5
2E26
330
2944
100
AcDbEntity
  8
0
100
AcDbVertex
100
AcDb2dVertex
 10
6.42027559055118
 20
5.373523622047244
 30
0.0
  0
VERTEX
  5
2E27
330
2944
100
AcDbEntity
  8
0
100
AcDbVertex
100
AcDb2dVertex
 10
6.398622047244095
 20
5.397145669291338
 30
0.0
  0
VERTEX
  5
2E28
330
2944
100
AcDbEntity
  8
0
100
AcDbVertex
100
AcDb2dVertex
 10
6.390748031496062
 20
5.406988188976377
 30
0.0
  0
SEQEND
  5
2E29
330
2944
100
AcDbEntity
  8
0
  0
POLYLINE
  5
294A
330
1E
100
AcDbEntity
  8
0
100
AcDb2dPolyline
 66
     1
 10
0.0
 20
0.0
 30
0.0
  0
VERTEX
  5
2E2A
330
294A
100
AcDbEntity
  8
0
100
AcDbVertex
100
AcDb2dVertex
 10
6.451771653543306
 20
5.342027559055118
 30
0.0
  0
VERTEX
  5
2E2B
330
294A
100
AcDbEntity
  8
0
100
AcDbVertex
100
AcDb2dVertex
 10
6.42027559055118
 20
5.308562992125985
 30
0.0
  0
VERTEX
  5
2E2C
330
294A
100
AcDbEntity
  8
0
100
AcDbVertex
100
AcDb2dVertex
 10
6.398622047244095
 20
5.28494094488189
 30
0.0
  0
VERTEX
  5
2E2D
330
294A
100
AcDbEntity
  8
0
100
AcDbVertex
100
AcDb2dVertex
 10
6.390748031496062
 20
5.27509842519685
 30
0.0
  0
SEQEND
  5
2E2E
330
294A
100
AcDbEntity
  8
0
  0
POLYLINE
  5
2950
330
1E
100
AcDbEntity
  8
0
100
AcDb2dPolyline
 66
     1
 10
0.0
 20
0.0
 30
0.0
  0
VERTEX
  5
2E2F
330
2950
100
AcDbEntity
  8
0
100
AcDbVertex
100
AcDb2dVertex
 10
7.290354330708662
 20
7.281003937007874
 30
0.0
  0
VERTEX
  5
2E30
330
2950
100
AcDbEntity
  8
0
100
AcDbVertex
100
AcDb2dVertex
 10
7.290354330708662
 20
7.271161417322835
 30
0.0
  0
VERTEX
  5
2E31
330
2950
100
AcDbEntity
  8
0
100
AcDbVertex
100
AcDb2dVertex
 10
7.290354330708662
 20
7.249507874015748
 30
0.0
  0
SEQEND
  5
2E32
330
2950
100
AcDbEntity
  8
0
  0
LINE
  5
2955
330
1E
100
AcDbEntity
  8
0
100
AcDbLine
 10
7.290354330708662
 20
3.926673228346457
 30
0.0
 11
7.290354330708662
 21
7.249507874015748
 31
0.0
  0
POLYLINE
  5
2956
330
1E
100
AcDbEntity
  8
0
100
AcDb2dPolyline
 66
     1
 10
0.0
 20
0.0
 30
0.0
  0
VERTEX
  5
2E33
330
2956
100
AcDbEntity
  8
0
100
AcDbVertex
100
AcDb2dVertex
 10
7.290354330708662
 20
3.926673228346457
 30
0.0
  0
VERTEX
  5
2E34
330
2956
100
AcDbEntity
  8
0
100
AcDbVertex
100
AcDb2dVertex
 10
7.290354330708662
 20
3.903051181102362
 30
0.0
  0
VERTEX
  5
2E35
330
2956
100
AcDbEntity
  8
0
100
AcDbVertex
100
AcDb2dVertex
 10
7.290354330708662
 20
3.895177165354331
 30
0.0
  0
SEQEND
  5
2E36
330
2956
100
AcDbEntity
  8
0
  0
POLYLINE
  5
295B
330
1E
100
AcDbEntity
  8
0
100
AcDb2dPolyline
 66
     1
 10
0.0
 20
0.0
 30
0.0
  0
VERTEX
  5
2E37
330
295B
100
AcDbEntity
  8
0
100
AcDbVertex
100
AcDb2dVertex
 10
6.924212598425197
 20
3.934547244094488
 30
0.0
  0
VERTEX
  5
2E38
330
295B
100
AcDbEntity
  8
0
100
AcDbVertex
100
AcDb2dVertex
 10
6.924212598425197
 20
3.938484251968503
 30
0.0
  0
VERTEX
  5
2E39
330
295B
100
AcDbEntity
  8
0
100
AcDbVertex
100
AcDb2dVertex
 10
6.924212598425197
 20
3.950295275590551
 30
0.0
  0
SEQEND
  5
2E3A
330
295B
100
AcDbEntity
  8
0
  0
LINE
  5
2960
330
1E
100
AcDbEntity
  8
0
100
AcDbLine
 10
6.924212598425197
 20
3.950295275590551
 30
0.0
 11
6.924212598425197
 21
7.223917322834646
 31
0.0
  0
POLYLINE
  5
2961
330
1E
100
AcDbEntity
  8
0
100
AcDb2dPolyline
 66
     1
 10
0.0
 20
0.0
 30
0.0
  0
VERTEX
  5
2E3B
330
2961
100
AcDbEntity
  8
0
100
AcDbVertex
100
AcDb2dVertex
 10
6.924212598425197
 20
7.223917322834646
 30
0.0
  0
VERTEX
  5
2E3C
330
2961
100
AcDbEntity
  8
0
100
AcDbVertex
100
AcDb2dVertex
 10
6.924212598425197
 20
7.235728346456692
 30
0.0
  0
VERTEX
  5
2E3D
330
2961
100
AcDbEntity
  8
0
100
AcDbVertex
100
AcDb2dVertex
 10
6.924212598425197
 20
7.239665354330709
 30
0.0
  0
SEQEND
  5
2E3E
330
2961
100
AcDbEntity
  8
0
  0
LINE
  5
2966
330
1E
100
AcDbEntity
  8
0
100
AcDbLine
 10
7.290354330708662
 20
3.895177165354331
 30
0.0
 11
6.937992125984252
 21
3.918799212598425
 31
0.0
  0
LINE
  5
2967
330
1E
100
AcDbEntity
  8
0
100
AcDbLine
 10
6.937992125984252
 20
7.255413385826772
 30
0.0
 11
7.290354330708662
 21
7.281003937007874
 31
0.0
  0
LINE
  5
2968
330
1E
100
AcDbEntity
  8
0
100
AcDbLine
 10
7.290354330708662
 20
7.249507874015748
 30
0.0
 11
6.937992125984252
 21
7.223917322834646
 31
0.0
  0
LINE
  5
2969
330
1E
100
AcDbEntity
  8
0
100
AcDbLine
 10
6.937992125984252
 20
7.223917322834646
 30
0.0
 11
6.937992125984252
 21
3.950295275590551
 31
0.0
  0
LINE
  5
296A
330
1E
100
AcDbEntity
  8
0
100
AcDbLine
 10
6.937992125984252
 20
3.950295275590551
 30
0.0
 11
7.290354330708662
 21
3.926673228346457
 31
0.0
  0
POLYLINE
  5
296B
330
1E
100
AcDbEntity
  8
0
100
AcDb2dPolyline
 66
     1
 10
0.0
 20
0.0
 30
0.0
  0
VERTEX
  5
2E3F
330
296B
100
AcDbEntity
  8
0
100
AcDbVertex
100
AcDb2dVertex
 10
6.937992125984252
 20
7.255413385826772
 30
0.0
  0
VERTEX
  5
2E40
330
296B
100
AcDbEntity
  8
0
100
AcDbVertex
100
AcDb2dVertex
 10
6.937992125984252
 20
7.24753937007874
 30
0.0
  0
VERTEX
  5
2E41
330
296B
100
AcDbEntity
  8
0
100
AcDbVertex
100
AcDb2dVertex
 10
6.937992125984252
 20
7.223917322834646
 30
0.0
  0
SEQEND
  5
2E42
330
296B
100
AcDbEntity
  8
0
  0
POLYLINE
  5
2970
330
1E
100
AcDbEntity
  8
0
100
AcDb2dPolyline
 66
     1
 10
0.0
 20
0.0
 30
0.0
  0
VERTEX
  5
2E43
330
2970
100
AcDbEntity
  8
0
100
AcDbVertex
100
AcDb2dVertex
 10
6.937992125984252
 20
3.950295275590551
 30
0.0
  0
VERTEX
  5
2E44
330
2970
100
AcDbEntity
  8
0
100
AcDbVertex
100
AcDb2dVertex
 10
6.937992125984252
 20
3.928641732283464
 30
0.0
  0
VERTEX
  5
2E45
330
2970
100
AcDbEntity
  8
0
100
AcDbVertex
100
AcDb2dVertex
 10
6.937992125984252
 20
3.918799212598425
 30
0.0
  0
SEQEND
  5
2E46
330
2970
100
AcDbEntity
  8
0
  0
POLYLINE
  5
2975
330
1E
100
AcDbEntity
  8
0
100
AcDb2dPolyline
 66
     1
 10
0.0
 20
0.0
 30
0.0
  0
VERTEX
  5
2E47
330
2975
100
AcDbEntity
  8
0
100
AcDbVertex
100
AcDb2dVertex
 10
6.937992125984252
 20
7.223917322834646
 30
0.0
  0
VERTEX
  5
2E48
330
2975
100
AcDbEntity
  8
0
100
AcDbVertex
100
AcDb2dVertex
 10
6.928149606299212
 20
7.223917322834646
 30
0.0
  0
VERTEX
  5
2E49
330
2975
100
AcDbEntity
  8
0
100
AcDbVertex
100
AcDb2dVertex
 10
6.924212598425197
 20
7.223917322834646
 30
0.0
  0
SEQEND
  5
2E4A
330
2975
100
AcDbEntity
  8
0
  0
POLYLINE
  5
297A
330
1E
100
AcDbEntity
  8
0
100
AcDb2dPolyline
 66
     1
 10
0.0
 20
0.0
 30
0.0
  0
VERTEX
  5
2E4B
330
297A
100
AcDbEntity
  8
0
100
AcDbVertex
100
AcDb2dVertex
 10
6.924212598425197
 20
7.239665354330709
 30
0.0
  0
VERTEX
  5
2E4C
330
297A
100
AcDbEntity
  8
0
100
AcDbVertex
100
AcDb2dVertex
 10
6.928149606299212
 20
7.251476377952755
 30
0.0
  0
VERTEX
  5
2E4D
330
297A
100
AcDbEntity
  8
0
100
AcDbVertex
100
AcDb2dVertex
 10
6.937992125984252
 20
7.255413385826772
 30
0.0
  0
SEQEND
  5
2E4E
330
297A
100
AcDbEntity
  8
0
  0
POLYLINE
  5
297F
330
1E
100
AcDbEntity
  8
0
100
AcDb2dPolyline
 66
     1
 10
0.0
 20
0.0
 30
0.0
  0
VERTEX
  5
2E4F
330
297F
100
AcDbEntity
  8
0
100
AcDbVertex
100
AcDb2dVertex
 10
6.937992125984252
 20
3.950295275590551
 30
0.0
  0
VERTEX
  5
2E50
330
297F
100
AcDbEntity
  8
0
100
AcDbVertex
100
AcDb2dVertex
 10
6.928149606299212
 20
3.950295275590551
 30
0.0
  0
VERTEX
  5
2E51
330
297F
100
AcDbEntity
  8
0
100
AcDbVertex
100
AcDb2dVertex
 10
6.924212598425197
 20
3.950295275590551
 30
0.0
  0
SEQEND
  5
2E52
330
297F
100
AcDbEntity
  8
0
  0
POLYLINE
  5
2984
330
1E
100
AcDbEntity
  8
0
100
AcDb2dPolyline
 66
     1
 10
0.0
 20
0.0
 30
0.0
  0
VERTEX
  5
2E53
330
2984
100
AcDbEntity
  8
0
100
AcDbVertex
100
AcDb2dVertex
 10
6.937992125984252
 20
3.918799212598425
 30
0.0
  0
VERTEX
  5
2E54
330
2984
100
AcDbEntity
  8
0
100
AcDbVertex
100
AcDb2dVertex
 10
6.928149606299212
 20
3.924704724409448
 30
0.0
  0
VERTEX
  5
2E55
330
2984
100
AcDbEntity
  8
0
100
AcDbVertex
100
AcDb2dVertex
 10
6.924212598425197
 20
3.934547244094488
 30
0.0
  0
SEQEND
  5
2E56
330
2984
100
AcDbEntity
  8
0
  0
ENDSEC
  0
SECTION
  2
OBJECTS
  0
DICTIONARY
  5
C
330
0
100
AcDbDictionary
  3
ACAD_GROUP
350
D
  3
ACAD_MLINESTYLE
350
16
  3
ACAD_PLOTSETTINGS
350
18
  3
ACAD_LAYOUT
350
19
1001
ACAD
1000
TREAT_AS_HARD
1070
     0
  0
DICTIONARY
  5
2C5E
330
1E
100
AcDbDictionary
  3
ACAD_LAYOUTSELFREF
350
2C5F
  0
DICTIONARY
  5
2C5C
330
1A
100
AcDbDictionary
  3
ACAD_LAYOUTSELFREF
350
2C5D
  0
DICTIONARY
  5
D
102
{ACAD_REACTORS
330
C
102
}
330
C
100
AcDbDictionary
1001
ACAD
1000
TREAT_AS_HARD
1070
     0
  0
DICTIONARY
  5
16
102
{ACAD_REACTORS
330
C
102
}
330
C
100
AcDbDictionary
  3
STANDARD
350
17
1001
ACAD
1000
TREAT_AS_HARD
1070
     0
  0
DICTIONARY
  5
18
102
{ACAD_REACTORS
330
C
102
}
330
C
100
AcDbDictionary
1001
ACAD
1000
TREAT_AS_HARD
1070
     0
  0
DICTIONARY
  5
19
102
{ACAD_REACTORS
330
C
102
}
330
C
100
AcDbDictionary
1001
ACAD
1000
TREAT_AS_HARD
1070
     0
  0
XRECORD
  5
2C5F
102
{ACAD_REACTORS
330
2C5E
102
}
330
2C5E
100
AcDbXrecord
340
1E
  0
XRECORD
  5
2C5D
102
{ACAD_REACTORS
330
2C5C
102
}
330
2C5C
100
AcDbXrecord
340
1A
  0
MLINESTYLE
  5
17
102
{ACAD_REACTORS
330
16
102
}
330
16
100
AcDbMlineStyle
  2
STANDARD
 70
     0
  3

 62
   256
 51
90.0
 52
90.0
 71
     2
 49
0.5
 62
   256
  6
BYLAYER
 49
-0.5
 62
   256
  6
BYLAYER
  0
ENDSEC
  0
EOF
