  0
SECTION
  2
HEADER
  9
$ACADVER
  1
AC1012
  9
$DWGCODEPAGE
  3
ANSI_1252
  9
$INSBASE
 10
0.0
 20
0.0
 30
0.0
  9
$EXTMIN
 10
1.485534697637817
 20
5.081588771987693
 30
-0.0015258207003583
  9
$EXTMAX
 10
5.436035176548216
 20
6.853820819237526
 30
0.0000000349246037
  9
$LIMMIN
 10
0.0
 20
0.0
  9
$LIMMAX
 10
12.0
 20
9.0
  9
$ORTHOMODE
 70
     0
  9
$REGENMODE
 70
     1
  9
$FILLMODE
 70
     1
  9
$QTEXTMODE
 70
     0
  9
$MIRRTEXT
 70
     1
  9
$DRAGMODE
 70
     2
  9
$LTSCALE
 40
1.0
  9
$OSMODE
 70
   547
  9
$ATTMODE
 70
     1
  9
$TEXTSIZE
 40
0.2
  9
$TRACEWID
 40
0.05
  9
$TEXTSTYLE
  7
STANDARD
  9
$CLAYER
  8
0
  9
$CELTYPE
  6
BYLAYER
  9
$CECOLOR
 62
   256
  9
$CELTSCALE
 40
1.0
  9
$DELOBJ
 70
     1
  9
$DISPSILH
 70
     0
  9
$DIMSCALE
 40
1.0
  9
$DIMASZ
 40
0.18
  9
$DIMEXO
 40
0.0625
  9
$DIMDLI
 40
0.38
  9
$DIMRND
 40
0.0
  9
$DIMDLE
 40
0.0
  9
$DIMEXE
 40
0.18
  9
$DIMTP
 40
0.0
  9
$DIMTM
 40
0.0
  9
$DIMTXT
 40
0.18
  9
$DIMCEN
 40
0.09
  9
$DIMTSZ
 40
0.0
  9
$DIMTOL
 70
     0
  9
$DIMLIM
 70
     0
  9
$DIMTIH
 70
     1
  9
$DIMTOH
 70
     1
  9
$DIMSE1
 70
     0
  9
$DIMSE2
 70
     0
  9
$DIMTAD
 70
     0
  9
$DIMZIN
 70
     0
  9
$DIMBLK
  1

  9
$DIMASO
 70
     1
  9
$DIMSHO
 70
     1
  9
$DIMPOST
  1

  9
$DIMAPOST
  1

  9
$DIMALT
 70
     0
  9
$DIMALTD
 70
     2
  9
$DIMALTF
 40
25.4
  9
$DIMLFAC
 40
1.0
  9
$DIMTOFL
 70
     0
  9
$DIMTVP
 40
0.0
  9
$DIMTIX
 70
     0
  9
$DIMSOXD
 70
     0
  9
$DIMSAH
 70
     0
  9
$DIMBLK1
  1

  9
$DIMBLK2
  1

  9
$DIMSTYLE
  2
STANDARD
  9
$DIMCLRD
 70
     0
  9
$DIMCLRE
 70
     0
  9
$DIMCLRT
 70
     0
  9
$DIMTFAC
 40
1.0
  9
$DIMGAP
 40
0.09
  9
$DIMJUST
 70
     0
  9
$DIMSD1
 70
     0
  9
$DIMSD2
 70
     0
  9
$DIMTOLJ
 70
     1
  9
$DIMTZIN
 70
     0
  9
$DIMALTZ
 70
     0
  9
$DIMALTTZ
 70
     0
  9
$DIMFIT
 70
     5
  9
$DIMUPT
 70
     0
  9
$DIMUNIT
 70
     2
  9
$DIMDEC
 70
     4
  9
$DIMTDEC
 70
     4
  9
$DIMALTU
 70
     2
  9
$DIMALTTD
 70
     2
  9
$DIMTXSTY
  7
STANDARD
  9
$DIMAUNIT
 70
     0
  9
$LUNITS
 70
     2
  9
$LUPREC
 70
     4
  9
$SKETCHINC
 40
0.1
  9
$FILLETRAD
 40
0.0
  9
$AUNITS
 70
     0
  9
$AUPREC
 70
     0
  9
$MENU
  1
acad
  9
$ELEVATION
 40
0.0
  9
$PELEVATION
 40
0.0
  9
$THICKNESS
 40
0.0
  9
$LIMCHECK
 70
     0
  9
$BLIPMODE
 70
     0
  9
$CHAMFERA
 40
0.0
  9
$CHAMFERB
 40
0.0
  9
$CHAMFERC
 40
0.0
  9
$CHAMFERD
 40
0.0
  9
$SKPOLY
 70
     0
  9
$TDCREATE
 40
2454124.481412037
  9
$TDUPDATE
 40
2454124.482123217
  9
$TDINDWG
 40
0.0006070949
  9
$TDUSRTIMER
 40
0.0006070949
  9
$USRTIMER
 70
     1
  9
$ANGBASE
 50
0.0
  9
$ANGDIR
 70
     0
  9
$PDMODE
 70
     0
  9
$PDSIZE
 40
0.0
  9
$PLINEWID
 40
0.0
  9
$COORDS
 70
     1
  9
$SPLFRAME
 70
     0
  9
$SPLINETYPE
 70
     6
  9
$SPLINESEGS
 70
     8
  9
$ATTDIA
 70
     0
  9
$ATTREQ
 70
     1
  9
$HANDLING
 70
  4097
  9
$HANDSEED
  5
2D07
  9
$SURFTAB1
 70
     6
  9
$SURFTAB2
 70
     6
  9
$SURFTYPE
 70
     6
  9
$SURFU
 70
     6
  9
$SURFV
 70
     6
  9
$UCSNAME
  2

  9
$UCSORG
 10
0.0
 20
0.0
 30
0.0
  9
$UCSXDIR
 10
1.0
 20
0.0
 30
0.0
  9
$UCSYDIR
 10
0.0
 20
1.0
 30
0.0
  9
$PUCSNAME
  2

  9
$PUCSORG
 10
0.0
 20
0.0
 30
0.0
  9
$PUCSXDIR
 10
1.0
 20
0.0
 30
0.0
  9
$PUCSYDIR
 10
0.0
 20
1.0
 30
0.0
  9
$USERI1
 70
     0
  9
$USERI2
 70
     0
  9
$USERI3
 70
     0
  9
$USERI4
 70
     0
  9
$USERI5
 70
     0
  9
$USERR1
 40
0.0
  9
$USERR2
 40
0.0
  9
$USERR3
 40
0.0
  9
$USERR4
 40
0.0
  9
$USERR5
 40
0.0
  9
$WORLDVIEW
 70
     1
  9
$SHADEDGE
 70
     3
  9
$SHADEDIF
 70
    70
  9
$TILEMODE
 70
     1
  9
$MAXACTVP
 70
    16
  9
$PINSBASE
 10
0.0
 20
0.0
 30
0.0
  9
$PLIMCHECK
 70
     0
  9
$PEXTMIN
 10
1.000000000000000E+20
 20
1.000000000000000E+20
 30
1.000000000000000E+20
  9
$PEXTMAX
 10
-1.000000000000000E+20
 20
-1.000000000000000E+20
 30
-1.000000000000000E+20
  9
$PLIMMIN
 10
0.0
 20
0.0
  9
$PLIMMAX
 10
12.0
 20
9.0
  9
$UNITMODE
 70
     0
  9
$VISRETAIN
 70
     0
  9
$PLINEGEN
 70
     0
  9
$PSLTSCALE
 70
     1
  9
$TREEDEPTH
 70
  3020
  9
$PICKSTYLE
 70
     1
  9
$CMLSTYLE
  2
STANDARD
  9
$CMLJUST
 70
     0
  9
$CMLSCALE
 40
1.0
  9
$SAVEIMAGES
 70
     1
  0
ENDSEC
  0
SECTION
  2
CLASSES
  0
CLASS
  1
ACDBDICTIONARYWDFLT
  2
AcDbDictionaryWithDefault
  3
AutoCAD 2000
 90
    32768
280
     0
281
     0
  0
CLASS
  1
ACDBPLACEHOLDER
  2
AcDbPlaceHolder
  3
AutoCAD 2000
 90
    32768
280
     0
281
     0
  0
CLASS
  1
LAYOUT
  2
AcDbLayout
  3
AutoCAD 2000
 90
    32768
280
     0
281
     0
  0
CLASS
  1
LONG_TRANSACTION
  2
AcDbLongTransaction
  3
AutoCAD 2000
 90
    32768
280
     0
281
     0
  0
CLASS
  1
LWPOLYLINE
  2
AcDbPolyline
  3
AutoCAD 2000
 90
    32768
280
     0
281
     1
  0
CLASS
  1
HATCH
  2
AcDbHatch
  3
AutoCAD 2000
 90
    32768
280
     0
281
     1
  0
CLASS
  1
XRECORD
  2
AcDbXrecord
  3
AutoCAD 2000
 90
    32768
280
     0
281
     0
  0
ENDSEC
  0
SECTION
  2
TABLES
  0
TABLE
  2
VPORT
  5
8
330
0
100
AcDbSymbolTable
 70
     3
  0
VPORT
  5
2B38
330
8
100
AcDbSymbolTableRecord
100
AcDbViewportTableRecord
  2
*ACTIVE
 70
     0
 10
0.0
 20
0.0
 11
1.0
 21
1.0
 12
3.460784937093016
 22
5.967704795612609
 13
0.0
 23
0.0
 14
1.0
 24
1.0
 15
0.0
 25
0.0
 16
0.0
 26
0.0
 36
1.0
 17
0.0
 27
0.0
 37
0.0
 40
2.284094381634135
 41
1.740671641791044
 42
50.0
 43
0.0
 44
0.0
 50
0.0
 51
0.0
 71
     0
 72
   100
 73
     1
 74
     1
 75
     0
 76
     0
 77
     0
 78
     0
  0
ENDTAB
  0
TABLE
  2
LTYPE
  5
5
330
0
100
AcDbSymbolTable
 70
    25
  0
LTYPE
  5
13
330
5
100
AcDbSymbolTableRecord
100
AcDbLinetypeTableRecord
  2
BYBLOCK
 70
     0
  3

 72
    65
 73
     0
 40
0.0
  0
LTYPE
  5
14
330
5
100
AcDbSymbolTableRecord
100
AcDbLinetypeTableRecord
  2
BYLAYER
 70
     0
  3

 72
    65
 73
     0
 40
0.0
  0
LTYPE
  5
15
330
5
100
AcDbSymbolTableRecord
100
AcDbLinetypeTableRecord
  2
CONTINUOUS
 70
     0
  3
Solid line
 72
    65
 73
     0
 40
0.0
  0
LTYPE
  5
22
330
5
100
AcDbSymbolTableRecord
100
AcDbLinetypeTableRecord
  2
BORDER
 70
     0
  3
__ __ . __ __ . __ __ . __ __ . __ __ . __ __ .
 72
    65
 73
     6
 40
1.75
 49
0.5
 74
     0
 49
-0.25
 74
     0
 49
0.5
 74
     0
 49
-0.25
 74
     0
 49
0.5
 74
     0
 49
-0.25
 74
     0
  0
LTYPE
  5
23
330
5
100
AcDbSymbolTableRecord
100
AcDbLinetypeTableRecord
  2
BORDER2
 70
     0
  3
__.__.__.__.__.__.__.__.
 72
    65
 73
     6
 40
0.875
 49
0.25
 74
     0
 49
-0.125
 74
     0
 49
0.25
 74
     0
 49
-0.125
 74
     0
 49
0.25
 74
     0
 49
-0.125
 74
     0
  0
LTYPE
  5
24
330
5
100
AcDbSymbolTableRecord
100
AcDbLinetypeTableRecord
  2
BORDERX2
 70
     0
  3
____  ____  .  
 72
    65
 73
     6
 40
3.5
 49
1.0
 74
     0
 49
-0.5
 74
     0
 49
1.0
 74
     0
 49
-0.5
 74
     0
 49
1.0
 74
     0
 49
-0.5
 74
     0
  0
LTYPE
  5
25
330
5
100
AcDbSymbolTableRecord
100
AcDbLinetypeTableRecord
  2
CENTER
 70
     0
  3
____ _ ____ _ ____ _ 
 72
    65
 73
     4
 40
2.0
 49
1.25
 74
     0
 49
-0.25
 74
     0
 49
0.25
 74
     0
 49
-0.25
 74
     0
  0
LTYPE
  5
26
330
5
100
AcDbSymbolTableRecord
100
AcDbLinetypeTableRecord
  2
CENTER2
 70
     0
  3
____ _ ____ _ ____ _ 
 72
    65
 73
     4
 40
1.125
 49
0.75
 74
     0
 49
-0.125
 74
     0
 49
0.125
 74
     0
 49
-0.125
 74
     0
  0
LTYPE
  5
27
330
5
100
AcDbSymbolTableRecord
100
AcDbLinetypeTableRecord
  2
CENTERX2
 70
     0
  3
________  __  
 72
    65
 73
     4
 40
4.0
 49
2.5
 74
     0
 49
-0.5
 74
     0
 49
0.5
 74
     0
 49
-0.5
 74
     0
  0
LTYPE
  5
28
330
5
100
AcDbSymbolTableRecord
100
AcDbLinetypeTableRecord
  2
DASHDOT
 70
     0
  3
__ . __ . __ . __ . 
 72
    65
 73
     4
 40
1.0
 49
0.5
 74
     0
 49
-0.25
 74
     0
 49
0.0
 74
     0
 49
-0.25
 74
     0
  0
LTYPE
  5
29
330
5
100
AcDbSymbolTableRecord
100
AcDbLinetypeTableRecord
  2
DASHDOT2
 70
     0
  3
_._._._._._._._._.
 72
    65
 73
     4
 40
0.5
 49
0.25
 74
     0
 49
-0.125
 74
     0
 49
0.0
 74
     0
 49
-0.125
 74
     0
  0
LTYPE
  5
2A
330
5
100
AcDbSymbolTableRecord
100
AcDbLinetypeTableRecord
  2
DASHDOTX2
 70
     0
  3
____  .  ____  .  
 72
    65
 73
     4
 40
2.0
 49
1.0
 74
     0
 49
-0.5
 74
     0
 49
0.0
 74
     0
 49
-0.5
 74
     0
  0
LTYPE
  5
2B
330
5
100
AcDbSymbolTableRecord
100
AcDbLinetypeTableRecord
  2
DASHED
 70
     0
  3
__ __ __ __ __ __ __ 
 72
    65
 73
     2
 40
0.75
 49
0.5
 74
     0
 49
-0.25
 74
     0
  0
LTYPE
  5
2C
330
5
100
AcDbSymbolTableRecord
100
AcDbLinetypeTableRecord
  2
DASHED2
 70
     0
  3
_ _ _ _ _ _ _ _ _ _ 
 72
    65
 73
     2
 40
0.375
 49
0.25
 74
     0
 49
-0.125
 74
     0
  0
LTYPE
  5
2D
330
5
100
AcDbSymbolTableRecord
100
AcDbLinetypeTableRecord
  2
DASHEDX2
 70
     0
  3
____  ____  ____  
 72
    65
 73
     2
 40
1.5
 49
1.0
 74
     0
 49
-0.5
 74
     0
  0
LTYPE
  5
2E
330
5
100
AcDbSymbolTableRecord
100
AcDbLinetypeTableRecord
  2
DIVIDE
 70
     0
  3
____ . . ____ . . 
 72
    65
 73
     6
 40
1.25
 49
0.5
 74
     0
 49
-0.25
 74
     0
 49
0.0
 74
     0
 49
-0.25
 74
     0
 49
0.0
 74
     0
 49
-0.25
 74
     0
  0
LTYPE
  5
2F
330
5
100
AcDbSymbolTableRecord
100
AcDbLinetypeTableRecord
  2
DIVIDE2
 70
     0
  3
__..__..__..__..__..
 72
    65
 73
     6
 40
0.625
 49
0.25
 74
     0
 49
-0.125
 74
     0
 49
0.0
 74
     0
 49
-0.125
 74
     0
 49
0.0
 74
     0
 49
-0.125
 74
     0
  0
LTYPE
  5
30
330
5
100
AcDbSymbolTableRecord
100
AcDbLinetypeTableRecord
  2
DIVIDEX2
 70
     0
  3
________  .  .  
 72
    65
 73
     6
 40
2.5
 49
1.0
 74
     0
 49
-0.5
 74
     0
 49
0.0
 74
     0
 49
-0.5
 74
     0
 49
0.0
 74
     0
 49
-0.5
 74
     0
  0
LTYPE
  5
31
330
5
100
AcDbSymbolTableRecord
100
AcDbLinetypeTableRecord
  2
DOT
 70
     0
  3
. . . . . . . . . 
 72
    65
 73
     2
 40
0.25
 49
0.0
 74
     0
 49
-0.25
 74
     0
  0
LTYPE
  5
32
330
5
100
AcDbSymbolTableRecord
100
AcDbLinetypeTableRecord
  2
DOT2
 70
     0
  3
..................
 72
    65
 73
     2
 40
0.125
 49
0.0
 74
     0
 49
-0.125
 74
     0
  0
LTYPE
  5
33
330
5
100
AcDbSymbolTableRecord
100
AcDbLinetypeTableRecord
  2
DOTX2
 70
     0
  3
.  .  .  .  .  .  
 72
    65
 73
     2
 40
0.5
 49
0.0
 74
     0
 49
-0.5
 74
     0
  0
LTYPE
  5
34
330
5
100
AcDbSymbolTableRecord
100
AcDbLinetypeTableRecord
  2
HIDDEN
 70
     0
  3
__ __ __ __ __ __ 
 72
    65
 73
     2
 40
0.375
 49
0.25
 74
     0
 49
-0.125
 74
     0
  0
LTYPE
  5
35
330
5
100
AcDbSymbolTableRecord
100
AcDbLinetypeTableRecord
  2
HIDDEN2
 70
     0
  3
_ _ _ _ _ _ _ _ _ 
 72
    65
 73
     2
 40
0.1875
 49
0.125
 74
     0
 49
-0.0625
 74
     0
  0
LTYPE
  5
36
330
5
100
AcDbSymbolTableRecord
100
AcDbLinetypeTableRecord
  2
HIDDENX2
 70
     0
  3
____ ____ ____ ____ 
 72
    65
 73
     2
 40
0.75
 49
0.5
 74
     0
 49
-0.25
 74
     0
  0
LTYPE
  5
37
330
5
100
AcDbSymbolTableRecord
100
AcDbLinetypeTableRecord
  2
PHANTOM
 70
     0
  3
______  __  __  
 72
    65
 73
     6
 40
2.5
 49
1.25
 74
     0
 49
-0.25
 74
     0
 49
0.25
 74
     0
 49
-0.25
 74
     0
 49
0.25
 74
     0
 49
-0.25
 74
     0
  0
LTYPE
  5
38
330
5
100
AcDbSymbolTableRecord
100
AcDbLinetypeTableRecord
  2
PHANTOM2
 70
     0
  3
___ _ _ ___ _ _ 
 72
    65
 73
     6
 40
1.25
 49
0.625
 74
     0
 49
-0.125
 74
     0
 49
0.125
 74
     0
 49
-0.125
 74
     0
 49
0.125
 74
     0
 49
-0.125
 74
     0
  0
LTYPE
  5
39
330
5
100
AcDbSymbolTableRecord
100
AcDbLinetypeTableRecord
  2
PHANTOMX2
 70
     0
  3
___ _ _ ___ _ _ 
 72
    65
 73
     6
 40
5.0
 49
2.5
 74
     0
 49
-0.5
 74
     0
 49
0.5
 74
     0
 49
-0.5
 74
     0
 49
0.5
 74
     0
 49
-0.5
 74
     0
  0
ENDTAB
  0
TABLE
  2
LAYER
  5
2
330
0
100
AcDbSymbolTable
 70
   257
  0
LAYER
  5
10
330
2
100
AcDbSymbolTableRecord
100
AcDbLayerTableRecord
  2
0
 70
     0
 62
     7
  6
CONTINUOUS
  0
LAYER
  5
3A
330
2
100
AcDbSymbolTableRecord
100
AcDbLayerTableRecord
  2
1
 70
     0
 62
     1
  6
CONTINUOUS
  0
LAYER
  5
3B
330
2
100
AcDbSymbolTableRecord
100
AcDbLayerTableRecord
  2
2
 70
     0
 62
     2
  6
CONTINUOUS
  0
LAYER
  5
3C
330
2
100
AcDbSymbolTableRecord
100
AcDbLayerTableRecord
  2
3
 70
     0
 62
     3
  6
CONTINUOUS
  0
LAYER
  5
3D
330
2
100
AcDbSymbolTableRecord
100
AcDbLayerTableRecord
  2
4
 70
     0
 62
     4
  6
CONTINUOUS
  0
LAYER
  5
3E
330
2
100
AcDbSymbolTableRecord
100
AcDbLayerTableRecord
  2
5
 70
     0
 62
     5
  6
CONTINUOUS
  0
LAYER
  5
3F
330
2
100
AcDbSymbolTableRecord
100
AcDbLayerTableRecord
  2
6
 70
     0
 62
     6
  6
CONTINUOUS
  0
LAYER
  5
40
330
2
100
AcDbSymbolTableRecord
100
AcDbLayerTableRecord
  2
7
 70
     0
 62
     7
  6
CONTINUOUS
  0
LAYER
  5
41
330
2
100
AcDbSymbolTableRecord
100
AcDbLayerTableRecord
  2
8
 70
     0
 62
     8
  6
CONTINUOUS
  0
LAYER
  5
42
330
2
100
AcDbSymbolTableRecord
100
AcDbLayerTableRecord
  2
9
 70
     0
 62
     9
  6
CONTINUOUS
  0
LAYER
  5
43
330
2
100
AcDbSymbolTableRecord
100
AcDbLayerTableRecord
  2
10
 70
     0
 62
    10
  6
CONTINUOUS
  0
LAYER
  5
44
330
2
100
AcDbSymbolTableRecord
100
AcDbLayerTableRecord
  2
11
 70
     0
 62
    11
  6
CONTINUOUS
  0
LAYER
  5
45
330
2
100
AcDbSymbolTableRecord
100
AcDbLayerTableRecord
  2
12
 70
     0
 62
    12
  6
CONTINUOUS
  0
LAYER
  5
46
330
2
100
AcDbSymbolTableRecord
100
AcDbLayerTableRecord
  2
13
 70
     0
 62
    13
  6
CONTINUOUS
  0
LAYER
  5
47
330
2
100
AcDbSymbolTableRecord
100
AcDbLayerTableRecord
  2
14
 70
     0
 62
    14
  6
CONTINUOUS
  0
LAYER
  5
48
330
2
100
AcDbSymbolTableRecord
100
AcDbLayerTableRecord
  2
15
 70
     0
 62
    15
  6
CONTINUOUS
  0
LAYER
  5
49
330
2
100
AcDbSymbolTableRecord
100
AcDbLayerTableRecord
  2
16
 70
     0
 62
    16
  6
CONTINUOUS
  0
LAYER
  5
4A
330
2
100
AcDbSymbolTableRecord
100
AcDbLayerTableRecord
  2
17
 70
     0
 62
    17
  6
CONTINUOUS
  0
LAYER
  5
4B
330
2
100
AcDbSymbolTableRecord
100
AcDbLayerTableRecord
  2
18
 70
     0
 62
    18
  6
CONTINUOUS
  0
LAYER
  5
4C
330
2
100
AcDbSymbolTableRecord
100
AcDbLayerTableRecord
  2
19
 70
     0
 62
    19
  6
CONTINUOUS
  0
LAYER
  5
4D
330
2
100
AcDbSymbolTableRecord
100
AcDbLayerTableRecord
  2
20
 70
     0
 62
    20
  6
CONTINUOUS
  0
LAYER
  5
4E
330
2
100
AcDbSymbolTableRecord
100
AcDbLayerTableRecord
  2
21
 70
     0
 62
    21
  6
CONTINUOUS
  0
LAYER
  5
4F
330
2
100
AcDbSymbolTableRecord
100
AcDbLayerTableRecord
  2
22
 70
     0
 62
    22
  6
CONTINUOUS
  0
LAYER
  5
50
330
2
100
AcDbSymbolTableRecord
100
AcDbLayerTableRecord
  2
23
 70
     0
 62
    23
  6
CONTINUOUS
  0
LAYER
  5
51
330
2
100
AcDbSymbolTableRecord
100
AcDbLayerTableRecord
  2
24
 70
     0
 62
    24
  6
CONTINUOUS
  0
LAYER
  5
52
330
2
100
AcDbSymbolTableRecord
100
AcDbLayerTableRecord
  2
25
 70
     0
 62
    25
  6
CONTINUOUS
  0
LAYER
  5
53
330
2
100
AcDbSymbolTableRecord
100
AcDbLayerTableRecord
  2
26
 70
     0
 62
    26
  6
CONTINUOUS
  0
LAYER
  5
54
330
2
100
AcDbSymbolTableRecord
100
AcDbLayerTableRecord
  2
27
 70
     0
 62
    27
  6
CONTINUOUS
  0
LAYER
  5
55
330
2
100
AcDbSymbolTableRecord
100
AcDbLayerTableRecord
  2
28
 70
     0
 62
    28
  6
CONTINUOUS
  0
LAYER
  5
56
330
2
100
AcDbSymbolTableRecord
100
AcDbLayerTableRecord
  2
29
 70
     0
 62
    29
  6
CONTINUOUS
  0
LAYER
  5
57
330
2
100
AcDbSymbolTableRecord
100
AcDbLayerTableRecord
  2
30
 70
     0
 62
    30
  6
CONTINUOUS
  0
LAYER
  5
58
330
2
100
AcDbSymbolTableRecord
100
AcDbLayerTableRecord
  2
31
 70
     0
 62
    31
  6
CONTINUOUS
  0
LAYER
  5
59
330
2
100
AcDbSymbolTableRecord
100
AcDbLayerTableRecord
  2
32
 70
     0
 62
    32
  6
CONTINUOUS
  0
LAYER
  5
5A
330
2
100
AcDbSymbolTableRecord
100
AcDbLayerTableRecord
  2
33
 70
     0
 62
    33
  6
CONTINUOUS
  0
LAYER
  5
5B
330
2
100
AcDbSymbolTableRecord
100
AcDbLayerTableRecord
  2
34
 70
     0
 62
    34
  6
CONTINUOUS
  0
LAYER
  5
5C
330
2
100
AcDbSymbolTableRecord
100
AcDbLayerTableRecord
  2
35
 70
     0
 62
    35
  6
CONTINUOUS
  0
LAYER
  5
5D
330
2
100
AcDbSymbolTableRecord
100
AcDbLayerTableRecord
  2
36
 70
     0
 62
    36
  6
CONTINUOUS
  0
LAYER
  5
5E
330
2
100
AcDbSymbolTableRecord
100
AcDbLayerTableRecord
  2
37
 70
     0
 62
    37
  6
CONTINUOUS
  0
LAYER
  5
5F
330
2
100
AcDbSymbolTableRecord
100
AcDbLayerTableRecord
  2
38
 70
     0
 62
    38
  6
CONTINUOUS
  0
LAYER
  5
60
330
2
100
AcDbSymbolTableRecord
100
AcDbLayerTableRecord
  2
39
 70
     0
 62
    39
  6
CONTINUOUS
  0
LAYER
  5
61
330
2
100
AcDbSymbolTableRecord
100
AcDbLayerTableRecord
  2
40
 70
     0
 62
    40
  6
CONTINUOUS
  0
LAYER
  5
62
330
2
100
AcDbSymbolTableRecord
100
AcDbLayerTableRecord
  2
41
 70
     0
 62
    41
  6
CONTINUOUS
  0
LAYER
  5
63
330
2
100
AcDbSymbolTableRecord
100
AcDbLayerTableRecord
  2
42
 70
     0
 62
    42
  6
CONTINUOUS
  0
LAYER
  5
64
330
2
100
AcDbSymbolTableRecord
100
AcDbLayerTableRecord
  2
43
 70
     0
 62
    43
  6
CONTINUOUS
  0
LAYER
  5
65
330
2
100
AcDbSymbolTableRecord
100
AcDbLayerTableRecord
  2
44
 70
     0
 62
    44
  6
CONTINUOUS
  0
LAYER
  5
66
330
2
100
AcDbSymbolTableRecord
100
AcDbLayerTableRecord
  2
45
 70
     0
 62
    45
  6
CONTINUOUS
  0
LAYER
  5
67
330
2
100
AcDbSymbolTableRecord
100
AcDbLayerTableRecord
  2
46
 70
     0
 62
    46
  6
CONTINUOUS
  0
LAYER
  5
68
330
2
100
AcDbSymbolTableRecord
100
AcDbLayerTableRecord
  2
47
 70
     0
 62
    47
  6
CONTINUOUS
  0
LAYER
  5
69
330
2
100
AcDbSymbolTableRecord
100
AcDbLayerTableRecord
  2
48
 70
     0
 62
    48
  6
CONTINUOUS
  0
LAYER
  5
6A
330
2
100
AcDbSymbolTableRecord
100
AcDbLayerTableRecord
  2
49
 70
     0
 62
    49
  6
CONTINUOUS
  0
LAYER
  5
6B
330
2
100
AcDbSymbolTableRecord
100
AcDbLayerTableRecord
  2
50
 70
     0
 62
    50
  6
CONTINUOUS
  0
LAYER
  5
6C
330
2
100
AcDbSymbolTableRecord
100
AcDbLayerTableRecord
  2
51
 70
     0
 62
    51
  6
CONTINUOUS
  0
LAYER
  5
6D
330
2
100
AcDbSymbolTableRecord
100
AcDbLayerTableRecord
  2
52
 70
     0
 62
    52
  6
CONTINUOUS
  0
LAYER
  5
6E
330
2
100
AcDbSymbolTableRecord
100
AcDbLayerTableRecord
  2
53
 70
     0
 62
    53
  6
CONTINUOUS
  0
LAYER
  5
6F
330
2
100
AcDbSymbolTableRecord
100
AcDbLayerTableRecord
  2
54
 70
     0
 62
    54
  6
CONTINUOUS
  0
LAYER
  5
70
330
2
100
AcDbSymbolTableRecord
100
AcDbLayerTableRecord
  2
55
 70
     0
 62
    55
  6
CONTINUOUS
  0
LAYER
  5
71
330
2
100
AcDbSymbolTableRecord
100
AcDbLayerTableRecord
  2
56
 70
     0
 62
    56
  6
CONTINUOUS
  0
LAYER
  5
72
330
2
100
AcDbSymbolTableRecord
100
AcDbLayerTableRecord
  2
57
 70
     0
 62
    57
  6
CONTINUOUS
  0
LAYER
  5
73
330
2
100
AcDbSymbolTableRecord
100
AcDbLayerTableRecord
  2
58
 70
     0
 62
    58
  6
CONTINUOUS
  0
LAYER
  5
74
330
2
100
AcDbSymbolTableRecord
100
AcDbLayerTableRecord
  2
59
 70
     0
 62
    59
  6
CONTINUOUS
  0
LAYER
  5
75
330
2
100
AcDbSymbolTableRecord
100
AcDbLayerTableRecord
  2
60
 70
     0
 62
    60
  6
CONTINUOUS
  0
LAYER
  5
76
330
2
100
AcDbSymbolTableRecord
100
AcDbLayerTableRecord
  2
61
 70
     0
 62
    61
  6
CONTINUOUS
  0
LAYER
  5
77
330
2
100
AcDbSymbolTableRecord
100
AcDbLayerTableRecord
  2
62
 70
     0
 62
    62
  6
CONTINUOUS
  0
LAYER
  5
78
330
2
100
AcDbSymbolTableRecord
100
AcDbLayerTableRecord
  2
63
 70
     0
 62
    63
  6
CONTINUOUS
  0
LAYER
  5
79
330
2
100
AcDbSymbolTableRecord
100
AcDbLayerTableRecord
  2
64
 70
     0
 62
    64
  6
CONTINUOUS
  0
LAYER
  5
7A
330
2
100
AcDbSymbolTableRecord
100
AcDbLayerTableRecord
  2
65
 70
     0
 62
    65
  6
CONTINUOUS
  0
LAYER
  5
7B
330
2
100
AcDbSymbolTableRecord
100
AcDbLayerTableRecord
  2
66
 70
     0
 62
    66
  6
CONTINUOUS
  0
LAYER
  5
7C
330
2
100
AcDbSymbolTableRecord
100
AcDbLayerTableRecord
  2
67
 70
     0
 62
    67
  6
CONTINUOUS
  0
LAYER
  5
7D
330
2
100
AcDbSymbolTableRecord
100
AcDbLayerTableRecord
  2
68
 70
     0
 62
    68
  6
CONTINUOUS
  0
LAYER
  5
7E
330
2
100
AcDbSymbolTableRecord
100
AcDbLayerTableRecord
  2
69
 70
     0
 62
    69
  6
CONTINUOUS
  0
LAYER
  5
7F
330
2
100
AcDbSymbolTableRecord
100
AcDbLayerTableRecord
  2
70
 70
     0
 62
    70
  6
CONTINUOUS
  0
LAYER
  5
80
330
2
100
AcDbSymbolTableRecord
100
AcDbLayerTableRecord
  2
71
 70
     0
 62
    71
  6
CONTINUOUS
  0
LAYER
  5
81
330
2
100
AcDbSymbolTableRecord
100
AcDbLayerTableRecord
  2
72
 70
     0
 62
    72
  6
CONTINUOUS
  0
LAYER
  5
82
330
2
100
AcDbSymbolTableRecord
100
AcDbLayerTableRecord
  2
73
 70
     0
 62
    73
  6
CONTINUOUS
  0
LAYER
  5
83
330
2
100
AcDbSymbolTableRecord
100
AcDbLayerTableRecord
  2
74
 70
     0
 62
    74
  6
CONTINUOUS
  0
LAYER
  5
84
330
2
100
AcDbSymbolTableRecord
100
AcDbLayerTableRecord
  2
75
 70
     0
 62
    75
  6
CONTINUOUS
  0
LAYER
  5
85
330
2
100
AcDbSymbolTableRecord
100
AcDbLayerTableRecord
  2
76
 70
     0
 62
    76
  6
CONTINUOUS
  0
LAYER
  5
86
330
2
100
AcDbSymbolTableRecord
100
AcDbLayerTableRecord
  2
77
 70
     0
 62
    77
  6
CONTINUOUS
  0
LAYER
  5
87
330
2
100
AcDbSymbolTableRecord
100
AcDbLayerTableRecord
  2
78
 70
     0
 62
    78
  6
CONTINUOUS
  0
LAYER
  5
88
330
2
100
AcDbSymbolTableRecord
100
AcDbLayerTableRecord
  2
79
 70
     0
 62
    79
  6
CONTINUOUS
  0
LAYER
  5
89
330
2
100
AcDbSymbolTableRecord
100
AcDbLayerTableRecord
  2
80
 70
     0
 62
    80
  6
CONTINUOUS
  0
LAYER
  5
8A
330
2
100
AcDbSymbolTableRecord
100
AcDbLayerTableRecord
  2
81
 70
     0
 62
    81
  6
CONTINUOUS
  0
LAYER
  5
8B
330
2
100
AcDbSymbolTableRecord
100
AcDbLayerTableRecord
  2
82
 70
     0
 62
    82
  6
CONTINUOUS
  0
LAYER
  5
8C
330
2
100
AcDbSymbolTableRecord
100
AcDbLayerTableRecord
  2
83
 70
     0
 62
    83
  6
CONTINUOUS
  0
LAYER
  5
8D
330
2
100
AcDbSymbolTableRecord
100
AcDbLayerTableRecord
  2
84
 70
     0
 62
    84
  6
CONTINUOUS
  0
LAYER
  5
8E
330
2
100
AcDbSymbolTableRecord
100
AcDbLayerTableRecord
  2
85
 70
     0
 62
    85
  6
CONTINUOUS
  0
LAYER
  5
8F
330
2
100
AcDbSymbolTableRecord
100
AcDbLayerTableRecord
  2
86
 70
     0
 62
    86
  6
CONTINUOUS
  0
LAYER
  5
90
330
2
100
AcDbSymbolTableRecord
100
AcDbLayerTableRecord
  2
87
 70
     0
 62
    87
  6
CONTINUOUS
  0
LAYER
  5
91
330
2
100
AcDbSymbolTableRecord
100
AcDbLayerTableRecord
  2
88
 70
     0
 62
    88
  6
CONTINUOUS
  0
LAYER
  5
92
330
2
100
AcDbSymbolTableRecord
100
AcDbLayerTableRecord
  2
89
 70
     0
 62
    89
  6
CONTINUOUS
  0
LAYER
  5
93
330
2
100
AcDbSymbolTableRecord
100
AcDbLayerTableRecord
  2
90
 70
     0
 62
    90
  6
CONTINUOUS
  0
LAYER
  5
94
330
2
100
AcDbSymbolTableRecord
100
AcDbLayerTableRecord
  2
91
 70
     0
 62
    91
  6
CONTINUOUS
  0
LAYER
  5
95
330
2
100
AcDbSymbolTableRecord
100
AcDbLayerTableRecord
  2
92
 70
     0
 62
    92
  6
CONTINUOUS
  0
LAYER
  5
96
330
2
100
AcDbSymbolTableRecord
100
AcDbLayerTableRecord
  2
93
 70
     0
 62
    93
  6
CONTINUOUS
  0
LAYER
  5
97
330
2
100
AcDbSymbolTableRecord
100
AcDbLayerTableRecord
  2
94
 70
     0
 62
    94
  6
CONTINUOUS
  0
LAYER
  5
98
330
2
100
AcDbSymbolTableRecord
100
AcDbLayerTableRecord
  2
95
 70
     0
 62
    95
  6
CONTINUOUS
  0
LAYER
  5
99
330
2
100
AcDbSymbolTableRecord
100
AcDbLayerTableRecord
  2
96
 70
     0
 62
    96
  6
CONTINUOUS
  0
LAYER
  5
9A
330
2
100
AcDbSymbolTableRecord
100
AcDbLayerTableRecord
  2
97
 70
     0
 62
    97
  6
CONTINUOUS
  0
LAYER
  5
9B
330
2
100
AcDbSymbolTableRecord
100
AcDbLayerTableRecord
  2
98
 70
     0
 62
    98
  6
CONTINUOUS
  0
LAYER
  5
9C
330
2
100
AcDbSymbolTableRecord
100
AcDbLayerTableRecord
  2
99
 70
     0
 62
    99
  6
CONTINUOUS
  0
LAYER
  5
9D
330
2
100
AcDbSymbolTableRecord
100
AcDbLayerTableRecord
  2
100
 70
     0
 62
   100
  6
CONTINUOUS
  0
LAYER
  5
9E
330
2
100
AcDbSymbolTableRecord
100
AcDbLayerTableRecord
  2
101
 70
     0
 62
   101
  6
CONTINUOUS
  0
LAYER
  5
9F
330
2
100
AcDbSymbolTableRecord
100
AcDbLayerTableRecord
  2
102
 70
     0
 62
   102
  6
CONTINUOUS
  0
LAYER
  5
A0
330
2
100
AcDbSymbolTableRecord
100
AcDbLayerTableRecord
  2
103
 70
     0
 62
   103
  6
CONTINUOUS
  0
LAYER
  5
A1
330
2
100
AcDbSymbolTableRecord
100
AcDbLayerTableRecord
  2
104
 70
     0
 62
   104
  6
CONTINUOUS
  0
LAYER
  5
A2
330
2
100
AcDbSymbolTableRecord
100
AcDbLayerTableRecord
  2
105
 70
     0
 62
   105
  6
CONTINUOUS
  0
LAYER
  5
A3
330
2
100
AcDbSymbolTableRecord
100
AcDbLayerTableRecord
  2
106
 70
     0
 62
   106
  6
CONTINUOUS
  0
LAYER
  5
A4
330
2
100
AcDbSymbolTableRecord
100
AcDbLayerTableRecord
  2
107
 70
     0
 62
   107
  6
CONTINUOUS
  0
LAYER
  5
A5
330
2
100
AcDbSymbolTableRecord
100
AcDbLayerTableRecord
  2
108
 70
     0
 62
   108
  6
CONTINUOUS
  0
LAYER
  5
A6
330
2
100
AcDbSymbolTableRecord
100
AcDbLayerTableRecord
  2
109
 70
     0
 62
   109
  6
CONTINUOUS
  0
LAYER
  5
A7
330
2
100
AcDbSymbolTableRecord
100
AcDbLayerTableRecord
  2
110
 70
     0
 62
   110
  6
CONTINUOUS
  0
LAYER
  5
A8
330
2
100
AcDbSymbolTableRecord
100
AcDbLayerTableRecord
  2
111
 70
     0
 62
   111
  6
CONTINUOUS
  0
LAYER
  5
A9
330
2
100
AcDbSymbolTableRecord
100
AcDbLayerTableRecord
  2
112
 70
     0
 62
   112
  6
CONTINUOUS
  0
LAYER
  5
AA
330
2
100
AcDbSymbolTableRecord
100
AcDbLayerTableRecord
  2
113
 70
     0
 62
   113
  6
CONTINUOUS
  0
LAYER
  5
AB
330
2
100
AcDbSymbolTableRecord
100
AcDbLayerTableRecord
  2
114
 70
     0
 62
   114
  6
CONTINUOUS
  0
LAYER
  5
AC
330
2
100
AcDbSymbolTableRecord
100
AcDbLayerTableRecord
  2
115
 70
     0
 62
   115
  6
CONTINUOUS
  0
LAYER
  5
AD
330
2
100
AcDbSymbolTableRecord
100
AcDbLayerTableRecord
  2
116
 70
     0
 62
   116
  6
CONTINUOUS
  0
LAYER
  5
AE
330
2
100
AcDbSymbolTableRecord
100
AcDbLayerTableRecord
  2
117
 70
     0
 62
   117
  6
CONTINUOUS
  0
LAYER
  5
AF
330
2
100
AcDbSymbolTableRecord
100
AcDbLayerTableRecord
  2
118
 70
     0
 62
   118
  6
CONTINUOUS
  0
LAYER
  5
B0
330
2
100
AcDbSymbolTableRecord
100
AcDbLayerTableRecord
  2
119
 70
     0
 62
   119
  6
CONTINUOUS
  0
LAYER
  5
B1
330
2
100
AcDbSymbolTableRecord
100
AcDbLayerTableRecord
  2
120
 70
     0
 62
   120
  6
CONTINUOUS
  0
LAYER
  5
B2
330
2
100
AcDbSymbolTableRecord
100
AcDbLayerTableRecord
  2
121
 70
     0
 62
   121
  6
CONTINUOUS
  0
LAYER
  5
B3
330
2
100
AcDbSymbolTableRecord
100
AcDbLayerTableRecord
  2
122
 70
     0
 62
   122
  6
CONTINUOUS
  0
LAYER
  5
B4
330
2
100
AcDbSymbolTableRecord
100
AcDbLayerTableRecord
  2
123
 70
     0
 62
   123
  6
CONTINUOUS
  0
LAYER
  5
B5
330
2
100
AcDbSymbolTableRecord
100
AcDbLayerTableRecord
  2
124
 70
     0
 62
   124
  6
CONTINUOUS
  0
LAYER
  5
B6
330
2
100
AcDbSymbolTableRecord
100
AcDbLayerTableRecord
  2
125
 70
     0
 62
   125
  6
CONTINUOUS
  0
LAYER
  5
B7
330
2
100
AcDbSymbolTableRecord
100
AcDbLayerTableRecord
  2
126
 70
     0
 62
   126
  6
CONTINUOUS
  0
LAYER
  5
B8
330
2
100
AcDbSymbolTableRecord
100
AcDbLayerTableRecord
  2
127
 70
     0
 62
   127
  6
CONTINUOUS
  0
LAYER
  5
B9
330
2
100
AcDbSymbolTableRecord
100
AcDbLayerTableRecord
  2
128
 70
     0
 62
   128
  6
CONTINUOUS
  0
LAYER
  5
BA
330
2
100
AcDbSymbolTableRecord
100
AcDbLayerTableRecord
  2
129
 70
     0
 62
   129
  6
CONTINUOUS
  0
LAYER
  5
BB
330
2
100
AcDbSymbolTableRecord
100
AcDbLayerTableRecord
  2
130
 70
     0
 62
   130
  6
CONTINUOUS
  0
LAYER
  5
BC
330
2
100
AcDbSymbolTableRecord
100
AcDbLayerTableRecord
  2
131
 70
     0
 62
   131
  6
CONTINUOUS
  0
LAYER
  5
BD
330
2
100
AcDbSymbolTableRecord
100
AcDbLayerTableRecord
  2
132
 70
     0
 62
   132
  6
CONTINUOUS
  0
LAYER
  5
BE
330
2
100
AcDbSymbolTableRecord
100
AcDbLayerTableRecord
  2
133
 70
     0
 62
   133
  6
CONTINUOUS
  0
LAYER
  5
BF
330
2
100
AcDbSymbolTableRecord
100
AcDbLayerTableRecord
  2
134
 70
     0
 62
   134
  6
CONTINUOUS
  0
LAYER
  5
C0
330
2
100
AcDbSymbolTableRecord
100
AcDbLayerTableRecord
  2
135
 70
     0
 62
   135
  6
CONTINUOUS
  0
LAYER
  5
C1
330
2
100
AcDbSymbolTableRecord
100
AcDbLayerTableRecord
  2
136
 70
     0
 62
   136
  6
CONTINUOUS
  0
LAYER
  5
C2
330
2
100
AcDbSymbolTableRecord
100
AcDbLayerTableRecord
  2
137
 70
     0
 62
   137
  6
CONTINUOUS
  0
LAYER
  5
C3
330
2
100
AcDbSymbolTableRecord
100
AcDbLayerTableRecord
  2
138
 70
     0
 62
   138
  6
CONTINUOUS
  0
LAYER
  5
C4
330
2
100
AcDbSymbolTableRecord
100
AcDbLayerTableRecord
  2
139
 70
     0
 62
   139
  6
CONTINUOUS
  0
LAYER
  5
C5
330
2
100
AcDbSymbolTableRecord
100
AcDbLayerTableRecord
  2
140
 70
     0
 62
   140
  6
CONTINUOUS
  0
LAYER
  5
C6
330
2
100
AcDbSymbolTableRecord
100
AcDbLayerTableRecord
  2
141
 70
     0
 62
   141
  6
CONTINUOUS
  0
LAYER
  5
C7
330
2
100
AcDbSymbolTableRecord
100
AcDbLayerTableRecord
  2
142
 70
     0
 62
   142
  6
CONTINUOUS
  0
LAYER
  5
C8
330
2
100
AcDbSymbolTableRecord
100
AcDbLayerTableRecord
  2
143
 70
     0
 62
   143
  6
CONTINUOUS
  0
LAYER
  5
C9
330
2
100
AcDbSymbolTableRecord
100
AcDbLayerTableRecord
  2
144
 70
     0
 62
   144
  6
CONTINUOUS
  0
LAYER
  5
CA
330
2
100
AcDbSymbolTableRecord
100
AcDbLayerTableRecord
  2
145
 70
     0
 62
   145
  6
CONTINUOUS
  0
LAYER
  5
CB
330
2
100
AcDbSymbolTableRecord
100
AcDbLayerTableRecord
  2
146
 70
     0
 62
   146
  6
CONTINUOUS
  0
LAYER
  5
CC
330
2
100
AcDbSymbolTableRecord
100
AcDbLayerTableRecord
  2
147
 70
     0
 62
   147
  6
CONTINUOUS
  0
LAYER
  5
CD
330
2
100
AcDbSymbolTableRecord
100
AcDbLayerTableRecord
  2
148
 70
     0
 62
   148
  6
CONTINUOUS
  0
LAYER
  5
CE
330
2
100
AcDbSymbolTableRecord
100
AcDbLayerTableRecord
  2
149
 70
     0
 62
   149
  6
CONTINUOUS
  0
LAYER
  5
CF
330
2
100
AcDbSymbolTableRecord
100
AcDbLayerTableRecord
  2
150
 70
     0
 62
   150
  6
CONTINUOUS
  0
LAYER
  5
D0
330
2
100
AcDbSymbolTableRecord
100
AcDbLayerTableRecord
  2
151
 70
     0
 62
   151
  6
CONTINUOUS
  0
LAYER
  5
D1
330
2
100
AcDbSymbolTableRecord
100
AcDbLayerTableRecord
  2
152
 70
     0
 62
   152
  6
CONTINUOUS
  0
LAYER
  5
D2
330
2
100
AcDbSymbolTableRecord
100
AcDbLayerTableRecord
  2
153
 70
     0
 62
   153
  6
CONTINUOUS
  0
LAYER
  5
D3
330
2
100
AcDbSymbolTableRecord
100
AcDbLayerTableRecord
  2
154
 70
     0
 62
   154
  6
CONTINUOUS
  0
LAYER
  5
D4
330
2
100
AcDbSymbolTableRecord
100
AcDbLayerTableRecord
  2
155
 70
     0
 62
   155
  6
CONTINUOUS
  0
LAYER
  5
D5
330
2
100
AcDbSymbolTableRecord
100
AcDbLayerTableRecord
  2
156
 70
     0
 62
   156
  6
CONTINUOUS
  0
LAYER
  5
D6
330
2
100
AcDbSymbolTableRecord
100
AcDbLayerTableRecord
  2
157
 70
     0
 62
   157
  6
CONTINUOUS
  0
LAYER
  5
D7
330
2
100
AcDbSymbolTableRecord
100
AcDbLayerTableRecord
  2
158
 70
     0
 62
   158
  6
CONTINUOUS
  0
LAYER
  5
D8
330
2
100
AcDbSymbolTableRecord
100
AcDbLayerTableRecord
  2
159
 70
     0
 62
   159
  6
CONTINUOUS
  0
LAYER
  5
D9
330
2
100
AcDbSymbolTableRecord
100
AcDbLayerTableRecord
  2
160
 70
     0
 62
   160
  6
CONTINUOUS
  0
LAYER
  5
DA
330
2
100
AcDbSymbolTableRecord
100
AcDbLayerTableRecord
  2
161
 70
     0
 62
   161
  6
CONTINUOUS
  0
LAYER
  5
DB
330
2
100
AcDbSymbolTableRecord
100
AcDbLayerTableRecord
  2
162
 70
     0
 62
   162
  6
CONTINUOUS
  0
LAYER
  5
DC
330
2
100
AcDbSymbolTableRecord
100
AcDbLayerTableRecord
  2
163
 70
     0
 62
   163
  6
CONTINUOUS
  0
LAYER
  5
DD
330
2
100
AcDbSymbolTableRecord
100
AcDbLayerTableRecord
  2
164
 70
     0
 62
   164
  6
CONTINUOUS
  0
LAYER
  5
DE
330
2
100
AcDbSymbolTableRecord
100
AcDbLayerTableRecord
  2
165
 70
     0
 62
   165
  6
CONTINUOUS
  0
LAYER
  5
DF
330
2
100
AcDbSymbolTableRecord
100
AcDbLayerTableRecord
  2
166
 70
     0
 62
   166
  6
CONTINUOUS
  0
LAYER
  5
E0
330
2
100
AcDbSymbolTableRecord
100
AcDbLayerTableRecord
  2
167
 70
     0
 62
   167
  6
CONTINUOUS
  0
LAYER
  5
E1
330
2
100
AcDbSymbolTableRecord
100
AcDbLayerTableRecord
  2
168
 70
     0
 62
   168
  6
CONTINUOUS
  0
LAYER
  5
E2
330
2
100
AcDbSymbolTableRecord
100
AcDbLayerTableRecord
  2
169
 70
     0
 62
   169
  6
CONTINUOUS
  0
LAYER
  5
E3
330
2
100
AcDbSymbolTableRecord
100
AcDbLayerTableRecord
  2
170
 70
     0
 62
   170
  6
CONTINUOUS
  0
LAYER
  5
E4
330
2
100
AcDbSymbolTableRecord
100
AcDbLayerTableRecord
  2
171
 70
     0
 62
   171
  6
CONTINUOUS
  0
LAYER
  5
E5
330
2
100
AcDbSymbolTableRecord
100
AcDbLayerTableRecord
  2
172
 70
     0
 62
   172
  6
CONTINUOUS
  0
LAYER
  5
E6
330
2
100
AcDbSymbolTableRecord
100
AcDbLayerTableRecord
  2
173
 70
     0
 62
   173
  6
CONTINUOUS
  0
LAYER
  5
E7
330
2
100
AcDbSymbolTableRecord
100
AcDbLayerTableRecord
  2
174
 70
     0
 62
   174
  6
CONTINUOUS
  0
LAYER
  5
E8
330
2
100
AcDbSymbolTableRecord
100
AcDbLayerTableRecord
  2
175
 70
     0
 62
   175
  6
CONTINUOUS
  0
LAYER
  5
E9
330
2
100
AcDbSymbolTableRecord
100
AcDbLayerTableRecord
  2
176
 70
     0
 62
   176
  6
CONTINUOUS
  0
LAYER
  5
EA
330
2
100
AcDbSymbolTableRecord
100
AcDbLayerTableRecord
  2
177
 70
     0
 62
   177
  6
CONTINUOUS
  0
LAYER
  5
EB
330
2
100
AcDbSymbolTableRecord
100
AcDbLayerTableRecord
  2
178
 70
     0
 62
   178
  6
CONTINUOUS
  0
LAYER
  5
EC
330
2
100
AcDbSymbolTableRecord
100
AcDbLayerTableRecord
  2
179
 70
     0
 62
   179
  6
CONTINUOUS
  0
LAYER
  5
ED
330
2
100
AcDbSymbolTableRecord
100
AcDbLayerTableRecord
  2
180
 70
     0
 62
   180
  6
CONTINUOUS
  0
LAYER
  5
EE
330
2
100
AcDbSymbolTableRecord
100
AcDbLayerTableRecord
  2
181
 70
     0
 62
   181
  6
CONTINUOUS
  0
LAYER
  5
EF
330
2
100
AcDbSymbolTableRecord
100
AcDbLayerTableRecord
  2
182
 70
     0
 62
   182
  6
CONTINUOUS
  0
LAYER
  5
F0
330
2
100
AcDbSymbolTableRecord
100
AcDbLayerTableRecord
  2
183
 70
     0
 62
   183
  6
CONTINUOUS
  0
LAYER
  5
F1
330
2
100
AcDbSymbolTableRecord
100
AcDbLayerTableRecord
  2
184
 70
     0
 62
   184
  6
CONTINUOUS
  0
LAYER
  5
F2
330
2
100
AcDbSymbolTableRecord
100
AcDbLayerTableRecord
  2
185
 70
     0
 62
   185
  6
CONTINUOUS
  0
LAYER
  5
F3
330
2
100
AcDbSymbolTableRecord
100
AcDbLayerTableRecord
  2
186
 70
     0
 62
   186
  6
CONTINUOUS
  0
LAYER
  5
F4
330
2
100
AcDbSymbolTableRecord
100
AcDbLayerTableRecord
  2
187
 70
     0
 62
   187
  6
CONTINUOUS
  0
LAYER
  5
F5
330
2
100
AcDbSymbolTableRecord
100
AcDbLayerTableRecord
  2
188
 70
     0
 62
   188
  6
CONTINUOUS
  0
LAYER
  5
F6
330
2
100
AcDbSymbolTableRecord
100
AcDbLayerTableRecord
  2
189
 70
     0
 62
   189
  6
CONTINUOUS
  0
LAYER
  5
F7
330
2
100
AcDbSymbolTableRecord
100
AcDbLayerTableRecord
  2
190
 70
     0
 62
   190
  6
CONTINUOUS
  0
LAYER
  5
F8
330
2
100
AcDbSymbolTableRecord
100
AcDbLayerTableRecord
  2
191
 70
     0
 62
   191
  6
CONTINUOUS
  0
LAYER
  5
F9
330
2
100
AcDbSymbolTableRecord
100
AcDbLayerTableRecord
  2
192
 70
     0
 62
   192
  6
CONTINUOUS
  0
LAYER
  5
FA
330
2
100
AcDbSymbolTableRecord
100
AcDbLayerTableRecord
  2
193
 70
     0
 62
   193
  6
CONTINUOUS
  0
LAYER
  5
FB
330
2
100
AcDbSymbolTableRecord
100
AcDbLayerTableRecord
  2
194
 70
     0
 62
   194
  6
CONTINUOUS
  0
LAYER
  5
FC
330
2
100
AcDbSymbolTableRecord
100
AcDbLayerTableRecord
  2
195
 70
     0
 62
   195
  6
CONTINUOUS
  0
LAYER
  5
FD
330
2
100
AcDbSymbolTableRecord
100
AcDbLayerTableRecord
  2
196
 70
     0
 62
   196
  6
CONTINUOUS
  0
LAYER
  5
FE
330
2
100
AcDbSymbolTableRecord
100
AcDbLayerTableRecord
  2
197
 70
     0
 62
   197
  6
CONTINUOUS
  0
LAYER
  5
FF
330
2
100
AcDbSymbolTableRecord
100
AcDbLayerTableRecord
  2
198
 70
     0
 62
   198
  6
CONTINUOUS
  0
LAYER
  5
100
330
2
100
AcDbSymbolTableRecord
100
AcDbLayerTableRecord
  2
199
 70
     0
 62
   199
  6
CONTINUOUS
  0
LAYER
  5
101
330
2
100
AcDbSymbolTableRecord
100
AcDbLayerTableRecord
  2
200
 70
     0
 62
   200
  6
CONTINUOUS
  0
LAYER
  5
102
330
2
100
AcDbSymbolTableRecord
100
AcDbLayerTableRecord
  2
201
 70
     0
 62
   201
  6
CONTINUOUS
  0
LAYER
  5
103
330
2
100
AcDbSymbolTableRecord
100
AcDbLayerTableRecord
  2
202
 70
     0
 62
   202
  6
CONTINUOUS
  0
LAYER
  5
104
330
2
100
AcDbSymbolTableRecord
100
AcDbLayerTableRecord
  2
203
 70
     0
 62
   203
  6
CONTINUOUS
  0
LAYER
  5
105
330
2
100
AcDbSymbolTableRecord
100
AcDbLayerTableRecord
  2
204
 70
     0
 62
   204
  6
CONTINUOUS
  0
LAYER
  5
106
330
2
100
AcDbSymbolTableRecord
100
AcDbLayerTableRecord
  2
205
 70
     0
 62
   205
  6
CONTINUOUS
  0
LAYER
  5
107
330
2
100
AcDbSymbolTableRecord
100
AcDbLayerTableRecord
  2
206
 70
     0
 62
   206
  6
CONTINUOUS
  0
LAYER
  5
108
330
2
100
AcDbSymbolTableRecord
100
AcDbLayerTableRecord
  2
207
 70
     0
 62
   207
  6
CONTINUOUS
  0
LAYER
  5
109
330
2
100
AcDbSymbolTableRecord
100
AcDbLayerTableRecord
  2
208
 70
     0
 62
   208
  6
CONTINUOUS
  0
LAYER
  5
10A
330
2
100
AcDbSymbolTableRecord
100
AcDbLayerTableRecord
  2
209
 70
     0
 62
   209
  6
CONTINUOUS
  0
LAYER
  5
10B
330
2
100
AcDbSymbolTableRecord
100
AcDbLayerTableRecord
  2
210
 70
     0
 62
   210
  6
CONTINUOUS
  0
LAYER
  5
10C
330
2
100
AcDbSymbolTableRecord
100
AcDbLayerTableRecord
  2
211
 70
     0
 62
   211
  6
CONTINUOUS
  0
LAYER
  5
10D
330
2
100
AcDbSymbolTableRecord
100
AcDbLayerTableRecord
  2
212
 70
     0
 62
   212
  6
CONTINUOUS
  0
LAYER
  5
10E
330
2
100
AcDbSymbolTableRecord
100
AcDbLayerTableRecord
  2
213
 70
     0
 62
   213
  6
CONTINUOUS
  0
LAYER
  5
10F
330
2
100
AcDbSymbolTableRecord
100
AcDbLayerTableRecord
  2
214
 70
     0
 62
   214
  6
CONTINUOUS
  0
LAYER
  5
110
330
2
100
AcDbSymbolTableRecord
100
AcDbLayerTableRecord
  2
215
 70
     0
 62
   215
  6
CONTINUOUS
  0
LAYER
  5
111
330
2
100
AcDbSymbolTableRecord
100
AcDbLayerTableRecord
  2
216
 70
     0
 62
   216
  6
CONTINUOUS
  0
LAYER
  5
112
330
2
100
AcDbSymbolTableRecord
100
AcDbLayerTableRecord
  2
217
 70
     0
 62
   217
  6
CONTINUOUS
  0
LAYER
  5
113
330
2
100
AcDbSymbolTableRecord
100
AcDbLayerTableRecord
  2
218
 70
     0
 62
   218
  6
CONTINUOUS
  0
LAYER
  5
114
330
2
100
AcDbSymbolTableRecord
100
AcDbLayerTableRecord
  2
219
 70
     0
 62
   219
  6
CONTINUOUS
  0
LAYER
  5
115
330
2
100
AcDbSymbolTableRecord
100
AcDbLayerTableRecord
  2
220
 70
     0
 62
   220
  6
CONTINUOUS
  0
LAYER
  5
116
330
2
100
AcDbSymbolTableRecord
100
AcDbLayerTableRecord
  2
221
 70
     0
 62
   221
  6
CONTINUOUS
  0
LAYER
  5
117
330
2
100
AcDbSymbolTableRecord
100
AcDbLayerTableRecord
  2
222
 70
     0
 62
   222
  6
CONTINUOUS
  0
LAYER
  5
118
330
2
100
AcDbSymbolTableRecord
100
AcDbLayerTableRecord
  2
223
 70
     0
 62
   223
  6
CONTINUOUS
  0
LAYER
  5
119
330
2
100
AcDbSymbolTableRecord
100
AcDbLayerTableRecord
  2
224
 70
     0
 62
   224
  6
CONTINUOUS
  0
LAYER
  5
11A
330
2
100
AcDbSymbolTableRecord
100
AcDbLayerTableRecord
  2
225
 70
     0
 62
   225
  6
CONTINUOUS
  0
LAYER
  5
11B
330
2
100
AcDbSymbolTableRecord
100
AcDbLayerTableRecord
  2
226
 70
     0
 62
   226
  6
CONTINUOUS
  0
LAYER
  5
11C
330
2
100
AcDbSymbolTableRecord
100
AcDbLayerTableRecord
  2
227
 70
     0
 62
   227
  6
CONTINUOUS
  0
LAYER
  5
11D
330
2
100
AcDbSymbolTableRecord
100
AcDbLayerTableRecord
  2
228
 70
     0
 62
   228
  6
CONTINUOUS
  0
LAYER
  5
11E
330
2
100
AcDbSymbolTableRecord
100
AcDbLayerTableRecord
  2
229
 70
     0
 62
   229
  6
CONTINUOUS
  0
LAYER
  5
11F
330
2
100
AcDbSymbolTableRecord
100
AcDbLayerTableRecord
  2
230
 70
     0
 62
   230
  6
CONTINUOUS
  0
LAYER
  5
120
330
2
100
AcDbSymbolTableRecord
100
AcDbLayerTableRecord
  2
231
 70
     0
 62
   231
  6
CONTINUOUS
  0
LAYER
  5
121
330
2
100
AcDbSymbolTableRecord
100
AcDbLayerTableRecord
  2
232
 70
     0
 62
   232
  6
CONTINUOUS
  0
LAYER
  5
122
330
2
100
AcDbSymbolTableRecord
100
AcDbLayerTableRecord
  2
233
 70
     0
 62
   233
  6
CONTINUOUS
  0
LAYER
  5
123
330
2
100
AcDbSymbolTableRecord
100
AcDbLayerTableRecord
  2
234
 70
     0
 62
   234
  6
CONTINUOUS
  0
LAYER
  5
124
330
2
100
AcDbSymbolTableRecord
100
AcDbLayerTableRecord
  2
235
 70
     0
 62
   235
  6
CONTINUOUS
  0
LAYER
  5
125
330
2
100
AcDbSymbolTableRecord
100
AcDbLayerTableRecord
  2
236
 70
     0
 62
   236
  6
CONTINUOUS
  0
LAYER
  5
126
330
2
100
AcDbSymbolTableRecord
100
AcDbLayerTableRecord
  2
237
 70
     0
 62
   237
  6
CONTINUOUS
  0
LAYER
  5
127
330
2
100
AcDbSymbolTableRecord
100
AcDbLayerTableRecord
  2
238
 70
     0
 62
   238
  6
CONTINUOUS
  0
LAYER
  5
128
330
2
100
AcDbSymbolTableRecord
100
AcDbLayerTableRecord
  2
239
 70
     0
 62
   239
  6
CONTINUOUS
  0
LAYER
  5
129
330
2
100
AcDbSymbolTableRecord
100
AcDbLayerTableRecord
  2
240
 70
     0
 62
   240
  6
CONTINUOUS
  0
LAYER
  5
12A
330
2
100
AcDbSymbolTableRecord
100
AcDbLayerTableRecord
  2
241
 70
     0
 62
   241
  6
CONTINUOUS
  0
LAYER
  5
12B
330
2
100
AcDbSymbolTableRecord
100
AcDbLayerTableRecord
  2
242
 70
     0
 62
   242
  6
CONTINUOUS
  0
LAYER
  5
12C
330
2
100
AcDbSymbolTableRecord
100
AcDbLayerTableRecord
  2
243
 70
     0
 62
   243
  6
CONTINUOUS
  0
LAYER
  5
12D
330
2
100
AcDbSymbolTableRecord
100
AcDbLayerTableRecord
  2
244
 70
     0
 62
   244
  6
CONTINUOUS
  0
LAYER
  5
12E
330
2
100
AcDbSymbolTableRecord
100
AcDbLayerTableRecord
  2
245
 70
     0
 62
   245
  6
CONTINUOUS
  0
LAYER
  5
12F
330
2
100
AcDbSymbolTableRecord
100
AcDbLayerTableRecord
  2
246
 70
     0
 62
   246
  6
CONTINUOUS
  0
LAYER
  5
130
330
2
100
AcDbSymbolTableRecord
100
AcDbLayerTableRecord
  2
247
 70
     0
 62
   247
  6
CONTINUOUS
  0
LAYER
  5
131
330
2
100
AcDbSymbolTableRecord
100
AcDbLayerTableRecord
  2
248
 70
     0
 62
   248
  6
CONTINUOUS
  0
LAYER
  5
132
330
2
100
AcDbSymbolTableRecord
100
AcDbLayerTableRecord
  2
249
 70
     0
 62
   249
  6
CONTINUOUS
  0
LAYER
  5
133
330
2
100
AcDbSymbolTableRecord
100
AcDbLayerTableRecord
  2
250
 70
     0
 62
   250
  6
CONTINUOUS
  0
LAYER
  5
134
330
2
100
AcDbSymbolTableRecord
100
AcDbLayerTableRecord
  2
251
 70
     0
 62
   251
  6
CONTINUOUS
  0
LAYER
  5
135
330
2
100
AcDbSymbolTableRecord
100
AcDbLayerTableRecord
  2
252
 70
     0
 62
   252
  6
CONTINUOUS
  0
LAYER
  5
136
330
2
100
AcDbSymbolTableRecord
100
AcDbLayerTableRecord
  2
253
 70
     0
 62
   253
  6
CONTINUOUS
  0
LAYER
  5
137
330
2
100
AcDbSymbolTableRecord
100
AcDbLayerTableRecord
  2
254
 70
     0
 62
   254
  6
CONTINUOUS
  0
LAYER
  5
138
330
2
100
AcDbSymbolTableRecord
100
AcDbLayerTableRecord
  2
255
 70
     0
 62
   255
  6
CONTINUOUS
  0
LAYER
  5
2B29
330
2
100
AcDbSymbolTableRecord
100
AcDbLayerTableRecord
  2
DEFPOINTS
 70
     0
 62
     7
  6
CONTINUOUS
  0
ENDTAB
  0
TABLE
  2
STYLE
  5
3
330
0
100
AcDbSymbolTable
 70
     1
  0
STYLE
  5
11
330
3
100
AcDbSymbolTableRecord
100
AcDbTextStyleTableRecord
  2
STANDARD
 70
     0
 40
0.0
 41
1.0
 50
0.0
 71
     0
 42
0.2
  3
txt
  4

  0
ENDTAB
  0
TABLE
  2
VIEW
  5
6
330
0
100
AcDbSymbolTable
 70
     0
  0
ENDTAB
  0
TABLE
  2
UCS
  5
7
330
0
100
AcDbSymbolTable
 70
     0
  0
ENDTAB
  0
TABLE
  2
APPID
  5
9
330
0
100
AcDbSymbolTable
 70
     1
  0
APPID
  5
12
330
9
100
AcDbSymbolTableRecord
100
AcDbRegAppTableRecord
  2
ACAD
 70
     0
  0
ENDTAB
  0
TABLE
  2
DIMSTYLE
  5
A
330
0
100
AcDbSymbolTable
 70
     1
  0
DIMSTYLE
105
2B25
102
{ACAD_REACTORS
330
2B28
102
}
330
A
100
AcDbSymbolTableRecord
100
AcDbDimStyleTableRecord
  2
STANDARD
 70
     0
  3

  4

  5

  6

  7

 40
1.0
 41
0.18
 42
0.0625
 43
0.38
 44
0.18
 45
0.0
 46
0.0
 47
0.0
 48
0.0
140
0.18
141
0.09
142
0.0
143
25.4
144
1.0
145
0.0
146
1.0
147
0.09
 71
     0
 72
     0
 73
     1
 74
     1
 75
     0
 76
     0
 77
     0
 78
     0
170
     0
171
     2
172
     0
173
     0
174
     0
175
     0
176
     0
177
     0
178
     0
270
     2
271
     4
272
     4
273
     2
274
     2
340
11
275
     0
280
     0
281
     0
282
     0
283
     1
284
     0
285
     0
286
     0
287
     3
288
     0
  0
ENDTAB
  0
TABLE
  2
BLOCK_RECORD
  5
1
330
0
100
AcDbSymbolTable
 70
     1
  0
BLOCK_RECORD
  5
1E
102
{ACAD_XDICTIONARY
360
2B3B
102
}
330
1
100
AcDbSymbolTableRecord
100
AcDbBlockTableRecord
  2
*MODEL_SPACE
  0
BLOCK_RECORD
  5
1A
102
{ACAD_XDICTIONARY
360
2B39
102
}
330
1
100
AcDbSymbolTableRecord
100
AcDbBlockTableRecord
  2
*PAPER_SPACE
  0
BLOCK_RECORD
  5
2B2A
330
1
100
AcDbSymbolTableRecord
100
AcDbBlockTableRecord
  2
*D0
  0
ENDTAB
  0
ENDSEC
  0
SECTION
  2
BLOCKS
  0
BLOCK
  5
13B
330
1E
100
AcDbEntity
  8
0
100
AcDbBlockBegin
  2
*MODEL_SPACE
 70
     0
 10
0.0
 20
0.0
 30
0.0
  3
*MODEL_SPACE
  1

  0
ENDBLK
  5
13C
330
1E
100
AcDbEntity
  8
0
100
AcDbBlockEnd
  0
BLOCK
  5
139
330
1A
100
AcDbEntity
 67
     1
  8
0
100
AcDbBlockBegin
  2
*PAPER_SPACE
 70
     0
 10
0.0
 20
0.0
 30
0.0
  3
*PAPER_SPACE
  1

  0
ENDBLK
  5
13A
330
1A
100
AcDbEntity
 67
     1
  8
0
100
AcDbBlockEnd
  0
BLOCK
  5
2B35
330
2B2A
100
AcDbEntity
  8
0
100
AcDbBlockBegin
  2
*D0
 70
     1
 10
0.0
 20
0.0
 30
0.0
  3
*D0
  1

  0
LINE
  5
2B2B
330
2B2A
100
AcDbEntity
  8
0
 62
     0
100
AcDbLine
 10
1.486220472440944
 20
7.406003937007874
 30
0.0
 11
1.486220472440944
 21
7.711454812066133
 31
0.0
  0
LINE
  5
2B2C
330
2B2A
100
AcDbEntity
  8
0
 62
     0
100
AcDbLine
 10
3.257874015748031
 20
7.406003937007874
 30
0.0
 11
3.257874015748031
 21
7.711454812066133
 31
0.0
  0
LINE
  5
2B2D
330
2B2A
100
AcDbEntity
  8
0
 62
     0
100
AcDbLine
 10
1.666220472440944
 20
7.531454812066133
 30
0.0
 11
1.892047244094488
 21
7.531454812066133
 31
0.0
  0
LINE
  5
2B2E
330
2B2A
100
AcDbEntity
  8
0
 62
     0
100
AcDbLine
 10
3.077874015748031
 20
7.531454812066133
 30
0.0
 11
2.852047244094487
 21
7.531454812066133
 31
0.0
  0
SOLID
  5
2B2F
330
2B2A
100
AcDbEntity
  8
0
 62
     0
100
AcDbTrace
 10
1.666220472440944
 20
7.561454812066133
 30
0.0
 11
1.666220472440944
 21
7.501454812066133
 31
0.0
 12
1.486220472440944
 22
7.531454812066133
 32
0.0
 13
1.486220472440944
 23
7.531454812066133
 33
0.0
  0
SOLID
  5
2B30
330
2B2A
100
AcDbEntity
  8
0
 62
     0
100
AcDbTrace
 10
3.077874015748031
 20
7.561454812066133
 30
0.0
 11
3.077874015748031
 21
7.501454812066133
 31
0.0
 12
3.257874015748031
 22
7.531454812066133
 32
0.0
 13
3.257874015748031
 23
7.531454812066133
 33
0.0
  0
MTEXT
  5
2B31
330
2B2A
100
AcDbEntity
  8
0
 62
     0
100
AcDbMText
 10
2.372047244094487
 20
7.531454812066133
 30
0.0
 40
0.18
 41
0.0
 71
     5
 72
     1
  1
\A1;1.7717
1001
ACAD
1000
MTEXTBEGIN
1070
    73
1070
     1
1070
    44
1040
1.0
1070
    74
1070
     0
1000
MTEXTEND
  0
POINT
  5
2B32
330
2B2A
100
AcDbEntity
  8
DEFPOINTS
 62
     0
100
AcDbPoint
 10
1.486220472440944
 20
7.343503937007874
 30
0.0
  0
POINT
  5
2B33
330
2B2A
100
AcDbEntity
  8
DEFPOINTS
 62
     0
100
AcDbPoint
 10
3.257874015748031
 20
7.343503937007874
 30
0.0
  0
POINT
  5
2B34
330
2B2A
100
AcDbEntity
  8
DEFPOINTS
 62
     0
100
AcDbPoint
 10
3.257874015748031
 20
7.531454812066133
 30
0.0
  0
ENDBLK
  5
2B36
330
2B2A
100
AcDbEntity
  8
0
100
AcDbBlockEnd
  0
ENDSEC
  0
SECTION
  2
ENTITIES
  0
LINE
  5
257D
330
1E
100
AcDbEntity
  8
0
100
AcDbLine
 10
2.33759842519685
 20
5.444881889763779
 30
0.0
 11
1.755905511811023
 21
5.444881889763779
 31
0.0
  0
LINE
  5
257E
330
1E
100
AcDbEntity
  8
0
100
AcDbLine
 10
2.987204724409448
 20
5.444881889763779
 30
0.0
 11
2.405511811023622
 21
5.444881889763779
 31
0.0
  0
LINE
  5
257F
330
1E
100
AcDbEntity
  8
0
100
AcDbLine
 10
3.15255905511811
 20
5.829724409448818
 30
0.0
 11
3.151574803149606
 21
5.829724409448818
 31
0.0
  0
LINE
  5
2580
330
1E
100
AcDbEntity
  8
0
100
AcDbLine
 10
1.591535433070866
 20
5.829724409448818
 30
0.0
 11
1.590551181102362
 21
5.829724409448818
 31
0.0
  0
LINE
  5
2581
330
1E
100
AcDbEntity
  8
0
100
AcDbLine
 10
3.01771653543307
 20
6.567913385826771
 30
0.0
 11
1.725393700787401
 21
6.567913385826771
 31
0.0
  0
POLYLINE
  5
2582
330
1E
100
AcDbEntity
  8
0
100
AcDb2dPolyline
 66
     1
 10
0.0
 20
0.0
 30
0.0
  0
VERTEX
  5
2B3D
330
2582
100
AcDbEntity
  8
0
100
AcDbVertex
100
AcDb2dVertex
 10
3.01771653543307
 20
6.567913385826771
 30
0.0
  0
VERTEX
  5
2B3E
330
2582
100
AcDbEntity
  8
0
100
AcDbVertex
100
AcDb2dVertex
 10
3.041338582677165
 20
6.563976377952755
 30
0.0
  0
VERTEX
  5
2B3F
330
2582
100
AcDbEntity
  8
0
100
AcDbVertex
100
AcDb2dVertex
 10
3.062992125984251
 20
6.552165354330708
 30
0.0
  0
VERTEX
  5
2B40
330
2582
100
AcDbEntity
  8
0
100
AcDbVertex
100
AcDb2dVertex
 10
3.081692913385826
 20
6.532480314960629
 30
0.0
  0
VERTEX
  5
2B41
330
2582
100
AcDbEntity
  8
0
100
AcDbVertex
100
AcDb2dVertex
 10
3.095472440944881
 20
6.507874015748031
 30
0.0
  0
VERTEX
  5
2B42
330
2582
100
AcDbEntity
  8
0
100
AcDbVertex
100
AcDb2dVertex
 10
3.104330708661417
 20
6.478346456692912
 30
0.0
  0
VERTEX
  5
2B43
330
2582
100
AcDbEntity
  8
0
100
AcDbVertex
100
AcDb2dVertex
 10
3.107283464566929
 20
6.445866141732283
 30
0.0
  0
SEQEND
  5
2B44
330
2582
100
AcDbEntity
  8
0
  0
LINE
  5
258B
330
1E
100
AcDbEntity
  8
0
100
AcDbLine
 10
3.107283464566929
 20
5.534448818897637
 30
0.0
 11
3.107283464566929
 21
6.445866141732283
 31
0.0
  0
POLYLINE
  5
258C
330
1E
100
AcDbEntity
  8
0
100
AcDb2dPolyline
 66
     1
 10
0.0
 20
0.0
 30
0.0
  0
VERTEX
  5
2B45
330
258C
100
AcDbEntity
  8
0
100
AcDbVertex
100
AcDb2dVertex
 10
3.107283464566929
 20
5.534448818897637
 30
0.0
  0
VERTEX
  5
2B46
330
258C
100
AcDbEntity
  8
0
100
AcDbVertex
100
AcDb2dVertex
 10
3.104330708661417
 20
5.502952755905512
 30
0.0
  0
VERTEX
  5
2B47
330
258C
100
AcDbEntity
  8
0
100
AcDbVertex
100
AcDb2dVertex
 10
3.095472440944881
 20
5.473425196850393
 30
0.0
  0
VERTEX
  5
2B48
330
258C
100
AcDbEntity
  8
0
100
AcDbVertex
100
AcDb2dVertex
 10
3.081692913385826
 20
5.447834645669291
 30
0.0
  0
VERTEX
  5
2B49
330
258C
100
AcDbEntity
  8
0
100
AcDbVertex
100
AcDb2dVertex
 10
3.062992125984251
 20
5.429133858267716
 30
0.0
  0
VERTEX
  5
2B4A
330
258C
100
AcDbEntity
  8
0
100
AcDbVertex
100
AcDb2dVertex
 10
3.041338582677165
 20
5.416338582677164
 30
0.0
  0
VERTEX
  5
2B4B
330
258C
100
AcDbEntity
  8
0
100
AcDbVertex
100
AcDb2dVertex
 10
3.01771653543307
 20
5.412401574803149
 30
0.0
  0
SEQEND
  5
2B4C
330
258C
100
AcDbEntity
  8
0
  0
LINE
  5
2595
330
1E
100
AcDbEntity
  8
0
100
AcDbLine
 10
1.725393700787401
 20
5.412401574803149
 30
0.0
 11
3.01771653543307
 21
5.412401574803149
 31
0.0
  0
POLYLINE
  5
2596
330
1E
100
AcDbEntity
  8
0
100
AcDb2dPolyline
 66
     1
 10
0.0
 20
0.0
 30
0.0
  0
VERTEX
  5
2B4D
330
2596
100
AcDbEntity
  8
0
100
AcDbVertex
100
AcDb2dVertex
 10
1.725393700787401
 20
5.412401574803149
 30
0.0
  0
VERTEX
  5
2B4E
330
2596
100
AcDbEntity
  8
0
100
AcDbVertex
100
AcDb2dVertex
 10
1.701771653543307
 20
5.416338582677164
 30
0.0
  0
VERTEX
  5
2B4F
330
2596
100
AcDbEntity
  8
0
100
AcDbVertex
100
AcDb2dVertex
 10
1.68011811023622
 20
5.429133858267716
 30
0.0
  0
VERTEX
  5
2B50
330
2596
100
AcDbEntity
  8
0
100
AcDbVertex
100
AcDb2dVertex
 10
1.661417322834645
 20
5.447834645669291
 30
0.0
  0
VERTEX
  5
2B51
330
2596
100
AcDbEntity
  8
0
100
AcDbVertex
100
AcDb2dVertex
 10
1.64763779527559
 20
5.473425196850393
 30
0.0
  0
VERTEX
  5
2B52
330
2596
100
AcDbEntity
  8
0
100
AcDbVertex
100
AcDb2dVertex
 10
1.638779527559055
 20
5.502952755905512
 30
0.0
  0
VERTEX
  5
2B53
330
2596
100
AcDbEntity
  8
0
100
AcDbVertex
100
AcDb2dVertex
 10
1.635826771653543
 20
5.534448818897637
 30
0.0
  0
SEQEND
  5
2B54
330
2596
100
AcDbEntity
  8
0
  0
LINE
  5
259F
330
1E
100
AcDbEntity
  8
0
100
AcDbLine
 10
1.635826771653543
 20
6.445866141732283
 30
0.0
 11
1.635826771653543
 21
5.534448818897637
 31
0.0
  0
POLYLINE
  5
25A0
330
1E
100
AcDbEntity
  8
0
100
AcDb2dPolyline
 66
     1
 10
0.0
 20
0.0
 30
0.0
  0
VERTEX
  5
2B55
330
25A0
100
AcDbEntity
  8
0
100
AcDbVertex
100
AcDb2dVertex
 10
1.635826771653543
 20
6.445866141732283
 30
0.0
  0
VERTEX
  5
2B56
330
25A0
100
AcDbEntity
  8
0
100
AcDbVertex
100
AcDb2dVertex
 10
1.638779527559055
 20
6.478346456692912
 30
0.0
  0
VERTEX
  5
2B57
330
25A0
100
AcDbEntity
  8
0
100
AcDbVertex
100
AcDb2dVertex
 10
1.64763779527559
 20
6.507874015748031
 30
0.0
  0
VERTEX
  5
2B58
330
25A0
100
AcDbEntity
  8
0
100
AcDbVertex
100
AcDb2dVertex
 10
1.661417322834645
 20
6.532480314960629
 30
0.0
  0
VERTEX
  5
2B59
330
25A0
100
AcDbEntity
  8
0
100
AcDbVertex
100
AcDb2dVertex
 10
1.68011811023622
 20
6.552165354330708
 30
0.0
  0
VERTEX
  5
2B5A
330
25A0
100
AcDbEntity
  8
0
100
AcDbVertex
100
AcDb2dVertex
 10
1.701771653543307
 20
6.563976377952755
 30
0.0
  0
VERTEX
  5
2B5B
330
25A0
100
AcDbEntity
  8
0
100
AcDbVertex
100
AcDb2dVertex
 10
1.725393700787401
 20
6.567913385826771
 30
0.0
  0
SEQEND
  5
2B5C
330
25A0
100
AcDbEntity
  8
0
  0
LINE
  5
25A9
330
1E
100
AcDbEntity
  8
0
100
AcDbLine
 10
1.591535433070866
 20
5.829724409448818
 30
0.0
 11
1.591535433070866
 21
6.151574803149606
 31
0.0
  0
LINE
  5
25AA
330
1E
100
AcDbEntity
  8
0
100
AcDbLine
 10
1.590551181102362
 20
5.345472440944881
 30
0.0
 11
1.590551181102362
 21
5.829724409448818
 31
0.0
  0
LINE
  5
25AB
330
1E
100
AcDbEntity
  8
0
100
AcDbLine
 10
1.590551181102362
 20
5.345472440944881
 30
0.0
 11
3.15255905511811
 21
5.345472440944881
 31
0.0
  0
LINE
  5
25AC
330
1E
100
AcDbEntity
  8
0
100
AcDbLine
 10
3.15255905511811
 20
5.345472440944881
 30
0.0
 11
3.15255905511811
 21
5.829724409448818
 31
0.0
  0
LINE
  5
25AD
330
1E
100
AcDbEntity
  8
0
100
AcDbLine
 10
3.151574803149606
 20
6.151574803149606
 30
0.0
 11
3.151574803149606
 21
5.829724409448818
 31
0.0
  0
LINE
  5
25AE
330
1E
100
AcDbEntity
  8
0
100
AcDbLine
 10
3.15255905511811
 20
6.151574803149606
 30
0.0
 11
3.151574803149606
 21
6.151574803149606
 31
0.0
  0
LINE
  5
25AF
330
1E
100
AcDbEntity
  8
0
100
AcDbLine
 10
3.15255905511811
 20
6.151574803149606
 30
0.0
 11
3.15255905511811
 21
6.634842519685038
 31
0.0
  0
LINE
  5
25B0
330
1E
100
AcDbEntity
  8
0
100
AcDbLine
 10
1.590551181102362
 20
6.634842519685038
 30
0.0
 11
3.15255905511811
 21
6.634842519685038
 31
0.0
  0
LINE
  5
25B1
330
1E
100
AcDbEntity
  8
0
100
AcDbLine
 10
1.590551181102362
 20
6.151574803149606
 30
0.0
 11
1.590551181102362
 21
6.634842519685038
 31
0.0
  0
LINE
  5
25B2
330
1E
100
AcDbEntity
  8
0
100
AcDbLine
 10
1.591535433070866
 20
6.151574803149606
 30
0.0
 11
1.590551181102362
 21
6.151574803149606
 31
0.0
  0
LINE
  5
25B3
330
1E
100
AcDbEntity
  8
0
100
AcDbLine
 10
1.590551181102362
 20
5.340551181102362
 30
0.0
 11
1.590551181102362
 21
5.345472440944881
 31
0.0
  0
LINE
  5
25B4
330
1E
100
AcDbEntity
  8
0
100
AcDbLine
 10
3.15255905511811
 20
5.340551181102362
 30
0.0
 11
3.15255905511811
 21
5.345472440944881
 31
0.0
  0
LINE
  5
25B5
330
1E
100
AcDbEntity
  8
0
100
AcDbLine
 10
1.755905511811023
 20
5.99507874015748
 30
0.0
 11
1.755905511811023
 21
5.435039370078739
 31
0.0
  0
LINE
  5
25B6
330
1E
100
AcDbEntity
  8
0
100
AcDbLine
 10
2.33759842519685
 20
5.99507874015748
 30
0.0
 11
2.33759842519685
 21
5.435039370078739
 31
0.0
  0
LINE
  5
25B7
330
1E
100
AcDbEntity
  8
0
100
AcDbLine
 10
2.987204724409448
 20
5.99507874015748
 30
0.0
 11
2.987204724409448
 21
5.435039370078739
 31
0.0
  0
LINE
  5
25B8
330
1E
100
AcDbEntity
  8
0
100
AcDbLine
 10
2.405511811023622
 20
5.99507874015748
 30
0.0
 11
2.405511811023622
 21
5.435039370078739
 31
0.0
  0
LINE
  5
25B9
330
1E
100
AcDbEntity
  8
0
100
AcDbLine
 10
1.752952755905511
 20
6.191929133858267
 30
0.0
 11
2.99015748031496
 21
6.191929133858267
 31
0.0
  0
LINE
  5
25BA
330
1E
100
AcDbEntity
  8
0
100
AcDbLine
 10
2.99015748031496
 20
6.191929133858267
 30
0.0
 11
3.01771653543307
 21
6.567913385826771
 31
0.0
  0
LINE
  5
25BB
330
1E
100
AcDbEntity
  8
0
100
AcDbLine
 10
1.725393700787401
 20
6.567913385826771
 30
0.0
 11
1.752952755905511
 21
6.191929133858267
 31
0.0
  0
LINE
  5
25BC
330
1E
100
AcDbEntity
  8
0
100
AcDbLine
 10
3.107283464566929
 20
6.445866141732283
 30
0.0
 11
3.08267716535433
 21
6.112204724409449
 31
0.0
  0
LINE
  5
25BD
330
1E
100
AcDbEntity
  8
0
100
AcDbLine
 10
3.08267716535433
 20
6.112204724409449
 30
0.0
 11
3.107283464566929
 21
5.534448818897637
 31
0.0
  0
LINE
  5
25BE
330
1E
100
AcDbEntity
  8
0
100
AcDbLine
 10
1.635826771653543
 20
5.534448818897637
 30
0.0
 11
1.660433070866141
 21
6.112204724409449
 31
0.0
  0
LINE
  5
25BF
330
1E
100
AcDbEntity
  8
0
100
AcDbLine
 10
1.660433070866141
 20
6.112204724409449
 30
0.0
 11
1.635826771653543
 21
6.445866141732283
 31
0.0
  0
LINE
  5
25C0
330
1E
100
AcDbEntity
  8
0
100
AcDbLine
 10
1.755905511811023
 20
5.99507874015748
 30
0.0
 11
2.33759842519685
 21
5.99507874015748
 31
0.0
  0
LINE
  5
25C1
330
1E
100
AcDbEntity
  8
0
100
AcDbLine
 10
1.755905511811023
 20
5.435039370078739
 30
0.0
 11
2.33759842519685
 21
5.435039370078739
 31
0.0
  0
LINE
  5
25C2
330
1E
100
AcDbEntity
  8
0
100
AcDbLine
 10
2.405511811023622
 20
5.99507874015748
 30
0.0
 11
2.987204724409448
 21
5.99507874015748
 31
0.0
  0
LINE
  5
25C3
330
1E
100
AcDbEntity
  8
0
100
AcDbLine
 10
3.01771653543307
 20
5.412401574803149
 30
0.0
 11
2.99015748031496
 21
6.06496062992126
 31
0.0
  0
LINE
  5
25C4
330
1E
100
AcDbEntity
  8
0
100
AcDbLine
 10
2.99015748031496
 20
6.06496062992126
 30
0.0
 11
1.752952755905511
 21
6.06496062992126
 31
0.0
  0
LINE
  5
25C5
330
1E
100
AcDbEntity
  8
0
100
AcDbLine
 10
1.752952755905511
 20
6.06496062992126
 30
0.0
 11
1.725393700787401
 21
5.412401574803149
 31
0.0
  0
LINE
  5
25C6
330
1E
100
AcDbEntity
  8
0
100
AcDbLine
 10
2.405511811023622
 20
5.435039370078739
 30
0.0
 11
2.987204724409448
 21
5.435039370078739
 31
0.0
  0
LINE
  5
25C7
330
1E
100
AcDbEntity
  8
0
100
AcDbLine
 10
1.591535433070866
 20
6.132874015748031
 30
0.0
 11
1.590551181102362
 21
6.151574803149606
 31
0.0
  0
LINE
  5
25C8
330
1E
100
AcDbEntity
  8
0
100
AcDbLine
 10
3.151574803149606
 20
6.132874015748031
 30
0.0
 11
3.15255905511811
 21
6.151574803149606
 31
0.0
  0
LINE
  5
25C9
330
1E
100
AcDbEntity
  8
0
100
AcDbLine
 10
2.129921259842519
 20
5.496062992125984
 30
0.0
 11
1.963582677165354
 21
5.496062992125984
 31
0.0
  0
LINE
  5
25CA
330
1E
100
AcDbEntity
  8
0
100
AcDbLine
 10
2.129921259842519
 20
5.496062992125984
 30
0.0
 11
2.129921259842519
 21
5.516732283464566
 31
0.0
  0
LINE
  5
25CB
330
1E
100
AcDbEntity
  8
0
100
AcDbLine
 10
2.129921259842519
 20
5.51279527559055
 30
0.0
 11
2.129921259842519
 21
5.516732283464566
 31
0.0
  0
LINE
  5
25CC
330
1E
100
AcDbEntity
  8
0
100
AcDbLine
 10
2.129921259842519
 20
5.496062992125984
 30
0.0
 11
2.129921259842519
 21
5.51279527559055
 31
0.0
  0
LINE
  5
25CD
330
1E
100
AcDbEntity
  8
0
100
AcDbLine
 10
2.614173228346456
 20
5.496062992125984
 30
0.0
 11
2.614173228346456
 21
5.511811023622047
 31
0.0
  0
LINE
  5
25CE
330
1E
100
AcDbEntity
  8
0
100
AcDbLine
 10
2.613188976377952
 20
5.516732283464566
 30
0.0
 11
2.614173228346456
 21
5.511811023622047
 31
0.0
  0
LINE
  5
25CF
330
1E
100
AcDbEntity
  8
0
100
AcDbLine
 10
2.613188976377952
 20
5.496062992125984
 30
0.0
 11
2.613188976377952
 21
5.516732283464566
 31
0.0
  0
LINE
  5
25D0
330
1E
100
AcDbEntity
  8
0
100
AcDbLine
 10
2.779527559055118
 20
5.496062992125984
 30
0.0
 11
2.613188976377952
 21
5.496062992125984
 31
0.0
  0
LINE
  5
25D1
330
1E
100
AcDbEntity
  8
0
100
AcDbLine
 10
1.963582677165354
 20
5.496062992125984
 30
0.0
 11
1.963582677165354
 21
5.51279527559055
 31
0.0
  0
LINE
  5
25D2
330
1E
100
AcDbEntity
  8
0
100
AcDbLine
 10
1.963582677165354
 20
5.516732283464566
 30
0.0
 11
1.963582677165354
 21
5.51279527559055
 31
0.0
  0
LINE
  5
25D3
330
1E
100
AcDbEntity
  8
0
100
AcDbLine
 10
1.963582677165354
 20
5.496062992125984
 30
0.0
 11
1.963582677165354
 21
5.516732283464566
 31
0.0
  0
LINE
  5
25D4
330
1E
100
AcDbEntity
  8
0
100
AcDbLine
 10
2.779527559055118
 20
5.496062992125984
 30
0.0
 11
2.779527559055118
 21
5.516732283464566
 31
0.0
  0
LINE
  5
25D5
330
1E
100
AcDbEntity
  8
0
100
AcDbLine
 10
2.779527559055118
 20
5.51279527559055
 30
0.0
 11
2.779527559055118
 21
5.516732283464566
 31
0.0
  0
LINE
  5
25D6
330
1E
100
AcDbEntity
  8
0
100
AcDbLine
 10
2.779527559055118
 20
5.496062992125984
 30
0.0
 11
2.779527559055118
 21
5.51279527559055
 31
0.0
  0
LINE
  5
25D7
330
1E
100
AcDbEntity
  8
0
100
AcDbLine
 10
2.779527559055118
 20
5.51279527559055
 30
0.0
 11
2.779527559055118
 21
5.51279527559055
 31
0.0
  0
LINE
  5
25D8
330
1E
100
AcDbEntity
  8
0
100
AcDbLine
 10
2.779527559055118
 20
5.51279527559055
 30
0.0
 11
2.779527559055118
 21
5.496062992125984
 31
0.0
  0
LINE
  5
25D9
330
1E
100
AcDbEntity
  8
0
100
AcDbLine
 10
2.774606299212598
 20
5.502952755905512
 30
0.0
 11
2.779527559055118
 21
5.51279527559055
 31
0.0
  0
LINE
  5
25DA
330
1E
100
AcDbEntity
  8
0
100
AcDbLine
 10
2.774606299212598
 20
5.502952755905512
 30
0.0
 11
2.773622047244094
 21
5.501968503937007
 31
0.0
  0
LINE
  5
25DB
330
1E
100
AcDbEntity
  8
0
100
AcDbLine
 10
2.773622047244094
 20
5.501968503937007
 30
0.0
 11
2.773622047244094
 21
5.496062992125984
 31
0.0
  0
LINE
  5
25DC
330
1E
100
AcDbEntity
  8
0
100
AcDbLine
 10
2.773622047244094
 20
5.501968503937007
 30
0.0
 11
2.618110236220472
 21
5.501968503937007
 31
0.0
  0
LINE
  5
25DD
330
1E
100
AcDbEntity
  8
0
100
AcDbLine
 10
2.618110236220472
 20
5.501968503937007
 30
0.0
 11
2.618110236220472
 21
5.496062992125984
 31
0.0
  0
LINE
  5
25DE
330
1E
100
AcDbEntity
  8
0
100
AcDbLine
 10
2.618110236220472
 20
5.501968503937007
 30
0.0
 11
2.618110236220472
 21
5.502952755905512
 31
0.0
  0
LINE
  5
25DF
330
1E
100
AcDbEntity
  8
0
100
AcDbLine
 10
2.614173228346456
 20
5.511811023622047
 30
0.0
 11
2.618110236220472
 21
5.502952755905512
 31
0.0
  0
LINE
  5
25E0
330
1E
100
AcDbEntity
  8
0
100
AcDbLine
 10
2.125
 20
5.502952755905512
 30
0.0
 11
2.129921259842519
 21
5.51279527559055
 31
0.0
  0
LINE
  5
25E1
330
1E
100
AcDbEntity
  8
0
100
AcDbLine
 10
2.125
 20
5.502952755905512
 30
0.0
 11
2.124015748031495
 21
5.501968503937007
 31
0.0
  0
LINE
  5
25E2
330
1E
100
AcDbEntity
  8
0
100
AcDbLine
 10
2.124015748031495
 20
5.496062992125984
 30
0.0
 11
2.124015748031495
 21
5.501968503937007
 31
0.0
  0
LINE
  5
25E3
330
1E
100
AcDbEntity
  8
0
100
AcDbLine
 10
2.124015748031495
 20
5.501968503937007
 30
0.0
 11
1.968503937007874
 21
5.501968503937007
 31
0.0
  0
LINE
  5
25E4
330
1E
100
AcDbEntity
  8
0
100
AcDbLine
 10
1.968503937007874
 20
5.496062992125984
 30
0.0
 11
1.968503937007874
 21
5.501968503937007
 31
0.0
  0
LINE
  5
25E5
330
1E
100
AcDbEntity
  8
0
100
AcDbLine
 10
1.968503937007874
 20
5.501968503937007
 30
0.0
 11
1.968503937007874
 21
5.502952755905512
 31
0.0
  0
LINE
  5
25E6
330
1E
100
AcDbEntity
  8
0
100
AcDbLine
 10
1.963582677165354
 20
5.51279527559055
 30
0.0
 11
1.968503937007874
 21
5.502952755905512
 31
0.0
  0
LINE
  5
25E7
330
1E
100
AcDbEntity
  8
0
100
AcDbLine
 10
2.613188976377952
 20
5.516732283464566
 30
0.0
 11
2.405511811023622
 21
5.516732283464566
 31
0.0
  0
LINE
  5
25E8
330
1E
100
AcDbEntity
  8
0
100
AcDbLine
 10
2.33759842519685
 20
5.516732283464566
 30
0.0
 11
2.129921259842519
 21
5.516732283464566
 31
0.0
  0
LINE
  5
25E9
330
1E
100
AcDbEntity
  8
0
100
AcDbLine
 10
1.755905511811023
 20
5.496062992125984
 30
0.0
 11
1.963582677165354
 21
5.496062992125984
 31
0.0
  0
LINE
  5
25EA
330
1E
100
AcDbEntity
  8
0
100
AcDbLine
 10
1.963582677165354
 20
5.516732283464566
 30
0.0
 11
1.755905511811023
 21
5.516732283464566
 31
0.0
  0
LINE
  5
25EB
330
1E
100
AcDbEntity
  8
0
100
AcDbLine
 10
2.33759842519685
 20
5.48523622047244
 30
0.0
 11
1.755905511811023
 21
5.48523622047244
 31
0.0
  0
LINE
  5
25EC
330
1E
100
AcDbEntity
  8
0
100
AcDbLine
 10
2.129921259842519
 20
5.496062992125984
 30
0.0
 11
2.33759842519685
 21
5.496062992125984
 31
0.0
  0
LINE
  5
25ED
330
1E
100
AcDbEntity
  8
0
100
AcDbLine
 10
2.987204724409448
 20
5.516732283464566
 30
0.0
 11
2.779527559055118
 21
5.516732283464566
 31
0.0
  0
LINE
  5
25EE
330
1E
100
AcDbEntity
  8
0
100
AcDbLine
 10
2.779527559055118
 20
5.496062992125984
 30
0.0
 11
2.987204724409448
 21
5.496062992125984
 31
0.0
  0
LINE
  5
25EF
330
1E
100
AcDbEntity
  8
0
100
AcDbLine
 10
2.405511811023622
 20
5.496062992125984
 30
0.0
 11
2.613188976377952
 21
5.496062992125984
 31
0.0
  0
LINE
  5
25F0
330
1E
100
AcDbEntity
  8
0
100
AcDbLine
 10
2.987204724409448
 20
5.48523622047244
 30
0.0
 11
2.405511811023622
 21
5.48523622047244
 31
0.0
  0
LINE
  5
25F1
330
1E
100
AcDbEntity
  8
0
100
AcDbLine
 10
3.151574803149606
 20
6.132874015748031
 30
0.0
 11
3.154527559055118
 21
6.043307086614173
 31
0.0
  0
LINE
  5
25F2
330
1E
100
AcDbEntity
  8
0
100
AcDbLine
 10
3.154527559055118
 20
6.043307086614173
 30
0.0
 11
3.15748031496063
 21
6.043307086614173
 31
0.0
  0
LINE
  5
25F3
330
1E
100
AcDbEntity
  8
0
100
AcDbLine
 10
3.154527559055118
 20
5.746062992125984
 30
0.0
 11
3.15748031496063
 21
5.746062992125984
 31
0.0
  0
LINE
  5
25F4
330
1E
100
AcDbEntity
  8
0
100
AcDbLine
 10
3.15255905511811
 20
5.787401574803149
 30
0.0
 11
3.154527559055118
 21
5.746062992125984
 31
0.0
  0
LINE
  5
25F5
330
1E
100
AcDbEntity
  8
0
100
AcDbLine
 10
3.154527559055118
 20
5.746062992125984
 30
0.0
 11
3.154527559055118
 21
6.043307086614173
 31
0.0
  0
LINE
  5
25F6
330
1E
100
AcDbEntity
  8
0
100
AcDbLine
 10
3.151574803149606
 20
6.151574803149606
 30
0.0
 11
3.151574803149606
 21
6.132874015748031
 31
0.0
  0
LINE
  5
25F7
330
1E
100
AcDbEntity
  8
0
100
AcDbLine
 10
1.588582677165354
 20
6.043307086614173
 30
0.0
 11
1.585629921259842
 21
6.043307086614173
 31
0.0
  0
LINE
  5
25F8
330
1E
100
AcDbEntity
  8
0
100
AcDbLine
 10
1.591535433070866
 20
6.132874015748031
 30
0.0
 11
1.588582677165354
 21
6.043307086614173
 31
0.0
  0
LINE
  5
25F9
330
1E
100
AcDbEntity
  8
0
100
AcDbLine
 10
1.590551181102362
 20
5.787401574803149
 30
0.0
 11
1.588582677165354
 21
5.746062992125984
 31
0.0
  0
LINE
  5
25FA
330
1E
100
AcDbEntity
  8
0
100
AcDbLine
 10
1.588582677165354
 20
5.746062992125984
 30
0.0
 11
1.585629921259842
 21
5.746062992125984
 31
0.0
  0
LINE
  5
25FB
330
1E
100
AcDbEntity
  8
0
100
AcDbLine
 10
1.588582677165354
 20
5.746062992125984
 30
0.0
 11
1.588582677165354
 21
6.043307086614173
 31
0.0
  0
LINE
  5
25FC
330
1E
100
AcDbEntity
  8
0
100
AcDbLine
 10
1.591535433070866
 20
6.151574803149606
 30
0.0
 11
1.591535433070866
 21
6.132874015748031
 31
0.0
  0
POLYLINE
  5
25FD
330
1E
100
AcDbEntity
  8
0
100
AcDb2dPolyline
 66
     1
 10
0.0
 20
0.0
 30
0.0
  0
VERTEX
  5
2B5D
330
25FD
100
AcDbEntity
  8
0
100
AcDbVertex
100
AcDb2dVertex
 10
2.99015748031496
 20
6.06496062992126
 30
0.0
  0
VERTEX
  5
2B5E
330
25FD
100
AcDbEntity
  8
0
100
AcDbVertex
100
AcDb2dVertex
 10
2.99015748031496
 20
6.091535433070865
 30
0.0
  0
VERTEX
  5
2B5F
330
25FD
100
AcDbEntity
  8
0
100
AcDbVertex
100
AcDb2dVertex
 10
2.99015748031496
 20
6.121062992125984
 30
0.0
  0
VERTEX
  5
2B60
330
25FD
100
AcDbEntity
  8
0
100
AcDbVertex
100
AcDb2dVertex
 10
2.99015748031496
 20
6.148622047244094
 30
0.0
  0
VERTEX
  5
2B61
330
25FD
100
AcDbEntity
  8
0
100
AcDbVertex
100
AcDb2dVertex
 10
2.99015748031496
 20
6.173228346456692
 30
0.0
  0
VERTEX
  5
2B62
330
25FD
100
AcDbEntity
  8
0
100
AcDbVertex
100
AcDb2dVertex
 10
2.99015748031496
 20
6.191929133858267
 30
0.0
  0
SEQEND
  5
2B63
330
25FD
100
AcDbEntity
  8
0
  0
POLYLINE
  5
2605
330
1E
100
AcDbEntity
  8
0
100
AcDb2dPolyline
 66
     1
 10
0.0
 20
0.0
 30
0.0
  0
VERTEX
  5
2B64
330
2605
100
AcDbEntity
  8
0
100
AcDbVertex
100
AcDb2dVertex
 10
1.752952755905511
 20
6.191929133858267
 30
0.0
  0
VERTEX
  5
2B65
330
2605
100
AcDbEntity
  8
0
100
AcDbVertex
100
AcDb2dVertex
 10
1.752952755905511
 20
6.173228346456692
 30
0.0
  0
VERTEX
  5
2B66
330
2605
100
AcDbEntity
  8
0
100
AcDbVertex
100
AcDb2dVertex
 10
1.752952755905511
 20
6.148622047244094
 30
0.0
  0
VERTEX
  5
2B67
330
2605
100
AcDbEntity
  8
0
100
AcDbVertex
100
AcDb2dVertex
 10
1.752952755905511
 20
6.121062992125984
 30
0.0
  0
VERTEX
  5
2B68
330
2605
100
AcDbEntity
  8
0
100
AcDbVertex
100
AcDb2dVertex
 10
1.752952755905511
 20
6.091535433070865
 30
0.0
  0
VERTEX
  5
2B69
330
2605
100
AcDbEntity
  8
0
100
AcDbVertex
100
AcDb2dVertex
 10
1.752952755905511
 20
6.06496062992126
 30
0.0
  0
SEQEND
  5
2B6A
330
2605
100
AcDbEntity
  8
0
  0
POLYLINE
  5
260D
330
1E
100
AcDbEntity
  8
0
100
AcDb2dPolyline
 66
     1
 10
0.0
 20
0.0
 30
0.0
  0
VERTEX
  5
2B6B
330
260D
100
AcDbEntity
  8
0
100
AcDbVertex
100
AcDb2dVertex
 10
3.08267716535433
 20
6.112204724409449
 30
0.0
  0
VERTEX
  5
2B6C
330
260D
100
AcDbEntity
  8
0
100
AcDbVertex
100
AcDb2dVertex
 10
3.077755905511811
 20
6.136811023622047
 30
0.0
  0
VERTEX
  5
2B6D
330
260D
100
AcDbEntity
  8
0
100
AcDbVertex
100
AcDb2dVertex
 10
3.063976377952756
 20
6.158464566929133
 30
0.0
  0
VERTEX
  5
2B6E
330
260D
100
AcDbEntity
  8
0
100
AcDbVertex
100
AcDb2dVertex
 10
3.043307086614173
 20
6.176181102362204
 30
0.0
  0
VERTEX
  5
2B6F
330
260D
100
AcDbEntity
  8
0
100
AcDbVertex
100
AcDb2dVertex
 10
3.018700787401574
 20
6.187992125984251
 30
0.0
  0
VERTEX
  5
2B70
330
260D
100
AcDbEntity
  8
0
100
AcDbVertex
100
AcDb2dVertex
 10
2.99015748031496
 20
6.191929133858267
 30
0.0
  0
SEQEND
  5
2B71
330
260D
100
AcDbEntity
  8
0
  0
POLYLINE
  5
2615
330
1E
100
AcDbEntity
  8
0
100
AcDb2dPolyline
 66
     1
 10
0.0
 20
0.0
 30
0.0
  0
VERTEX
  5
2B72
330
2615
100
AcDbEntity
  8
0
100
AcDbVertex
100
AcDb2dVertex
 10
3.08267716535433
 20
6.112204724409449
 30
0.0
  0
VERTEX
  5
2B73
330
2615
100
AcDbEntity
  8
0
100
AcDbVertex
100
AcDb2dVertex
 10
3.077755905511811
 20
6.098425196850393
 30
0.0
  0
VERTEX
  5
2B74
330
2615
100
AcDbEntity
  8
0
100
AcDbVertex
100
AcDb2dVertex
 10
3.063976377952756
 20
6.085629921259842
 30
0.0
  0
VERTEX
  5
2B75
330
2615
100
AcDbEntity
  8
0
100
AcDbVertex
100
AcDb2dVertex
 10
3.043307086614173
 20
6.074803149606299
 30
0.0
  0
VERTEX
  5
2B76
330
2615
100
AcDbEntity
  8
0
100
AcDbVertex
100
AcDb2dVertex
 10
3.018700787401574
 20
6.067913385826771
 30
0.0
  0
VERTEX
  5
2B77
330
2615
100
AcDbEntity
  8
0
100
AcDbVertex
100
AcDb2dVertex
 10
2.99015748031496
 20
6.06496062992126
 30
0.0
  0
SEQEND
  5
2B78
330
2615
100
AcDbEntity
  8
0
  0
POLYLINE
  5
261D
330
1E
100
AcDbEntity
  8
0
100
AcDb2dPolyline
 66
     1
 10
0.0
 20
0.0
 30
0.0
  0
VERTEX
  5
2B79
330
261D
100
AcDbEntity
  8
0
100
AcDbVertex
100
AcDb2dVertex
 10
1.660433070866141
 20
6.112204724409449
 30
0.0
  0
VERTEX
  5
2B7A
330
261D
100
AcDbEntity
  8
0
100
AcDbVertex
100
AcDb2dVertex
 10
1.665354330708661
 20
6.098425196850393
 30
0.0
  0
VERTEX
  5
2B7B
330
261D
100
AcDbEntity
  8
0
100
AcDbVertex
100
AcDb2dVertex
 10
1.679133858267716
 20
6.085629921259842
 30
0.0
  0
VERTEX
  5
2B7C
330
261D
100
AcDbEntity
  8
0
100
AcDbVertex
100
AcDb2dVertex
 10
1.699803149606299
 20
6.074803149606299
 30
0.0
  0
VERTEX
  5
2B7D
330
261D
100
AcDbEntity
  8
0
100
AcDbVertex
100
AcDb2dVertex
 10
1.725393700787401
 20
6.067913385826771
 30
0.0
  0
VERTEX
  5
2B7E
330
261D
100
AcDbEntity
  8
0
100
AcDbVertex
100
AcDb2dVertex
 10
1.752952755905511
 20
6.06496062992126
 30
0.0
  0
SEQEND
  5
2B7F
330
261D
100
AcDbEntity
  8
0
  0
POLYLINE
  5
2625
330
1E
100
AcDbEntity
  8
0
100
AcDb2dPolyline
 66
     1
 10
0.0
 20
0.0
 30
0.0
  0
VERTEX
  5
2B80
330
2625
100
AcDbEntity
  8
0
100
AcDbVertex
100
AcDb2dVertex
 10
1.660433070866141
 20
6.112204724409449
 30
0.0
  0
VERTEX
  5
2B81
330
2625
100
AcDbEntity
  8
0
100
AcDbVertex
100
AcDb2dVertex
 10
1.665354330708661
 20
6.136811023622047
 30
0.0
  0
VERTEX
  5
2B82
330
2625
100
AcDbEntity
  8
0
100
AcDbVertex
100
AcDb2dVertex
 10
1.679133858267716
 20
6.158464566929133
 30
0.0
  0
VERTEX
  5
2B83
330
2625
100
AcDbEntity
  8
0
100
AcDbVertex
100
AcDb2dVertex
 10
1.699803149606299
 20
6.176181102362204
 30
0.0
  0
VERTEX
  5
2B84
330
2625
100
AcDbEntity
  8
0
100
AcDbVertex
100
AcDb2dVertex
 10
1.725393700787401
 20
6.187992125984251
 30
0.0
  0
VERTEX
  5
2B85
330
2625
100
AcDbEntity
  8
0
100
AcDbVertex
100
AcDb2dVertex
 10
1.752952755905511
 20
6.191929133858267
 30
0.0
  0
SEQEND
  5
2B86
330
2625
100
AcDbEntity
  8
0
  0
LINE
  5
262D
330
1E
100
AcDbEntity
  8
0
100
AcDbLine
 10
1.585629921259842
 20
6.182086614173228
 30
0.0
 11
1.536417322834645
 21
6.182086614173228
 31
0.0
  0
LINE
  5
262E
330
1E
100
AcDbEntity
  8
0
100
AcDbLine
 10
1.536417322834645
 20
6.182086614173228
 30
0.0
 11
1.540354330708661
 21
5.359251968503937
 31
0.0
  0
LINE
  5
262F
330
1E
100
AcDbEntity
  8
0
100
AcDbLine
 10
1.540354330708661
 20
5.359251968503937
 30
0.0
 11
1.585629921259842
 21
5.359251968503937
 31
0.0
  0
LINE
  5
2630
330
1E
100
AcDbEntity
  8
0
100
AcDbLine
 10
1.585629921259842
 20
5.866141732283464
 30
0.0
 11
1.585629921259842
 21
5.359251968503937
 31
0.0
  0
LINE
  5
2631
330
1E
100
AcDbEntity
  8
0
100
AcDbLine
 10
1.552165354330708
 20
5.866141732283464
 30
0.0
 11
1.585629921259842
 21
5.866141732283464
 31
0.0
  0
LINE
  5
2632
330
1E
100
AcDbEntity
  8
0
100
AcDbLine
 10
1.552165354330708
 20
6.114173228346456
 30
0.0
 11
1.552165354330708
 21
5.866141732283464
 31
0.0
  0
LINE
  5
2633
330
1E
100
AcDbEntity
  8
0
100
AcDbLine
 10
1.585629921259842
 20
6.114173228346456
 30
0.0
 11
1.552165354330708
 21
6.114173228346456
 31
0.0
  0
LINE
  5
2634
330
1E
100
AcDbEntity
  8
0
100
AcDbLine
 10
1.585629921259842
 20
6.182086614173228
 30
0.0
 11
1.585629921259842
 21
6.114173228346456
 31
0.0
  0
POLYLINE
  5
2635
330
1E
100
AcDbEntity
  8
0
100
AcDb2dPolyline
 66
     1
 10
0.0
 20
0.0
 30
0.0
  0
VERTEX
  5
2B87
330
2635
100
AcDbEntity
  8
0
100
AcDbVertex
100
AcDb2dVertex
 10
3.15748031496063
 20
5.340551181102362
 30
0.0
  0
VERTEX
  5
2B88
330
2635
100
AcDbEntity
  8
0
100
AcDbVertex
100
AcDb2dVertex
 10
3.15748031496063
 20
5.349409448818897
 30
0.0
  0
VERTEX
  5
2B89
330
2635
100
AcDbEntity
  8
0
100
AcDbVertex
100
AcDb2dVertex
 10
3.15748031496063
 20
5.359251968503937
 30
0.0
  0
SEQEND
  5
2B8A
330
2635
100
AcDbEntity
  8
0
  0
LINE
  5
263A
330
1E
100
AcDbEntity
  8
0
100
AcDbLine
 10
3.15748031496063
 20
5.359251968503937
 30
0.0
 11
3.15748031496063
 21
5.866141732283464
 31
0.0
  0
LINE
  5
263B
330
1E
100
AcDbEntity
  8
0
100
AcDbLine
 10
3.15748031496063
 20
5.866141732283464
 30
0.0
 11
3.15748031496063
 21
5.869094488188975
 31
0.0
  0
POLYLINE
  5
263C
330
1E
100
AcDbEntity
  8
0
100
AcDb2dPolyline
 66
     1
 10
0.0
 20
0.0
 30
0.0
  0
VERTEX
  5
2B8B
330
263C
100
AcDbEntity
  8
0
100
AcDbVertex
100
AcDb2dVertex
 10
1.585629921259842
 20
5.359251968503937
 30
0.0
  0
VERTEX
  5
2B8C
330
263C
100
AcDbEntity
  8
0
100
AcDbVertex
100
AcDb2dVertex
 10
1.585629921259842
 20
5.349409448818897
 30
0.0
  0
VERTEX
  5
2B8D
330
263C
100
AcDbEntity
  8
0
100
AcDbVertex
100
AcDb2dVertex
 10
1.585629921259842
 20
5.340551181102362
 30
0.0
  0
SEQEND
  5
2B8E
330
263C
100
AcDbEntity
  8
0
  0
LINE
  5
2641
330
1E
100
AcDbEntity
  8
0
100
AcDbLine
 10
1.585629921259842
 20
5.869094488188975
 30
0.0
 11
1.585629921259842
 21
5.866141732283464
 31
0.0
  0
LINE
  5
2642
330
1E
100
AcDbEntity
  8
0
100
AcDbLine
 10
3.15748031496063
 20
5.6751968503937
 30
0.0
 11
3.15255905511811
 21
5.6751968503937
 31
0.0
  0
LINE
  5
2643
330
1E
100
AcDbEntity
  8
0
100
AcDbLine
 10
3.15255905511811
 20
5.432086614173228
 30
0.0
 11
3.15748031496063
 21
5.432086614173228
 31
0.0
  0
LINE
  5
2644
330
1E
100
AcDbEntity
  8
0
100
AcDbLine
 10
1.590551181102362
 20
5.6751968503937
 30
0.0
 11
1.585629921259842
 21
5.6751968503937
 31
0.0
  0
LINE
  5
2645
330
1E
100
AcDbEntity
  8
0
100
AcDbLine
 10
1.585629921259842
 20
5.432086614173228
 30
0.0
 11
1.590551181102362
 21
5.432086614173228
 31
0.0
  0
LINE
  5
2646
330
1E
100
AcDbEntity
  8
0
100
AcDbLine
 10
1.590551181102362
 20
6.591535433070865
 30
0.0
 11
1.585629921259842
 21
6.591535433070865
 31
0.0
  0
LINE
  5
2647
330
1E
100
AcDbEntity
  8
0
100
AcDbLine
 10
1.585629921259842
 20
6.313976377952755
 30
0.0
 11
1.590551181102362
 21
6.313976377952755
 31
0.0
  0
LINE
  5
2648
330
1E
100
AcDbEntity
  8
0
100
AcDbLine
 10
3.206692913385826
 20
6.803149606299212
 30
0.0
 11
1.536417322834645
 21
6.803149606299212
 31
0.0
  0
LINE
  5
2649
330
1E
100
AcDbEntity
  8
0
100
AcDbLine
 10
1.536417322834645
 20
6.803149606299212
 30
0.0
 11
1.536417322834645
 21
6.20767716535433
 31
0.0
  0
LINE
  5
264A
330
1E
100
AcDbEntity
  8
0
100
AcDbLine
 10
1.536417322834645
 20
6.20767716535433
 30
0.0
 11
1.585629921259842
 21
6.20767716535433
 31
0.0
  0
LINE
  5
264B
330
1E
100
AcDbEntity
  8
0
100
AcDbLine
 10
1.585629921259842
 20
6.756889763779527
 30
0.0
 11
1.585629921259842
 21
6.20767716535433
 31
0.0
  0
LINE
  5
264C
330
1E
100
AcDbEntity
  8
0
100
AcDbLine
 10
1.585629921259842
 20
6.756889763779527
 30
0.0
 11
3.15748031496063
 21
6.756889763779527
 31
0.0
  0
LINE
  5
264D
330
1E
100
AcDbEntity
  8
0
100
AcDbLine
 10
3.15748031496063
 20
6.20767716535433
 30
0.0
 11
3.15748031496063
 21
6.756889763779527
 31
0.0
  0
LINE
  5
264E
330
1E
100
AcDbEntity
  8
0
100
AcDbLine
 10
3.15748031496063
 20
6.20767716535433
 30
0.0
 11
3.206692913385826
 21
6.20767716535433
 31
0.0
  0
LINE
  5
264F
330
1E
100
AcDbEntity
  8
0
100
AcDbLine
 10
3.206692913385826
 20
6.20767716535433
 30
0.0
 11
3.206692913385826
 21
6.803149606299212
 31
0.0
  0
LINE
  5
2650
330
1E
100
AcDbEntity
  8
0
100
AcDbLine
 10
3.206692913385826
 20
5.08267716535433
 30
0.0
 11
1.536417322834645
 21
5.08267716535433
 31
0.0
  0
LINE
  5
2651
330
1E
100
AcDbEntity
  8
0
100
AcDbLine
 10
1.536417322834645
 20
5.08267716535433
 30
0.0
 11
1.535433070866141
 21
5.081692913385826
 31
0.0
  0
LINE
  5
2652
330
1E
100
AcDbEntity
  8
0
100
AcDbLine
 10
1.535433070866141
 20
5.081692913385826
 30
0.0
 11
2.328740157480314
 21
5.081692913385826
 31
0.0
  0
LINE
  5
2653
330
1E
100
AcDbEntity
  8
0
100
AcDbLine
 10
2.414370078740157
 20
5.081692913385826
 30
0.0
 11
2.328740157480314
 21
5.081692913385826
 31
0.0
  0
LINE
  5
2654
330
1E
100
AcDbEntity
  8
0
100
AcDbLine
 10
2.414370078740157
 20
5.081692913385826
 30
0.0
 11
3.20767716535433
 21
5.081692913385826
 31
0.0
  0
LINE
  5
2655
330
1E
100
AcDbEntity
  8
0
100
AcDbLine
 10
3.20767716535433
 20
5.081692913385826
 30
0.0
 11
3.206692913385826
 21
5.08267716535433
 31
0.0
  0
LINE
  5
2656
330
1E
100
AcDbEntity
  8
0
100
AcDbLine
 10
1.486220472440944
 20
6.20767716535433
 30
0.0
 11
1.486220472440944
 21
6.803149606299212
 31
0.0
  0
LINE
  5
2657
330
1E
100
AcDbEntity
  8
0
100
AcDbLine
 10
1.486220472440944
 20
6.803149606299212
 30
0.0
 11
1.486220472440944
 21
6.803149606299212
 31
0.0
  0
LINE
  5
2658
330
1E
100
AcDbEntity
  8
0
100
AcDbLine
 10
1.486220472440944
 20
6.803149606299212
 30
0.0
 11
1.486220472440944
 21
5.59251968503937
 31
0.0
  0
LINE
  5
2659
330
1E
100
AcDbEntity
  8
0
100
AcDbLine
 10
1.486220472440944
 20
5.506889763779527
 30
0.0
 11
1.486220472440944
 21
5.59251968503937
 31
0.0
  0
LINE
  5
265A
330
1E
100
AcDbEntity
  8
0
100
AcDbLine
 10
1.486220472440944
 20
5.506889763779527
 30
0.0
 11
1.486220472440944
 21
5.131889763779527
 31
0.0
  0
LINE
  5
265B
330
1E
100
AcDbEntity
  8
0
100
AcDbLine
 10
1.486220472440944
 20
5.131889763779527
 30
0.0
 11
1.486220472440944
 21
5.131889763779527
 31
0.0
  0
POLYLINE
  5
265C
330
1E
100
AcDbEntity
  8
0
100
AcDb2dPolyline
 66
     1
 10
0.0
 20
0.0
 30
0.0
  0
VERTEX
  5
2B8F
330
265C
100
AcDbEntity
  8
0
100
AcDbVertex
100
AcDb2dVertex
 10
1.486220472440944
 20
5.131889763779527
 30
0.0
  0
VERTEX
  5
2B90
330
265C
100
AcDbEntity
  8
0
100
AcDbVertex
100
AcDb2dVertex
 10
1.486220472440944
 20
5.134842519685038
 30
0.0
  0
VERTEX
  5
2B91
330
265C
100
AcDbEntity
  8
0
100
AcDbVertex
100
AcDb2dVertex
 10
1.486220472440944
 20
5.143700787401574
 30
0.0
  0
VERTEX
  5
2B92
330
265C
100
AcDbEntity
  8
0
100
AcDbVertex
100
AcDb2dVertex
 10
1.487204724409448
 20
5.156496062992125
 30
0.0
  0
SEQEND
  5
2B93
330
265C
100
AcDbEntity
  8
0
  0
POLYLINE
  5
2662
330
1E
100
AcDbEntity
  8
0
100
AcDb2dPolyline
 66
     1
 10
0.0
 20
0.0
 30
0.0
  0
VERTEX
  5
2B94
330
2662
100
AcDbEntity
  8
0
100
AcDbVertex
100
AcDb2dVertex
 10
1.487204724409448
 20
5.156496062992125
 30
0.0
  0
VERTEX
  5
2B95
330
2662
100
AcDbEntity
  8
0
100
AcDbVertex
100
AcDb2dVertex
 10
1.487204724409448
 20
5.198818897637795
 30
0.0
  0
VERTEX
  5
2B96
330
2662
100
AcDbEntity
  8
0
100
AcDbVertex
100
AcDb2dVertex
 10
1.488188976377952
 20
5.236220472440944
 30
0.0
  0
VERTEX
  5
2B97
330
2662
100
AcDbEntity
  8
0
100
AcDbVertex
100
AcDb2dVertex
 10
1.489173228346456
 20
5.264763779527559
 30
0.0
  0
VERTEX
  5
2B98
330
2662
100
AcDbEntity
  8
0
100
AcDbVertex
100
AcDb2dVertex
 10
1.49015748031496
 20
5.286417322834645
 30
0.0
  0
SEQEND
  5
2B99
330
2662
100
AcDbEntity
  8
0
  0
POLYLINE
  5
2669
330
1E
100
AcDbEntity
  8
0
100
AcDb2dPolyline
 66
     1
 10
0.0
 20
0.0
 30
0.0
  0
VERTEX
  5
2B9A
330
2669
100
AcDbEntity
  8
0
100
AcDbVertex
100
AcDb2dVertex
 10
1.49015748031496
 20
5.286417322834645
 30
0.0
  0
VERTEX
  5
2B9B
330
2669
100
AcDbEntity
  8
0
100
AcDbVertex
100
AcDb2dVertex
 10
1.49015748031496
 20
5.295275590551181
 30
0.0
  0
VERTEX
  5
2B9C
330
2669
100
AcDbEntity
  8
0
100
AcDbVertex
100
AcDb2dVertex
 10
1.49015748031496
 20
5.310039370078739
 30
0.0
  0
VERTEX
  5
2B9D
330
2669
100
AcDbEntity
  8
0
100
AcDbVertex
100
AcDb2dVertex
 10
1.49015748031496
 20
5.327755905511811
 30
0.0
  0
VERTEX
  5
2B9E
330
2669
100
AcDbEntity
  8
0
100
AcDbVertex
100
AcDb2dVertex
 10
1.49015748031496
 20
5.346456692913386
 30
0.0
  0
SEQEND
  5
2B9F
330
2669
100
AcDbEntity
  8
0
  0
LINE
  5
2670
330
1E
100
AcDbEntity
  8
0
100
AcDbLine
 10
1.49015748031496
 20
5.346456692913386
 30
0.0
 11
1.486220472440944
 21
6.169291338582676
 31
0.0
  0
LINE
  5
2671
330
1E
100
AcDbEntity
  8
0
100
AcDbLine
 10
1.486220472440944
 20
6.169291338582676
 30
0.0
 11
1.486220472440944
 21
6.20767716535433
 31
0.0
  0
LINE
  5
2672
330
1E
100
AcDbEntity
  8
0
100
AcDbLine
 10
1.910433070866141
 20
6.853346456692912
 30
0.0
 11
1.535433070866141
 21
6.853346456692912
 31
0.0
  0
LINE
  5
2673
330
1E
100
AcDbEntity
  8
0
100
AcDbLine
 10
1.535433070866141
 20
6.853346456692912
 30
0.0
 11
1.536417322834645
 21
6.853346456692912
 31
0.0
  0
LINE
  5
2674
330
1E
100
AcDbEntity
  8
0
100
AcDbLine
 10
1.536417322834645
 20
6.853346456692912
 30
0.0
 11
3.206692913385826
 21
6.853346456692912
 31
0.0
  0
LINE
  5
2675
330
1E
100
AcDbEntity
  8
0
100
AcDbLine
 10
3.206692913385826
 20
6.853346456692912
 30
0.0
 11
3.20767716535433
 21
6.853346456692912
 31
0.0
  0
LINE
  5
2676
330
1E
100
AcDbEntity
  8
0
100
AcDbLine
 10
3.20767716535433
 20
6.853346456692912
 30
0.0
 11
2.83267716535433
 21
6.853346456692912
 31
0.0
  0
LINE
  5
2677
330
1E
100
AcDbEntity
  8
0
100
AcDbLine
 10
2.746062992125984
 20
6.853346456692912
 30
0.0
 11
2.83267716535433
 21
6.853346456692912
 31
0.0
  0
LINE
  5
2678
330
1E
100
AcDbEntity
  8
0
100
AcDbLine
 10
2.746062992125984
 20
6.853346456692912
 30
0.0
 11
1.997047244094488
 21
6.853346456692912
 31
0.0
  0
LINE
  5
2679
330
1E
100
AcDbEntity
  8
0
100
AcDbLine
 10
1.910433070866141
 20
6.853346456692912
 30
0.0
 11
1.997047244094488
 21
6.853346456692912
 31
0.0
  0
POLYLINE
  5
267A
330
1E
100
AcDbEntity
  8
0
100
AcDb2dPolyline
 66
     1
 10
0.0
 20
0.0
 30
0.0
  0
VERTEX
  5
2BA0
330
267A
100
AcDbEntity
  8
0
100
AcDbVertex
100
AcDb2dVertex
 10
3.255905511811023
 20
5.156496062992125
 30
0.0
  0
VERTEX
  5
2BA1
330
267A
100
AcDbEntity
  8
0
100
AcDbVertex
100
AcDb2dVertex
 10
3.256889763779527
 20
5.143700787401574
 30
0.0
  0
VERTEX
  5
2BA2
330
267A
100
AcDbEntity
  8
0
100
AcDbVertex
100
AcDb2dVertex
 10
3.256889763779527
 20
5.134842519685038
 30
0.0
  0
VERTEX
  5
2BA3
330
267A
100
AcDbEntity
  8
0
100
AcDbVertex
100
AcDb2dVertex
 10
3.256889763779527
 20
5.131889763779527
 30
0.0
  0
SEQEND
  5
2BA4
330
267A
100
AcDbEntity
  8
0
  0
LINE
  5
2680
330
1E
100
AcDbEntity
  8
0
100
AcDbLine
 10
3.256889763779527
 20
5.131889763779527
 30
0.0
 11
3.257874015748031
 21
5.131889763779527
 31
0.0
  0
LINE
  5
2681
330
1E
100
AcDbEntity
  8
0
100
AcDbLine
 10
3.257874015748031
 20
5.131889763779527
 30
0.0
 11
3.257874015748031
 21
5.506889763779527
 31
0.0
  0
LINE
  5
2682
330
1E
100
AcDbEntity
  8
0
100
AcDbLine
 10
3.257874015748031
 20
5.59251968503937
 30
0.0
 11
3.257874015748031
 21
5.506889763779527
 31
0.0
  0
LINE
  5
2683
330
1E
100
AcDbEntity
  8
0
100
AcDbLine
 10
3.257874015748031
 20
5.59251968503937
 30
0.0
 11
3.257874015748031
 21
6.803149606299212
 31
0.0
  0
LINE
  5
2684
330
1E
100
AcDbEntity
  8
0
100
AcDbLine
 10
3.257874015748031
 20
6.803149606299212
 30
0.0
 11
3.256889763779527
 21
6.803149606299212
 31
0.0
  0
LINE
  5
2685
330
1E
100
AcDbEntity
  8
0
100
AcDbLine
 10
3.256889763779527
 20
6.803149606299212
 30
0.0
 11
3.256889763779527
 21
6.20767716535433
 31
0.0
  0
LINE
  5
2686
330
1E
100
AcDbEntity
  8
0
100
AcDbLine
 10
3.256889763779527
 20
6.20767716535433
 30
0.0
 11
3.256889763779527
 21
6.169291338582676
 31
0.0
  0
LINE
  5
2687
330
1E
100
AcDbEntity
  8
0
100
AcDbLine
 10
3.256889763779527
 20
6.169291338582676
 30
0.0
 11
3.252952755905511
 21
5.346456692913386
 31
0.0
  0
POLYLINE
  5
2688
330
1E
100
AcDbEntity
  8
0
100
AcDb2dPolyline
 66
     1
 10
0.0
 20
0.0
 30
0.0
  0
VERTEX
  5
2BA5
330
2688
100
AcDbEntity
  8
0
100
AcDbVertex
100
AcDb2dVertex
 10
3.252952755905511
 20
5.346456692913386
 30
0.0
  0
VERTEX
  5
2BA6
330
2688
100
AcDbEntity
  8
0
100
AcDbVertex
100
AcDb2dVertex
 10
3.252952755905511
 20
5.327755905511811
 30
0.0
  0
VERTEX
  5
2BA7
330
2688
100
AcDbEntity
  8
0
100
AcDbVertex
100
AcDb2dVertex
 10
3.252952755905511
 20
5.310039370078739
 30
0.0
  0
VERTEX
  5
2BA8
330
2688
100
AcDbEntity
  8
0
100
AcDbVertex
100
AcDb2dVertex
 10
3.252952755905511
 20
5.295275590551181
 30
0.0
  0
VERTEX
  5
2BA9
330
2688
100
AcDbEntity
  8
0
100
AcDbVertex
100
AcDb2dVertex
 10
3.253937007874015
 20
5.286417322834645
 30
0.0
  0
SEQEND
  5
2BAA
330
2688
100
AcDbEntity
  8
0
  0
POLYLINE
  5
268F
330
1E
100
AcDbEntity
  8
0
100
AcDb2dPolyline
 66
     1
 10
0.0
 20
0.0
 30
0.0
  0
VERTEX
  5
2BAB
330
268F
100
AcDbEntity
  8
0
100
AcDbVertex
100
AcDb2dVertex
 10
3.253937007874015
 20
5.286417322834645
 30
0.0
  0
VERTEX
  5
2BAC
330
268F
100
AcDbEntity
  8
0
100
AcDbVertex
100
AcDb2dVertex
 10
3.253937007874015
 20
5.264763779527559
 30
0.0
  0
VERTEX
  5
2BAD
330
268F
100
AcDbEntity
  8
0
100
AcDbVertex
100
AcDb2dVertex
 10
3.254921259842519
 20
5.236220472440944
 30
0.0
  0
VERTEX
  5
2BAE
330
268F
100
AcDbEntity
  8
0
100
AcDbVertex
100
AcDb2dVertex
 10
3.255905511811023
 20
5.198818897637795
 30
0.0
  0
VERTEX
  5
2BAF
330
268F
100
AcDbEntity
  8
0
100
AcDbVertex
100
AcDb2dVertex
 10
3.255905511811023
 20
5.156496062992125
 30
0.0
  0
SEQEND
  5
2BB0
330
268F
100
AcDbEntity
  8
0
  0
LINE
  5
2696
330
1E
100
AcDbEntity
  8
0
100
AcDbLine
 10
3.15748031496063
 20
5.359251968503937
 30
0.0
 11
3.202755905511811
 21
5.359251968503937
 31
0.0
  0
LINE
  5
2697
330
1E
100
AcDbEntity
  8
0
100
AcDbLine
 10
3.202755905511811
 20
5.359251968503937
 30
0.0
 11
3.206692913385826
 21
6.182086614173228
 31
0.0
  0
LINE
  5
2698
330
1E
100
AcDbEntity
  8
0
100
AcDbLine
 10
3.206692913385826
 20
6.182086614173228
 30
0.0
 11
3.15748031496063
 21
6.182086614173228
 31
0.0
  0
LINE
  5
2699
330
1E
100
AcDbEntity
  8
0
100
AcDbLine
 10
3.15748031496063
 20
6.114173228346456
 30
0.0
 11
3.15748031496063
 21
6.182086614173228
 31
0.0
  0
LINE
  5
269A
330
1E
100
AcDbEntity
  8
0
100
AcDbLine
 10
3.190944881889763
 20
6.114173228346456
 30
0.0
 11
3.15748031496063
 21
6.114173228346456
 31
0.0
  0
LINE
  5
269B
330
1E
100
AcDbEntity
  8
0
100
AcDbLine
 10
3.190944881889763
 20
5.866141732283464
 30
0.0
 11
3.190944881889763
 21
6.114173228346456
 31
0.0
  0
LINE
  5
269C
330
1E
100
AcDbEntity
  8
0
100
AcDbLine
 10
3.15748031496063
 20
5.866141732283464
 30
0.0
 11
3.190944881889763
 21
5.866141732283464
 31
0.0
  0
LINE
  5
269D
330
1E
100
AcDbEntity
  8
0
100
AcDbLine
 10
3.15748031496063
 20
6.591535433070865
 30
0.0
 11
3.15255905511811
 21
6.591535433070865
 31
0.0
  0
LINE
  5
269E
330
1E
100
AcDbEntity
  8
0
100
AcDbLine
 10
1.585629921259842
 20
6.621062992125984
 30
0.0
 11
1.590551181102362
 21
6.621062992125984
 31
0.0
  0
LINE
  5
269F
330
1E
100
AcDbEntity
  8
0
100
AcDbLine
 10
3.15255905511811
 20
6.621062992125984
 30
0.0
 11
3.15748031496063
 21
6.621062992125984
 31
0.0
  0
LINE
  5
26A0
330
1E
100
AcDbEntity
  8
0
100
AcDbLine
 10
3.15748031496063
 20
6.640748031496062
 30
0.0
 11
1.585629921259842
 21
6.640748031496062
 31
0.0
  0
POLYLINE
  5
26A1
330
1E
100
AcDbEntity
  8
0
100
AcDb2dPolyline
 66
     1
 10
0.0
 20
0.0
 30
0.0
  0
VERTEX
  5
2BB1
330
26A1
100
AcDbEntity
  8
0
100
AcDbVertex
100
AcDb2dVertex
 10
1.585629921259842
 20
6.20767716535433
 30
0.0
  0
VERTEX
  5
2BB2
330
26A1
100
AcDbEntity
  8
0
100
AcDbVertex
100
AcDb2dVertex
 10
1.585629921259842
 20
6.194881889763779
 30
0.0
  0
VERTEX
  5
2BB3
330
26A1
100
AcDbEntity
  8
0
100
AcDbVertex
100
AcDb2dVertex
 10
1.585629921259842
 20
6.182086614173228
 30
0.0
  0
SEQEND
  5
2BB4
330
26A1
100
AcDbEntity
  8
0
  0
LINE
  5
26A6
330
1E
100
AcDbEntity
  8
0
100
AcDbLine
 10
1.585629921259842
 20
6.114173228346456
 30
0.0
 11
1.585629921259842
 21
6.013779527559054
 31
0.0
  0
LINE
  5
26A7
330
1E
100
AcDbEntity
  8
0
100
AcDbLine
 10
3.15748031496063
 20
6.013779527559054
 30
0.0
 11
3.15748031496063
 21
6.114173228346456
 31
0.0
  0
POLYLINE
  5
26A8
330
1E
100
AcDbEntity
  8
0
100
AcDb2dPolyline
 66
     1
 10
0.0
 20
0.0
 30
0.0
  0
VERTEX
  5
2BB5
330
26A8
100
AcDbEntity
  8
0
100
AcDbVertex
100
AcDb2dVertex
 10
3.15748031496063
 20
6.182086614173228
 30
0.0
  0
VERTEX
  5
2BB6
330
26A8
100
AcDbEntity
  8
0
100
AcDbVertex
100
AcDb2dVertex
 10
3.15748031496063
 20
6.194881889763779
 30
0.0
  0
VERTEX
  5
2BB7
330
26A8
100
AcDbEntity
  8
0
100
AcDbVertex
100
AcDb2dVertex
 10
3.15748031496063
 20
6.20767716535433
 30
0.0
  0
SEQEND
  5
2BB8
330
26A8
100
AcDbEntity
  8
0
  0
LINE
  5
26AD
330
1E
100
AcDbEntity
  8
0
100
AcDbLine
 10
1.585629921259842
 20
5.340551181102362
 30
0.0
 11
3.15748031496063
 21
5.340551181102362
 31
0.0
  0
LINE
  5
26AE
330
1E
100
AcDbEntity
  8
0
100
AcDbLine
 10
3.15255905511811
 20
6.313976377952755
 30
0.0
 11
3.15748031496063
 21
6.313976377952755
 31
0.0
  0
LINE
  5
26AF
330
1E
100
AcDbEntity
  8
0
100
AcDbLine
 10
1.590551181102362
 20
5.676181102362204
 30
0.0
 11
1.585629921259842
 21
5.6751968503937
 31
0.0
  0
LINE
  5
26B0
330
1E
100
AcDbEntity
  8
0
100
AcDbLine
 10
1.590551181102362
 20
6.288385826771653
 30
0.0
 11
1.585629921259842
 21
6.313976377952755
 31
0.0
  0
LINE
  5
26B1
330
1E
100
AcDbEntity
  8
0
100
AcDbLine
 10
1.585629921259842
 20
5.869094488188975
 30
0.0
 11
1.585629921259842
 21
6.013779527559054
 31
0.0
  0
LINE
  5
26B2
330
1E
100
AcDbEntity
  8
0
100
AcDbLine
 10
3.15255905511811
 20
5.676181102362204
 30
0.0
 11
3.15748031496063
 21
5.6751968503937
 31
0.0
  0
LINE
  5
26B3
330
1E
100
AcDbEntity
  8
0
100
AcDbLine
 10
3.15255905511811
 20
6.288385826771653
 30
0.0
 11
3.15748031496063
 21
6.313976377952755
 31
0.0
  0
LINE
  5
26B4
330
1E
100
AcDbEntity
  8
0
100
AcDbLine
 10
3.15748031496063
 20
6.013779527559054
 30
0.0
 11
3.15748031496063
 21
5.869094488188975
 31
0.0
  0
LINE
  5
26B5
330
1E
100
AcDbEntity
  8
0
100
AcDbLine
 10
1.585629921259842
 20
6.013779527559054
 30
0.0
 11
1.55511811023622
 21
6.013779527559054
 31
0.0
  0
LINE
  5
26B6
330
1E
100
AcDbEntity
  8
0
100
AcDbLine
 10
1.55511811023622
 20
6.013779527559054
 30
0.0
 11
1.55511811023622
 21
5.869094488188975
 31
0.0
  0
LINE
  5
26B7
330
1E
100
AcDbEntity
  8
0
100
AcDbLine
 10
1.55511811023622
 20
5.869094488188975
 30
0.0
 11
1.585629921259842
 21
5.869094488188975
 31
0.0
  0
LINE
  5
26B8
330
1E
100
AcDbEntity
  8
0
100
AcDbLine
 10
1.55511811023622
 20
5.869094488188975
 30
0.0
 11
1.552165354330708
 21
5.866141732283464
 31
0.0
  0
LINE
  5
26B9
330
1E
100
AcDbEntity
  8
0
100
AcDbLine
 10
1.55511811023622
 20
6.013779527559054
 30
0.0
 11
1.552165354330708
 21
6.114173228346456
 31
0.0
  0
LINE
  5
26BA
330
1E
100
AcDbEntity
  8
0
100
AcDbLine
 10
3.15748031496063
 20
5.869094488188975
 30
0.0
 11
3.187992125984251
 21
5.869094488188975
 31
0.0
  0
LINE
  5
26BB
330
1E
100
AcDbEntity
  8
0
100
AcDbLine
 10
3.187992125984251
 20
5.869094488188975
 30
0.0
 11
3.187992125984251
 21
6.013779527559054
 31
0.0
  0
LINE
  5
26BC
330
1E
100
AcDbEntity
  8
0
100
AcDbLine
 10
3.187992125984251
 20
6.013779527559054
 30
0.0
 11
3.15748031496063
 21
6.013779527559054
 31
0.0
  0
LINE
  5
26BD
330
1E
100
AcDbEntity
  8
0
100
AcDbLine
 10
3.187992125984251
 20
5.869094488188975
 30
0.0
 11
3.190944881889763
 21
5.866141732283464
 31
0.0
  0
LINE
  5
26BE
330
1E
100
AcDbEntity
  8
0
100
AcDbLine
 10
3.187992125984251
 20
6.013779527559054
 30
0.0
 11
3.190944881889763
 21
6.114173228346456
 31
0.0
  0
LINE
  5
26BF
330
1E
100
AcDbEntity
  8
0
100
AcDbLine
 10
3.203740157480314
 20
5.238188976377952
 30
0.0
 11
1.539370078740157
 21
5.238188976377952
 31
0.0
  0
POLYLINE
  5
26C0
330
1E
100
AcDbEntity
  8
0
100
AcDb2dPolyline
 66
     1
 10
0.0
 20
0.0
 30
0.0
  0
VERTEX
  5
2BB9
330
26C0
100
AcDbEntity
  8
0
100
AcDbVertex
100
AcDb2dVertex
 10
1.539370078740157
 20
5.238188976377952
 30
0.0
  0
VERTEX
  5
2BBA
330
26C0
100
AcDbEntity
  8
0
100
AcDbVertex
100
AcDb2dVertex
 10
1.539370078740157
 20
5.221456692913386
 30
0.0
  0
VERTEX
  5
2BBB
330
26C0
100
AcDbEntity
  8
0
100
AcDbVertex
100
AcDb2dVertex
 10
1.538385826771653
 20
5.196850393700787
 30
0.0
  0
VERTEX
  5
2BBC
330
26C0
100
AcDbEntity
  8
0
100
AcDbVertex
100
AcDb2dVertex
 10
1.537401574803149
 20
5.166338582677165
 30
0.0
  0
VERTEX
  5
2BBD
330
26C0
100
AcDbEntity
  8
0
100
AcDbVertex
100
AcDb2dVertex
 10
1.536417322834645
 20
5.130905511811023
 30
0.0
  0
SEQEND
  5
2BBE
330
26C0
100
AcDbEntity
  8
0
  0
LINE
  5
26C7
330
1E
100
AcDbEntity
  8
0
100
AcDbLine
 10
1.536417322834645
 20
5.130905511811023
 30
0.0
 11
3.206692913385826
 21
5.130905511811023
 31
0.0
  0
POLYLINE
  5
26C8
330
1E
100
AcDbEntity
  8
0
100
AcDb2dPolyline
 66
     1
 10
0.0
 20
0.0
 30
0.0
  0
VERTEX
  5
2BBF
330
26C8
100
AcDbEntity
  8
0
100
AcDbVertex
100
AcDb2dVertex
 10
3.206692913385826
 20
5.130905511811023
 30
0.0
  0
VERTEX
  5
2BC0
330
26C8
100
AcDbEntity
  8
0
100
AcDbVertex
100
AcDb2dVertex
 10
3.205708661417322
 20
5.166338582677165
 30
0.0
  0
VERTEX
  5
2BC1
330
26C8
100
AcDbEntity
  8
0
100
AcDbVertex
100
AcDb2dVertex
 10
3.204724409448818
 20
5.196850393700787
 30
0.0
  0
VERTEX
  5
2BC2
330
26C8
100
AcDbEntity
  8
0
100
AcDbVertex
100
AcDb2dVertex
 10
3.204724409448818
 20
5.221456692913386
 30
0.0
  0
VERTEX
  5
2BC3
330
26C8
100
AcDbEntity
  8
0
100
AcDbVertex
100
AcDb2dVertex
 10
3.203740157480314
 20
5.238188976377952
 30
0.0
  0
SEQEND
  5
2BC4
330
26C8
100
AcDbEntity
  8
0
  0
POLYLINE
  5
26CF
330
1E
100
AcDbEntity
  8
0
100
AcDb2dPolyline
 66
     1
 10
0.0
 20
0.0
 30
0.0
  0
VERTEX
  5
2BC5
330
26CF
100
AcDbEntity
  8
0
100
AcDbVertex
100
AcDb2dVertex
 10
1.540354330708661
 20
5.359251968503937
 30
0.0
  0
VERTEX
  5
2BC6
330
26CF
100
AcDbEntity
  8
0
100
AcDbVertex
100
AcDb2dVertex
 10
1.540354330708661
 20
5.329724409448818
 30
0.0
  0
VERTEX
  5
2BC7
330
26CF
100
AcDbEntity
  8
0
100
AcDbVertex
100
AcDb2dVertex
 10
1.540354330708661
 20
5.3001968503937
 30
0.0
  0
VERTEX
  5
2BC8
330
26CF
100
AcDbEntity
  8
0
100
AcDbVertex
100
AcDb2dVertex
 10
1.540354330708661
 20
5.273622047244094
 30
0.0
  0
VERTEX
  5
2BC9
330
26CF
100
AcDbEntity
  8
0
100
AcDbVertex
100
AcDb2dVertex
 10
1.540354330708661
 20
5.251968503937007
 30
0.0
  0
VERTEX
  5
2BCA
330
26CF
100
AcDbEntity
  8
0
100
AcDbVertex
100
AcDb2dVertex
 10
1.539370078740157
 20
5.238188976377952
 30
0.0
  0
SEQEND
  5
2BCB
330
26CF
100
AcDbEntity
  8
0
  0
POLYLINE
  5
26D7
330
1E
100
AcDbEntity
  8
0
100
AcDb2dPolyline
 66
     1
 10
0.0
 20
0.0
 30
0.0
  0
VERTEX
  5
2BCC
330
26D7
100
AcDbEntity
  8
0
100
AcDbVertex
100
AcDb2dVertex
 10
3.203740157480314
 20
5.238188976377952
 30
0.0
  0
VERTEX
  5
2BCD
330
26D7
100
AcDbEntity
  8
0
100
AcDbVertex
100
AcDb2dVertex
 10
3.203740157480314
 20
5.251968503937007
 30
0.0
  0
VERTEX
  5
2BCE
330
26D7
100
AcDbEntity
  8
0
100
AcDbVertex
100
AcDb2dVertex
 10
3.202755905511811
 20
5.273622047244094
 30
0.0
  0
VERTEX
  5
2BCF
330
26D7
100
AcDbEntity
  8
0
100
AcDbVertex
100
AcDb2dVertex
 10
3.202755905511811
 20
5.3001968503937
 30
0.0
  0
VERTEX
  5
2BD0
330
26D7
100
AcDbEntity
  8
0
100
AcDbVertex
100
AcDb2dVertex
 10
3.202755905511811
 20
5.329724409448818
 30
0.0
  0
VERTEX
  5
2BD1
330
26D7
100
AcDbEntity
  8
0
100
AcDbVertex
100
AcDb2dVertex
 10
3.202755905511811
 20
5.359251968503937
 30
0.0
  0
SEQEND
  5
2BD2
330
26D7
100
AcDbEntity
  8
0
  0
LINE
  5
26DF
330
1E
100
AcDbEntity
  8
0
100
AcDbLine
 10
3.206692913385826
 20
6.182086614173228
 30
0.0
 11
3.206692913385826
 21
6.20767716535433
 31
0.0
  0
LINE
  5
26E0
330
1E
100
AcDbEntity
  8
0
100
AcDbLine
 10
1.536417322834645
 20
6.20767716535433
 30
0.0
 11
1.536417322834645
 21
6.182086614173228
 31
0.0
  0
POLYLINE
  5
26E1
330
1E
100
AcDbEntity
  8
0
100
AcDb2dPolyline
 66
     1
 10
0.0
 20
0.0
 30
0.0
  0
VERTEX
  5
2BD3
330
26E1
100
AcDbEntity
  8
0
100
AcDbVertex
100
AcDb2dVertex
 10
1.536417322834645
 20
5.130905511811023
 30
0.0
  0
VERTEX
  5
2BD4
330
26E1
100
AcDbEntity
  8
0
100
AcDbVertex
100
AcDb2dVertex
 10
1.536417322834645
 20
5.111220472440944
 30
0.0
  0
VERTEX
  5
2BD5
330
26E1
100
AcDbEntity
  8
0
100
AcDbVertex
100
AcDb2dVertex
 10
1.536417322834645
 20
5.095472440944881
 30
0.0
  0
VERTEX
  5
2BD6
330
26E1
100
AcDbEntity
  8
0
100
AcDbVertex
100
AcDb2dVertex
 10
1.536417322834645
 20
5.085629921259842
 30
0.0
  0
VERTEX
  5
2BD7
330
26E1
100
AcDbEntity
  8
0
100
AcDbVertex
100
AcDb2dVertex
 10
1.536417322834645
 20
5.08267716535433
 30
0.0
  0
SEQEND
  5
2BD8
330
26E1
100
AcDbEntity
  8
0
  0
POLYLINE
  5
26E8
330
1E
100
AcDbEntity
  8
0
100
AcDb2dPolyline
 66
     1
 10
0.0
 20
0.0
 30
0.0
  0
VERTEX
  5
2BD9
330
26E8
100
AcDbEntity
  8
0
100
AcDbVertex
100
AcDb2dVertex
 10
3.206692913385826
 20
5.08267716535433
 30
0.0
  0
VERTEX
  5
2BDA
330
26E8
100
AcDbEntity
  8
0
100
AcDbVertex
100
AcDb2dVertex
 10
3.206692913385826
 20
5.085629921259842
 30
0.0
  0
VERTEX
  5
2BDB
330
26E8
100
AcDbEntity
  8
0
100
AcDbVertex
100
AcDb2dVertex
 10
3.206692913385826
 20
5.095472440944881
 30
0.0
  0
VERTEX
  5
2BDC
330
26E8
100
AcDbEntity
  8
0
100
AcDbVertex
100
AcDb2dVertex
 10
3.206692913385826
 20
5.111220472440944
 30
0.0
  0
VERTEX
  5
2BDD
330
26E8
100
AcDbEntity
  8
0
100
AcDbVertex
100
AcDb2dVertex
 10
3.206692913385826
 20
5.130905511811023
 30
0.0
  0
SEQEND
  5
2BDE
330
26E8
100
AcDbEntity
  8
0
  0
POLYLINE
  5
26EF
330
1E
100
AcDbEntity
  8
0
100
AcDb2dPolyline
 66
     1
 10
0.0
 20
0.0
 30
0.0
  0
VERTEX
  5
2BDF
330
26EF
100
AcDbEntity
  8
0
100
AcDbVertex
100
AcDb2dVertex
 10
1.536417322834645
 20
6.853346456692912
 30
0.0
  0
VERTEX
  5
2BE0
330
26EF
100
AcDbEntity
  8
0
100
AcDbVertex
100
AcDb2dVertex
 10
1.536417322834645
 20
6.846456692913386
 30
0.0
  0
VERTEX
  5
2BE1
330
26EF
100
AcDbEntity
  8
0
100
AcDbVertex
100
AcDb2dVertex
 10
1.536417322834645
 20
6.827755905511811
 30
0.0
  0
VERTEX
  5
2BE2
330
26EF
100
AcDbEntity
  8
0
100
AcDbVertex
100
AcDb2dVertex
 10
1.536417322834645
 20
6.803149606299212
 30
0.0
  0
SEQEND
  5
2BE3
330
26EF
100
AcDbEntity
  8
0
  0
POLYLINE
  5
26F5
330
1E
100
AcDbEntity
  8
0
100
AcDb2dPolyline
 66
     1
 10
0.0
 20
0.0
 30
0.0
  0
VERTEX
  5
2BE4
330
26F5
100
AcDbEntity
  8
0
100
AcDbVertex
100
AcDb2dVertex
 10
3.206692913385826
 20
6.803149606299212
 30
0.0
  0
VERTEX
  5
2BE5
330
26F5
100
AcDbEntity
  8
0
100
AcDbVertex
100
AcDb2dVertex
 10
3.206692913385826
 20
6.827755905511811
 30
0.0
  0
VERTEX
  5
2BE6
330
26F5
100
AcDbEntity
  8
0
100
AcDbVertex
100
AcDb2dVertex
 10
3.206692913385826
 20
6.846456692913386
 30
0.0
  0
VERTEX
  5
2BE7
330
26F5
100
AcDbEntity
  8
0
100
AcDbVertex
100
AcDb2dVertex
 10
3.206692913385826
 20
6.853346456692912
 30
0.0
  0
SEQEND
  5
2BE8
330
26F5
100
AcDbEntity
  8
0
  0
POLYLINE
  5
26FB
330
1E
100
AcDbEntity
  8
0
100
AcDb2dPolyline
 66
     1
 10
0.0
 20
0.0
 30
0.0
  0
VERTEX
  5
2BE9
330
26FB
100
AcDbEntity
  8
0
100
AcDbVertex
100
AcDb2dVertex
 10
3.257874015748031
 20
5.131889763779527
 30
0.0
  0
VERTEX
  5
2BEA
330
26FB
100
AcDbEntity
  8
0
100
AcDbVertex
100
AcDb2dVertex
 10
3.253937007874015
 20
5.113188976377952
 30
0.0
  0
VERTEX
  5
2BEB
330
26FB
100
AcDbEntity
  8
0
100
AcDbVertex
100
AcDb2dVertex
 10
3.243110236220472
 20
5.096456692913386
 30
0.0
  0
VERTEX
  5
2BEC
330
26FB
100
AcDbEntity
  8
0
100
AcDbVertex
100
AcDb2dVertex
 10
3.226377952755905
 20
5.085629921259842
 30
0.0
  0
VERTEX
  5
2BED
330
26FB
100
AcDbEntity
  8
0
100
AcDbVertex
100
AcDb2dVertex
 10
3.20767716535433
 20
5.081692913385826
 30
0.0
  0
SEQEND
  5
2BEE
330
26FB
100
AcDbEntity
  8
0
  0
POLYLINE
  5
2702
330
1E
100
AcDbEntity
  8
0
100
AcDb2dPolyline
 66
     1
 10
0.0
 20
0.0
 30
0.0
  0
VERTEX
  5
2BEF
330
2702
100
AcDbEntity
  8
0
100
AcDbVertex
100
AcDb2dVertex
 10
3.20767716535433
 20
6.853346456692912
 30
0.0
  0
VERTEX
  5
2BF0
330
2702
100
AcDbEntity
  8
0
100
AcDbVertex
100
AcDb2dVertex
 10
3.226377952755905
 20
6.849409448818897
 30
0.0
  0
VERTEX
  5
2BF1
330
2702
100
AcDbEntity
  8
0
100
AcDbVertex
100
AcDb2dVertex
 10
3.243110236220472
 20
6.838582677165354
 30
0.0
  0
VERTEX
  5
2BF2
330
2702
100
AcDbEntity
  8
0
100
AcDbVertex
100
AcDb2dVertex
 10
3.253937007874015
 20
6.822834645669291
 30
0.0
  0
VERTEX
  5
2BF3
330
2702
100
AcDbEntity
  8
0
100
AcDbVertex
100
AcDb2dVertex
 10
3.257874015748031
 20
6.803149606299212
 30
0.0
  0
SEQEND
  5
2BF4
330
2702
100
AcDbEntity
  8
0
  0
POLYLINE
  5
2709
330
1E
100
AcDbEntity
  8
0
100
AcDb2dPolyline
 66
     1
 10
0.0
 20
0.0
 30
0.0
  0
VERTEX
  5
2BF5
330
2709
100
AcDbEntity
  8
0
100
AcDbVertex
100
AcDb2dVertex
 10
3.206692913385826
 20
5.08267716535433
 30
0.0
  0
VERTEX
  5
2BF6
330
2709
100
AcDbEntity
  8
0
100
AcDbVertex
100
AcDb2dVertex
 10
3.232283464566929
 20
5.088582677165354
 30
0.0
  0
VERTEX
  5
2BF7
330
2709
100
AcDbEntity
  8
0
100
AcDbVertex
100
AcDb2dVertex
 10
3.25
 20
5.107283464566928
 30
0.0
  0
VERTEX
  5
2BF8
330
2709
100
AcDbEntity
  8
0
100
AcDbVertex
100
AcDb2dVertex
 10
3.256889763779527
 20
5.131889763779527
 30
0.0
  0
SEQEND
  5
2BF9
330
2709
100
AcDbEntity
  8
0
  0
POLYLINE
  5
270F
330
1E
100
AcDbEntity
  8
0
100
AcDb2dPolyline
 66
     1
 10
0.0
 20
0.0
 30
0.0
  0
VERTEX
  5
2BFA
330
270F
100
AcDbEntity
  8
0
100
AcDbVertex
100
AcDb2dVertex
 10
3.206692913385826
 20
5.130905511811023
 30
0.0
  0
VERTEX
  5
2BFB
330
270F
100
AcDbEntity
  8
0
100
AcDbVertex
100
AcDb2dVertex
 10
3.231299212598425
 20
5.133858267716535
 30
0.0
  0
VERTEX
  5
2BFC
330
270F
100
AcDbEntity
  8
0
100
AcDbVertex
100
AcDb2dVertex
 10
3.249015748031495
 20
5.143700787401574
 30
0.0
  0
VERTEX
  5
2BFD
330
270F
100
AcDbEntity
  8
0
100
AcDbVertex
100
AcDb2dVertex
 10
3.255905511811023
 20
5.156496062992125
 30
0.0
  0
SEQEND
  5
2BFE
330
270F
100
AcDbEntity
  8
0
  0
POLYLINE
  5
2715
330
1E
100
AcDbEntity
  8
0
100
AcDb2dPolyline
 66
     1
 10
0.0
 20
0.0
 30
0.0
  0
VERTEX
  5
2BFF
330
2715
100
AcDbEntity
  8
0
100
AcDbVertex
100
AcDb2dVertex
 10
3.203740157480314
 20
5.238188976377952
 30
0.0
  0
VERTEX
  5
2C00
330
2715
100
AcDbEntity
  8
0
100
AcDbVertex
100
AcDb2dVertex
 10
3.228346456692913
 20
5.24507874015748
 30
0.0
  0
VERTEX
  5
2C01
330
2715
100
AcDbEntity
  8
0
100
AcDbVertex
100
AcDb2dVertex
 10
3.247047244094487
 20
5.26279527559055
 30
0.0
  0
VERTEX
  5
2C02
330
2715
100
AcDbEntity
  8
0
100
AcDbVertex
100
AcDb2dVertex
 10
3.253937007874015
 20
5.286417322834645
 30
0.0
  0
SEQEND
  5
2C03
330
2715
100
AcDbEntity
  8
0
  0
POLYLINE
  5
271B
330
1E
100
AcDbEntity
  8
0
100
AcDb2dPolyline
 66
     1
 10
0.0
 20
0.0
 30
0.0
  0
VERTEX
  5
2C04
330
271B
100
AcDbEntity
  8
0
100
AcDbVertex
100
AcDb2dVertex
 10
3.202755905511811
 20
5.359251968503937
 30
0.0
  0
VERTEX
  5
2C05
330
271B
100
AcDbEntity
  8
0
100
AcDbVertex
100
AcDb2dVertex
 10
3.227362204724409
 20
5.357283464566928
 30
0.0
  0
VERTEX
  5
2C06
330
271B
100
AcDbEntity
  8
0
100
AcDbVertex
100
AcDb2dVertex
 10
3.246062992125984
 20
5.353346456692912
 30
0.0
  0
VERTEX
  5
2C07
330
271B
100
AcDbEntity
  8
0
100
AcDbVertex
100
AcDb2dVertex
 10
3.252952755905511
 20
5.346456692913386
 30
0.0
  0
SEQEND
  5
2C08
330
271B
100
AcDbEntity
  8
0
  0
POLYLINE
  5
2721
330
1E
100
AcDbEntity
  8
0
100
AcDb2dPolyline
 66
     1
 10
0.0
 20
0.0
 30
0.0
  0
VERTEX
  5
2C09
330
2721
100
AcDbEntity
  8
0
100
AcDbVertex
100
AcDb2dVertex
 10
3.206692913385826
 20
6.182086614173228
 30
0.0
  0
VERTEX
  5
2C0A
330
2721
100
AcDbEntity
  8
0
100
AcDbVertex
100
AcDb2dVertex
 10
3.231299212598425
 20
6.18011811023622
 30
0.0
  0
VERTEX
  5
2C0B
330
2721
100
AcDbEntity
  8
0
100
AcDbVertex
100
AcDb2dVertex
 10
3.25
 20
6.1751968503937
 30
0.0
  0
VERTEX
  5
2C0C
330
2721
100
AcDbEntity
  8
0
100
AcDbVertex
100
AcDb2dVertex
 10
3.256889763779527
 20
6.169291338582676
 30
0.0
  0
SEQEND
  5
2C0D
330
2721
100
AcDbEntity
  8
0
  0
POLYLINE
  5
2727
330
1E
100
AcDbEntity
  8
0
100
AcDb2dPolyline
 66
     1
 10
0.0
 20
0.0
 30
0.0
  0
VERTEX
  5
2C0E
330
2727
100
AcDbEntity
  8
0
100
AcDbVertex
100
AcDb2dVertex
 10
3.206692913385826
 20
6.20767716535433
 30
0.0
  0
VERTEX
  5
2C0F
330
2727
100
AcDbEntity
  8
0
100
AcDbVertex
100
AcDb2dVertex
 10
3.231299212598425
 20
6.20767716535433
 30
0.0
  0
VERTEX
  5
2C10
330
2727
100
AcDbEntity
  8
0
100
AcDbVertex
100
AcDb2dVertex
 10
3.25
 20
6.20767716535433
 30
0.0
  0
VERTEX
  5
2C11
330
2727
100
AcDbEntity
  8
0
100
AcDbVertex
100
AcDb2dVertex
 10
3.256889763779527
 20
6.20767716535433
 30
0.0
  0
SEQEND
  5
2C12
330
2727
100
AcDbEntity
  8
0
  0
POLYLINE
  5
272D
330
1E
100
AcDbEntity
  8
0
100
AcDb2dPolyline
 66
     1
 10
0.0
 20
0.0
 30
0.0
  0
VERTEX
  5
2C13
330
272D
100
AcDbEntity
  8
0
100
AcDbVertex
100
AcDb2dVertex
 10
3.206692913385826
 20
6.803149606299212
 30
0.0
  0
VERTEX
  5
2C14
330
272D
100
AcDbEntity
  8
0
100
AcDbVertex
100
AcDb2dVertex
 10
3.231299212598425
 20
6.803149606299212
 30
0.0
  0
VERTEX
  5
2C15
330
272D
100
AcDbEntity
  8
0
100
AcDbVertex
100
AcDb2dVertex
 10
3.25
 20
6.803149606299212
 30
0.0
  0
VERTEX
  5
2C16
330
272D
100
AcDbEntity
  8
0
100
AcDbVertex
100
AcDb2dVertex
 10
3.256889763779527
 20
6.803149606299212
 30
0.0
  0
SEQEND
  5
2C17
330
272D
100
AcDbEntity
  8
0
  0
POLYLINE
  5
2733
330
1E
100
AcDbEntity
  8
0
100
AcDb2dPolyline
 66
     1
 10
0.0
 20
0.0
 30
0.0
  0
VERTEX
  5
2C18
330
2733
100
AcDbEntity
  8
0
100
AcDbVertex
100
AcDb2dVertex
 10
3.206692913385826
 20
6.853346456692912
 30
0.0
  0
VERTEX
  5
2C19
330
2733
100
AcDbEntity
  8
0
100
AcDbVertex
100
AcDb2dVertex
 10
3.232283464566929
 20
6.846456692913386
 30
0.0
  0
VERTEX
  5
2C1A
330
2733
100
AcDbEntity
  8
0
100
AcDbVertex
100
AcDb2dVertex
 10
3.25
 20
6.827755905511811
 30
0.0
  0
VERTEX
  5
2C1B
330
2733
100
AcDbEntity
  8
0
100
AcDbVertex
100
AcDb2dVertex
 10
3.256889763779527
 20
6.803149606299212
 30
0.0
  0
SEQEND
  5
2C1C
330
2733
100
AcDbEntity
  8
0
  0
POLYLINE
  5
2739
330
1E
100
AcDbEntity
  8
0
100
AcDb2dPolyline
 66
     1
 10
0.0
 20
0.0
 30
0.0
  0
VERTEX
  5
2C1D
330
2739
100
AcDbEntity
  8
0
100
AcDbVertex
100
AcDb2dVertex
 10
1.535433070866141
 20
5.081692913385826
 30
0.0
  0
VERTEX
  5
2C1E
330
2739
100
AcDbEntity
  8
0
100
AcDbVertex
100
AcDb2dVertex
 10
1.516732283464566
 20
5.085629921259842
 30
0.0
  0
VERTEX
  5
2C1F
330
2739
100
AcDbEntity
  8
0
100
AcDbVertex
100
AcDb2dVertex
 10
1.5
 20
5.096456692913386
 30
0.0
  0
VERTEX
  5
2C20
330
2739
100
AcDbEntity
  8
0
100
AcDbVertex
100
AcDb2dVertex
 10
1.489173228346456
 20
5.113188976377952
 30
0.0
  0
VERTEX
  5
2C21
330
2739
100
AcDbEntity
  8
0
100
AcDbVertex
100
AcDb2dVertex
 10
1.486220472440944
 20
5.131889763779527
 30
0.0
  0
SEQEND
  5
2C22
330
2739
100
AcDbEntity
  8
0
  0
POLYLINE
  5
2740
330
1E
100
AcDbEntity
  8
0
100
AcDb2dPolyline
 66
     1
 10
0.0
 20
0.0
 30
0.0
  0
VERTEX
  5
2C23
330
2740
100
AcDbEntity
  8
0
100
AcDbVertex
100
AcDb2dVertex
 10
1.486220472440944
 20
6.803149606299212
 30
0.0
  0
VERTEX
  5
2C24
330
2740
100
AcDbEntity
  8
0
100
AcDbVertex
100
AcDb2dVertex
 10
1.489173228346456
 20
6.822834645669291
 30
0.0
  0
VERTEX
  5
2C25
330
2740
100
AcDbEntity
  8
0
100
AcDbVertex
100
AcDb2dVertex
 10
1.5
 20
6.838582677165354
 30
0.0
  0
VERTEX
  5
2C26
330
2740
100
AcDbEntity
  8
0
100
AcDbVertex
100
AcDb2dVertex
 10
1.516732283464566
 20
6.849409448818897
 30
0.0
  0
VERTEX
  5
2C27
330
2740
100
AcDbEntity
  8
0
100
AcDbVertex
100
AcDb2dVertex
 10
1.535433070866141
 20
6.853346456692912
 30
0.0
  0
SEQEND
  5
2C28
330
2740
100
AcDbEntity
  8
0
  0
POLYLINE
  5
2747
330
1E
100
AcDbEntity
  8
0
100
AcDb2dPolyline
 66
     1
 10
0.0
 20
0.0
 30
0.0
  0
VERTEX
  5
2C29
330
2747
100
AcDbEntity
  8
0
100
AcDbVertex
100
AcDb2dVertex
 10
1.486220472440944
 20
5.131889763779527
 30
0.0
  0
VERTEX
  5
2C2A
330
2747
100
AcDbEntity
  8
0
100
AcDbVertex
100
AcDb2dVertex
 10
1.493110236220472
 20
5.107283464566928
 30
0.0
  0
VERTEX
  5
2C2B
330
2747
100
AcDbEntity
  8
0
100
AcDbVertex
100
AcDb2dVertex
 10
1.510826771653543
 20
5.088582677165354
 30
0.0
  0
VERTEX
  5
2C2C
330
2747
100
AcDbEntity
  8
0
100
AcDbVertex
100
AcDb2dVertex
 10
1.536417322834645
 20
5.08267716535433
 30
0.0
  0
SEQEND
  5
2C2D
330
2747
100
AcDbEntity
  8
0
  0
POLYLINE
  5
274D
330
1E
100
AcDbEntity
  8
0
100
AcDb2dPolyline
 66
     1
 10
0.0
 20
0.0
 30
0.0
  0
VERTEX
  5
2C2E
330
274D
100
AcDbEntity
  8
0
100
AcDbVertex
100
AcDb2dVertex
 10
1.487204724409448
 20
5.156496062992125
 30
0.0
  0
VERTEX
  5
2C2F
330
274D
100
AcDbEntity
  8
0
100
AcDbVertex
100
AcDb2dVertex
 10
1.494094488188976
 20
5.143700787401574
 30
0.0
  0
VERTEX
  5
2C30
330
274D
100
AcDbEntity
  8
0
100
AcDbVertex
100
AcDb2dVertex
 10
1.511811023622047
 20
5.133858267716535
 30
0.0
  0
VERTEX
  5
2C31
330
274D
100
AcDbEntity
  8
0
100
AcDbVertex
100
AcDb2dVertex
 10
1.536417322834645
 20
5.130905511811023
 30
0.0
  0
SEQEND
  5
2C32
330
274D
100
AcDbEntity
  8
0
  0
POLYLINE
  5
2753
330
1E
100
AcDbEntity
  8
0
100
AcDb2dPolyline
 66
     1
 10
0.0
 20
0.0
 30
0.0
  0
VERTEX
  5
2C33
330
2753
100
AcDbEntity
  8
0
100
AcDbVertex
100
AcDb2dVertex
 10
1.49015748031496
 20
5.286417322834645
 30
0.0
  0
VERTEX
  5
2C34
330
2753
100
AcDbEntity
  8
0
100
AcDbVertex
100
AcDb2dVertex
 10
1.496062992125984
 20
5.26279527559055
 30
0.0
  0
VERTEX
  5
2C35
330
2753
100
AcDbEntity
  8
0
100
AcDbVertex
100
AcDb2dVertex
 10
1.514763779527559
 20
5.24507874015748
 30
0.0
  0
VERTEX
  5
2C36
330
2753
100
AcDbEntity
  8
0
100
AcDbVertex
100
AcDb2dVertex
 10
1.539370078740157
 20
5.238188976377952
 30
0.0
  0
SEQEND
  5
2C37
330
2753
100
AcDbEntity
  8
0
  0
POLYLINE
  5
2759
330
1E
100
AcDbEntity
  8
0
100
AcDb2dPolyline
 66
     1
 10
0.0
 20
0.0
 30
0.0
  0
VERTEX
  5
2C38
330
2759
100
AcDbEntity
  8
0
100
AcDbVertex
100
AcDb2dVertex
 10
1.49015748031496
 20
5.346456692913386
 30
0.0
  0
VERTEX
  5
2C39
330
2759
100
AcDbEntity
  8
0
100
AcDbVertex
100
AcDb2dVertex
 10
1.497047244094488
 20
5.353346456692912
 30
0.0
  0
VERTEX
  5
2C3A
330
2759
100
AcDbEntity
  8
0
100
AcDbVertex
100
AcDb2dVertex
 10
1.515748031496062
 20
5.357283464566928
 30
0.0
  0
VERTEX
  5
2C3B
330
2759
100
AcDbEntity
  8
0
100
AcDbVertex
100
AcDb2dVertex
 10
1.540354330708661
 20
5.359251968503937
 30
0.0
  0
SEQEND
  5
2C3C
330
2759
100
AcDbEntity
  8
0
  0
POLYLINE
  5
275F
330
1E
100
AcDbEntity
  8
0
100
AcDb2dPolyline
 66
     1
 10
0.0
 20
0.0
 30
0.0
  0
VERTEX
  5
2C3D
330
275F
100
AcDbEntity
  8
0
100
AcDbVertex
100
AcDb2dVertex
 10
1.486220472440944
 20
6.169291338582676
 30
0.0
  0
VERTEX
  5
2C3E
330
275F
100
AcDbEntity
  8
0
100
AcDbVertex
100
AcDb2dVertex
 10
1.493110236220472
 20
6.1751968503937
 30
0.0
  0
VERTEX
  5
2C3F
330
275F
100
AcDbEntity
  8
0
100
AcDbVertex
100
AcDb2dVertex
 10
1.511811023622047
 20
6.18011811023622
 30
0.0
  0
VERTEX
  5
2C40
330
275F
100
AcDbEntity
  8
0
100
AcDbVertex
100
AcDb2dVertex
 10
1.536417322834645
 20
6.182086614173228
 30
0.0
  0
SEQEND
  5
2C41
330
275F
100
AcDbEntity
  8
0
  0
POLYLINE
  5
2765
330
1E
100
AcDbEntity
  8
0
100
AcDb2dPolyline
 66
     1
 10
0.0
 20
0.0
 30
0.0
  0
VERTEX
  5
2C42
330
2765
100
AcDbEntity
  8
0
100
AcDbVertex
100
AcDb2dVertex
 10
1.486220472440944
 20
6.20767716535433
 30
0.0
  0
VERTEX
  5
2C43
330
2765
100
AcDbEntity
  8
0
100
AcDbVertex
100
AcDb2dVertex
 10
1.493110236220472
 20
6.20767716535433
 30
0.0
  0
VERTEX
  5
2C44
330
2765
100
AcDbEntity
  8
0
100
AcDbVertex
100
AcDb2dVertex
 10
1.511811023622047
 20
6.20767716535433
 30
0.0
  0
VERTEX
  5
2C45
330
2765
100
AcDbEntity
  8
0
100
AcDbVertex
100
AcDb2dVertex
 10
1.536417322834645
 20
6.20767716535433
 30
0.0
  0
SEQEND
  5
2C46
330
2765
100
AcDbEntity
  8
0
  0
POLYLINE
  5
276B
330
1E
100
AcDbEntity
  8
0
100
AcDb2dPolyline
 66
     1
 10
0.0
 20
0.0
 30
0.0
  0
VERTEX
  5
2C47
330
276B
100
AcDbEntity
  8
0
100
AcDbVertex
100
AcDb2dVertex
 10
1.486220472440944
 20
6.803149606299212
 30
0.0
  0
VERTEX
  5
2C48
330
276B
100
AcDbEntity
  8
0
100
AcDbVertex
100
AcDb2dVertex
 10
1.493110236220472
 20
6.803149606299212
 30
0.0
  0
VERTEX
  5
2C49
330
276B
100
AcDbEntity
  8
0
100
AcDbVertex
100
AcDb2dVertex
 10
1.511811023622047
 20
6.803149606299212
 30
0.0
  0
VERTEX
  5
2C4A
330
276B
100
AcDbEntity
  8
0
100
AcDbVertex
100
AcDb2dVertex
 10
1.536417322834645
 20
6.803149606299212
 30
0.0
  0
SEQEND
  5
2C4B
330
276B
100
AcDbEntity
  8
0
  0
POLYLINE
  5
2771
330
1E
100
AcDbEntity
  8
0
100
AcDb2dPolyline
 66
     1
 10
0.0
 20
0.0
 30
0.0
  0
VERTEX
  5
2C4C
330
2771
100
AcDbEntity
  8
0
100
AcDbVertex
100
AcDb2dVertex
 10
1.536417322834645
 20
6.853346456692912
 30
0.0
  0
VERTEX
  5
2C4D
330
2771
100
AcDbEntity
  8
0
100
AcDbVertex
100
AcDb2dVertex
 10
1.511811023622047
 20
6.846456692913386
 30
0.0
  0
VERTEX
  5
2C4E
330
2771
100
AcDbEntity
  8
0
100
AcDbVertex
100
AcDb2dVertex
 10
1.493110236220472
 20
6.827755905511811
 30
0.0
  0
VERTEX
  5
2C4F
330
2771
100
AcDbEntity
  8
0
100
AcDbVertex
100
AcDb2dVertex
 10
1.486220472440944
 20
6.803149606299212
 30
0.0
  0
SEQEND
  5
2C50
330
2771
100
AcDbEntity
  8
0
  0
LINE
  5
2777
330
1E
100
AcDbEntity
  8
0
100
AcDbLine
 10
4.688976377952755
 20
5.829724409448818
 30
0.0
 11
4.687992125984251
 21
5.829724409448818
 31
0.0
  0
LINE
  5
2778
330
1E
100
AcDbEntity
  8
0
100
AcDbLine
 10
4.558070866141732
 20
5.345472440944881
 30
0.0
 11
4.687992125984251
 21
5.829724409448818
 31
0.0
  0
LINE
  5
2779
330
1E
100
AcDbEntity
  8
0
100
AcDbLine
 10
4.773622047244094
 20
6.151574803149606
 30
0.0
 11
4.687992125984251
 21
5.829724409448818
 31
0.0
  0
LINE
  5
277A
330
1E
100
AcDbEntity
  8
0
100
AcDbLine
 10
4.773622047244094
 20
6.151574803149606
 30
0.0
 11
4.785433070866141
 21
6.193897637795275
 31
0.0
  0
LINE
  5
277B
330
1E
100
AcDbEntity
  8
0
100
AcDbLine
 10
4.560039370078739
 20
5.345472440944881
 30
0.0
 11
4.558070866141732
 21
5.345472440944881
 31
0.0
  0
LINE
  5
277C
330
1E
100
AcDbEntity
  8
0
100
AcDbLine
 10
4.233267716535433
 20
6.191929133858267
 30
0.0
 11
4.786417322834645
 21
6.510826771653543
 31
0.0
  0
LINE
  5
277D
330
1E
100
AcDbEntity
  8
0
100
AcDbLine
 10
4.786417322834645
 20
6.407480314960629
 30
0.0
 11
4.275590551181101
 21
6.112204724409449
 31
0.0
  0
LINE
  5
277E
330
1E
100
AcDbEntity
  8
0
100
AcDbLine
 10
4.275590551181101
 20
6.112204724409449
 30
0.0
 11
4.609251968503937
 21
5.534448818897637
 31
0.0
  0
LINE
  5
277F
330
1E
100
AcDbEntity
  8
0
100
AcDbLine
 10
4.575787401574802
 20
5.412401574803149
 30
0.0
 11
4.199803149606299
 21
6.06496062992126
 31
0.0
  0
LINE
  5
2780
330
1E
100
AcDbEntity
  8
0
100
AcDbLine
 10
4.774606299212598
 20
6.150590551181101
 30
0.0
 11
4.773622047244094
 21
6.151574803149606
 31
0.0
  0
LINE
  5
2781
330
1E
100
AcDbEntity
  8
0
100
AcDbLine
 10
5.121062992125984
 20
6.04527559055118
 30
0.0
 11
5.127952755905512
 21
6.043307086614173
 31
0.0
  0
LINE
  5
2782
330
1E
100
AcDbEntity
  8
0
100
AcDbLine
 10
5.127952755905512
 20
6.043307086614173
 30
0.0
 11
5.145669291338582
 21
6.037401574803149
 31
0.0
  0
LINE
  5
2783
330
1E
100
AcDbEntity
  8
0
100
AcDbLine
 10
5.269685039370078
 20
6.0
 30
0.0
 11
5.145669291338582
 21
6.037401574803149
 31
0.0
  0
LINE
  5
2784
330
1E
100
AcDbEntity
  8
0
100
AcDbLine
 10
5.192913385826771
 20
5.71259842519685
 30
0.0
 11
5.121062992125984
 21
5.729330708661417
 31
0.0
  0
LINE
  5
2785
330
1E
100
AcDbEntity
  8
0
100
AcDbLine
 10
5.121062992125984
 20
5.947834645669291
 30
0.0
 11
5.145669291338582
 21
6.037401574803149
 31
0.0
  0
LINE
  5
2786
330
1E
100
AcDbEntity
  8
0
100
AcDbLine
 10
5.127952755905512
 20
6.043307086614173
 30
0.0
 11
5.121062992125984
 21
6.020669291338582
 31
0.0
  0
LINE
  5
2787
330
1E
100
AcDbEntity
  8
0
100
AcDbLine
 10
5.269685039370078
 20
6.0
 30
0.0
 11
5.192913385826771
 21
5.71259842519685
 31
0.0
  0
POLYLINE
  5
2788
330
1E
100
AcDbEntity
  8
0
100
AcDb2dPolyline
 66
     1
 10
0.0
 20
0.0
 30
0.0
  0
VERTEX
  5
2C51
330
2788
100
AcDbEntity
  8
0
100
AcDbVertex
100
AcDb2dVertex
 10
4.199803149606299
 20
6.06496062992126
 30
0.0
  0
VERTEX
  5
2C52
330
2788
100
AcDbEntity
  8
0
100
AcDbVertex
100
AcDb2dVertex
 10
4.188976377952755
 20
6.091535433070865
 30
0.0
  0
VERTEX
  5
2C53
330
2788
100
AcDbEntity
  8
0
100
AcDbVertex
100
AcDb2dVertex
 10
4.187992125984251
 20
6.121062992125984
 30
0.0
  0
VERTEX
  5
2C54
330
2788
100
AcDbEntity
  8
0
100
AcDbVertex
100
AcDb2dVertex
 10
4.194881889763779
 20
6.148622047244094
 30
0.0
  0
VERTEX
  5
2C55
330
2788
100
AcDbEntity
  8
0
100
AcDbVertex
100
AcDb2dVertex
 10
4.210629921259842
 20
6.173228346456692
 30
0.0
  0
VERTEX
  5
2C56
330
2788
100
AcDbEntity
  8
0
100
AcDbVertex
100
AcDb2dVertex
 10
4.233267716535433
 20
6.191929133858267
 30
0.0
  0
SEQEND
  5
2C57
330
2788
100
AcDbEntity
  8
0
  0
POLYLINE
  5
2790
330
1E
100
AcDbEntity
  8
0
100
AcDb2dPolyline
 66
     1
 10
0.0
 20
0.0
 30
0.0
  0
VERTEX
  5
2C58
330
2790
100
AcDbEntity
  8
0
100
AcDbVertex
100
AcDb2dVertex
 10
4.275590551181101
 20
6.112204724409449
 30
0.0
  0
VERTEX
  5
2C59
330
2790
100
AcDbEntity
  8
0
100
AcDbVertex
100
AcDb2dVertex
 10
4.261811023622047
 20
6.136811023622047
 30
0.0
  0
VERTEX
  5
2C5A
330
2790
100
AcDbEntity
  8
0
100
AcDbVertex
100
AcDb2dVertex
 10
4.25
 20
6.158464566929133
 30
0.0
  0
VERTEX
  5
2C5B
330
2790
100
AcDbEntity
  8
0
100
AcDbVertex
100
AcDb2dVertex
 10
4.24015748031496
 20
6.176181102362204
 30
0.0
  0
VERTEX
  5
2C5C
330
2790
100
AcDbEntity
  8
0
100
AcDbVertex
100
AcDb2dVertex
 10
4.23523622047244
 20
6.187992125984251
 30
0.0
  0
VERTEX
  5
2C5D
330
2790
100
AcDbEntity
  8
0
100
AcDbVertex
100
AcDb2dVertex
 10
4.233267716535433
 20
6.191929133858267
 30
0.0
  0
SEQEND
  5
2C5E
330
2790
100
AcDbEntity
  8
0
  0
POLYLINE
  5
2798
330
1E
100
AcDbEntity
  8
0
100
AcDb2dPolyline
 66
     1
 10
0.0
 20
0.0
 30
0.0
  0
VERTEX
  5
2C5F
330
2798
100
AcDbEntity
  8
0
100
AcDbVertex
100
AcDb2dVertex
 10
4.275590551181101
 20
6.112204724409449
 30
0.0
  0
VERTEX
  5
2C60
330
2798
100
AcDbEntity
  8
0
100
AcDbVertex
100
AcDb2dVertex
 10
4.250984251968503
 20
6.098425196850393
 30
0.0
  0
VERTEX
  5
2C61
330
2798
100
AcDbEntity
  8
0
100
AcDbVertex
100
AcDb2dVertex
 10
4.230314960629921
 20
6.085629921259842
 30
0.0
  0
VERTEX
  5
2C62
330
2798
100
AcDbEntity
  8
0
100
AcDbVertex
100
AcDb2dVertex
 10
4.213582677165354
 20
6.074803149606299
 30
0.0
  0
VERTEX
  5
2C63
330
2798
100
AcDbEntity
  8
0
100
AcDbVertex
100
AcDb2dVertex
 10
4.202755905511811
 20
6.067913385826771
 30
0.0
  0
VERTEX
  5
2C64
330
2798
100
AcDbEntity
  8
0
100
AcDbVertex
100
AcDb2dVertex
 10
4.199803149606299
 20
6.06496062992126
 30
0.0
  0
SEQEND
  5
2C65
330
2798
100
AcDbEntity
  8
0
  0
LINE
  5
27A0
330
1E
100
AcDbEntity
  8
0
100
AcDbLine
 10
5.306102362204724
 20
6.765748031496062
 30
0.0
 11
5.161417322834645
 21
6.765748031496062
 31
0.0
  0
LINE
  5
27A1
330
1E
100
AcDbEntity
  8
0
100
AcDbLine
 10
5.416338582677164
 20
5.234251968503937
 30
0.0
 11
5.121062992125984
 21
5.24015748031496
 31
0.0
  0
LINE
  5
27A2
330
1E
100
AcDbEntity
  8
0
100
AcDbLine
 10
5.121062992125984
 20
5.135826771653543
 30
0.0
 11
5.121062992125984
 21
5.48523622047244
 31
0.0
  0
POLYLINE
  5
27A3
330
1E
100
AcDbEntity
  8
0
100
AcDb2dPolyline
 66
     1
 10
0.0
 20
0.0
 30
0.0
  0
VERTEX
  5
2C66
330
27A3
100
AcDbEntity
  8
0
100
AcDbVertex
100
AcDb2dVertex
 10
5.121062992125984
 20
5.135826771653543
 30
0.0
  0
VERTEX
  5
2C67
330
27A3
100
AcDbEntity
  8
0
100
AcDbVertex
100
AcDb2dVertex
 10
5.121062992125984
 20
5.117125984251968
 30
0.0
  0
VERTEX
  5
2C68
330
27A3
100
AcDbEntity
  8
0
100
AcDbVertex
100
AcDb2dVertex
 10
5.121062992125984
 20
5.101377952755905
 30
0.0
  0
VERTEX
  5
2C69
330
27A3
100
AcDbEntity
  8
0
100
AcDbVertex
100
AcDb2dVertex
 10
5.121062992125984
 20
5.090551181102362
 30
0.0
  0
VERTEX
  5
2C6A
330
27A3
100
AcDbEntity
  8
0
100
AcDbVertex
100
AcDb2dVertex
 10
5.121062992125984
 20
5.086614173228346
 30
0.0
  0
SEQEND
  5
2C6B
330
27A3
100
AcDbEntity
  8
0
  0
LINE
  5
27AA
330
1E
100
AcDbEntity
  8
0
100
AcDbLine
 10
5.121062992125984
 20
5.48523622047244
 30
0.0
 11
5.121062992125984
 21
5.486220472440944
 31
0.0
  0
LINE
  5
27AB
330
1E
100
AcDbEntity
  8
0
100
AcDbLine
 10
5.161417322834645
 20
5.449803149606299
 30
0.0
 11
5.161417322834645
 21
5.484251968503937
 31
0.0
  0
POLYLINE
  5
27AC
330
1E
100
AcDbEntity
  8
0
100
AcDb2dPolyline
 66
     1
 10
0.0
 20
0.0
 30
0.0
  0
VERTEX
  5
2C6C
330
27AC
100
AcDbEntity
  8
0
100
AcDbVertex
100
AcDb2dVertex
 10
5.161417322834645
 20
5.484251968503937
 30
0.0
  0
VERTEX
  5
2C6D
330
27AC
100
AcDbEntity
  8
0
100
AcDbVertex
100
AcDb2dVertex
 10
5.145669291338582
 20
5.48523622047244
 30
0.0
  0
VERTEX
  5
2C6E
330
27AC
100
AcDbEntity
  8
0
100
AcDbVertex
100
AcDb2dVertex
 10
5.132874015748031
 20
5.486220472440944
 30
0.0
  0
VERTEX
  5
2C6F
330
27AC
100
AcDbEntity
  8
0
100
AcDbVertex
100
AcDb2dVertex
 10
5.124015748031496
 20
5.486220472440944
 30
0.0
  0
VERTEX
  5
2C70
330
27AC
100
AcDbEntity
  8
0
100
AcDbVertex
100
AcDb2dVertex
 10
5.121062992125984
 20
5.486220472440944
 30
0.0
  0
SEQEND
  5
2C71
330
27AC
100
AcDbEntity
  8
0
  0
POLYLINE
  5
27B3
330
1E
100
AcDbEntity
  8
0
100
AcDb2dPolyline
 66
     1
 10
0.0
 20
0.0
 30
0.0
  0
VERTEX
  5
2C72
330
27B3
100
AcDbEntity
  8
0
100
AcDbVertex
100
AcDb2dVertex
 10
5.121062992125984
 20
5.449803149606299
 30
0.0
  0
VERTEX
  5
2C73
330
27B3
100
AcDbEntity
  8
0
100
AcDbVertex
100
AcDb2dVertex
 10
5.124015748031496
 20
5.449803149606299
 30
0.0
  0
VERTEX
  5
2C74
330
27B3
100
AcDbEntity
  8
0
100
AcDbVertex
100
AcDb2dVertex
 10
5.132874015748031
 20
5.449803149606299
 30
0.0
  0
VERTEX
  5
2C75
330
27B3
100
AcDbEntity
  8
0
100
AcDbVertex
100
AcDb2dVertex
 10
5.145669291338582
 20
5.449803149606299
 30
0.0
  0
VERTEX
  5
2C76
330
27B3
100
AcDbEntity
  8
0
100
AcDbVertex
100
AcDb2dVertex
 10
5.161417322834645
 20
5.449803149606299
 30
0.0
  0
SEQEND
  5
2C77
330
27B3
100
AcDbEntity
  8
0
  0
LINE
  5
27BA
330
1E
100
AcDbEntity
  8
0
100
AcDbLine
 10
5.306102362204724
 20
6.288385826771653
 30
0.0
 11
5.161417322834645
 21
6.285433070866141
 31
0.0
  0
POLYLINE
  5
27BB
330
1E
100
AcDbEntity
  8
0
100
AcDb2dPolyline
 66
     1
 10
0.0
 20
0.0
 30
0.0
  0
VERTEX
  5
2C78
330
27BB
100
AcDbEntity
  8
0
100
AcDbVertex
100
AcDb2dVertex
 10
5.161417322834645
 20
6.285433070866141
 30
0.0
  0
VERTEX
  5
2C79
330
27BB
100
AcDbEntity
  8
0
100
AcDbVertex
100
AcDb2dVertex
 10
5.145669291338582
 20
6.285433070866141
 30
0.0
  0
VERTEX
  5
2C7A
330
27BB
100
AcDbEntity
  8
0
100
AcDbVertex
100
AcDb2dVertex
 10
5.132874015748031
 20
6.285433070866141
 30
0.0
  0
VERTEX
  5
2C7B
330
27BB
100
AcDbEntity
  8
0
100
AcDbVertex
100
AcDb2dVertex
 10
5.124015748031496
 20
6.285433070866141
 30
0.0
  0
VERTEX
  5
2C7C
330
27BB
100
AcDbEntity
  8
0
100
AcDbVertex
100
AcDb2dVertex
 10
5.121062992125984
 20
6.285433070866141
 30
0.0
  0
SEQEND
  5
2C7D
330
27BB
100
AcDbEntity
  8
0
  0
LINE
  5
27C2
330
1E
100
AcDbEntity
  8
0
100
AcDbLine
 10
5.436023622047244
 20
6.290354330708661
 30
0.0
 11
5.429133858267716
 21
6.290354330708661
 31
0.0
  0
LINE
  5
27C3
330
1E
100
AcDbEntity
  8
0
100
AcDbLine
 10
5.429133858267716
 20
6.290354330708661
 30
0.0
 11
5.331692913385826
 21
6.288385826771653
 31
0.0
  0
LINE
  5
27C4
330
1E
100
AcDbEntity
  8
0
100
AcDbLine
 10
5.331692913385826
 20
6.288385826771653
 30
0.0
 11
5.319881889763779
 21
6.288385826771653
 31
0.0
  0
LINE
  5
27C5
330
1E
100
AcDbEntity
  8
0
100
AcDbLine
 10
5.319881889763779
 20
6.288385826771653
 30
0.0
 11
5.306102362204724
 21
6.288385826771653
 31
0.0
  0
POLYLINE
  5
27C6
330
1E
100
AcDbEntity
  8
0
100
AcDb2dPolyline
 66
     1
 10
0.0
 20
0.0
 30
0.0
  0
VERTEX
  5
2C7E
330
27C6
100
AcDbEntity
  8
0
100
AcDbVertex
100
AcDb2dVertex
 10
5.121062992125984
 20
6.486220472440944
 30
0.0
  0
VERTEX
  5
2C7F
330
27C6
100
AcDbEntity
  8
0
100
AcDbVertex
100
AcDb2dVertex
 10
5.124015748031496
 20
6.486220472440944
 30
0.0
  0
VERTEX
  5
2C80
330
27C6
100
AcDbEntity
  8
0
100
AcDbVertex
100
AcDb2dVertex
 10
5.132874015748031
 20
6.486220472440944
 30
0.0
  0
VERTEX
  5
2C81
330
27C6
100
AcDbEntity
  8
0
100
AcDbVertex
100
AcDb2dVertex
 10
5.145669291338582
 20
6.48523622047244
 30
0.0
  0
VERTEX
  5
2C82
330
27C6
100
AcDbEntity
  8
0
100
AcDbVertex
100
AcDb2dVertex
 10
5.161417322834645
 20
6.48523622047244
 30
0.0
  0
SEQEND
  5
2C83
330
27C6
100
AcDbEntity
  8
0
  0
LINE
  5
27CD
330
1E
100
AcDbEntity
  8
0
100
AcDbLine
 10
5.306102362204724
 20
6.483267716535433
 30
0.0
 11
5.161417322834645
 21
6.48523622047244
 31
0.0
  0
LINE
  5
27CE
330
1E
100
AcDbEntity
  8
0
100
AcDbLine
 10
5.319881889763779
 20
6.482283464566928
 30
0.0
 11
5.306102362204724
 21
6.483267716535433
 31
0.0
  0
LINE
  5
27CF
330
1E
100
AcDbEntity
  8
0
100
AcDbLine
 10
5.319881889763779
 20
6.482283464566928
 30
0.0
 11
5.331692913385826
 21
6.482283464566928
 31
0.0
  0
LINE
  5
27D0
330
1E
100
AcDbEntity
  8
0
100
AcDbLine
 10
5.331692913385826
 20
6.482283464566928
 30
0.0
 11
5.429133858267716
 21
6.480314960629921
 31
0.0
  0
LINE
  5
27D1
330
1E
100
AcDbEntity
  8
0
100
AcDbLine
 10
5.429133858267716
 20
6.480314960629921
 30
0.0
 11
5.436023622047244
 21
6.480314960629921
 31
0.0
  0
LINE
  5
27D2
330
1E
100
AcDbEntity
  8
0
100
AcDbLine
 10
5.436023622047244
 20
6.480314960629921
 30
0.0
 11
5.436023622047244
 21
6.290354330708661
 31
0.0
  0
LINE
  5
27D3
330
1E
100
AcDbEntity
  8
0
100
AcDbLine
 10
5.161417322834645
 20
6.48523622047244
 30
0.0
 11
5.161417322834645
 21
6.285433070866141
 31
0.0
  0
LINE
  5
27D4
330
1E
100
AcDbEntity
  8
0
100
AcDbLine
 10
5.306102362204724
 20
6.483267716535433
 30
0.0
 11
5.306102362204724
 21
6.288385826771653
 31
0.0
  0
LINE
  5
27D5
330
1E
100
AcDbEntity
  8
0
100
AcDbLine
 10
5.319881889763779
 20
6.288385826771653
 30
0.0
 11
5.319881889763779
 21
6.482283464566928
 31
0.0
  0
LINE
  5
27D6
330
1E
100
AcDbEntity
  8
0
100
AcDbLine
 10
5.429133858267716
 20
6.290354330708661
 30
0.0
 11
5.429133858267716
 21
6.480314960629921
 31
0.0
  0
LINE
  5
27D7
330
1E
100
AcDbEntity
  8
0
100
AcDbLine
 10
5.331692913385826
 20
6.482283464566928
 30
0.0
 11
5.331692913385826
 21
6.288385826771653
 31
0.0
  0
LINE
  5
27D8
330
1E
100
AcDbEntity
  8
0
100
AcDbLine
 10
4.786417322834645
 20
6.20767716535433
 30
0.0
 11
4.786417322834645
 21
6.803149606299212
 31
0.0
  0
LINE
  5
27D9
330
1E
100
AcDbEntity
  8
0
100
AcDbLine
 10
4.868110236220472
 20
5.081692913385826
 30
0.0
 11
4.847440944881889
 21
5.08267716535433
 31
0.0
  0
LINE
  5
27DA
330
1E
100
AcDbEntity
  8
0
100
AcDbLine
 10
4.835629921259842
 20
6.853346456692912
 30
0.0
 11
4.868110236220472
 21
6.853346456692912
 31
0.0
  0
POLYLINE
  5
27DB
330
1E
100
AcDbEntity
  8
0
100
AcDb2dPolyline
 66
     1
 10
0.0
 20
0.0
 30
0.0
  0
VERTEX
  5
2C84
330
27DB
100
AcDbEntity
  8
0
100
AcDbVertex
100
AcDb2dVertex
 10
5.121062992125984
 20
6.849409448818897
 30
0.0
  0
VERTEX
  5
2C85
330
27DB
100
AcDbEntity
  8
0
100
AcDbVertex
100
AcDb2dVertex
 10
5.121062992125984
 20
6.845472440944881
 30
0.0
  0
VERTEX
  5
2C86
330
27DB
100
AcDbEntity
  8
0
100
AcDbVertex
100
AcDb2dVertex
 10
5.121062992125984
 20
6.834645669291338
 30
0.0
  0
VERTEX
  5
2C87
330
27DB
100
AcDbEntity
  8
0
100
AcDbVertex
100
AcDb2dVertex
 10
5.121062992125984
 20
6.817913385826771
 30
0.0
  0
VERTEX
  5
2C88
330
27DB
100
AcDbEntity
  8
0
100
AcDbVertex
100
AcDb2dVertex
 10
5.121062992125984
 20
6.799212598425196
 30
0.0
  0
SEQEND
  5
2C89
330
27DB
100
AcDbEntity
  8
0
  0
LINE
  5
27E2
330
1E
100
AcDbEntity
  8
0
100
AcDbLine
 10
5.121062992125984
 20
5.61515748031496
 30
0.0
 11
5.121062992125984
 21
6.799212598425196
 31
0.0
  0
LINE
  5
27E3
330
1E
100
AcDbEntity
  8
0
100
AcDbLine
 10
5.121062992125984
 20
5.613188976377952
 30
0.0
 11
5.121062992125984
 21
5.61515748031496
 31
0.0
  0
POLYLINE
  5
27E4
330
1E
100
AcDbEntity
  8
0
100
AcDb2dPolyline
 66
     1
 10
0.0
 20
0.0
 30
0.0
  0
VERTEX
  5
2C8A
330
27E4
100
AcDbEntity
  8
0
100
AcDbVertex
100
AcDb2dVertex
 10
4.806102362204724
 20
5.156496062992125
 30
0.0
  0
VERTEX
  5
2C8B
330
27E4
100
AcDbEntity
  8
0
100
AcDbVertex
100
AcDb2dVertex
 10
4.816929133858267
 20
5.143700787401574
 30
0.0
  0
VERTEX
  5
2C8C
330
27E4
100
AcDbEntity
  8
0
100
AcDbVertex
100
AcDb2dVertex
 10
4.830708661417323
 20
5.134842519685038
 30
0.0
  0
VERTEX
  5
2C8D
330
27E4
100
AcDbEntity
  8
0
100
AcDbVertex
100
AcDb2dVertex
 10
4.847440944881889
 20
5.131889763779527
 30
0.0
  0
SEQEND
  5
2C8E
330
27E4
100
AcDbEntity
  8
0
  0
LINE
  5
27EA
330
1E
100
AcDbEntity
  8
0
100
AcDbLine
 10
4.847440944881889
 20
5.131889763779527
 30
0.0
 11
4.868110236220472
 21
5.131889763779527
 31
0.0
  0
LINE
  5
27EB
330
1E
100
AcDbEntity
  8
0
100
AcDbLine
 10
4.868110236220472
 20
5.131889763779527
 30
0.0
 11
4.868110236220472
 21
5.506889763779527
 31
0.0
  0
LINE
  5
27EC
330
1E
100
AcDbEntity
  8
0
100
AcDbLine
 10
4.868110236220472
 20
5.59251968503937
 30
0.0
 11
4.868110236220472
 21
5.506889763779527
 31
0.0
  0
LINE
  5
27ED
330
1E
100
AcDbEntity
  8
0
100
AcDbLine
 10
4.868110236220472
 20
5.59251968503937
 30
0.0
 11
4.868110236220472
 21
6.803149606299212
 31
0.0
  0
LINE
  5
27EE
330
1E
100
AcDbEntity
  8
0
100
AcDbLine
 10
4.868110236220472
 20
6.803149606299212
 30
0.0
 11
4.835629921259842
 21
6.803149606299212
 31
0.0
  0
LINE
  5
27EF
330
1E
100
AcDbEntity
  8
0
100
AcDbLine
 10
4.835629921259842
 20
6.803149606299212
 30
0.0
 11
4.835629921259842
 21
6.20767716535433
 31
0.0
  0
LINE
  5
27F0
330
1E
100
AcDbEntity
  8
0
100
AcDbLine
 10
4.835629921259842
 20
6.20767716535433
 30
0.0
 11
4.830708661417323
 21
6.169291338582676
 31
0.0
  0
LINE
  5
27F1
330
1E
100
AcDbEntity
  8
0
100
AcDbLine
 10
4.830708661417323
 20
6.169291338582676
 30
0.0
 11
4.61023622047244
 21
5.346456692913386
 31
0.0
  0
POLYLINE
  5
27F2
330
1E
100
AcDbEntity
  8
0
100
AcDb2dPolyline
 66
     1
 10
0.0
 20
0.0
 30
0.0
  0
VERTEX
  5
2C8F
330
27F2
100
AcDbEntity
  8
0
100
AcDbVertex
100
AcDb2dVertex
 10
4.61023622047244
 20
5.346456692913386
 30
0.0
  0
VERTEX
  5
2C90
330
27F2
100
AcDbEntity
  8
0
100
AcDbVertex
100
AcDb2dVertex
 10
4.609251968503937
 20
5.327755905511811
 30
0.0
  0
VERTEX
  5
2C91
330
27F2
100
AcDbEntity
  8
0
100
AcDbVertex
100
AcDb2dVertex
 10
4.614173228346456
 20
5.310039370078739
 30
0.0
  0
VERTEX
  5
2C92
330
27F2
100
AcDbEntity
  8
0
100
AcDbVertex
100
AcDb2dVertex
 10
4.625984251968503
 20
5.295275590551181
 30
0.0
  0
VERTEX
  5
2C93
330
27F2
100
AcDbEntity
  8
0
100
AcDbVertex
100
AcDb2dVertex
 10
4.64271653543307
 20
5.286417322834645
 30
0.0
  0
SEQEND
  5
2C94
330
27F2
100
AcDbEntity
  8
0
  0
POLYLINE
  5
27F9
330
1E
100
AcDbEntity
  8
0
100
AcDb2dPolyline
 66
     1
 10
0.0
 20
0.0
 30
0.0
  0
VERTEX
  5
2C95
330
27F9
100
AcDbEntity
  8
0
100
AcDbVertex
100
AcDb2dVertex
 10
4.64271653543307
 20
5.286417322834645
 30
0.0
  0
VERTEX
  5
2C96
330
27F9
100
AcDbEntity
  8
0
100
AcDbVertex
100
AcDb2dVertex
 10
4.691929133858267
 20
5.264763779527559
 30
0.0
  0
VERTEX
  5
2C97
330
27F9
100
AcDbEntity
  8
0
100
AcDbVertex
100
AcDb2dVertex
 10
4.736220472440944
 20
5.236220472440944
 30
0.0
  0
VERTEX
  5
2C98
330
27F9
100
AcDbEntity
  8
0
100
AcDbVertex
100
AcDb2dVertex
 10
4.774606299212598
 20
5.198818897637795
 30
0.0
  0
VERTEX
  5
2C99
330
27F9
100
AcDbEntity
  8
0
100
AcDbVertex
100
AcDb2dVertex
 10
4.806102362204724
 20
5.156496062992125
 30
0.0
  0
SEQEND
  5
2C9A
330
27F9
100
AcDbEntity
  8
0
  0
LINE
  5
2800
330
1E
100
AcDbEntity
  8
0
100
AcDbLine
 10
4.562992125984251
 20
5.359251968503937
 30
0.0
 11
4.783464566929133
 21
6.182086614173228
 31
0.0
  0
LINE
  5
2801
330
1E
100
AcDbEntity
  8
0
100
AcDbLine
 10
5.319881889763779
 20
5.117125984251968
 30
0.0
 11
5.306102362204724
 21
5.117125984251968
 31
0.0
  0
LINE
  5
2802
330
1E
100
AcDbEntity
  8
0
100
AcDbLine
 10
5.319881889763779
 20
5.117125984251968
 30
0.0
 11
5.331692913385826
 21
5.122047244094487
 31
0.0
  0
LINE
  5
2803
330
1E
100
AcDbEntity
  8
0
100
AcDbLine
 10
5.331692913385826
 20
5.122047244094487
 30
0.0
 11
5.429133858267716
 21
5.197834645669291
 31
0.0
  0
LINE
  5
2804
330
1E
100
AcDbEntity
  8
0
100
AcDbLine
 10
5.429133858267716
 20
5.197834645669291
 30
0.0
 11
5.436023622047244
 21
5.213582677165354
 31
0.0
  0
LINE
  5
2805
330
1E
100
AcDbEntity
  8
0
100
AcDbLine
 10
5.436023622047244
 20
5.213582677165354
 30
0.0
 11
5.436023622047244
 21
5.214566929133858
 31
0.0
  0
POLYLINE
  5
2806
330
1E
100
AcDbEntity
  8
0
100
AcDb2dPolyline
 66
     1
 10
0.0
 20
0.0
 30
0.0
  0
VERTEX
  5
2C9B
330
2806
100
AcDbEntity
  8
0
100
AcDbVertex
100
AcDb2dVertex
 10
5.436023622047244
 20
5.214566929133858
 30
0.0
  0
VERTEX
  5
2C9C
330
2806
100
AcDbEntity
  8
0
100
AcDbVertex
100
AcDb2dVertex
 10
5.431102362204724
 20
5.228346456692912
 30
0.0
  0
VERTEX
  5
2C9D
330
2806
100
AcDbEntity
  8
0
100
AcDbVertex
100
AcDb2dVertex
 10
5.416338582677164
 20
5.234251968503937
 30
0.0
  0
SEQEND
  5
2C9E
330
2806
100
AcDbEntity
  8
0
  0
POLYLINE
  5
280B
330
1E
100
AcDbEntity
  8
0
100
AcDb2dPolyline
 66
     1
 10
0.0
 20
0.0
 30
0.0
  0
VERTEX
  5
2C9F
330
280B
100
AcDbEntity
  8
0
100
AcDbVertex
100
AcDb2dVertex
 10
5.121062992125984
 20
5.128937007874015
 30
0.0
  0
VERTEX
  5
2CA0
330
280B
100
AcDbEntity
  8
0
100
AcDbVertex
100
AcDb2dVertex
 10
5.124015748031496
 20
5.144685039370078
 30
0.0
  0
VERTEX
  5
2CA1
330
280B
100
AcDbEntity
  8
0
100
AcDbVertex
100
AcDb2dVertex
 10
5.132874015748031
 20
5.157480314960629
 30
0.0
  0
VERTEX
  5
2CA2
330
280B
100
AcDbEntity
  8
0
100
AcDbVertex
100
AcDb2dVertex
 10
5.145669291338582
 20
5.166338582677165
 30
0.0
  0
VERTEX
  5
2CA3
330
280B
100
AcDbEntity
  8
0
100
AcDbVertex
100
AcDb2dVertex
 10
5.161417322834645
 20
5.169291338582676
 30
0.0
  0
SEQEND
  5
2CA4
330
280B
100
AcDbEntity
  8
0
  0
LINE
  5
2812
330
1E
100
AcDbEntity
  8
0
100
AcDbLine
 10
5.306102362204724
 20
5.169291338582676
 30
0.0
 11
5.161417322834645
 21
5.169291338582676
 31
0.0
  0
LINE
  5
2813
330
1E
100
AcDbEntity
  8
0
100
AcDbLine
 10
5.306102362204724
 20
5.169291338582676
 30
0.0
 11
5.306102362204724
 21
5.117125984251968
 31
0.0
  0
LINE
  5
2814
330
1E
100
AcDbEntity
  8
0
100
AcDbLine
 10
5.306102362204724
 20
5.452755905511811
 30
0.0
 11
5.161417322834645
 21
5.449803149606299
 31
0.0
  0
LINE
  5
2815
330
1E
100
AcDbEntity
  8
0
100
AcDbLine
 10
5.306102362204724
 20
5.64763779527559
 30
0.0
 11
5.161417322834645
 21
5.649606299212598
 31
0.0
  0
LINE
  5
2816
330
1E
100
AcDbEntity
  8
0
100
AcDbLine
 10
5.161417322834645
 20
5.61515748031496
 30
0.0
 11
5.161417322834645
 21
5.649606299212598
 31
0.0
  0
LINE
  5
2817
330
1E
100
AcDbEntity
  8
0
100
AcDbLine
 10
5.161417322834645
 20
5.61515748031496
 30
0.0
 11
4.871062992125984
 21
5.590551181102362
 31
0.0
  0
LINE
  5
2818
330
1E
100
AcDbEntity
  8
0
100
AcDbLine
 10
4.871062992125984
 20
5.509842519685038
 30
0.0
 11
4.871062992125984
 21
5.590551181102362
 31
0.0
  0
LINE
  5
2819
330
1E
100
AcDbEntity
  8
0
100
AcDbLine
 10
5.161417322834645
 20
5.484251968503937
 30
0.0
 11
4.871062992125984
 21
5.509842519685038
 31
0.0
  0
LINE
  5
281A
330
1E
100
AcDbEntity
  8
0
100
AcDbLine
 10
5.436023622047244
 20
5.454724409448818
 30
0.0
 11
5.429133858267716
 21
5.454724409448818
 31
0.0
  0
LINE
  5
281B
330
1E
100
AcDbEntity
  8
0
100
AcDbLine
 10
5.429133858267716
 20
5.454724409448818
 30
0.0
 11
5.331692913385826
 21
5.452755905511811
 31
0.0
  0
LINE
  5
281C
330
1E
100
AcDbEntity
  8
0
100
AcDbLine
 10
5.331692913385826
 20
5.452755905511811
 30
0.0
 11
5.319881889763779
 21
5.452755905511811
 31
0.0
  0
LINE
  5
281D
330
1E
100
AcDbEntity
  8
0
100
AcDbLine
 10
5.319881889763779
 20
5.452755905511811
 30
0.0
 11
5.306102362204724
 21
5.452755905511811
 31
0.0
  0
LINE
  5
281E
330
1E
100
AcDbEntity
  8
0
100
AcDbLine
 10
5.436023622047244
 20
5.644685039370078
 30
0.0
 11
5.436023622047244
 21
5.454724409448818
 31
0.0
  0
POLYLINE
  5
281F
330
1E
100
AcDbEntity
  8
0
100
AcDb2dPolyline
 66
     1
 10
0.0
 20
0.0
 30
0.0
  0
VERTEX
  5
2CA5
330
281F
100
AcDbEntity
  8
0
100
AcDbVertex
100
AcDb2dVertex
 10
5.161417322834645
 20
5.649606299212598
 30
0.0
  0
VERTEX
  5
2CA6
330
281F
100
AcDbEntity
  8
0
100
AcDbVertex
100
AcDb2dVertex
 10
5.145669291338582
 20
5.649606299212598
 30
0.0
  0
VERTEX
  5
2CA7
330
281F
100
AcDbEntity
  8
0
100
AcDbVertex
100
AcDb2dVertex
 10
5.132874015748031
 20
5.650590551181101
 30
0.0
  0
VERTEX
  5
2CA8
330
281F
100
AcDbEntity
  8
0
100
AcDbVertex
100
AcDb2dVertex
 10
5.124015748031496
 20
5.650590551181101
 30
0.0
  0
VERTEX
  5
2CA9
330
281F
100
AcDbEntity
  8
0
100
AcDbVertex
100
AcDb2dVertex
 10
5.121062992125984
 20
5.650590551181101
 30
0.0
  0
SEQEND
  5
2CAA
330
281F
100
AcDbEntity
  8
0
  0
LINE
  5
2826
330
1E
100
AcDbEntity
  8
0
100
AcDbLine
 10
5.319881889763779
 20
5.646653543307086
 30
0.0
 11
5.306102362204724
 21
5.64763779527559
 31
0.0
  0
LINE
  5
2827
330
1E
100
AcDbEntity
  8
0
100
AcDbLine
 10
5.319881889763779
 20
5.646653543307086
 30
0.0
 11
5.331692913385826
 21
5.646653543307086
 31
0.0
  0
LINE
  5
2828
330
1E
100
AcDbEntity
  8
0
100
AcDbLine
 10
5.331692913385826
 20
5.646653543307086
 30
0.0
 11
5.429133858267716
 21
5.644685039370078
 31
0.0
  0
LINE
  5
2829
330
1E
100
AcDbEntity
  8
0
100
AcDbLine
 10
5.429133858267716
 20
5.644685039370078
 30
0.0
 11
5.436023622047244
 21
5.644685039370078
 31
0.0
  0
LINE
  5
282A
330
1E
100
AcDbEntity
  8
0
100
AcDbLine
 10
5.306102362204724
 20
5.64763779527559
 30
0.0
 11
5.306102362204724
 21
5.452755905511811
 31
0.0
  0
LINE
  5
282B
330
1E
100
AcDbEntity
  8
0
100
AcDbLine
 10
5.319881889763779
 20
5.452755905511811
 30
0.0
 11
5.319881889763779
 21
5.646653543307086
 31
0.0
  0
LINE
  5
282C
330
1E
100
AcDbEntity
  8
0
100
AcDbLine
 10
5.331692913385826
 20
5.646653543307086
 30
0.0
 11
5.331692913385826
 21
5.452755905511811
 31
0.0
  0
LINE
  5
282D
330
1E
100
AcDbEntity
  8
0
100
AcDbLine
 10
5.429133858267716
 20
5.454724409448818
 30
0.0
 11
5.429133858267716
 21
5.644685039370078
 31
0.0
  0
LINE
  5
282E
330
1E
100
AcDbEntity
  8
0
100
AcDbLine
 10
5.416338582677164
 20
6.700787401574802
 30
0.0
 11
5.121062992125984
 21
6.695866141732283
 31
0.0
  0
LINE
  5
282F
330
1E
100
AcDbEntity
  8
0
100
AcDbLine
 10
5.436023622047244
 20
6.720472440944881
 30
0.0
 11
5.436023622047244
 21
6.721456692913386
 31
0.0
  0
POLYLINE
  5
2830
330
1E
100
AcDbEntity
  8
0
100
AcDb2dPolyline
 66
     1
 10
0.0
 20
0.0
 30
0.0
  0
VERTEX
  5
2CAB
330
2830
100
AcDbEntity
  8
0
100
AcDbVertex
100
AcDb2dVertex
 10
5.161417322834645
 20
6.765748031496062
 30
0.0
  0
VERTEX
  5
2CAC
330
2830
100
AcDbEntity
  8
0
100
AcDbVertex
100
AcDb2dVertex
 10
5.145669291338582
 20
6.768700787401574
 30
0.0
  0
VERTEX
  5
2CAD
330
2830
100
AcDbEntity
  8
0
100
AcDbVertex
100
AcDb2dVertex
 10
5.132874015748031
 20
6.77755905511811
 30
0.0
  0
VERTEX
  5
2CAE
330
2830
100
AcDbEntity
  8
0
100
AcDbVertex
100
AcDb2dVertex
 10
5.124015748031496
 20
6.790354330708661
 30
0.0
  0
VERTEX
  5
2CAF
330
2830
100
AcDbEntity
  8
0
100
AcDbVertex
100
AcDb2dVertex
 10
5.121062992125984
 20
6.806102362204724
 30
0.0
  0
SEQEND
  5
2CB0
330
2830
100
AcDbEntity
  8
0
  0
POLYLINE
  5
2837
330
1E
100
AcDbEntity
  8
0
100
AcDb2dPolyline
 66
     1
 10
0.0
 20
0.0
 30
0.0
  0
VERTEX
  5
2CB1
330
2837
100
AcDbEntity
  8
0
100
AcDbVertex
100
AcDb2dVertex
 10
5.416338582677164
 20
6.700787401574802
 30
0.0
  0
VERTEX
  5
2CB2
330
2837
100
AcDbEntity
  8
0
100
AcDbVertex
100
AcDb2dVertex
 10
5.431102362204724
 20
6.706692913385826
 30
0.0
  0
VERTEX
  5
2CB3
330
2837
100
AcDbEntity
  8
0
100
AcDbVertex
100
AcDb2dVertex
 10
5.436023622047244
 20
6.720472440944881
 30
0.0
  0
SEQEND
  5
2CB4
330
2837
100
AcDbEntity
  8
0
  0
LINE
  5
283C
330
1E
100
AcDbEntity
  8
0
100
AcDbLine
 10
5.436023622047244
 20
6.721456692913386
 30
0.0
 11
5.429133858267716
 21
6.737204724409449
 31
0.0
  0
LINE
  5
283D
330
1E
100
AcDbEntity
  8
0
100
AcDbLine
 10
5.429133858267716
 20
6.737204724409449
 30
0.0
 11
5.331692913385826
 21
6.813976377952755
 31
0.0
  0
LINE
  5
283E
330
1E
100
AcDbEntity
  8
0
100
AcDbLine
 10
5.331692913385826
 20
6.813976377952755
 30
0.0
 11
5.319881889763779
 21
6.817913385826771
 31
0.0
  0
LINE
  5
283F
330
1E
100
AcDbEntity
  8
0
100
AcDbLine
 10
5.319881889763779
 20
6.817913385826771
 30
0.0
 11
5.306102362204724
 21
6.817913385826771
 31
0.0
  0
LINE
  5
2840
330
1E
100
AcDbEntity
  8
0
100
AcDbLine
 10
5.306102362204724
 20
6.817913385826771
 30
0.0
 11
5.306102362204724
 21
6.765748031496062
 31
0.0
  0
POLYLINE
  5
2841
330
1E
100
AcDbEntity
  8
0
100
AcDb2dPolyline
 66
     1
 10
0.0
 20
0.0
 30
0.0
  0
VERTEX
  5
2CB5
330
2841
100
AcDbEntity
  8
0
100
AcDbVertex
100
AcDb2dVertex
 10
4.763779527559054
 20
5.130905511811023
 30
0.0
  0
VERTEX
  5
2CB6
330
2841
100
AcDbEntity
  8
0
100
AcDbVertex
100
AcDb2dVertex
 10
4.737204724409449
 20
5.166338582677165
 30
0.0
  0
VERTEX
  5
2CB7
330
2841
100
AcDbEntity
  8
0
100
AcDbVertex
100
AcDb2dVertex
 10
4.705708661417323
 20
5.196850393700787
 30
0.0
  0
VERTEX
  5
2CB8
330
2841
100
AcDbEntity
  8
0
100
AcDbVertex
100
AcDb2dVertex
 10
4.668307086614173
 20
5.221456692913386
 30
0.0
  0
VERTEX
  5
2CB9
330
2841
100
AcDbEntity
  8
0
100
AcDbVertex
100
AcDb2dVertex
 10
4.627952755905512
 20
5.238188976377952
 30
0.0
  0
SEQEND
  5
2CBA
330
2841
100
AcDbEntity
  8
0
  0
POLYLINE
  5
2848
330
1E
100
AcDbEntity
  8
0
100
AcDb2dPolyline
 66
     1
 10
0.0
 20
0.0
 30
0.0
  0
VERTEX
  5
2CBB
330
2848
100
AcDbEntity
  8
0
100
AcDbVertex
100
AcDb2dVertex
 10
4.627952755905512
 20
5.238188976377952
 30
0.0
  0
VERTEX
  5
2CBC
330
2848
100
AcDbEntity
  8
0
100
AcDbVertex
100
AcDb2dVertex
 10
4.601377952755905
 20
5.251968503937007
 30
0.0
  0
VERTEX
  5
2CBD
330
2848
100
AcDbEntity
  8
0
100
AcDbVertex
100
AcDb2dVertex
 10
4.579724409448818
 20
5.273622047244094
 30
0.0
  0
VERTEX
  5
2CBE
330
2848
100
AcDbEntity
  8
0
100
AcDbVertex
100
AcDb2dVertex
 10
4.56496062992126
 20
5.3001968503937
 30
0.0
  0
VERTEX
  5
2CBF
330
2848
100
AcDbEntity
  8
0
100
AcDbVertex
100
AcDb2dVertex
 10
4.559055118110236
 20
5.329724409448818
 30
0.0
  0
VERTEX
  5
2CC0
330
2848
100
AcDbEntity
  8
0
100
AcDbVertex
100
AcDb2dVertex
 10
4.562992125984251
 20
5.359251968503937
 30
0.0
  0
SEQEND
  5
2CC1
330
2848
100
AcDbEntity
  8
0
  0
LINE
  5
2850
330
1E
100
AcDbEntity
  8
0
100
AcDbLine
 10
4.783464566929133
 20
6.182086614173228
 30
0.0
 11
4.786417322834645
 21
6.20767716535433
 31
0.0
  0
POLYLINE
  5
2851
330
1E
100
AcDbEntity
  8
0
100
AcDb2dPolyline
 66
     1
 10
0.0
 20
0.0
 30
0.0
  0
VERTEX
  5
2CC2
330
2851
100
AcDbEntity
  8
0
100
AcDbVertex
100
AcDb2dVertex
 10
5.121062992125984
 20
5.613188976377952
 30
0.0
  0
VERTEX
  5
2CC3
330
2851
100
AcDbEntity
  8
0
100
AcDbVertex
100
AcDb2dVertex
 10
5.124015748031496
 20
5.613188976377952
 30
0.0
  0
VERTEX
  5
2CC4
330
2851
100
AcDbEntity
  8
0
100
AcDbVertex
100
AcDb2dVertex
 10
5.132874015748031
 20
5.613188976377952
 30
0.0
  0
VERTEX
  5
2CC5
330
2851
100
AcDbEntity
  8
0
100
AcDbVertex
100
AcDb2dVertex
 10
5.145669291338582
 20
5.614173228346456
 30
0.0
  0
VERTEX
  5
2CC6
330
2851
100
AcDbEntity
  8
0
100
AcDbVertex
100
AcDb2dVertex
 10
5.161417322834645
 20
5.61515748031496
 30
0.0
  0
SEQEND
  5
2CC7
330
2851
100
AcDbEntity
  8
0
  0
LINE
  5
2858
330
1E
100
AcDbEntity
  8
0
100
AcDbLine
 10
4.868110236220472
 20
5.506889763779527
 30
0.0
 11
4.871062992125984
 21
5.509842519685038
 31
0.0
  0
LINE
  5
2859
330
1E
100
AcDbEntity
  8
0
100
AcDbLine
 10
4.871062992125984
 20
5.590551181102362
 30
0.0
 11
4.868110236220472
 21
5.59251968503937
 31
0.0
  0
LINE
  5
285A
330
1E
100
AcDbEntity
  8
0
100
AcDbLine
 10
4.868110236220472
 20
5.506889763779527
 30
0.0
 11
5.121062992125984
 21
5.48523622047244
 31
0.0
  0
LINE
  5
285B
330
1E
100
AcDbEntity
  8
0
100
AcDbLine
 10
5.121062992125984
 20
5.61515748031496
 30
0.0
 11
4.868110236220472
 21
5.59251968503937
 31
0.0
  0
LINE
  5
285C
330
1E
100
AcDbEntity
  8
0
100
AcDbLine
 10
5.121062992125984
 20
5.086614173228346
 30
0.0
 11
4.868110236220472
 21
5.081692913385826
 31
0.0
  0
LINE
  5
285D
330
1E
100
AcDbEntity
  8
0
100
AcDbLine
 10
4.868110236220472
 20
5.131889763779527
 30
0.0
 11
5.121062992125984
 21
5.135826771653543
 31
0.0
  0
LINE
  5
285E
330
1E
100
AcDbEntity
  8
0
100
AcDbLine
 10
5.121062992125984
 20
6.799212598425196
 30
0.0
 11
4.868110236220472
 21
6.803149606299212
 31
0.0
  0
LINE
  5
285F
330
1E
100
AcDbEntity
  8
0
100
AcDbLine
 10
4.868110236220472
 20
6.853346456692912
 30
0.0
 11
5.121062992125984
 21
6.849409448818897
 31
0.0
  0
POLYLINE
  5
2860
330
1E
100
AcDbEntity
  8
0
100
AcDb2dPolyline
 66
     1
 10
0.0
 20
0.0
 30
0.0
  0
VERTEX
  5
2CC8
330
2860
100
AcDbEntity
  8
0
100
AcDbVertex
100
AcDb2dVertex
 10
4.847440944881889
 20
5.08267716535433
 30
0.0
  0
VERTEX
  5
2CC9
330
2860
100
AcDbEntity
  8
0
100
AcDbVertex
100
AcDb2dVertex
 10
4.822834645669291
 20
5.085629921259842
 30
0.0
  0
VERTEX
  5
2CCA
330
2860
100
AcDbEntity
  8
0
100
AcDbVertex
100
AcDb2dVertex
 10
4.799212598425197
 20
5.095472440944881
 30
0.0
  0
VERTEX
  5
2CCB
330
2860
100
AcDbEntity
  8
0
100
AcDbVertex
100
AcDb2dVertex
 10
4.779527559055117
 20
5.111220472440944
 30
0.0
  0
VERTEX
  5
2CCC
330
2860
100
AcDbEntity
  8
0
100
AcDbVertex
100
AcDb2dVertex
 10
4.763779527559054
 20
5.130905511811023
 30
0.0
  0
SEQEND
  5
2CCD
330
2860
100
AcDbEntity
  8
0
  0
POLYLINE
  5
2867
330
1E
100
AcDbEntity
  8
0
100
AcDb2dPolyline
 66
     1
 10
0.0
 20
0.0
 30
0.0
  0
VERTEX
  5
2CCE
330
2867
100
AcDbEntity
  8
0
100
AcDbVertex
100
AcDb2dVertex
 10
4.786417322834645
 20
6.803149606299212
 30
0.0
  0
VERTEX
  5
2CCF
330
2867
100
AcDbEntity
  8
0
100
AcDbVertex
100
AcDb2dVertex
 10
4.793307086614173
 20
6.827755905511811
 30
0.0
  0
VERTEX
  5
2CD0
330
2867
100
AcDbEntity
  8
0
100
AcDbVertex
100
AcDb2dVertex
 10
4.811023622047244
 20
6.846456692913386
 30
0.0
  0
VERTEX
  5
2CD1
330
2867
100
AcDbEntity
  8
0
100
AcDbVertex
100
AcDb2dVertex
 10
4.835629921259842
 20
6.853346456692912
 30
0.0
  0
SEQEND
  5
2CD2
330
2867
100
AcDbEntity
  8
0
  0
POLYLINE
  5
286D
330
1E
100
AcDbEntity
  8
0
100
AcDb2dPolyline
 66
     1
 10
0.0
 20
0.0
 30
0.0
  0
VERTEX
  5
2CD3
330
286D
100
AcDbEntity
  8
0
100
AcDbVertex
100
AcDb2dVertex
 10
4.868110236220472
 20
5.131889763779527
 30
0.0
  0
VERTEX
  5
2CD4
330
286D
100
AcDbEntity
  8
0
100
AcDbVertex
100
AcDb2dVertex
 10
4.868110236220472
 20
5.113188976377952
 30
0.0
  0
VERTEX
  5
2CD5
330
286D
100
AcDbEntity
  8
0
100
AcDbVertex
100
AcDb2dVertex
 10
4.868110236220472
 20
5.096456692913386
 30
0.0
  0
VERTEX
  5
2CD6
330
286D
100
AcDbEntity
  8
0
100
AcDbVertex
100
AcDb2dVertex
 10
4.868110236220472
 20
5.085629921259842
 30
0.0
  0
VERTEX
  5
2CD7
330
286D
100
AcDbEntity
  8
0
100
AcDbVertex
100
AcDb2dVertex
 10
4.868110236220472
 20
5.081692913385826
 30
0.0
  0
SEQEND
  5
2CD8
330
286D
100
AcDbEntity
  8
0
  0
POLYLINE
  5
2874
330
1E
100
AcDbEntity
  8
0
100
AcDb2dPolyline
 66
     1
 10
0.0
 20
0.0
 30
0.0
  0
VERTEX
  5
2CD9
330
2874
100
AcDbEntity
  8
0
100
AcDbVertex
100
AcDb2dVertex
 10
4.868110236220472
 20
6.853346456692912
 30
0.0
  0
VERTEX
  5
2CDA
330
2874
100
AcDbEntity
  8
0
100
AcDbVertex
100
AcDb2dVertex
 10
4.868110236220472
 20
6.849409448818897
 30
0.0
  0
VERTEX
  5
2CDB
330
2874
100
AcDbEntity
  8
0
100
AcDbVertex
100
AcDb2dVertex
 10
4.868110236220472
 20
6.838582677165354
 30
0.0
  0
VERTEX
  5
2CDC
330
2874
100
AcDbEntity
  8
0
100
AcDbVertex
100
AcDb2dVertex
 10
4.868110236220472
 20
6.822834645669291
 30
0.0
  0
VERTEX
  5
2CDD
330
2874
100
AcDbEntity
  8
0
100
AcDbVertex
100
AcDb2dVertex
 10
4.868110236220472
 20
6.803149606299212
 30
0.0
  0
SEQEND
  5
2CDE
330
2874
100
AcDbEntity
  8
0
  0
POLYLINE
  5
287B
330
1E
100
AcDbEntity
  8
0
100
AcDb2dPolyline
 66
     1
 10
0.0
 20
0.0
 30
0.0
  0
VERTEX
  5
2CDF
330
287B
100
AcDbEntity
  8
0
100
AcDbVertex
100
AcDb2dVertex
 10
4.847440944881889
 20
5.08267716535433
 30
0.0
  0
VERTEX
  5
2CE0
330
287B
100
AcDbEntity
  8
0
100
AcDbVertex
100
AcDb2dVertex
 10
4.847440944881889
 20
5.088582677165354
 30
0.0
  0
VERTEX
  5
2CE1
330
287B
100
AcDbEntity
  8
0
100
AcDbVertex
100
AcDb2dVertex
 10
4.847440944881889
 20
5.107283464566928
 30
0.0
  0
VERTEX
  5
2CE2
330
287B
100
AcDbEntity
  8
0
100
AcDbVertex
100
AcDb2dVertex
 10
4.847440944881889
 20
5.131889763779527
 30
0.0
  0
SEQEND
  5
2CE3
330
287B
100
AcDbEntity
  8
0
  0
POLYLINE
  5
2881
330
1E
100
AcDbEntity
  8
0
100
AcDb2dPolyline
 66
     1
 10
0.0
 20
0.0
 30
0.0
  0
VERTEX
  5
2CE4
330
2881
100
AcDbEntity
  8
0
100
AcDbVertex
100
AcDb2dVertex
 10
4.763779527559054
 20
5.130905511811023
 30
0.0
  0
VERTEX
  5
2CE5
330
2881
100
AcDbEntity
  8
0
100
AcDbVertex
100
AcDb2dVertex
 10
4.769685039370078
 20
5.133858267716535
 30
0.0
  0
VERTEX
  5
2CE6
330
2881
100
AcDbEntity
  8
0
100
AcDbVertex
100
AcDb2dVertex
 10
4.784448818897637
 20
5.143700787401574
 30
0.0
  0
VERTEX
  5
2CE7
330
2881
100
AcDbEntity
  8
0
100
AcDbVertex
100
AcDb2dVertex
 10
4.806102362204724
 20
5.156496062992125
 30
0.0
  0
SEQEND
  5
2CE8
330
2881
100
AcDbEntity
  8
0
  0
POLYLINE
  5
2887
330
1E
100
AcDbEntity
  8
0
100
AcDb2dPolyline
 66
     1
 10
0.0
 20
0.0
 30
0.0
  0
VERTEX
  5
2CE9
330
2887
100
AcDbEntity
  8
0
100
AcDbVertex
100
AcDb2dVertex
 10
4.627952755905512
 20
5.238188976377952
 30
0.0
  0
VERTEX
  5
2CEA
330
2887
100
AcDbEntity
  8
0
100
AcDbVertex
100
AcDb2dVertex
 10
4.629921259842519
 20
5.24507874015748
 30
0.0
  0
VERTEX
  5
2CEB
330
2887
100
AcDbEntity
  8
0
100
AcDbVertex
100
AcDb2dVertex
 10
4.634842519685038
 20
5.26279527559055
 30
0.0
  0
VERTEX
  5
2CEC
330
2887
100
AcDbEntity
  8
0
100
AcDbVertex
100
AcDb2dVertex
 10
4.64271653543307
 20
5.286417322834645
 30
0.0
  0
SEQEND
  5
2CED
330
2887
100
AcDbEntity
  8
0
  0
POLYLINE
  5
288D
330
1E
100
AcDbEntity
  8
0
100
AcDb2dPolyline
 66
     1
 10
0.0
 20
0.0
 30
0.0
  0
VERTEX
  5
2CEE
330
288D
100
AcDbEntity
  8
0
100
AcDbVertex
100
AcDb2dVertex
 10
4.562992125984251
 20
5.359251968503937
 30
0.0
  0
VERTEX
  5
2CEF
330
288D
100
AcDbEntity
  8
0
100
AcDbVertex
100
AcDb2dVertex
 10
4.568897637795275
 20
5.357283464566928
 30
0.0
  0
VERTEX
  5
2CF0
330
288D
100
AcDbEntity
  8
0
100
AcDbVertex
100
AcDb2dVertex
 10
4.586614173228346
 20
5.353346456692912
 30
0.0
  0
VERTEX
  5
2CF1
330
288D
100
AcDbEntity
  8
0
100
AcDbVertex
100
AcDb2dVertex
 10
4.61023622047244
 20
5.346456692913386
 30
0.0
  0
SEQEND
  5
2CF2
330
288D
100
AcDbEntity
  8
0
  0
POLYLINE
  5
2893
330
1E
100
AcDbEntity
  8
0
100
AcDb2dPolyline
 66
     1
 10
0.0
 20
0.0
 30
0.0
  0
VERTEX
  5
2CF3
330
2893
100
AcDbEntity
  8
0
100
AcDbVertex
100
AcDb2dVertex
 10
4.783464566929133
 20
6.182086614173228
 30
0.0
  0
VERTEX
  5
2CF4
330
2893
100
AcDbEntity
  8
0
100
AcDbVertex
100
AcDb2dVertex
 10
4.789370078740157
 20
6.18011811023622
 30
0.0
  0
VERTEX
  5
2CF5
330
2893
100
AcDbEntity
  8
0
100
AcDbVertex
100
AcDb2dVertex
 10
4.807086614173228
 20
6.1751968503937
 30
0.0
  0
VERTEX
  5
2CF6
330
2893
100
AcDbEntity
  8
0
100
AcDbVertex
100
AcDb2dVertex
 10
4.830708661417323
 20
6.169291338582676
 30
0.0
  0
SEQEND
  5
2CF7
330
2893
100
AcDbEntity
  8
0
  0
POLYLINE
  5
2899
330
1E
100
AcDbEntity
  8
0
100
AcDb2dPolyline
 66
     1
 10
0.0
 20
0.0
 30
0.0
  0
VERTEX
  5
2CF8
330
2899
100
AcDbEntity
  8
0
100
AcDbVertex
100
AcDb2dVertex
 10
4.786417322834645
 20
6.20767716535433
 30
0.0
  0
VERTEX
  5
2CF9
330
2899
100
AcDbEntity
  8
0
100
AcDbVertex
100
AcDb2dVertex
 10
4.793307086614173
 20
6.20767716535433
 30
0.0
  0
VERTEX
  5
2CFA
330
2899
100
AcDbEntity
  8
0
100
AcDbVertex
100
AcDb2dVertex
 10
4.811023622047244
 20
6.20767716535433
 30
0.0
  0
VERTEX
  5
2CFB
330
2899
100
AcDbEntity
  8
0
100
AcDbVertex
100
AcDb2dVertex
 10
4.835629921259842
 20
6.20767716535433
 30
0.0
  0
SEQEND
  5
2CFC
330
2899
100
AcDbEntity
  8
0
  0
POLYLINE
  5
289F
330
1E
100
AcDbEntity
  8
0
100
AcDb2dPolyline
 66
     1
 10
0.0
 20
0.0
 30
0.0
  0
VERTEX
  5
2CFD
330
289F
100
AcDbEntity
  8
0
100
AcDbVertex
100
AcDb2dVertex
 10
4.786417322834645
 20
6.803149606299212
 30
0.0
  0
VERTEX
  5
2CFE
330
289F
100
AcDbEntity
  8
0
100
AcDbVertex
100
AcDb2dVertex
 10
4.793307086614173
 20
6.803149606299212
 30
0.0
  0
VERTEX
  5
2CFF
330
289F
100
AcDbEntity
  8
0
100
AcDbVertex
100
AcDb2dVertex
 10
4.811023622047244
 20
6.803149606299212
 30
0.0
  0
VERTEX
  5
2D00
330
289F
100
AcDbEntity
  8
0
100
AcDbVertex
100
AcDb2dVertex
 10
4.835629921259842
 20
6.803149606299212
 30
0.0
  0
SEQEND
  5
2D01
330
289F
100
AcDbEntity
  8
0
  0
POLYLINE
  5
28A5
330
1E
100
AcDbEntity
  8
0
100
AcDb2dPolyline
 66
     1
 10
0.0
 20
0.0
 30
0.0
  0
VERTEX
  5
2D02
330
28A5
100
AcDbEntity
  8
0
100
AcDbVertex
100
AcDb2dVertex
 10
4.835629921259842
 20
6.853346456692912
 30
0.0
  0
VERTEX
  5
2D03
330
28A5
100
AcDbEntity
  8
0
100
AcDbVertex
100
AcDb2dVertex
 10
4.835629921259842
 20
6.846456692913386
 30
0.0
  0
VERTEX
  5
2D04
330
28A5
100
AcDbEntity
  8
0
100
AcDbVertex
100
AcDb2dVertex
 10
4.835629921259842
 20
6.827755905511811
 30
0.0
  0
VERTEX
  5
2D05
330
28A5
100
AcDbEntity
  8
0
100
AcDbVertex
100
AcDb2dVertex
 10
4.835629921259842
 20
6.803149606299212
 30
0.0
  0
SEQEND
  5
2D06
330
28A5
100
AcDbEntity
  8
0
  0
ENDSEC
  0
SECTION
  2
OBJECTS
  0
DICTIONARY
  5
C
330
0
100
AcDbDictionary
  3
ACAD_GROUP
350
D
  3
ACAD_MLINESTYLE
350
16
  3
ACAD_PLOTSETTINGS
350
18
  3
ACAD_LAYOUT
350
19
1001
ACAD
1000
TREAT_AS_HARD
1070
     0
  0
DICTIONARY
  5
2B3B
330
1E
100
AcDbDictionary
  3
ACAD_LAYOUTSELFREF
350
2B3C
  0
DICTIONARY
  5
2B39
330
1A
100
AcDbDictionary
  3
ACAD_LAYOUTSELFREF
350
2B3A
  0
DICTIONARY
  5
D
102
{ACAD_REACTORS
330
C
102
}
330
C
100
AcDbDictionary
1001
ACAD
1000
TREAT_AS_HARD
1070
     0
  0
DICTIONARY
  5
16
102
{ACAD_REACTORS
330
C
102
}
330
C
100
AcDbDictionary
  3
STANDARD
350
17
1001
ACAD
1000
TREAT_AS_HARD
1070
     0
  0
DICTIONARY
  5
18
102
{ACAD_REACTORS
330
C
102
}
330
C
100
AcDbDictionary
1001
ACAD
1000
TREAT_AS_HARD
1070
     0
  0
DICTIONARY
  5
19
102
{ACAD_REACTORS
330
C
102
}
330
C
100
AcDbDictionary
1001
ACAD
1000
TREAT_AS_HARD
1070
     0
  0
XRECORD
  5
2B3C
102
{ACAD_REACTORS
330
2B3B
102
}
330
2B3B
100
AcDbXrecord
340
1E
  0
XRECORD
  5
2B3A
102
{ACAD_REACTORS
330
2B39
102
}
330
2B39
100
AcDbXrecord
340
1A
  0
MLINESTYLE
  5
17
102
{ACAD_REACTORS
330
16
102
}
330
16
100
AcDbMlineStyle
  2
STANDARD
 70
     0
  3

 62
   256
 51
90.0
 52
90.0
 71
     2
 49
0.5
 62
   256
  6
BYLAYER
 49
-0.5
 62
   256
  6
BYLAYER
  0
ENDSEC
  0
EOF
