  0
SECTION
  2
HEADER
  9
$ACADVER
  1
AC1015
  9
$ACADMAINTVER
 70
     6
  9
$DWGCODEPAGE
  3
ANSI_1252
  9
$INSBASE
 10
0.0
 20
0.0
 30
0.0
  9
$EXTMIN
 10
-0.5
 20
-0.5
 30
-0.5
  9
$EXTMAX
 10
5.0
 20
5.0
 30
5.0
  9
$LIMMIN
 10
-0.5
 20
-0.5
  9
$LIMMAX
 10
5.0
 20
5.0
  9
$ORTHOMODE
 70
     0
  9
$REGENMODE
 70
     1
  9
$FILLMODE
 70
     1
  9
$QTEXTMODE
 70
     0
  9
$MIRRTEXT
 70
     1
  9
$LTSCALE
 40
1.0
  9
$ATTMODE
 70
     1
  9
$TEXTSIZE
 40
0.2
  9
$TRACEWID
 40
0.05
  9
$TEXTSTYLE
  7
Standard
  9
$CLAYER
  8
0
  9
$CELTYPE
  6
Continuous
  9
$CECOLOR
 62
   256
  9
$CELTSCALE
 40
1.0
  9
$DISPSILH
 70
     0
  9
$DIMSCALE
 40
1.0
  9
$DIMASZ
 40
0.18
  9
$DIMEXO
 40
0.0625
  9
$DIMDLI
 40
0.38
  9
$DIMRND
 40
0.0
  9
$DIMDLE
 40
0.0
  9
$DIMEXE
 40
0.18
  9
$DIMTP
 40
0.0
  9
$DIMTM
 40
0.0
  9
$DIMTXT
 40
0.18
  9
$DIMCEN
 40
0.09
  9
$DIMTSZ
 40
0.0
  9
$DIMTOL
 70
     0
  9
$DIMLIM
 70
     0
  9
$DIMTIH
 70
     1
  9
$DIMTOH
 70
     1
  9
$DIMSE1
 70
     0
  9
$DIMSE2
 70
     0
  9
$DIMTAD
 70
     0
  9
$DIMZIN
 70
     0
  9
$DIMBLK
  1

  9
$DIMASO
 70
     1
  9
$DIMSHO
 70
     1
  9
$DIMPOST
  1

  9
$DIMAPOST
  1

  9
$DIMALT
 70
     0
  9
$DIMALTD
 70
     2
  9
$DIMALTF
 40
25.4
  9
$DIMLFAC
 40
1.0
  9
$DIMTOFL
 70
     0
  9
$DIMTVP
 40
0.0
  9
$DIMTIX
 70
     0
  9
$DIMSOXD
 70
     0
  9
$DIMSAH
 70
     0
  9
$DIMBLK1
  1

  9
$DIMBLK2
  1

  9
$DIMSTYLE
  2
Standard
  9
$DIMCLRD
 70
     0
  9
$DIMCLRE
 70
     0
  9
$DIMCLRT
 70
     0
  9
$DIMTFAC
 40
1.0
  9
$DIMGAP
 40
0.09
  9
$DIMJUST
 70
     0
  9
$DIMSD1
 70
     0
  9
$DIMSD2
 70
     0
  9
$DIMTOLJ
 70
     1
  9
$DIMTZIN
 70
     0
  9
$DIMALTZ
 70
     0
  9
$DIMALTTZ
 70
     0
  9
$DIMUPT
 70
     0
  9
$DIMDEC
 70
     4
  9
$DIMTDEC
 70
     4
  9
$DIMALTU
 70
     2
  9
$DIMALTTD
 70
     2
  9
$DIMTXSTY
  7
Standard
  9
$DIMAUNIT
 70
     0
  9
$DIMADEC
 70
     0
  9
$DIMALTRND
 40
0.0
  9
$DIMAZIN
 70
     0
  9
$DIMDSEP
 70
     0
  9
$DIMATFIT
 70
     3
  9
$DIMFRAC
 70
     0
  9
$DIMLDRBLK
  1

  9
$DIMLUNIT
 70
     2
  9
$DIMLWD
 70
     0
  9
$DIMLWE
 70
     0
  9
$DIMTMOVE
 70
     0
  9
$LUNITS
 70
     2
  9
$LUPREC
 70
     4
  9
$SKETCHINC
 40
0.1
  9
$FILLETRAD
 40
0.0
  9
$AUNITS
 70
     0
  9
$AUPREC
 70
     0
  9
$MENU
  1
acad
  9
$ELEVATION
 40
0.0
  9
$PELEVATION
 40
0.0
  9
$THICKNESS
 40
0.0
  9
$LIMCHECK
 70
     0
  9
$CHAMFERA
 40
0.0
  9
$CHAMFERB
 40
0.0
  9
$CHAMFERC
 40
0.0
  9
$CHAMFERD
 40
0.0
  9
$SKPOLY
 70
     0
  9
$TDCREATE
 40
0.000000000
  9
$TDUCREATE
 40
0.000000000
  9
$TDUPDATE
 40
0.000000000
  9
$TDUUPDATE
 40
0.000000000
  9
$TDINDWG
 40
0.0000000000
  9
$TDUSRTIMER
 40
0.0000000000
  9
$USRTIMER
 70
     1
  9
$ANGBASE
 50
0.0
  9
$ANGDIR
 70
     0
  9
$PDMODE
 70
     0
  9
$PDSIZE
 40
0.0
  9
$PLINEWID
 40
0.0
  9
$SPLFRAME
 70
     0
  9
$SPLINETYPE
 70
     6
  9
$SPLINESEGS
 70
     8
  9
$HANDSEED
  5
3C2
  9
$SURFTAB1
 70
     6
  9
$SURFTAB2
 70
     6
  9
$SURFTYPE
 70
     6
  9
$SURFU
 70
     6
  9
$SURFV
 70
     6
  9
$UCSBASE
  2

  9
$UCSNAME
  2

  9
$UCSORG
 10
0.0
 20
0.0
 30
0.0
  9
$UCSXDIR
 10
1.0
 20
0.0
 30
0.0
  9
$UCSYDIR
 10
0.0
 20
1.0
 30
0.0
  9
$UCSORTHOREF
  2

  9
$UCSORTHOVIEW
 70
     0
  9
$UCSORGTOP
 10
0.0
 20
0.0
 30
0.0
  9
$UCSORGBOTTOM
 10
0.0
 20
0.0
 30
0.0
  9
$UCSORGLEFT
 10
0.0
 20
0.0
 30
0.0
  9
$UCSORGRIGHT
 10
0.0
 20
0.0
 30
0.0
  9
$UCSORGFRONT
 10
0.0
 20
0.0
 30
0.0
  9
$UCSORGBACK
 10
0.0
 20
0.0
 30
0.0
  9
$PUCSBASE
  2

  9
$PUCSNAME
  2

  9
$PUCSORG
 10
0.0
 20
0.0
 30
0.0
  9
$PUCSXDIR
 10
1.0
 20
0.0
 30
0.0
  9
$PUCSYDIR
 10
0.0
 20
1.0
 30
0.0
  9
$PUCSORTHOREF
  2

  9
$PUCSORTHOVIEW
 70
     0
  9
$PUCSORGTOP
 10
0.0
 20
0.0
 30
0.0
  9
$PUCSORGBOTTOM
 10
0.0
 20
0.0
 30
0.0
  9
$PUCSORGLEFT
 10
0.0
 20
0.0
 30
0.0
  9
$PUCSORGRIGHT
 10
0.0
 20
0.0
 30
0.0
  9
$PUCSORGFRONT
 10
0.0
 20
0.0
 30
0.0
  9
$PUCSORGBACK
 10
0.0
 20
0.0
 30
0.0
  9
$USERI1
 70
     0
  9
$USERI2
 70
     0
  9
$USERI3
 70
     0
  9
$USERI4
 70
     0
  9
$USERI5
 70
     0
  9
$USERR1
 40
0.0
  9
$USERR2
 40
0.0
  9
$USERR3
 40
0.0
  9
$USERR4
 40
0.0
  9
$USERR5
 40
0.0
  9
$WORLDVIEW
 70
     1
  9
$SHADEDGE
 70
     3
  9
$SHADEDIF
 70
    70
  9
$TILEMODE
 70
     0
  9
$MAXACTVP
 70
    16
  9
$PINSBASE
 10
0.0
 20
0.0
 30
0.0
  9
$PLIMCHECK
 70
     0
  9
$PEXTMIN
 10
-0.5
 20
-0.5
 30
-0.5
  9
$PEXTMAX
 10
17.339996
 20
11.219986
 30
5.0
  9
$PLIMMIN
 10
-0.5
 20
-0.5
  9
$PLIMMAX
 10
17.339996
 20
11.219986
  9
$UNITMODE
 70
     0
  9
$VISRETAIN
 70
     0
  9
$PLINEGEN
 70
     1
  9
$PSLTSCALE
 70
     0
  9
$TREEDEPTH
 70
  3020
  9
$CMLSTYLE
  2
Standard
  9
$CMLJUST
 70
     0
  9
$CMLSCALE
 40
1.0
  9
$PROXYGRAPHICS
 70
     0
  9
$MEASUREMENT
 70
     0
  9
$CELWEIGHT
370
     0
  9
$ENDCAPS
280
     0
  9
$JOINSTYLE
280
     0
  9
$LWDISPLAY
290
     0
  9
$INSUNITS
 70
     0
  9
$HYPERLINKBASE
  1

  9
$XEDIT
290
     1
  9
$CEPSNTYPE
380
     0
  9
$PSTYLEMODE
290
     1
  9
$FINGERPRINTGUID
  2

  9
$VERSIONGUID
  2

  9
$EXTNAMES
290
     1
  9
$PSVPSCALE
 40
0.0
  0
ENDSEC
  0
SECTION
  2
CLASSES
  0
CLASS
  1
LWPOLYLINE
  2
AcDbPolyline
  3
"AutoCAD"
 90
        0
280
     0
281
     1
  0
CLASS
  1
IMAGE
  2
AcDbRasterImage
  3
ISM
 90
      127
280
     0
281
     1
  0
CLASS
  1
OLE2FRAME
  2
AcDbOle2Frame
  3
""
 90
        0
280
     0
281
     1
  0
CLASS
  1
HATCH
  2
AcDbHatch
  3
"ACAD_SEDONA"
 90
        0
280
     0
281
     1
  0
CLASS
  1
DICTIONARYVAR
  2
AcDbDictionaryVar
  3
"AutoCAD"
 90
        0
280
     0
281
     0
  0
CLASS
  1
RASTERVARIABLES
  2
AcDbRasterVariables
  3
ISM
 90
        0
280
     0
281
     0
  0
CLASS
  1
IMAGEDEF
  2
AcDbRasterImageDef
  3
ISM
 90
        0
280
     0
281
     0
  0
CLASS
  1
IMAGEDEF_REACTOR
  2
AcDbRasterImageDefReactor
  3
ISM
 90
        1
280
     0
281
     0
  0
CLASS
  1
IDBUFFER
  2
AcDbIdBuffer
  3
"Acad"
 90
        0
280
     0
281
     0
  0
CLASS
  1
SPATIAL_FILTER
  2
AcDbSpatialFilter
  3
"Acad"
 90
        0
280
     0
281
     0
  0
CLASS
  1
XRECORD
  2
AcDbXrecord
  3
"<Built In>"
 90
        0
280
     0
281
     0
  0
CLASS
  1
SORTENTSTABLE
  2
AcDbSortentsTable
  3
"AutoCAD"
 90
        0
280
     0
281
     0
  0
CLASS
  1
LAYER_INDEX
  2
AcDbLayerIndex
  3
"Acad"
 90
        0
280
     0
281
     0
  0
CLASS
  1
SPATIAL_INDEX
  2
AcDbSpatialIndex
  3
"Acad"
 90
        0
280
     0
281
     0
  0
CLASS
  1
OBJECT_PTR
  2
CAseDLPNTableRecord
  3
"ASE-LPNTableRecord"
 90
        1
280
     0
281
     0
  0
CLASS
  1
LAYOUT
  2
AcDbLayout
  3
"AutoCAD 2000"
 90
        1
280
     0
281
     0
  0
CLASS
  1
PLOTSETTINGS
  2
AcDbPlotSettings
  3
"AutoCAD 2000"
 90
        1
280
     0
281
     0
  0
CLASS
  1
ACDBDICTIONARYWDFLT
  2
AcDbDictionaryWithDefault
  3
"AutoCAD 2000"
 90
        1
280
     0
281
     0
  0
CLASS
  1
ACDBPLACEHOLDER
  2
AcDbPlaceHolder
  3
"AutoCAD 2000"
 90
        1
280
     0
281
     0
  0
CLASS
  1
VBA_PROJECT
  2
AcDbVbaProject
  3
"acadvba"
 90
        1
280
     0
281
     0
  0
CLASS
  1
RTEXT
  2
RText
  3
RText|AutoCAD Express Tool|expresstools@autodesk.com
 90
        0
280
     0
281
     1
  0
CLASS
  1
ARCALIGNEDTEXT
  2
AcDbArcAlignedText
  3
ATEXT|AutoCAD Express Tool|expresstools@autodesk.com
 90
        0
280
     0
281
     1
  0
ENDSEC
  0
SECTION
  2
TABLES
  0
TABLE
  2
VPORT
  5
7
100
AcDbSymbolTable
 70
    16
  0
VPORT
  5
3B2
100
AcDbSymbolTableRecord
100
AcDbViewportTableRecord
  2
*ACTIVE
 70
     0
 10
0.0
 20
0.0
 11
1.0
 21
1.0
 12
0.0
 22
0.0
 13
0.0
 23
0.0
 14
1.0
 24
1.0
 15
0.0
 25
0.0
 16
0.0
 26
0.0
 36
1.0
 17
0.0
 27
0.0
 37
0.0
 40
9.896346
 41
0.688564
 42
50.0
 43
27.661251
 44
-27.661251
 50
0.0
 51
0.0
 71
    16
 72
   100
 73
     1
 74
     1
 75
     0
 76
     0
 77
     0
 78
     0
281
     0
 65
     0
110
0.0
120
0.0
130
0.0
111
1.0
121
0.0
131
0.0
112
0.0
122
1.0
132
0.0
345
0
346
0
 79
     0
146
0.0
  0
VPORT
  5
3B3
100
AcDbSymbolTableRecord
100
AcDbViewportTableRecord
  2
L1
 70
     0
 10
0.0
 20
0.0
 11
1.0
 21
1.0
 12
0.0
 22
0.0
 13
0.0
 23
0.0
 14
1.0
 24
1.0
 15
0.0
 25
0.0
 16
0.0
 26
0.0
 36
1.0
 17
0.0
 27
0.0
 37
0.0
 40
9.896346
 41
0.688564
 42
50.0
 43
27.661251
 44
-27.661251
 50
0.0
 51
0.0
 71
    16
 72
   100
 73
     1
 74
     1
 75
     0
 76
     0
 77
     0
 78
     0
281
     0
 65
     0
110
0.0
120
0.0
130
0.0
111
1.0
121
0.0
131
0.0
112
0.0
122
1.0
132
0.0
345
0
346
0
 79
     0
146
0.0
  0
VPORT
  5
3B4
100
AcDbSymbolTableRecord
100
AcDbViewportTableRecord
  2
L2
 70
     0
 10
0.0
 20
0.0
 11
0.5
 21
1.0
 12
0.0
 22
0.0
 13
0.0
 23
0.0
 14
1.0
 24
1.0
 15
0.0
 25
0.0
 16
0.0
 26
-1.0
 36
0.0
 17
0.0
 27
0.0
 37
0.0
 40
55.322503
 41
0.688564
 42
50.0
 43
28.305337
 44
-28.305337
 50
0.0
 51
0.0
 71
    16
 72
   100
 73
     1
 74
     1
 75
     0
 76
     0
 77
     0
 78
     0
281
     0
 65
     0
110
0.0
120
0.0
130
0.0
111
1.0
121
0.0
131
0.0
112
0.0
122
1.0
132
0.0
345
0
346
0
 79
     0
146
0.0
  0
VPORT
  5
3B5
100
AcDbSymbolTableRecord
100
AcDbViewportTableRecord
  2
L2
 70
     0
 10
0.5
 20
0.0
 11
1.0
 21
1.0
 12
0.0
 22
0.0
 13
0.0
 23
0.0
 14
1.0
 24
1.0
 15
0.0
 25
0.0
 16
1.0
 26
0.0
 36
0.0
 17
0.0
 27
0.0
 37
0.0
 40
55.322503
 41
0.688564
 42
50.0
 43
28.100342
 44
-28.100342
 50
0.0
 51
0.0
 71
    16
 72
   100
 73
     1
 74
     1
 75
     0
 76
     0
 77
     0
 78
     0
281
     0
 65
     0
110
0.0
120
0.0
130
0.0
111
1.0
121
0.0
131
0.0
112
0.0
122
1.0
132
0.0
345
0
346
0
 79
     0
146
0.0
  0
VPORT
  5
3B6
100
AcDbSymbolTableRecord
100
AcDbViewportTableRecord
  2
L3
 70
     0
 10
0.0
 20
0.5
 11
1.0
 21
1.0
 12
0.0
 22
0.0
 13
0.0
 23
0.0
 14
1.0
 24
1.0
 15
0.0
 25
0.0
 16
0.0
 26
0.0
 36
1.0
 17
0.0
 27
0.0
 37
0.0
 40
9.896346
 41
0.688564
 42
50.0
 43
27.661251
 44
-27.661251
 50
0.0
 51
0.0
 71
    16
 72
   100
 73
     1
 74
     1
 75
     0
 76
     0
 77
     0
 78
     0
281
     0
 65
     0
110
0.0
120
0.0
130
0.0
111
1.0
121
0.0
131
0.0
112
0.0
122
1.0
132
0.0
345
0
346
0
 79
     0
146
0.0
  0
VPORT
  5
3B7
100
AcDbSymbolTableRecord
100
AcDbViewportTableRecord
  2
L3
 70
     0
 10
0.0
 20
0.0
 11
1.0
 21
0.5
 12
0.0
 22
0.0
 13
0.0
 23
0.0
 14
1.0
 24
1.0
 15
0.0
 25
0.0
 16
0.0
 26
-1.0
 36
0.0
 17
0.0
 27
0.0
 37
0.0
 40
55.322503
 41
0.688564
 42
50.0
 43
28.305337
 44
-28.305337
 50
0.0
 51
0.0
 71
    16
 72
   100
 73
     1
 74
     1
 75
     0
 76
     0
 77
     0
 78
     0
281
     0
 65
     0
110
0.0
120
0.0
130
0.0
111
1.0
121
0.0
131
0.0
112
0.0
122
1.0
132
0.0
345
0
346
0
 79
     0
146
0.0
  0
VPORT
  5
3B8
100
AcDbSymbolTableRecord
100
AcDbViewportTableRecord
  2
L4
 70
     0
 10
0.0
 20
0.5
 11
0.5
 21
1.0
 12
0.0
 22
0.0
 13
0.0
 23
0.0
 14
1.0
 24
1.0
 15
0.0
 25
0.0
 16
0.0
 26
0.0
 36
1.0
 17
0.0
 27
0.0
 37
0.0
 40
9.896346
 41
0.688564
 42
50.0
 43
27.661251
 44
-27.661251
 50
0.0
 51
0.0
 71
    16
 72
   100
 73
     1
 74
     1
 75
     0
 76
     0
 77
     0
 78
     0
281
     0
 65
     0
110
0.0
120
0.0
130
0.0
111
1.0
121
0.0
131
0.0
112
0.0
122
1.0
132
0.0
345
0
346
0
 79
     0
146
0.0
  0
VPORT
  5
3B9
100
AcDbSymbolTableRecord
100
AcDbViewportTableRecord
  2
L4
 70
     0
 10
0.0
 20
0.0
 11
0.5
 21
0.5
 12
0.0
 22
0.0
 13
0.0
 23
0.0
 14
1.0
 24
1.0
 15
0.0
 25
0.0
 16
0.0
 26
-1.0
 36
0.0
 17
0.0
 27
0.0
 37
0.0
 40
55.322503
 41
0.688564
 42
50.0
 43
28.305337
 44
-28.305337
 50
0.0
 51
0.0
 71
    16
 72
   100
 73
     1
 74
     1
 75
     0
 76
     0
 77
     0
 78
     0
281
     0
 65
     0
110
0.0
120
0.0
130
0.0
111
1.0
121
0.0
131
0.0
112
0.0
122
1.0
132
0.0
345
0
346
0
 79
     0
146
0.0
  0
VPORT
  5
3BA
100
AcDbSymbolTableRecord
100
AcDbViewportTableRecord
  2
L4
 70
     0
 10
0.5
 20
0.0
 11
1.0
 21
0.5
 12
0.0
 22
0.0
 13
0.0
 23
0.0
 14
1.0
 24
1.0
 15
0.0
 25
0.0
 16
1.0
 26
0.0
 36
0.0
 17
0.0
 27
0.0
 37
0.0
 40
55.322503
 41
0.688564
 42
50.0
 43
28.100342
 44
-28.100342
 50
0.0
 51
0.0
 71
    16
 72
   100
 73
     1
 74
     1
 75
     0
 76
     0
 77
     0
 78
     0
281
     0
 65
     0
110
0.0
120
0.0
130
0.0
111
1.0
121
0.0
131
0.0
112
0.0
122
1.0
132
0.0
345
0
346
0
 79
     0
146
0.0
  0
VPORT
  5
3BB
100
AcDbSymbolTableRecord
100
AcDbViewportTableRecord
  2
L4
 70
     0
 10
0.5
 20
0.5
 11
1.0
 21
1.0
 12
0.0
 22
0.0
 13
0.0
 23
0.0
 14
1.0
 24
1.0
 15
0.0
 25
0.0
 16
0.57735
 26
-0.57735
 36
0.57735
 17
0.0
 27
0.0
 37
0.0
 40
54.112995
 41
0.688564
 42
50.0
 43
28.142999
 44
-28.142999
 50
0.0
 51
0.0
 71
    16
 72
   100
 73
     1
 74
     1
 75
     0
 76
     0
 77
     0
 78
     0
281
     0
 65
     0
110
0.0
120
0.0
130
0.0
111
1.0
121
0.0
131
0.0
112
0.0
122
1.0
132
0.0
345
0
346
0
 79
     0
146
0.0
  0
VPORT
  5
3BC
100
AcDbSymbolTableRecord
100
AcDbViewportTableRecord
  2
L6
 70
     0
 10
0.0
 20
0.5
 11
0.333333
 21
1.0
 12
0.0
 22
0.0
 13
0.0
 23
0.0
 14
1.0
 24
1.0
 15
0.0
 25
0.0
 16
0.718873
 26
-0.585049
 36
0.375419
 17
0.0
 27
0.0
 37
0.0
 40
57.117514
 41
0.688564
 42
50.0
 43
29.559825
 44
-29.559825
 50
0.0
 51
0.0
 71
    16
 72
   100
 73
     1
 74
     1
 75
     0
 76
     0
 77
     0
 78
     0
281
     0
 65
     0
110
0.0
120
0.0
130
0.0
111
1.0
121
0.0
131
0.0
112
0.0
122
1.0
132
0.0
345
0
346
0
 79
     0
146
0.0
  0
VPORT
  5
3BD
100
AcDbSymbolTableRecord
100
AcDbViewportTableRecord
  2
L6
 70
     0
 10
0.0
 20
0.0
 11
0.333333
 21
0.5
 12
0.0
 22
0.0
 13
0.0
 23
0.0
 14
1.0
 24
1.0
 15
0.0
 25
0.0
 16
-1.0
 26
0.0
 36
0.0
 17
0.0
 27
0.0
 37
0.0
 40
55.322503
 41
0.688564
 42
50.0
 43
28.100342
 44
-28.100342
 50
0.0
 51
0.0
 71
    16
 72
   100
 73
     1
 74
     1
 75
     0
 76
     0
 77
     0
 78
     0
281
     0
 65
     0
110
0.0
120
0.0
130
0.0
111
1.0
121
0.0
131
0.0
112
0.0
122
1.0
132
0.0
345
0
346
0
 79
     0
146
0.0
  0
VPORT
  5
3BE
100
AcDbSymbolTableRecord
100
AcDbViewportTableRecord
  2
L6
 70
     0
 10
0.333333
 20
0.5
 11
0.666667
 21
1.0
 12
0.0
 22
0.0
 13
0.0
 23
0.0
 14
1.0
 24
1.0
 15
0.0
 25
0.0
 16
0.0
 26
0.0
 36
1.0
 17
0.0
 27
0.0
 37
0.0
 40
9.896346
 41
0.688564
 42
50.0
 43
27.661251
 44
-27.661251
 50
0.0
 51
0.0
 71
    16
 72
   100
 73
     1
 74
     1
 75
     0
 76
     0
 77
     0
 78
     0
281
     0
 65
     0
110
0.0
120
0.0
130
0.0
111
1.0
121
0.0
131
0.0
112
0.0
122
1.0
132
0.0
345
0
346
0
 79
     0
146
0.0
  0
VPORT
  5
3BF
100
AcDbSymbolTableRecord
100
AcDbViewportTableRecord
  2
L6
 70
     0
 10
0.333333
 20
0.0
 11
0.666667
 21
0.5
 12
0.0
 22
0.0
 13
0.0
 23
0.0
 14
1.0
 24
1.0
 15
0.0
 25
0.0
 16
0.0
 26
-1.0
 36
0.0
 17
0.0
 27
0.0
 37
0.0
 40
55.322503
 41
0.688564
 42
50.0
 43
28.305337
 44
-28.305337
 50
0.0
 51
0.0
 71
    16
 72
   100
 73
     1
 74
     1
 75
     0
 76
     0
 77
     0
 78
     0
281
     0
 65
     0
110
0.0
120
0.0
130
0.0
111
1.0
121
0.0
131
0.0
112
0.0
122
1.0
132
0.0
345
0
346
0
 79
     0
146
0.0
  0
VPORT
  5
3C0
100
AcDbSymbolTableRecord
100
AcDbViewportTableRecord
  2
L6
 70
     0
 10
0.666667
 20
0.5
 11
1.0
 21
1.0
 12
0.0
 22
0.0
 13
0.0
 23
0.0
 14
1.0
 24
1.0
 15
0.0
 25
0.0
 16
0.57735
 26
-0.57735
 36
0.57735
 17
0.0
 27
0.0
 37
0.0
 40
54.112995
 41
0.688564
 42
50.0
 43
28.142999
 44
-28.142999
 50
0.0
 51
0.0
 71
    16
 72
   100
 73
     1
 74
     1
 75
     0
 76
     0
 77
     0
 78
     0
281
     0
 65
     0
110
0.0
120
0.0
130
0.0
111
1.0
121
0.0
131
0.0
112
0.0
122
1.0
132
0.0
345
0
346
0
 79
     0
146
0.0
  0
VPORT
  5
3C1
100
AcDbSymbolTableRecord
100
AcDbViewportTableRecord
  2
L6
 70
     0
 10
0.666667
 20
0.0
 11
1.0
 21
0.5
 12
0.0
 22
0.0
 13
0.0
 23
0.0
 14
1.0
 24
1.0
 15
0.0
 25
0.0
 16
1.0
 26
0.0
 36
0.0
 17
0.0
 27
0.0
 37
0.0
 40
55.322503
 41
0.688564
 42
50.0
 43
28.100342
 44
-28.100342
 50
0.0
 51
0.0
 71
    16
 72
   100
 73
     1
 74
     1
 75
     0
 76
     0
 77
     0
 78
     0
281
     0
 65
     0
110
0.0
120
0.0
130
0.0
111
1.0
121
0.0
131
0.0
112
0.0
122
1.0
132
0.0
345
0
346
0
 79
     0
146
0.0
  0
ENDTAB
  0
TABLE
  2
LTYPE
  5
4
100
AcDbSymbolTable
 70
     9
  0
LTYPE
  5
11
100
AcDbSymbolTableRecord
100
AcDbLinetypeTableRecord
  2
ByBlock
 70
    64
  3

 72
    65
 73
     0
 40
0.0
  0
LTYPE
  5
12
100
AcDbSymbolTableRecord
100
AcDbLinetypeTableRecord
  2
ByLayer
 70
    64
  3

 72
    65
 73
     0
 40
0.0
  0
LTYPE
  5
13
100
AcDbSymbolTableRecord
100
AcDbLinetypeTableRecord
  2
Continuous
 70
    64
  3
Solid line
 72
    65
 73
     0
 40
0.0
  0
LTYPE
  5
22
100
AcDbSymbolTableRecord
100
AcDbLinetypeTableRecord
  2
DASHED
 70
    64
  3
__ __ __ __ __ __ __ __ __
 72
    65
 73
     2
 40
0.75
 49
0.5
 74
     0
 49
-0.25
 74
     0
  0
LTYPE
  5
23
100
AcDbSymbolTableRecord
100
AcDbLinetypeTableRecord
  2
HIDDEN
 70
    64
  3
_ _ _ _ _ _ _ _ _ _ _ _ _ _ _
 72
    65
 73
     2
 40
0.5
 49
0.25
 74
     0
 49
-0.25
 74
     0
  0
LTYPE
  5
24
100
AcDbSymbolTableRecord
100
AcDbLinetypeTableRecord
  2
PHANTOM
 70
    64
  3
____ _ _ ____ _ _ _____ _ _ ____
 72
    65
 73
     6
 40
2.5
 49
1.25
 74
     0
 49
-0.25
 74
     0
 49
0.25
 74
     0
 49
-0.25
 74
     0
 49
0.25
 74
     0
 49
-0.25
 74
     0
  0
LTYPE
  5
25
100
AcDbSymbolTableRecord
100
AcDbLinetypeTableRecord
  2
CENTER
 70
    64
  3
____ _ ____ _ ____ _ ____
 72
    65
 73
     4
 40
2.0
 49
1.25
 74
     0
 49
-0.25
 74
     0
 49
0.25
 74
     0
 49
-0.25
 74
     0
  0
LTYPE
  5
26
100
AcDbSymbolTableRecord
100
AcDbLinetypeTableRecord
  2
DOT
 70
    64
  3
.........................
 72
    65
 73
     2
 40
0.25
 49
0.0
 74
     0
 49
-0.25
 74
     0
  0
LTYPE
  5
27
100
AcDbSymbolTableRecord
100
AcDbLinetypeTableRecord
  2
DASHDOT
 70
    64
  3
_._._._._._._._._._._._._._._._.
 72
    65
 73
     4
 40
1.0
 49
0.5
 74
     0
 49
-0.25
 74
     0
 49
0.0
 74
     0
 49
-0.25
 74
     0
  0
ENDTAB
  0
TABLE
  2
LAYER
  5
2
100
AcDbSymbolTable
 70
     2
  0
LAYER
  5
14
100
AcDbSymbolTableRecord
100
AcDbLayerTableRecord
  2
0
 70
     0
 62
     7
  6
Continuous
290
     1
370
    -3
390
1D
  0
LAYER
  5
32
100
AcDbSymbolTableRecord
100
AcDbLayerTableRecord
  2
1
 70
     0
 62
     7
  6
Continuous
290
     1
370
    -3
390
1F
  0
ENDTAB
  0
TABLE
  2
STYLE
  5
3
100
AcDbSymbolTable
 70
     2
  0
STYLE
  5
17
100
AcDbSymbolTableRecord
100
AcDbTextStyleTableRecord
  2
Standard
 70
     0
 40
0.0
 41
1.0
 50
0.0
 71
     0
 42
0.0
  3
txt
  4

  0
STYLE
  5
36D
100
AcDbSymbolTableRecord
100
AcDbTextStyleTableRecord
  2
blockfont
 70
     0
 40
0.0
 41
1.0
 50
0.0
 71
     0
 42
0.0
  3
simplex.shx
  4
bigfont
  0
ENDTAB
  0
TABLE
  2
VIEW
  5
5
100
AcDbSymbolTable
 70
     8
  0
VIEW
  5
28
100
AcDbSymbolTableRecord
100
AcDbViewTableRecord
  2
TOP
 70
     0
 40
9.896346
 10
0.0
 20
0.0
 41
12.007874
 11
0.0
 21
0.0
 31
1.0
 12
0.0
 22
0.0
 32
0.0
 42
50.0
 43
27.661251
 44
-27.661251
 50
0.0
 71
    16
281
     0
 72
     0
110
0.0
120
0.0
130
0.0
111
1.0
121
0.0
131
0.0
112
0.0
122
1.0
132
0.0
  0
VIEW
  5
29
100
AcDbSymbolTableRecord
100
AcDbViewTableRecord
  2
FRONT
 70
     0
 40
55.322503
 10
0.0
 20
0.0
 41
12.007874
 11
0.0
 21
-1.0
 31
0.0
 12
0.0
 22
0.0
 32
0.0
 42
50.0
 43
28.305337
 44
-28.305337
 50
0.0
 71
    16
281
     0
 72
     0
110
0.0
120
0.0
130
0.0
111
1.0
121
0.0
131
0.0
112
0.0
122
1.0
132
0.0
  0
VIEW
  5
2A
100
AcDbSymbolTableRecord
100
AcDbViewTableRecord
  2
RIGHT
 70
     0
 40
55.322503
 10
0.0
 20
0.0
 41
9.896346
 11
1.0
 21
0.0
 31
0.0
 12
0.0
 22
0.0
 32
0.0
 42
50.0
 43
28.100342
 44
-28.100342
 50
0.0
 71
    16
281
     0
 72
     0
110
0.0
120
0.0
130
0.0
111
1.0
121
0.0
131
0.0
112
0.0
122
1.0
132
0.0
  0
VIEW
  5
2B
100
AcDbSymbolTableRecord
100
AcDbViewTableRecord
  2
BACK
 70
     0
 40
55.322503
 10
0.0
 20
0.0
 41
12.007874
 11
0.0
 21
1.0
 31
0.0
 12
0.0
 22
0.0
 32
0.0
 42
50.0
 43
28.305337
 44
-28.305337
 50
0.0
 71
    16
281
     0
 72
     0
110
0.0
120
0.0
130
0.0
111
1.0
121
0.0
131
0.0
112
0.0
122
1.0
132
0.0
  0
VIEW
  5
2C
100
AcDbSymbolTableRecord
100
AcDbViewTableRecord
  2
BOTTOM
 70
     0
 40
9.896346
 10
0.0
 20
0.0
 41
12.007874
 11
0.0
 21
0.0
 31
-1.0
 12
0.0
 22
0.0
 32
0.0
 42
50.0
 43
27.661251
 44
-27.661251
 50
180.0
 71
    16
281
     0
 72
     0
110
0.0
120
0.0
130
0.0
111
1.0
121
0.0
131
0.0
112
0.0
122
1.0
132
0.0
  0
VIEW
  5
2D
100
AcDbSymbolTableRecord
100
AcDbViewTableRecord
  2
LEFT
 70
     0
 40
55.322503
 10
0.0
 20
0.0
 41
9.896346
 11
-1.0
 21
0.0
 31
0.0
 12
0.0
 22
0.0
 32
0.0
 42
50.0
 43
28.100342
 44
-28.100342
 50
0.0
 71
    16
281
     0
 72
     0
110
0.0
120
0.0
130
0.0
111
1.0
121
0.0
131
0.0
112
0.0
122
1.0
132
0.0
  0
VIEW
  5
2E
100
AcDbSymbolTableRecord
100
AcDbViewTableRecord
  2
TFR-ISO
 70
     0
 40
54.112995
 10
0.0
 20
0.0
 41
15.488622
 11
0.57735
 21
-0.57735
 31
0.57735
 12
0.0
 22
0.0
 32
0.0
 42
50.0
 43
28.142999
 44
-28.142999
 50
0.0
 71
    16
281
     0
 72
     0
110
0.0
120
0.0
130
0.0
111
1.0
121
0.0
131
0.0
112
0.0
122
1.0
132
0.0
  0
VIEW
  5
2F
100
AcDbSymbolTableRecord
100
AcDbViewTableRecord
  2
TFR-TRI
 70
     0
 40
57.117514
 10
0.0
 20
0.0
 41
15.25525
 11
0.718873
 21
-0.585049
 31
0.375419
 12
0.0
 22
0.0
 32
0.0
 42
50.0
 43
29.559825
 44
-29.559825
 50
0.0
 71
    16
281
     0
 72
     0
110
0.0
120
0.0
130
0.0
111
1.0
121
0.0
131
0.0
112
0.0
122
1.0
132
0.0
  0
ENDTAB
  0
TABLE
  2
UCS
  5
6
100
AcDbSymbolTable
 70
     0
  0
ENDTAB
  0
TABLE
  2
APPID
  5
8
100
AcDbSymbolTable
 70
     1
  0
APPID
  5
16
100
AcDbSymbolTableRecord
100
AcDbRegAppTableRecord
  2
ACAD
 70
     0
  0
ENDTAB
  0
TABLE
  2
DIMSTYLE
  5
9
100
AcDbSymbolTable
 70
     1
100
AcDbDimStyleTable
 71
     0
  0
DIMSTYLE
105
18
100
AcDbSymbolTableRecord
100
AcDbDimStyleTableRecord
  2
Standard
 70
     0
  3

  4

 40
1.0
 41
0.18
 42
0.0625
 43
0.38
 44
0.18
 45
0.0
 46
0.0
 47
0.0
 48
0.0
 71
     0
 72
     0
 73
     1
 74
     1
 75
     0
 76
     0
 77
     0
 78
     0
 79
     0
140
0.18
141
0.09
142
0.0
143
25.4
144
1.0
145
0.0
146
1.0
147
0.09
148
0.0
170
     0
171
     2
172
     0
173
     0
174
     0
175
     0
176
     0
177
     0
178
     0
179
     0
271
     4
272
     4
273
     2
274
     2
275
     0
276
     0
277
     2
278
    46
279
     0
280
     0
281
     0
282
     0
283
     1
284
     0
285
     0
286
     0
288
     0
340
17
341
0
342
0
343
0
344
0
371
    -2
372
    -2
  0
ENDTAB
  0
TABLE
  2
BLOCK_RECORD
  5
1
100
AcDbSymbolTable
 70
     0
  0
BLOCK_RECORD
  5
A
100
AcDbSymbolTableRecord
100
AcDbBlockTableRecord
  2
*MODEL_SPACE
340
20
  0
BLOCK_RECORD
  5
B
100
AcDbSymbolTableRecord
100
AcDbBlockTableRecord
  2
*PAPER_SPACE
340
0
  0
ENDTAB
  0
ENDSEC
  0
SECTION
  2
BLOCKS
  0
BLOCK
  5
D
100
AcDbEntity
  8
0
100
AcDbBlockBegin
  2
*MODEL_SPACE
 70
     0
 10
0.0
 20
0.0
 30
0.0
  3
*MODEL_SPACE
  1

  0
ENDBLK
  5
E
100
AcDbEntity
  8
0
100
AcDbBlockEnd
  0
BLOCK
  5
F
100
AcDbEntity
 67
     1
  8
0
100
AcDbBlockBegin
  2
*PAPER_SPACE
 70
     0
 10
0.0
 20
0.0
 30
0.0
  3
*PAPER_SPACE
  1

  0
ENDBLK
  5
10
100
AcDbEntity
 67
     1
  8
0
100
AcDbBlockEnd
  0
ENDSEC
  0
SECTION
  2
ENTITIES
  0
VIEWPORT
  5
30
100
AcDbEntity
 67
     1
  8
0
100
AcDbViewport
 10
8.669998
 20
5.609993
 30
0.0
 40
17.339996
 41
11.219986
 68
     1
 69
     1
 12
8.669998
 22
5.609993
 13
0.0
 23
0.0
 14
0.0
 24
0.0
 15
0.0
 25
0.0
 16
0.0
 26
0.0
 36
1.0
 17
0.0
 27
0.0
 37
0.0
 42
33.780281
 43
0.0
 44
0.0
 45
11.219986
 50
0.0
 51
0.0
 72
   100
 90
    32800
340
0
  1

281
     0
 71
     0
 74
     1
110
0.0
120
0.0
130
0.0
111
1.0
121
0.0
131
0.0
112
0.0
122
1.0
132
0.0
345
0
346
0
 79
     0
146
0.0
  0
LINE
  5
31
100
AcDbEntity
 67
     1
  8
1
  6
Continuous
 62
     7
100
AcDbLine
 10
3.883804
 20
4.354715
 30
0.0
 11
3.883804
 21
4.240911
 31
0.0
  0
LINE
  5
33
100
AcDbEntity
 67
     1
  8
1
  6
Continuous
 62
     7
100
AcDbLine
 10
5.624155
 20
7.19399
 30
0.0
 11
5.624155
 21
7.196242
 31
0.0
  0
LINE
  5
34
100
AcDbEntity
 67
     1
  8
1
  6
Continuous
 62
     7
100
AcDbLine
 10
1.258873
 20
4.658963
 30
0.0
 11
1.258873
 21
4.827713
 31
0.0
  0
LINE
  5
35
100
AcDbEntity
 67
     1
  8
1
  6
Continuous
 62
     7
100
AcDbLine
 10
15.158603
 20
4.229715
 30
0.0
 11
11.624155
 21
4.229715
 31
0.0
  0
LINE
  5
36
100
AcDbEntity
 67
     1
  8
1
  6
Continuous
 62
     7
100
AcDbLine
 10
5.039396
 20
5.61143
 30
0.0
 11
5.039396
 21
5.665521
 31
0.0
  0
LINE
  5
37
100
AcDbEntity
 67
     1
  8
1
  6
Continuous
 62
     7
100
AcDbLine
 10
3.322644
 20
6.414367
 30
0.0
 11
3.421519
 21
6.414367
 31
0.0
  0
LINE
  5
38
100
AcDbEntity
 67
     1
  8
1
  6
Continuous
 62
     7
100
AcDbLine
 10
1.822643
 20
6.408367
 30
0.0
 11
1.701375
 21
6.408367
 31
0.0
  0
LINE
  5
39
100
AcDbEntity
 67
     1
  8
1
  6
Continuous
 62
     7
100
AcDbLine
 10
3.449914
 20
3.922136
 30
0.0
 11
3.324914
 21
3.955629
 31
0.0
  0
LINE
  5
3A
100
AcDbEntity
 67
     1
  8
1
  6
Continuous
 62
     7
100
AcDbLine
 10
6.526266
 20
1.227643
 30
0.0
 11
12.205371
 21
1.227643
 31
0.0
  0
LINE
  5
3B
100
AcDbEntity
 67
     1
  8
1
  6
Continuous
 62
     7
100
AcDbLine
 10
1.571611
 20
4.969575
 30
0.0
 11
1.670487
 21
4.969402
 31
0.0
  0
LINE
  5
3C
100
AcDbEntity
 67
     1
  8
1
  6
Continuous
 62
     7
100
AcDbLine
 10
1.822643
 20
6.402367
 30
0.0
 11
1.716304
 21
6.402367
 31
0.0
  0
LINE
  5
3D
100
AcDbEntity
 67
     1
  8
1
  6
Continuous
 62
     7
100
AcDbLine
 10
3.322644
 20
6.404366
 30
0.0
 11
3.436447
 21
6.404366
 31
0.0
  0
LINE
  5
3E
100
AcDbEntity
 67
     1
  8
1
  6
Continuous
 62
     7
100
AcDbLine
 10
15.459341
 20
7.619573
 30
0.0
 11
15.464227
 21
7.556971
 31
0.0
  0
LINE
  5
3F
100
AcDbEntity
 67
     1
  8
1
  6
Continuous
 62
     7
100
AcDbLine
 10
1.820373
 20
3.931136
 30
0.0
 11
1.728961
 21
3.931136
 31
0.0
  0
LINE
  5
40
100
AcDbEntity
 67
     1
  8
1
  6
Continuous
 62
     7
100
AcDbLine
 10
5.020396
 20
4.229715
 30
0.0
 11
5.020396
 21
4.746197
 31
0.0
  0
LINE
  5
41
100
AcDbEntity
 67
     1
  8
1
  6
Continuous
 62
     7
100
AcDbLine
 10
3.903804
 20
5.724715
 30
0.0
 11
3.903804
 21
5.763878
 31
0.0
  0
LINE
  5
42
100
AcDbEntity
 67
     1
  8
1
  6
Continuous
 62
     7
100
AcDbLine
 10
4.989396
 20
5.61143
 30
0.0
 11
4.989396
 21
5.620736
 31
0.0
  0
LINE
  5
43
100
AcDbEntity
 67
     1
  8
1
  6
Continuous
 62
     7
100
AcDbLine
 10
11.62403
 20
8.935833
 30
0.0
 11
5.624155
 21
8.935833
 31
0.0
  0
LINE
  5
44
100
AcDbEntity
 67
     1
  8
1
  6
Continuous
 62
     7
100
AcDbLine
 10
15.351331
 20
5.708476
 30
0.0
 11
15.379418
 21
5.638753
 31
0.0
  0
LINE
  5
45
100
AcDbEntity
 67
     1
  8
1
  6
Continuous
 62
     7
100
AcDbLine
 10
1.697643
 20
5.834715
 30
0.0
 11
1.697643
 21
5.529715
 31
0.0
  0
LINE
  5
46
100
AcDbEntity
 67
     1
  8
1
  6
Continuous
 62
     7
100
AcDbLine
 10
1.571608
 20
4.967575
 30
0.0
 11
1.677947
 21
4.96739
 31
0.0
  0
LINE
  5
47
100
AcDbEntity
 67
     1
  8
1
  6
Continuous
 62
     7
100
AcDbLine
 10
1.822643
 20
6.380367
 30
0.0
 11
1.798409
 21
6.380367
 31
0.0
  0
LINE
  5
48
100
AcDbEntity
 67
     1
  8
1
  6
Continuous
 62
     7
100
AcDbLine
 10
3.885804
 20
5.724715
 30
0.0
 11
3.885804
 21
5.831055
 31
0.0
  0
LINE
  5
49
100
AcDbEntity
 67
     1
  8
1
  6
Continuous
 62
     7
100
AcDbLine
 10
15.477881
 20
7.494919
 30
0.0
 11
15.499866
 21
7.43339
 31
0.0
  0
LINE
  5
4A
100
AcDbEntity
 67
     1
  8
1
  6
Continuous
 62
     7
100
AcDbLine
 10
3.495143
 20
5.849715
 30
0.0
 11
4.005804
 21
5.849715
 31
0.0
  0
LINE
  5
4B
100
AcDbEntity
 67
     1
  8
1
  6
Continuous
 62
     7
100
AcDbLine
 10
3.322644
 20
6.380367
 30
0.0
 11
3.346878
 21
6.380367
 31
0.0
  0
LINE
  5
4C
100
AcDbEntity
 67
     1
  8
1
  6
Continuous
 62
     7
100
AcDbLine
 10
1.891646
 20
4.989017
 30
0.0
 11
1.867411
 21
4.989059
 31
0.0
  0
LINE
  5
4D
100
AcDbEntity
 67
     1
  8
1
  6
Continuous
 62
     7
100
AcDbLine
 10
12.198268
 20
5.932036
 30
0.0
 11
12.114431
 21
5.855076
 31
0.0
  0
LINE
  5
4E
100
AcDbEntity
 67
     1
  8
1
  6
Continuous
 62
     7
100
AcDbLine
 10
15.762268
 20
5.564114
 30
0.0
 11
15.632364
 21
5.789114
 31
0.0
  0
LINE
  5
4F
100
AcDbEntity
 67
     1
  8
1
  6
Continuous
 62
     7
100
AcDbLine
 10
5.011396
 20
4.354715
 30
0.0
 11
5.011396
 21
4.263303
 31
0.0
  0
LINE
  5
50
100
AcDbEntity
 67
     1
  8
1
  6
Continuous
 62
     7
100
AcDbLine
 10
3.877804
 20
4.354715
 30
0.0
 11
3.877804
 21
4.240911
 31
0.0
  0
LINE
  5
51
100
AcDbEntity
 67
     1
  8
1
  6
Continuous
 62
     7
100
AcDbLine
 10
3.324914
 20
3.891136
 30
0.0
 11
3.334221
 21
3.891136
 31
0.0
  0
LINE
  5
52
100
AcDbEntity
 67
     1
  8
1
  6
Continuous
 62
     7
100
AcDbLine
 10
3.889804
 20
4.354715
 30
0.0
 11
3.889804
 21
4.263303
 31
0.0
  0
LINE
  5
53
100
AcDbEntity
 67
     1
  8
1
  6
Continuous
 62
     7
100
AcDbLine
 10
1.822643
 20
6.440367
 30
0.0
 11
1.820801
 21
6.440367
 31
0.0
  0
LINE
  5
54
100
AcDbEntity
 67
     1
  8
1
  6
Continuous
 62
     7
100
AcDbLine
 10
11.62403
 20
7.254424
 30
0.0
 11
5.624155
 21
7.254424
 31
0.0
  0
LINE
  5
55
100
AcDbEntity
 67
     1
  8
1
  6
Continuous
 62
     7
100
AcDbLine
 10
0.894935
 20
4.827713
 30
0.0
 11
0.894935
 21
4.658963
 31
0.0
  0
LINE
  5
56
100
AcDbEntity
 67
     1
  8
1
  6
Continuous
 62
     7
100
AcDbLine
 10
11.624155
 20
5.514715
 30
0.0
 11
11.624155
 21
5.529715
 31
0.0
  0
LINE
  5
57
100
AcDbEntity
 67
     1
  8
1
  6
Continuous
 62
     7
100
AcDbLine
 10
5.045396
 20
5.61143
 30
0.0
 11
5.045396
 21
5.643128
 31
0.0
  0
LINE
  5
58
100
AcDbEntity
 67
     1
  8
1
  6
Continuous
 62
     7
100
AcDbLine
 10
1.766173
 20
5.713021
 30
0.0
 11
1.89774
 21
5.735983
 31
0.0
  0
LINE
  5
59
100
AcDbEntity
 67
     1
  8
1
  6
Continuous
 62
     7
100
AcDbLine
 10
1.822643
 20
6.414367
 30
0.0
 11
1.723768
 21
6.414367
 31
0.0
  0
LINE
  5
5A
100
AcDbEntity
 67
     1
  8
1
  6
Continuous
 62
     7
100
AcDbLine
 10
4.995396
 20
4.354715
 30
0.0
 11
4.995396
 21
4.323016
 31
0.0
  0
LINE
  5
5B
100
AcDbEntity
 67
     1
  8
1
  6
Continuous
 62
     7
100
AcDbLine
 10
1.571622
 20
4.975575
 30
0.0
 11
1.648105
 21
4.975441
 31
0.0
  0
LINE
  5
5C
100
AcDbEntity
 67
     1
  8
1
  6
Continuous
 62
     7
100
AcDbLine
 10
12.200685
 20
7.108699
 30
0.0
 11
12.173087
 21
7.124292
 31
0.0
  0
LINE
  5
5D
100
AcDbEntity
 67
     1
  8
1
  6
Continuous
 62
     7
100
AcDbLine
 10
12.205371
 20
2.488467
 30
0.0
 11
12.205371
 21
0.440085
 31
0.0
  0
LINE
  5
5E
100
AcDbEntity
 67
     1
  8
1
  6
Continuous
 62
     7
100
AcDbLine
 10
15.720703
 20
8.327991
 30
0.0
 11
15.696942
 21
8.263589
 31
0.0
  0
LINE
  5
5F
100
AcDbEntity
 67
     1
  8
1
  6
Continuous
 62
     7
100
AcDbLine
 10
5.290771
 20
4.977448
 30
0.0
 11
5.245771
 21
4.977448
 31
0.0
  0
LINE
  5
60
100
AcDbEntity
 67
     1
  8
1
  6
Continuous
 62
     7
100
AcDbLine
 10
3.909804
 20
5.724715
 30
0.0
 11
3.909804
 21
5.741486
 31
0.0
  0
LINE
  5
61
100
AcDbEntity
 67
     1
  8
1
  6
Continuous
 62
     7
100
AcDbLine
 10
3.322644
 20
6.418366
 30
0.0
 11
3.406591
 21
6.418366
 31
0.0
  0
LINE
  5
62
100
AcDbEntity
 67
     1
  8
1
  6
Continuous
 62
     7
100
AcDbLine
 10
12.227249
 20
7.155713
 30
0.0
 11
12.212648
 21
7.163963
 31
0.0
  0
LINE
  5
63
100
AcDbEntity
 67
     1
  8
1
  6
Continuous
 62
     7
100
AcDbLine
 10
13.624155
 20
8.944466
 30
0.0
 11
13.624155
 21
8.946499
 31
0.0
  0
LINE
  5
64
100
AcDbEntity
 67
     1
  8
1
  6
Continuous
 62
     7
100
AcDbLine
 10
5.624155
 20
5.611817
 30
0.0
 11
5.624155
 21
5.60087
 31
0.0
  0
LINE
  5
65
100
AcDbEntity
 67
     1
  8
1
  6
Continuous
 62
     7
100
AcDbLine
 10
11.62403
 20
5.73643
 30
0.0
 11
5.624155
 21
5.73643
 31
0.0
  0
LINE
  5
66
100
AcDbEntity
 67
     1
  8
1
  6
Continuous
 62
     7
100
AcDbLine
 10
1.822643
 20
6.374367
 30
0.0
 11
1.820801
 21
6.374367
 31
0.0
  0
LINE
  5
67
100
AcDbEntity
 67
     1
  8
1
  6
Continuous
 62
     7
100
AcDbLine
 10
4.106179
 20
4.86534
 30
0.0
 11
4.151179
 21
4.86534
 31
0.0
  0
LINE
  5
68
100
AcDbEntity
 67
     1
  8
1
  6
Continuous
 62
     7
100
AcDbLine
 10
1.891656
 20
4.995017
 30
0.0
 11
1.889814
 21
4.99502
 31
0.0
  0
LINE
  5
69
100
AcDbEntity
 67
     1
  8
1
  6
Continuous
 62
     7
100
AcDbLine
 10
12.202325
 20
5.927616
 30
0.0
 11
12.134985
 21
5.865799
 31
0.0
  0
LINE
  5
6A
100
AcDbEntity
 67
     1
  8
1
  6
Continuous
 62
     7
100
AcDbLine
 10
3.895804
 20
4.354715
 30
0.0
 11
3.895804
 21
4.285696
 31
0.0
  0
LINE
  5
6B
100
AcDbEntity
 67
     1
  8
1
  6
Continuous
 62
     7
100
AcDbLine
 10
3.324914
 20
3.923136
 30
0.0
 11
3.446182
 21
3.923136
 31
0.0
  0
LINE
  5
6C
100
AcDbEntity
 67
     1
  8
1
  6
Continuous
 62
     7
100
AcDbLine
 10
10.578452
 20
4.129187
 30
0.0
 11
10.505597
 21
4.22613
 31
0.0
  0
LINE
  5
6D
100
AcDbEntity
 67
     1
  8
1
  6
Continuous
 62
     7
100
AcDbLine
 10
5.624155
 20
7.256827
 30
0.0
 11
5.624155
 21
7.262757
 31
0.0
  0
LINE
  5
6E
100
AcDbEntity
 67
     1
  8
1
  6
Continuous
 62
     7
100
AcDbLine
 10
15.268796
 20
5.849715
 30
0.0
 11
11.624155
 21
5.849715
 31
0.0
  0
LINE
  5
6F
100
AcDbEntity
 67
     1
  8
1
  6
Continuous
 62
     7
100
AcDbLine
 10
5.051396
 20
5.61143
 30
0.0
 11
5.051396
 21
5.620736
 31
0.0
  0
LINE
  5
70
100
AcDbEntity
 67
     1
  8
1
  6
Continuous
 62
     7
100
AcDbLine
 10
1.820373
 20
3.905136
 30
0.0
 11
1.758817
 21
3.905136
 31
0.0
  0
LINE
  5
71
100
AcDbEntity
 67
     1
  8
1
  6
Continuous
 62
     7
100
AcDbLine
 10
15.647242
 20
7.209228
 30
0.0
 11
11.624155
 21
7.209228
 31
0.0
  0
LINE
  5
72
100
AcDbEntity
 67
     1
  8
1
  6
Continuous
 62
     7
100
AcDbLine
 10
1.822643
 20
6.420367
 30
0.0
 11
1.74616
 21
6.420367
 31
0.0
  0
LINE
  5
73
100
AcDbEntity
 67
     1
  8
1
  6
Continuous
 62
     7
100
AcDbLine
 10
4.989396
 20
4.354715
 30
0.0
 11
4.989396
 21
4.345408
 31
0.0
  0
LINE
  5
74
100
AcDbEntity
 67
     1
  8
1
  6
Continuous
 62
     7
100
AcDbLine
 10
12.223314
 20
7.148747
 30
0.0
 11
12.182719
 21
7.171685
 31
0.0
  0
LINE
  5
75
100
AcDbEntity
 67
     1
  8
1
  6
Continuous
 62
     7
100
AcDbLine
 10
1.571632
 20
4.981575
 30
0.0
 11
1.625723
 21
4.981481
 31
0.0
  0
LINE
  5
76
100
AcDbEntity
 67
     1
  8
1
  6
Continuous
 62
     7
100
AcDbLine
 10
12.197733
 20
7.103475
 30
0.0
 11
12.189631
 21
7.108053
 31
0.0
  0
LINE
  5
77
100
AcDbEntity
 67
     1
  8
1
  6
Continuous
 62
     7
100
AcDbLine
 10
3.447644
 20
6.407367
 30
0.0
 11
2.787393
 21
6.407367
 31
0.0
  0
LINE
  5
78
100
AcDbEntity
 67
     1
  8
1
  6
Continuous
 62
     7
100
AcDbLine
 10
1.820373
 20
3.921136
 30
0.0
 11
1.699105
 21
3.921136
 31
0.0
  0
LINE
  5
79
100
AcDbEntity
 67
     1
  8
1
  6
Continuous
 62
     7
100
AcDbLine
 10
4.828771
 20
4.808697
 30
0.0
 11
4.873771
 21
4.808697
 31
0.0
  0
LINE
  5
7A
100
AcDbEntity
 67
     1
  8
1
  6
Continuous
 62
     7
100
AcDbLine
 10
3.913804
 20
5.724715
 30
0.0
 11
3.913804
 21
5.726557
 31
0.0
  0
LINE
  5
7B
100
AcDbEntity
 67
     1
  8
1
  6
Continuous
 62
     7
100
AcDbLine
 10
3.322644
 20
6.424366
 30
0.0
 11
3.384199
 21
6.424366
 31
0.0
  0
LINE
  5
7C
100
AcDbEntity
 67
     1
  8
1
  6
Continuous
 62
     7
100
AcDbLine
 10
5.624155
 20
5.66398
 30
0.0
 11
5.624155
 21
5.620906
 31
0.0
  0
LINE
  5
7D
100
AcDbEntity
 67
     1
  8
1
  6
Continuous
 62
     7
100
AcDbLine
 10
12.215443
 20
7.134818
 30
0.0
 11
12.122861
 21
7.18713
 31
0.0
  0
LINE
  5
7E
100
AcDbEntity
 67
     1
  8
1
  6
Continuous
 62
     7
100
AcDbLine
 10
13.624155
 20
8.944466
 30
0.0
 11
13.624155
 21
8.944405
 31
0.0
  0
LINE
  5
7F
100
AcDbEntity
 67
     1
  8
1
  6
Continuous
 62
     7
100
AcDbLine
 10
1.822643
 20
6.373873
 30
0.0
 11
1.822643
 21
6.44086
 31
0.0
  0
LINE
  5
80
100
AcDbEntity
 67
     1
  8
1
  6
Continuous
 62
     7
100
AcDbLine
 10
3.734179
 20
5.03409
 30
0.0
 11
3.689179
 21
5.03409
 31
0.0
  0
LINE
  5
81
100
AcDbEntity
 67
     1
  8
1
  6
Continuous
 62
     7
100
AcDbLine
 10
12.206383
 20
5.923196
 30
0.0
 11
12.155538
 21
5.876522
 31
0.0
  0
LINE
  5
82
100
AcDbEntity
 67
     1
  8
1
  6
Continuous
 62
     7
100
AcDbLine
 10
5.053396
 20
5.61143
 30
0.0
 11
5.053396
 21
5.613272
 31
0.0
  0
LINE
  5
83
100
AcDbEntity
 67
     1
  8
1
  6
Continuous
 62
     7
100
AcDbLine
 10
11.624155
 20
8.939835
 30
0.0
 11
11.624155
 21
8.929228
 31
0.0
  0
LINE
  5
84
100
AcDbEntity
 67
     1
  8
1
  6
Continuous
 62
     7
100
AcDbLine
 10
3.324914
 20
3.929136
 30
0.0
 11
3.42379
 21
3.929136
 31
0.0
  0
LINE
  5
85
100
AcDbEntity
 67
     1
  8
1
  6
Continuous
 62
     7
100
AcDbLine
 10
10.573655
 20
4.125582
 30
0.0
 11
10.514254
 21
4.204625
 31
0.0
  0
LINE
  5
86
100
AcDbEntity
 67
     1
  8
1
  6
Continuous
 62
     7
100
AcDbLine
 10
3.901804
 20
4.354715
 30
0.0
 11
3.901804
 21
4.308088
 31
0.0
  0
LINE
  5
87
100
AcDbEntity
 67
     1
  8
1
  6
Continuous
 62
     7
100
AcDbLine
 10
5.624155
 20
7.262757
 30
0.0
 11
5.624155
 21
7.394324
 31
0.0
  0
LINE
  5
88
100
AcDbEntity
 67
     1
  8
1
  6
Continuous
 62
     7
100
AcDbLine
 10
3.322644
 20
6.398366
 30
0.0
 11
3.414055
 21
6.398366
 31
0.0
  0
LINE
  5
89
100
AcDbEntity
 67
     1
  8
1
  6
Continuous
 62
     7
100
AcDbLine
 10
5.019396
 20
5.61143
 30
0.0
 11
5.019396
 21
5.732698
 31
0.0
  0
LINE
  5
8A
100
AcDbEntity
 67
     1
  8
1
  6
Continuous
 62
     7
100
AcDbLine
 10
1.706039
 20
5.445526
 30
0.0
 11
1.859142
 21
5.60087
 31
0.0
  0
LINE
  5
8B
100
AcDbEntity
 67
     1
  8
1
  6
Continuous
 62
     7
100
AcDbLine
 10
1.820373
 20
3.899136
 30
0.0
 11
1.78121
 21
3.899136
 31
0.0
  0
LINE
  5
8C
100
AcDbEntity
 67
     1
  8
1
  6
Continuous
 62
     7
100
AcDbLine
 10
1.822643
 20
6.416367
 30
0.0
 11
1.731232
 21
6.416367
 31
0.0
  0
LINE
  5
8D
100
AcDbEntity
 67
     1
  8
1
  6
Continuous
 62
     7
100
AcDbLine
 10
3.881804
 20
4.354715
 30
0.0
 11
3.881804
 21
4.233447
 31
0.0
  0
LINE
  5
8E
100
AcDbEntity
 67
     1
  8
1
  6
Continuous
 62
     7
100
AcDbLine
 10
10.557667
 20
4.113566
 30
0.0
 11
10.543107
 21
4.13294
 31
0.0
  0
LINE
  5
8F
100
AcDbEntity
 67
     1
  8
1
  6
Continuous
 62
     7
100
AcDbLine
 10
1.822643
 20
6.426367
 30
0.0
 11
1.768552
 21
6.426367
 31
0.0
  0
LINE
  5
90
100
AcDbEntity
 67
     1
  8
1
  6
Continuous
 62
     7
100
AcDbLine
 10
5.021396
 20
4.354715
 30
0.0
 11
5.021396
 21
4.233447
 31
0.0
  0
LINE
  5
91
100
AcDbEntity
 67
     1
  8
1
  6
Continuous
 62
     7
100
AcDbLine
 10
15.662344
 20
7.191957
 30
0.0
 11
11.624155
 21
7.191957
 31
0.0
  0
LINE
  5
92
100
AcDbEntity
 67
     1
  8
1
  6
Continuous
 62
     7
100
AcDbLine
 10
12.205371
 20
1.227643
 30
0.0
 11
16.369932
 21
1.227643
 31
0.0
  0
LINE
  5
93
100
AcDbEntity
 67
     1
  8
1
  6
Continuous
 62
     7
100
AcDbLine
 10
1.820373
 20
3.945136
 30
0.0
 11
1.78121
 21
3.945136
 31
0.0
  0
LINE
  5
94
100
AcDbEntity
 67
     1
  8
1
  6
Continuous
 62
     7
100
AcDbLine
 10
1.571643
 20
4.987575
 30
0.0
 11
1.603341
 21
4.98752
 31
0.0
  0
LINE
  5
95
100
AcDbEntity
 67
     1
  8
1
  6
Continuous
 62
     7
100
AcDbLine
 10
12.22946
 20
7.159625
 30
0.0
 11
12.104155
 21
7.191957
 31
0.0
  0
LINE
  5
96
100
AcDbEntity
 67
     1
  8
1
  6
Continuous
 62
     7
100
AcDbLine
 10
1.820373
 20
3.955136
 30
0.0
 11
1.81853
 21
3.955136
 31
0.0
  0
LINE
  5
97
100
AcDbEntity
 67
     1
  8
1
  6
Continuous
 62
     7
100
AcDbLine
 10
1.820373
 20
3.953136
 30
0.0
 11
1.811066
 21
3.953136
 31
0.0
  0
LINE
  5
98
100
AcDbEntity
 67
     1
  8
1
  6
Continuous
 62
     7
100
AcDbLine
 10
1.820373
 20
3.949136
 30
0.0
 11
1.796138
 21
3.949136
 31
0.0
  0
LINE
  5
99
100
AcDbEntity
 67
     1
  8
1
  6
Continuous
 62
     7
100
AcDbLine
 10
13.056533
 20
3.639285
 30
0.0
 11
13.31634
 21
3.639285
 31
0.0
  0
LINE
  5
9A
100
AcDbEntity
 67
     1
  8
1
  6
Continuous
 62
     7
100
AcDbLine
 10
3.875804
 20
5.724715
 30
0.0
 11
3.875804
 21
5.831055
 31
0.0
  0
LINE
  5
9B
100
AcDbEntity
 67
     1
  8
1
  6
Continuous
 62
     7
100
AcDbLine
 10
3.322644
 20
6.430367
 30
0.0
 11
3.361806
 21
6.430367
 31
0.0
  0
LINE
  5
9C
100
AcDbEntity
 67
     1
  8
1
  6
Continuous
 62
     7
100
AcDbLine
 10
15.660566
 20
7.19399
 30
0.0
 11
11.624155
 21
7.19399
 31
0.0
  0
LINE
  5
9D
100
AcDbEntity
 67
     1
  8
1
  6
Continuous
 62
     7
100
AcDbLine
 10
5.624155
 20
5.66398
 30
0.0
 11
5.624155
 21
5.667678
 31
0.0
  0
LINE
  5
9E
100
AcDbEntity
 67
     1
  8
1
  6
Continuous
 62
     7
100
AcDbLine
 10
3.38169
 20
5.66398
 30
0.0
 11
3.289735
 21
5.620906
 31
0.0
  0
LINE
  5
9F
100
AcDbEntity
 67
     1
  8
1
  6
Continuous
 62
     7
100
AcDbLine
 10
12.218394
 20
7.140041
 30
0.0
 11
12.145308
 21
7.181338
 31
0.0
  0
LINE
  5
A0
100
AcDbEntity
 67
     1
  8
1
  6
Continuous
 62
     7
100
AcDbLine
 10
6.526266
 20
0.440085
 30
0.0
 11
6.526266
 21
2.257467
 31
0.0
  0
LINE
  5
A1
100
AcDbEntity
 67
     1
  8
1
  6
Continuous
 62
     7
100
AcDbLine
 10
3.849804
 20
4.354715
 30
0.0
 11
3.849804
 21
4.345408
 31
0.0
  0
LINE
  5
A2
100
AcDbEntity
 67
     1
  8
1
  6
Continuous
 62
     7
100
AcDbLine
 10
15.553924
 20
8.944466
 30
0.0
 11
11.624155
 21
8.944466
 31
0.0
  0
LINE
  5
A3
100
AcDbEntity
 67
     1
  8
1
  6
Continuous
 62
     7
100
AcDbLine
 10
15.567075
 20
7.311792
 30
0.0
 11
15.611421
 21
7.251668
 31
0.0
  0
LINE
  5
A4
100
AcDbEntity
 67
     1
  8
1
  6
Continuous
 62
     7
100
AcDbLine
 10
1.57159
 20
4.957575
 30
0.0
 11
1.67793
 21
4.957389
 31
0.0
  0
LINE
  5
A5
100
AcDbEntity
 67
     1
  8
1
  6
Continuous
 62
     7
100
AcDbLine
 10
1.891583
 20
4.953017
 30
0.0
 11
1.800171
 21
4.953176
 31
0.0
  0
LINE
  5
A6
100
AcDbEntity
 67
     1
  8
1
  6
Continuous
 62
     7
100
AcDbLine
 10
12.21044
 20
5.918776
 30
0.0
 11
12.176091
 21
5.887245
 31
0.0
  0
LINE
  5
A7
100
AcDbEntity
 67
     1
  8
1
  6
Continuous
 62
     7
100
AcDbLine
 10
10.564062
 20
4.118372
 30
0.0
 11
10.531566
 21
4.161614
 31
0.0
  0
LINE
  5
A8
100
AcDbEntity
 67
     1
  8
1
  6
Continuous
 62
     7
100
AcDbLine
 10
3.324914
 20
3.935136
 30
0.0
 11
3.401398
 21
3.935136
 31
0.0
  0
LINE
  5
A9
100
AcDbEntity
 67
     1
  8
1
  6
Continuous
 62
     7
100
AcDbLine
 10
3.907804
 20
4.354715
 30
0.0
 11
3.907804
 21
4.33048
 31
0.0
  0
LINE
  5
AA
100
AcDbEntity
 67
     1
  8
1
  6
Continuous
 62
     7
100
AcDbLine
 10
16.369932
 20
8.393945
 30
0.0
 11
16.369932
 21
0.440085
 31
0.0
  0
LINE
  5
AB
100
AcDbEntity
 67
     1
  8
1
  6
Continuous
 62
     7
100
AcDbLine
 10
10.565661
 20
4.119574
 30
0.0
 11
10.528681
 21
4.168783
 31
0.0
  0
LINE
  5
AC
100
AcDbEntity
 67
     1
  8
1
  6
Continuous
 62
     7
100
AcDbLine
 10
5.624155
 20
7.411413
 30
0.0
 11
5.624155
 21
7.424576
 31
0.0
  0
LINE
  5
AD
100
AcDbEntity
 67
     1
  8
1
  6
Continuous
 62
     7
100
AcDbLine
 10
3.322644
 20
6.392366
 30
0.0
 11
3.391663
 21
6.392366
 31
0.0
  0
LINE
  5
AE
100
AcDbEntity
 67
     1
  8
1
  6
Continuous
 62
     7
100
AcDbLine
 10
15.04798
 20
4.440676
 30
0.0
 11
15.076068
 21
4.370954
 31
0.0
  0
LINE
  5
AF
100
AcDbEntity
 67
     1
  8
1
  6
Continuous
 62
     7
100
AcDbLine
 10
1.820373
 20
3.893136
 30
0.0
 11
1.803602
 21
3.893136
 31
0.0
  0
LINE
  5
B0
100
AcDbEntity
 67
     1
  8
1
  6
Continuous
 62
     7
100
AcDbLine
 10
6.876266
 20
0.440085
 30
0.0
 11
6.876266
 21
2.257467
 31
0.0
  0
LINE
  5
B1
100
AcDbEntity
 67
     1
  8
1
  6
Continuous
 62
     7
100
AcDbLine
 10
1.822643
 20
6.432367
 30
0.0
 11
1.790945
 21
6.432367
 31
0.0
  0
LINE
  5
B2
100
AcDbEntity
 67
     1
  8
1
  6
Continuous
 62
     7
100
AcDbLine
 10
5.027396
 20
4.354715
 30
0.0
 11
5.027396
 21
4.255839
 31
0.0
  0
LINE
  5
B3
100
AcDbEntity
 67
     1
  8
1
  6
Continuous
 62
     7
100
AcDbLine
 10
14.476377
 20
1.227643
 30
0.0
 11
14.476377
 21
0.440085
 31
0.0
  0
LINE
  5
B4
100
AcDbEntity
 67
     1
  8
1
  6
Continuous
 62
     7
100
AcDbLine
 10
1.571653
 20
4.993575
 30
0.0
 11
1.58096
 21
4.993559
 31
0.0
  0
LINE
  5
B5
100
AcDbEntity
 67
     1
  8
1
  6
Continuous
 62
     7
100
AcDbLine
 10
12.195562
 20
5.934983
 30
0.0
 11
12.106228
 21
5.852975
 31
0.0
  0
LINE
  5
B6
100
AcDbEntity
 67
     1
  8
1
  6
Continuous
 62
     7
100
AcDbLine
 10
1.820373
 20
3.915136
 30
0.0
 11
1.721497
 21
3.915136
 31
0.0
  0
LINE
  5
B7
100
AcDbEntity
 67
     1
  8
1
  6
Continuous
 62
     7
100
AcDbLine
 10
10.568859
 20
4.121977
 30
0.0
 11
10.52291
 21
4.18312
 31
0.0
  0
LINE
  5
B8
100
AcDbEntity
 67
     1
  8
1
  6
Continuous
 62
     7
100
AcDbLine
 10
2.758643
 20
6.103617
 30
0.0
 11
2.803643
 21
6.103617
 31
0.0
  0
LINE
  5
B9
100
AcDbEntity
 67
     1
  8
1
  6
Continuous
 62
     7
100
AcDbLine
 10
3.873804
 20
4.354715
 30
0.0
 11
3.873804
 21
4.255839
 31
0.0
  0
LINE
  5
BA
100
AcDbEntity
 67
     1
  8
1
  6
Continuous
 62
     7
100
AcDbLine
 10
3.869804
 20
5.724715
 30
0.0
 11
3.869804
 21
5.808662
 31
0.0
  0
LINE
  5
BB
100
AcDbEntity
 67
     1
  8
1
  6
Continuous
 62
     7
100
AcDbLine
 10
3.322644
 20
6.436367
 30
0.0
 11
3.339414
 21
6.436367
 31
0.0
  0
LINE
  5
BC
100
AcDbEntity
 67
     1
  8
1
  6
Continuous
 62
     7
100
AcDbLine
 10
11.624155
 20
8.944405
 30
0.0
 11
11.624155
 21
8.944228
 31
0.0
  0
LINE
  5
BD
100
AcDbEntity
 67
     1
  8
1
  6
Continuous
 62
     7
100
AcDbLine
 10
10.570457
 20
4.123179
 30
0.0
 11
10.520024
 21
4.190288
 31
0.0
  0
LINE
  5
BE
100
AcDbEntity
 67
     1
  8
1
  6
Continuous
 62
     7
100
AcDbLine
 10
11.62403
 20
5.703187
 30
0.0
 11
5.624155
 21
5.703187
 31
0.0
  0
LINE
  5
BF
100
AcDbEntity
 67
     1
  8
1
  6
Continuous
 62
     7
100
AcDbLine
 10
3.324914
 20
3.895136
 30
0.0
 11
3.349149
 21
3.895136
 31
0.0
  0
LINE
  5
C0
100
AcDbEntity
 67
     1
  8
1
  6
Continuous
 62
     7
100
AcDbLine
 10
12.221346
 20
7.145265
 30
0.0
 11
12.167754
 21
7.175547
 31
0.0
  0
LINE
  5
C1
100
AcDbEntity
 67
     1
  8
1
  6
Continuous
 62
     7
100
AcDbLine
 10
3.689179
 20
4.86534
 30
0.0
 11
3.734179
 21
4.86534
 31
0.0
  0
LINE
  5
C2
100
AcDbEntity
 67
     1
  8
1
  6
Continuous
 62
     7
100
AcDbLine
 10
3.322644
 20
6.412366
 30
0.0
 11
3.428983
 21
6.412366
 31
0.0
  0
LINE
  5
C3
100
AcDbEntity
 67
     1
  8
1
  6
Continuous
 62
     7
100
AcDbLine
 10
1.57158
 20
4.951575
 30
0.0
 11
1.655527
 21
4.951428
 31
0.0
  0
LINE
  5
C4
100
AcDbEntity
 67
     1
  8
1
  6
Continuous
 62
     7
100
AcDbLine
 10
11.624155
 20
7.19399
 30
0.0
 11
11.624155
 21
7.191957
 31
0.0
  0
LINE
  5
C5
100
AcDbEntity
 67
     1
  8
1
  6
Continuous
 62
     7
100
AcDbLine
 10
1.891572
 20
4.947017
 30
0.0
 11
1.822553
 21
4.947137
 31
0.0
  0
LINE
  5
C6
100
AcDbEntity
 67
     1
  8
1
  6
Continuous
 62
     7
100
AcDbLine
 10
12.214498
 20
5.914356
 30
0.0
 11
12.196645
 21
5.897967
 31
0.0
  0
LINE
  5
C7
100
AcDbEntity
 67
     1
  8
1
  6
Continuous
 62
     7
100
AcDbLine
 10
1.766599
 20
4.962235
 30
0.0
 11
1.991598
 21
4.961842
 31
0.0
  0
LINE
  5
C8
100
AcDbEntity
 67
     1
  8
1
  6
Continuous
 62
     7
100
AcDbLine
 10
3.324914
 20
3.941136
 30
0.0
 11
3.379005
 21
3.941136
 31
0.0
  0
LINE
  5
C9
100
AcDbEntity
 67
     1
  8
1
  6
Continuous
 62
     7
100
AcDbLine
 10
3.913804
 20
4.354715
 30
0.0
 11
3.913804
 21
4.352872
 31
0.0
  0
LINE
  5
CA
100
AcDbEntity
 67
     1
  8
1
  6
Continuous
 62
     7
100
AcDbLine
 10
3.322644
 20
6.386367
 30
0.0
 11
3.36927
 21
6.386367
 31
0.0
  0
LINE
  5
CB
100
AcDbEntity
 67
     1
  8
1
  6
Continuous
 62
     7
100
AcDbLine
 10
15.696942
 20
8.263589
 30
0.0
 11
15.669236
 21
8.19894
 31
0.0
  0
LINE
  5
CC
100
AcDbEntity
 67
     1
  8
1
  6
Continuous
 62
     7
100
AcDbLine
 10
15.024146
 20
4.645735
 30
0.0
 11
15.021377
 21
4.578111
 31
0.0
  0
LINE
  5
CD
100
AcDbEntity
 67
     1
  8
1
  6
Continuous
 62
     7
100
AcDbLine
 10
1.820373
 20
3.889136
 30
0.0
 11
1.81853
 21
3.889136
 31
0.0
  0
LINE
  5
CE
100
AcDbEntity
 67
     1
  8
1
  6
Continuous
 62
     7
100
AcDbLine
 10
13.624155
 20
8.946499
 30
0.0
 11
5.624155
 21
8.946499
 31
0.0
  0
LINE
  5
CF
100
AcDbEntity
 67
     1
  8
1
  6
Continuous
 62
     7
100
AcDbLine
 10
1.822643
 20
6.438366
 30
0.0
 11
1.813337
 21
6.438366
 31
0.0
  0
LINE
  5
D0
100
AcDbEntity
 67
     1
  8
1
  6
Continuous
 62
     7
100
AcDbLine
 10
5.033396
 20
4.354715
 30
0.0
 11
5.033396
 21
4.278232
 31
0.0
  0
LINE
  5
D1
100
AcDbEntity
 67
     1
  8
1
  6
Continuous
 62
     7
100
AcDbLine
 10
3.867804
 20
4.354715
 30
0.0
 11
3.867804
 21
4.278232
 31
0.0
  0
LINE
  5
D2
100
AcDbEntity
 67
     1
  8
1
  6
Continuous
 62
     7
100
AcDbLine
 10
0.633067
 20
10.641915
 30
0.0
 11
0.633067
 21
0.440085
 31
0.0
  0
LINE
  5
D3
100
AcDbEntity
 67
     1
  8
1
  6
Continuous
 62
     7
100
AcDbLine
 10
1.571541
 20
4.929081
 30
0.0
 11
1.696599
 21
4.962357
 31
0.0
  0
LINE
  5
D4
100
AcDbEntity
 67
     1
  8
1
  6
Continuous
 62
     7
100
AcDbLine
 10
12.191505
 20
5.939403
 30
0.0
 11
12.118666
 21
5.872538
 31
0.0
  0
LINE
  5
D5
100
AcDbEntity
 67
     1
  8
1
  6
Continuous
 62
     7
100
AcDbLine
 10
5.624155
 20
5.667678
 30
0.0
 11
5.624155
 21
5.673054
 31
0.0
  0
LINE
  5
D6
100
AcDbEntity
 67
     1
  8
1
  6
Continuous
 62
     7
100
AcDbLine
 10
1.770686
 20
5.617998
 30
0.0
 11
1.829634
 21
5.610237
 31
0.0
  0
LINE
  5
D7
100
AcDbEntity
 67
     1
  8
1
  6
Continuous
 62
     7
100
AcDbLine
 10
2.386643
 20
6.272367
 30
0.0
 11
2.341643
 21
6.272367
 31
0.0
  0
LINE
  5
D8
100
AcDbEntity
 67
     1
  8
1
  6
Continuous
 62
     7
100
AcDbLine
 10
3.863804
 20
5.724715
 30
0.0
 11
3.863804
 21
5.78627
 31
0.0
  0
LINE
  5
D9
100
AcDbEntity
 67
     1
  8
1
  6
Continuous
 62
     7
100
AcDbLine
 10
3.322644
 20
6.44086
 30
0.0
 11
3.322644
 21
6.373873
 31
0.0
  0
LINE
  5
DA
100
AcDbEntity
 67
     1
  8
1
  6
Continuous
 62
     7
100
AcDbLine
 10
0.943877
 20
1.33786
 30
0.0
 11
0.813973
 21
1.56286
 31
0.0
  0
LINE
  5
DB
100
AcDbEntity
 67
     1
  8
1
  6
Continuous
 62
     7
100
AcDbLine
 10
3.322644
 20
6.440367
 30
0.0
 11
3.324486
 21
6.440367
 31
0.0
  0
LINE
  5
DC
100
AcDbEntity
 67
     1
  8
1
  6
Continuous
 62
     7
100
AcDbLine
 10
11.62403
 20
5.713021
 30
0.0
 11
5.624155
 21
5.713021
 31
0.0
  0
LINE
  5
DD
100
AcDbEntity
 67
     1
  8
1
  6
Continuous
 62
     7
100
AcDbLine
 10
3.212389
 20
5.706378
 30
0.0
 11
3.212591
 21
5.590646
 31
0.0
  0
LINE
  5
DE
100
AcDbEntity
 67
     1
  8
1
  6
Continuous
 62
     7
100
AcDbLine
 10
10.605632
 20
4.149613
 30
0.0
 11
10.604526
 21
4.151086
 31
0.0
  0
LINE
  5
DF
100
AcDbEntity
 67
     1
  8
1
  6
Continuous
 62
     7
100
AcDbLine
 10
12.224298
 20
7.150489
 30
0.0
 11
12.190202
 21
7.169755
 31
0.0
  0
LINE
  5
E0
100
AcDbEntity
 67
     1
  8
1
  6
Continuous
 62
     7
100
AcDbLine
 10
10.605632
 20
4.149613
 30
0.0
 11
10.604526
 21
4.151086
 31
0.0
  0
LINE
  5
E1
100
AcDbEntity
 67
     1
  8
1
  6
Continuous
 62
     7
100
AcDbLine
 10
1.891562
 20
4.941017
 30
0.0
 11
1.844935
 21
4.941098
 31
0.0
  0
LINE
  5
E2
100
AcDbEntity
 67
     1
  8
1
  6
Continuous
 62
     7
100
AcDbLine
 10
12.218555
 20
5.909936
 30
0.0
 11
12.217197
 21
5.90869
 31
0.0
  0
LINE
  5
E3
100
AcDbEntity
 67
     1
  8
1
  6
Continuous
 62
     7
100
AcDbLine
 10
5.624155
 20
8.944466
 30
0.0
 11
5.624155
 21
8.942214
 31
0.0
  0
LINE
  5
E4
100
AcDbEntity
 67
     1
  8
1
  6
Continuous
 62
     7
100
AcDbLine
 10
1.695373
 20
3.922136
 30
0.0
 11
2.279143
 21
3.922136
 31
0.0
  0
LINE
  5
E5
100
AcDbEntity
 67
     1
  8
1
  6
Continuous
 62
     7
100
AcDbLine
 10
3.875804
 20
4.354715
 30
0.0
 11
3.875804
 21
4.248375
 31
0.0
  0
LINE
  5
E6
100
AcDbEntity
 67
     1
  8
1
  6
Continuous
 62
     7
100
AcDbLine
 10
3.324914
 20
3.947136
 30
0.0
 11
3.356613
 21
3.947136
 31
0.0
  0
LINE
  5
E7
100
AcDbEntity
 67
     1
  8
1
  6
Continuous
 62
     7
100
AcDbLine
 10
10.559266
 20
4.114768
 30
0.0
 11
10.540222
 21
4.140109
 31
0.0
  0
LINE
  5
E8
100
AcDbEntity
 67
     1
  8
1
  6
Continuous
 62
     7
100
AcDbLine
 10
15.953727
 20
8.86884
 30
0.0
 11
15.823823
 21
8.64384
 31
0.0
  0
LINE
  5
E9
100
AcDbEntity
 67
     1
  8
1
  6
Continuous
 62
     7
100
AcDbLine
 10
10.604033
 20
4.148411
 30
0.0
 11
10.598442
 21
4.155851
 31
0.0
  0
LINE
  5
EA
100
AcDbEntity
 67
     1
  8
1
  6
Continuous
 62
     7
100
AcDbLine
 10
3.914298
 20
4.354715
 30
0.0
 11
3.84731
 21
4.354715
 31
0.0
  0
LINE
  5
EB
100
AcDbEntity
 67
     1
  8
1
  6
Continuous
 62
     7
100
AcDbLine
 10
5.015396
 20
5.61143
 30
0.0
 11
5.015396
 21
5.71777
 31
0.0
  0
LINE
  5
EC
100
AcDbEntity
 67
     1
  8
1
  6
Continuous
 62
     7
100
AcDbLine
 10
1.571562
 20
4.941575
 30
0.0
 11
1.618189
 21
4.941494
 31
0.0
  0
LINE
  5
ED
100
AcDbEntity
 67
     1
  8
1
  6
Continuous
 62
     7
100
AcDbLine
 10
5.05389
 20
4.354715
 30
0.0
 11
4.986902
 21
4.354715
 31
0.0
  0
LINE
  5
EE
100
AcDbEntity
 67
     1
  8
1
  6
Continuous
 62
     7
100
AcDbLine
 10
15.092886
 20
4.844496
 30
0.0
 11
15.061615
 21
4.778811
 31
0.0
  0
LINE
  5
EF
100
AcDbEntity
 67
     1
  8
1
  6
Continuous
 62
     7
100
AcDbLine
 10
1.695373
 20
3.922136
 30
0.0
 11
1.820373
 21
3.888642
 31
0.0
  0
LINE
  5
F0
100
AcDbEntity
 67
     1
  8
1
  6
Continuous
 62
     7
100
AcDbLine
 10
1.822643
 20
6.406367
 30
0.0
 11
1.701375
 21
6.406367
 31
0.0
  0
LINE
  5
F1
100
AcDbEntity
 67
     1
  8
1
  6
Continuous
 62
     7
100
AcDbLine
 10
3.895804
 20
5.724715
 30
0.0
 11
3.895804
 21
5.793734
 31
0.0
  0
LINE
  5
F2
100
AcDbEntity
 67
     1
  8
1
  6
Continuous
 62
     7
100
AcDbLine
 10
5.039396
 20
4.354715
 30
0.0
 11
5.039396
 21
4.300624
 31
0.0
  0
LINE
  5
F3
100
AcDbEntity
 67
     1
  8
1
  6
Continuous
 62
     7
100
AcDbLine
 10
3.879804
 20
5.724715
 30
0.0
 11
3.879804
 21
5.845983
 31
0.0
  0
LINE
  5
F4
100
AcDbEntity
 67
     1
  8
1
  6
Continuous
 62
     7
100
AcDbLine
 10
1.8916
 20
4.963017
 30
0.0
 11
1.770332
 21
4.963228
 31
0.0
  0
LINE
  5
F5
100
AcDbEntity
 67
     1
  8
1
  6
Continuous
 62
     7
100
AcDbLine
 10
10.583248
 20
4.132791
 30
0.0
 11
10.519362
 21
4.217802
 31
0.0
  0
LINE
  5
F6
100
AcDbEntity
 67
     1
  8
1
  6
Continuous
 62
     7
100
AcDbLine
 10
3.861804
 20
4.354715
 30
0.0
 11
3.861804
 21
4.300624
 31
0.0
  0
LINE
  5
F7
100
AcDbEntity
 67
     1
  8
1
  6
Continuous
 62
     7
100
AcDbLine
 10
3.857804
 20
5.724715
 30
0.0
 11
3.857804
 21
5.763878
 31
0.0
  0
LINE
  5
F8
100
AcDbEntity
 67
     1
  8
1
  6
Continuous
 62
     7
100
AcDbLine
 10
3.324914
 20
3.917136
 30
0.0
 11
3.431254
 21
3.917136
 31
0.0
  0
LINE
  5
F9
100
AcDbEntity
 67
     1
  8
1
  6
Continuous
 62
     7
100
AcDbLine
 10
15.554132
 20
8.944228
 30
0.0
 11
11.624155
 21
8.944228
 31
0.0
  0
LINE
  5
FA
100
AcDbEntity
 67
     1
  8
1
  6
Continuous
 62
     7
100
AcDbLine
 10
5.624155
 20
5.736318
 30
0.0
 11
5.624155
 21
5.73643
 31
0.0
  0
LINE
  5
FB
100
AcDbEntity
 67
     1
  8
1
  6
Continuous
 62
     7
100
AcDbLine
 10
11.06325
 20
3.818417
 30
0.0
 11
10.81325
 21
3.818417
 31
0.0
  0
LINE
  5
FC
100
AcDbEntity
 67
     1
  8
1
  6
Continuous
 62
     7
100
AcDbLine
 10
4.828771
 20
4.977448
 30
0.0
 11
4.828771
 21
4.808697
 31
0.0
  0
LINE
  5
FD
100
AcDbEntity
 67
     1
  8
1
  6
Continuous
 62
     7
100
AcDbLine
 10
5.020396
 20
5.73643
 30
0.0
 11
4.986902
 21
5.61143
 31
0.0
  0
LINE
  5
FE
100
AcDbEntity
 67
     1
  8
1
  6
Continuous
 62
     7
100
AcDbLine
 10
3.324914
 20
3.919136
 30
0.0
 11
3.438718
 21
3.919136
 31
0.0
  0
LINE
  5
FF
100
AcDbEntity
 67
     1
  8
1
  6
Continuous
 62
     7
100
AcDbLine
 10
1.891551
 20
4.935017
 30
0.0
 11
1.867317
 21
4.935059
 31
0.0
  0
LINE
  5
100
100
AcDbEntity
 67
     1
  8
1
  6
Continuous
 62
     7
100
AcDbLine
 10
12.218889
 20
5.909572
 30
0.0
 11
12.173589
 21
5.95892
 31
0.0
  0
LINE
  5
101
100
AcDbEntity
 67
     1
  8
1
  6
Continuous
 62
     7
100
AcDbLine
 10
2.803643
 20
3.787136
 30
0.0
 11
2.758643
 21
3.787136
 31
0.0
  0
LINE
  5
102
100
AcDbEntity
 67
     1
  8
1
  6
Continuous
 62
     7
100
AcDbLine
 10
1.571555
 20
4.937575
 30
0.0
 11
1.603254
 21
4.93752
 31
0.0
  0
LINE
  5
103
100
AcDbEntity
 67
     1
  8
1
  6
Continuous
 62
     7
100
AcDbLine
 10
11.62403
 20
8.884032
 30
0.0
 11
5.624155
 21
8.884032
 31
0.0
  0
LINE
  5
104
100
AcDbEntity
 67
     1
  8
1
  6
Continuous
 62
     7
100
AcDbLine
 10
3.324914
 20
3.953136
 30
0.0
 11
3.334221
 21
3.953136
 31
0.0
  0
LINE
  5
105
100
AcDbEntity
 67
     1
  8
1
  6
Continuous
 62
     7
100
AcDbLine
 10
1.820373
 20
3.911136
 30
0.0
 11
1.736425
 21
3.911136
 31
0.0
  0
LINE
  5
106
100
AcDbEntity
 67
     1
  8
1
  6
Continuous
 62
     7
100
AcDbLine
 10
12.207735
 20
5.921723
 30
0.0
 11
12.162389
 21
5.880096
 31
0.0
  0
LINE
  5
107
100
AcDbEntity
 67
     1
  8
1
  6
Continuous
 62
     7
100
AcDbLine
 10
3.883804
 20
5.724715
 30
0.0
 11
3.883804
 21
5.838519
 31
0.0
  0
LINE
  5
108
100
AcDbEntity
 67
     1
  8
1
  6
Continuous
 62
     7
100
AcDbLine
 10
10.59444
 20
4.141202
 30
0.0
 11
10.561944
 21
4.184443
 31
0.0
  0
LINE
  5
109
100
AcDbEntity
 67
     1
  8
1
  6
Continuous
 62
     7
100
AcDbLine
 10
5.009396
 20
5.61143
 30
0.0
 11
5.009396
 21
5.695377
 31
0.0
  0
LINE
  5
10A
100
AcDbEntity
 67
     1
  8
1
  6
Continuous
 62
     7
100
AcDbLine
 10
15.213699
 20
5.039715
 30
0.0
 11
15.170856
 21
4.974817
 31
0.0
  0
LINE
  5
10B
100
AcDbEntity
 67
     1
  8
1
  6
Continuous
 62
     7
100
AcDbLine
 10
3.387643
 20
5.774715
 30
0.0
 11
3.387643
 21
5.63287
 31
0.0
  0
LINE
  5
10C
100
AcDbEntity
 67
     1
  8
1
  6
Continuous
 62
     7
100
AcDbLine
 10
1.822643
 20
6.400367
 30
0.0
 11
1.723768
 21
6.400367
 31
0.0
  0
LINE
  5
10D
100
AcDbEntity
 67
     1
  8
1
  6
Continuous
 62
     7
100
AcDbLine
 10
5.045396
 20
4.354715
 30
0.0
 11
5.045396
 21
4.323016
 31
0.0
  0
LINE
  5
10E
100
AcDbEntity
 67
     1
  8
1
  6
Continuous
 62
     7
100
AcDbLine
 10
11.62403
 20
8.88398
 30
0.0
 11
5.624155
 21
8.88398
 31
0.0
  0
LINE
  5
10F
100
AcDbEntity
 67
     1
  8
1
  6
Continuous
 62
     7
100
AcDbLine
 10
5.023396
 20
4.354715
 30
0.0
 11
5.023396
 21
4.240911
 31
0.0
  0
LINE
  5
110
100
AcDbEntity
 67
     1
  8
1
  6
Continuous
 62
     7
100
AcDbLine
 10
1.891611
 20
4.969017
 30
0.0
 11
1.792735
 21
4.969189
 31
0.0
  0
LINE
  5
111
100
AcDbEntity
 67
     1
  8
1
  6
Continuous
 62
     7
100
AcDbLine
 10
12.18339
 20
5.948243
 30
0.0
 11
12.143542
 21
5.911664
 31
0.0
  0
LINE
  5
112
100
AcDbEntity
 67
     1
  8
1
  6
Continuous
 62
     7
100
AcDbLine
 10
5.624155
 20
8.88398
 30
0.0
 11
5.624155
 21
8.881629
 31
0.0
  0
LINE
  5
113
100
AcDbEntity
 67
     1
  8
1
  6
Continuous
 62
     7
100
AcDbLine
 10
3.324914
 20
3.911136
 30
0.0
 11
3.408862
 21
3.911136
 31
0.0
  0
LINE
  5
114
100
AcDbEntity
 67
     1
  8
1
  6
Continuous
 62
     7
100
AcDbLine
 10
10.588045
 20
4.136396
 30
0.0
 11
10.537612
 21
4.203505
 31
0.0
  0
LINE
  5
115
100
AcDbEntity
 67
     1
  8
1
  6
Continuous
 62
     7
100
AcDbLine
 10
3.855804
 20
4.354715
 30
0.0
 11
3.855804
 21
4.323016
 31
0.0
  0
LINE
  5
116
100
AcDbEntity
 67
     1
  8
1
  6
Continuous
 62
     7
100
AcDbLine
 10
3.851804
 20
5.724715
 30
0.0
 11
3.851804
 21
5.741486
 31
0.0
  0
LINE
  5
117
100
AcDbEntity
 67
     1
  8
1
  6
Continuous
 62
     7
100
AcDbLine
 10
3.397959
 20
4.317207
 30
0.0
 11
3.397989
 21
4.299715
 31
0.0
  0
LINE
  5
118
100
AcDbEntity
 67
     1
  8
1
  6
Continuous
 62
     7
100
AcDbLine
 10
12.229218
 20
7.159195
 30
0.0
 11
12.227613
 21
7.160101
 31
0.0
  0
LINE
  5
119
100
AcDbEntity
 67
     1
  8
1
  6
Continuous
 62
     7
100
AcDbLine
 10
5.015396
 20
4.354715
 30
0.0
 11
5.015396
 21
4.248375
 31
0.0
  0
LINE
  5
11A
100
AcDbEntity
 67
     1
  8
1
  6
Continuous
 62
     7
100
AcDbLine
 10
1.571548
 20
4.933575
 30
0.0
 11
1.588319
 21
4.933546
 31
0.0
  0
LINE
  5
11B
100
AcDbEntity
 67
     1
  8
1
  6
Continuous
 62
     7
100
AcDbLine
 10
12.210524
 20
7.126111
 30
0.0
 11
12.117941
 21
7.178424
 31
0.0
  0
LINE
  5
11C
100
AcDbEntity
 67
     1
  8
1
  6
Continuous
 62
     7
100
AcDbLine
 10
1.891541
 20
4.929017
 30
0.0
 11
1.889699
 21
4.92902
 31
0.0
  0
LINE
  5
11D
100
AcDbEntity
 67
     1
  8
1
  6
Continuous
 62
     7
100
AcDbLine
 10
5.624155
 20
8.875699
 30
0.0
 11
5.624155
 21
8.744131
 31
0.0
  0
LINE
  5
11E
100
AcDbEntity
 67
     1
  8
1
  6
Continuous
 62
     7
100
AcDbLine
 10
3.324914
 20
3.888642
 30
0.0
 11
3.449914
 21
3.922136
 31
0.0
  0
LINE
  5
11F
100
AcDbEntity
 67
     1
  8
1
  6
Continuous
 62
     7
100
AcDbLine
 10
10.554469
 20
4.111164
 30
0.0
 11
10.548878
 21
4.118603
 31
0.0
  0
LINE
  5
120
100
AcDbEntity
 67
     1
  8
1
  6
Continuous
 62
     7
100
AcDbLine
 10
3.889804
 20
5.724715
 30
0.0
 11
3.889804
 21
5.816126
 31
0.0
  0
LINE
  5
121
100
AcDbEntity
 67
     1
  8
1
  6
Continuous
 62
     7
100
AcDbLine
 10
5.003396
 20
5.61143
 30
0.0
 11
5.003396
 21
5.672985
 31
0.0
  0
LINE
  5
122
100
AcDbEntity
 67
     1
  8
1
  6
Continuous
 62
     7
100
AcDbLine
 10
10.584847
 20
4.133993
 30
0.0
 11
10.525445
 21
4.213036
 31
0.0
  0
LINE
  5
123
100
AcDbEntity
 67
     1
  8
1
  6
Continuous
 62
     7
100
AcDbLine
 10
15.64742
 20
8.826663
 30
0.0
 11
15.684751
 21
8.766099
 31
0.0
  0
LINE
  5
124
100
AcDbEntity
 67
     1
  8
1
  6
Continuous
 62
     7
100
AcDbLine
 10
15.334513
 20
5.234934
 30
0.0
 11
15.297456
 21
5.169642
 31
0.0
  0
LINE
  5
125
100
AcDbEntity
 67
     1
  8
1
  6
Continuous
 62
     7
100
AcDbLine
 10
11.62403
 20
8.744131
 30
0.0
 11
5.624155
 21
8.744131
 31
0.0
  0
LINE
  5
126
100
AcDbEntity
 67
     1
  8
1
  6
Continuous
 62
     7
100
AcDbLine
 10
12.205371
 20
1.741555
 30
0.0
 11
6.526266
 21
1.741555
 31
0.0
  0
LINE
  5
127
100
AcDbEntity
 67
     1
  8
1
  6
Continuous
 62
     7
100
AcDbLine
 10
1.822643
 20
6.394367
 30
0.0
 11
1.74616
 21
6.394367
 31
0.0
  0
LINE
  5
128
100
AcDbEntity
 67
     1
  8
1
  6
Continuous
 62
     7
100
AcDbLine
 10
15.736613
 20
8.643537
 30
0.0
 11
15.750268
 21
8.581485
 31
0.0
  0
LINE
  5
129
100
AcDbEntity
 67
     1
  8
1
  6
Continuous
 62
     7
100
AcDbLine
 10
5.051396
 20
4.354715
 30
0.0
 11
5.051396
 21
4.345408
 31
0.0
  0
LINE
  5
12A
100
AcDbEntity
 67
     1
  8
1
  6
Continuous
 62
     7
100
AcDbLine
 10
5.624155
 20
8.744131
 30
0.0
 11
5.624155
 21
8.727043
 31
0.0
  0
LINE
  5
12B
100
AcDbEntity
 67
     1
  8
1
  6
Continuous
 62
     7
100
AcDbLine
 10
12.179333
 20
5.952663
 30
0.0
 11
12.155981
 21
5.931227
 31
0.0
  0
LINE
  5
12C
100
AcDbEntity
 67
     1
  8
1
  6
Continuous
 62
     7
100
AcDbLine
 10
3.324914
 20
3.905136
 30
0.0
 11
3.386469
 21
3.905136
 31
0.0
  0
LINE
  5
12D
100
AcDbEntity
 67
     1
  8
1
  6
Continuous
 62
     7
100
AcDbLine
 10
10.592841
 20
4.14
 30
0.0
 11
10.555861
 21
4.189209
 31
0.0
  0
LINE
  5
12E
100
AcDbEntity
 67
     1
  8
1
  6
Continuous
 62
     7
100
AcDbLine
 10
5.624155
 20
8.727043
 30
0.0
 11
5.624155
 21
8.713881
 31
0.0
  0
LINE
  5
12F
100
AcDbEntity
 67
     1
  8
1
  6
Continuous
 62
     7
100
AcDbLine
 10
3.847804
 20
5.724715
 30
0.0
 11
3.847804
 21
5.726557
 31
0.0
  0
LINE
  5
130
100
AcDbEntity
 67
     1
  8
1
  6
Continuous
 62
     7
100
AcDbLine
 10
13.624155
 20
7.194051
 30
0.0
 11
13.624155
 21
7.194228
 31
0.0
  0
LINE
  5
131
100
AcDbEntity
 67
     1
  8
1
  6
Continuous
 62
     7
100
AcDbLine
 10
1.696599
 20
4.962357
 30
0.0
 11
1.492623
 21
4.962713
 31
0.0
  0
LINE
  5
132
100
AcDbEntity
 67
     1
  8
1
  6
Continuous
 62
     7
100
AcDbLine
 10
15.660358
 20
7.194228
 30
0.0
 11
11.624155
 21
7.194228
 31
0.0
  0
LINE
  5
133
100
AcDbEntity
 67
     1
  8
1
  6
Continuous
 62
     7
100
AcDbLine
 10
5.624155
 20
4.259767
 30
0.0
 11
5.624155
 21
4.244745
 31
0.0
  0
LINE
  5
134
100
AcDbEntity
 67
     1
  8
1
  6
Continuous
 62
     7
100
AcDbLine
 10
5.031396
 20
5.61143
 30
0.0
 11
5.031396
 21
5.695377
 31
0.0
  0
LINE
  5
135
100
AcDbEntity
 67
     1
  8
1
  6
Continuous
 62
     7
100
AcDbLine
 10
11.624155
 20
5.499715
 30
0.0
 11
11.624155
 21
5.503735
 31
0.0
  0
LINE
  5
136
100
AcDbEntity
 67
     1
  8
1
  6
Continuous
 62
     7
100
AcDbLine
 10
3.322644
 20
6.374367
 30
0.0
 11
3.324486
 21
6.374367
 31
0.0
  0
LINE
  5
137
100
AcDbEntity
 67
     1
  8
1
  6
Continuous
 62
     7
100
AcDbLine
 10
12.205605
 20
7.117405
 30
0.0
 11
12.145514
 21
7.151358
 31
0.0
  0
LINE
  5
138
100
AcDbEntity
 67
     1
  8
1
  6
Continuous
 62
     7
100
AcDbLine
 10
5.009396
 20
4.354715
 30
0.0
 11
5.009396
 21
4.270767
 31
0.0
  0
LINE
  5
139
100
AcDbEntity
 67
     1
  8
1
  6
Continuous
 62
     7
100
AcDbLine
 10
1.571541
 20
4.929575
 30
0.0
 11
1.573384
 21
4.929572
 31
0.0
  0
LINE
  5
13A
100
AcDbEntity
 67
     1
  8
1
  6
Continuous
 62
     7
100
AcDbLine
 10
12.207572
 20
7.120887
 30
0.0
 11
12.134485
 21
7.162185
 31
0.0
  0
LINE
  5
13B
100
AcDbEntity
 67
     1
  8
1
  6
Continuous
 62
     7
100
AcDbLine
 10
1.89154
 20
4.928523
 30
0.0
 11
1.891657
 21
4.99551
 31
0.0
  0
LINE
  5
13C
100
AcDbEntity
 67
     1
  8
1
  6
Continuous
 62
     7
100
AcDbLine
 10
4.999396
 20
4.354715
 30
0.0
 11
4.999396
 21
4.308088
 31
0.0
  0
LINE
  5
13D
100
AcDbEntity
 67
     1
  8
1
  6
Continuous
 62
     7
100
AcDbLine
 10
12.104155
 20
5.849715
 30
0.0
 11
13.009228
 21
6.680553
 31
0.0
  0
LINE
  5
13E
100
AcDbEntity
 67
     1
  8
1
  6
Continuous
 62
     7
100
AcDbLine
 10
1.820373
 20
3.923136
 30
0.0
 11
1.699105
 21
3.923136
 31
0.0
  0
LINE
  5
13F
100
AcDbEntity
 67
     1
  8
1
  6
Continuous
 62
     7
100
AcDbLine
 10
11.812187
 20
3.764416
 30
0.0
 11
12.881874
 21
3.764416
 31
0.0
  0
LINE
  5
140
100
AcDbEntity
 67
     1
  8
1
  6
Continuous
 62
     7
100
AcDbLine
 10
5.624155
 20
8.708948
 30
0.0
 11
5.624155
 21
7.429508
 31
0.0
  0
LINE
  5
141
100
AcDbEntity
 67
     1
  8
1
  6
Continuous
 62
     7
100
AcDbLine
 10
5.020396
 20
4.229715
 30
0.0
 11
5.05389
 21
4.354715
 31
0.0
  0
LINE
  5
142
100
AcDbEntity
 67
     1
  8
1
  6
Continuous
 62
     7
100
AcDbLine
 10
4.997396
 20
5.61143
 30
0.0
 11
4.997396
 21
5.650593
 31
0.0
  0
LINE
  5
143
100
AcDbEntity
 67
     1
  8
1
  6
Continuous
 62
     7
100
AcDbLine
 10
15.403253
 20
5.433695
 30
0.0
 11
15.389339
 21
5.366829
 31
0.0
  0
LINE
  5
144
100
AcDbEntity
 67
     1
  8
1
  6
Continuous
 62
     7
100
AcDbLine
 10
3.879804
 20
4.354715
 30
0.0
 11
3.879804
 21
4.233447
 31
0.0
  0
LINE
  5
145
100
AcDbEntity
 67
     1
  8
1
  6
Continuous
 62
     7
100
AcDbLine
 10
11.62403
 20
7.429482
 30
0.0
 11
5.624155
 21
7.429482
 31
0.0
  0
LINE
  5
146
100
AcDbEntity
 67
     1
  8
1
  6
Continuous
 62
     7
100
AcDbLine
 10
15.607247
 20
8.069228
 30
0.0
 11
15.575595
 21
8.004331
 31
0.0
  0
LINE
  5
147
100
AcDbEntity
 67
     1
  8
1
  6
Continuous
 62
     7
100
AcDbLine
 10
1.822643
 20
6.388367
 30
0.0
 11
1.768552
 21
6.388367
 31
0.0
  0
LINE
  5
148
100
AcDbEntity
 67
     1
  8
1
  6
Continuous
 62
     7
100
AcDbLine
 10
4.986902
 20
4.354715
 30
0.0
 11
5.020396
 21
4.229715
 31
0.0
  0
LINE
  5
149
100
AcDbEntity
 67
     1
  8
1
  6
Continuous
 62
     7
100
AcDbLine
 10
1.891628
 20
4.979017
 30
0.0
 11
1.830073
 21
4.979124
 31
0.0
  0
LINE
  5
14A
100
AcDbEntity
 67
     1
  8
1
  6
Continuous
 62
     7
100
AcDbLine
 10
1.891632
 20
4.981017
 30
0.0
 11
1.837541
 21
4.981111
 31
0.0
  0
LINE
  5
14B
100
AcDbEntity
 67
     1
  8
1
  6
Continuous
 62
     7
100
AcDbLine
 10
12.175275
 20
5.957083
 30
0.0
 11
12.168419
 21
5.950789
 31
0.0
  0
LINE
  5
14C
100
AcDbEntity
 67
     1
  8
1
  6
Continuous
 62
     7
100
AcDbLine
 10
3.324914
 20
3.899136
 30
0.0
 11
3.364077
 21
3.899136
 31
0.0
  0
LINE
  5
14D
100
AcDbEntity
 67
     1
  8
1
  6
Continuous
 62
     7
100
AcDbLine
 10
10.597638
 20
4.143605
 30
0.0
 11
10.57411
 21
4.174912
 31
0.0
  0
LINE
  5
14E
100
AcDbEntity
 67
     1
  8
1
  6
Continuous
 62
     7
100
AcDbLine
 10
3.880804
 20
5.849715
 30
0.0
 11
3.84731
 21
5.724715
 31
0.0
  0
LINE
  5
14F
100
AcDbEntity
 67
     1
  8
1
  6
Continuous
 62
     7
100
AcDbLine
 10
5.624155
 20
7.196242
 30
0.0
 11
5.624155
 21
7.202623
 31
0.0
  0
LINE
  5
150
100
AcDbEntity
 67
     1
  8
1
  6
Continuous
 62
     7
100
AcDbLine
 10
1.258873
 20
4.827713
 30
0.0
 11
1.213873
 21
4.827713
 31
0.0
  0
LINE
  5
151
100
AcDbEntity
 67
     1
  8
1
  6
Continuous
 62
     7
100
AcDbLine
 10
15.611421
 20
7.251668
 30
0.0
 11
15.662344
 21
7.191957
 31
0.0
  0
LINE
  5
152
100
AcDbEntity
 67
     1
  8
1
  6
Continuous
 62
     7
100
AcDbLine
 10
15.138573
 20
4.259767
 30
0.0
 11
11.624155
 21
4.259767
 31
0.0
  0
LINE
  5
153
100
AcDbEntity
 67
     1
  8
1
  6
Continuous
 62
     7
100
AcDbLine
 10
5.037396
 20
5.61143
 30
0.0
 11
5.037396
 21
5.672985
 31
0.0
  0
LINE
  5
154
100
AcDbEntity
 67
     1
  8
1
  6
Continuous
 62
     7
100
AcDbLine
 10
16.298969
 20
2.566863
 30
0.0
 11
16.169065
 21
2.791863
 31
0.0
  0
LINE
  5
155
100
AcDbEntity
 67
     1
  8
1
  6
Continuous
 62
     7
100
AcDbLine
 10
15.464227
 20
7.556971
 30
0.0
 11
15.477881
 21
7.494919
 31
0.0
  0
LINE
  5
156
100
AcDbEntity
 67
     1
  8
1
  6
Continuous
 62
     7
100
AcDbLine
 10
5.003396
 20
4.354715
 30
0.0
 11
5.003396
 21
4.29316
 31
0.0
  0
LINE
  5
157
100
AcDbEntity
 67
     1
  8
1
  6
Continuous
 62
     7
100
AcDbLine
 10
12.182037
 20
5.949716
 30
0.0
 11
12.147689
 21
5.918185
 31
0.0
  0
LINE
  5
158
100
AcDbEntity
 67
     1
  8
1
  6
Continuous
 62
     7
100
AcDbLine
 10
3.447644
 20
5.834715
 30
0.0
 11
3.447644
 21
5.529715
 31
0.0
  0
LINE
  5
159
100
AcDbEntity
 67
     1
  8
1
  6
Continuous
 62
     7
100
AcDbLine
 10
15.113157
 20
4.300619
 30
0.0
 11
15.158603
 21
4.229715
 31
0.0
  0
LINE
  5
15A
100
AcDbEntity
 67
     1
  8
1
  6
Continuous
 62
     7
100
AcDbLine
 10
1.820373
 20
3.929136
 30
0.0
 11
1.721497
 21
3.929136
 31
0.0
  0
LINE
  5
15B
100
AcDbEntity
 67
     1
  8
1
  6
Continuous
 62
     7
100
AcDbLine
 10
5.020396
 20
5.73643
 30
0.0
 11
5.020396
 21
5.219947
 31
0.0
  0
LINE
  5
15C
100
AcDbEntity
 67
     1
  8
1
  6
Continuous
 62
     7
100
AcDbLine
 10
3.901804
 20
5.724715
 30
0.0
 11
3.901804
 21
5.771342
 31
0.0
  0
LINE
  5
15D
100
AcDbEntity
 67
     1
  8
1
  6
Continuous
 62
     7
100
AcDbLine
 10
4.991396
 20
5.61143
 30
0.0
 11
4.991396
 21
5.628201
 31
0.0
  0
LINE
  5
15E
100
AcDbEntity
 67
     1
  8
1
  6
Continuous
 62
     7
100
AcDbLine
 10
15.379418
 20
5.638753
 30
0.0
 11
15.397863
 21
5.569686
 31
0.0
  0
LINE
  5
15F
100
AcDbEntity
 67
     1
  8
1
  6
Continuous
 62
     7
100
AcDbLine
 10
3.885804
 20
4.354715
 30
0.0
 11
3.885804
 21
4.248375
 31
0.0
  0
LINE
  5
160
100
AcDbEntity
 67
     1
  8
1
  6
Continuous
 62
     7
100
AcDbLine
 10
3.482414
 20
4.229715
 30
0.0
 11
4.005804
 21
4.229715
 31
0.0
  0
LINE
  5
161
100
AcDbEntity
 67
     1
  8
1
  6
Continuous
 62
     7
100
AcDbLine
 10
1.775993
 20
5.419404
 30
0.0
 11
1.924062
 21
5.56964
 31
0.0
  0
LINE
  5
162
100
AcDbEntity
 67
     1
  8
1
  6
Continuous
 62
     7
100
AcDbLine
 10
12.196915
 20
5.933509
 30
0.0
 11
12.10758
 21
5.851502
 31
0.0
  0
LINE
  5
163
100
AcDbEntity
 67
     1
  8
1
  6
Continuous
 62
     7
100
AcDbLine
 10
15.632364
 20
5.789114
 30
0.0
 11
15.50246
 21
5.564114
 31
0.0
  0
LINE
  5
164
100
AcDbEntity
 67
     1
  8
1
  6
Continuous
 62
     7
100
AcDbLine
 10
3.324914
 20
3.893136
 30
0.0
 11
3.341685
 21
3.893136
 31
0.0
  0
LINE
  5
165
100
AcDbEntity
 67
     1
  8
1
  6
Continuous
 62
     7
100
AcDbLine
 10
10.602434
 20
4.14721
 30
0.0
 11
10.59236
 21
4.160616
 31
0.0
  0
LINE
  5
166
100
AcDbEntity
 67
     1
  8
1
  6
Continuous
 62
     7
100
AcDbLine
 10
7.910086
 20
0.440085
 30
0.0
 11
7.910086
 21
2.257467
 31
0.0
  0
LINE
  5
167
100
AcDbEntity
 67
     1
  8
1
  6
Continuous
 62
     7
100
AcDbLine
 10
0.894935
 20
4.658963
 30
0.0
 11
0.939935
 21
4.658963
 31
0.0
  0
LINE
  5
168
100
AcDbEntity
 67
     1
  8
1
  6
Continuous
 62
     7
100
AcDbLine
 10
15.499866
 20
7.43339
 30
0.0
 11
15.529744
 21
7.372357
 31
0.0
  0
LINE
  5
169
100
AcDbEntity
 67
     1
  8
1
  6
Continuous
 62
     7
100
AcDbLine
 10
15.403594
 20
5.529715
 30
0.0
 11
11.624155
 21
5.529715
 31
0.0
  0
LINE
  5
16A
100
AcDbEntity
 67
     1
  8
1
  6
Continuous
 62
     7
100
AcDbLine
 10
5.043396
 20
5.61143
 30
0.0
 11
5.043396
 21
5.650593
 31
0.0
  0
LINE
  5
16B
100
AcDbEntity
 67
     1
  8
1
  6
Continuous
 62
     7
100
AcDbLine
 10
1.822643
 20
6.412366
 30
0.0
 11
1.716304
 21
6.412366
 31
0.0
  0
LINE
  5
16C
100
AcDbEntity
 67
     1
  8
1
  6
Continuous
 62
     7
100
AcDbLine
 10
4.997396
 20
4.354715
 30
0.0
 11
4.997396
 21
4.315552
 31
0.0
  0
LINE
  5
16D
100
AcDbEntity
 67
     1
  8
1
  6
Continuous
 62
     7
100
AcDbLine
 10
1.571618
 20
4.973575
 30
0.0
 11
1.655566
 21
4.973429
 31
0.0
  0
LINE
  5
16E
100
AcDbEntity
 67
     1
  8
1
  6
Continuous
 62
     7
100
AcDbLine
 10
12.201669
 20
7.11044
 30
0.0
 11
12.167572
 21
7.129706
 31
0.0
  0
LINE
  5
16F
100
AcDbEntity
 67
     1
  8
1
  6
Continuous
 62
     7
100
AcDbLine
 10
3.914298
 20
5.724715
 30
0.0
 11
3.880804
 21
5.849715
 31
0.0
  0
LINE
  5
170
100
AcDbEntity
 67
     1
  8
1
  6
Continuous
 62
     7
100
AcDbLine
 10
1.820373
 20
3.935136
 30
0.0
 11
1.743889
 21
3.935136
 31
0.0
  0
LINE
  5
171
100
AcDbEntity
 67
     1
  8
1
  6
Continuous
 62
     7
100
AcDbLine
 10
5.561655
 20
4.229715
 30
0.0
 11
4.895396
 21
4.229715
 31
0.0
  0
LINE
  5
172
100
AcDbEntity
 67
     1
  8
1
  6
Continuous
 62
     7
100
AcDbLine
 10
3.907804
 20
5.724715
 30
0.0
 11
3.907804
 21
5.74895
 31
0.0
  0
LINE
  5
173
100
AcDbEntity
 67
     1
  8
1
  6
Continuous
 62
     7
100
AcDbLine
 10
3.322644
 20
6.416367
 30
0.0
 11
3.414055
 21
6.416367
 31
0.0
  0
LINE
  5
174
100
AcDbEntity
 67
     1
  8
1
  6
Continuous
 62
     7
100
AcDbLine
 10
0.684069
 20
1.33786
 30
0.0
 11
0.943877
 21
1.33786
 31
0.0
  0
LINE
  5
175
100
AcDbEntity
 67
     1
  8
1
  6
Continuous
 62
     7
100
AcDbLine
 10
1.712643
 20
5.849715
 30
0.0
 11
3.432643
 21
5.849715
 31
0.0
  0
LINE
  5
176
100
AcDbEntity
 67
     1
  8
1
  6
Continuous
 62
     7
100
AcDbLine
 10
1.747298
 20
4.299715
 30
0.0
 11
3.397989
 21
4.299715
 31
0.0
  0
LINE
  5
177
100
AcDbEntity
 67
     1
  8
1
  6
Continuous
 62
     7
100
AcDbLine
 10
1.891653
 20
4.993017
 30
0.0
 11
1.882346
 21
4.993033
 31
0.0
  0
LINE
  5
178
100
AcDbEntity
 67
     1
  8
1
  6
Continuous
 62
     7
100
AcDbLine
 10
12.200973
 20
5.92909
 30
0.0
 11
12.128134
 21
5.862225
 31
0.0
  0
LINE
  5
179
100
AcDbEntity
 67
     1
  8
1
  6
Continuous
 62
     7
100
AcDbLine
 10
5.017396
 20
5.61143
 30
0.0
 11
5.017396
 21
5.725234
 31
0.0
  0
LINE
  5
17A
100
AcDbEntity
 67
     1
  8
1
  6
Continuous
 62
     7
100
AcDbLine
 10
3.324914
 20
3.889136
 30
0.0
 11
3.326757
 21
3.889136
 31
0.0
  0
LINE
  5
17B
100
AcDbEntity
 67
     1
  8
1
  6
Continuous
 62
     7
100
AcDbLine
 10
3.893804
 20
4.354715
 30
0.0
 11
3.893804
 21
4.278232
 31
0.0
  0
LINE
  5
17C
100
AcDbEntity
 67
     1
  8
1
  6
Continuous
 62
     7
100
AcDbLine
 10
1.820373
 20
3.951136
 30
0.0
 11
1.803602
 21
3.951136
 31
0.0
  0
LINE
  5
17D
100
AcDbEntity
 67
     1
  8
1
  6
Continuous
 62
     7
100
AcDbLine
 10
11.62403
 20
7.254477
 30
0.0
 11
5.624155
 21
7.254477
 31
0.0
  0
LINE
  5
17E
100
AcDbEntity
 67
     1
  8
1
  6
Continuous
 62
     7
100
AcDbLine
 10
3.322644
 20
6.406367
 30
0.0
 11
3.443911
 21
6.406367
 31
0.0
  0
LINE
  5
17F
100
AcDbEntity
 67
     1
  8
1
  6
Continuous
 62
     7
100
AcDbLine
 10
1.757892
 20
5.703187
 30
0.0
 11
1.757839
 21
5.673054
 31
0.0
  0
LINE
  5
180
100
AcDbEntity
 67
     1
  8
1
  6
Continuous
 62
     7
100
AcDbLine
 10
1.820373
 20
3.907136
 30
0.0
 11
1.751353
 21
3.907136
 31
0.0
  0
LINE
  5
181
100
AcDbEntity
 67
     1
  8
1
  6
Continuous
 62
     7
100
AcDbLine
 10
2.341643
 20
3.618386
 30
0.0
 11
2.386643
 21
3.618386
 31
0.0
  0
LINE
  5
182
100
AcDbEntity
 67
     1
  8
1
  6
Continuous
 62
     7
100
AcDbLine
 10
15.529744
 20
7.372357
 30
0.0
 11
15.567075
 21
7.311792
 31
0.0
  0
LINE
  5
183
100
AcDbEntity
 67
     1
  8
1
  6
Continuous
 62
     7
100
AcDbLine
 10
1.822643
 20
6.418366
 30
0.0
 11
1.738696
 21
6.418366
 31
0.0
  0
LINE
  5
184
100
AcDbEntity
 67
     1
  8
1
  6
Continuous
 62
     7
100
AcDbLine
 10
4.991396
 20
4.354715
 30
0.0
 11
4.991396
 21
4.337945
 31
0.0
  0
LINE
  5
185
100
AcDbEntity
 67
     1
  8
1
  6
Continuous
 62
     7
100
AcDbLine
 10
1.571629
 20
4.979575
 30
0.0
 11
1.633184
 21
4.979467
 31
0.0
  0
LINE
  5
186
100
AcDbEntity
 67
     1
  8
1
  6
Continuous
 62
     7
100
AcDbLine
 10
12.198717
 20
7.105216
 30
0.0
 11
12.184116
 21
7.113466
 31
0.0
  0
LINE
  5
187
100
AcDbEntity
 67
     1
  8
1
  6
Continuous
 62
     7
100
AcDbLine
 10
2.758643
 20
3.618386
 30
0.0
 11
2.803643
 21
3.618386
 31
0.0
  0
LINE
  5
188
100
AcDbEntity
 67
     1
  8
1
  6
Continuous
 62
     7
100
AcDbLine
 10
5.245771
 20
4.808697
 30
0.0
 11
5.290771
 21
4.808697
 31
0.0
  0
LINE
  5
189
100
AcDbEntity
 67
     1
  8
1
  6
Continuous
 62
     7
100
AcDbLine
 10
3.913804
 20
5.724715
 30
0.0
 11
3.913804
 21
5.726557
 31
0.0
  0
LINE
  5
18A
100
AcDbEntity
 67
     1
  8
1
  6
Continuous
 62
     7
100
AcDbLine
 10
5.624155
 20
7.202623
 30
0.0
 11
5.624155
 21
7.254425
 31
0.0
  0
LINE
  5
18B
100
AcDbEntity
 67
     1
  8
1
  6
Continuous
 62
     7
100
AcDbLine
 10
3.322644
 20
6.422367
 30
0.0
 11
3.391663
 21
6.422367
 31
0.0
  0
LINE
  5
18C
100
AcDbEntity
 67
     1
  8
1
  6
Continuous
 62
     7
100
AcDbLine
 10
11.62403
 20
5.620906
 30
0.0
 11
5.624155
 21
5.620906
 31
0.0
  0
LINE
  5
18D
100
AcDbEntity
 67
     1
  8
1
  6
Continuous
 62
     7
100
AcDbLine
 10
13.259228
 20
6.680553
 30
0.0
 11
13.009228
 21
6.680553
 31
0.0
  0
LINE
  5
18E
100
AcDbEntity
 67
     1
  8
1
  6
Continuous
 62
     7
100
AcDbLine
 10
3.447881
 20
5.42452
 30
0.0
 11
3.449914
 21
4.259767
 31
0.0
  0
LINE
  5
18F
100
AcDbEntity
 67
     1
  8
1
  6
Continuous
 62
     7
100
AcDbLine
 10
12.214459
 20
7.133076
 30
0.0
 11
12.115378
 21
7.189061
 31
0.0
  0
LINE
  5
190
100
AcDbEntity
 67
     1
  8
1
  6
Continuous
 62
     7
100
AcDbLine
 10
1.822643
 20
6.44086
 30
0.0
 11
1.697643
 21
6.407367
 31
0.0
  0
LINE
  5
191
100
AcDbEntity
 67
     1
  8
1
  6
Continuous
 62
     7
100
AcDbLine
 10
1.891597
 20
4.961017
 30
0.0
 11
1.770329
 21
4.961228
 31
0.0
  0
LINE
  5
192
100
AcDbEntity
 67
     1
  8
1
  6
Continuous
 62
     7
100
AcDbLine
 10
12.20503
 20
5.924669
 30
0.0
 11
12.148686
 21
5.872948
 31
0.0
  0
LINE
  5
193
100
AcDbEntity
 67
     1
  8
1
  6
Continuous
 62
     7
100
AcDbLine
 10
12.104155
 20
5.849715
 30
0.0
 11
12.218889
 21
5.909572
 31
0.0
  0
LINE
  5
194
100
AcDbEntity
 67
     1
  8
1
  6
Continuous
 62
     7
100
AcDbLine
 10
3.324914
 20
3.927136
 30
0.0
 11
3.431254
 21
3.927136
 31
0.0
  0
LINE
  5
195
100
AcDbEntity
 67
     1
  8
1
  6
Continuous
 62
     7
100
AcDbLine
 10
3.899804
 20
4.354715
 30
0.0
 11
3.899804
 21
4.300624
 31
0.0
  0
LINE
  5
196
100
AcDbEntity
 67
     1
  8
1
  6
Continuous
 62
     7
100
AcDbLine
 10
1.822643
 20
6.422367
 30
0.0
 11
1.753624
 21
6.422367
 31
0.0
  0
LINE
  5
197
100
AcDbEntity
 67
     1
  8
1
  6
Continuous
 62
     7
100
AcDbLine
 10
11.62403
 20
7.262757
 30
0.0
 11
5.624155
 21
7.262757
 31
0.0
  0
LINE
  5
198
100
AcDbEntity
 67
     1
  8
1
  6
Continuous
 62
     7
100
AcDbLine
 10
3.322644
 20
6.400367
 30
0.0
 11
3.421519
 21
6.400367
 31
0.0
  0
LINE
  5
199
100
AcDbEntity
 67
     1
  8
1
  6
Continuous
 62
     7
100
AcDbLine
 10
15.493792
 20
7.810465
 30
0.0
 11
15.475293
 21
7.746394
 31
0.0
  0
LINE
  5
19A
100
AcDbEntity
 67
     1
  8
1
  6
Continuous
 62
     7
100
AcDbLine
 10
11.624155
 20
5.845322
 30
0.0
 11
11.624155
 21
5.849715
 31
0.0
  0
LINE
  5
19B
100
AcDbEntity
 67
     1
  8
1
  6
Continuous
 62
     7
100
AcDbLine
 10
1.820373
 20
3.901136
 30
0.0
 11
1.773746
 21
3.901136
 31
0.0
  0
LINE
  5
19C
100
AcDbEntity
 67
     1
  8
1
  6
Continuous
 62
     7
100
AcDbLine
 10
1.822643
 20
6.424366
 30
0.0
 11
1.761088
 21
6.424366
 31
0.0
  0
LINE
  5
19D
100
AcDbEntity
 67
     1
  8
1
  6
Continuous
 62
     7
100
AcDbLine
 10
4.987396
 20
4.354715
 30
0.0
 11
4.987396
 21
4.352872
 31
0.0
  0
LINE
  5
19E
100
AcDbEntity
 67
     1
  8
1
  6
Continuous
 62
     7
100
AcDbLine
 10
12.205371
 20
2.257467
 30
0.0
 11
6.526266
 21
2.257467
 31
0.0
  0
LINE
  5
19F
100
AcDbEntity
 67
     1
  8
1
  6
Continuous
 62
     7
100
AcDbLine
 10
1.697643
 20
5.897215
 30
0.0
 11
1.697643
 21
6.532367
 31
0.0
  0
LINE
  5
1A0
100
AcDbEntity
 67
     1
  8
1
  6
Continuous
 62
     7
100
AcDbLine
 10
1.571639
 20
4.985575
 30
0.0
 11
1.610802
 21
4.985507
 31
0.0
  0
LINE
  5
1A1
100
AcDbEntity
 67
     1
  8
1
  6
Continuous
 62
     7
100
AcDbLine
 10
12.19675
 20
7.101734
 30
0.0
 11
12.195146
 21
7.10264
 31
0.0
  0
LINE
  5
1A2
100
AcDbEntity
 67
     1
  8
1
  6
Continuous
 62
     7
100
AcDbLine
 10
3.859804
 20
4.354715
 30
0.0
 11
3.859804
 21
4.308088
 31
0.0
  0
LINE
  5
1A3
100
AcDbEntity
 67
     1
  8
1
  6
Continuous
 62
     7
100
AcDbLine
 10
12.211508
 20
7.127852
 30
0.0
 11
12.112427
 21
7.183837
 31
0.0
  0
LINE
  5
1A4
100
AcDbEntity
 67
     1
  8
1
  6
Continuous
 62
     7
100
AcDbLine
 10
3.447644
 20
5.897215
 30
0.0
 11
3.447644
 21
6.532367
 31
0.0
  0
LINE
  5
1A5
100
AcDbEntity
 67
     1
  8
1
  6
Continuous
 62
     7
100
AcDbLine
 10
1.820373
 20
3.917136
 30
0.0
 11
1.714033
 21
3.917136
 31
0.0
  0
LINE
  5
1A6
100
AcDbEntity
 67
     1
  8
1
  6
Continuous
 62
     7
100
AcDbLine
 10
4.873771
 20
4.977448
 30
0.0
 11
4.828771
 21
4.977448
 31
0.0
  0
LINE
  5
1A7
100
AcDbEntity
 67
     1
  8
1
  6
Continuous
 62
     7
100
AcDbLine
 10
10.599236
 20
4.144807
 30
0.0
 11
10.580193
 21
4.170147
 31
0.0
  0
LINE
  5
1A8
100
AcDbEntity
 67
     1
  8
1
  6
Continuous
 62
     7
100
AcDbLine
 10
3.322644
 20
6.428367
 30
0.0
 11
3.36927
 21
6.428367
 31
0.0
  0
LINE
  5
1A9
100
AcDbEntity
 67
     1
  8
1
  6
Continuous
 62
     7
100
AcDbLine
 10
12.217411
 20
7.1383
 30
0.0
 11
12.137825
 21
7.183269
 31
0.0
  0
LINE
  5
1AA
100
AcDbEntity
 67
     1
  8
1
  6
Continuous
 62
     7
100
AcDbLine
 10
1.571594
 20
4.959575
 30
0.0
 11
1.685397
 21
4.959376
 31
0.0
  0
LINE
  5
1AB
100
AcDbEntity
 67
     1
  8
1
  6
Continuous
 62
     7
100
AcDbLine
 10
12.209087
 20
5.920249
 30
0.0
 11
12.16924
 21
5.88367
 31
0.0
  0
LINE
  5
1AC
100
AcDbEntity
 67
     1
  8
1
  6
Continuous
 62
     7
100
AcDbLine
 10
6.526266
 20
0.974686
 30
0.0
 11
12.205371
 21
0.974686
 31
0.0
  0
LINE
  5
1AD
100
AcDbEntity
 67
     1
  8
1
  6
Continuous
 62
     7
100
AcDbLine
 10
3.324914
 20
3.933136
 30
0.0
 11
3.408862
 21
3.933136
 31
0.0
  0
LINE
  5
1AE
100
AcDbEntity
 67
     1
  8
1
  6
Continuous
 62
     7
100
AcDbLine
 10
3.905804
 20
4.354715
 30
0.0
 11
3.905804
 21
4.323016
 31
0.0
  0
LINE
  5
1AF
100
AcDbEntity
 67
     1
  8
1
  6
Continuous
 62
     7
100
AcDbLine
 10
5.624155
 20
7.424576
 30
0.0
 11
5.624155
 21
7.429482
 31
0.0
  0
LINE
  5
1B0
100
AcDbEntity
 67
     1
  8
1
  6
Continuous
 62
     7
100
AcDbLine
 10
3.322644
 20
6.394367
 30
0.0
 11
3.399127
 21
6.394367
 31
0.0
  0
LINE
  5
1B1
100
AcDbEntity
 67
     1
  8
1
  6
Continuous
 62
     7
100
AcDbLine
 10
1.697405
 20
5.42452
 30
0.0
 11
1.695373
 21
4.259767
 31
0.0
  0
LINE
  5
1B2
100
AcDbEntity
 67
     1
  8
1
  6
Continuous
 62
     7
100
AcDbLine
 10
1.820373
 20
3.895136
 30
0.0
 11
1.796138
 21
3.895136
 31
0.0
  0
LINE
  5
1B3
100
AcDbEntity
 67
     1
  8
1
  6
Continuous
 62
     7
100
AcDbLine
 10
12.203636
 20
7.113923
 30
0.0
 11
12.156543
 21
7.140532
 31
0.0
  0
LINE
  5
1B4
100
AcDbEntity
 67
     1
  8
1
  6
Continuous
 62
     7
100
AcDbLine
 10
1.822643
 20
6.430367
 30
0.0
 11
1.783481
 21
6.430367
 31
0.0
  0
LINE
  5
1B5
100
AcDbEntity
 67
     1
  8
1
  6
Continuous
 62
     7
100
AcDbLine
 10
5.025396
 20
4.354715
 30
0.0
 11
5.025396
 21
4.248375
 31
0.0
  0
LINE
  5
1B6
100
AcDbEntity
 67
     1
  8
1
  6
Continuous
 62
     7
100
AcDbLine
 10
14.476377
 20
0.974686
 30
0.0
 11
16.369932
 21
0.974686
 31
0.0
  0
LINE
  5
1B7
100
AcDbEntity
 67
     1
  8
1
  6
Continuous
 62
     7
100
AcDbLine
 10
1.57165
 20
4.991575
 30
0.0
 11
1.58842
 21
4.991546
 31
0.0
  0
LINE
  5
1B8
100
AcDbEntity
 67
     1
  8
1
  6
Continuous
 62
     7
100
AcDbLine
 10
12.104155
 20
7.191957
 30
0.0
 11
12.196507
 21
7.101304
 31
0.0
  0
LINE
  5
1B9
100
AcDbEntity
 67
     1
  8
1
  6
Continuous
 62
     7
100
AcDbLine
 10
2.803643
 20
6.103617
 30
0.0
 11
2.803643
 21
6.272367
 31
0.0
  0
LINE
  5
1BA
100
AcDbEntity
 67
     1
  8
1
  6
Continuous
 62
     7
100
AcDbLine
 10
13.31634
 20
3.639285
 30
0.0
 11
13.186437
 21
3.864285
 31
0.0
  0
LINE
  5
1BB
100
AcDbEntity
 67
     1
  8
1
  6
Continuous
 62
     7
100
AcDbLine
 10
3.871804
 20
5.724715
 30
0.0
 11
3.871804
 21
5.816126
 31
0.0
  0
LINE
  5
1BC
100
AcDbEntity
 67
     1
  8
1
  6
Continuous
 62
     7
100
AcDbLine
 10
3.322644
 20
6.434367
 30
0.0
 11
3.346878
 21
6.434367
 31
0.0
  0
LINE
  5
1BD
100
AcDbEntity
 67
     1
  8
1
  6
Continuous
 62
     7
100
AcDbLine
 10
3.387395
 20
5.703187
 30
0.0
 11
3.387448
 21
5.673054
 31
0.0
  0
LINE
  5
1BE
100
AcDbEntity
 67
     1
  8
1
  6
Continuous
 62
     7
100
AcDbLine
 10
12.220363
 20
7.143524
 30
0.0
 11
12.160273
 21
7.177477
 31
0.0
  0
LINE
  5
1BF
100
AcDbEntity
 67
     1
  8
1
  6
Continuous
 62
     7
100
AcDbLine
 10
1.571583
 20
4.953575
 30
0.0
 11
1.662995
 21
4.953415
 31
0.0
  0
LINE
  5
1C0
100
AcDbEntity
 67
     1
  8
1
  6
Continuous
 62
     7
100
AcDbLine
 10
12.213145
 20
5.915829
 30
0.0
 11
12.189794
 21
5.894393
 31
0.0
  0
LINE
  5
1C1
100
AcDbEntity
 67
     1
  8
1
  6
Continuous
 62
     7
100
AcDbLine
 10
3.324914
 20
3.939136
 30
0.0
 11
3.386469
 21
3.939136
 31
0.0
  0
LINE
  5
1C2
100
AcDbEntity
 67
     1
  8
1
  6
Continuous
 62
     7
100
AcDbLine
 10
3.911804
 20
4.354715
 30
0.0
 11
3.911804
 21
4.345408
 31
0.0
  0
LINE
  5
1C3
100
AcDbEntity
 67
     1
  8
1
  6
Continuous
 62
     7
100
AcDbLine
 10
12.208556
 20
7.122629
 30
0.0
 11
12.12897
 21
7.167598
 31
0.0
  0
LINE
  5
1C4
100
AcDbEntity
 67
     1
  8
1
  6
Continuous
 62
     7
100
AcDbLine
 10
16.369932
 20
2.488467
 30
0.0
 11
12.205371
 21
2.488467
 31
0.0
  0
LINE
  5
1C5
100
AcDbEntity
 67
     1
  8
1
  6
Continuous
 62
     7
100
AcDbLine
 10
15.021377
 20
4.578111
 30
0.0
 11
15.029535
 21
4.509743
 31
0.0
  0
LINE
  5
1C6
100
AcDbEntity
 67
     1
  8
1
  6
Continuous
 62
     7
100
AcDbLine
 10
1.820373
 20
3.889136
 30
0.0
 11
1.81853
 21
3.889136
 31
0.0
  0
LINE
  5
1C7
100
AcDbEntity
 67
     1
  8
1
  6
Continuous
 62
     7
100
AcDbLine
 10
12.187448
 20
5.943823
 30
0.0
 11
12.131104
 21
5.892101
 31
0.0
  0
LINE
  5
1C8
100
AcDbEntity
 67
     1
  8
1
  6
Continuous
 62
     7
100
AcDbLine
 10
15.346708
 20
6.74316
 30
0.0
 11
15.216805
 21
6.518159
 31
0.0
  0
LINE
  5
1C9
100
AcDbEntity
 67
     1
  8
1
  6
Continuous
 62
     7
100
AcDbLine
 10
12.229218
 20
7.159195
 30
0.0
 11
12.227613
 21
7.160101
 31
0.0
  0
LINE
  5
1CA
100
AcDbEntity
 67
     1
  8
1
  6
Continuous
 62
     7
100
AcDbLine
 10
16.369932
 20
2.257467
 30
0.0
 11
12.205371
 21
2.257467
 31
0.0
  0
LINE
  5
1CB
100
AcDbEntity
 67
     1
  8
1
  6
Continuous
 62
     7
100
AcDbLine
 10
1.571657
 20
4.995575
 30
0.0
 11
1.573499
 21
4.995572
 31
0.0
  0
LINE
  5
1CC
100
AcDbEntity
 67
     1
  8
1
  6
Continuous
 62
     7
100
AcDbLine
 10
12.192858
 20
5.93793
 30
0.0
 11
12.11452
 21
5.866017
 31
0.0
  0
LINE
  5
1CD
100
AcDbEntity
 67
     1
  8
1
  6
Continuous
 62
     7
100
AcDbLine
 10
11.624155
 20
7.194051
 30
0.0
 11
11.624155
 21
7.194228
 31
0.0
  0
LINE
  5
1CE
100
AcDbEntity
 67
     1
  8
1
  6
Continuous
 62
     7
100
AcDbLine
 10
10.58005
 20
4.130388
 30
0.0
 11
10.507196
 21
4.227332
 31
0.0
  0
LINE
  5
1CF
100
AcDbEntity
 67
     1
  8
1
  6
Continuous
 62
     7
100
AcDbLine
 10
5.049396
 20
4.354715
 30
0.0
 11
5.049396
 21
4.337945
 31
0.0
  0
LINE
  5
1D0
100
AcDbEntity
 67
     1
  8
1
  6
Continuous
 62
     7
100
AcDbLine
 10
3.865804
 20
4.354715
 30
0.0
 11
3.865804
 21
4.285696
 31
0.0
  0
LINE
  5
1D1
100
AcDbEntity
 67
     1
  8
1
  6
Continuous
 62
     7
100
AcDbLine
 10
3.861804
 20
5.724715
 30
0.0
 11
3.861804
 21
5.778806
 31
0.0
  0
LINE
  5
1D2
100
AcDbEntity
 67
     1
  8
1
  6
Continuous
 62
     7
100
AcDbLine
 10
15.552151
 20
8.946499
 30
0.0
 11
11.624155
 21
8.946499
 31
0.0
  0
LINE
  5
1D3
100
AcDbEntity
 67
     1
  8
1
  6
Continuous
 62
     7
100
AcDbLine
 10
5.624155
 20
5.713021
 30
0.0
 11
5.624155
 21
5.735983
 31
0.0
  0
LINE
  5
1D4
100
AcDbEntity
 67
     1
  8
1
  6
Continuous
 62
     7
100
AcDbLine
 10
12.225282
 20
7.15223
 30
0.0
 11
12.197684
 21
7.167824
 31
0.0
  0
LINE
  5
1D5
100
AcDbEntity
 67
     1
  8
1
  6
Continuous
 62
     7
100
AcDbLine
 10
5.05389
 20
5.61143
 30
0.0
 11
5.020396
 21
5.73643
 31
0.0
  0
LINE
  5
1D6
100
AcDbEntity
 67
     1
  8
1
  6
Continuous
 62
     7
100
AcDbLine
 10
11.62403
 20
5.66398
 30
0.0
 11
5.624155
 21
5.66398
 31
0.0
  0
LINE
  5
1D7
100
AcDbEntity
 67
     1
  8
1
  6
Continuous
 62
     7
100
AcDbLine
 10
5.624155
 20
5.435871
 30
0.0
 11
5.624155
 21
5.445526
 31
0.0
  0
LINE
  5
1D8
100
AcDbEntity
 67
     1
  8
1
  6
Continuous
 62
     7
100
AcDbLine
 10
1.571566
 20
4.943575
 30
0.0
 11
1.625657
 21
4.94348
 31
0.0
  0
LINE
  5
1D9
100
AcDbEntity
 67
     1
  8
1
  6
Continuous
 62
     7
100
AcDbLine
 10
1.891558
 20
4.939017
 30
0.0
 11
1.852396
 21
4.939085
 31
0.0
  0
LINE
  5
1DA
100
AcDbEntity
 67
     1
  8
1
  6
Continuous
 62
     7
100
AcDbLine
 10
12.218555
 20
5.909936
 30
0.0
 11
12.217197
 21
5.90869
 31
0.0
  0
LINE
  5
1DB
100
AcDbEntity
 67
     1
  8
1
  6
Continuous
 62
     7
100
AcDbLine
 10
3.449914
 20
4.197267
 30
0.0
 11
3.449914
 21
3.797136
 31
0.0
  0
LINE
  5
1DC
100
AcDbEntity
 67
     1
  8
1
  6
Continuous
 62
     7
100
AcDbLine
 10
3.324914
 20
3.949136
 30
0.0
 11
3.349149
 21
3.949136
 31
0.0
  0
LINE
  5
1DD
100
AcDbEntity
 67
     1
  8
1
  6
Continuous
 62
     7
100
AcDbLine
 10
16.083632
 20
8.64384
 30
0.0
 11
15.953727
 21
8.86884
 31
0.0
  0
LINE
  5
1DE
100
AcDbEntity
 67
     1
  8
1
  6
Continuous
 62
     7
100
AcDbLine
 10
3.880804
 20
4.229715
 30
0.0
 11
3.914298
 21
4.354715
 31
0.0
  0
LINE
  5
1DF
100
AcDbEntity
 67
     1
  8
1
  6
Continuous
 62
     7
100
AcDbLine
 10
5.013396
 20
5.61143
 30
0.0
 11
5.013396
 21
5.710306
 31
0.0
  0
LINE
  5
1E0
100
AcDbEntity
 67
     1
  8
1
  6
Continuous
 62
     7
100
AcDbLine
 10
15.129943
 20
4.909788
 30
0.0
 11
15.092886
 21
4.844496
 31
0.0
  0
LINE
  5
1E1
100
AcDbEntity
 67
     1
  8
1
  6
Continuous
 62
     7
100
AcDbLine
 10
3.374601
 20
5.617998
 30
0.0
 11
3.315653
 21
5.610237
 31
0.0
  0
LINE
  5
1E2
100
AcDbEntity
 67
     1
  8
1
  6
Continuous
 62
     7
100
AcDbLine
 10
1.822643
 20
6.404366
 30
0.0
 11
1.70884
 21
6.404366
 31
0.0
  0
LINE
  5
1E3
100
AcDbEntity
 67
     1
  8
1
  6
Continuous
 62
     7
100
AcDbLine
 10
5.041396
 20
4.354715
 30
0.0
 11
5.041396
 21
4.308088
 31
0.0
  0
LINE
  5
1E4
100
AcDbEntity
 67
     1
  8
1
  6
Continuous
 62
     7
100
AcDbLine
 10
15.552151
 20
8.946499
 30
0.0
 11
15.603073
 21
8.886787
 31
0.0
  0
LINE
  5
1E5
100
AcDbEntity
 67
     1
  8
1
  6
Continuous
 62
     7
100
AcDbLine
 10
1.891604
 20
4.965016
 30
0.0
 11
1.7778
 21
4.965215
 31
0.0
  0
LINE
  5
1E6
100
AcDbEntity
 67
     1
  8
1
  6
Continuous
 62
     7
100
AcDbLine
 10
12.186095
 20
5.945296
 30
0.0
 11
12.13525
 21
5.898622
 31
0.0
  0
LINE
  5
1E7
100
AcDbEntity
 67
     1
  8
1
  6
Continuous
 62
     7
100
AcDbLine
 10
3.324914
 20
3.915136
 30
0.0
 11
3.42379
 21
3.915136
 31
0.0
  0
LINE
  5
1E8
100
AcDbEntity
 67
     1
  8
1
  6
Continuous
 62
     7
100
AcDbLine
 10
3.855804
 20
5.724715
 30
0.0
 11
3.855804
 21
5.756413
 31
0.0
  0
LINE
  5
1E9
100
AcDbEntity
 67
     1
  8
1
  6
Continuous
 62
     7
100
AcDbLine
 10
5.624155
 20
5.735983
 30
0.0
 11
5.624155
 21
5.736318
 31
0.0
  0
LINE
  5
1EA
100
AcDbEntity
 67
     1
  8
1
  6
Continuous
 62
     7
100
AcDbLine
 10
5.021396
 20
5.61143
 30
0.0
 11
5.021396
 21
5.732698
 31
0.0
  0
LINE
  5
1EB
100
AcDbEntity
 67
     1
  8
1
  6
Continuous
 62
     7
100
AcDbLine
 10
3.377927
 20
5.398397
 30
0.0
 11
3.379816
 21
4.31582
 31
0.0
  0
LINE
  5
1EC
100
AcDbEntity
 67
     1
  8
1
  6
Continuous
 62
     7
100
AcDbLine
 10
5.019396
 20
4.354715
 30
0.0
 11
5.019396
 21
4.233447
 31
0.0
  0
LINE
  5
1ED
100
AcDbEntity
 67
     1
  8
1
  6
Continuous
 62
     7
100
AcDbLine
 10
15.684751
 20
8.766099
 30
0.0
 11
15.714628
 21
8.705066
 31
0.0
  0
LINE
  5
1EE
100
AcDbEntity
 67
     1
  8
1
  6
Continuous
 62
     7
100
AcDbLine
 10
1.891548
 20
4.933017
 30
0.0
 11
1.874777
 21
4.933046
 31
0.0
  0
LINE
  5
1EF
100
AcDbEntity
 67
     1
  8
1
  6
Continuous
 62
     7
100
AcDbLine
 10
2.803643
 20
3.618386
 30
0.0
 11
2.803643
 21
3.787136
 31
0.0
  0
LINE
  5
1F0
100
AcDbEntity
 67
     1
  8
1
  6
Continuous
 62
     7
100
AcDbLine
 10
3.324914
 20
3.955136
 30
0.0
 11
3.326757
 21
3.955136
 31
0.0
  0
LINE
  5
1F1
100
AcDbEntity
 67
     1
  8
1
  6
Continuous
 62
     7
100
AcDbLine
 10
5.007396
 20
5.61143
 30
0.0
 11
5.007396
 21
5.687913
 31
0.0
  0
LINE
  5
1F2
100
AcDbEntity
 67
     1
  8
1
  6
Continuous
 62
     7
100
AcDbLine
 10
15.714628
 20
8.705066
 30
0.0
 11
15.736613
 21
8.643537
 31
0.0
  0
LINE
  5
1F3
100
AcDbEntity
 67
     1
  8
1
  6
Continuous
 62
     7
100
AcDbLine
 10
15.256542
 20
5.104613
 30
0.0
 11
15.213699
 21
5.039715
 31
0.0
  0
LINE
  5
1F4
100
AcDbEntity
 67
     1
  8
1
  6
Continuous
 62
     7
100
AcDbLine
 10
12.205371
 20
1.741555
 30
0.0
 11
16.369932
 21
1.741555
 31
0.0
  0
LINE
  5
1F5
100
AcDbEntity
 67
     1
  8
1
  6
Continuous
 62
     7
100
AcDbLine
 10
1.822643
 20
6.398366
 30
0.0
 11
1.731232
 21
6.398366
 31
0.0
  0
LINE
  5
1F6
100
AcDbEntity
 67
     1
  8
1
  6
Continuous
 62
     7
100
AcDbLine
 10
5.047396
 20
4.354715
 30
0.0
 11
5.047396
 21
4.33048
 31
0.0
  0
LINE
  5
1F7
100
AcDbEntity
 67
     1
  8
1
  6
Continuous
 62
     7
100
AcDbLine
 10
15.750268
 20
8.581485
 30
0.0
 11
15.755153
 21
8.518883
 31
0.0
  0
LINE
  5
1F8
100
AcDbEntity
 67
     1
  8
1
  6
Continuous
 62
     7
100
AcDbLine
 10
1.891614
 20
4.971016
 30
0.0
 11
1.800203
 21
4.971176
 31
0.0
  0
LINE
  5
1F9
100
AcDbEntity
 67
     1
  8
1
  6
Continuous
 62
     7
100
AcDbLine
 10
3.899804
 20
5.724715
 30
0.0
 11
3.899804
 21
5.778806
 31
0.0
  0
LINE
  5
1FA
100
AcDbEntity
 67
     1
  8
1
  6
Continuous
 62
     7
100
AcDbLine
 10
3.324914
 20
3.909136
 30
0.0
 11
3.401398
 21
3.909136
 31
0.0
  0
LINE
  5
1FB
100
AcDbEntity
 67
     1
  8
1
  6
Continuous
 62
     7
100
AcDbLine
 10
10.589643
 20
4.137598
 30
0.0
 11
10.543694
 21
4.19874
 31
0.0
  0
LINE
  5
1FC
100
AcDbEntity
 67
     1
  8
1
  6
Continuous
 62
     7
100
AcDbLine
 10
15.755153
 20
8.518883
 30
0.0
 11
15.751123
 21
8.45572
 31
0.0
  0
LINE
  5
1FD
100
AcDbEntity
 67
     1
  8
1
  6
Continuous
 62
     7
100
AcDbLine
 10
3.853804
 20
4.354715
 30
0.0
 11
3.853804
 21
4.33048
 31
0.0
  0
LINE
  5
1FE
100
AcDbEntity
 67
     1
  8
1
  6
Continuous
 62
     7
100
AcDbLine
 10
3.849804
 20
5.724715
 30
0.0
 11
3.849804
 21
5.734021
 31
0.0
  0
LINE
  5
1FF
100
AcDbEntity
 67
     1
  8
1
  6
Continuous
 62
     7
100
AcDbLine
 10
15.216805
 20
6.518159
 30
0.0
 11
15.476612
 21
6.518159
 31
0.0
  0
LINE
  5
200
100
AcDbEntity
 67
     1
  8
1
  6
Continuous
 62
     7
100
AcDbLine
 10
1.822643
 20
6.376367
 30
0.0
 11
1.813337
 21
6.376367
 31
0.0
  0
LINE
  5
201
100
AcDbEntity
 67
     1
  8
1
  6
Continuous
 62
     7
100
AcDbLine
 10
11.624155
 20
8.929228
 30
0.0
 11
11.624155
 21
7.209228
 31
0.0
  0
LINE
  5
202
100
AcDbEntity
 67
     1
  8
1
  6
Continuous
 62
     7
100
AcDbLine
 10
5.624155
 20
4.233743
 30
0.0
 11
5.624155
 21
4.229715
 31
0.0
  0
LINE
  5
203
100
AcDbEntity
 67
     1
  8
1
  6
Continuous
 62
     7
100
AcDbLine
 10
5.027396
 20
5.61143
 30
0.0
 11
5.027396
 21
5.710306
 31
0.0
  0
LINE
  5
204
100
AcDbEntity
 67
     1
  8
1
  6
Continuous
 62
     7
100
AcDbLine
 10
12.212491
 20
7.129594
 30
0.0
 11
12.106912
 21
7.18925
 31
0.0
  0
LINE
  5
205
100
AcDbEntity
 67
     1
  8
1
  6
Continuous
 62
     7
100
AcDbLine
 10
5.013396
 20
4.354715
 30
0.0
 11
5.013396
 21
4.255839
 31
0.0
  0
LINE
  5
206
100
AcDbEntity
 67
     1
  8
1
  6
Continuous
 62
     7
100
AcDbLine
 10
1.571545
 20
4.931575
 30
0.0
 11
1.580851
 21
4.931559
 31
0.0
  0
LINE
  5
207
100
AcDbEntity
 67
     1
  8
1
  6
Continuous
 62
     7
100
AcDbLine
 10
12.209539
 20
7.12437
 30
0.0
 11
12.123456
 21
7.173011
 31
0.0
  0
LINE
  5
208
100
AcDbEntity
 67
     1
  8
1
  6
Continuous
 62
     7
100
AcDbLine
 10
1.891541
 20
4.929017
 30
0.0
 11
1.889699
 21
4.92902
 31
0.0
  0
LINE
  5
209
100
AcDbEntity
 67
     1
  8
1
  6
Continuous
 62
     7
100
AcDbLine
 10
3.324914
 20
3.955629
 30
0.0
 11
3.324914
 21
3.888642
 31
0.0
  0
LINE
  5
20A
100
AcDbEntity
 67
     1
  8
1
  6
Continuous
 62
     7
100
AcDbLine
 10
10.552476
 20
4.109665
 30
0.0
 11
10.606027
 21
4.149909
 31
0.0
  0
LINE
  5
20B
100
AcDbEntity
 67
     1
  8
1
  6
Continuous
 62
     7
100
AcDbLine
 10
5.001396
 20
5.61143
 30
0.0
 11
5.001396
 21
5.665521
 31
0.0
  0
LINE
  5
20C
100
AcDbEntity
 67
     1
  8
1
  6
Continuous
 62
     7
100
AcDbLine
 10
15.603073
 20
8.886787
 30
0.0
 11
15.64742
 21
8.826663
 31
0.0
  0
LINE
  5
20D
100
AcDbEntity
 67
     1
  8
1
  6
Continuous
 62
     7
100
AcDbLine
 10
3.891804
 20
5.724715
 30
0.0
 11
3.891804
 21
5.808662
 31
0.0
  0
LINE
  5
20E
100
AcDbEntity
 67
     1
  8
1
  6
Continuous
 62
     7
100
AcDbLine
 10
1.757643
 20
5.774715
 30
0.0
 11
1.757643
 21
5.63287
 31
0.0
  0
LINE
  5
20F
100
AcDbEntity
 67
     1
  8
1
  6
Continuous
 62
     7
100
AcDbLine
 10
1.820373
 20
3.939136
 30
0.0
 11
1.758817
 21
3.939136
 31
0.0
  0
LINE
  5
210
100
AcDbEntity
 67
     1
  8
1
  6
Continuous
 62
     7
100
AcDbLine
 10
12.205371
 20
1.483599
 30
0.0
 11
6.526266
 21
1.483599
 31
0.0
  0
LINE
  5
211
100
AcDbEntity
 67
     1
  8
1
  6
Continuous
 62
     7
100
AcDbLine
 10
1.822643
 20
6.392366
 30
0.0
 11
1.753624
 21
6.392366
 31
0.0
  0
LINE
  5
212
100
AcDbEntity
 67
     1
  8
1
  6
Continuous
 62
     7
100
AcDbLine
 10
5.053396
 20
4.354715
 30
0.0
 11
5.053396
 21
4.352872
 31
0.0
  0
LINE
  5
213
100
AcDbEntity
 67
     1
  8
1
  6
Continuous
 62
     7
100
AcDbLine
 10
1.891625
 20
4.977016
 30
0.0
 11
1.822606
 21
4.977137
 31
0.0
  0
LINE
  5
214
100
AcDbEntity
 67
     1
  8
1
  6
Continuous
 62
     7
100
AcDbLine
 10
12.17798
 20
5.954136
 30
0.0
 11
12.160127
 21
5.937747
 31
0.0
  0
LINE
  5
215
100
AcDbEntity
 67
     1
  8
1
  6
Continuous
 62
     7
100
AcDbLine
 10
3.847804
 20
4.354715
 30
0.0
 11
3.847804
 21
4.352872
 31
0.0
  0
LINE
  5
216
100
AcDbEntity
 67
     1
  8
1
  6
Continuous
 62
     7
100
AcDbLine
 10
15.6389
 20
8.134125
 30
0.0
 11
15.607247
 21
8.069228
 31
0.0
  0
LINE
  5
217
100
AcDbEntity
 67
     1
  8
1
  6
Continuous
 62
     7
100
AcDbLine
 10
13.624155
 20
7.19399
 30
0.0
 11
13.624155
 21
7.194051
 31
0.0
  0
LINE
  5
218
100
AcDbEntity
 67
     1
  8
1
  6
Continuous
 62
     7
100
AcDbLine
 10
11.624155
 20
7.198621
 30
0.0
 11
11.624155
 21
7.209228
 31
0.0
  0
LINE
  5
219
100
AcDbEntity
 67
     1
  8
1
  6
Continuous
 62
     7
100
AcDbLine
 10
15.401667
 20
5.42452
 30
0.0
 11
11.624155
 21
5.42452
 31
0.0
  0
LINE
  5
21A
100
AcDbEntity
 67
     1
  8
1
  6
Continuous
 62
     7
100
AcDbLine
 10
5.033396
 20
5.61143
 30
0.0
 11
5.033396
 21
5.687913
 31
0.0
  0
LINE
  5
21B
100
AcDbEntity
 67
     1
  8
1
  6
Continuous
 62
     7
100
AcDbLine
 10
16.039162
 20
2.566863
 30
0.0
 11
16.298969
 21
2.566863
 31
0.0
  0
LINE
  5
21C
100
AcDbEntity
 67
     1
  8
1
  6
Continuous
 62
     7
100
AcDbLine
 10
3.322644
 20
6.408367
 30
0.0
 11
3.443911
 21
6.408367
 31
0.0
  0
LINE
  5
21D
100
AcDbEntity
 67
     1
  8
1
  6
Continuous
 62
     7
100
AcDbLine
 10
1.820373
 20
3.933136
 30
0.0
 11
1.736425
 21
3.933136
 31
0.0
  0
LINE
  5
21E
100
AcDbEntity
 67
     1
  8
1
  6
Continuous
 62
     7
100
AcDbLine
 10
5.007396
 20
4.354715
 30
0.0
 11
5.007396
 21
4.278232
 31
0.0
  0
LINE
  5
21F
100
AcDbEntity
 67
     1
  8
1
  6
Continuous
 62
     7
100
AcDbLine
 10
4.993396
 20
4.354715
 30
0.0
 11
4.993396
 21
4.33048
 31
0.0
  0
LINE
  5
220
100
AcDbEntity
 67
     1
  8
1
  6
Continuous
 62
     7
100
AcDbLine
 10
1.571601
 20
4.963575
 30
0.0
 11
1.692868
 21
4.963364
 31
0.0
  0
LINE
  5
221
100
AcDbEntity
 67
     1
  8
1
  6
Continuous
 62
     7
100
AcDbLine
 10
1.766599
 20
4.962235
 30
0.0
 11
1.89154
 21
4.928523
 31
0.0
  0
LINE
  5
222
100
AcDbEntity
 67
     1
  8
1
  6
Continuous
 62
     7
100
AcDbLine
 10
1.820373
 20
3.925136
 30
0.0
 11
1.706569
 21
3.925136
 31
0.0
  0
LINE
  5
223
100
AcDbEntity
 67
     1
  8
1
  6
Continuous
 62
     7
100
AcDbLine
 10
3.897804
 20
5.724715
 30
0.0
 11
3.897804
 21
5.78627
 31
0.0
  0
LINE
  5
224
100
AcDbEntity
 67
     1
  8
1
  6
Continuous
 62
     7
100
AcDbLine
 10
4.995396
 20
5.61143
 30
0.0
 11
4.995396
 21
5.643128
 31
0.0
  0
LINE
  5
225
100
AcDbEntity
 67
     1
  8
1
  6
Continuous
 62
     7
100
AcDbLine
 10
5.624155
 20
8.935833
 30
0.0
 11
5.624155
 21
8.884031
 31
0.0
  0
LINE
  5
226
100
AcDbEntity
 67
     1
  8
1
  6
Continuous
 62
     7
100
AcDbLine
 10
13.624155
 20
5.42452
 30
0.0
 11
5.624155
 21
5.42452
 31
0.0
  0
LINE
  5
227
100
AcDbEntity
 67
     1
  8
1
  6
Continuous
 62
     7
100
AcDbLine
 10
1.822643
 20
6.386367
 30
0.0
 11
1.776016
 21
6.386367
 31
0.0
  0
LINE
  5
228
100
AcDbEntity
 67
     1
  8
1
  6
Continuous
 62
     7
100
AcDbLine
 10
16.369932
 20
10.641915
 30
0.0
 11
16.369932
 21
0.440085
 31
0.0
  0
LINE
  5
229
100
AcDbEntity
 67
     1
  8
1
  6
Continuous
 62
     7
100
AcDbLine
 10
3.880804
 20
4.229715
 30
0.0
 11
3.880804
 21
4.80284
 31
0.0
  0
LINE
  5
22A
100
AcDbEntity
 67
     1
  8
1
  6
Continuous
 62
     7
100
AcDbLine
 10
1.891635
 20
4.983016
 30
0.0
 11
1.845008
 21
4.983098
 31
0.0
  0
LINE
  5
22B
100
AcDbEntity
 67
     1
  8
1
  6
Continuous
 62
     7
100
AcDbLine
 10
12.173923
 20
5.958556
 30
0.0
 11
12.172565
 21
5.95731
 31
0.0
  0
LINE
  5
22C
100
AcDbEntity
 67
     1
  8
1
  6
Continuous
 62
     7
100
AcDbLine
 10
7.606014
 20
0.440085
 30
0.0
 11
7.606014
 21
2.257467
 31
0.0
  0
LINE
  5
22D
100
AcDbEntity
 67
     1
  8
1
  6
Continuous
 62
     7
100
AcDbLine
 10
5.001396
 20
4.354715
 30
0.0
 11
5.001396
 21
4.300624
 31
0.0
  0
LINE
  5
22E
100
AcDbEntity
 67
     1
  8
1
  6
Continuous
 62
     7
100
AcDbLine
 10
3.322644
 20
6.402367
 30
0.0
 11
3.428983
 21
6.402367
 31
0.0
  0
LINE
  5
22F
100
AcDbEntity
 67
     1
  8
1
  6
Continuous
 62
     7
100
AcDbLine
 10
13.624155
 20
5.445526
 30
0.0
 11
5.624155
 21
5.445526
 31
0.0
  0
LINE
  5
230
100
AcDbEntity
 67
     1
  8
1
  6
Continuous
 62
     7
100
AcDbLine
 10
3.909804
 20
4.354715
 30
0.0
 11
3.909804
 21
4.337945
 31
0.0
  0
LINE
  5
231
100
AcDbEntity
 67
     1
  8
1
  6
Continuous
 62
     7
100
AcDbLine
 10
12.228233
 20
7.157454
 30
0.0
 11
12.220131
 21
7.162032
 31
0.0
  0
LINE
  5
232
100
AcDbEntity
 67
     1
  8
1
  6
Continuous
 62
     7
100
AcDbLine
 10
1.820373
 20
3.937136
 30
0.0
 11
1.751353
 21
3.937136
 31
0.0
  0
LINE
  5
233
100
AcDbEntity
 67
     1
  8
1
  6
Continuous
 62
     7
100
AcDbLine
 10
0.813973
 20
1.56286
 30
0.0
 11
0.684069
 21
1.33786
 31
0.0
  0
LINE
  5
234
100
AcDbEntity
 67
     1
  8
1
  6
Continuous
 62
     7
100
AcDbLine
 10
11.624155
 20
7.194228
 30
0.0
 11
11.624155
 21
7.198621
 31
0.0
  0
LINE
  5
235
100
AcDbEntity
 67
     1
  8
1
  6
Continuous
 62
     7
100
AcDbLine
 10
3.897804
 20
4.354715
 30
0.0
 11
3.897804
 21
4.29316
 31
0.0
  0
LINE
  5
236
100
AcDbEntity
 67
     1
  8
1
  6
Continuous
 62
     7
100
AcDbLine
 10
15.406023
 20
5.501319
 30
0.0
 11
15.403253
 21
5.433695
 31
0.0
  0
LINE
  5
237
100
AcDbEntity
 67
     1
  8
1
  6
Continuous
 62
     7
100
AcDbLine
 10
15.463371
 20
7.682735
 30
0.0
 11
15.459341
 21
7.619573
 31
0.0
  0
LINE
  5
238
100
AcDbEntity
 67
     1
  8
1
  6
Continuous
 62
     7
100
AcDbLine
 10
1.820373
 20
3.943136
 30
0.0
 11
1.773746
 21
3.943136
 31
0.0
  0
LINE
  5
239
100
AcDbEntity
 67
     1
  8
1
  6
Continuous
 62
     7
100
AcDbLine
 10
10.552871
 20
4.109962
 30
0.0
 11
10.551764
 21
4.111434
 31
0.0
  0
LINE
  5
23A
100
AcDbEntity
 67
     1
  8
1
  6
Continuous
 62
     7
100
AcDbLine
 10
1.891593
 20
4.959017
 30
0.0
 11
1.77779
 21
4.959215
 31
0.0
  0
LINE
  5
23B
100
AcDbEntity
 67
     1
  8
1
  6
Continuous
 62
     7
100
AcDbLine
 10
12.219378
 20
7.141782
 30
0.0
 11
12.15279
 21
7.179408
 31
0.0
  0
LINE
  5
23C
100
AcDbEntity
 67
     1
  8
1
  6
Continuous
 62
     7
100
AcDbLine
 10
15.517551
 20
7.874866
 30
0.0
 11
15.493792
 21
7.810465
 31
0.0
  0
LINE
  5
23D
100
AcDbEntity
 67
     1
  8
1
  6
Continuous
 62
     7
100
AcDbLine
 10
11.624155
 20
5.834715
 30
0.0
 11
11.624155
 21
5.845322
 31
0.0
  0
LINE
  5
23E
100
AcDbEntity
 67
     1
  8
1
  6
Continuous
 62
     7
100
AcDbLine
 10
12.216427
 20
7.136559
 30
0.0
 11
12.130342
 21
7.1852
 31
0.0
  0
LINE
  5
23F
100
AcDbEntity
 67
     1
  8
1
  6
Continuous
 62
     7
100
AcDbLine
 10
12.977928
 20
0.440085
 30
0.0
 11
12.977928
 21
1.227643
 31
0.0
  0
LINE
  5
240
100
AcDbEntity
 67
     1
  8
1
  6
Continuous
 62
     7
100
AcDbLine
 10
15.365784
 20
5.300619
 30
0.0
 11
15.334513
 21
5.234934
 31
0.0
  0
LINE
  5
241
100
AcDbEntity
 67
     1
  8
1
  6
Continuous
 62
     7
100
AcDbLine
 10
10.572057
 20
4.124381
 30
0.0
 11
10.517138
 21
4.197457
 31
0.0
  0
LINE
  5
242
100
AcDbEntity
 67
     1
  8
1
  6
Continuous
 62
     7
100
AcDbLine
 10
3.324914
 20
3.897136
 30
0.0
 11
3.356613
 21
3.897136
 31
0.0
  0
LINE
  5
243
100
AcDbEntity
 67
     1
  8
1
  6
Continuous
 62
     7
100
AcDbLine
 10
15.476612
 20
6.518159
 30
0.0
 11
15.346708
 21
6.74316
 31
0.0
  0
LINE
  5
244
100
AcDbEntity
 67
     1
  8
1
  6
Continuous
 62
     7
100
AcDbLine
 10
10.576853
 20
4.127985
 30
0.0
 11
10.508483
 21
4.218962
 31
0.0
  0
LINE
  5
245
100
AcDbEntity
 67
     1
  8
1
  6
Continuous
 62
     7
100
AcDbLine
 10
3.324914
 20
3.903136
 30
0.0
 11
3.379005
 21
3.903136
 31
0.0
  0
LINE
  5
246
100
AcDbEntity
 67
     1
  8
1
  6
Continuous
 62
     7
100
AcDbLine
 10
13.624155
 20
8.944466
 30
0.0
 11
5.624155
 21
8.944466
 31
0.0
  0
LINE
  5
247
100
AcDbEntity
 67
     1
  8
1
  6
Continuous
 62
     7
100
AcDbLine
 10
15.545258
 20
7.939516
 30
0.0
 11
15.517551
 21
7.874866
 31
0.0
  0
LINE
  5
248
100
AcDbEntity
 67
     1
  8
1
  6
Continuous
 62
     7
100
AcDbLine
 10
11.624155
 20
8.944466
 30
0.0
 11
11.624155
 21
8.946499
 31
0.0
  0
LINE
  5
249
100
AcDbEntity
 67
     1
  8
1
  6
Continuous
 62
     7
100
AcDbLine
 10
3.322644
 20
6.376367
 30
0.0
 11
3.33195
 21
6.376367
 31
0.0
  0
LINE
  5
24A
100
AcDbEntity
 67
     1
  8
1
  6
Continuous
 62
     7
100
AcDbLine
 10
4.987396
 20
5.61143
 30
0.0
 11
4.987396
 21
5.613272
 31
0.0
  0
LINE
  5
24B
100
AcDbEntity
 67
     1
  8
1
  6
Continuous
 62
     7
100
AcDbLine
 10
1.571569
 20
4.945575
 30
0.0
 11
1.633124
 21
4.945467
 31
0.0
  0
LINE
  5
24C
100
AcDbEntity
 67
     1
  8
1
  6
Continuous
 62
     7
100
AcDbLine
 10
5.624155
 20
8.942214
 30
0.0
 11
5.624155
 21
8.935833
 31
0.0
  0
LINE
  5
24D
100
AcDbEntity
 67
     1
  8
1
  6
Continuous
 62
     7
100
AcDbLine
 10
15.751123
 20
8.45572
 30
0.0
 11
15.739202
 21
8.392062
 31
0.0
  0
LINE
  5
24E
100
AcDbEntity
 67
     1
  8
1
  6
Continuous
 62
     7
100
AcDbLine
 10
1.772643
 20
5.789715
 30
0.0
 11
3.372643
 21
5.789715
 31
0.0
  0
LINE
  5
24F
100
AcDbEntity
 67
     1
  8
1
  6
Continuous
 62
     7
100
AcDbLine
 10
10.600836
 20
4.146008
 30
0.0
 11
10.586276
 21
4.165382
 31
0.0
  0
LINE
  5
250
100
AcDbEntity
 67
     1
  8
1
  6
Continuous
 62
     7
100
AcDbLine
 10
12.211793
 20
5.917303
 30
0.0
 11
12.182942
 21
5.890819
 31
0.0
  0
LINE
  5
251
100
AcDbEntity
 67
     1
  8
1
  6
Continuous
 62
     7
100
AcDbLine
 10
13.624155
 20
8.944405
 30
0.0
 11
13.624155
 21
8.944228
 31
0.0
  0
LINE
  5
252
100
AcDbEntity
 67
     1
  8
1
  6
Continuous
 62
     7
100
AcDbLine
 10
12.205371
 20
1.994511
 30
0.0
 11
6.526266
 21
1.994511
 31
0.0
  0
LINE
  5
253
100
AcDbEntity
 67
     1
  8
1
  6
Continuous
 62
     7
100
AcDbLine
 10
1.571559
 20
4.939575
 30
0.0
 11
1.610722
 21
4.939507
 31
0.0
  0
LINE
  5
254
100
AcDbEntity
 67
     1
  8
1
  6
Continuous
 62
     7
100
AcDbLine
 10
10.596039
 20
4.142404
 30
0.0
 11
10.568027
 21
4.179678
 31
0.0
  0
LINE
  5
255
100
AcDbEntity
 67
     1
  8
1
  6
Continuous
 62
     7
100
AcDbLine
 10
3.324914
 20
3.921136
 30
0.0
 11
3.446182
 21
3.921136
 31
0.0
  0
LINE
  5
256
100
AcDbEntity
 67
     1
  8
1
  6
Continuous
 62
     7
100
AcDbLine
 10
10.591243
 20
4.138799
 30
0.0
 11
10.549778
 21
4.193974
 31
0.0
  0
LINE
  5
257
100
AcDbEntity
 67
     1
  8
1
  6
Continuous
 62
     7
100
AcDbLine
 10
15.567217
 20
8.929228
 30
0.0
 11
11.624155
 21
8.929228
 31
0.0
  0
LINE
  5
258
100
AcDbEntity
 67
     1
  8
1
  6
Continuous
 62
     7
100
AcDbLine
 10
13.624155
 20
4.229715
 30
0.0
 11
5.624155
 21
4.229715
 31
0.0
  0
LINE
  5
259
100
AcDbEntity
 67
     1
  8
1
  6
Continuous
 62
     7
100
AcDbLine
 10
5.025396
 20
5.61143
 30
0.0
 11
5.025396
 21
5.71777
 31
0.0
  0
LINE
  5
25A
100
AcDbEntity
 67
     1
  8
1
  6
Continuous
 62
     7
100
AcDbLine
 10
11.62403
 20
8.875699
 30
0.0
 11
5.624155
 21
8.875699
 31
0.0
  0
LINE
  5
25B
100
AcDbEntity
 67
     1
  8
1
  6
Continuous
 62
     7
100
AcDbLine
 10
10.586446
 20
4.135194
 30
0.0
 11
10.531528
 21
4.208271
 31
0.0
  0
LINE
  5
25C
100
AcDbEntity
 67
     1
  8
1
  6
Continuous
 62
     7
100
AcDbLine
 10
10.606027
 20
4.149909
 30
0.0
 11
10.504155
 21
4.229715
 31
0.0
  0
LINE
  5
25D
100
AcDbEntity
 67
     1
  8
1
  6
Continuous
 62
     7
100
AcDbLine
 10
1.891621
 20
4.975017
 30
0.0
 11
1.815138
 21
4.97515
 31
0.0
  0
LINE
  5
25E
100
AcDbEntity
 67
     1
  8
1
  6
Continuous
 62
     7
100
AcDbLine
 10
1.747328
 20
4.317207
 30
0.0
 11
1.765471
 21
4.31582
 31
0.0
  0
LINE
  5
25F
100
AcDbEntity
 67
     1
  8
1
  6
Continuous
 62
     7
100
AcDbLine
 10
5.624155
 20
5.42452
 30
0.0
 11
5.624155
 21
4.259767
 31
0.0
  0
LINE
  5
260
100
AcDbEntity
 67
     1
  8
1
  6
Continuous
 62
     7
100
AcDbLine
 10
15.967458
 20
0.974686
 30
0.0
 11
15.967458
 21
0.440085
 31
0.0
  0
LINE
  5
261
100
AcDbEntity
 67
     1
  8
1
  6
Continuous
 62
     7
100
AcDbLine
 10
12.20462
 20
7.115664
 30
0.0
 11
12.151029
 21
7.145945
 31
0.0
  0
LINE
  5
262
100
AcDbEntity
 67
     1
  8
1
  6
Continuous
 62
     7
100
AcDbLine
 10
11.62403
 20
7.394324
 30
0.0
 11
5.624155
 21
7.394324
 31
0.0
  0
LINE
  5
263
100
AcDbEntity
 67
     1
  8
1
  6
Continuous
 62
     7
100
AcDbLine
 10
5.624155
 20
5.42452
 30
0.0
 11
5.624155
 21
5.435871
 31
0.0
  0
LINE
  5
264
100
AcDbEntity
 67
     1
  8
1
  6
Continuous
 62
     7
100
AcDbLine
 10
1.822643
 20
6.382367
 30
0.0
 11
1.790945
 21
6.382367
 31
0.0
  0
LINE
  5
265
100
AcDbEntity
 67
     1
  8
1
  6
Continuous
 62
     7
100
AcDbLine
 10
1.891642
 20
4.987017
 30
0.0
 11
1.859944
 21
4.987072
 31
0.0
  0
LINE
  5
266
100
AcDbEntity
 67
     1
  8
1
  6
Continuous
 62
     7
100
AcDbLine
 10
3.887804
 20
4.354715
 30
0.0
 11
3.887804
 21
4.255839
 31
0.0
  0
LINE
  5
267
100
AcDbEntity
 67
     1
  8
1
  6
Continuous
 62
     7
100
AcDbLine
 10
1.820373
 20
3.913136
 30
0.0
 11
1.728961
 21
3.913136
 31
0.0
  0
LINE
  5
268
100
AcDbEntity
 67
     1
  8
1
  6
Continuous
 62
     7
100
AcDbLine
 10
1.76736
 20
5.398397
 30
0.0
 11
1.765471
 21
4.31582
 31
0.0
  0
LINE
  5
269
100
AcDbEntity
 67
     1
  8
1
  6
Continuous
 62
     7
100
AcDbLine
 10
16.369932
 20
10.641915
 30
0.0
 11
0.633067
 21
10.641915
 31
0.0
  0
LINE
  5
26A
100
AcDbEntity
 67
     1
  8
1
  6
Continuous
 62
     7
100
AcDbLine
 10
11.62403
 20
5.60087
 30
0.0
 11
5.624155
 21
5.60087
 31
0.0
  0
LINE
  5
26B
100
AcDbEntity
 67
     1
  8
1
  6
Continuous
 62
     7
100
AcDbLine
 10
15.268796
 20
5.849715
 30
0.0
 11
15.314242
 21
5.778811
 31
0.0
  0
LINE
  5
26C
100
AcDbEntity
 67
     1
  8
1
  6
Continuous
 62
     7
100
AcDbLine
 10
4.151179
 20
4.86534
 30
0.0
 11
4.151179
 21
5.03409
 31
0.0
  0
LINE
  5
26D
100
AcDbEntity
 67
     1
  8
1
  6
Continuous
 62
     7
100
AcDbLine
 10
2.341643
 20
3.787136
 30
0.0
 11
2.341643
 21
3.618386
 31
0.0
  0
LINE
  5
26E
100
AcDbEntity
 67
     1
  8
1
  6
Continuous
 62
     7
100
AcDbLine
 10
5.049396
 20
5.61143
 30
0.0
 11
5.049396
 21
5.628201
 31
0.0
  0
LINE
  5
26F
100
AcDbEntity
 67
     1
  8
1
  6
Continuous
 62
     7
100
AcDbLine
 10
5.624155
 20
8.944466
 30
0.0
 11
5.624155
 21
8.946499
 31
0.0
  0
LINE
  5
270
100
AcDbEntity
 67
     1
  8
1
  6
Continuous
 62
     7
100
AcDbLine
 10
3.689179
 20
5.03409
 30
0.0
 11
3.689179
 21
4.86534
 31
0.0
  0
LINE
  5
271
100
AcDbEntity
 67
     1
  8
1
  6
Continuous
 62
     7
100
AcDbLine
 10
10.575254
 20
4.126783
 30
0.0
 11
10.511368
 21
4.211793
 31
0.0
  0
LINE
  5
272
100
AcDbEntity
 67
     1
  8
1
  6
Continuous
 62
     7
100
AcDbLine
 10
13.624155
 20
7.19399
 30
0.0
 11
13.624155
 21
7.191957
 31
0.0
  0
LINE
  5
273
100
AcDbEntity
 67
     1
  8
1
  6
Continuous
 62
     7
100
AcDbLine
 10
1.820373
 20
3.947136
 30
0.0
 11
1.788674
 21
3.947136
 31
0.0
  0
LINE
  5
274
100
AcDbEntity
 67
     1
  8
1
  6
Continuous
 62
     7
100
AcDbLine
 10
3.877804
 20
5.724715
 30
0.0
 11
3.877804
 21
5.838519
 31
0.0
  0
LINE
  5
275
100
AcDbEntity
 67
     1
  8
1
  6
Continuous
 62
     7
100
AcDbLine
 10
1.891586
 20
4.955017
 30
0.0
 11
1.792711
 21
4.955189
 31
0.0
  0
LINE
  5
276
100
AcDbEntity
 67
     1
  8
1
  6
Continuous
 62
     7
100
AcDbLine
 10
15.575595
 20
8.004331
 30
0.0
 11
15.545258
 21
7.939516
 31
0.0
  0
LINE
  5
277
100
AcDbEntity
 67
     1
  8
1
  6
Continuous
 62
     7
100
AcDbLine
 10
15.076068
 20
4.370954
 30
0.0
 11
15.113157
 21
4.300619
 31
0.0
  0
LINE
  5
278
100
AcDbEntity
 67
     1
  8
1
  6
Continuous
 62
     7
100
AcDbLine
 10
3.84731
 20
4.354715
 30
0.0
 11
3.880804
 21
4.229715
 31
0.0
  0
LINE
  5
279
100
AcDbEntity
 67
     1
  8
1
  6
Continuous
 62
     7
100
AcDbLine
 10
11.624155
 20
7.19399
 30
0.0
 11
11.624155
 21
7.194051
 31
0.0
  0
LINE
  5
27A
100
AcDbEntity
 67
     1
  8
1
  6
Continuous
 62
     7
100
AcDbLine
 10
5.624155
 20
5.703187
 30
0.0
 11
5.624155
 21
5.673054
 31
0.0
  0
LINE
  5
27B
100
AcDbEntity
 67
     1
  8
1
  6
Continuous
 62
     7
100
AcDbLine
 10
12.206588
 20
7.119146
 30
0.0
 11
12.139999
 21
7.156772
 31
0.0
  0
LINE
  5
27C
100
AcDbEntity
 67
     1
  8
1
  6
Continuous
 62
     7
100
AcDbLine
 10
1.891576
 20
4.949017
 30
0.0
 11
1.815093
 21
4.94915
 31
0.0
  0
LINE
  5
27D
100
AcDbEntity
 67
     1
  8
1
  6
Continuous
 62
     7
100
AcDbLine
 10
1.820373
 20
3.941136
 30
0.0
 11
1.766281
 21
3.941136
 31
0.0
  0
LINE
  5
27E
100
AcDbEntity
 67
     1
  8
1
  6
Continuous
 62
     7
100
AcDbLine
 10
3.322644
 20
6.388367
 30
0.0
 11
3.376734
 21
6.388367
 31
0.0
  0
LINE
  5
27F
100
AcDbEntity
 67
     1
  8
1
  6
Continuous
 62
     7
100
AcDbLine
 10
15.669236
 20
8.19894
 30
0.0
 11
15.6389
 21
8.134125
 31
0.0
  0
LINE
  5
280
100
AcDbEntity
 67
     1
  8
1
  6
Continuous
 62
     7
100
AcDbLine
 10
1.822643
 20
6.436367
 30
0.0
 11
1.805873
 21
6.436367
 31
0.0
  0
LINE
  5
281
100
AcDbEntity
 67
     1
  8
1
  6
Continuous
 62
     7
100
AcDbLine
 10
5.031396
 20
4.354715
 30
0.0
 11
5.031396
 21
4.270767
 31
0.0
  0
LINE
  5
282
100
AcDbEntity
 67
     1
  8
1
  6
Continuous
 62
     7
100
AcDbLine
 10
2.341643
 20
6.272367
 30
0.0
 11
2.341643
 21
6.103617
 31
0.0
  0
LINE
  5
283
100
AcDbEntity
 67
     1
  8
1
  6
Continuous
 62
     7
100
AcDbLine
 10
3.869804
 20
4.354715
 30
0.0
 11
3.869804
 21
4.270767
 31
0.0
  0
LINE
  5
284
100
AcDbEntity
 67
     1
  8
1
  6
Continuous
 62
     7
100
AcDbLine
 10
3.865804
 20
5.724715
 30
0.0
 11
3.865804
 21
5.793734
 31
0.0
  0
LINE
  5
285
100
AcDbEntity
 67
     1
  8
1
  6
Continuous
 62
     7
100
AcDbLine
 10
3.322644
 20
6.440367
 30
0.0
 11
3.324486
 21
6.440367
 31
0.0
  0
LINE
  5
286
100
AcDbEntity
 67
     1
  8
1
  6
Continuous
 62
     7
100
AcDbLine
 10
5.624155
 20
5.703187
 30
0.0
 11
5.624155
 21
5.709611
 31
0.0
  0
LINE
  5
287
100
AcDbEntity
 67
     1
  8
1
  6
Continuous
 62
     7
100
AcDbLine
 10
1.571573
 20
4.947575
 30
0.0
 11
1.640592
 21
4.947454
 31
0.0
  0
LINE
  5
288
100
AcDbEntity
 67
     1
  8
1
  6
Continuous
 62
     7
100
AcDbLine
 10
1.891565
 20
4.943017
 30
0.0
 11
1.837474
 21
4.943111
 31
0.0
  0
LINE
  5
289
100
AcDbEntity
 67
     1
  8
1
  6
Continuous
 62
     7
100
AcDbLine
 10
12.217202
 20
5.911409
 30
0.0
 11
12.210347
 21
5.905116
 31
0.0
  0
LINE
  5
28A
100
AcDbEntity
 67
     1
  8
1
  6
Continuous
 62
     7
100
AcDbLine
 10
3.449914
 20
3.922136
 30
0.0
 11
2.787393
 21
3.922136
 31
0.0
  0
LINE
  5
28B
100
AcDbEntity
 67
     1
  8
1
  6
Continuous
 62
     7
100
AcDbLine
 10
3.324914
 20
3.945136
 30
0.0
 11
3.364077
 21
3.945136
 31
0.0
  0
LINE
  5
28C
100
AcDbEntity
 67
     1
  8
1
  6
Continuous
 62
     7
100
AcDbLine
 10
10.560864
 20
4.11597
 30
0.0
 11
10.537336
 21
4.147277
 31
0.0
  0
LINE
  5
28D
100
AcDbEntity
 67
     1
  8
1
  6
Continuous
 62
     7
100
AcDbLine
 10
15.823823
 20
8.64384
 30
0.0
 11
16.083632
 21
8.64384
 31
0.0
  0
LINE
  5
28E
100
AcDbEntity
 67
     1
  8
1
  6
Continuous
 62
     7
100
AcDbLine
 10
3.322644
 20
6.378366
 30
0.0
 11
3.339414
 21
6.378366
 31
0.0
  0
LINE
  5
28F
100
AcDbEntity
 67
     1
  8
1
  6
Continuous
 62
     7
100
AcDbLine
 10
5.624155
 20
8.713881
 30
0.0
 11
5.624155
 21
8.708974
 31
0.0
  0
LINE
  5
290
100
AcDbEntity
 67
     1
  8
1
  6
Continuous
 62
     7
100
AcDbLine
 10
3.322644
 20
6.382367
 30
0.0
 11
3.354342
 21
6.382367
 31
0.0
  0
LINE
  5
291
100
AcDbEntity
 67
     1
  8
1
  6
Continuous
 62
     7
100
AcDbLine
 10
15.739202
 20
8.392062
 30
0.0
 11
15.720703
 21
8.327991
 31
0.0
  0
LINE
  5
292
100
AcDbEntity
 67
     1
  8
1
  6
Continuous
 62
     7
100
AcDbLine
 10
15.061615
 20
4.778811
 30
0.0
 11
15.038059
 21
4.712601
 31
0.0
  0
LINE
  5
293
100
AcDbEntity
 67
     1
  8
1
  6
Continuous
 62
     7
100
AcDbLine
 10
3.39643
 20
5.508502
 30
0.0
 11
3.310342
 21
5.59459
 31
0.0
  0
LINE
  5
294
100
AcDbEntity
 67
     1
  8
1
  6
Continuous
 62
     7
100
AcDbLine
 10
1.820373
 20
3.888642
 30
0.0
 11
1.820373
 21
3.955629
 31
0.0
  0
LINE
  5
295
100
AcDbEntity
 67
     1
  8
1
  6
Continuous
 62
     7
100
AcDbLine
 10
1.822643
 20
6.440367
 30
0.0
 11
1.820801
 21
6.440367
 31
0.0
  0
LINE
  5
296
100
AcDbEntity
 67
     1
  8
1
  6
Continuous
 62
     7
100
AcDbLine
 10
5.037396
 20
4.354715
 30
0.0
 11
5.037396
 21
4.29316
 31
0.0
  0
LINE
  5
297
100
AcDbEntity
 67
     1
  8
1
  6
Continuous
 62
     7
100
AcDbLine
 10
1.696599
 20
4.962357
 30
0.0
 11
1.571657
 21
4.996068
 31
0.0
  0
LINE
  5
298
100
AcDbEntity
 67
     1
  8
1
  6
Continuous
 62
     7
100
AcDbLine
 10
12.1888
 20
5.942349
 30
0.0
 11
12.126958
 21
5.88558
 31
0.0
  0
LINE
  5
299
100
AcDbEntity
 67
     1
  8
1
  6
Continuous
 62
     7
100
AcDbLine
 10
1.697643
 20
6.407367
 30
0.0
 11
1.822643
 21
6.373873
 31
0.0
  0
LINE
  5
29A
100
AcDbEntity
 67
     1
  8
1
  6
Continuous
 62
     7
100
AcDbLine
 10
10.58165
 20
4.13159
 30
0.0
 11
10.513279
 21
4.222567
 31
0.0
  0
LINE
  5
29B
100
AcDbEntity
 67
     1
  8
1
  6
Continuous
 62
     7
100
AcDbLine
 10
3.863804
 20
4.354715
 30
0.0
 11
3.863804
 21
4.29316
 31
0.0
  0
LINE
  5
29C
100
AcDbEntity
 67
     1
  8
1
  6
Continuous
 62
     7
100
AcDbLine
 10
3.859804
 20
5.724715
 30
0.0
 11
3.859804
 21
5.771342
 31
0.0
  0
LINE
  5
29D
100
AcDbEntity
 67
     1
  8
1
  6
Continuous
 62
     7
100
AcDbLine
 10
11.62403
 20
5.735983
 30
0.0
 11
5.624155
 21
5.735983
 31
0.0
  0
LINE
  5
29E
100
AcDbEntity
 67
     1
  8
1
  6
Continuous
 62
     7
100
AcDbLine
 10
10.504155
 20
4.229715
 30
0.0
 11
10.81325
 21
3.818417
 31
0.0
  0
LINE
  5
29F
100
AcDbEntity
 67
     1
  8
1
  6
Continuous
 62
     7
100
AcDbLine
 10
3.369294
 20
5.419404
 30
0.0
 11
3.221224
 21
5.56964
 31
0.0
  0
LINE
  5
2A0
100
AcDbEntity
 67
     1
  8
1
  6
Continuous
 62
     7
100
AcDbLine
 10
12.226266
 20
7.153971
 30
0.0
 11
12.205166
 21
7.165894
 31
0.0
  0
LINE
  5
2A1
100
AcDbEntity
 67
     1
  8
1
  6
Continuous
 62
     7
100
AcDbLine
 10
4.986902
 20
5.61143
 30
0.0
 11
5.05389
 21
5.61143
 31
0.0
  0
LINE
  5
2A2
100
AcDbEntity
 67
     1
  8
1
  6
Continuous
 62
     7
100
AcDbLine
 10
12.173589
 20
5.95892
 30
0.0
 11
12.104155
 21
5.849715
 31
0.0
  0
LINE
  5
2A3
100
AcDbEntity
 67
     1
  8
1
  6
Continuous
 62
     7
100
AcDbLine
 10
1.695373
 20
4.197267
 30
0.0
 11
1.695373
 21
3.797136
 31
0.0
  0
LINE
  5
2A4
100
AcDbEntity
 67
     1
  8
1
  6
Continuous
 62
     7
100
AcDbLine
 10
3.324914
 20
3.951136
 30
0.0
 11
3.341685
 21
3.951136
 31
0.0
  0
LINE
  5
2A5
100
AcDbEntity
 67
     1
  8
1
  6
Continuous
 62
     7
100
AcDbLine
 10
10.556068
 20
4.112365
 30
0.0
 11
10.545993
 21
4.125772
 31
0.0
  0
LINE
  5
2A6
100
AcDbEntity
 67
     1
  8
1
  6
Continuous
 62
     7
100
AcDbLine
 10
3.881804
 20
5.724715
 30
0.0
 11
3.881804
 21
5.845983
 31
0.0
  0
LINE
  5
2A7
100
AcDbEntity
 67
     1
  8
1
  6
Continuous
 62
     7
100
AcDbLine
 10
5.011396
 20
5.61143
 30
0.0
 11
5.011396
 21
5.702841
 31
0.0
  0
LINE
  5
2A8
100
AcDbEntity
 67
     1
  8
1
  6
Continuous
 62
     7
100
AcDbLine
 10
15.170856
 20
4.974817
 30
0.0
 11
15.129943
 21
4.909788
 31
0.0
  0
LINE
  5
2A9
100
AcDbEntity
 67
     1
  8
1
  6
Continuous
 62
     7
100
AcDbLine
 10
5.043396
 20
4.354715
 30
0.0
 11
5.043396
 21
4.315552
 31
0.0
  0
LINE
  5
2AA
100
AcDbEntity
 67
     1
  8
1
  6
Continuous
 62
     7
100
AcDbLine
 10
1.891607
 20
4.967017
 30
0.0
 11
1.785268
 21
4.967202
 31
0.0
  0
LINE
  5
2AB
100
AcDbEntity
 67
     1
  8
1
  6
Continuous
 62
     7
100
AcDbLine
 10
12.184743
 20
5.94677
 30
0.0
 11
12.139397
 21
5.905143
 31
0.0
  0
LINE
  5
2AC
100
AcDbEntity
 67
     1
  8
1
  6
Continuous
 62
     7
100
AcDbLine
 10
3.324914
 20
3.913136
 30
0.0
 11
3.416326
 21
3.913136
 31
0.0
  0
LINE
  5
2AD
100
AcDbEntity
 67
     1
  8
1
  6
Continuous
 62
     7
100
AcDbLine
 10
3.857804
 20
4.354715
 30
0.0
 11
3.857804
 21
4.315552
 31
0.0
  0
LINE
  5
2AE
100
AcDbEntity
 67
     1
  8
1
  6
Continuous
 62
     7
100
AcDbLine
 10
3.853804
 20
5.724715
 30
0.0
 11
3.853804
 21
5.74895
 31
0.0
  0
LINE
  5
2AF
100
AcDbEntity
 67
     1
  8
1
  6
Continuous
 62
     7
100
AcDbLine
 10
11.624155
 20
8.944228
 30
0.0
 11
11.624155
 21
8.939835
 31
0.0
  0
LINE
  5
2B0
100
AcDbEntity
 67
     1
  8
1
  6
Continuous
 62
     7
100
AcDbLine
 10
13.624155
 20
4.259767
 30
0.0
 11
5.624155
 21
4.259767
 31
0.0
  0
LINE
  5
2B1
100
AcDbEntity
 67
     1
  8
1
  6
Continuous
 62
     7
100
AcDbLine
 10
5.023396
 20
5.61143
 30
0.0
 11
5.023396
 21
5.725234
 31
0.0
  0
LINE
  5
2B2
100
AcDbEntity
 67
     1
  8
1
  6
Continuous
 62
     7
100
AcDbLine
 10
3.397959
 20
4.317207
 30
0.0
 11
3.379816
 21
4.31582
 31
0.0
  0
LINE
  5
2B3
100
AcDbEntity
 67
     1
  8
1
  6
Continuous
 62
     7
100
AcDbLine
 10
5.017396
 20
4.354715
 30
0.0
 11
5.017396
 21
4.240911
 31
0.0
  0
LINE
  5
2B4
100
AcDbEntity
 67
     1
  8
1
  6
Continuous
 62
     7
100
AcDbLine
 10
1.571552
 20
4.935575
 30
0.0
 11
1.595786
 21
4.935533
 31
0.0
  0
LINE
  5
2B5
100
AcDbEntity
 67
     1
  8
1
  6
Continuous
 62
     7
100
AcDbLine
 10
1.891544
 20
4.931016
 30
0.0
 11
1.882238
 21
4.931033
 31
0.0
  0
LINE
  5
2B6
100
AcDbEntity
 67
     1
  8
1
  6
Continuous
 62
     7
100
AcDbLine
 10
14.106228
 20
6.626553
 30
0.0
 11
15.175916
 21
6.626553
 31
0.0
  0
LINE
  5
2B7
100
AcDbEntity
 67
     1
  8
1
  6
Continuous
 62
     7
100
AcDbLine
 10
3.324914
 20
3.955136
 30
0.0
 11
3.326757
 21
3.955136
 31
0.0
  0
LINE
  5
2B8
100
AcDbEntity
 67
     1
  8
1
  6
Continuous
 62
     7
100
AcDbLine
 10
10.552871
 20
4.109962
 30
0.0
 11
10.551764
 21
4.111434
 31
0.0
  0
LINE
  5
2B9
100
AcDbEntity
 67
     1
  8
1
  6
Continuous
 62
     7
100
AcDbLine
 10
3.887804
 20
5.724715
 30
0.0
 11
3.887804
 21
5.823591
 31
0.0
  0
LINE
  5
2BA
100
AcDbEntity
 67
     1
  8
1
  6
Continuous
 62
     7
100
AcDbLine
 10
5.005396
 20
5.61143
 30
0.0
 11
5.005396
 21
5.680449
 31
0.0
  0
LINE
  5
2BB
100
AcDbEntity
 67
     1
  8
1
  6
Continuous
 62
     7
100
AcDbLine
 10
5.624155
 20
8.881629
 30
0.0
 11
5.624155
 21
8.875699
 31
0.0
  0
LINE
  5
2BC
100
AcDbEntity
 67
     1
  8
1
  6
Continuous
 62
     7
100
AcDbLine
 10
15.297456
 20
5.169642
 30
0.0
 11
15.256542
 21
5.104613
 31
0.0
  0
LINE
  5
2BD
100
AcDbEntity
 67
     1
  8
1
  6
Continuous
 62
     7
100
AcDbLine
 10
16.369932
 20
0.440085
 30
0.0
 11
0.633067
 21
0.440085
 31
0.0
  0
LINE
  5
2BE
100
AcDbEntity
 67
     1
  8
1
  6
Continuous
 62
     7
100
AcDbLine
 10
1.822643
 20
6.396367
 30
0.0
 11
1.738696
 21
6.396367
 31
0.0
  0
LINE
  5
2BF
100
AcDbEntity
 67
     1
  8
1
  6
Continuous
 62
     7
100
AcDbLine
 10
1.891618
 20
4.973017
 30
0.0
 11
1.80767
 21
4.973163
 31
0.0
  0
LINE
  5
2C0
100
AcDbEntity
 67
     1
  8
1
  6
Continuous
 62
     7
100
AcDbLine
 10
12.180685
 20
5.95119
 30
0.0
 11
12.151834
 21
5.924706
 31
0.0
  0
LINE
  5
2C1
100
AcDbEntity
 67
     1
  8
1
  6
Continuous
 62
     7
100
AcDbLine
 10
3.324914
 20
3.907136
 30
0.0
 11
3.393934
 21
3.907136
 31
0.0
  0
LINE
  5
2C2
100
AcDbEntity
 67
     1
  8
1
  6
Continuous
 62
     7
100
AcDbLine
 10
3.851804
 20
4.354715
 30
0.0
 11
3.851804
 21
4.337945
 31
0.0
  0
LINE
  5
2C3
100
AcDbEntity
 67
     1
  8
1
  6
Continuous
 62
     7
100
AcDbLine
 10
3.847804
 20
5.724715
 30
0.0
 11
3.847804
 21
5.726557
 31
0.0
  0
LINE
  5
2C4
100
AcDbEntity
 67
     1
  8
1
  6
Continuous
 62
     7
100
AcDbLine
 10
5.624155
 20
7.19399
 30
0.0
 11
5.624155
 21
7.191957
 31
0.0
  0
LINE
  5
2C5
100
AcDbEntity
 67
     1
  8
1
  6
Continuous
 62
     7
100
AcDbLine
 10
5.624155
 20
4.244745
 30
0.0
 11
5.624155
 21
4.233743
 31
0.0
  0
LINE
  5
2C6
100
AcDbEntity
 67
     1
  8
1
  6
Continuous
 62
     7
100
AcDbLine
 10
5.029396
 20
5.61143
 30
0.0
 11
5.029396
 21
5.702841
 31
0.0
  0
LINE
  5
2C7
100
AcDbEntity
 67
     1
  8
1
  6
Continuous
 62
     7
100
AcDbLine
 10
1.747328
 20
4.317207
 30
0.0
 11
1.747298
 21
4.299715
 31
0.0
  0
LINE
  5
2C8
100
AcDbEntity
 67
     1
  8
1
  6
Continuous
 62
     7
100
AcDbLine
 10
3.322644
 20
6.374367
 30
0.0
 11
3.324486
 21
6.374367
 31
0.0
  0
LINE
  5
2C9
100
AcDbEntity
 67
     1
  8
1
  6
Continuous
 62
     7
100
AcDbLine
 10
1.820373
 20
3.955136
 30
0.0
 11
1.81853
 21
3.955136
 31
0.0
  0
LINE
  5
2CA
100
AcDbEntity
 67
     1
  8
1
  6
Continuous
 62
     7
100
AcDbLine
 10
1.571541
 20
4.929575
 30
0.0
 11
1.573384
 21
4.929572
 31
0.0
  0
LINE
  5
2CB
100
AcDbEntity
 67
     1
  8
1
  6
Continuous
 62
     7
100
AcDbLine
 10
1.891657
 20
4.99551
 30
0.0
 11
1.766599
 21
4.962235
 31
0.0
  0
LINE
  5
2CC
100
AcDbEntity
 67
     1
  8
1
  6
Continuous
 62
     7
100
AcDbLine
 10
2.386643
 20
3.787136
 30
0.0
 11
2.341643
 21
3.787136
 31
0.0
  0
LINE
  5
2CD
100
AcDbEntity
 67
     1
  8
1
  6
Continuous
 62
     7
100
AcDbLine
 10
10.504155
 20
4.229715
 30
0.0
 11
10.552476
 21
4.109665
 31
0.0
  0
LINE
  5
2CE
100
AcDbEntity
 67
     1
  8
1
  6
Continuous
 62
     7
100
AcDbLine
 10
3.893804
 20
5.724715
 30
0.0
 11
3.893804
 21
5.801198
 31
0.0
  0
LINE
  5
2CF
100
AcDbEntity
 67
     1
  8
1
  6
Continuous
 62
     7
100
AcDbLine
 10
4.999396
 20
5.61143
 30
0.0
 11
4.999396
 21
5.658057
 31
0.0
  0
LINE
  5
2D0
100
AcDbEntity
 67
     1
  8
1
  6
Continuous
 62
     7
100
AcDbLine
 10
5.624155
 20
8.88398
 30
0.0
 11
5.624155
 21
8.884032
 31
0.0
  0
LINE
  5
2D1
100
AcDbEntity
 67
     1
  8
1
  6
Continuous
 62
     7
100
AcDbLine
 10
15.389339
 20
5.366829
 30
0.0
 11
15.365784
 21
5.300619
 31
0.0
  0
LINE
  5
2D2
100
AcDbEntity
 67
     1
  8
1
  6
Continuous
 62
     7
100
AcDbLine
 10
1.822643
 20
6.390367
 30
0.0
 11
1.761088
 21
6.390367
 31
0.0
  0
LINE
  5
2D3
100
AcDbEntity
 67
     1
  8
1
  6
Continuous
 62
     7
100
AcDbLine
 10
5.053396
 20
4.354715
 30
0.0
 11
5.053396
 21
4.352872
 31
0.0
  0
LINE
  5
2D4
100
AcDbEntity
 67
     1
  8
1
  6
Continuous
 62
     7
100
AcDbLine
 10
12.176627
 20
5.95561
 30
0.0
 11
12.164273
 21
5.944269
 31
0.0
  0
LINE
  5
2D5
100
AcDbEntity
 67
     1
  8
1
  6
Continuous
 62
     7
100
AcDbLine
 10
3.324914
 20
3.901136
 30
0.0
 11
3.371541
 21
3.901136
 31
0.0
  0
LINE
  5
2D6
100
AcDbEntity
 67
     1
  8
1
  6
Continuous
 62
     7
100
AcDbLine
 10
3.847804
 20
4.354715
 30
0.0
 11
3.847804
 21
4.352872
 31
0.0
  0
LINE
  5
2D7
100
AcDbEntity
 67
     1
  8
1
  6
Continuous
 62
     7
100
AcDbLine
 10
3.84731
 20
5.724715
 30
0.0
 11
3.914298
 21
5.724715
 31
0.0
  0
LINE
  5
2D8
100
AcDbEntity
 67
     1
  8
1
  6
Continuous
 62
     7
100
AcDbLine
 10
13.624155
 20
7.19399
 30
0.0
 11
5.624155
 21
7.19399
 31
0.0
  0
LINE
  5
2D9
100
AcDbEntity
 67
     1
  8
1
  6
Continuous
 62
     7
100
AcDbLine
 10
1.492623
 20
4.962713
 30
0.0
 11
1.242623
 21
4.962713
 31
0.0
  0
LINE
  5
2DA
100
AcDbEntity
 67
     1
  8
1
  6
Continuous
 62
     7
100
AcDbLine
 10
15.404204
 20
5.445526
 30
0.0
 11
11.624155
 21
5.445526
 31
0.0
  0
LINE
  5
2DB
100
AcDbEntity
 67
     1
  8
1
  6
Continuous
 62
     7
100
AcDbLine
 10
5.035396
 20
5.61143
 30
0.0
 11
5.035396
 21
5.680449
 31
0.0
  0
LINE
  5
2DC
100
AcDbEntity
 67
     1
  8
1
  6
Continuous
 62
     7
100
AcDbLine
 10
3.322644
 20
6.410367
 30
0.0
 11
3.436447
 21
6.410367
 31
0.0
  0
LINE
  5
2DD
100
AcDbEntity
 67
     1
  8
1
  6
Continuous
 62
     7
100
AcDbLine
 10
5.005396
 20
4.354715
 30
0.0
 11
5.005396
 21
4.285696
 31
0.0
  0
LINE
  5
2DE
100
AcDbEntity
 67
     1
  8
1
  6
Continuous
 62
     7
100
AcDbLine
 10
1.571604
 20
4.965575
 30
0.0
 11
1.685408
 21
4.965376
 31
0.0
  0
LINE
  5
2DF
100
AcDbEntity
 67
     1
  8
1
  6
Continuous
 62
     7
100
AcDbLine
 10
1.820373
 20
3.927136
 30
0.0
 11
1.714033
 21
3.927136
 31
0.0
  0
LINE
  5
2E0
100
AcDbEntity
 67
     1
  8
1
  6
Continuous
 62
     7
100
AcDbLine
 10
4.993396
 20
5.61143
 30
0.0
 11
4.993396
 21
5.635664
 31
0.0
  0
LINE
  5
2E1
100
AcDbEntity
 67
     1
  8
1
  6
Continuous
 62
     7
100
AcDbLine
 10
15.397863
 20
5.569686
 30
0.0
 11
15.406023
 21
5.501319
 31
0.0
  0
LINE
  5
2E2
100
AcDbEntity
 67
     1
  8
1
  6
Continuous
 62
     7
100
AcDbLine
 10
1.748857
 20
5.508502
 30
0.0
 11
1.834945
 21
5.59459
 31
0.0
  0
LINE
  5
2E3
100
AcDbEntity
 67
     1
  8
1
  6
Continuous
 62
     7
100
AcDbLine
 10
1.822643
 20
6.384367
 30
0.0
 11
1.783481
 21
6.384367
 31
0.0
  0
LINE
  5
2E4
100
AcDbEntity
 67
     1
  8
1
  6
Continuous
 62
     7
100
AcDbLine
 10
3.880804
 20
5.849715
 30
0.0
 11
3.880804
 21
5.27659
 31
0.0
  0
LINE
  5
2E5
100
AcDbEntity
 67
     1
  8
1
  6
Continuous
 62
     7
100
AcDbLine
 10
12.173923
 20
5.958556
 30
0.0
 11
12.172565
 21
5.95731
 31
0.0
  0
LINE
  5
2E6
100
AcDbEntity
 67
     1
  8
1
  6
Continuous
 62
     7
100
AcDbLine
 10
15.50246
 20
5.564114
 30
0.0
 11
15.762268
 21
5.564114
 31
0.0
  0
LINE
  5
2E7
100
AcDbEntity
 67
     1
  8
1
  6
Continuous
 62
     7
100
AcDbLine
 10
11.62403
 20
7.202623
 30
0.0
 11
5.624155
 21
7.202623
 31
0.0
  0
LINE
  5
2E8
100
AcDbEntity
 67
     1
  8
1
  6
Continuous
 62
     7
100
AcDbLine
 10
1.213873
 20
4.658963
 30
0.0
 11
1.258873
 21
4.658963
 31
0.0
  0
LINE
  5
2E9
100
AcDbEntity
 67
     1
  8
1
  6
Continuous
 62
     7
100
AcDbLine
 10
11.624155
 20
5.834715
 30
0.0
 11
11.624155
 21
5.529715
 31
0.0
  0
LINE
  5
2EA
100
AcDbEntity
 67
     1
  8
1
  6
Continuous
 62
     7
100
AcDbLine
 10
5.041396
 20
5.61143
 30
0.0
 11
5.041396
 21
5.658057
 31
0.0
  0
LINE
  5
2EB
100
AcDbEntity
 67
     1
  8
1
  6
Continuous
 62
     7
100
AcDbLine
 10
1.932898
 20
5.706378
 30
0.0
 11
1.932696
 21
5.590646
 31
0.0
  0
LINE
  5
2EC
100
AcDbEntity
 67
     1
  8
1
  6
Continuous
 62
     7
100
AcDbLine
 10
1.822643
 20
6.410367
 30
0.0
 11
1.70884
 21
6.410367
 31
0.0
  0
LINE
  5
2ED
100
AcDbEntity
 67
     1
  8
1
  6
Continuous
 62
     7
100
AcDbLine
 10
3.447644
 20
6.407367
 30
0.0
 11
3.322644
 21
6.44086
 31
0.0
  0
LINE
  5
2EE
100
AcDbEntity
 67
     1
  8
1
  6
Continuous
 62
     7
100
AcDbLine
 10
3.322644
 20
6.373873
 30
0.0
 11
3.447644
 21
6.407367
 31
0.0
  0
LINE
  5
2EF
100
AcDbEntity
 67
     1
  8
1
  6
Continuous
 62
     7
100
AcDbLine
 10
1.571615
 20
4.971575
 30
0.0
 11
1.663026
 21
4.971416
 31
0.0
  0
LINE
  5
2F0
100
AcDbEntity
 67
     1
  8
1
  6
Continuous
 62
     7
100
AcDbLine
 10
12.202653
 20
7.112181
 30
0.0
 11
12.162058
 21
7.135119
 31
0.0
  0
LINE
  5
2F1
100
AcDbEntity
 67
     1
  8
1
  6
Continuous
 62
     7
100
AcDbLine
 10
5.561655
 20
5.73643
 30
0.0
 11
4.895396
 21
5.73643
 31
0.0
  0
LINE
  5
2F2
100
AcDbEntity
 67
     1
  8
1
  6
Continuous
 62
     7
100
AcDbLine
 10
3.905804
 20
5.724715
 30
0.0
 11
3.905804
 21
5.756413
 31
0.0
  0
LINE
  5
2F3
100
AcDbEntity
 67
     1
  8
1
  6
Continuous
 62
     7
100
AcDbLine
 10
4.987396
 20
5.61143
 30
0.0
 11
4.987396
 21
5.613272
 31
0.0
  0
LINE
  5
2F4
100
AcDbEntity
 67
     1
  8
1
  6
Continuous
 62
     7
100
AcDbLine
 10
5.624155
 20
5.445526
 30
0.0
 11
5.624155
 21
5.60087
 31
0.0
  0
LINE
  5
2F5
100
AcDbEntity
 67
     1
  8
1
  6
Continuous
 62
     7
100
AcDbLine
 10
15.314242
 20
5.778811
 30
0.0
 11
15.351331
 21
5.708476
 31
0.0
  0
LINE
  5
2F6
100
AcDbEntity
 67
     1
  8
1
  6
Continuous
 62
     7
100
AcDbLine
 10
1.822643
 20
6.378366
 30
0.0
 11
1.805873
 21
6.378366
 31
0.0
  0
LINE
  5
2F7
100
AcDbEntity
 67
     1
  8
1
  6
Continuous
 62
     7
100
AcDbLine
 10
4.151179
 20
5.03409
 30
0.0
 11
4.106179
 21
5.03409
 31
0.0
  0
LINE
  5
2F8
100
AcDbEntity
 67
     1
  8
1
  6
Continuous
 62
     7
100
AcDbLine
 10
1.891649
 20
4.991016
 30
0.0
 11
1.874879
 21
4.991046
 31
0.0
  0
LINE
  5
2F9
100
AcDbEntity
 67
     1
  8
1
  6
Continuous
 62
     7
100
AcDbLine
 10
12.19962
 20
5.930563
 30
0.0
 11
12.121283
 21
5.858651
 31
0.0
  0
LINE
  5
2FA
100
AcDbEntity
 67
     1
  8
1
  6
Continuous
 62
     7
100
AcDbLine
 10
3.324914
 20
3.889136
 30
0.0
 11
3.326757
 21
3.889136
 31
0.0
  0
LINE
  5
2FB
100
AcDbEntity
 67
     1
  8
1
  6
Continuous
 62
     7
100
AcDbLine
 10
3.891804
 20
4.354715
 30
0.0
 11
3.891804
 21
4.270767
 31
0.0
  0
LINE
  5
2FC
100
AcDbEntity
 67
     1
  8
1
  6
Continuous
 62
     7
100
AcDbLine
 10
5.624155
 20
7.254477
 30
0.0
 11
5.624155
 21
7.254424
 31
0.0
  0
LINE
  5
2FD
100
AcDbEntity
 67
     1
  8
1
  6
Continuous
 62
     7
100
AcDbLine
 10
0.939935
 20
4.827713
 30
0.0
 11
0.894935
 21
4.827713
 31
0.0
  0
LINE
  5
2FE
100
AcDbEntity
 67
     1
  8
1
  6
Continuous
 62
     7
100
AcDbLine
 10
11.624155
 20
5.503735
 30
0.0
 11
11.624155
 21
5.514715
 31
0.0
  0
LINE
  5
2FF
100
AcDbEntity
 67
     1
  8
1
  6
Continuous
 62
     7
100
AcDbLine
 10
5.047396
 20
5.61143
 30
0.0
 11
5.047396
 21
5.635664
 31
0.0
  0
LINE
  5
300
100
AcDbEntity
 67
     1
  8
1
  6
Continuous
 62
     7
100
AcDbLine
 10
1.820373
 20
3.909136
 30
0.0
 11
1.743889
 21
3.909136
 31
0.0
  0
LINE
  5
301
100
AcDbEntity
 67
     1
  8
1
  6
Continuous
 62
     7
100
AcDbLine
 10
1.571625
 20
4.977575
 30
0.0
 11
1.640644
 21
4.977455
 31
0.0
  0
LINE
  5
302
100
AcDbEntity
 67
     1
  8
1
  6
Continuous
 62
     7
100
AcDbLine
 10
12.199701
 20
7.106957
 30
0.0
 11
12.178601
 21
7.118879
 31
0.0
  0
LINE
  5
303
100
AcDbEntity
 67
     1
  8
1
  6
Continuous
 62
     7
100
AcDbLine
 10
5.290771
 20
4.808697
 30
0.0
 11
5.290771
 21
4.977448
 31
0.0
  0
LINE
  5
304
100
AcDbEntity
 67
     1
  8
1
  6
Continuous
 62
     7
100
AcDbLine
 10
3.911804
 20
5.724715
 30
0.0
 11
3.911804
 21
5.734021
 31
0.0
  0
LINE
  5
305
100
AcDbEntity
 67
     1
  8
1
  6
Continuous
 62
     7
100
AcDbLine
 10
3.322644
 20
6.420367
 30
0.0
 11
3.399127
 21
6.420367
 31
0.0
  0
LINE
  5
306
100
AcDbEntity
 67
     1
  8
1
  6
Continuous
 62
     7
100
AcDbLine
 10
5.624155
 20
5.620906
 30
0.0
 11
5.624155
 21
5.611817
 31
0.0
  0
LINE
  5
307
100
AcDbEntity
 67
     1
  8
1
  6
Continuous
 62
     7
100
AcDbLine
 10
11.624155
 20
5.499715
 30
0.0
 11
15.40589
 21
5.499715
 31
0.0
  0
LINE
  5
308
100
AcDbEntity
 67
     1
  8
1
  6
Continuous
 62
     7
100
AcDbLine
 10
12.213475
 20
7.131335
 30
0.0
 11
12.107896
 21
7.190992
 31
0.0
  0
LINE
  5
309
100
AcDbEntity
 67
     1
  8
1
  6
Continuous
 62
     7
100
AcDbLine
 10
1.822643
 20
6.374367
 30
0.0
 11
1.820801
 21
6.374367
 31
0.0
  0
LINE
  5
30A
100
AcDbEntity
 67
     1
  8
1
  6
Continuous
 62
     7
100
AcDbLine
 10
1.891656
 20
4.995017
 30
0.0
 11
1.889814
 21
4.99502
 31
0.0
  0
LINE
  5
30B
100
AcDbEntity
 67
     1
  8
1
  6
Continuous
 62
     7
100
AcDbLine
 10
12.203677
 20
5.926143
 30
0.0
 11
12.141836
 21
5.869373
 31
0.0
  0
LINE
  5
30C
100
AcDbEntity
 67
     1
  8
1
  6
Continuous
 62
     7
100
AcDbLine
 10
3.324914
 20
3.925136
 30
0.0
 11
3.438718
 21
3.925136
 31
0.0
  0
LINE
  5
30D
100
AcDbEntity
 67
     1
  8
1
  6
Continuous
 62
     7
100
AcDbLine
 10
5.624155
 20
7.254477
 30
0.0
 11
5.624155
 21
7.256827
 31
0.0
  0
LINE
  5
30E
100
AcDbEntity
 67
     1
  8
1
  6
Continuous
 62
     7
100
AcDbLine
 10
15.475293
 20
7.746394
 30
0.0
 11
15.463371
 21
7.682735
 31
0.0
  0
LINE
  5
30F
100
AcDbEntity
 67
     1
  8
1
  6
Continuous
 62
     7
100
AcDbLine
 10
15.278768
 20
5.834715
 30
0.0
 11
11.624155
 21
5.834715
 31
0.0
  0
LINE
  5
310
100
AcDbEntity
 67
     1
  8
1
  6
Continuous
 62
     7
100
AcDbLine
 10
5.053396
 20
5.61143
 30
0.0
 11
5.053396
 21
5.613272
 31
0.0
  0
LINE
  5
311
100
AcDbEntity
 67
     1
  8
1
  6
Continuous
 62
     7
100
AcDbLine
 10
1.763597
 20
5.66398
 30
0.0
 11
1.855552
 21
5.620906
 31
0.0
  0
LINE
  5
312
100
AcDbEntity
 67
     1
  8
1
  6
Continuous
 62
     7
100
AcDbLine
 10
1.820373
 20
3.903136
 30
0.0
 11
1.766281
 21
3.903136
 31
0.0
  0
LINE
  5
313
100
AcDbEntity
 67
     1
  8
1
  6
Continuous
 62
     7
100
AcDbLine
 10
4.987396
 20
4.354715
 30
0.0
 11
4.987396
 21
4.352872
 31
0.0
  0
LINE
  5
314
100
AcDbEntity
 67
     1
  8
1
  6
Continuous
 62
     7
100
AcDbLine
 10
1.571636
 20
4.983575
 30
0.0
 11
1.618263
 21
4.983494
 31
0.0
  0
LINE
  5
315
100
AcDbEntity
 67
     1
  8
1
  6
Continuous
 62
     7
100
AcDbLine
 10
12.19675
 20
7.101734
 30
0.0
 11
12.195146
 21
7.10264
 31
0.0
  0
LINE
  5
316
100
AcDbEntity
 67
     1
  8
1
  6
Continuous
 62
     7
100
AcDbLine
 10
1.697643
 20
6.407367
 30
0.0
 11
2.279143
 21
6.407367
 31
0.0
  0
LINE
  5
317
100
AcDbEntity
 67
     1
  8
1
  6
Continuous
 62
     7
100
AcDbLine
 10
1.820373
 20
3.919136
 30
0.0
 11
1.706569
 21
3.919136
 31
0.0
  0
LINE
  5
318
100
AcDbEntity
 67
     1
  8
1
  6
Continuous
 62
     7
100
AcDbLine
 10
3.322644
 20
6.426367
 30
0.0
 11
3.376734
 21
6.426367
 31
0.0
  0
LINE
  5
319
100
AcDbEntity
 67
     1
  8
1
  6
Continuous
 62
     7
100
AcDbLine
 10
15.029535
 20
4.509743
 30
0.0
 11
15.04798
 21
4.440676
 31
0.0
  0
LINE
  5
31A
100
AcDbEntity
 67
     1
  8
1
  6
Continuous
 62
     7
100
AcDbLine
 10
3.439248
 20
5.445526
 30
0.0
 11
3.286145
 21
5.60087
 31
0.0
  0
LINE
  5
31B
100
AcDbEntity
 67
     1
  8
1
  6
Continuous
 62
     7
100
AcDbLine
 10
1.571597
 20
4.961575
 30
0.0
 11
1.692865
 21
4.961363
 31
0.0
  0
LINE
  5
31C
100
AcDbEntity
 67
     1
  8
1
  6
Continuous
 62
     7
100
AcDbLine
 10
3.324914
 20
3.931136
 30
0.0
 11
3.416326
 21
3.931136
 31
0.0
  0
LINE
  5
31D
100
AcDbEntity
 67
     1
  8
1
  6
Continuous
 62
     7
100
AcDbLine
 10
3.903804
 20
4.354715
 30
0.0
 11
3.903804
 21
4.315552
 31
0.0
  0
LINE
  5
31E
100
AcDbEntity
 67
     1
  8
1
  6
Continuous
 62
     7
100
AcDbLine
 10
3.322644
 20
6.396367
 30
0.0
 11
3.406591
 21
6.396367
 31
0.0
  0
LINE
  5
31F
100
AcDbEntity
 67
     1
  8
1
  6
Continuous
 62
     7
100
AcDbLine
 10
1.820373
 20
3.897136
 30
0.0
 11
1.788674
 21
3.897136
 31
0.0
  0
LINE
  5
320
100
AcDbEntity
 67
     1
  8
1
  6
Continuous
 62
     7
100
AcDbLine
 10
1.822643
 20
6.428367
 30
0.0
 11
1.776016
 21
6.428367
 31
0.0
  0
LINE
  5
321
100
AcDbEntity
 67
     1
  8
1
  6
Continuous
 62
     7
100
AcDbLine
 10
12.205371
 20
0.974686
 30
0.0
 11
12.977928
 21
0.974686
 31
0.0
  0
LINE
  5
322
100
AcDbEntity
 67
     1
  8
1
  6
Continuous
 62
     7
100
AcDbLine
 10
1.571646
 20
4.989575
 30
0.0
 11
1.595881
 21
4.989533
 31
0.0
  0
LINE
  5
323
100
AcDbEntity
 67
     1
  8
1
  6
Continuous
 62
     7
100
AcDbLine
 10
12.196507
 20
7.101304
 30
0.0
 11
12.22946
 21
7.159625
 31
0.0
  0
LINE
  5
324
100
AcDbEntity
 67
     1
  8
1
  6
Continuous
 62
     7
100
AcDbLine
 10
2.803643
 20
6.272367
 30
0.0
 11
2.758643
 21
6.272367
 31
0.0
  0
LINE
  5
325
100
AcDbEntity
 67
     1
  8
1
  6
Continuous
 62
     7
100
AcDbLine
 10
13.186437
 20
3.864285
 30
0.0
 11
13.056533
 21
3.639285
 31
0.0
  0
LINE
  5
326
100
AcDbEntity
 67
     1
  8
1
  6
Continuous
 62
     7
100
AcDbLine
 10
1.891639
 20
4.985016
 30
0.0
 11
1.852476
 21
4.985085
 31
0.0
  0
LINE
  5
327
100
AcDbEntity
 67
     1
  8
1
  6
Continuous
 62
     7
100
AcDbLine
 10
3.873804
 20
5.724715
 30
0.0
 11
3.873804
 21
5.823591
 31
0.0
  0
LINE
  5
328
100
AcDbEntity
 67
     1
  8
1
  6
Continuous
 62
     7
100
AcDbLine
 10
3.322644
 20
6.432367
 30
0.0
 11
3.354342
 21
6.432367
 31
0.0
  0
LINE
  5
329
100
AcDbEntity
 67
     1
  8
1
  6
Continuous
 62
     7
100
AcDbLine
 10
1.891555
 20
4.937016
 30
0.0
 11
1.859856
 21
4.937072
 31
0.0
  0
LINE
  5
32A
100
AcDbEntity
 67
     1
  8
1
  6
Continuous
 62
     7
100
AcDbLine
 10
1.571587
 20
4.955575
 30
0.0
 11
1.670462
 21
4.955402
 31
0.0
  0
LINE
  5
32B
100
AcDbEntity
 67
     1
  8
1
  6
Continuous
 62
     7
100
AcDbLine
 10
1.891579
 20
4.951016
 30
0.0
 11
1.807632
 21
4.951163
 31
0.0
  0
LINE
  5
32C
100
AcDbEntity
 67
     1
  8
1
  6
Continuous
 62
     7
100
AcDbLine
 10
11.62403
 20
5.673054
 30
0.0
 11
5.624155
 21
5.673054
 31
0.0
  0
LINE
  5
32D
100
AcDbEntity
 67
     1
  8
1
  6
Continuous
 62
     7
100
AcDbLine
 10
3.324914
 20
3.937136
 30
0.0
 11
3.393934
 21
3.937136
 31
0.0
  0
LINE
  5
32E
100
AcDbEntity
 67
     1
  8
1
  6
Continuous
 62
     7
100
AcDbLine
 10
5.624155
 20
7.394324
 30
0.0
 11
5.624155
 21
7.411413
 31
0.0
  0
LINE
  5
32F
100
AcDbEntity
 67
     1
  8
1
  6
Continuous
 62
     7
100
AcDbLine
 10
3.322644
 20
6.390367
 30
0.0
 11
3.384199
 21
6.390367
 31
0.0
  0
LINE
  5
330
100
AcDbEntity
 67
     1
  8
1
  6
Continuous
 62
     7
100
AcDbLine
 10
1.725373
 20
4.229715
 30
0.0
 11
3.419914
 21
4.229715
 31
0.0
  0
LINE
  5
331
100
AcDbEntity
 67
     1
  8
1
  6
Continuous
 62
     7
100
AcDbLine
 10
1.820373
 20
3.891136
 30
0.0
 11
1.811066
 21
3.891136
 31
0.0
  0
LINE
  5
332
100
AcDbEntity
 67
     1
  8
1
  6
Continuous
 62
     7
100
AcDbLine
 10
1.822643
 20
6.434367
 30
0.0
 11
1.798409
 21
6.434367
 31
0.0
  0
LINE
  5
333
100
AcDbEntity
 67
     1
  8
1
  6
Continuous
 62
     7
100
AcDbLine
 10
5.029396
 20
4.354715
 30
0.0
 11
5.029396
 21
4.263303
 31
0.0
  0
LINE
  5
334
100
AcDbEntity
 67
     1
  8
1
  6
Continuous
 62
     7
100
AcDbLine
 10
6.526266
 20
0.70173
 30
0.0
 11
12.977928
 21
0.70173
 31
0.0
  0
LINE
  5
335
100
AcDbEntity
 67
     1
  8
1
  6
Continuous
 62
     7
100
AcDbLine
 10
1.571657
 20
4.995575
 30
0.0
 11
1.573499
 21
4.995572
 31
0.0
  0
LINE
  5
336
100
AcDbEntity
 67
     1
  8
1
  6
Continuous
 62
     7
100
AcDbLine
 10
12.19421
 20
5.936456
 30
0.0
 11
12.110373
 21
5.859496
 31
0.0
  0
LINE
  5
337
100
AcDbEntity
 67
     1
  8
1
  6
Continuous
 62
     7
100
AcDbLine
 10
2.341643
 20
6.103617
 30
0.0
 11
2.386643
 21
6.103617
 31
0.0
  0
LINE
  5
338
100
AcDbEntity
 67
     1
  8
1
  6
Continuous
 62
     7
100
AcDbLine
 10
12.104155
 20
7.191957
 30
0.0
 11
13.009228
 21
6.680553
 31
0.0
  0
LINE
  5
339
100
AcDbEntity
 67
     1
  8
1
  6
Continuous
 62
     7
100
AcDbLine
 10
3.871804
 20
4.354715
 30
0.0
 11
3.871804
 21
4.263303
 31
0.0
  0
LINE
  5
33A
100
AcDbEntity
 67
     1
  8
1
  6
Continuous
 62
     7
100
AcDbLine
 10
3.867804
 20
5.724715
 30
0.0
 11
3.867804
 21
5.801198
 31
0.0
  0
LINE
  5
33B
100
AcDbEntity
 67
     1
  8
1
  6
Continuous
 62
     7
100
AcDbLine
 10
3.322644
 20
6.438366
 30
0.0
 11
3.33195
 21
6.438366
 31
0.0
  0
LINE
  5
33C
100
AcDbEntity
 67
     1
  8
1
  6
Continuous
 62
     7
100
AcDbLine
 10
5.624155
 20
5.709611
 30
0.0
 11
5.624155
 21
5.713021
 31
0.0
  0
LINE
  5
33D
100
AcDbEntity
 67
     1
  8
1
  6
Continuous
 62
     7
100
AcDbLine
 10
3.379114
 20
5.713021
 30
0.0
 11
3.247547
 21
5.735983
 31
0.0
  0
LINE
  5
33E
100
AcDbEntity
 67
     1
  8
1
  6
Continuous
 62
     7
100
AcDbLine
 10
12.22233
 20
7.147007
 30
0.0
 11
12.175237
 21
7.173616
 31
0.0
  0
LINE
  5
33F
100
AcDbEntity
 67
     1
  8
1
  6
Continuous
 62
     7
100
AcDbLine
 10
16.169065
 20
2.791863
 30
0.0
 11
16.039162
 21
2.566863
 31
0.0
  0
LINE
  5
340
100
AcDbEntity
 67
     1
  8
1
  6
Continuous
 62
     7
100
AcDbLine
 10
1.89159
 20
4.957016
 30
0.0
 11
1.78525
 21
4.957202
 31
0.0
  0
LINE
  5
341
100
AcDbEntity
 67
     1
  8
1
  6
Continuous
 62
     7
100
AcDbLine
 10
1.571576
 20
4.949575
 30
0.0
 11
1.648059
 21
4.949441
 31
0.0
  0
LINE
  5
342
100
AcDbEntity
 67
     1
  8
1
  6
Continuous
 62
     7
100
AcDbLine
 10
1.891569
 20
4.945016
 30
0.0
 11
1.830014
 21
4.945124
 31
0.0
  0
LINE
  5
343
100
AcDbEntity
 67
     1
  8
1
  6
Continuous
 62
     7
100
AcDbLine
 10
12.21585
 20
5.912883
 30
0.0
 11
12.203496
 21
5.901542
 31
0.0
  0
LINE
  5
344
100
AcDbEntity
 67
     1
  8
1
  6
Continuous
 62
     7
100
AcDbLine
 10
3.324914
 20
3.943136
 30
0.0
 11
3.371541
 21
3.943136
 31
0.0
  0
LINE
  5
345
100
AcDbEntity
 67
     1
  8
1
  6
Continuous
 62
     7
100
AcDbLine
 10
10.562464
 20
4.117171
 30
0.0
 11
10.534451
 21
4.154446
 31
0.0
  0
LINE
  5
346
100
AcDbEntity
 67
     1
  8
1
  6
Continuous
 62
     7
100
AcDbLine
 10
3.913804
 20
4.354715
 30
0.0
 11
3.913804
 21
4.352872
 31
0.0
  0
LINE
  5
347
100
AcDbEntity
 67
     1
  8
1
  6
Continuous
 62
     7
100
AcDbLine
 10
11.62403
 20
8.708974
 30
0.0
 11
5.624155
 21
8.708974
 31
0.0
  0
LINE
  5
348
100
AcDbEntity
 67
     1
  8
1
  6
Continuous
 62
     7
100
AcDbLine
 10
3.322644
 20
6.384367
 30
0.0
 11
3.361806
 21
6.384367
 31
0.0
  0
LINE
  5
349
100
AcDbEntity
 67
     1
  8
1
  6
Continuous
 62
     7
100
AcDbLine
 10
15.038059
 20
4.712601
 30
0.0
 11
15.024146
 21
4.645735
 31
0.0
  0
LINE
  5
34A
100
AcDbEntity
 67
     1
  8
1
  6
Continuous
 62
     7
100
AcDbLine
 10
5.035396
 20
4.354715
 30
0.0
 11
5.035396
 21
4.285696
 31
0.0
  0
LINE
  5
34B
100
AcDbEntity
 67
     1
  8
1
  6
Continuous
 62
     7
100
AcDbLine
 10
8.214109
 20
0.440085
 30
0.0
 11
8.214109
 21
2.257467
 31
0.0
  0
LINE
  5
34C
100
AcDbEntity
 67
     1
  8
1
  6
Continuous
 62
     7
100
AcDbLine
 10
1.571657
 20
4.996068
 30
0.0
 11
1.571541
 21
4.929081
 31
0.0
  0
LINE
  5
34D
100
AcDbEntity
 67
     1
  8
1
  6
Continuous
 62
     7
100
AcDbLine
 10
12.190152
 20
5.940876
 30
0.0
 11
12.122812
 21
5.879059
 31
0.0
  0
LINE
  5
34E
100
AcDbEntity
 67
     1
  8
1
  6
Continuous
 62
     7
100
AcDbLine
 10
10.56726
 20
4.120776
 30
0.0
 11
10.525795
 21
4.175951
 31
0.0
  0
LINE
  5
34F
100
AcDbEntity
 67
     1
  8
1
  6
Continuous
 62
     7
100
AcDbLine
 10
11.624155
 20
8.944466
 30
0.0
 11
11.624155
 21
8.944405
 31
0.0
  0
LINE
  5
350
100
AcDbEntity
 67
     1
  8
1
  6
Continuous
 62
     7
100
AcDbLine
 10
13.624155
 20
7.191957
 30
0.0
 11
5.624155
 21
7.191957
 31
0.0
  0
LINE
  5
351
100
AcDbEntity
 67
     1
  8
1
  6
Continuous
 62
     7
100
AcDbLine
 10
1.820373
 20
3.955629
 30
0.0
 11
1.695373
 21
3.922136
 31
0.0
  0
ARC
  5
352
100
AcDbEntity
 67
     1
  8
1
  6
Continuous
 62
     7
100
AcDbCircle
 10
1.902696
 20
5.590698
 30
0.0
 40
0.03
100
AcDbArc
 50
315.416163
 51
359.9
  0
ARC
  5
353
100
AcDbEntity
 67
     1
  8
1
  6
Continuous
 62
     7
100
AcDbCircle
 10
3.432643
 20
5.834715
 30
0.0
 40
0.015
100
AcDbArc
 50
0.0
 51
90.0
  0
ARC
  5
354
100
AcDbEntity
 67
     1
  8
1
  6
Continuous
 62
     7
100
AcDbCircle
 10
1.767839
 20
5.673036
 30
0.0
 40
0.01
100
AcDbArc
 50
179.9
 51
244.900001
  0
ARC
  5
355
100
AcDbEntity
 67
     1
  8
1
  6
Continuous
 62
     7
100
AcDbCircle
 10
1.725373
 20
4.259715
 30
0.0
 40
0.03
100
AcDbArc
 50
179.900374
 51
270.0
  0
ARC
  5
356
100
AcDbEntity
 67
     1
  8
1
  6
Continuous
 62
     7
100
AcDbCircle
 10
3.377395
 20
5.70317
 30
0.0
 40
0.01
100
AcDbArc
 50
0.1
 51
80.1
  0
ARC
  5
357
100
AcDbEntity
 67
     1
  8
1
  6
Continuous
 62
     7
100
AcDbCircle
 10
3.316855
 20
5.601104
 30
0.0
 40
0.009212
100
AcDbArc
 50
97.499999
 51
225.000002
  0
ARC
  5
358
100
AcDbEntity
 67
     1
  8
1
  6
Continuous
 62
     7
100
AcDbCircle
 10
3.347927
 20
5.398345
 30
0.0
 40
0.03
100
AcDbArc
 50
0.1
 51
44.583837
  0
ARC
  5
359
100
AcDbEntity
 67
     1
  8
1
  6
Continuous
 62
     7
100
AcDbCircle
 10
3.372643
 20
5.63287
 30
0.0
 40
0.015
100
AcDbArc
 50
277.5
 51
360.0
  0
ARC
  5
35A
100
AcDbEntity
 67
     1
  8
1
  6
Continuous
 62
     7
100
AcDbCircle
 10
1.772643
 20
5.774715
 30
0.0
 40
0.015
100
AcDbArc
 50
90.0
 51
180.0
  0
ARC
  5
35B
100
AcDbEntity
 67
     1
  8
1
  6
Continuous
 62
     7
100
AcDbCircle
 10
1.850265
 20
5.609619
 30
0.0
 40
0.012464
100
AcDbArc
 50
315.416163
 51
424.9
  0
ARC
  5
35C
100
AcDbEntity
 67
     1
  8
1
  6
Continuous
 62
     7
100
AcDbCircle
 10
1.727643
 20
5.529715
 30
0.0
 40
0.03
100
AcDbArc
 50
180.0
 51
315.0
  0
ARC
  5
35D
100
AcDbEntity
 67
     1
  8
1
  6
Continuous
 62
     7
100
AcDbCircle
 10
1.902898
 20
5.70643
 30
0.0
 40
0.03
100
AcDbArc
 50
359.9
 51
459.9
  0
ARC
  5
35E
100
AcDbEntity
 67
     1
  8
1
  6
Continuous
 62
     7
100
AcDbCircle
 10
3.295022
 20
5.609619
 30
0.0
 40
0.012464
100
AcDbArc
 50
115.1
 51
224.583837
  0
ARC
  5
35F
100
AcDbEntity
 67
     1
  8
1
  6
Continuous
 62
     7
100
AcDbCircle
 10
3.419914
 20
4.259715
 30
0.0
 40
0.03
100
AcDbArc
 50
270.0
 51
360.099598
  0
ARC
  5
360
100
AcDbEntity
 67
     1
  8
1
  6
Continuous
 62
     7
100
AcDbCircle
 10
3.242591
 20
5.590698
 30
0.0
 40
0.03
100
AcDbArc
 50
180.1
 51
224.583837
  0
ARC
  5
361
100
AcDbEntity
 67
     1
  8
1
  6
Continuous
 62
     7
100
AcDbCircle
 10
3.372643
 20
5.774715
 30
0.0
 40
0.015
100
AcDbArc
 50
0.0
 51
90.0
  0
ARC
  5
362
100
AcDbEntity
 67
     1
  8
1
  6
Continuous
 62
     7
100
AcDbCircle
 10
1.828432
 20
5.601104
 30
0.0
 40
0.009212
100
AcDbArc
 50
314.999998
 51
442.500001
  0
ARC
  5
363
100
AcDbEntity
 67
     1
  8
1
  6
Continuous
 62
     7
100
AcDbCircle
 10
3.417881
 20
5.424468
 30
0.0
 40
0.03
100
AcDbArc
 50
0.1
 51
44.583837
  0
ARC
  5
364
100
AcDbEntity
 67
     1
  8
1
  6
Continuous
 62
     7
100
AcDbCircle
 10
3.417644
 20
5.529715
 30
0.0
 40
0.03
100
AcDbArc
 50
225.0
 51
360.0
  0
ARC
  5
365
100
AcDbEntity
 67
     1
  8
1
  6
Continuous
 62
     7
100
AcDbCircle
 10
1.727405
 20
5.424468
 30
0.0
 40
0.03
100
AcDbArc
 50
135.416163
 51
179.9
  0
ARC
  5
366
100
AcDbEntity
 67
     1
  8
1
  6
Continuous
 62
     7
100
AcDbCircle
 10
3.242389
 20
5.70643
 30
0.0
 40
0.03
100
AcDbArc
 50
80.1
 51
180.1
  0
ARC
  5
367
100
AcDbEntity
 67
     1
  8
1
  6
Continuous
 62
     7
100
AcDbCircle
 10
3.377448
 20
5.673036
 30
0.0
 40
0.01
100
AcDbArc
 50
295.099999
 51
360.1
  0
ARC
  5
368
100
AcDbEntity
 67
     1
  8
1
  6
Continuous
 62
     7
100
AcDbCircle
 10
1.772643
 20
5.63287
 30
0.0
 40
0.015
100
AcDbArc
 50
180.0
 51
262.5
  0
ARC
  5
369
100
AcDbEntity
 67
     1
  8
1
  6
Continuous
 62
     7
100
AcDbCircle
 10
1.79736
 20
5.398345
 30
0.0
 40
0.03
100
AcDbArc
 50
135.416163
 51
179.9
  0
ARC
  5
36A
100
AcDbEntity
 67
     1
  8
1
  6
Continuous
 62
     7
100
AcDbCircle
 10
1.712643
 20
5.834715
 30
0.0
 40
0.015
100
AcDbArc
 50
90.0
 51
180.0
  0
ARC
  5
36B
100
AcDbEntity
 67
     1
  8
1
  6
Continuous
 62
     7
100
AcDbCircle
 10
1.767892
 20
5.70317
 30
0.0
 40
0.01
100
AcDbArc
 50
99.9
 51
179.9
  0
MTEXT
  5
36C
100
AcDbEntity
 67
     1
  8
1
  6
Continuous
 62
     7
100
AcDbMText
 10
6.695374
 20
1.021575
 30
0.0
 40
0.072
 41
0.0
 71
     7
 72
     5
  1
\W01.000;1
  7
blockfont
210
0.0
220
0.0
230
1.0
 73
     2
 44
0.903614
  0
MTEXT
  5
36E
100
AcDbEntity
 67
     1
  8
1
  6
Continuous
 62
     7
100
AcDbMText
 10
16.105538
 20
0.57651
 30
0.0
 40
0.149512
 41
0.0
 71
     7
 72
     5
  1
\W01.000;B
  7
blockfont
210
0.0
220
0.0
230
1.0
 73
     2
 44
0.903614
  0
MTEXT
  5
36F
100
AcDbEntity
 67
     1
  8
1
  6
Continuous
 62
     7
100
AcDbMText
 10
2.406018
 20
3.628698
 30
0.0
 40
0.09
 41
0.0
 71
     7
 72
     5
  1
\W01.000;44.6
  7
blockfont
210
0.0
220
0.0
230
1.0
 73
     2
 44
0.903614
  0
MTEXT
  5
370
100
AcDbEntity
 67
     1
  8
1
  6
Continuous
 62
     7
100
AcDbMText
 10
7.980947
 20
0.771575
 30
0.0
 40
0.072
 41
0.0
 71
     7
 72
     5
  1
\W01.000;JGG
  7
blockfont
210
0.0
220
0.0
230
1.0
 73
     2
 44
0.903614
  0
MTEXT
  5
371
100
AcDbEntity
 67
     1
  8
1
  6
Continuous
 62
     7
100
AcDbMText
 10
6.695374
 20
0.771575
 30
0.0
 40
0.072
 41
0.0
 71
     7
 72
     5
  1
\W01.000;R
  7
blockfont
210
0.0
220
0.0
230
1.0
 73
     2
 44
0.903614
  0
MTEXT
  5
372
100
AcDbEntity
 67
     1
  8
1
  6
Continuous
 62
     7
100
AcDbMText
 10
11.15075
 20
3.609354
 30
0.0
 40
0.09
 41
0.0
 71
     7
 72
     5
  1
\W01.000;     FS1.5X1.5**6NM
  7
blockfont
210
0.0
220
0.0
230
1.0
 73
     2
 44
0.903614
  0
MTEXT
  5
373
100
AcDbEntity
 67
     1
  8
1
  6
Continuous
 62
     7
100
AcDbMText
 10
1.064675
 20
0.611936
 30
0.0
 40
0.09
 41
0.0
 71
     7
 72
     5
  1
\W01.000;3. THE 
  7
blockfont
210
0.0
220
0.0
230
1.0
 73
     2
 44
0.903614
  0
MTEXT
  5
374
100
AcDbEntity
 67
     1
  8
1
  6
Continuous
 62
     7
100
AcDbMText
 10
7.9878
 20
0.506482
 30
0.0
 40
0.059805
 41
0.0
 71
     7
 72
     5
  1
\W01.000;CHK
  7
blockfont
210
0.0
220
0.0
230
1.0
 73
     2
 44
0.903614
  0
MTEXT
  5
375
100
AcDbEntity
 67
     1
  8
1
  6
Continuous
 62
     7
100
AcDbMText
 10
1.064675
 20
1.421936
 30
0.0
 40
0.09
 41
0.0
 71
     7
 72
     5
  1
\W01.000;NOTE.
  7
blockfont
210
0.0
220
0.0
230
1.0
 73
     2
 44
0.903614
  0
MTEXT
  5
376
100
AcDbEntity
 67
     1
  8
1
  6
Continuous
 62
     7
100
AcDbMText
 10
8.39581
 20
1.073623
 30
0.0
 40
0.072
 41
0.0
 71
     7
 72
     5
  1
\W01.000;B. CHANGED DRAWING SIZE         
  7
blockfont
210
0.0
220
0.0
230
1.0
 73
     2
 44
0.903614
  0
MTEXT
  5
377
100
AcDbEntity
 67
     1
  8
1
  6
Continuous
 62
     7
100
AcDbMText
 10
12.261506
 20
0.613807
 30
0.0
 40
0.037378
 41
0.0
 71
     7
 72
     5
  1
\W01.000;CHECKED BY
  7
blockfont
210
0.0
220
0.0
230
1.0
 73
     2
 44
0.903614
  0
MTEXT
  5
378
100
AcDbEntity
 67
     1
  8
1
  6
Continuous
 62
     7
100
AcDbMText
 10
0.95931
 20
4.669275
 30
0.0
 40
0.09
 41
0.0
 71
     7
 72
     5
  1
\W01.000;1.8
  7
blockfont
210
0.0
220
0.0
230
1.0
 73
     2
 44
0.903614
  0
MTEXT
  5
379
100
AcDbEntity
 67
     1
  8
1
  6
Continuous
 62
     7
100
AcDbMText
 10
2.366643
 20
6.333304
 30
0.0
 40
0.09
 41
0.0
 71
     7
 72
     5
  1
\W01.000;1.75
  7
blockfont
210
0.0
220
0.0
230
1.0
 73
     2
 44
0.903614
  0
MTEXT
  5
37A
100
AcDbEntity
 67
     1
  8
1
  6
Continuous
 62
     7
100
AcDbMText
 10
14.549612
 20
0.881436
 30
0.0
 40
0.037378
 41
0.0
 71
     7
 72
     5
  1
\W01.000;DRAWING NO.
  7
blockfont
210
0.0
220
0.0
230
1.0
 73
     2
 44
0.903614
  0
MTEXT
  5
37B
100
AcDbEntity
 67
     1
  8
1
  6
Continuous
 62
     7
100
AcDbMText
 10
13.346728
 20
6.47149
 30
0.0
 40
0.09
 41
0.0
 71
     7
 72
     5
  1
\W01.000;          C1.5**6
  7
blockfont
210
0.0
220
0.0
230
1.0
 73
     2
 44
0.903614
  0
MTEXT
  5
37C
100
AcDbEntity
 67
     1
  8
1
  6
Continuous
 62
     7
100
AcDbMText
 10
13.448734
 20
1.256841
 30
0.0
 40
0.09
 41
0.0
 71
     7
 72
     5
  1
\W01.000;MARKETING DRAWING
  7
blockfont
210
0.0
220
0.0
230
1.0
 73
     2
 44
0.903614
  0
MTEXT
  5
37D
100
AcDbEntity
 67
     1
  8
1
  6
Continuous
 62
     7
100
AcDbMText
 10
16.149535
 20
2.5678
 30
0.0
 40
0.09
 41
0.0
 71
     7
 72
     5
  1
\W01.000;B
  7
blockfont
210
0.0
220
0.0
230
1.0
 73
     2
 44
0.903614
  0
MTEXT
  5
37E
100
AcDbEntity
 67
     1
  8
1
  6
Continuous
 62
     7
100
AcDbMText
 10
1.064675
 20
1.151936
 30
0.0
 40
0.09
 41
0.0
 71
     7
 72
     5
  1
\W01.000;1. ALL DIMENSIONS ARE REFERENCE ONLY.
  7
blockfont
210
0.0
220
0.0
230
1.0
 73
     2
 44
0.903614
  0
MTEXT
  5
37F
100
AcDbEntity
 67
     1
  8
1
  6
Continuous
 62
     7
100
AcDbMText
 10
15.934196
 20
8.644777
 30
0.0
 40
0.09
 41
0.0
 71
     7
 72
     5
  1
\W01.000;A
  7
blockfont
210
0.0
220
0.0
230
1.0
 73
     2
 44
0.903614
  0
MTEXT
  5
380
100
AcDbEntity
 67
     1
  8
1
  6
Continuous
 62
     7
100
AcDbMText
 10
14.623236
 20
0.607277
 30
0.0
 40
0.125
 41
0.0
 71
     7
 72
     5
  1
\W01.000;36897-888
  7
blockfont
210
0.0
220
0.0
230
1.0
 73
     2
 44
0.903614
  0
MTEXT
  5
381
100
AcDbEntity
 67
     1
  8
1
  6
Continuous
 62
     7
100
AcDbMText
 10
3.714179
 20
5.095027
 30
0.0
 40
0.09
 41
0.0
 71
     7
 72
     5
  1
\W01.000;1.62
  7
blockfont
210
0.0
220
0.0
230
1.0
 73
     2
 44
0.903614
  0
MTEXT
  5
382
100
AcDbEntity
 67
     1
  8
1
  6
Continuous
 62
     7
100
AcDbMText
 10
13.346728
 20
6.606491
 30
0.0
 40
0.09
 41
0.0
 71
     7
 72
     5
  1
\W01.000;COVER - PART NUMBER
  7
blockfont
210
0.0
220
0.0
230
1.0
 73
     2
 44
0.903614
  0
MTEXT
  5
383
100
AcDbEntity
 67
     1
  8
1
  6
Continuous
 62
     7
100
AcDbMText
 10
3.753554
 20
4.875652
 30
0.0
 40
0.09
 41
0.0
 71
     7
 72
     5
  1
\W01.000;41.1
  7
blockfont
210
0.0
220
0.0
230
1.0
 73
     2
 44
0.903614
  0
MTEXT
  5
384
100
AcDbEntity
 67
     1
  8
1
  6
Continuous
 62
     7
100
AcDbMText
 10
13.324955
 20
2.275784
 30
0.0
 40
0.09
 41
0.0
 71
     7
 72
     5
  1
\W01.000;FS1.5X1.5(36897-888)_01.prt
  7
blockfont
210
0.0
220
0.0
230
1.0
 73
     2
 44
0.903614
  0
MTEXT
  5
385
100
AcDbEntity
 67
     1
  8
1
  6
Continuous
 62
     7
100
AcDbMText
 10
8.39581
 20
0.965623
 30
0.0
 40
0.072
 41
0.0
 71
     7
 72
     5
  1
\W01.000;A. ADDED SIDE & TOP VIEWS, LABELS, AND NOTE
  7
blockfont
210
0.0
220
0.0
230
1.0
 73
     2
 44
0.903614
  0
MTEXT
  5
386
100
AcDbEntity
 67
     1
  8
1
  6
Continuous
 62
     7
100
AcDbMText
 10
9.860338
 20
0.506482
 30
0.0
 40
0.059805
 41
0.0
 71
     7
 72
     5
  1
\W01.000;DESCRIPTION
  7
blockfont
210
0.0
220
0.0
230
1.0
 73
     2
 44
0.903614
  0
MTEXT
  5
387
100
AcDbEntity
 67
     1
  8
1
  6
Continuous
 62
     7
100
AcDbMText
 10
16.106665
 20
0.481825
 30
0.0
 40
0.037378
 41
0.0
 71
     7
 72
     5
  1
\W01.000;SIZE
  7
blockfont
210
0.0
220
0.0
230
1.0
 73
     2
 44
0.903614
  0
MTEXT
  5
388
100
AcDbEntity
 67
     1
  8
1
  6
Continuous
 62
     7
100
AcDbMText
 10
7.12561
 20
0.496674
 30
0.0
 40
0.059805
 41
0.0
 71
     7
 72
     5
  1
\W01.000;DATE
  7
blockfont
210
0.0
220
0.0
230
1.0
 73
     2
 44
0.903614
  0
MTEXT
  5
389
100
AcDbEntity
 67
     1
  8
1
  6
Continuous
 62
     7
100
AcDbMText
 10
7.648345
 20
1.02569
 30
0.0
 40
0.067
 41
0.0
 71
     7
 72
     5
  1
\W01.000;JCST
  7
blockfont
210
0.0
220
0.0
230
1.0
 73
     2
 44
0.903614
  0
MTEXT
  5
38A
100
AcDbEntity
 67
     1
  8
1
  6
Continuous
 62
     7
100
AcDbMText
 10
2.143362
 20
0.611936
 30
0.0
 40
0.09
 41
0.0
 71
     7
 72
     5
  1
\W01.000; DENOTE COLOR.
  7
blockfont
210
0.0
220
0.0
230
1.0
 73
     2
 44
0.903614
  0
MTEXT
  5
38B
100
AcDbEntity
 67
     1
  8
1
  6
Continuous
 62
     7
100
AcDbMText
 10
11.15075
 20
3.744354
 30
0.0
 40
0.09
 41
0.0
 71
     7
 72
     5
  1
\W01.000;DUCT - PART NUMBER
  7
blockfont
210
0.0
220
0.0
230
1.0
 73
     2
 44
0.903614
  0
MTEXT
  5
38C
100
AcDbEntity
 67
     1
  8
1
  6
Continuous
 62
     7
100
AcDbMText
 10
1.064675
 20
0.881936
 30
0.0
 40
0.09
 41
0.0
 71
     7
 72
     5
  1
\W01.000;2. DIMENSIONS IN PARENTHESES ARE METRIC.
  7
blockfont
210
0.0
220
0.0
230
1.0
 73
     2
 44
0.903614
  0
MTEXT
  5
38D
100
AcDbEntity
 67
     1
  8
1
  6
Continuous
 62
     7
100
AcDbMText
 10
14.289995
 20
1.790397
 30
0.0
 40
0.074756
 41
0.0
 71
     7
 72
     5
  1
\W01.000;CORP.
  7
blockfont
210
0.0
220
0.0
230
1.0
 73
     2
 44
0.903614
  0
MTEXT
  5
38E
100
AcDbEntity
 67
     1
  8
1
  6
Continuous
 62
     7
100
AcDbMText
 10
12.287075
 20
1.718164
 30
0.0
 40
0.336401
 41
0.0
 71
     7
 72
     5
  1
\W01.000;P
  7
blockfont
210
0.0
220
0.0
230
1.0
 73
     2
 44
0.903614
  0
MTEXT
  5
38F
100
AcDbEntity
 67
     1
  8
1
  6
Continuous
 62
     7
100
AcDbMText
 10
7.648345
 20
0.77569
 30
0.0
 40
0.067
 41
0.0
 71
     7
 72
     5
  1
\W01.000;JHNU
  7
blockfont
210
0.0
220
0.0
230
1.0
 73
     2
 44
0.903614
  0
MTEXT
  5
390
100
AcDbEntity
 67
     1
  8
1
  6
Continuous
 62
     7
100
AcDbMText
 10
13.752103
 20
1.382997
 30
0.0
 40
0.115
 41
0.0
 71
     7
 72
     5
  1
\W01.000;1.5 x 1.5
  7
blockfont
210
0.0
220
0.0
230
1.0
 73
     2
 44
0.903614
  0
MTEXT
  5
391
100
AcDbEntity
 67
     1
  8
1
  6
Continuous
 62
     7
100
AcDbMText
 10
15.612833
 20
5.565052
 30
0.0
 40
0.09
 41
0.0
 71
     7
 72
     5
  1
\W01.000;A
  7
blockfont
210
0.0
220
0.0
230
1.0
 73
     2
 44
0.903614
  0
MTEXT
  5
392
100
AcDbEntity
 67
     1
  8
1
  6
Continuous
 62
     7
100
AcDbMText
 10
12.391632
 20
1.025985
 30
0.0
 40
0.072
 41
0.0
 71
     7
 72
     5
  1
\W01.000;JHNU
  7
blockfont
210
0.0
220
0.0
230
1.0
 73
     2
 44
0.903614
  0
MTEXT
  5
393
100
AcDbEntity
 67
     1
  8
1
  6
Continuous
 62
     7
100
AcDbMText
 10
15.327177
 20
6.519097
 30
0.0
 40
0.09
 41
0.0
 71
     7
 72
     5
  1
\W01.000;A
  7
blockfont
210
0.0
220
0.0
230
1.0
 73
     2
 44
0.903614
  0
MTEXT
  5
394
100
AcDbEntity
 67
     1
  8
1
  6
Continuous
 62
     7
100
AcDbMText
 10
8.749774
 20
10.453232
 30
0.0
 40
0.070866
 41
0.0
 71
     7
 72
     5
  1
\W01.000;RESTS OF PANDUIT CORP.
  7
blockfont
210
0.0
220
0.0
230
1.0
 73
     2
 44
0.903614
  0
MTEXT
  5
395
100
AcDbEntity
 67
     1
  8
1
  6
Continuous
 62
     7
100
AcDbMText
 10
16.123362
 20
0.864938
 30
0.0
 40
0.037378
 41
0.0
 71
     7
 72
     5
  1
\W01.000;DWG
  7
blockfont
210
0.0
220
0.0
230
1.0
 73
     2
 44
0.903614
  0
MTEXT
  5
396
100
AcDbEntity
 67
     1
  8
1
  6
Continuous
 62
     7
100
AcDbMText
 10
1.751112
 20
0.582873
 30
0.0
 40
0.18
 41
0.0
 71
     7
 72
     5
  1
\W01.000;**
  7
blockfont
210
0.0
220
0.0
230
1.0
 73
     2
 44
0.903614
  0
MTEXT
  5
397
100
AcDbEntity
 67
     1
  8
1
  6
Continuous
 62
     7
100
AcDbMText
 10
14.543476
 20
1.138067
 30
0.0
 40
0.037378
 41
0.0
 71
     7
 72
     5
  1
\W01.000;SCALE
  7
blockfont
210
0.0
220
0.0
230
1.0
 73
     2
 44
0.903614
  0
MTEXT
  5
398
100
AcDbEntity
 67
     1
  8
1
  6
Continuous
 62
     7
100
AcDbMText
 10
7.055187
 20
0.78145
 30
0.0
 40
0.06
 41
0.0
 71
     7
 72
     5
  1
\W01.000;10-2-03
  7
blockfont
210
0.0
220
0.0
230
1.0
 73
     2
 44
0.903614
  0
MTEXT
  5
399
100
AcDbEntity
 67
     1
  8
1
  6
Continuous
 62
     7
100
AcDbMText
 10
12.430857
 20
0.510072
 30
0.0
 40
0.072
 41
0.0
 71
     7
 72
     5
  1
\W01.000;JGG
  7
blockfont
210
0.0
220
0.0
230
1.0
 73
     2
 44
0.903614
  0
MTEXT
  5
39A
100
AcDbEntity
 67
     1
  8
1
  6
Continuous
 62
     7
100
AcDbMText
 10
12.260868
 20
0.8961
 30
0.0
 40
0.037378
 41
0.0
 71
     7
 72
     5
  1
\W01.000;DATE
  7
blockfont
210
0.0
220
0.0
230
1.0
 73
     2
 44
0.903614
  0
MTEXT
  5
39B
100
AcDbEntity
 67
     1
  8
1
  6
Continuous
 62
     7
100
AcDbMText
 10
13.166906
 20
3.640223
 30
0.0
 40
0.09
 41
0.0
 71
     7
 72
     5
  1
\W01.000;A
  7
blockfont
210
0.0
220
0.0
230
1.0
 73
     2
 44
0.903614
  0
MTEXT
  5
39C
100
AcDbEntity
 67
     1
  8
1
  6
Continuous
 62
     7
100
AcDbMText
 10
4.893146
 20
4.81901
 30
0.0
 40
0.09
 41
0.0
 71
     7
 72
     5
  1
\W01.000;38.3
  7
blockfont
210
0.0
220
0.0
230
1.0
 73
     2
 44
0.903614
  0
MTEXT
  5
39D
100
AcDbEntity
 67
     1
  8
1
  6
Continuous
 62
     7
100
AcDbMText
 10
12.311009
 20
1.555497
 30
0.0
 40
0.115
 41
0.0
 71
     7
 72
     5
  1
\W01.000;WIRING DUCT - TYPE FS WITH COVER
  7
blockfont
210
0.0
220
0.0
230
1.0
 73
     2
 44
0.903614
  0
MTEXT
  5
39E
100
AcDbEntity
 67
     1
  8
1
  6
Continuous
 62
     7
100
AcDbMText
 10
12.538276
 20
1.749781
 30
0.0
 40
0.261645
 41
0.0
 71
     7
 72
     5
  1
\W01.000;ANDUIT
  7
blockfont
210
0.0
220
0.0
230
1.0
 73
     2
 44
0.903614
  0
MTEXT
  5
39F
100
AcDbEntity
 67
     1
  8
1
  6
Continuous
 62
     7
100
AcDbMText
 10
1.028333
 20
10.453232
 30
0.0
 40
0.070866
 41
0.0
 71
     7
 72
     5
  1
\W01.000;THIS COPY IS PROVIDED ON A RESTRICTED BASIS AND IS NOT TO BE USED IN ANY WAY DETRIMENTAL TO THE INTE
  7
blockfont
210
0.0
220
0.0
230
1.0
 73
     2
 44
0.903614
  0
MTEXT
  5
3A0
100
AcDbEntity
 67
     1
  8
1
  6
Continuous
 62
     7
100
AcDbMText
 10
14.81818
 20
1.796432
 30
0.0
 40
0.056067
 41
0.0
 71
     7
 72
     5
  1
\W01.000;TINLEY PARK, ILLINOIS
  7
blockfont
210
0.0
220
0.0
230
1.0
 73
     2
 44
0.903614
  0
MTEXT
  5
3A1
100
AcDbEntity
 67
     1
  8
1
  6
Continuous
 62
     7
100
AcDbMText
 10
7.022499
 20
1.03145
 30
0.0
 40
0.06
 41
0.0
 71
     7
 72
     5
  1
\W01.000;10-20-05
  7
blockfont
210
0.0
220
0.0
230
1.0
 73
     2
 44
0.903614
  0
MTEXT
  5
3A2
100
AcDbEntity
 67
     1
  8
1
  6
Continuous
 62
     7
100
AcDbMText
 10
13.053443
 20
1.075821
 30
0.0
 40
0.056067
 41
0.0
 71
     7
 72
     5
  1
\W01.000;MAT'L:
  7
blockfont
210
0.0
220
0.0
230
1.0
 73
     2
 44
0.903614
  0
MTEXT
  5
3A3
100
AcDbEntity
 67
     1
  8
1
  6
Continuous
 62
     7
100
AcDbMText
 10
2.406018
 20
6.113929
 30
0.0
 40
0.09
 41
0.0
 71
     7
 72
     5
  1
\W01.000;44.4
  7
blockfont
210
0.0
220
0.0
230
1.0
 73
     2
 44
0.903614
  0
MTEXT
  5
3A4
100
AcDbEntity
 67
     1
  8
1
  6
Continuous
 62
     7
100
AcDbMText
 10
15.299307
 20
0.98737
 30
0.0
 40
0.125
 41
0.0
 71
     7
 72
     5
  1
\W01.000;FULL
  7
blockfont
210
0.0
220
0.0
230
1.0
 73
     2
 44
0.903614
  0
MTEXT
  5
3A5
100
AcDbEntity
 67
     1
  8
1
  6
Continuous
 62
     7
100
AcDbMText
 10
0.919935
 20
4.88865
 30
0.0
 40
0.09
 41
0.0
 71
     7
 72
     5
  1
\W01.000;.07
  7
blockfont
210
0.0
220
0.0
230
1.0
 73
     2
 44
0.903614
  0
MTEXT
  5
3A6
100
AcDbEntity
 67
     1
  8
1
  6
Continuous
 62
     7
100
AcDbMText
 10
8.39581
 20
0.769623
 30
0.0
 40
0.072
 41
0.0
 71
     7
 72
     5
  1
\W01.000;DRAWING RELEASED
  7
blockfont
210
0.0
220
0.0
230
1.0
 73
     2
 44
0.903614
  0
MTEXT
  5
3A7
100
AcDbEntity
 67
     1
  8
1
  6
Continuous
 62
     7
100
AcDbMText
 10
12.258039
 20
2.406414
 30
0.0
 40
0.037378
 41
0.0
 71
     7
 72
     5
  1
\W01.000;CAD FILENAME/LAYERS
  7
blockfont
210
0.0
220
0.0
230
1.0
 73
     2
 44
0.903614
  0
MTEXT
  5
3A8
100
AcDbEntity
 67
     1
  8
1
  6
Continuous
 62
     7
100
AcDbMText
 10
7.952368
 20
1.02569
 30
0.0
 40
0.067
 41
0.0
 71
     7
 72
     5
  1
\W01.000;MKBE
  7
blockfont
210
0.0
220
0.0
230
1.0
 73
     2
 44
0.903614
  0
MTEXT
  5
3A9
100
AcDbEntity
 67
     1
  8
1
  6
Continuous
 62
     7
100
AcDbMText
 10
4.853771
 20
5.038385
 30
0.0
 40
0.09
 41
0.0
 71
     7
 72
     5
  1
\W01.000;1.51
  7
blockfont
210
0.0
220
0.0
230
1.0
 73
     2
 44
0.903614
  0
MTEXT
  5
3AA
100
AcDbEntity
 67
     1
  8
1
  6
Continuous
 62
     7
100
AcDbMText
 10
0.794442
 20
1.338797
 30
0.0
 40
0.09
 41
0.0
 71
     7
 72
     5
  1
\W01.000;A
  7
blockfont
210
0.0
220
0.0
230
1.0
 73
     2
 44
0.903614
  0
MTEXT
  5
3AB
100
AcDbEntity
 67
     1
  8
1
  6
Continuous
 62
     7
100
AcDbMText
 10
6.634647
 20
0.500068
 30
0.0
 40
0.059805
 41
0.0
 71
     7
 72
     5
  1
\W01.000;REV
  7
blockfont
210
0.0
220
0.0
230
1.0
 73
     2
 44
0.903614
  0
MTEXT
  5
3AC
100
AcDbEntity
 67
     1
  8
1
  6
Continuous
 62
     7
100
AcDbMText
 10
12.323958
 20
0.775985
 30
0.0
 40
0.072
 41
0.0
 71
     7
 72
     5
  1
\W01.000;10-2-03
  7
blockfont
210
0.0
220
0.0
230
1.0
 73
     2
 44
0.903614
  0
MTEXT
  5
3AD
100
AcDbEntity
 67
     1
  8
1
  6
Continuous
 62
     7
100
AcDbMText
 10
13.722902
 20
0.793422
 30
0.0
 40
0.09
 41
0.0
 71
     7
 72
     5
  1
\W01.000;PVC
  7
blockfont
210
0.0
220
0.0
230
1.0
 73
     2
 44
0.903614
  0
MTEXT
  5
3AE
100
AcDbEntity
 67
     1
  8
1
  6
Continuous
 62
     7
100
AcDbMText
 10
7.718938
 20
0.500068
 30
0.0
 40
0.059805
 41
0.0
 71
     7
 72
     5
  1
\W01.000;BY
  7
blockfont
210
0.0
220
0.0
230
1.0
 73
     2
 44
0.903614
  0
MTEXT
  5
3AF
100
AcDbEntity
 67
     1
  8
1
  6
Continuous
 62
     7
100
AcDbMText
 10
12.261904
 20
1.145399
 30
0.0
 40
0.037378
 41
0.0
 71
     7
 72
     5
  1
\W01.000;DRAWN BY
  7
blockfont
210
0.0
220
0.0
230
1.0
 73
     2
 44
0.903614
  0
MTEXT
  5
3B0
100
AcDbEntity
 67
     1
  8
1
  6
Continuous
 62
     7
100
AcDbMText
 10
2.366643
 20
3.848073
 30
0.0
 40
0.09
 41
0.0
 71
     7
 72
     5
  1
\W01.000;1.75
  7
blockfont
210
0.0
220
0.0
230
1.0
 73
     2
 44
0.903614
  0
ENDSEC
  0
SECTION
  2
OBJECTS
  0
DICTIONARY
  5
19
100
AcDbDictionary
280
     0
281
     1
  3
ACAD_GROUP
350
1A
  3
ACAD_MLINESTYLE
350
1B
  3
ACAD_LAYOUT
350
1E
  3
ACAD_PLOTSETTINGS
350
21
  3
ACAD_PLOTSTYLENAME
350
1F
  0
DICTIONARY
  5
1A
102
{ACAD_REACTORS
330
19
102
}
100
AcDbDictionary
280
     0
281
     1
  0
DICTIONARY
  5
1B
102
{ACAD_REACTORS
330
19
102
}
100
AcDbDictionary
280
     0
281
     1
  3
Standard
350
1C
  0
MLINESTYLE
  5
1C
102
{ACAD_REACTORS
330
1B
102
}
100
AcDbMlineStyle
  2
Standard
 70
     0
  3

 62
     0
 51
90.0
 52
90.0
 71
     2
 49
0.5
 62
   256
  6
BYLAYER
 49
-0.5
 62
   256
  6
BYLAYER
  0
ACDBDICTIONARYWDFLT
  5
1F
102
{ACAD_REACTORS
330
19
102
}
100
AcDbDictionary
281
     1
  3
Normal
350
1D
100
AcDbDictionaryWithDefault
340
1D
  0
ACDBPLACEHOLDER
  5
1D
102
{ACAD_REACTORS
330
1F
102
}
  0
LAYOUT
  5
20
102
{ACAD_REACTORS
330
1E
102
}
100
AcDbPlotSettings
  1

  2

  4

  6

 40
0.0
 41
0.0
 42
0.0
 43
0.0
 44
0.0
 45
0.0
 46
0.0
 47
0.0
 48
0.0
 49
0.0
140
0.0
141
0.0
142
1.0
143
1.0
 70
  1024
 72
     0
 73
     0
 74
     0
  7

 75
     0
147
1.0
148
0.0
149
0.0
100
AcDbLayout
  1
Model
 70
     0
 71
     0
 10
0.0
 20
0.0
 11
0.0
 21
0.0
 12
0.0
 22
0.0
 32
0.0
 14
0.0
 24
0.0
 34
0.0
 15
0.0
 25
0.0
 35
0.0
146
0.0
 13
0.0
 23
0.0
 33
0.0
 16
0.0
 26
0.0
 36
0.0
 17
0.0
 27
0.0
 37
0.0
 76
     0
330
A
331
0
345
0
346
0
  0
DICTIONARY
  5
1E
102
{ACAD_REACTORS
330
19
102
}
100
AcDbDictionary
280
     0
281
     1
  3
Model
350
20
  3
36897-888
350
3B1
  0
DICTIONARY
  5
21
102
{ACAD_REACTORS
330
19
102
}
100
AcDbDictionary
280
     0
281
     1
  0
LAYOUT
  5
3B1
102
{ACAD_REACTORS
330
1E
102
}
100
AcDbPlotSettings
  1

  2

  4

  6

 40
0.0
 41
0.0
 42
0.0
 43
0.0
 44
0.0
 45
0.0
 46
0.0
 47
0.0
 48
0.0
 49
0.0
140
0.0
141
0.0
142
1.0
143
1.0
 70
     0
 72
     0
 73
     0
 74
     0
  7

 75
     0
147
1.0
148
0.0
149
0.0
100
AcDbLayout
  1
36897-888
 70
     0
 71
     1
 10
0.0
 20
0.0
 11
0.0
 21
0.0
 12
0.0
 22
0.0
 32
0.0
 14
0.0
 24
0.0
 34
0.0
 15
0.0
 25
0.0
 35
0.0
146
0.0
 13
0.0
 23
0.0
 33
0.0
 16
0.0
 26
0.0
 36
0.0
 17
0.0
 27
0.0
 37
0.0
 76
     0
330
B
331
30
345
0
346
0
  0
ENDSEC
  0
EOF
